  0
SECTION
  2
HEADER
  9
$ACADVER
  1
AC1024
  9
$ACADMAINTVER
 70
     6
  9
$DWGCODEPAGE
  3
ANSI_932
  9
$INSBASE
 10
0.0
 20
0.0
 30
0.0
  9
$EXTMIN
 10
-6300.0
 20
-4455.0
 30
0.0
  9
$EXTMAX
 10
6300.0
 20
4455.0
 30
0.0
  9
$LIMMIN
 10
-6300.0
 20
-4455.0
  9
$LIMMAX
 10
6300.0
 20
4455.0
  9
$ORTHOMODE
 70
     0
  9
$REGENMODE
 70
     1
  9
$FILLMODE
 70
     1
  9
$QTEXTMODE
 70
     0
  9
$MIRRTEXT
 70
     1
  9
$LTSCALE
 40
30.0
  9
$ATTMODE
 70
     1
  9
$TEXTSIZE
 40
2.5
  9
$TRACEWID
 40
1.0
  9
$TEXTSTYLE
  7
Standard
  9
$CLAYER
  8
0
  9
$CELTYPE
  6
ByLayer
  9
$CECOLOR
 62
   256
  9
$CELTSCALE
 40
1.0
  9
$DISPSILH
 70
     0
  9
$DIMSCALE
 40
1.0
  9
$DIMASZ
 40
2.5
  9
$DIMEXO
 40
0.625
  9
$DIMDLI
 40
3.75
  9
$DIMRND
 40
0.0
  9
$DIMDLE
 40
0.0
  9
$DIMEXE
 40
1.25
  9
$DIMTP
 40
0.0
  9
$DIMTM
 40
0.0
  9
$DIMTXT
 40
2.5
  9
$DIMCEN
 40
2.5
  9
$DIMTSZ
 40
0.0
  9
$DIMTOL
 70
     0
  9
$DIMLIM
 70
     0
  9
$DIMTIH
 70
     0
  9
$DIMTOH
 70
     0
  9
$DIMSE1
 70
     0
  9
$DIMSE2
 70
     0
  9
$DIMTAD
 70
     1
  9
$DIMZIN
 70
     8
  9
$DIMBLK
  1

  9
$DIMASO
 70
     1
  9
$DIMSHO
 70
     1
  9
$DIMPOST
  1

  9
$DIMAPOST
  1

  9
$DIMALT
 70
     0
  9
$DIMALTD
 70
     3
  9
$DIMALTF
 40
0.03937007874016
  9
$DIMLFAC
 40
1.0
  9
$DIMTOFL
 70
     1
  9
$DIMTVP
 40
0.0
  9
$DIMTIX
 70
     0
  9
$DIMSOXD
 70
     0
  9
$DIMSAH
 70
     0
  9
$DIMBLK1
  1

  9
$DIMBLK2
  1

  9
$DIMSTYLE
  2
ISO-25
  9
$DIMCLRD
 70
     0
  9
$DIMCLRE
 70
     0
  9
$DIMCLRT
 70
     0
  9
$DIMTFAC
 40
1.0
  9
$DIMGAP
 40
0.625
  9
$DIMJUST
 70
     0
  9
$DIMSD1
 70
     0
  9
$DIMSD2
 70
     0
  9
$DIMTOLJ
 70
     0
  9
$DIMTZIN
 70
     8
  9
$DIMALTZ
 70
     0
  9
$DIMALTTZ
 70
     0
  9
$DIMUPT
 70
     0
  9
$DIMDEC
 70
     2
  9
$DIMTDEC
 70
     2
  9
$DIMALTU
 70
     2
  9
$DIMALTTD
 70
     3
  9
$DIMTXSTY
  7
Standard
  9
$DIMAUNIT
 70
     0
  9
$DIMADEC
 70
     0
  9
$DIMALTRND
 40
0.0
  9
$DIMAZIN
 70
     0
  9
$DIMDSEP
 70
    44
  9
$DIMATFIT
 70
     3
  9
$DIMFRAC
 70
     0
  9
$DIMLDRBLK
  1

  9
$DIMLUNIT
 70
     2
  9
$DIMLWD
 70
    -2
  9
$DIMLWE
 70
    -2
  9
$DIMTMOVE
 70
     0
  9
$DIMFXL
 40
1.0
  9
$DIMFXLON
 70
     0
  9
$DIMJOGANG
 40
0.7853981633974483
  9
$DIMTFILL
 70
     0
  9
$DIMTFILLCLR
 70
     0
  9
$DIMARCSYM
 70
     0
  9
$DIMLTYPE
  6

  9
$DIMLTEX1
  6

  9
$DIMLTEX2
  6

  9
$DIMTXTDIRECTION
 70
     0
  9
$LUNITS
 70
     2
  9
$LUPREC
 70
     4
  9
$SKETCHINC
 40
1.0
  9
$FILLETRAD
 40
10.0
  9
$AUNITS
 70
     0
  9
$AUPREC
 70
     0
  9
$MENU
  1
.
  9
$ELEVATION
 40
0.0
  9
$PELEVATION
 40
0.0
  9
$THICKNESS
 40
0.0
  9
$LIMCHECK
 70
     0
  9
$CHAMFERA
 40
10.0
  9
$CHAMFERB
 40
10.0
  9
$CHAMFERC
 40
20.0
  9
$CHAMFERD
 40
0.0
  9
$SKPOLY
 70
     0
  9
$TDCREATE
 40
2460327.706336296
  9
$TDUCREATE
 40
2460327.331336296
  9
$TDUPDATE
 40
2460327.706336308
  9
$TDUUPDATE
 40
2460327.331336308
  9
$TDINDWG
 40
0.0000000116
  9
$TDUSRTIMER
 40
0.0000000116
  9
$USRTIMER
 70
     1
  9
$ANGBASE
 50
0.0
  9
$ANGDIR
 70
     0
  9
$PDMODE
 70
     0
  9
$PDSIZE
 40
0.0
  9
$PLINEWID
 40
0.0
  9
$SPLFRAME
 70
     0
  9
$SPLINETYPE
 70
     6
  9
$SPLINESEGS
 70
     8
  9
$HANDSEED
  5
3F2
  9
$SURFTAB1
 70
     6
  9
$SURFTAB2
 70
     6
  9
$SURFTYPE
 70
     6
  9
$SURFU
 70
     6
  9
$SURFV
 70
     6
  9
$UCSBASE
  2

  9
$UCSNAME
  2

  9
$UCSORG
 10
0.0
 20
0.0
 30
0.0
  9
$UCSXDIR
 10
1.0
 20
0.0
 30
0.0
  9
$UCSYDIR
 10
0.0
 20
1.0
 30
0.0
  9
$UCSORTHOREF
  2

  9
$UCSORTHOVIEW
 70
     0
  9
$UCSORGTOP
 10
0.0
 20
0.0
 30
0.0
  9
$UCSORGBOTTOM
 10
0.0
 20
0.0
 30
0.0
  9
$UCSORGLEFT
 10
0.0
 20
0.0
 30
0.0
  9
$UCSORGRIGHT
 10
0.0
 20
0.0
 30
0.0
  9
$UCSORGFRONT
 10
0.0
 20
0.0
 30
0.0
  9
$UCSORGBACK
 10
0.0
 20
0.0
 30
0.0
  9
$PUCSBASE
  2

  9
$PUCSNAME
  2

  9
$PUCSORG
 10
0.0
 20
0.0
 30
0.0
  9
$PUCSXDIR
 10
1.0
 20
0.0
 30
0.0
  9
$PUCSYDIR
 10
0.0
 20
1.0
 30
0.0
  9
$PUCSORTHOREF
  2

  9
$PUCSORTHOVIEW
 70
     0
  9
$PUCSORGTOP
 10
0.0
 20
0.0
 30
0.0
  9
$PUCSORGBOTTOM
 10
0.0
 20
0.0
 30
0.0
  9
$PUCSORGLEFT
 10
0.0
 20
0.0
 30
0.0
  9
$PUCSORGRIGHT
 10
0.0
 20
0.0
 30
0.0
  9
$PUCSORGFRONT
 10
0.0
 20
0.0
 30
0.0
  9
$PUCSORGBACK
 10
0.0
 20
0.0
 30
0.0
  9
$USERI1
 70
     0
  9
$USERI2
 70
     0
  9
$USERI3
 70
     0
  9
$USERI4
 70
     0
  9
$USERI5
 70
     0
  9
$USERR1
 40
0.0
  9
$USERR2
 40
0.0
  9
$USERR3
 40
0.0
  9
$USERR4
 40
0.0
  9
$USERR5
 40
0.0
  9
$WORLDVIEW
 70
     1
  9
$SHADEDGE
 70
     3
  9
$SHADEDIF
 70
    70
  9
$TILEMODE
 70
     1
  9
$MAXACTVP
 70
    64
  9
$PINSBASE
 10
0.0
 20
0.0
 30
0.0
  9
$PLIMCHECK
 70
     0
  9
$PEXTMIN
 10
1.000000000000000E+20
 20
1.000000000000000E+20
 30
1.000000000000000E+20
  9
$PEXTMAX
 10
-1.000000000000000E+20
 20
-1.000000000000000E+20
 30
-1.000000000000000E+20
  9
$PLIMMIN
 10
0.0
 20
0.0
  9
$PLIMMAX
 10
420.0
 20
297.0
  9
$UNITMODE
 70
     0
  9
$VISRETAIN
 70
     1
  9
$PLINEGEN
 70
     0
  9
$PSLTSCALE
 70
     1
  9
$TREEDEPTH
 70
  3020
  9
$CMLSTYLE
  2
Standard
  9
$CMLJUST
 70
     0
  9
$CMLSCALE
 40
20.0
  9
$PROXYGRAPHICS
 70
     1
  9
$MEASUREMENT
 70
     1
  9
$CELWEIGHT
370
    -1
  9
$ENDCAPS
280
     0
  9
$JOINSTYLE
280
     0
  9
$LWDISPLAY
290
     0
  9
$INSUNITS
 70
     4
  9
$HYPERLINKBASE
  1

  9
$STYLESHEET
  1

  9
$XEDIT
290
     1
  9
$CEPSNTYPE
380
     0
  9
$PSTYLEMODE
290
     1
  9
$FINGERPRINTGUID
  2
{239434A2-AA2B-4E50-8C4B-2664A93DF67C}
  9
$VERSIONGUID
  2
{FAEB1C32-E019-11D5-929B-00C0DF256EC4}
  9
$EXTNAMES
290
     1
  9
$PSVPSCALE
 40
0.0
  9
$OLESTARTUP
290
     0
  9
$SORTENTS
280
   127
  9
$INDEXCTL
280
     0
  9
$HIDETEXT
280
     1
  9
$XCLIPFRAME
280
     2
  9
$HALOGAP
280
     0
  9
$OBSCOLOR
 70
   257
  9
$OBSLTYPE
280
     0
  9
$INTERSECTIONDISPLAY
280
     0
  9
$INTERSECTIONCOLOR
 70
   257
  9
$DIMASSOC
280
     2
  9
$PROJECTNAME
  1

  9
$CAMERADISPLAY
290
     0
  9
$LENSLENGTH
 40
50.0
  9
$CAMERAHEIGHT
 40
0.0
  9
$STEPSPERSEC
 40
2.0
  9
$STEPSIZE
 40
6.0
  9
$3DDWFPREC
 40
2.0
  9
$PSOLWIDTH
 40
5.0
  9
$PSOLHEIGHT
 40
80.0
  9
$LOFTANG1
 40
1.570796326794897
  9
$LOFTANG2
 40
1.570796326794897
  9
$LOFTMAG1
 40
0.0
  9
$LOFTMAG2
 40
0.0
  9
$LOFTPARAM
 70
     7
  9
$LOFTNORMALS
280
     1
  9
$LATITUDE
 40
37.795
  9
$LONGITUDE
 40
-122.394
  9
$NORTHDIRECTION
 40
0.0
  9
$TIMEZONE
 70
 -8000
  9
$LIGHTGLYPHDISPLAY
280
     1
  9
$TILEMODELIGHTSYNCH
280
     1
  9
$SOLIDHIST
280
     1
  9
$SHOWHIST
280
     1
  9
$DWFFRAME
280
     2
  9
$DGNFRAME
280
     2
  9
$REALWORLDSCALE
290
     1
  9
$INTERFERECOLOR
 62
   256
  9
$CSHADOW
280
     0
  9
$SHADOWPLANELOCATION
 40
0.0
  0
ENDSEC
  0
SECTION
  2
CLASSES
  0
CLASS
  1
ACDBDICTIONARYWDFLT
  2
AcDbDictionaryWithDefault
  3
ObjectDBX Classes
 90
        0
 91
        4
280
     0
281
     0
  0
CLASS
  1
VISUALSTYLE
  2
AcDbVisualStyle
  3
ObjectDBX Classes
 90
     4095
 91
        4
280
     0
281
     0
  0
CLASS
  1
MATERIAL
  2
AcDbMaterial
  3
ObjectDBX Classes
 90
     1153
 91
        4
280
     0
281
     0
  0
ENDSEC
  0
SECTION
  2
TABLES
  0
TABLE
  2
VPORT
  5
8
330
0
100
AcDbSymbolTable
 70
     1
  0
VPORT
  5
29
330
8
100
AcDbSymbolTableRecord
100
AcDbViewportTableRecord
  2
*Active
 70
     0
 10
0.0
 20
0.0
 11
1.0
 21
1.0
 12
0.0
 22
0.0
 13
0.0
 23
0.0
 14
10.0
 24
10.0
 15
10.0
 25
10.0
 16
0.0
 26
0.0
 36
1.0
 17
0.0
 27
0.0
 37
0.0
 40
9801.0
 41
1.414141414141414
 42
50.0
 43
0.0
 44
0.0
 50
0.0
 51
0.0
 71
     0
 72
 10000
 73
     1
 74
     3
 75
     0
 76
     0
 77
     0
 78
     0
281
     0
 65
     1
110
0.0
120
0.0
130
0.0
111
1.0
121
0.0
131
0.0
112
0.0
122
1.0
132
0.0
 79
     0
146
0.0
 60
     3
 61
     5
292
     1
282
     1
141
0.0
142
0.0
 63
   250
  0
ENDTAB
  0
TABLE
  2
LTYPE
  5
5
330
0
100
AcDbSymbolTable
 70
     4
  0
LTYPE
  5
14
330
5
100
AcDbSymbolTableRecord
100
AcDbLinetypeTableRecord
  2
ByBlock
 70
     0
  3

 72
    65
 73
     0
 40
0.0
  0
LTYPE
  5
15
330
5
100
AcDbSymbolTableRecord
100
AcDbLinetypeTableRecord
  2
ByLayer
 70
     0
  3

 72
    65
 73
     0
 40
0.0
  0
LTYPE
  5
16
330
5
100
AcDbSymbolTableRecord
100
AcDbLinetypeTableRecord
  2
Continuous
 70
     0
  3
Solid line
 72
    65
 73
     0
 40
0.0
  0
LTYPE
  5
3F
330
5
100
AcDbSymbolTableRecord
100
AcDbLinetypeTableRecord
  2
JWW_HOJO
 70
     0
  3
  -   -   -   -   -   -   -   - 
 72
    65
 73
     2
 40
1.693333333333333
 49
-1.27
 74
     0
 49
0.4233333333333333
 74
     0
  0
LTYPE
  5
40
330
5
100
AcDbSymbolTableRecord
100
AcDbLinetypeTableRecord
  2
JWW_CENTER1
 70
     0
  3
-----  --  ----------  --  -----
 72
    65
 73
     4
 40
6.773333333333333
 49
4.233333333333333
 74
     0
 49
-0.8466666666666667
 74
     0
 49
0.8466666666666667
 74
     0
 49
-0.8466666666666667
 74
     0
  0
LTYPE
  5
41
330
5
100
AcDbSymbolTableRecord
100
AcDbLinetypeTableRecord
  2
JWW_DASHED1
 70
     0
  3
-  --  --  --  --  --  --  --  -
 72
    65
 73
     2
 40
1.693333333333333
 49
0.8466666666666667
 74
     0
 49
-0.8466666666666667
 74
     0
  0
ENDTAB
  0
TABLE
  2
LAYER
  5
2
330
0
100
AcDbSymbolTable
 70
    13
  0
LAYER
  5
10
330
2
100
AcDbSymbolTableRecord
100
AcDbLayerTableRecord
  2
0
 70
     0
 62
     7
  6
Continuous
370
    -3
390
F
347
3E
  0
LAYER
  5
42
330
2
100
AcDbSymbolTableRecord
100
AcDbLayerTableRecord
  2
0-B_寸法
 70
     0
 62
     7
  6
Continuous
370
    -3
390
F
347
3E
  0
LAYER
  5
43
330
2
100
AcDbSymbolTableRecord
100
AcDbLayerTableRecord
  2
F-1_枠
 70
     0
 62
     7
  6
Continuous
370
    -3
390
F
347
3E
  0
LAYER
  5
44
330
2
100
AcDbSymbolTableRecord
100
AcDbLayerTableRecord
  2
F-0_補助線
 70
     0
 62
     7
  6
Continuous
370
    -3
390
F
347
3E
  0
LAYER
  5
45
330
2
100
AcDbSymbolTableRecord
100
AcDbLayerTableRecord
  2
F-A_文字
 70
     0
 62
     7
  6
Continuous
370
    -3
390
F
347
3E
  0
LAYER
  5
46
330
2
100
AcDbSymbolTableRecord
100
AcDbLayerTableRecord
  2
0-A_文字
 70
     0
 62
     7
  6
Continuous
370
    -3
390
F
347
3E
  0
LAYER
  5
47
330
2
100
AcDbSymbolTableRecord
100
AcDbLayerTableRecord
  2
0-0_補助線
 70
     0
 62
     7
  6
Continuous
370
    -3
390
F
347
3E
  0
LAYER
  5
48
330
2
100
AcDbSymbolTableRecord
100
AcDbLayerTableRecord
  2
0-1_通り芯
 70
     0
 62
     7
  6
Continuous
370
    -3
390
F
347
3E
  0
LAYER
  5
49
330
2
100
AcDbSymbolTableRecord
100
AcDbLayerTableRecord
  2
0-C_ハッチ
 70
     0
 62
     7
  6
Continuous
370
    -3
390
F
347
3E
  0
LAYER
  5
4A
330
2
100
AcDbSymbolTableRecord
100
AcDbLayerTableRecord
  2
0-4_枠
 70
     0
 62
     7
  6
Continuous
370
    -3
390
F
347
3E
  0
LAYER
  5
4B
330
2
100
AcDbSymbolTableRecord
100
AcDbLayerTableRecord
  2
0-7_金物
 70
     0
 62
     7
  6
Continuous
370
    -3
390
F
347
3E
  0
LAYER
  5
4C
330
2
100
AcDbSymbolTableRecord
100
AcDbLayerTableRecord
  2
0-3_仕上げ
 70
     0
 62
     7
  6
Continuous
370
    -3
390
F
347
3E
  0
LAYER
  5
4D
330
2
100
AcDbSymbolTableRecord
100
AcDbLayerTableRecord
  2
0-6_扉
 70
     0
 62
     7
  6
Continuous
370
    -3
390
F
347
3E
  0
ENDTAB
  0
TABLE
  2
STYLE
  5
3
330
0
100
AcDbSymbolTable
 70
     1
  0
STYLE
  5
11
330
3
100
AcDbSymbolTableRecord
100
AcDbTextStyleTableRecord
  2
Standard
 70
     0
 40
0.0
 41
1.0
 50
0.0
 71
     0
 42
2.5
  3
txt
  4

  0
ENDTAB
  0
TABLE
  2
VIEW
  5
6
330
0
100
AcDbSymbolTable
 70
     0
  0
ENDTAB
  0
TABLE
  2
UCS
  5
7
330
0
100
AcDbSymbolTable
 70
     0
  0
ENDTAB
  0
TABLE
  2
APPID
  5
9
330
0
100
AcDbSymbolTable
 70
     1
  0
APPID
  5
12
330
9
100
AcDbSymbolTableRecord
100
AcDbRegAppTableRecord
  2
ACAD
 70
     0
  0
ENDTAB
  0
TABLE
  2
DIMSTYLE
  5
A
330
0
100
AcDbSymbolTable
 70
     1
100
AcDbDimStyleTable
  0
DIMSTYLE
105
27
330
A
100
AcDbSymbolTableRecord
100
AcDbDimStyleTableRecord
  2
ISO-25
 70
     0
 41
2.5
 42
0.625
 43
3.75
 44
1.25
 73
     0
 74
     0
 77
     1
 78
     8
140
2.5
141
2.5
143
0.03937007874016
147
0.625
171
     3
172
     1
178
     0
271
     2
272
     2
274
     3
278
    44
283
     0
284
     8
340
11
  0
ENDTAB
  0
TABLE
  2
BLOCK_RECORD
  5
1
330
0
100
AcDbSymbolTable
 70
     1
  0
BLOCK_RECORD
  5
1F
330
1
100
AcDbSymbolTableRecord
100
AcDbBlockTableRecord
  2
*Model_Space
340
22
 70
     0
280
     1
281
     0
  0
BLOCK_RECORD
  5
1B
330
1
100
AcDbSymbolTableRecord
100
AcDbBlockTableRecord
  2
*Paper_Space
340
1E
 70
     0
280
     1
281
     0
  0
BLOCK_RECORD
  5
23
330
1
100
AcDbSymbolTableRecord
100
AcDbBlockTableRecord
  2
*Paper_Space0
340
26
 70
     0
280
     1
281
     0
  0
ENDTAB
  0
ENDSEC
  0
SECTION
  2
BLOCKS
  0
BLOCK
  5
20
330
1F
100
AcDbEntity
  8
0
100
AcDbBlockBegin
  2
*Model_Space
 70
     0
 10
0.0
 20
0.0
 30
0.0
  3
*Model_Space
  1

  0
ENDBLK
  5
21
330
1F
100
AcDbEntity
  8
0
100
AcDbBlockEnd
  0
BLOCK
  5
1C
330
1B
100
AcDbEntity
 67
     1
  8
0
100
AcDbBlockBegin
  2
*Paper_Space
 70
     0
 10
0.0
 20
0.0
 30
0.0
  3
*Paper_Space
  1

  0
ENDBLK
  5
1D
330
1B
100
AcDbEntity
 67
     1
  8
0
100
AcDbBlockEnd
  0
BLOCK
  5
24
330
23
100
AcDbEntity
  8
0
100
AcDbBlockBegin
  2
*Paper_Space0
 70
     0
 10
0.0
 20
0.0
 30
0.0
  3
*Paper_Space0
  1

  0
ENDBLK
  5
25
330
23
100
AcDbEntity
  8
0
100
AcDbBlockEnd
  0
ENDSEC
  0
SECTION
  2
ENTITIES
  0
MTEXT
  5
4E
330
1F
100
AcDbEntity
  8
0-B_寸法
  6
Continuous
 62
     7
370
     0
100
AcDbMText
 10
2993.214830081894
 20
-2413.182457270744
 30
0.0
 40
102.1976470588235
 41
1140.0
 46
0.0
 71
     7
 72
     1
  1
{\fＭＳ ゴシック|b0|i0|c128|p49;枠内＝1,142 (787)}
 11
6.123031769111886E-17
 21
1.0
 31
0.0
 73
     1
 44
1.0
  0
LINE
  5
4F
330
1F
100
AcDbEntity
  8
F-1_枠
  6
Continuous
 62
   200
370
    20
100
AcDbLine
 10
5859.917429364114
 20
-4195.000008247994
 30
0.0
 11
-5840.081085996952
 21
-4195.000008247994
 31
0.0
  0
LINE
  5
50
330
1F
100
AcDbEntity
  8
F-0_補助線
  6
JWW_HOJO
 62
   120
370
     5
100
AcDbLine
 10
-6140.081333436773
 20
-4455.0
 30
0.0
 11
-6140.081333436773
 21
4424.999604096284
 31
0.0
  0
LINE
  5
51
330
1F
100
AcDbEntity
  8
F-0_補助線
  6
JWW_HOJO
 62
   120
370
     5
100
AcDbLine
 10
-6140.081333436773
 20
4424.999604096284
 30
0.0
 11
6159.917676803936
 21
4424.999604096284
 31
0.0
  0
LINE
  5
52
330
1F
100
AcDbEntity
  8
F-0_補助線
  6
JWW_HOJO
 62
   120
370
     5
100
AcDbLine
 10
6159.917676803936
 20
4424.999604096284
 30
0.0
 11
6159.917676803936
 21
-4455.0
 31
0.0
  0
LINE
  5
53
330
1F
100
AcDbEntity
  8
F-0_補助線
  6
JWW_HOJO
 62
   120
370
     5
100
AcDbLine
 10
6159.917676803936
 20
-4455.0
 30
0.0
 11
-6140.081333436773
 21
-4455.0
 31
0.0
  0
LINE
  5
54
330
1F
100
AcDbEntity
  8
F-0_補助線
  6
JWW_HOJO
 62
     7
370
     9
100
AcDbLine
 10
1009.918254163523
 20
-3795.000003092998
 30
0.0
 11
1009.918254163523
 21
-4195.000008247994
 31
0.0
  0
LINE
  5
55
330
1F
100
AcDbEntity
  8
F-0_補助線
  6
JWW_HOJO
 62
     7
370
     9
100
AcDbLine
 10
509.9185840832865
 20
-3795.000003092998
 30
0.0
 11
509.9185840832865
 21
-4195.000008247994
 31
0.0
  0
LINE
  5
56
330
1F
100
AcDbEntity
  8
F-1_枠
  6
Continuous
 62
   200
370
    20
100
AcDbLine
 10
5859.917429364114
 20
4174.999769056166
 30
0.0
 11
5859.917429364114
 21
-4205.000164959882
 31
0.0
  0
LINE
  5
57
330
1F
100
AcDbEntity
  8
F-1_枠
  6
Continuous
 62
   200
370
    20
100
AcDbLine
 10
-5840.081317971782
 20
4174.999769056166
 30
0.0
 11
-5840.081317971782
 21
-4205.000164959882
 31
0.0
  0
LINE
  5
58
330
1F
100
AcDbEntity
  8
F-1_枠
  6
Continuous
 62
   200
370
    20
100
AcDbLine
 10
5859.917429364114
 20
-4205.000002577498
 30
0.0
 11
-5840.081085996952
 21
-4205.000002577498
 31
0.0
  0
LINE
  5
59
330
1F
100
AcDbEntity
  8
F-1_枠
  6
Continuous
 62
   200
370
    20
100
AcDbLine
 10
-5830.081323642279
 20
4174.999769056166
 30
0.0
 11
-5830.081323642279
 21
-4205.000164959882
 31
0.0
  0
LINE
  5
5A
330
1F
100
AcDbEntity
  8
F-1_枠
  6
Continuous
 62
   200
370
    20
100
AcDbLine
 10
-5835.081309208291
 20
4174.999769056166
 30
0.0
 11
-5835.081309208291
 21
-4205.000164959882
 31
0.0
  0
LINE
  5
5B
330
1F
100
AcDbEntity
  8
F-1_枠
  6
Continuous
 62
   200
370
    20
100
AcDbLine
 10
5854.917165428304
 20
4174.999769056166
 30
0.0
 11
5854.917165428304
 21
-4205.000164959882
 31
0.0
  0
LINE
  5
5C
330
1F
100
AcDbEntity
  8
F-1_枠
  6
Continuous
 62
   200
370
    20
100
AcDbLine
 10
5849.917643811961
 20
4174.999769056166
 30
0.0
 11
5849.917643811961
 21
-4205.000164959882
 31
0.0
  0
LINE
  5
5D
330
1F
100
AcDbEntity
  8
F-1_枠
  6
Continuous
 62
   200
370
    20
100
AcDbLine
 10
5859.917429364114
 20
-4199.999993814004
 30
0.0
 11
-5840.081085996952
 21
-4199.999993814004
 31
0.0
  0
LINE
  5
5E
330
1F
100
AcDbEntity
  8
F-1_枠
  6
Continuous
 62
   200
370
    20
100
AcDbLine
 10
4349.917891251784
 20
-3795.000003092998
 30
0.0
 11
4349.917891251784
 21
-4195.000008247994
 31
0.0
  0
LINE
  5
5F
330
1F
100
AcDbEntity
  8
F-1_枠
  6
Continuous
 62
   200
370
    20
100
AcDbLine
 10
2849.917396372139
 20
-3795.000003092998
 30
0.0
 11
2849.917396372139
 21
-4195.000008247994
 31
0.0
  0
LINE
  5
60
330
1F
100
AcDbEntity
  8
F-1_枠
  6
Continuous
 62
   200
370
    20
100
AcDbLine
 10
9.918542843316231
 20
-3795.000003092998
 30
0.0
 11
9.918542843316231
 21
-4195.000008247994
 31
0.0
  0
LINE
  5
61
330
1F
100
AcDbEntity
  8
F-1_枠
  6
Continuous
 62
   200
370
    20
100
AcDbLine
 10
9.918542843316231
 20
-3994.999936078046
 30
0.0
 11
5849.917643811961
 21
-3995.005364289155
 31
0.0
  0
LINE
  5
62
330
1F
100
AcDbEntity
  8
F-1_枠
  6
Continuous
 62
   200
370
    20
100
AcDbLine
 10
-5840.081085996952
 20
4174.999769056166
 30
0.0
 11
5859.917429364114
 21
4174.999769056166
 31
0.0
  0
LINE
  5
63
330
1F
100
AcDbEntity
  8
F-1_枠
  6
Continuous
 62
   200
370
    20
100
AcDbLine
 10
-5840.081085996952
 20
4164.999983504013
 30
0.0
 11
5859.917429364114
 21
4164.999983504013
 31
0.0
  0
LINE
  5
64
330
1F
100
AcDbEntity
  8
F-1_枠
  6
Continuous
 62
   200
370
    20
100
AcDbLine
 10
-5840.081085996952
 20
4169.999505120355
 30
0.0
 11
5859.917429364114
 21
4169.999505120355
 31
0.0
  0
LINE
  5
65
330
1F
100
AcDbEntity
  8
F-0_補助線
  6
JWW_HOJO
 62
     7
370
     9
100
AcDbLine
 10
-5830.081323642279
 20
-3994.99993607839
 30
0.0
 11
9.918542843316231
 21
-3994.99993607839
 31
0.0
  0
LINE
  5
66
330
1F
100
AcDbEntity
  8
F-0_補助線
  6
JWW_HOJO
 62
     7
370
     9
100
AcDbLine
 10
-5830.081323642279
 20
-3904.99993607839
 30
0.0
 11
9.918542843316231
 21
-3904.99993607839
 31
0.0
  0
LINE
  5
67
330
1F
100
AcDbEntity
  8
F-0_補助線
  6
JWW_HOJO
 62
     7
370
     9
100
AcDbLine
 10
-5830.081323642279
 20
-4084.99993607839
 30
0.0
 11
9.918542843316231
 21
-4084.99993607839
 31
0.0
  0
LINE
  5
68
330
1F
100
AcDbEntity
  8
F-0_補助線
  6
JWW_HOJO
 62
     7
370
     9
100
AcDbLine
 10
9.918408067688347
 20
-4139.999739777983
 30
0.0
 11
5849.917509036332
 21
-4140.005167989091
 31
0.0
  0
LINE
  5
69
330
1F
100
AcDbEntity
  8
F-0_補助線
  6
JWW_HOJO
 62
     7
370
     9
100
AcDbLine
 10
9.918491721639953
 20
-4049.999739778022
 30
0.0
 11
5849.917592690284
 21
-4050.005167989131
 31
0.0
  0
LINE
  5
6A
330
1F
100
AcDbEntity
  8
F-0_補助線
  6
JWW_HOJO
 62
     7
370
     9
100
AcDbLine
 10
9.918593965360003
 20
-3939.99973721807
 30
0.0
 11
5849.917694934004
 21
-3940.005165429179
 31
0.0
  0
LINE
  5
6B
330
1F
100
AcDbEntity
  8
F-0_補助線
  6
JWW_HOJO
 62
     7
370
     9
100
AcDbLine
 10
9.918677619311609
 20
-3849.999737218109
 30
0.0
 11
5849.917778587956
 21
-3850.005165429218
 31
0.0
  0
LINE
  5
6C
330
1F
100
AcDbEntity
  8
F-0_補助線
  6
JWW_HOJO
 62
     7
370
     9
100
AcDbLine
 10
2939.917396372139
 20
-3795.000003092998
 30
0.0
 11
2939.917396372139
 21
-4195.000008247994
 31
0.0
  0
LINE
  5
6D
330
1F
100
AcDbEntity
  8
F-0_補助線
  6
JWW_HOJO
 62
     7
370
     9
100
AcDbLine
 10
99.91854284331623
 20
-3795.000003092998
 30
0.0
 11
99.91854284331623
 21
-4195.000008247994
 31
0.0
  0
LINE
  5
6E
330
1F
100
AcDbEntity
  8
F-0_補助線
  6
JWW_HOJO
 62
     7
370
     9
100
AcDbLine
 10
4439.917891251784
 20
-3795.000003092998
 30
0.0
 11
4439.917891251784
 21
-4195.000008247994
 31
0.0
  0
LINE
  5
6F
330
1F
100
AcDbEntity
  8
F-1_枠
  6
Continuous
 62
   200
370
    20
100
AcDbLine
 10
5859.917429364114
 20
-3795.000003092998
 30
0.0
 11
-5840.081085996952
 21
-3795.000003092998
 31
0.0
  0
LINE
  5
70
330
1F
100
AcDbEntity
  8
F-1_枠
  6
Continuous
 62
   200
370
    20
100
AcDbLine
 10
5859.917429364114
 20
-3790.000017526987
 30
0.0
 11
-5840.081085996952
 21
-3790.000017526987
 31
0.0
  0
LINE
  5
71
330
1F
100
AcDbEntity
  8
F-0_補助線
  6
JWW_HOJO
 62
     7
370
     9
100
AcDbLine
 10
-5087.628710189611
 20
-3795.000003092999
 30
0.0
 11
-5087.628710189611
 21
-4205.000164959882
 31
0.0
  0
LINE
  5
72
330
1F
100
AcDbEntity
  8
F-0_補助線
  6
JWW_HOJO
 62
     7
370
     9
100
AcDbLine
 10
-50.08145715668377
 20
-3795.000003092998
 30
0.0
 11
-50.08145715668377
 21
-4195.000008247994
 31
0.0
  0
MTEXT
  5
73
330
1F
100
AcDbEntity
  8
F-0_補助線
  6
Continuous
 62
     7
370
     0
100
AcDbMText
 10
509.9185840832865
 20
-3946.496666872503
 30
0.0
 40
78.58125
 41
412.5
 46
0.0
 71
     7
 72
     1
  1
{\fＭＳ ゴシック|b0|i0|c128|p49;DOORETUS}
 73
     1
 44
1.0
  0
MTEXT
  5
74
330
1F
100
AcDbEntity
  8
F-0_補助線
  6
Continuous
 62
     7
370
     0
100
AcDbMText
 10
1110.209427605311
 20
-3946.734791872504
 30
0.0
 40
78.105
 41
615.0
 46
0.0
 71
     7
 72
     1
  1
{\fＭＳ ゴシック|b0|i0|c128|p49;建具納まり図}
 73
     1
 44
1.0
  0
MTEXT
  5
75
330
1F
100
AcDbEntity
  8
F-A_文字
  6
Continuous
 62
     7
370
     0
100
AcDbMText
 10
99.91854284331623
 20
-3887.139820871936
 30
0.0
 40
45.72
 41
180.0
 46
0.0
 71
     7
 72
     1
  1
{\fＭＳ ゴシック|b0|i0|c128|p49;図面名}
 73
     1
 44
1.0
  0
MTEXT
  5
76
330
1F
100
AcDbEntity
  8
F-A_文字
  6
Continuous
 62
     7
370
     0
100
AcDbMText
 10
2939.917396372139
 20
-3887.142460617774
 30
0.0
 40
45.72
 41
300.0
 46
0.0
 71
     7
 72
     1
  1
{\fＭＳ ゴシック|b0|i0|c128|p49;ＳＣＡＬＥ}
 73
     1
 44
1.0
  0
MTEXT
  5
77
330
1F
100
AcDbEntity
  8
F-A_文字
  6
Continuous
 62
     7
370
     0
100
AcDbMText
 10
4439.917891251784
 20
-3887.143854850754
 30
0.0
 40
45.72
 41
240.0
 46
0.0
 71
     7
 72
     1
  1
{\fＭＳ ゴシック|b0|i0|c128|p49;ＤＡＴＥ}
 73
     1
 44
1.0
  0
MTEXT
  5
78
330
1F
100
AcDbEntity
  8
F-A_文字
  6
Continuous
 62
     7
370
     0
100
AcDbMText
 10
2939.917396372139
 20
-4087.14246317786
 30
0.0
 40
45.72
 41
240.0
 46
0.0
 71
     7
 72
     1
  1
{\fＭＳ ゴシック|b0|i0|c128|p49;ＦＩＬＥ}
 73
     1
 44
1.0
  0
MTEXT
  5
79
330
1F
100
AcDbEntity
  8
F-A_文字
  6
Continuous
 62
     7
370
     0
100
AcDbMText
 10
4439.917891251784
 20
-4087.143857410839
 30
0.0
 40
45.72
 41
180.0
 46
0.0
 71
     7
 72
     1
  1
{\fＭＳ ゴシック|b0|i0|c128|p49;ＮＯ．}
 73
     1
 44
1.0
  0
MTEXT
  5
7A
330
1F
100
AcDbEntity
  8
F-A_文字
  6
Continuous
 62
     7
370
     0
100
AcDbMText
 10
1394.917396372138
 20
-4096.140669266149
 30
0.0
 40
45.72
 41
120.0
 46
0.0
 71
     7
 72
     1
  1
{\fＭＳ ゴシック|b0|i0|c128|p49;株式}
 73
     1
 44
1.0
  0
MTEXT
  5
7B
330
1F
100
AcDbEntity
  8
F-A_文字
  6
Continuous
 62
     7
370
     0
100
AcDbMText
 10
1604.917396372138
 20
-4164.281754523929
 30
0.0
 40
101.44125
 41
1065.0
 46
0.0
 71
     7
 72
     1
  1
{\fＭＳ ゴシック|b0|i0|c128|p49;ウッドワン・・・}
 73
     1
 44
1.0
  0
MTEXT
  5
7C
330
1F
100
AcDbEntity
  8
F-A_文字
  6
Continuous
 62
     7
370
     0
100
AcDbMText
 10
1394.917396372138
 20
-4168.140669266187
 30
0.0
 40
45.72
 41
120.0
 46
0.0
 71
     7
 72
     1
  1
{\fＭＳ ゴシック|b0|i0|c128|p49;会社}
 73
     1
 44
1.0
  0
MTEXT
  5
7D
330
1F
100
AcDbEntity
  8
F-A_文字
  6
Continuous
 62
     7
370
     0
100
AcDbMText
 10
5768.321977672939
 20
-4314.841419020919
 30
0.0
 40
68.58
 41
90.0
 46
0.0
 71
     7
 72
     1
  1
{\fＭＳ ゴシック|b0|i0|c128|p49;）}
 73
     1
 44
1.0
  0
MTEXT
  5
7E
330
1F
100
AcDbEntity
  8
F-A_文字
  6
Continuous
 62
     7
370
     0
100
AcDbMText
 10
5350.114617405298
 20
-4316.235443869856
 30
0.0
 40
68.58
 41
45.0
 46
0.0
 71
     7
 72
     1
  1
{\fＭＳ ゴシック|b0|i0|c128|p49;,}
 73
     1
 44
1.0
  0
MTEXT
  5
7F
330
1F
100
AcDbEntity
  8
F-A_文字
  6
Continuous
 62
     7
370
     0
100
AcDbMText
 10
5083.855928478601
 20
-4314.771967288282
 30
0.0
 40
74.295
 41
97.5
 46
0.0
 71
     7
 72
     1
  1
{\fＭＳ ゴシック|b0|i0|c128|p49;$y}
 73
     1
 44
1.0
  0
MTEXT
  5
80
330
1F
100
AcDbEntity
  8
F-A_文字
  6
Continuous
 62
     7
370
     0
100
AcDbMText
 10
5238.592649517422
 20
-4314.771967288282
 30
0.0
 40
74.295
 41
97.5
 46
0.0
 71
     7
 72
     1
  1
{\fＭＳ ゴシック|b0|i0|c128|p49;$m}
 73
     1
 44
1.0
  0
MTEXT
  5
81
330
1F
100
AcDbEntity
  8
F-A_文字
  6
Continuous
 62
     7
370
     0
100
AcDbMText
 10
5393.32938200033
 20
-4314.771967288282
 30
0.0
 40
74.295
 41
97.5
 46
0.0
 71
     7
 72
     1
  1
{\fＭＳ ゴシック|b0|i0|c128|p49;$d}
 73
     1
 44
1.0
  0
MTEXT
  5
82
330
1F
100
AcDbEntity
  8
F-A_文字
  6
Continuous
 62
     7
370
     0
100
AcDbMText
 10
5548.066114483239
 20
-4314.771967288282
 30
0.0
 40
74.295
 41
195.0
 46
0.0
 71
     7
 72
     1
  1
{\fＭＳ ゴシック|b0|i0|c128|p49;印刷}
 73
     1
 44
1.0
  0
MTEXT
  5
83
330
1F
100
AcDbEntity
  8
F-A_文字
  6
Continuous
 62
     7
370
     0
100
AcDbMText
 10
4943.952040816226
 20
-4319.023493567732
 30
0.0
 40
68.58
 41
90.0
 46
0.0
 71
     7
 72
     1
  1
{\fＭＳ ゴシック|b0|i0|c128|p49;（}
 73
     1
 44
1.0
  0
MTEXT
  5
84
330
1F
100
AcDbEntity
  8
F-A_文字
  6
Continuous
 62
     7
370
     0
100
AcDbMText
 10
5191.195810375571
 20
-4319.023493567732
 30
0.0
 40
68.58
 41
45.0
 46
0.0
 71
     7
 72
     1
  1
{\fＭＳ ゴシック|b0|i0|c128|p49;,}
 73
     1
 44
1.0
  0
MTEXT
  5
85
330
1F
100
AcDbEntity
  8
F-A_文字
  6
Continuous
 62
     7
370
     9
100
AcDbMText
 10
5096.167700144058
 20
-4147.857012699985
 30
0.0
 40
74.295
 41
97.5
 46
0.0
 71
     7
 72
     1
  1
{\fＭＳ ゴシック|b0|i0|c128|p49;01}
 73
     1
 44
1.0
  0
LINE
  5
86
330
1F
100
AcDbEntity
  8
F-0_補助線
  6
JWW_HOJO
 62
     7
370
     9
100
AcDbLine
 10
3764.917643811961
 20
-3795.000003092998
 30
0.0
 11
3764.917643811961
 21
-4195.000008247994
 31
0.0
  0
MTEXT
  5
87
330
1F
100
AcDbEntity
  8
F-A_文字
  6
Continuous
 62
     7
370
     0
100
AcDbMText
 10
3689.917643811961
 20
-3946.903227445928
 30
0.0
 40
76.19999999999999
 41
150.0
 46
0.0
 71
     7
 72
     1
  1
{\fＭＳ ゴシック|b0|i0|c128|p49;1/5}
 73
     1
 44
1.0
  0
MTEXT
  5
88
330
1F
100
AcDbEntity
  8
0-A_文字
  6
Continuous
 62
     7
370
     9
100
AcDbMText
 10
93.16735341513038
 20
2926.160755482368
 30
0.0
 40
91.43999999999997
 41
1560.0
 46
0.0
 71
     7
 72
     1
  1
{\fＭＳ ゴシック|b0|i0|c128|p49;■横断面図　Ｈ＝４尺、３尺}
 73
     1
 44
1.0
  0
MTEXT
  5
89
330
1F
100
AcDbEntity
  8
0-A_文字
  6
Continuous
 62
     7
370
     9
100
AcDbMText
 10
-5684.883234941845
 20
2926.160755482369
 30
0.0
 40
91.43999999999993
 41
1919.999999999999
 46
0.0
 71
     7
 72
     1
  1
{\fＭＳ ゴシック|b0|i0|c128|p49;■横断面図　Ｈ＝８尺、７尺、６尺}
 73
     1
 44
1.0
  0
MTEXT
  5
8A
330
1F
100
AcDbEntity
  8
0-B_寸法
  6
Continuous
 62
     7
370
     0
100
AcDbMText
 10
718.743317895117
 20
-3474.379866882796
 30
0.0
 40
79.61586206896553
 41
3030.0
 46
0.0
 71
     7
 72
     1
  1
{\fＭＳ ゴシック|b0|i0|c128|p49;※Ｈ＝４尺、Ｈ＝３尺には躯体接合金具は装備されていません。}
 73
     1
 44
1.0
  0
LINE
  5
8B
330
1F
100
AcDbEntity
  8
0-B_寸法
  6
Continuous
 62
   120
370
     5
100
AcDbLine
 10
1270.820742573976
 20
2596.500190873769
 30
0.0
 11
1090.820742573976
 21
2596.500190873769
 31
0.0
  0
LWPOLYLINE
  5
8C
330
1F
100
AcDbEntity
  8
0-B_寸法
  6
Continuous
 62
     7
370
     9
100
AcDbPolyline
 90
        4
 70
     1
 43
3.0
 10
1272.320742573976
 20
2596.500190873769
 42
0.4142135623731
 10
1270.820742573976
 20
2598.000190873769
 42
0.4142135623731
 10
1269.320742573976
 20
2596.500190873769
 42
0.4142135623731
 10
1270.820742573976
 20
2595.000190873769
 42
0.4142135623731
  0
LINE
  5
8D
330
1F
100
AcDbEntity
  8
0-B_寸法
  6
Continuous
 62
   120
370
     5
100
AcDbLine
 10
1270.820742573976
 20
2596.500190873769
 30
0.0
 11
1270.820742573976
 21
1966.500190873769
 31
0.0
  0
LINE
  5
8E
330
1F
100
AcDbEntity
  8
0-0_補助線
  6
JWW_HOJO
 62
   120
370
     5
100
AcDbLine
 10
1270.820742573976
 20
1990.500190873769
 30
0.0
 11
1270.820742573976
 21
2572.500190873769
 31
0.0
  0
LINE
  5
8F
330
1F
100
AcDbEntity
  8
0-0_補助線
  6
JWW_HOJO
 62
   120
370
     5
100
AcDbLine
 10
1090.820742573976
 20
1990.500190873769
 30
0.0
 11
1090.820742573976
 21
2572.500190873769
 31
0.0
  0
LINE
  5
90
330
1F
100
AcDbEntity
  8
0-1_通り芯
  6
JWW_CENTER1
 62
   120
370
     5
100
AcDbLine
 10
98.2142857142847
 20
2281.500190873769
 30
0.0
 11
5702.215102265676
 21
2281.500190873769
 31
0.0
  0
LINE
  5
91
330
1F
100
AcDbEntity
  8
0-C_ハッチ
  6
Continuous
 62
   120
370
     5
100
AcDbLine
 10
5102.215102265674
 20
2449.203650498097
 30
0.0
 11
4957.918561889999
 21
2593.50019087377
 31
0.0
  0
LINE
  5
92
330
1F
100
AcDbEntity
  8
0-C_ハッチ
  6
Continuous
 62
   120
370
     5
100
AcDbLine
 10
5102.215102265676
 20
2508.60062011774
 30
0.0
 11
5017.315531509646
 21
2593.50019087377
 31
0.0
  0
LINE
  5
93
330
1F
100
AcDbEntity
  8
0-C_ハッチ
  6
Continuous
 62
   120
370
     5
100
AcDbLine
 10
5102.215102265686
 20
2561.026318798606
 30
0.0
 11
5069.741230190523
 21
2593.50019087377
 31
0.0
  0
LINE
  5
94
330
1F
100
AcDbEntity
  8
0-4_枠
  6
Continuous
 62
    92
370
    13
100
AcDbLine
 10
4925.215102265675
 20
1966.500190873769
 30
0.0
 11
4925.215102265675
 21
2593.50019087377
 31
0.0
  0
LINE
  5
95
330
1F
100
AcDbEntity
  8
0-4_枠
  6
Continuous
 62
    92
370
    13
100
AcDbLine
 10
5102.215102265676
 20
2593.50019087377
 30
0.0
 11
4925.215102265675
 21
2593.50019087377
 31
0.0
  0
LINE
  5
96
330
1F
100
AcDbEntity
  8
0-4_枠
  6
Continuous
 62
    92
370
    13
100
AcDbLine
 10
4922.215102265676
 20
1966.500190873769
 30
0.0
 11
4922.215102265676
 21
2596.500190873769
 31
0.0
  0
LINE
  5
97
330
1F
100
AcDbEntity
  8
0-4_枠
  6
Continuous
 62
    92
370
    13
100
AcDbLine
 10
5102.215102265676
 20
2596.500190873769
 30
0.0
 11
4922.215102265676
 21
2596.500190873769
 31
0.0
  0
LINE
  5
98
330
1F
100
AcDbEntity
  8
0-4_枠
  6
Continuous
 62
    92
370
    13
100
AcDbLine
 10
5102.215102265676
 20
2596.500190873769
 30
0.0
 11
5102.215102265676
 21
2008.50019087377
 31
0.0
  0
LINE
  5
99
330
1F
100
AcDbEntity
  8
0-C_ハッチ
  6
Continuous
 62
   120
370
     5
100
AcDbLine
 10
698.2142857142856
 20
2449.203650498097
 30
0.0
 11
842.5108260899606
 21
2593.50019087377
 31
0.0
  0
LINE
  5
9A
330
1F
100
AcDbEntity
  8
0-C_ハッチ
  6
Continuous
 62
   120
370
     5
100
AcDbLine
 10
698.2142857142838
 20
2508.60062011774
 30
0.0
 11
783.1138564703133
 21
2593.50019087377
 31
0.0
  0
LINE
  5
9B
330
1F
100
AcDbEntity
  8
0-C_ハッチ
  6
Continuous
 62
   120
370
     5
100
AcDbLine
 10
698.2142857142719
 20
2561.026318798606
 30
0.0
 11
730.6881577894355
 21
2593.50019087377
 31
0.0
  0
LINE
  5
9C
330
1F
100
AcDbEntity
  8
0-4_枠
  6
Continuous
 62
    92
370
    13
100
AcDbLine
 10
875.2142857142849
 20
1966.500190873769
 30
0.0
 11
875.2142857142849
 21
2593.50019087377
 31
0.0
  0
LINE
  5
9D
330
1F
100
AcDbEntity
  8
0-4_枠
  6
Continuous
 62
    92
370
    13
100
AcDbLine
 10
698.2142857142838
 20
2593.50019087377
 30
0.0
 11
875.2142857142849
 21
2593.50019087377
 31
0.0
  0
LINE
  5
9E
330
1F
100
AcDbEntity
  8
0-4_枠
  6
Continuous
 62
    92
370
    13
100
AcDbLine
 10
878.2142857142838
 20
1966.500190873769
 30
0.0
 11
878.2142857142838
 21
2596.500190873769
 31
0.0
  0
LINE
  5
9F
330
1F
100
AcDbEntity
  8
0-4_枠
  6
Continuous
 62
    92
370
    13
100
AcDbLine
 10
698.2142857142838
 20
2596.500190873769
 30
0.0
 11
878.2142857142838
 21
2596.500190873769
 31
0.0
  0
LINE
  5
A0
330
1F
100
AcDbEntity
  8
0-4_枠
  6
Continuous
 62
    92
370
    13
100
AcDbLine
 10
698.2142857142838
 20
2596.500190873769
 30
0.0
 11
698.2142857142838
 21
2008.50019087377
 31
0.0
  0
LINE
  5
A1
330
1F
100
AcDbEntity
  8
0-7_金物
  6
JWW_DASHED1
 62
     7
370
     9
100
AcDbLine
 10
4853.859120739799
 20
2152.557630056306
 30
0.0
 11
4712.559120739798
 21
2152.557630056306
 31
0.0
  0
LINE
  5
A2
330
1F
100
AcDbEntity
  8
0-7_金物
  6
JWW_DASHED1
 62
     7
370
     9
100
AcDbLine
 10
4712.559120739798
 20
2194.500190873769
 30
0.0
 11
4712.559120739798
 21
2152.557630056306
 31
0.0
  0
LINE
  5
A3
330
1F
100
AcDbEntity
  8
0-7_金物
  6
JWW_DASHED1
 62
     7
370
     9
100
AcDbLine
 10
4853.859120739799
 20
2194.500190873769
 30
0.0
 11
4853.859120739799
 21
2152.557630056306
 31
0.0
  0
LINE
  5
A4
330
1F
100
AcDbEntity
  8
0-7_金物
  6
Continuous
 62
     7
370
     9
100
AcDbLine
 10
4899.714285714265
 20
2289.544883490833
 30
0.0
 11
4899.714285714265
 21
2444.944883490829
 31
0.0
  0
LINE
  5
A5
330
1F
100
AcDbEntity
  8
0-7_金物
  6
Continuous
 62
     7
370
     9
100
AcDbLine
 10
4922.214285714265
 20
2444.944883490829
 30
0.0
 11
4899.714285714265
 21
2444.944883490829
 31
0.0
  0
LINE
  5
A6
330
1F
100
AcDbEntity
  8
0-7_金物
  6
Continuous
 62
     7
370
     9
100
AcDbLine
 10
4899.407506829923
 20
2242.405604902447
 30
0.0
 11
4899.714285714265
 21
2292.24488349083
 31
0.0
  0
LINE
  5
A7
330
1F
100
AcDbEntity
  8
0-7_金物
  6
Continuous
 62
     7
370
     9
100
AcDbLine
 10
4922.214285714265
 20
2289.544883490833
 30
0.0
 11
4899.697666232379
 21
2289.544883490833
 31
0.0
  0
LINE
  5
A8
330
1F
100
AcDbEntity
  8
0-7_金物
  6
Continuous
 62
     7
370
     9
100
AcDbLine
 10
4796.338282707613
 20
2194.500190873769
 30
0.0
 11
4899.407506829923
 21
2242.405604902447
 31
0.0
  0
LINE
  5
A9
330
1F
100
AcDbEntity
  8
0-7_金物
  6
Continuous
 62
     7
370
     9
100
AcDbLine
 10
4853.859120739799
 20
2194.500190873769
 30
0.0
 11
4712.559120739798
 21
2194.500190873769
 31
0.0
  0
LINE
  5
AA
330
1F
100
AcDbEntity
  8
0-7_金物
  6
Continuous
 62
     7
370
     9
100
AcDbLine
 10
4774.531762487934
 20
2224.869998731615
 30
0.0
 11
4773.08558116137
 21
2194.500190873769
 31
0.0
  0
LINE
  5
AB
330
1F
100
AcDbEntity
  8
0-7_金物
  6
Continuous
 62
     7
370
     9
100
AcDbLine
 10
4903.048786799314
 20
2472.204649293135
 30
0.0
 11
4900.245461373714
 21
2473.606312005932
 31
0.0
  0
LINE
  5
AC
330
1F
100
AcDbEntity
  8
0-7_金物
  6
Continuous
 62
     7
370
     9
100
AcDbLine
 10
4903.048786799314
 20
2464.930100747206
 30
0.0
 11
4903.048786799314
 21
2472.204649293135
 31
0.0
  0
LINE
  5
AD
330
1F
100
AcDbEntity
  8
0-7_金物
  6
Continuous
 62
     7
370
     9
100
AcDbLine
 10
4903.048786799314
 20
2464.930100747206
 30
0.0
 11
4911.612495847051
 21
2466.357385588497
 31
0.0
  0
LINE
  5
AE
330
1F
100
AcDbEntity
  8
0-7_金物
  6
Continuous
 62
     7
370
     9
100
AcDbLine
 10
4829.090876582388
 20
2277.004263310758
 30
0.0
 11
4774.531762487934
 21
2224.869998731615
 31
0.0
  0
LINE
  5
AF
330
1F
100
AcDbEntity
  8
0-7_金物
  6
Continuous
 62
     7
370
     9
100
AcDbLine
 10
4922.214285714265
 20
2444.944883490829
 30
0.0
 11
4922.214285714265
 21
2289.544883490833
 31
0.0
  0
LINE
  5
B0
330
1F
100
AcDbEntity
  8
0-7_金物
  6
Continuous
 62
     7
370
     9
100
AcDbLine
 10
4900.609418500052
 20
2493.244883490832
 30
0.0
 11
4899.714285714265
 21
2444.944883490829
 31
0.0
  0
LINE
  5
B1
330
1F
100
AcDbEntity
  8
0-7_金物
  6
Continuous
 62
     7
370
     9
100
AcDbLine
 10
4910.32333534524
 20
2483.116472112022
 30
0.0
 11
4900.557452625525
 21
2490.440884151807
 31
0.0
  0
LINE
  5
B2
330
1F
100
AcDbEntity
  8
0-7_金物
  6
Continuous
 62
     7
370
     9
100
AcDbLine
 10
4910.32333534524
 20
2483.116472112022
 30
0.0
 11
4911.612495847051
 21
2466.357385588497
 31
0.0
  0
LINE
  5
B3
330
1F
100
AcDbEntity
  8
0-7_金物
  6
Continuous
 62
     7
370
     9
100
AcDbLine
 10
4858.610429844709
 20
2492.953418350203
 30
0.0
 11
4900.609418500052
 21
2493.244883490832
 31
0.0
  0
LINE
  5
B4
330
1F
100
AcDbEntity
  8
0-7_金物
  6
Continuous
 62
     7
370
     9
100
AcDbLine
 10
4858.610429844709
 20
2492.953418350203
 30
0.0
 11
4829.090876582388
 21
2277.004263310758
 31
0.0
  0
LINE
  5
B5
330
1F
100
AcDbEntity
  8
0-7_金物
  6
JWW_DASHED1
 62
     7
370
     9
100
AcDbLine
 10
946.5694506887519
 20
2152.557630056306
 30
0.0
 11
1087.869450688751
 21
2152.557630056306
 31
0.0
  0
LINE
  5
B6
330
1F
100
AcDbEntity
  8
0-7_金物
  6
JWW_DASHED1
 62
     7
370
     9
100
AcDbLine
 10
1087.869450688751
 20
2194.500190873769
 30
0.0
 11
1087.869450688751
 21
2152.557630056306
 31
0.0
  0
LINE
  5
B7
330
1F
100
AcDbEntity
  8
0-7_金物
  6
JWW_DASHED1
 62
     7
370
     9
100
AcDbLine
 10
946.5694506887519
 20
2194.500190873769
 30
0.0
 11
946.5694506887519
 21
2152.557630056306
 31
0.0
  0
LINE
  5
B8
330
1F
100
AcDbEntity
  8
0-7_金物
  6
Continuous
 62
     7
370
     9
100
AcDbLine
 10
900.7142857142838
 20
2289.544883490833
 30
0.0
 11
900.7142857142838
 21
2444.944883490829
 31
0.0
  0
LINE
  5
B9
330
1F
100
AcDbEntity
  8
0-7_金物
  6
Continuous
 62
     7
370
     9
100
AcDbLine
 10
878.2142857142838
 20
2444.944883490829
 30
0.0
 11
900.7142857142838
 21
2444.944883490829
 31
0.0
  0
LINE
  5
BA
330
1F
100
AcDbEntity
  8
0-7_金物
  6
Continuous
 62
     7
370
     9
100
AcDbLine
 10
901.0210645986268
 20
2242.405604902447
 30
0.0
 11
900.7142857142838
 21
2292.24488349083
 31
0.0
  0
LINE
  5
BB
330
1F
100
AcDbEntity
  8
0-7_金物
  6
Continuous
 62
     7
370
     9
100
AcDbLine
 10
878.2142857142838
 20
2289.544883490833
 30
0.0
 11
900.730905196171
 21
2289.544883490833
 31
0.0
  0
LINE
  5
BC
330
1F
100
AcDbEntity
  8
0-7_金物
  6
Continuous
 62
     7
370
     9
100
AcDbLine
 10
1004.090288720938
 20
2194.500190873769
 30
0.0
 11
901.0210645986268
 21
2242.405604902447
 31
0.0
  0
LINE
  5
BD
330
1F
100
AcDbEntity
  8
0-7_金物
  6
Continuous
 62
     7
370
     9
100
AcDbLine
 10
946.5694506887519
 20
2194.500190873769
 30
0.0
 11
1087.869450688751
 21
2194.500190873769
 31
0.0
  0
LINE
  5
BE
330
1F
100
AcDbEntity
  8
0-7_金物
  6
Continuous
 62
     7
370
     9
100
AcDbLine
 10
1025.896808940616
 20
2224.869998731615
 30
0.0
 11
1027.342990267179
 21
2194.500190873769
 31
0.0
  0
LINE
  5
BF
330
1F
100
AcDbEntity
  8
0-7_金物
  6
Continuous
 62
     7
370
     9
100
AcDbLine
 10
897.3797846292371
 20
2472.204649293135
 30
0.0
 11
900.1831100548355
 21
2473.606312005932
 31
0.0
  0
LINE
  5
C0
330
1F
100
AcDbEntity
  8
0-7_金物
  6
Continuous
 62
     7
370
     9
100
AcDbLine
 10
897.3797846292371
 20
2464.930100747206
 30
0.0
 11
897.3797846292371
 21
2472.204649293135
 31
0.0
  0
LINE
  5
C1
330
1F
100
AcDbEntity
  8
0-7_金物
  6
Continuous
 62
     7
370
     9
100
AcDbLine
 10
897.3797846292371
 20
2464.930100747206
 30
0.0
 11
888.8160755814982
 21
2466.357385588497
 31
0.0
  0
LINE
  5
C2
330
1F
100
AcDbEntity
  8
0-7_金物
  6
Continuous
 62
     7
370
     9
100
AcDbLine
 10
971.3376948461615
 20
2277.004263310758
 30
0.0
 11
1025.896808940616
 21
2224.869998731615
 31
0.0
  0
LINE
  5
C3
330
1F
100
AcDbEntity
  8
0-7_金物
  6
Continuous
 62
     7
370
     9
100
AcDbLine
 10
878.2142857142838
 20
2444.944883490829
 30
0.0
 11
878.2142857142838
 21
2289.544883490833
 31
0.0
  0
LINE
  5
C4
330
1F
100
AcDbEntity
  8
0-7_金物
  6
Continuous
 62
     7
370
     9
100
AcDbLine
 10
899.8191529284969
 20
2493.244883490832
 30
0.0
 11
900.7142857142838
 21
2444.944883490829
 31
0.0
  0
LINE
  5
C5
330
1F
100
AcDbEntity
  8
0-7_金物
  6
Continuous
 62
     7
370
     9
100
AcDbLine
 10
890.1052360833097
 20
2483.116472112022
 30
0.0
 11
899.8711188030239
 21
2490.440884151807
 31
0.0
  0
LINE
  5
C6
330
1F
100
AcDbEntity
  8
0-7_金物
  6
Continuous
 62
     7
370
     9
100
AcDbLine
 10
890.1052360833097
 20
2483.116472112022
 30
0.0
 11
888.8160755814982
 21
2466.357385588497
 31
0.0
  0
LINE
  5
C7
330
1F
100
AcDbEntity
  8
0-7_金物
  6
Continuous
 62
     7
370
     9
100
AcDbLine
 10
941.8181415838404
 20
2492.953418350203
 30
0.0
 11
899.8191529284969
 21
2493.244883490832
 31
0.0
  0
LINE
  5
C8
330
1F
100
AcDbEntity
  8
0-7_金物
  6
Continuous
 62
     7
370
     9
100
AcDbLine
 10
941.8181415838404
 20
2492.953418350203
 30
0.0
 11
971.3376948461615
 21
2277.004263310758
 31
0.0
  0
LINE
  5
C9
330
1F
100
AcDbEntity
  8
0-0_補助線
  6
JWW_HOJO
 62
   120
370
     5
100
AcDbLine
 10
98.2142857142847
 20
1627.500552135911
 30
0.0
 11
5702.215102265676
 21
1627.500552135911
 31
0.0
  0
LINE
  5
CA
330
1F
100
AcDbEntity
  8
0-B_寸法
  6
Continuous
 62
   120
370
     5
100
AcDbLine
 10
4922.21525072957
 20
1447.500552135911
 30
0.0
 11
878.2141372503901
 21
1447.500552135911
 31
0.0
  0
LINE
  5
CB
330
1F
100
AcDbEntity
  8
0-0_補助線
  6
JWW_HOJO
 62
   120
370
     5
100
AcDbLine
 10
98.2142857142847
 20
2824.500190873769
 30
0.0
 11
5702.215102265676
 21
2824.500190873769
 31
0.0
  0
LINE
  5
CC
330
1F
100
AcDbEntity
  8
0-B_寸法
  6
Continuous
 62
   120
370
     5
100
AcDbLine
 10
698.2142857142838
 20
1267.50032944007
 30
0.0
 11
5102.215102265676
 21
1267.50032944007
 31
0.0
  0
LINE
  5
CD
330
1F
100
AcDbEntity
  8
0-B_寸法
  6
Continuous
 62
   120
370
     5
100
AcDbLine
 10
917.4963180170403
 20
1747.500552135911
 30
0.0
 11
1033.562887924777
 21
1747.500552135911
 31
0.0
  0
LINE
  5
CE
330
1F
100
AcDbEntity
  8
0-B_寸法
  6
Continuous
 62
   120
370
     5
100
AcDbLine
 10
848.2142857142838
 20
1627.500552135911
 30
0.0
 11
917.4963180170403
 21
1747.500552135911
 31
0.0
  0
LINE
  5
CF
330
1F
100
AcDbEntity
  8
0-B_寸法
  6
Continuous
 62
   120
370
     5
100
AcDbLine
 10
634.2651729157822
 20
1507.500552135911
 30
0.0
 11
676.9322534115298
 21
1507.500552135911
 31
0.0
  0
LINE
  5
D0
330
1F
100
AcDbEntity
  8
0-B_寸法
  6
Continuous
 62
   120
370
     5
100
AcDbLine
 10
746.2142857142828
 20
1627.500552135911
 30
0.0
 11
676.9322534115298
 21
1507.500552135911
 31
0.0
  0
LINE
  5
D1
330
1F
100
AcDbEntity
  8
0-B_寸法
  6
Continuous
 62
   120
370
     5
100
AcDbLine
 10
890.2145084101187
 20
1447.500552135911
 30
0.0
 11
890.2145084101187
 21
1807.500552135911
 31
0.0
  0
LINE
  5
D2
330
1F
100
AcDbEntity
  8
0-B_寸法
  6
Continuous
 62
   120
370
     5
100
AcDbLine
 10
878.2142857142838
 20
1627.500552135911
 30
0.0
 11
878.2142857142838
 21
1807.500552135911
 31
0.0
  0
LWPOLYLINE
  5
D3
330
1F
100
AcDbEntity
  8
0-B_寸法
  6
Continuous
 62
     7
370
     9
100
AcDbPolyline
 90
        4
 70
     1
 43
3.0
 10
879.7142857142838
 20
1627.500552135911
 42
0.4142135623731
 10
878.2142857142838
 20
1629.000552135911
 42
0.4142135623731
 10
876.7142857142838
 20
1627.500552135911
 42
0.4142135623731
 10
878.2142857142838
 20
1626.000552135911
 42
0.4142135623731
  0
LINE
  5
D4
330
1F
100
AcDbEntity
  8
0-B_寸法
  6
Continuous
 62
   120
370
     5
100
AcDbLine
 10
818.2142857142838
 20
1627.500552135911
 30
0.0
 11
818.2142857142838
 21
1807.500552135911
 31
0.0
  0
LWPOLYLINE
  5
D5
330
1F
100
AcDbEntity
  8
0-B_寸法
  6
Continuous
 62
     7
370
     9
100
AcDbPolyline
 90
        4
 70
     1
 43
3.0
 10
819.7142857142838
 20
1627.500552135911
 42
0.4142135623731
 10
818.2142857142838
 20
1629.000552135911
 42
0.4142135623731
 10
816.7142857142838
 20
1627.500552135911
 42
0.4142135623731
 10
818.2142857142838
 20
1626.000552135911
 42
0.4142135623731
  0
LINE
  5
D6
330
1F
100
AcDbEntity
  8
0-B_寸法
  6
Continuous
 62
   120
370
     5
100
AcDbLine
 10
764.2142857142852
 20
1627.500552135911
 30
0.0
 11
764.2142857142852
 21
1807.500552135911
 31
0.0
  0
LWPOLYLINE
  5
D7
330
1F
100
AcDbEntity
  8
0-B_寸法
  6
Continuous
 62
     7
370
     9
100
AcDbPolyline
 90
        4
 70
     1
 43
3.0
 10
765.7142857142852
 20
1627.500552135911
 42
0.4142135623731
 10
764.2142857142852
 20
1629.000552135911
 42
0.4142135623731
 10
762.7142857142852
 20
1627.500552135911
 42
0.4142135623731
 10
764.2142857142852
 20
1626.000552135911
 42
0.4142135623731
  0
LINE
  5
D8
330
1F
100
AcDbEntity
  8
0-B_寸法
  6
Continuous
 62
   120
370
     5
100
AcDbLine
 10
728.2142857142838
 20
1627.500552135911
 30
0.0
 11
728.2142857142838
 21
1807.500552135911
 31
0.0
  0
LWPOLYLINE
  5
D9
330
1F
100
AcDbEntity
  8
0-B_寸法
  6
Continuous
 62
     7
370
     9
100
AcDbPolyline
 90
        4
 70
     1
 43
3.0
 10
729.7142857142838
 20
1627.500552135911
 42
0.4142135623731
 10
728.2142857142838
 20
1629.000552135911
 42
0.4142135623731
 10
726.7142857142838
 20
1627.500552135911
 42
0.4142135623731
 10
728.2142857142838
 20
1626.000552135911
 42
0.4142135623731
  0
LWPOLYLINE
  5
DA
330
1F
100
AcDbEntity
  8
0-B_寸法
  6
Continuous
 62
     7
370
     9
100
AcDbPolyline
 90
        4
 70
     1
 43
3.0
 10
699.7142857142838
 20
1627.500552135911
 42
0.4142135623731
 10
698.2142857142838
 20
1629.000552135911
 42
0.4142135623731
 10
696.7142857142838
 20
1627.500552135911
 42
0.4142135623731
 10
698.2142857142838
 20
1626.000552135911
 42
0.4142135623731
  0
LINE
  5
DB
330
1F
100
AcDbEntity
  8
0-B_寸法
  6
Continuous
 62
   120
370
     5
100
AcDbLine
 10
698.2142857142838
 20
1627.500552135911
 30
0.0
 11
878.2142857142838
 21
1627.500552135911
 31
0.0
  0
LINE
  5
DC
330
1F
100
AcDbEntity
  8
0-B_寸法
  6
Continuous
 62
   120
370
     5
100
AcDbLine
 10
1270.820742573976
 20
1966.500190873769
 30
0.0
 11
1090.820742573976
 21
1966.500190873769
 31
0.0
  0
LWPOLYLINE
  5
DD
330
1F
100
AcDbEntity
  8
0-B_寸法
  6
Continuous
 62
     7
370
     9
100
AcDbPolyline
 90
        4
 70
     1
 43
3.0
 10
1272.320742573976
 20
1966.500190873769
 42
0.4142135623731
 10
1270.820742573976
 20
1968.000190873769
 42
0.4142135623731
 10
1269.320742573976
 20
1966.500190873769
 42
0.4142135623731
 10
1270.820742573976
 20
1965.00019087377
 42
0.4142135623731
  0
LWPOLYLINE
  5
DE
330
1F
100
AcDbEntity
  8
0-B_寸法
  6
Continuous
 62
     7
370
     9
100
AcDbPolyline
 90
        4
 70
     1
 43
3.0
 10
891.7145084101187
 20
1447.500552135911
 42
0.4142135623731
 10
890.2145084101187
 20
1449.000552135911
 42
0.4142135623731
 10
888.7145084101187
 20
1447.500552135911
 42
0.4142135623731
 10
890.2145084101187
 20
1446.000552135911
 42
0.4142135623731
  0
LWPOLYLINE
  5
DF
330
1F
100
AcDbEntity
  8
0-B_寸法
  6
Continuous
 62
     7
370
     9
100
AcDbPolyline
 90
        4
 70
     1
 43
3.0
 10
879.7141372503901
 20
1447.500552135911
 42
0.4142135623731
 10
878.2141372503901
 20
1449.000552135911
 42
0.4142135623731
 10
876.7141372503901
 20
1447.500552135911
 42
0.4142135623731
 10
878.2141372503901
 20
1446.000552135911
 42
0.4142135623731
  0
LINE
  5
E0
330
1F
100
AcDbEntity
  8
0-B_寸法
  6
Continuous
 62
   120
370
     5
100
AcDbLine
 10
878.2141372503901
 20
1747.500428415999
 30
0.0
 11
878.2141372503901
 21
1267.50032944007
 31
0.0
  0
LWPOLYLINE
  5
E1
330
1F
100
AcDbEntity
  8
0-B_寸法
  6
Continuous
 62
     7
370
     9
100
AcDbPolyline
 90
        4
 70
     1
 43
3.0
 10
699.7142857142838
 20
1267.50032944007
 42
0.4142135623731
 10
698.2142857142838
 20
1269.00032944007
 42
0.4142135623731
 10
696.7142857142838
 20
1267.50032944007
 42
0.4142135623731
 10
698.2142857142838
 20
1266.00032944007
 42
0.4142135623731
  0
LWPOLYLINE
  5
E2
330
1F
100
AcDbEntity
  8
0-B_寸法
  6
Continuous
 62
     7
370
     9
100
AcDbPolyline
 90
        4
 70
     1
 43
3.0
 10
879.7141372503901
 20
1267.50032944007
 42
0.4142135623731
 10
878.2141372503901
 20
1269.00032944007
 42
0.4142135623731
 10
876.7141372503901
 20
1267.50032944007
 42
0.4142135623731
 10
878.2141372503901
 20
1266.00032944007
 42
0.4142135623731
  0
LWPOLYLINE
  5
E3
330
1F
100
AcDbEntity
  8
0-B_寸法
  6
Continuous
 62
     7
370
     9
100
AcDbPolyline
 90
        4
 70
     1
 43
3.0
 10
699.7142857142838
 20
1087.50010674423
 42
0.4142135623731
 10
698.2142857142838
 20
1089.00010674423
 42
0.4142135623731
 10
696.7142857142838
 20
1087.50010674423
 42
0.4142135623731
 10
698.2142857142838
 20
1086.00010674423
 42
0.4142135623731
  0
LINE
  5
E4
330
1F
100
AcDbEntity
  8
0-B_寸法
  6
Continuous
 62
   120
370
     5
100
AcDbLine
 10
698.2142857142838
 20
1807.500552135911
 30
0.0
 11
698.2142857142838
 21
1087.50010674423
 31
0.0
  0
LINE
  5
E5
330
1F
100
AcDbEntity
  8
0-B_寸法
  6
Continuous
 62
   120
370
     5
100
AcDbLine
 10
4922.214508410108
 20
1447.500552135911
 30
0.0
 11
4922.214508410108
 21
1747.500428415999
 31
0.0
  0
LWPOLYLINE
  5
E6
330
1F
100
AcDbEntity
  8
0-B_寸法
  6
Continuous
 62
     7
370
     9
100
AcDbPolyline
 90
        4
 70
     1
 43
3.0
 10
4923.714508410108
 20
1447.500552135911
 42
0.4142135623731
 10
4922.214508410108
 20
1449.000552135911
 42
0.4142135623731
 10
4920.714508410108
 20
1447.500552135911
 42
0.4142135623731
 10
4922.214508410108
 20
1446.000552135911
 42
0.4142135623731
  0
LINE
  5
E7
330
1F
100
AcDbEntity
  8
0-B_寸法
  6
Continuous
 62
   120
370
     5
100
AcDbLine
 10
4910.214508410118
 20
1447.500552135911
 30
0.0
 11
4910.214508410118
 21
1747.500428415999
 31
0.0
  0
LWPOLYLINE
  5
E8
330
1F
100
AcDbEntity
  8
0-B_寸法
  6
Continuous
 62
     7
370
     9
100
AcDbPolyline
 90
        4
 70
     1
 43
3.0
 10
4911.714508410119
 20
1447.500552135911
 42
0.4142135623731
 10
4910.214508410118
 20
1449.000552135911
 42
0.4142135623731
 10
4908.714508410118
 20
1447.500552135911
 42
0.4142135623731
 10
4910.214508410118
 20
1446.000552135911
 42
0.4142135623731
  0
LINE
  5
E9
330
1F
100
AcDbEntity
  8
0-B_寸法
  6
Continuous
 62
   120
370
     5
100
AcDbLine
 10
4922.21525072957
 20
1747.500428415999
 30
0.0
 11
4922.21525072957
 21
1267.50032944007
 31
0.0
  0
LWPOLYLINE
  5
EA
330
1F
100
AcDbEntity
  8
0-B_寸法
  6
Continuous
 62
     7
370
     9
100
AcDbPolyline
 90
        4
 70
     1
 43
3.0
 10
5103.715102265676
 20
1267.50032944007
 42
0.4142135623731
 10
5102.215102265676
 20
1269.00032944007
 42
0.4142135623731
 10
5100.715102265675
 20
1267.50032944007
 42
0.4142135623731
 10
5102.215102265676
 20
1266.00032944007
 42
0.4142135623731
  0
LWPOLYLINE
  5
EB
330
1F
100
AcDbEntity
  8
0-B_寸法
  6
Continuous
 62
     7
370
     9
100
AcDbPolyline
 90
        4
 70
     1
 43
3.0
 10
5103.715102265676
 20
1087.50010674423
 42
0.4142135623731
 10
5102.215102265676
 20
1089.00010674423
 42
0.4142135623731
 10
5100.715102265675
 20
1087.50010674423
 42
0.4142135623731
 10
5102.215102265676
 20
1086.00010674423
 42
0.4142135623731
  0
LWPOLYLINE
  5
EC
330
1F
100
AcDbEntity
  8
0-B_寸法
  6
Continuous
 62
     7
370
     9
100
AcDbPolyline
 90
        4
 70
     1
 43
3.0
 10
4923.71525072957
 20
1267.50032944007
 42
0.4142135623731
 10
4922.21525072957
 20
1269.00032944007
 42
0.4142135623731
 10
4920.71525072957
 20
1267.50032944007
 42
0.4142135623731
 10
4922.21525072957
 20
1266.00032944007
 42
0.4142135623731
  0
LINE
  5
ED
330
1F
100
AcDbEntity
  8
0-B_寸法
  6
Continuous
 62
   120
370
     5
100
AcDbLine
 10
5102.215102265676
 20
1747.500428415999
 30
0.0
 11
5102.215102265676
 21
1087.50010674423
 31
0.0
  0
LINE
  5
EE
330
1F
100
AcDbEntity
  8
0-B_寸法
  6
Continuous
 62
   120
370
     5
100
AcDbLine
 10
2906.21450841012
 20
1447.500552135911
 30
0.0
 11
2906.21450841012
 21
1747.500428415999
 31
0.0
  0
LWPOLYLINE
  5
EF
330
1F
100
AcDbEntity
  8
0-B_寸法
  6
Continuous
 62
     7
370
     9
100
AcDbPolyline
 90
        4
 70
     1
 43
3.0
 10
2907.71450841012
 20
1447.500552135911
 42
0.4142135623731
 10
2906.21450841012
 20
1449.000552135911
 42
0.4142135623731
 10
2904.71450841012
 20
1447.500552135911
 42
0.4142135623731
 10
2906.21450841012
 20
1446.000552135911
 42
0.4142135623731
  0
LINE
  5
F0
330
1F
100
AcDbEntity
  8
0-B_寸法
  6
Continuous
 62
   120
370
     5
100
AcDbLine
 10
2894.214508410119
 20
1447.500552135911
 30
0.0
 11
2894.214508410119
 21
1747.500428415999
 31
0.0
  0
LWPOLYLINE
  5
F1
330
1F
100
AcDbEntity
  8
0-B_寸法
  6
Continuous
 62
     7
370
     9
100
AcDbPolyline
 90
        4
 70
     1
 43
3.0
 10
2895.714508410119
 20
1447.500552135911
 42
0.4142135623731
 10
2894.214508410119
 20
1449.000552135911
 42
0.4142135623731
 10
2892.714508410119
 20
1447.500552135911
 42
0.4142135623731
 10
2894.214508410119
 20
1446.000552135911
 42
0.4142135623731
  0
LINE
  5
F2
330
1F
100
AcDbEntity
  8
0-3_仕上げ
  6
Continuous
 62
    40
370
    15
100
AcDbLine
 10
698.2142857142838
 20
1954.500190873769
 30
0.0
 11
98.2142857142847
 21
1954.500190873769
 31
0.0
  0
LINE
  5
F3
330
1F
100
AcDbEntity
  8
0-C_ハッチ
  6
JWW_DASHED1
 62
   120
370
     5
100
AcDbLine
 10
98.2142857142847
 20
1966.959157103182
 30
0.0
 11
160.7553194848722
 21
2029.500190873769
 31
0.0
  0
LINE
  5
F4
330
1F
100
AcDbEntity
  8
0-C_ハッチ
  6
JWW_DASHED1
 62
   120
370
     5
100
AcDbLine
 10
98.2142857142847
 20
2009.385312812113
 30
0.0
 11
118.329163775941
 21
2029.500190873769
 31
0.0
  0
LINE
  5
F5
330
1F
100
AcDbEntity
  8
0-3_仕上げ
  6
Continuous
 62
    40
370
    15
100
AcDbLine
 10
698.2142857142838
 20
2029.500190873769
 30
0.0
 11
98.2142857142847
 21
2029.500190873769
 31
0.0
  0
LINE
  5
F6
330
1F
100
AcDbEntity
  8
0-3_仕上げ
  6
Continuous
 62
    40
370
    15
100
AcDbLine
 10
5102.215102265676
 20
2029.500190873769
 30
0.0
 11
5702.215102265676
 21
2029.500190873769
 31
0.0
  0
LINE
  5
F7
330
1F
100
AcDbEntity
  8
0-3_仕上げ
  6
Continuous
 62
    40
370
    15
100
AcDbLine
 10
5102.215102265676
 20
1954.500190873769
 30
0.0
 11
5702.215102265676
 21
1954.500190873769
 31
0.0
  0
LINE
  5
F8
330
1F
100
AcDbEntity
  8
0-C_ハッチ
  6
JWW_DASHED1
 62
   120
370
     5
100
AcDbLine
 10
5702.215102265676
 20
1966.959157103182
 30
0.0
 11
5639.674068495088
 21
2029.500190873769
 31
0.0
  0
LINE
  5
F9
330
1F
100
AcDbEntity
  8
0-C_ハッチ
  6
JWW_DASHED1
 62
   120
370
     5
100
AcDbLine
 10
5702.215102265676
 20
2009.385312812113
 30
0.0
 11
5682.100224204019
 21
2029.500190873769
 31
0.0
  0
LINE
  5
FA
330
1F
100
AcDbEntity
  8
0-0_補助線
  6
JWW_HOJO
 62
   120
370
     5
100
AcDbLine
 10
5702.215102265676
 20
2824.500190873769
 30
0.0
 11
5702.215102265676
 21
1627.500552135911
 31
0.0
  0
LINE
  5
FB
330
1F
100
AcDbEntity
  8
0-0_補助線
  6
JWW_HOJO
 62
   120
370
     5
100
AcDbLine
 10
98.2142857142847
 20
2824.500190873769
 30
0.0
 11
98.2142857142847
 21
1627.500552135911
 31
0.0
  0
LINE
  5
FC
330
1F
100
AcDbEntity
  8
0-C_ハッチ
  6
JWW_DASHED1
 62
   120
370
     5
100
AcDbLine
 10
5672.247789066247
 20
1954.499943433947
 30
0.0
 11
5597.247541626422
 21
2029.500190873769
 31
0.0
  0
LINE
  5
FD
330
1F
100
AcDbEntity
  8
0-C_ハッチ
  6
JWW_DASHED1
 62
   120
370
     5
100
AcDbLine
 10
5629.821262197581
 20
1954.499943433947
 30
0.0
 11
5554.821014757757
 21
2029.500190873769
 31
0.0
  0
LINE
  5
FE
330
1F
100
AcDbEntity
  8
0-C_ハッチ
  6
JWW_DASHED1
 62
   120
370
     5
100
AcDbLine
 10
5512.394487889092
 20
2029.500190873769
 30
0.0
 11
5587.394735328915
 21
1954.499943433947
 31
0.0
  0
LINE
  5
FF
330
1F
100
AcDbEntity
  8
0-C_ハッチ
  6
JWW_DASHED1
 62
   120
370
     5
100
AcDbLine
 10
128.1815989137161
 20
1954.499943433947
 30
0.0
 11
203.1818463535379
 21
2029.500190873769
 31
0.0
  0
LINE
  5
100
330
1F
100
AcDbEntity
  8
0-C_ハッチ
  6
JWW_DASHED1
 62
   120
370
     5
100
AcDbLine
 10
170.60812578238
 20
1954.499943433947
 30
0.0
 11
245.6083732222035
 21
2029.500190873769
 31
0.0
  0
LINE
  5
101
330
1F
100
AcDbEntity
  8
0-C_ハッチ
  6
JWW_DASHED1
 62
   120
370
     5
100
AcDbLine
 10
213.0346526510456
 20
1954.499943433947
 30
0.0
 11
288.0349000908708
 21
2029.500190873769
 31
0.0
  0
LINE
  5
102
330
1F
100
AcDbEntity
  8
0-C_ハッチ
  6
JWW_DASHED1
 62
   120
370
     5
100
AcDbLine
 10
255.461179519713
 20
1954.499943433947
 30
0.0
 11
330.4614269595348
 21
2029.500190873769
 31
0.0
  0
LINE
  5
103
330
1F
100
AcDbEntity
  8
0-C_ハッチ
  6
JWW_DASHED1
 62
   120
370
     5
100
AcDbLine
 10
297.8873352286408
 20
1954.499943433947
 30
0.0
 11
372.887582668466
 21
2029.500190873769
 31
0.0
  0
LINE
  5
104
330
1F
100
AcDbEntity
  8
0-C_ハッチ
  6
JWW_DASHED1
 62
   120
370
     5
100
AcDbLine
 10
340.3138620973081
 20
1954.499943433947
 30
0.0
 11
415.3141095371316
 21
2029.500190873769
 31
0.0
  0
LINE
  5
105
330
1F
100
AcDbEntity
  8
0-C_ハッチ
  6
JWW_DASHED1
 62
   120
370
     5
100
AcDbLine
 10
382.740388965972
 20
1954.499943433947
 30
0.0
 11
457.7406364057973
 21
2029.500190873769
 31
0.0
  0
LINE
  5
106
330
1F
100
AcDbEntity
  8
0-C_ハッチ
  6
JWW_DASHED1
 62
   120
370
     5
100
AcDbLine
 10
425.1669158346394
 20
1954.499943433947
 30
0.0
 11
500.1671632744612
 21
2029.500190873769
 31
0.0
  0
LINE
  5
107
330
1F
100
AcDbEntity
  8
0-C_ハッチ
  6
JWW_DASHED1
 62
   120
370
     5
100
AcDbLine
 10
542.5929478236596
 20
2029.500190873769
 30
0.0
 11
467.5927003838362
 21
1954.499943433947
 31
0.0
  0
LINE
  5
108
330
1F
100
AcDbEntity
  8
0-C_ハッチ
  6
JWW_DASHED1
 62
   120
370
     5
100
AcDbLine
 10
585.0194746923271
 20
2029.500190873769
 30
0.0
 11
510.0192272525035
 21
1954.499943433947
 31
0.0
  0
LINE
  5
109
330
1F
100
AcDbEntity
  8
0-0_補助線
  6
JWW_HOJO
 62
   120
370
     5
100
AcDbLine
 10
1151.351169362628
 20
1807.500552135911
 30
0.0
 11
98.2142857142847
 21
1807.500552135911
 31
0.0
  0
LINE
  5
10A
330
1F
100
AcDbEntity
  8
0-C_ハッチ
  6
JWW_DASHED1
 62
   120
370
     5
100
AcDbLine
 10
594.8719098301003
 20
1954.499943433947
 30
0.0
 11
669.8721572699213
 21
2029.500190873769
 31
0.0
  0
LINE
  5
10B
330
1F
100
AcDbEntity
  8
0-C_ハッチ
  6
JWW_DASHED1
 62
   120
370
     5
100
AcDbLine
 10
637.298436698766
 20
1954.499943433947
 30
0.0
 11
698.2142857142838
 21
2015.4161636092
 31
0.0
  0
LINE
  5
10C
330
1F
100
AcDbEntity
  8
0-C_ハッチ
  6
JWW_DASHED1
 62
   120
370
     5
100
AcDbLine
 10
679.7249635674291
 20
1954.499943433947
 30
0.0
 11
698.2142857142838
 21
1972.988894421067
 31
0.0
  0
LINE
  5
10D
330
1F
100
AcDbEntity
  8
0-C_ハッチ
  6
Continuous
 62
   120
370
     5
100
AcDbLine
 10
810.0835526670033
 20
2026.500190873769
 30
0.0
 11
875.2142857142849
 21
2091.63092392105
 31
0.0
  0
LINE
  5
10E
330
1F
100
AcDbEntity
  8
0-C_ハッチ
  6
Continuous
 62
   120
370
     5
100
AcDbLine
 10
875.2142857142849
 20
2151.027893540753
 30
0.0
 11
728.2142857142838
 21
2004.027893540752
 31
0.0
  0
LINE
  5
10F
330
1F
100
AcDbEntity
  8
0-C_ハッチ
  6
Continuous
 62
   120
370
     5
100
AcDbLine
 10
698.2142857142907
 20
2389.806680878453
 30
0.0
 11
875.2142857142849
 21
2566.806680878448
 31
0.0
  0
LINE
  5
110
330
1F
100
AcDbEntity
  8
0-C_ハッチ
  6
Continuous
 62
   120
370
     5
100
AcDbLine
 10
698.2142857142753
 20
2330.409711258736
 30
0.0
 11
875.2142857142849
 21
2507.409711258745
 31
0.0
  0
LINE
  5
111
330
1F
100
AcDbEntity
  8
0-C_ハッチ
  6
Continuous
 62
   120
370
     5
100
AcDbLine
 10
698.214285714277
 20
2271.012741639092
 30
0.0
 11
875.2142857142849
 21
2448.012741639098
 31
0.0
  0
LINE
  5
112
330
1F
100
AcDbEntity
  8
0-C_ハッチ
  6
Continuous
 62
   120
370
     5
100
AcDbLine
 10
698.214285714277
 20
2211.615772019391
 30
0.0
 11
875.2142857142849
 21
2388.615772019397
 31
0.0
  0
LINE
  5
113
330
1F
100
AcDbEntity
  8
0-C_ハッチ
  6
Continuous
 62
   120
370
     5
100
AcDbLine
 10
698.2142857142838
 20
2152.218802399747
 30
0.0
 11
875.2142857142849
 21
2329.21880239975
 31
0.0
  0
LINE
  5
114
330
1F
100
AcDbEntity
  8
0-C_ハッチ
  6
Continuous
 62
   120
370
     5
100
AcDbLine
 10
698.2142857142821
 20
2092.821832780045
 30
0.0
 11
875.2142857142849
 21
2269.821832780048
 31
0.0
  0
LINE
  5
115
330
1F
100
AcDbEntity
  8
0-C_ハッチ
  6
Continuous
 62
   120
370
     5
100
AcDbLine
 10
698.2142857142702
 20
2033.424863160387
 30
0.0
 11
875.2142857142849
 21
2210.4248631604
 31
0.0
  0
LINE
  5
116
330
1F
100
AcDbEntity
  8
0-C_ハッチ
  6
Continuous
 62
   120
370
     5
100
AcDbLine
 10
875.2142857142849
 20
2032.233954301403
 30
0.0
 11
818.2142857142838
 21
1975.233954301403
 31
0.0
  0
LINE
  5
117
330
1F
100
AcDbEntity
  8
0-3_仕上げ
  6
Continuous
 62
    40
370
    15
100
AcDbLine
 10
698.2142857142838
 20
2029.500190873769
 30
0.0
 11
698.2142857142838
 21
1954.500190873769
 31
0.0
  0
LINE
  5
118
330
1F
100
AcDbEntity
  8
0-4_枠
  6
Continuous
 62
    92
370
    13
100
AcDbLine
 10
728.2142857142838
 20
1966.500190873769
 30
0.0
 11
728.2142857142838
 21
2008.50019087377
 31
0.0
  0
LINE
  5
119
330
1F
100
AcDbEntity
  8
0-4_枠
  6
Continuous
 62
    92
370
    13
100
AcDbLine
 10
698.2142857142838
 20
2008.50019087377
 30
0.0
 11
728.2142857142838
 21
2008.50019087377
 31
0.0
  0
LINE
  5
11A
330
1F
100
AcDbEntity
  8
0-4_枠
  6
Continuous
 62
    92
370
    13
100
AcDbLine
 10
764.2142857142852
 20
1966.500190873769
 30
0.0
 11
728.2142857142838
 21
1966.500190873769
 31
0.0
  0
LINE
  5
11B
330
1F
100
AcDbEntity
  8
0-4_枠
  6
Continuous
 62
    92
370
    13
100
AcDbLine
 10
878.2142857142838
 20
1966.500190873769
 30
0.0
 11
818.2142857142838
 21
1966.500190873769
 31
0.0
  0
LINE
  5
11C
330
1F
100
AcDbEntity
  8
0-4_枠
  6
Continuous
 62
    92
370
    13
100
AcDbLine
 10
764.2142857142852
 20
2026.500190873769
 30
0.0
 11
818.2142857142838
 21
2026.500190873769
 31
0.0
  0
LINE
  5
11D
330
1F
100
AcDbEntity
  8
0-4_枠
  6
Continuous
 62
    92
370
    13
100
AcDbLine
 10
764.2142857142852
 20
2026.500190873769
 30
0.0
 11
764.2142857142852
 21
1966.500190873769
 31
0.0
  0
LINE
  5
11E
330
1F
100
AcDbEntity
  8
0-4_枠
  6
Continuous
 62
    92
370
    13
100
AcDbLine
 10
818.2142857142838
 20
2026.500190873769
 30
0.0
 11
818.2142857142838
 21
1966.500190873769
 31
0.0
  0
LINE
  5
11F
330
1F
100
AcDbEntity
  8
0-C_ハッチ
  6
JWW_DASHED1
 62
   120
370
     5
100
AcDbLine
 10
5544.968208460249
 20
1954.499943433947
 30
0.0
 11
5469.967961020428
 21
2029.500190873769
 31
0.0
  0
LINE
  5
120
330
1F
100
AcDbEntity
  8
0-C_ハッチ
  6
JWW_DASHED1
 62
   120
370
     5
100
AcDbLine
 10
5502.54205275132
 20
1954.499943433947
 30
0.0
 11
5427.541805311494
 21
2029.500190873769
 31
0.0
  0
LINE
  5
121
330
1F
100
AcDbEntity
  8
0-C_ハッチ
  6
JWW_DASHED1
 62
   120
370
     5
100
AcDbLine
 10
5460.115525882653
 20
1954.499943433947
 30
0.0
 11
5385.11527844283
 21
2029.500190873769
 31
0.0
  0
LINE
  5
122
330
1F
100
AcDbEntity
  8
0-C_ハッチ
  6
JWW_DASHED1
 62
   120
370
     5
100
AcDbLine
 10
5417.688999013987
 20
1954.499943433947
 30
0.0
 11
5342.688751574164
 21
2029.500190873769
 31
0.0
  0
LINE
  5
123
330
1F
100
AcDbEntity
  8
0-C_ハッチ
  6
JWW_DASHED1
 62
   120
370
     5
100
AcDbLine
 10
5375.262472145323
 20
1954.499943433947
 30
0.0
 11
5300.262224705498
 21
2029.500190873769
 31
0.0
  0
LINE
  5
124
330
1F
100
AcDbEntity
  8
0-C_ハッチ
  6
JWW_DASHED1
 62
   120
370
     5
100
AcDbLine
 10
5332.836687596123
 20
1954.499943433947
 30
0.0
 11
5257.836440156301
 21
2029.500190873769
 31
0.0
  0
LINE
  5
125
330
1F
100
AcDbEntity
  8
0-C_ハッチ
  6
JWW_DASHED1
 62
   120
370
     5
100
AcDbLine
 10
5290.410160727459
 20
1954.499943433947
 30
0.0
 11
5215.409913287635
 21
2029.500190873769
 31
0.0
  0
LINE
  5
126
330
1F
100
AcDbEntity
  8
0-C_ハッチ
  6
JWW_DASHED1
 62
   120
370
     5
100
AcDbLine
 10
5247.983633858793
 20
1954.499943433947
 30
0.0
 11
5172.98338641897
 21
2029.500190873769
 31
0.0
  0
LINE
  5
127
330
1F
100
AcDbEntity
  8
0-C_ハッチ
  6
JWW_DASHED1
 62
   120
370
     5
100
AcDbLine
 10
5205.557478149862
 20
1954.499943433947
 30
0.0
 11
5130.557230710038
 21
2029.500190873769
 31
0.0
  0
LINE
  5
128
330
1F
100
AcDbEntity
  8
0-C_ハッチ
  6
JWW_DASHED1
 62
   120
370
     5
100
AcDbLine
 10
5163.130951281195
 20
1954.499943433947
 30
0.0
 11
5102.215102265676
 21
2015.4161636092
 31
0.0
  0
LINE
  5
129
330
1F
100
AcDbEntity
  8
0-C_ハッチ
  6
JWW_DASHED1
 62
   120
370
     5
100
AcDbLine
 10
5120.704424412529
 20
1954.499943433947
 30
0.0
 11
5102.215102265676
 21
1972.988894421067
 31
0.0
  0
LINE
  5
12A
330
1F
100
AcDbEntity
  8
0-C_ハッチ
  6
Continuous
 62
   120
370
     5
100
AcDbLine
 10
4990.345835312956
 20
2026.500190873769
 30
0.0
 11
4925.215102265675
 21
2091.63092392105
 31
0.0
  0
LINE
  5
12B
330
1F
100
AcDbEntity
  8
0-C_ハッチ
  6
Continuous
 62
   120
370
     5
100
AcDbLine
 10
4925.215102265675
 20
2151.027893540753
 30
0.0
 11
5072.215102265676
 21
2004.027893540752
 31
0.0
  0
LINE
  5
12C
330
1F
100
AcDbEntity
  8
0-C_ハッチ
  6
Continuous
 62
   120
370
     5
100
AcDbLine
 10
5102.215102265669
 20
2389.806680878453
 30
0.0
 11
4925.215102265675
 21
2566.806680878448
 31
0.0
  0
LINE
  5
12D
330
1F
100
AcDbEntity
  8
0-C_ハッチ
  6
Continuous
 62
   120
370
     5
100
AcDbLine
 10
5102.215102265684
 20
2330.409711258736
 30
0.0
 11
4925.215102265675
 21
2507.409711258745
 31
0.0
  0
LINE
  5
12E
330
1F
100
AcDbEntity
  8
0-C_ハッチ
  6
Continuous
 62
   120
370
     5
100
AcDbLine
 10
5102.215102265683
 20
2271.012741639092
 30
0.0
 11
4925.215102265675
 21
2448.012741639098
 31
0.0
  0
LINE
  5
12F
330
1F
100
AcDbEntity
  8
0-C_ハッチ
  6
Continuous
 62
   120
370
     5
100
AcDbLine
 10
5102.215102265683
 20
2211.615772019391
 30
0.0
 11
4925.215102265675
 21
2388.615772019397
 31
0.0
  0
LINE
  5
130
330
1F
100
AcDbEntity
  8
0-C_ハッチ
  6
Continuous
 62
   120
370
     5
100
AcDbLine
 10
5102.215102265678
 20
2152.218802399747
 30
0.0
 11
4925.215102265675
 21
2329.21880239975
 31
0.0
  0
LINE
  5
131
330
1F
100
AcDbEntity
  8
0-C_ハッチ
  6
Continuous
 62
   120
370
     5
100
AcDbLine
 10
5102.21510226568
 20
2092.821832780045
 30
0.0
 11
4925.215102265675
 21
2269.821832780048
 31
0.0
  0
LINE
  5
132
330
1F
100
AcDbEntity
  8
0-C_ハッチ
  6
Continuous
 62
   120
370
     5
100
AcDbLine
 10
5102.21510226569
 20
2033.424863160387
 30
0.0
 11
4925.215102265675
 21
2210.4248631604
 31
0.0
  0
LINE
  5
133
330
1F
100
AcDbEntity
  8
0-C_ハッチ
  6
Continuous
 62
   120
370
     5
100
AcDbLine
 10
4925.215102265675
 20
2032.233954301403
 30
0.0
 11
4982.215102265676
 21
1975.233954301403
 31
0.0
  0
LINE
  5
134
330
1F
100
AcDbEntity
  8
0-3_仕上げ
  6
Continuous
 62
    40
370
    15
100
AcDbLine
 10
5102.215102265676
 20
2029.500190873769
 30
0.0
 11
5102.215102265676
 21
1954.500190873769
 31
0.0
  0
LINE
  5
135
330
1F
100
AcDbEntity
  8
0-4_枠
  6
Continuous
 62
    92
370
    13
100
AcDbLine
 10
5072.215102265676
 20
1966.500190873769
 30
0.0
 11
5072.215102265676
 21
2008.50019087377
 31
0.0
  0
LINE
  5
136
330
1F
100
AcDbEntity
  8
0-4_枠
  6
Continuous
 62
    92
370
    13
100
AcDbLine
 10
5102.215102265676
 20
2008.50019087377
 30
0.0
 11
5072.215102265676
 21
2008.50019087377
 31
0.0
  0
LINE
  5
137
330
1F
100
AcDbEntity
  8
0-4_枠
  6
Continuous
 62
    92
370
    13
100
AcDbLine
 10
5036.215102265674
 20
1966.500190873769
 30
0.0
 11
5072.215102265676
 21
1966.500190873769
 31
0.0
  0
LINE
  5
138
330
1F
100
AcDbEntity
  8
0-4_枠
  6
Continuous
 62
    92
370
    13
100
AcDbLine
 10
4922.215102265676
 20
1966.500190873769
 30
0.0
 11
4982.215102265676
 21
1966.500190873769
 31
0.0
  0
LINE
  5
139
330
1F
100
AcDbEntity
  8
0-4_枠
  6
Continuous
 62
    92
370
    13
100
AcDbLine
 10
5036.215102265674
 20
2026.500190873769
 30
0.0
 11
4982.215102265676
 21
2026.500190873769
 31
0.0
  0
LINE
  5
13A
330
1F
100
AcDbEntity
  8
0-4_枠
  6
Continuous
 62
    92
370
    13
100
AcDbLine
 10
5036.215102265674
 20
2026.500190873769
 30
0.0
 11
5036.215102265674
 21
1966.500190873769
 31
0.0
  0
LINE
  5
13B
330
1F
100
AcDbEntity
  8
0-4_枠
  6
Continuous
 62
    92
370
    13
100
AcDbLine
 10
4982.215102265676
 20
2026.500190873769
 30
0.0
 11
4982.215102265676
 21
1966.500190873769
 31
0.0
  0
LINE
  5
13C
330
1F
100
AcDbEntity
  8
0-C_ハッチ
  6
JWW_DASHED1
 62
   120
370
     5
100
AcDbLine
 10
552.4457541211657
 20
1954.499943433947
 30
0.0
 11
627.4460015609909
 21
2029.500190873769
 31
0.0
  0
LINE
  5
13D
330
1F
100
AcDbEntity
  8
0-6_扉
  6
Continuous
 62
   200
370
    20
100
AcDbLine
 10
890.2145084101187
 20
2176.500190873769
 30
0.0
 11
2894.214508410119
 21
2176.500190873769
 31
0.0
  0
LINE
  5
13E
330
1F
100
AcDbEntity
  8
0-6_扉
  6
Continuous
 62
   200
370
    20
100
AcDbLine
 10
2906.21450841012
 20
2176.500190873769
 30
0.0
 11
4910.214508410118
 21
2176.500190873769
 31
0.0
  0
LWPOLYLINE
  5
13F
330
1F
100
AcDbEntity
  8
0-B_寸法
  6
Continuous
 62
     7
370
     9
100
AcDbPolyline
 90
        4
 70
     1
 43
3.0
 10
1632.629000694355
 20
2176.500190873769
 42
0.4142135623731
 10
1631.129000694355
 20
2178.000190873769
 42
0.4142135623731
 10
1629.629000694355
 20
2176.500190873769
 42
0.4142135623731
 10
1631.129000694355
 20
2175.000190873769
 42
0.4142135623731
  0
LINE
  5
140
330
1F
100
AcDbEntity
  8
0-B_寸法
  6
Continuous
 62
   120
370
     5
100
AcDbLine
 10
1559.767603286205
 20
2176.500190873769
 30
0.0
 11
1631.129000694355
 21
2176.500190873769
 31
0.0
  0
MTEXT
  5
141
330
1F
100
AcDbEntity
  8
0-B_寸法
  6
Continuous
 62
     7
370
   211
100
AcDbMText
 10
1255.820742573976
 20
2197.530190873769
 30
0.0
 40
99.06
 41
195.0
 46
0.0
 71
     7
 72
     1
  1
{\fＭＳ ゴシック|b0|i0|c128|p49;105}
 11
6.123031769111886E-17
 21
1.0
 31
0.0
 73
     1
 44
1.0
  0
MTEXT
  5
142
330
1F
100
AcDbEntity
  8
0-B_寸法
  6
Continuous
 62
     7
370
   211
100
AcDbMText
 10
917.4963180170403
 20
1739.648052135911
 30
0.0
 40
74.295
 41
97.5
 46
0.0
 71
     7
 72
     1
  1
{\fＭＳ ゴシック|b0|i0|c128|p49;10}
 73
     1
 44
1.0
  0
MTEXT
  5
143
330
1F
100
AcDbEntity
  8
0-B_寸法
  6
Continuous
 62
     7
370
   211
100
AcDbMText
 10
653.2142857142838
 20
1616.790552135911
 30
0.0
 40
68.58
 41
45.0
 46
0.0
 71
     7
 72
     1
  1
{\fＭＳ ゴシック|b0|i0|c128|p49;5}
 73
     1
 44
1.0
  0
MTEXT
  5
144
330
1F
100
AcDbEntity
  8
0-B_寸法
  6
Continuous
 62
     7
370
   211
100
AcDbMText
 10
768.7142857142845
 20
1616.790552135911
 30
0.0
 40
68.58
 41
45.0
 46
0.0
 71
     7
 72
     1
  1
{\fＭＳ ゴシック|b0|i0|c128|p49;9}
 73
     1
 44
1.0
  0
MTEXT
  5
145
330
1F
100
AcDbEntity
  8
0-B_寸法
  6
Continuous
 62
     7
370
   211
100
AcDbMText
 10
631.9322534115306
 20
1496.790552135911
 30
0.0
 40
68.58
 41
45.0
 46
0.0
 71
     7
 72
     1
  1
{\fＭＳ ゴシック|b0|i0|c128|p49;6}
 73
     1
 44
1.0
  0
MTEXT
  5
146
330
1F
100
AcDbEntity
  8
0-B_寸法
  6
Continuous
 62
     7
370
   211
100
AcDbMText
 10
891.9356673805606
 20
1448.220552135911
 30
0.0
 40
91.44
 41
60.0
 46
0.0
 71
     7
 72
     1
  1
{\fＭＳ ゴシック|b0|i0|c128|p49;2}
 73
     1
 44
1.0
  0
MTEXT
  5
147
330
1F
100
AcDbEntity
  8
0-B_寸法
  6
Continuous
 62
     7
370
   211
100
AcDbMText
 10
1592.21450841012
 20
1453.300552135911
 30
0.0
 40
101.6
 41
600.0
 46
0.0
 71
     7
 72
     1
  1
{\fＭＳ ゴシック|b0|i0|c128|p49;ＤＷ＝334}
 73
     1
 44
1.0
  0
MTEXT
  5
148
330
1F
100
AcDbEntity
  8
0-B_寸法
  6
Continuous
 62
     7
370
   211
100
AcDbMText
 10
2911.384134874822
 20
1448.220552135911
 30
0.0
 40
91.44
 41
60.0
 46
0.0
 71
     7
 72
     1
  1
{\fＭＳ ゴシック|b0|i0|c128|p49;2}
 73
     1
 44
1.0
  0
MTEXT
  5
149
330
1F
100
AcDbEntity
  8
0-B_寸法
  6
Continuous
 62
     7
370
   211
100
AcDbMText
 10
3608.214508410119
 20
1453.300552135911
 30
0.0
 40
101.6
 41
600.0
 46
0.0
 71
     7
 72
     1
  1
{\fＭＳ ゴシック|b0|i0|c128|p49;ＤＷ＝334}
 73
     1
 44
1.0
  0
MTEXT
  5
14A
330
1F
100
AcDbEntity
  8
0-B_寸法
  6
Continuous
 62
     7
370
   211
100
AcDbMText
 10
4847.567907956731
 20
1448.220552135911
 30
0.0
 40
91.44
 41
60.0
 46
0.0
 71
     7
 72
     1
  1
{\fＭＳ ゴシック|b0|i0|c128|p49;2}
 73
     1
 44
1.0
  0
MTEXT
  5
14B
330
1F
100
AcDbEntity
  8
0-B_寸法
  6
Continuous
 62
     7
370
     0
100
AcDbMText
 10
720.7141991103447
 20
1271.077878928035
 30
0.0
 40
97.15499999999999
 41
127.5
 46
0.0
 71
     7
 72
     1
  1
{\fＭＳ ゴシック|b0|i0|c128|p49;30}
 73
     1
 44
1.0
  0
MTEXT
  5
14C
330
1F
100
AcDbEntity
  8
0-B_寸法
  6
Continuous
 62
     7
370
     0
100
AcDbMText
 10
4944.715349705501
 20
1271.077878928035
 30
0.0
 40
97.15499999999999
 41
127.5
 46
0.0
 71
     7
 72
     1
  1
{\fＭＳ ゴシック|b0|i0|c128|p49;30}
 73
     1
 44
1.0
  0
MTEXT
  5
14D
330
1F
100
AcDbEntity
  8
0-B_寸法
  6
Continuous
 62
     7
370
     0
100
AcDbMText
 10
2600.214693989981
 20
1270.300329440071
 30
0.0
 40
101.6
 41
600.0
 46
0.0
 71
     7
 72
     1
  1
{\fＭＳ ゴシック|b0|i0|c128|p49;枠内＝674}
 73
     1
 44
1.0
  0
MTEXT
  5
14E
330
1F
100
AcDbEntity
  8
0-B_寸法
  6
Continuous
 62
     7
370
     0
100
AcDbMText
 10
2600.214693989981
 20
1090.300106744231
 30
0.0
 40
101.6
 41
600.0
 46
0.0
 71
     7
 72
     1
  1
{\fＭＳ ゴシック|b0|i0|c128|p49;枠外＝734}
 73
     1
 44
1.0
  0
MTEXT
  5
14F
330
1F
100
AcDbEntity
  8
0-B_寸法
  6
Continuous
 62
     7
370
     9
100
AcDbMText
 10
698.5249018767215
 20
1077.690515494089
 30
0.0
 40
91.44
 41
60.0
 46
0.0
 71
     7
 72
     1
  1
{\fＭＳ ゴシック|b0|i0|c128|p49;5}
 73
     1
 44
1.0
  0
LINE
  5
150
330
1F
100
AcDbEntity
  8
0-B_寸法
  6
Continuous
 62
   120
370
     5
100
AcDbLine
 10
698.2142857142838
 20
1087.50010674423
 30
0.0
 11
5102.215102265676
 21
1087.50010674423
 31
0.0
  0
LINE
  5
151
330
1F
100
AcDbEntity
  8
0-B_寸法
  6
Continuous
 62
   120
370
     5
100
AcDbLine
 10
2108.214285714285
 20
-975.267170652154
 30
0.0
 11
2108.214285714285
 21
-823.0419443521541
 31
0.0
  0
LINE
  5
152
330
1F
100
AcDbEntity
  8
0-B_寸法
  6
Continuous
 62
   120
370
     5
100
AcDbLine
 10
2468.214285714285
 20
-661.2815403324119
 30
0.0
 11
2828.214285714285
 21
-661.2815403324119
 31
0.0
  0
LINE
  5
153
330
1F
100
AcDbEntity
  8
0-B_寸法
  6
Continuous
 62
   120
370
     5
100
AcDbLine
 10
2828.214285714285
 20
-641.3231679585728
 30
0.0
 11
3008.214879569858
 21
-641.3231679585728
 31
0.0
  0
LINE
  5
154
330
1F
100
AcDbEntity
  8
0-B_寸法
  6
Continuous
 62
   120
370
     5
100
AcDbLine
 10
2300.214285714284
 20
-463.281555178801
 30
0.0
 11
3188.215473425433
 21
-463.2815551788009
 31
0.0
  0
LWPOLYLINE
  5
155
330
1F
100
AcDbEntity
  8
0-B_寸法
  6
Continuous
 62
     7
370
     9
100
AcDbPolyline
 90
        4
 70
     1
 43
3.0
 10
2829.714285714284
 20
-661.2815403324119
 42
0.4142135623731
 10
2828.214285714285
 20
-659.7815403324119
 42
0.4142135623731
 10
2826.714285714285
 20
-661.2815403324119
 42
0.4142135623731
 10
2828.214285714285
 20
-662.7815403324119
 42
0.4142135623731
  0
LWPOLYLINE
  5
156
330
1F
100
AcDbEntity
  8
0-B_寸法
  6
Continuous
 62
     7
370
     9
100
AcDbPolyline
 90
        4
 70
     1
 43
3.0
 10
2829.714285714284
 20
-643.2814067149071
 42
0.4142135623731
 10
2828.214285714285
 20
-641.7814067149071
 42
0.4142135623731
 10
2826.714285714285
 20
-643.2814067149071
 42
0.4142135623731
 10
2828.214285714285
 20
-644.7814067149071
 42
0.4142135623731
  0
LWPOLYLINE
  5
157
330
1F
100
AcDbEntity
  8
0-B_寸法
  6
Continuous
 62
     7
370
     9
100
AcDbPolyline
 90
        4
 70
     1
 43
3.0
 10
3009.714879569858
 20
-641.3231679585728
 42
0.4142135623731
 10
3008.214879569858
 20
-639.8231679585728
 42
0.4142135623731
 10
3006.714879569858
 20
-641.3231679585728
 42
0.4142135623731
 10
3008.214879569858
 20
-642.8231679585728
 42
0.4142135623731
  0
LWPOLYLINE
  5
158
330
1F
100
AcDbEntity
  8
0-B_寸法
  6
Continuous
 62
     7
370
     9
100
AcDbPolyline
 90
        4
 70
     1
 43
3.0
 10
3009.714879569858
 20
-463.2815551788009
 42
0.4142135623731
 10
3008.214879569858
 20
-461.7815551788009
 42
0.4142135623731
 10
3006.714879569858
 20
-463.2815551788009
 42
0.4142135623731
 10
3008.214879569858
 20
-464.7815551788009
 42
0.4142135623731
  0
LINE
  5
159
330
1F
100
AcDbEntity
  8
0-B_寸法
  6
Continuous
 62
   120
370
     5
100
AcDbLine
 10
2828.214285714285
 20
-643.2814067149071
 30
0.0
 11
2468.214285714285
 21
-643.2814067149071
 31
0.0
  0
LINE
  5
15A
330
1F
100
AcDbEntity
  8
0-B_寸法
  6
Continuous
 62
   120
370
     5
100
AcDbLine
 10
3188.215473425433
 20
-463.280812859333
 30
0.0
 11
2552.213672063525
 21
-463.280812859333
 31
0.0
  0
LWPOLYLINE
  5
15B
330
1F
100
AcDbEntity
  8
0-B_寸法
  6
Continuous
 62
     7
370
     9
100
AcDbPolyline
 90
        4
 70
     1
 43
3.0
 10
3189.715473425433
 20
-463.2815551788009
 42
0.4142135623731
 10
3188.215473425433
 20
-461.7815551788009
 42
0.4142135623731
 10
3186.715473425433
 20
-463.2815551788009
 42
0.4142135623731
 10
3188.215473425433
 20
-464.7815551788009
 42
0.4142135623731
  0
LWPOLYLINE
  5
15C
330
1F
100
AcDbEntity
  8
0-B_寸法
  6
Continuous
 62
     7
370
     9
100
AcDbPolyline
 90
        4
 70
     1
 43
3.0
 10
3189.715473425433
 20
-463.280812859333
 42
0.4142135623731
 10
3188.215473425433
 20
-461.7808128593329
 42
0.4142135623731
 10
3186.715473425433
 20
-463.280812859333
 42
0.4142135623731
 10
3188.215473425433
 20
-464.780812859333
 42
0.4142135623731
  0
LINE
  5
15D
330
1F
100
AcDbEntity
  8
0-4_枠
  6
Continuous
 62
    92
370
    13
100
AcDbLine
 10
2108.214285714285
 20
-583.2815551788009
 30
0.0
 11
2048.214285714285
 21
-583.2815551788009
 31
0.0
  0
LINE
  5
15E
330
1F
100
AcDbEntity
  8
0-4_枠
  6
Continuous
 62
    92
370
    13
100
AcDbLine
 10
2108.214285714285
 20
-583.2815551788009
 30
0.0
 11
2108.214285714285
 21
-643.2815551788009
 31
0.0
  0
LINE
  5
15F
330
1F
100
AcDbEntity
  8
0-4_枠
  6
Continuous
 62
    92
370
    13
100
AcDbLine
 10
2048.214285714285
 20
-529.281555178801
 30
0.0
 11
2048.214285714285
 21
-583.2815551788009
 31
0.0
  0
LINE
  5
160
330
1F
100
AcDbEntity
  8
0-4_枠
  6
Continuous
 62
    92
370
    13
100
AcDbLine
 10
2108.214285714285
 20
-529.281555178801
 30
0.0
 11
2048.214285714285
 21
-529.281555178801
 31
0.0
  0
LINE
  5
161
330
1F
100
AcDbEntity
  8
0-4_枠
  6
Continuous
 62
    92
370
    13
100
AcDbLine
 10
2108.214285714285
 20
-529.281555178801
 30
0.0
 11
2108.214285714285
 21
-493.2815551788009
 31
0.0
  0
LINE
  5
162
330
1F
100
AcDbEntity
  8
0-4_枠
  6
Continuous
 62
    92
370
    13
100
AcDbLine
 10
2108.214285714285
 20
-493.2815551788009
 30
0.0
 11
2066.214285714285
 21
-493.2815551788009
 31
0.0
  0
LINE
  5
163
330
1F
100
AcDbEntity
  8
0-4_枠
  6
Continuous
 62
    92
370
    13
100
AcDbLine
 10
2066.214285714285
 20
-463.2815551788009
 30
0.0
 11
2066.214285714285
 21
-493.2815551788009
 31
0.0
  0
LINE
  5
164
330
1F
100
AcDbEntity
  8
0-3_仕上げ
  6
Continuous
 62
    40
370
    15
100
AcDbLine
 10
2120.214285714284
 20
-463.2815551788007
 30
0.0
 11
2045.214285714284
 21
-463.2815551788007
 31
0.0
  0
LINE
  5
165
330
1F
100
AcDbEntity
  8
0-C_ハッチ
  6
Continuous
 62
   120
370
     5
100
AcDbLine
 10
1748.639882301882
 20
-643.2817778746441
 30
0.0
 11
1568.639659606034
 21
-463.2815551787988
 31
0.0
  0
LINE
  5
166
330
1F
100
AcDbEntity
  8
0-C_ハッチ
  6
Continuous
 62
   120
370
     5
100
AcDbLine
 10
1808.036851921569
 20
-643.28177787463
 30
0.0
 11
1628.036629225723
 21
-463.2815551787847
 31
0.0
  0
LINE
  5
167
330
1F
100
AcDbEntity
  8
0-C_ハッチ
  6
Continuous
 62
   120
370
     5
100
AcDbLine
 10
1867.433821541228
 20
-643.2817778746428
 30
0.0
 11
1687.433598845384
 21
-463.2815551787971
 31
0.0
  0
LINE
  5
168
330
1F
100
AcDbEntity
  8
0-C_ハッチ
  6
Continuous
 62
   120
370
     5
100
AcDbLine
 10
1926.830791160936
 20
-643.2817778746484
 30
0.0
 11
1746.830568465096
 21
-463.2815551788082
 31
0.0
  0
LINE
  5
169
330
1F
100
AcDbEntity
  8
0-C_ハッチ
  6
Continuous
 62
   120
370
     5
100
AcDbLine
 10
1986.227760780577
 20
-643.2817778746412
 30
0.0
 11
1806.227538084729
 21
-463.2815551787954
 31
0.0
  0
LINE
  5
16A
330
1F
100
AcDbEntity
  8
0-C_ハッチ
  6
Continuous
 62
   120
370
     5
100
AcDbLine
 10
2045.624730400221
 20
-643.281777874639
 30
0.0
 11
1865.62450770438
 21
-463.2815551787984
 31
0.0
  0
LINE
  5
16B
330
1F
100
AcDbEntity
  8
0-C_ハッチ
  6
Continuous
 62
   120
370
     5
100
AcDbLine
 10
1689.242912682221
 20
-643.2817778746313
 30
0.0
 11
1509.242689986391
 21
-463.2815551788009
 31
0.0
  0
LINE
  5
16C
330
1F
100
AcDbEntity
  8
0-C_ハッチ
  6
Continuous
 62
   120
370
     5
100
AcDbLine
 10
2105.021477324085
 20
-643.2815551788009
 30
0.0
 11
1925.021477324078
 21
-463.2815551787941
 31
0.0
  0
LINE
  5
16D
330
1F
100
AcDbEntity
  8
0-C_ハッチ
  6
Continuous
 62
   120
370
     5
100
AcDbLine
 10
2108.214285714285
 20
-587.0773939493517
 30
0.0
 11
2104.418446943733
 21
-583.2815551788009
 31
0.0
  0
LINE
  5
16E
330
1F
100
AcDbEntity
  8
0-C_ハッチ
  6
Continuous
 62
   120
370
     5
100
AcDbLine
 10
2050.418446943732
 20
-529.2815551788008
 30
0.0
 11
1984.418446943738
 21
-463.2815551788069
 31
0.0
  0
LINE
  5
16F
330
1F
100
AcDbEntity
  8
0-C_ハッチ
  6
Continuous
 62
   120
370
     5
100
AcDbLine
 10
2043.815416563426
 20
-463.2815551787928
 30
0.0
 11
2066.214285714285
 21
-485.6804243296506
 31
0.0
  0
LINE
  5
170
330
1F
100
AcDbEntity
  8
0-C_ハッチ
  6
Continuous
 62
   120
370
     5
100
AcDbLine
 10
2073.815416563435
 20
-493.2815551788009
 30
0.0
 11
2108.214285714285
 21
-527.6804243296508
 31
0.0
  0
LINE
  5
171
330
1F
100
AcDbEntity
  8
0-C_ハッチ
  6
JWW_DASHED1
 62
   120
370
     5
100
AcDbLine
 10
2067.187684283753
 20
-463.2815551788009
 30
0.0
 11
2045.214285714284
 21
-441.308156609333
 31
0.0
  0
LINE
  5
172
330
1F
100
AcDbEntity
  8
0-C_ハッチ
  6
JWW_DASHED1
 62
   120
370
     5
100
AcDbLine
 10
2109.614211152419
 20
-463.2815551788009
 30
0.0
 11
2045.214285714284
 21
-398.8816297406673
 31
0.0
  0
LINE
  5
173
330
1F
100
AcDbEntity
  8
0-C_ハッチ
  6
JWW_DASHED1
 62
   120
370
     5
100
AcDbLine
 10
2120.21379083464
 20
-431.4546079923564
 30
0.0
 11
2045.214285714284
 21
-356.4551028720017
 31
0.0
  0
LINE
  5
174
330
1F
100
AcDbEntity
  8
0-C_ハッチ
  6
JWW_DASHED1
 62
   120
370
     5
100
AcDbLine
 10
2120.21379083464
 20
-389.0291946028931
 30
0.0
 11
2045.214285714284
 21
-314.0296894825384
 31
0.0
  0
LINE
  5
175
330
1F
100
AcDbEntity
  8
0-C_ハッチ
  6
JWW_DASHED1
 62
   120
370
     5
100
AcDbLine
 10
2120.21379083464
 20
-346.6026677342275
 30
0.0
 11
2045.214285714284
 21
-271.6031626138728
 31
0.0
  0
LINE
  5
176
330
1F
100
AcDbEntity
  8
0-C_ハッチ
  6
JWW_DASHED1
 62
   120
370
     5
100
AcDbLine
 10
2120.21379083464
 20
-304.1761408655618
 30
0.0
 11
2045.214285714284
 21
-229.1766357452072
 31
0.0
  0
LINE
  5
177
330
1F
100
AcDbEntity
  8
0-C_ハッチ
  6
JWW_DASHED1
 62
   120
370
     5
100
AcDbLine
 10
2120.21379083464
 20
-261.7499851566306
 30
0.0
 11
2045.214285714284
 21
-186.7504800362759
 31
0.0
  0
LWPOLYLINE
  5
178
330
1F
100
AcDbEntity
  8
0-B_寸法
  6
Continuous
 62
     7
370
     9
100
AcDbPolyline
 90
        4
 70
     1
 43
3.0
 10
2109.714285714284
 20
-975.267170652154
 42
0.4142135623731
 10
2108.214285714285
 20
-973.7671706521542
 42
0.4142135623731
 10
2106.714285714285
 20
-975.267170652154
 42
0.4142135623731
 10
2108.214285714285
 20
-976.7671706521539
 42
0.4142135623731
  0
LINE
  5
179
330
1F
100
AcDbEntity
  8
0-0_補助線
  6
JWW_HOJO
 62
    92
370
    13
100
AcDbLine
 10
2480.214285714284
 20
-643.2815551788011
 30
0.0
 11
2480.214285714284
 21
-463.281555178801
 31
0.0
  0
LWPOLYLINE
  5
17A
330
1F
100
AcDbEntity
  8
0-B_寸法
  6
Continuous
 62
     7
370
     9
100
AcDbPolyline
 90
        4
 70
     1
 43
3.0
 10
2481.714285714284
 20
-463.281555178801
 42
0.4142135623731
 10
2480.214285714284
 20
-461.781555178801
 42
0.4142135623731
 10
2478.714285714284
 20
-463.281555178801
 42
0.4142135623731
 10
2480.214285714284
 20
-464.7815551788011
 42
0.4142135623731
  0
LWPOLYLINE
  5
17B
330
1F
100
AcDbEntity
  8
0-B_寸法
  6
Continuous
 62
     7
370
     9
100
AcDbPolyline
 90
        4
 70
     1
 43
3.0
 10
2481.714285714284
 20
-493.281555178801
 42
0.4142135623731
 10
2480.214285714284
 20
-491.781555178801
 42
0.4142135623731
 10
2478.714285714284
 20
-493.281555178801
 42
0.4142135623731
 10
2480.214285714284
 20
-494.7815551788011
 42
0.4142135623731
  0
LWPOLYLINE
  5
17C
330
1F
100
AcDbEntity
  8
0-B_寸法
  6
Continuous
 62
     7
370
     9
100
AcDbPolyline
 90
        4
 70
     1
 43
3.0
 10
2481.714285714284
 20
-529.281555178801
 42
0.4142135623731
 10
2480.214285714284
 20
-527.781555178801
 42
0.4142135623731
 10
2478.714285714284
 20
-529.281555178801
 42
0.4142135623731
 10
2480.214285714284
 20
-530.781555178801
 42
0.4142135623731
  0
LWPOLYLINE
  5
17D
330
1F
100
AcDbEntity
  8
0-B_寸法
  6
Continuous
 62
     7
370
     9
100
AcDbPolyline
 90
        4
 70
     1
 43
3.0
 10
2481.714285714284
 20
-583.281555178801
 42
0.4142135623731
 10
2480.214285714284
 20
-581.781555178801
 42
0.4142135623731
 10
2478.714285714284
 20
-583.281555178801
 42
0.4142135623731
 10
2480.214285714284
 20
-584.781555178801
 42
0.4142135623731
  0
LWPOLYLINE
  5
17E
330
1F
100
AcDbEntity
  8
0-B_寸法
  6
Continuous
 62
     7
370
     9
100
AcDbPolyline
 90
        4
 70
     1
 43
3.0
 10
2481.714285714284
 20
-643.281555178801
 42
0.4142135623731
 10
2480.214285714284
 20
-641.781555178801
 42
0.4142135623731
 10
2478.714285714284
 20
-643.281555178801
 42
0.4142135623731
 10
2480.214285714284
 20
-644.781555178801
 42
0.4142135623731
  0
LINE
  5
17F
330
1F
100
AcDbEntity
  8
0-B_寸法
  6
Continuous
 62
   120
370
     5
100
AcDbLine
 10
2480.214285714284
 20
-643.281555178801
 30
0.0
 11
2480.214285714284
 21
-463.281555178801
 31
0.0
  0
LINE
  5
180
330
1F
100
AcDbEntity
  8
0-B_寸法
  6
Continuous
 62
   120
370
     5
100
AcDbLine
 10
2480.214285714284
 20
-643.281555178801
 30
0.0
 11
2300.214285714284
 21
-643.281555178801
 31
0.0
  0
LINE
  5
181
330
1F
100
AcDbEntity
  8
0-B_寸法
  6
Continuous
 62
   120
370
     5
100
AcDbLine
 10
2480.214285714284
 20
-529.281555178801
 30
0.0
 11
2300.214285714284
 21
-529.281555178801
 31
0.0
  0
LINE
  5
182
330
1F
100
AcDbEntity
  8
0-B_寸法
  6
Continuous
 62
   120
370
     5
100
AcDbLine
 10
2480.214285714284
 20
-583.281555178801
 30
0.0
 11
2300.214285714284
 21
-583.281555178801
 31
0.0
  0
LINE
  5
183
330
1F
100
AcDbEntity
  8
0-B_寸法
  6
Continuous
 62
   120
370
     5
100
AcDbLine
 10
2480.214285714284
 20
-493.281555178801
 30
0.0
 11
2300.214285714284
 21
-493.281555178801
 31
0.0
  0
LINE
  5
184
330
1F
100
AcDbEntity
  8
0-4_枠
  6
Continuous
 62
    92
370
    13
100
AcDbLine
 10
1478.214285714285
 20
-463.2815551788009
 30
0.0
 11
2066.214285714285
 21
-463.2815551788009
 31
0.0
  0
LINE
  5
185
330
1F
100
AcDbEntity
  8
0-4_枠
  6
Continuous
 62
    92
370
    13
100
AcDbLine
 10
1478.214285714285
 20
-463.2815551788009
 30
0.0
 11
1478.214285714285
 21
-643.2815551788009
 31
0.0
  0
LINE
  5
186
330
1F
100
AcDbEntity
  8
0-4_枠
  6
Continuous
 62
    92
370
    13
100
AcDbLine
 10
2108.214285714285
 20
-643.2815551788009
 30
0.0
 11
1478.214285714285
 21
-643.2815551788009
 31
0.0
  0
LINE
  5
187
330
1F
100
AcDbEntity
  8
0-4_枠
  6
Continuous
 62
    92
370
    13
100
AcDbLine
 10
2108.214285714285
 20
-640.2815551788009
 30
0.0
 11
1481.214285714285
 21
-640.2815551788009
 31
0.0
  0
LINE
  5
188
330
1F
100
AcDbEntity
  8
0-4_枠
  6
Continuous
 62
    92
370
    13
100
AcDbLine
 10
1481.214285714285
 20
-463.2815551788009
 30
0.0
 11
1481.214285714285
 21
-640.2815551788009
 31
0.0
  0
LINE
  5
189
330
1F
100
AcDbEntity
  8
0-C_ハッチ
  6
Continuous
 62
   120
370
     5
100
AcDbLine
 10
1629.845943062531
 20
-643.2817778746432
 30
0.0
 11
1481.214285714285
 21
-494.6501205263967
 31
0.0
  0
LINE
  5
18A
330
1F
100
AcDbEntity
  8
0-C_ハッチ
  6
Continuous
 62
   120
370
     5
100
AcDbLine
 10
1570.448973442874
 20
-643.281777874633
 30
0.0
 11
1481.214285714285
 21
-554.0470901460442
 31
0.0
  0
LINE
  5
18B
330
1F
100
AcDbEntity
  8
0-C_ハッチ
  6
Continuous
 62
   120
370
     5
100
AcDbLine
 10
1511.052003823216
 20
-643.281777874633
 30
0.0
 11
1481.214285714285
 21
-613.4440597657015
 31
0.0
  0
LINE
  5
18C
330
1F
100
AcDbEntity
  8
0-0_補助線
  6
JWW_HOJO
 62
   120
370
     5
100
AcDbLine
 10
2060.214285714284
 20
-823.0419443521541
 30
0.0
 11
1478.214285714285
 21
-823.0419443521541
 31
0.0
  0
LINE
  5
18D
330
1F
100
AcDbEntity
  8
0-0_補助線
  6
JWW_HOJO
 62
   120
370
     5
100
AcDbLine
 10
2060.214285714284
 20
-975.267170652154
 30
0.0
 11
1478.214285714285
 21
-975.267170652154
 31
0.0
  0
LINE
  5
18E
330
1F
100
AcDbEntity
  8
0-B_寸法
  6
Continuous
 62
   120
370
     5
100
AcDbLine
 10
1478.214285714285
 20
-975.267170652154
 30
0.0
 11
2108.214285714285
 21
-975.267170652154
 31
0.0
  0
LWPOLYLINE
  5
18F
330
1F
100
AcDbEntity
  8
0-B_寸法
  6
Continuous
 62
     7
370
     9
100
AcDbPolyline
 90
        4
 70
     1
 43
3.0
 10
1479.714285714285
 20
-975.267170652154
 42
0.4142135623731
 10
1478.214285714285
 20
-973.7671706521542
 42
0.4142135623731
 10
1476.714285714285
 20
-975.267170652154
 42
0.4142135623731
 10
1478.214285714285
 20
-976.7671706521539
 42
0.4142135623731
  0
LINE
  5
190
330
1F
100
AcDbEntity
  8
0-B_寸法
  6
Continuous
 62
   120
370
     5
100
AcDbLine
 10
1478.214285714285
 20
-975.267170652154
 30
0.0
 11
1478.214285714285
 21
-823.0419443521541
 31
0.0
  0
LINE
  5
191
330
1F
100
AcDbEntity
  8
0-B_寸法
  6
Continuous
 62
   120
370
     5
100
AcDbLine
 10
1898.220519683782
 20
-1387.790532409613
 30
0.0
 11
1898.220519683782
 21
-1453.281667465567
 31
0.0
  0
LWPOLYLINE
  5
192
330
1F
100
AcDbEntity
  8
0-B_寸法
  6
Continuous
 62
     7
370
     9
100
AcDbPolyline
 90
        4
 70
     1
 43
3.0
 10
1899.720519683782
 20
-1453.281667465567
 42
0.4142135623731
 10
1898.220519683782
 20
-1451.781667465568
 42
0.4142135623731
 10
1896.720519683782
 20
-1453.281667465567
 42
0.4142135623731
 10
1898.220519683782
 20
-1454.781667465567
 42
0.4142135623731
  0
LINE
  5
193
330
1F
100
AcDbEntity
  8
0-0_補助線
  6
JWW_HOJO
 62
   120
370
     5
100
AcDbLine
 10
3188.214285714285
 20
-3187.281540616992
 30
0.0
 11
698.2142857142846
 21
-3187.281540616992
 31
0.0
  0
LINE
  5
194
330
1F
100
AcDbEntity
  8
0-B_寸法
  6
Continuous
 62
   120
370
     5
100
AcDbLine
 10
2468.214285714285
 20
-3115.281986283208
 30
0.0
 11
3008.214879569858
 21
-3115.281986283208
 31
0.0
  0
LWPOLYLINE
  5
195
330
1F
100
AcDbEntity
  8
0-B_寸法
  6
Continuous
 62
     7
370
     9
100
AcDbPolyline
 90
        4
 70
     1
 43
3.0
 10
3009.714879569858
 20
-3115.281986283208
 42
0.4142135623731
 10
3008.214879569858
 20
-3113.781986283208
 42
0.4142135623731
 10
3006.714879569858
 20
-3115.281986283208
 42
0.4142135623731
 10
3008.214879569858
 20
-3116.781986283208
 42
0.4142135623731
  0
LWPOLYLINE
  5
196
330
1F
100
AcDbEntity
  8
0-B_寸法
  6
Continuous
 62
     7
370
     9
100
AcDbPolyline
 90
        4
 70
     1
 43
3.0
 10
3009.714879569858
 20
-3115.281748740978
 42
0.4142135623731
 10
3008.214879569858
 20
-3113.781748740979
 42
0.4142135623731
 10
3006.714879569858
 20
-3115.281748740978
 42
0.4142135623731
 10
3008.214879569858
 20
-3116.781748740978
 42
0.4142135623731
  0
LWPOLYLINE
  5
197
330
1F
100
AcDbEntity
  8
0-B_寸法
  6
Continuous
 62
     7
370
     9
100
AcDbPolyline
 90
        4
 70
     1
 43
3.0
 10
3189.715473425433
 20
-3187.281540891528
 42
0.4142135623731
 10
3188.215473425433
 20
-3185.781540891528
 42
0.4142135623731
 10
3186.715473425433
 20
-3187.281540891528
 42
0.4142135623731
 10
3188.215473425433
 20
-3188.781540891527
 42
0.4142135623731
  0
LINE
  5
198
330
1F
100
AcDbEntity
  8
0-B_寸法
  6
Continuous
 62
   120
370
     5
100
AcDbLine
 10
2468.214285714285
 20
-3187.281540891528
 30
0.0
 11
3188.215473425433
 21
-3187.281540891528
 31
0.0
  0
LINE
  5
199
330
1F
100
AcDbEntity
  8
0-3_仕上げ
  6
Continuous
 62
    40
370
    15
100
AcDbLine
 10
1070.214285714284
 20
-3115.281748740978
 30
0.0
 11
2480.214285714284
 21
-3115.281748740978
 31
0.0
  0
LINE
  5
19A
330
1F
100
AcDbEntity
  8
0-3_仕上げ
  6
Continuous
 62
     7
370
     9
100
AcDbLine
 10
2480.214285714284
 20
-3163.282352494145
 30
0.0
 11
1070.214285714284
 21
-3163.282352494145
 31
0.0
  0
LINE
  5
19B
330
1F
100
AcDbEntity
  8
0-3_仕上げ
  6
Continuous
 62
     7
370
     9
100
AcDbLine
 10
1070.214285714284
 20
-3127.282085259137
 30
0.0
 11
2480.214285714284
 21
-3127.282085259137
 31
0.0
  0
LINE
  5
19C
330
1F
100
AcDbEntity
  8
0-3_仕上げ
  6
Continuous
 62
     7
370
     9
100
AcDbLine
 10
1070.214285714284
 20
-3139.281679457828
 30
0.0
 11
2480.214285714284
 21
-3139.281679457828
 31
0.0
  0
LINE
  5
19D
330
1F
100
AcDbEntity
  8
0-3_仕上げ
  6
Continuous
 62
     7
370
     9
100
AcDbLine
 10
2480.214285714284
 20
-3151.282015975988
 30
0.0
 11
1070.214285714284
 21
-3151.282015975988
 31
0.0
  0
LINE
  5
19E
330
1F
100
AcDbEntity
  8
0-3_仕上げ
  6
Continuous
 62
     7
370
     9
100
AcDbLine
 10
2480.214285714284
 20
-3175.281946692835
 30
0.0
 11
1070.214285714284
 21
-3175.281946692835
 31
0.0
  0
LINE
  5
19F
330
1F
100
AcDbEntity
  8
0-3_仕上げ
  6
Continuous
 62
    40
370
    15
100
AcDbLine
 10
1070.214285714284
 20
-3187.281540891528
 30
0.0
 11
2480.214285714284
 21
-3187.281540891528
 31
0.0
  0
LINE
  5
1A0
330
1F
100
AcDbEntity
  8
0-B_寸法
  6
Continuous
 62
   120
370
     5
100
AcDbLine
 10
2468.214285714285
 20
-3001.281748740979
 30
0.0
 11
2828.214285714285
 21
-3001.281748740979
 31
0.0
  0
LWPOLYLINE
  5
1A1
330
1F
100
AcDbEntity
  8
0-B_寸法
  6
Continuous
 62
     7
370
     9
100
AcDbPolyline
 90
        4
 70
     1
 43
3.0
 10
2829.714285714284
 20
-3001.281748740979
 42
0.4142135623731
 10
2828.214285714285
 20
-2999.781748740979
 42
0.4142135623731
 10
2826.714285714285
 20
-3001.281748740979
 42
0.4142135623731
 10
2828.214285714285
 20
-3002.781748740978
 42
0.4142135623731
  0
LWPOLYLINE
  5
1A2
330
1F
100
AcDbEntity
  8
0-B_寸法
  6
Continuous
 62
     7
370
     9
100
AcDbPolyline
 90
        4
 70
     1
 43
3.0
 10
2829.714285714284
 20
-3025.281748740978
 42
0.4142135623731
 10
2828.214285714285
 20
-3023.781748740979
 42
0.4142135623731
 10
2826.714285714285
 20
-3025.281748740978
 42
0.4142135623731
 10
2828.214285714285
 20
-3026.781748740978
 42
0.4142135623731
  0
LINE
  5
1A3
330
1F
100
AcDbEntity
  8
0-B_寸法
  6
Continuous
 62
   120
370
     5
100
AcDbLine
 10
2468.214285714285
 20
-3025.281748740978
 30
0.0
 11
3008.214879569858
 21
-3025.281748740978
 31
0.0
  0
LWPOLYLINE
  5
1A4
330
1F
100
AcDbEntity
  8
0-B_寸法
  6
Continuous
 62
     7
370
     9
100
AcDbPolyline
 90
        4
 70
     1
 43
3.0
 10
3009.714879569858
 20
-3025.281748740978
 42
0.4142135623731
 10
3008.214879569858
 20
-3023.781748740979
 42
0.4142135623731
 10
3006.714879569858
 20
-3025.281748740978
 42
0.4142135623731
 10
3008.214879569858
 20
-3026.781748740978
 42
0.4142135623731
  0
LWPOLYLINE
  5
1A5
330
1F
100
AcDbEntity
  8
0-B_寸法
  6
Continuous
 62
     7
370
     9
100
AcDbPolyline
 90
        4
 70
     1
 43
3.0
 10
3009.714879569858
 20
-3025.28151119875
 42
0.4142135623731
 10
3008.214879569858
 20
-3023.78151119875
 42
0.4142135623731
 10
3006.714879569858
 20
-3025.28151119875
 42
0.4142135623731
 10
3008.214879569858
 20
-3026.78151119875
 42
0.4142135623731
  0
LINE
  5
1A6
330
1F
100
AcDbEntity
  8
0-B_寸法
  6
Continuous
 62
   120
370
     5
100
AcDbLine
 10
2828.214285714285
 20
-3115.281748740978
 30
0.0
 11
3188.215473425433
 21
-3115.281748740978
 31
0.0
  0
LWPOLYLINE
  5
1A7
330
1F
100
AcDbEntity
  8
0-B_寸法
  6
Continuous
 62
     7
370
     9
100
AcDbPolyline
 90
        4
 70
     1
 43
3.0
 10
3189.714285714284
 20
-3115.281748740978
 42
0.4142135623731
 10
3188.214285714285
 20
-3113.781748740979
 42
0.4142135623731
 10
3186.714285714285
 20
-3115.281748740978
 42
0.4142135623731
 10
3188.214285714285
 20
-3116.781748740978
 42
0.4142135623731
  0
LINE
  5
1A8
330
1F
100
AcDbEntity
  8
0-0_補助線
  6
Continuous
 62
    92
370
    13
100
AcDbLine
 10
1727.056156013898
 20
-3025.281748740978
 30
0.0
 11
1637.056156013898
 21
-3115.281748740978
 31
0.0
  0
LINE
  5
1A9
330
1F
100
AcDbEntity
  8
0-0_補助線
  6
Continuous
 62
     7
370
     9
100
AcDbLine
 10
2009.214285714286
 20
-3085.281748740978
 30
0.0
 11
1715.214285714284
 21
-3085.281748740978
 31
0.0
  0
LINE
  5
1AA
330
1F
100
AcDbEntity
  8
0-0_補助線
  6
Continuous
 62
     7
370
     9
100
AcDbLine
 10
1715.214285714284
 20
-3085.281748740978
 30
0.0
 11
1715.214285714284
 21
-3115.281748740978
 31
0.0
  0
LINE
  5
1AB
330
1F
100
AcDbEntity
  8
0-0_補助線
  6
Continuous
 62
     7
370
     9
100
AcDbLine
 10
2009.214285714286
 20
-3085.281748740978
 30
0.0
 11
2009.214285714286
 21
-3115.281748740978
 31
0.0
  0
ARC
  5
1AC
330
1F
100
AcDbEntity
  8
0-0_補助線
  6
Continuous
 62
    92
370
    13
100
AcDbCircle
 10
2075.214285714284
 20
-3037.281748740979
 30
0.0
 40
12.0
100
AcDbArc
 50
0.0000000000000127
 51
90.00000000000001
  0
LINE
  5
1AD
330
1F
100
AcDbEntity
  8
0-0_補助線
  6
Continuous
 62
    92
370
    13
100
AcDbLine
 10
2087.214285714284
 20
-3037.281748740979
 30
0.0
 11
2087.214285714284
 21
-3115.281748740978
 31
0.0
  0
LINE
  5
1AE
330
1F
100
AcDbEntity
  8
0-0_補助線
  6
Continuous
 62
    92
370
    13
100
AcDbLine
 10
1637.214285714287
 20
-3037.281748740979
 30
0.0
 11
1637.214285714287
 21
-3115.281748740978
 31
0.0
  0
ARC
  5
1AF
330
1F
100
AcDbEntity
  8
0-0_補助線
  6
Continuous
 62
    92
370
    13
100
AcDbCircle
 10
1649.214285714286
 20
-3037.281748740979
 30
0.0
 40
12.0
100
AcDbArc
 50
90.0
 51
180.0
  0
LINE
  5
1B0
330
1F
100
AcDbEntity
  8
0-0_補助線
  6
Continuous
 62
    92
370
    13
100
AcDbLine
 10
2075.214285714284
 20
-3025.281748740978
 30
0.0
 11
1649.214285714286
 21
-3025.281748740978
 31
0.0
  0
LINE
  5
1B1
330
1F
100
AcDbEntity
  8
0-0_補助線
  6
Continuous
 62
    92
370
    13
100
AcDbLine
 10
2087.214285714284
 20
-3089.387687752519
 30
0.0
 11
2061.320224725824
 21
-3115.281748740978
 31
0.0
  0
LINE
  5
1B2
330
1F
100
AcDbEntity
  8
0-0_補助線
  6
Continuous
 62
    92
370
    13
100
AcDbLine
 10
1811.908969756285
 20
-3025.281748740978
 30
0.0
 11
1751.908969756285
 21
-3085.281748740978
 31
0.0
  0
LINE
  5
1B3
330
1F
100
AcDbEntity
  8
0-0_補助線
  6
Continuous
 62
    92
370
    13
100
AcDbLine
 10
1896.761783498668
 20
-3025.281748740978
 30
0.0
 11
1836.761783498668
 21
-3085.281748740978
 31
0.0
  0
LINE
  5
1B4
330
1F
100
AcDbEntity
  8
0-0_補助線
  6
Continuous
 62
    92
370
    13
100
AcDbLine
 10
1981.614597241054
 20
-3025.281748740978
 30
0.0
 11
1921.614597241054
 21
-3085.281748740978
 31
0.0
  0
LINE
  5
1B5
330
1F
100
AcDbEntity
  8
0-0_補助線
  6
Continuous
 62
    92
370
    13
100
AcDbLine
 10
2066.46741098344
 20
-3025.281748740978
 30
0.0
 11
2006.46741098344
 21
-3085.281748740978
 31
0.0
  0
LINE
  5
1B6
330
1F
100
AcDbEntity
  8
0-0_補助線
  6
Continuous
 62
     7
370
     9
100
AcDbLine
 10
1715.214285714284
 20
-3097.23023527419
 30
0.0
 11
1733.265799181072
 21
-3115.281748740978
 31
0.0
  0
LINE
  5
1B7
330
1F
100
AcDbEntity
  8
0-0_補助線
  6
Continuous
 62
     7
370
     9
100
AcDbLine
 10
2000.250647279421
 20
-3085.281748740978
 30
0.0
 11
2009.214285714286
 21
-3094.245387175843
 31
0.0
  0
LINE
  5
1B8
330
1F
100
AcDbEntity
  8
0-0_補助線
  6
Continuous
 62
     7
370
     9
100
AcDbLine
 10
1957.824240408228
 20
-3085.281748740978
 30
0.0
 11
1987.824240408228
 21
-3115.281748740978
 31
0.0
  0
LINE
  5
1B9
330
1F
100
AcDbEntity
  8
0-0_補助線
  6
Continuous
 62
     7
370
     9
100
AcDbLine
 10
1915.397833537038
 20
-3085.281748740978
 30
0.0
 11
1945.397833537038
 21
-3115.281748740978
 31
0.0
  0
LINE
  5
1BA
330
1F
100
AcDbEntity
  8
0-0_補助線
  6
Continuous
 62
     7
370
     9
100
AcDbLine
 10
1872.971426665845
 20
-3085.281748740978
 30
0.0
 11
1902.971426665845
 21
-3115.281748740978
 31
0.0
  0
LINE
  5
1BB
330
1F
100
AcDbEntity
  8
0-0_補助線
  6
Continuous
 62
     7
370
     9
100
AcDbLine
 10
1830.545019794652
 20
-3085.281748740978
 30
0.0
 11
1860.545019794652
 21
-3115.281748740978
 31
0.0
  0
LINE
  5
1BC
330
1F
100
AcDbEntity
  8
0-0_補助線
  6
Continuous
 62
     7
370
     9
100
AcDbLine
 10
1788.118612923459
 20
-3085.281748740978
 30
0.0
 11
1818.118612923459
 21
-3115.281748740978
 31
0.0
  0
LINE
  5
1BD
330
1F
100
AcDbEntity
  8
0-0_補助線
  6
Continuous
 62
     7
370
     9
100
AcDbLine
 10
1745.692206052265
 20
-3085.281748740978
 30
0.0
 11
1775.692206052265
 21
-3115.281748740978
 31
0.0
  0
LINE
  5
1BE
330
1F
100
AcDbEntity
  8
0-4_枠
  6
Continuous
 62
    92
370
    13
100
AcDbLine
 10
1637.214285714287
 20
-3115.281748740978
 30
0.0
 11
2087.214285714284
 21
-3115.281748740978
 31
0.0
  0
LINE
  5
1BF
330
1F
100
AcDbEntity
  8
0-B_寸法
  6
Continuous
 62
   120
370
     5
100
AcDbLine
 10
1637.214285714285
 20
-2965.77802282526
 30
0.0
 11
1637.214285714285
 21
-2850.953078251779
 31
0.0
  0
LWPOLYLINE
  5
1C0
330
1F
100
AcDbEntity
  8
0-B_寸法
  6
Continuous
 62
     7
370
     9
100
AcDbPolyline
 90
        4
 70
     1
 43
3.0
 10
1638.714285714285
 20
-2850.953078251779
 42
0.4142135623731
 10
1637.214285714285
 20
-2849.453078251779
 42
0.4142135623731
 10
1635.714285714285
 20
-2850.953078251779
 42
0.4142135623731
 10
1637.214285714285
 20
-2852.453078251779
 42
0.4142135623731
  0
LINE
  5
1C1
330
1F
100
AcDbEntity
  8
0-B_寸法
  6
Continuous
 62
   120
370
     5
100
AcDbLine
 10
2087.214285714285
 20
-2850.953078251779
 30
0.0
 11
1637.214285714285
 21
-2850.953078251779
 31
0.0
  0
LWPOLYLINE
  5
1C2
330
1F
100
AcDbEntity
  8
0-B_寸法
  6
Continuous
 62
     7
370
     9
100
AcDbPolyline
 90
        4
 70
     1
 43
3.0
 10
2088.714285714285
 20
-2850.953078251779
 42
0.4142135623731
 10
2087.214285714285
 20
-2849.453078251779
 42
0.4142135623731
 10
2085.714285714285
 20
-2850.953078251779
 42
0.4142135623731
 10
2087.214285714285
 20
-2852.453078251779
 42
0.4142135623731
  0
LINE
  5
1C3
330
1F
100
AcDbEntity
  8
0-B_寸法
  6
Continuous
 62
   120
370
     5
100
AcDbLine
 10
2087.214285714285
 20
-2965.77802282526
 30
0.0
 11
2087.214285714285
 21
-2850.953078251779
 31
0.0
  0
LINE
  5
1C4
330
1F
100
AcDbEntity
  8
0-B_寸法
  6
Continuous
 62
   120
370
     5
100
AcDbLine
 10
3188.215473425433
 20
-3187.281540891528
 30
0.0
 11
3188.215473425433
 21
-463.2815551788009
 31
0.0
  0
LINE
  5
1C5
330
1F
100
AcDbEntity
  8
0-B_寸法
  6
Continuous
 62
   120
370
     5
100
AcDbLine
 10
2828.214285714285
 20
-3025.281748740978
 30
0.0
 11
2828.214285714285
 21
-643.2814067149071
 31
0.0
  0
LINE
  5
1C6
330
1F
100
AcDbEntity
  8
0-0_補助線
  6
JWW_HOJO
 62
   120
370
     5
100
AcDbLine
 10
698.2142857142846
 20
-139.281540514917
 30
0.0
 11
698.2142857142846
 21
-3187.281540616992
 31
0.0
  0
LINE
  5
1C7
330
1F
100
AcDbEntity
  8
0-C_ハッチ
  6
JWW_DASHED1
 62
   120
370
     5
100
AcDbLine
 10
2120.21379083464
 20
-176.8969314192994
 30
0.0
 11
2082.598399930258
 21
-139.281540514917
 31
0.0
  0
LINE
  5
1C8
330
1F
100
AcDbEntity
  8
0-3_仕上げ
  6
Continuous
 62
    40
370
    15
100
AcDbLine
 10
2045.214285714284
 20
-463.2815551788007
 30
0.0
 11
2045.214285714284
 21
-139.281540514917
 31
0.0
  0
LINE
  5
1C9
330
1F
100
AcDbEntity
  8
0-3_仕上げ
  6
Continuous
 62
    40
370
    15
100
AcDbLine
 10
2120.214285714284
 20
-463.2815551788007
 30
0.0
 11
2120.214285714284
 21
-139.281540514917
 31
0.0
  0
LINE
  5
1CA
330
1F
100
AcDbEntity
  8
0-1_通り芯
  6
JWW_CENTER1
 62
   120
370
     5
100
AcDbLine
 10
1793.214285714285
 20
-3268.775612243934
 30
0.0
 11
1793.214285714285
 21
-139.281540514917
 31
0.0
  0
LINE
  5
1CB
330
1F
100
AcDbEntity
  8
0-0_補助線
  6
JWW_HOJO
 62
   120
370
     5
100
AcDbLine
 10
2828.214285714285
 20
-139.281540514917
 30
0.0
 11
2828.214285714285
 21
-3187.281540616992
 31
0.0
  0
LINE
  5
1CC
330
1F
100
AcDbEntity
  8
0-0_補助線
  6
JWW_HOJO
 62
   120
370
     5
100
AcDbLine
 10
3188.214285714285
 20
-139.281540514917
 30
0.0
 11
3188.214285714285
 21
-3187.281540616992
 31
0.0
  0
LINE
  5
1CD
330
1F
100
AcDbEntity
  8
0-0_補助線
  6
JWW_HOJO
 62
   120
370
     5
100
AcDbLine
 10
1070.214285714284
 20
-139.281540514917
 30
0.0
 11
1070.214285714284
 21
-3187.281540616992
 31
0.0
  0
LINE
  5
1CE
330
1F
100
AcDbEntity
  8
0-0_補助線
  6
JWW_HOJO
 62
   120
370
     5
100
AcDbLine
 10
2480.214285714284
 20
-139.281540514917
 30
0.0
 11
2480.214285714284
 21
-3187.281540616992
 31
0.0
  0
LINE
  5
1CF
330
1F
100
AcDbEntity
  8
0-0_補助線
  6
JWW_HOJO
 62
   120
370
     5
100
AcDbLine
 10
3188.214285714285
 20
-139.281540514917
 30
0.0
 11
698.2142857142846
 21
-139.281540514917
 31
0.0
  0
LINE
  5
1D0
330
1F
100
AcDbEntity
  8
0-C_ハッチ
  6
JWW_DASHED1
 62
   120
370
     5
100
AcDbLine
 10
2120.21379083464
 20
-219.323458287965
 30
0.0
 11
2045.214285714284
 21
-144.3239531676107
 31
0.0
  0
LINE
  5
1D1
330
1F
100
AcDbEntity
  8
0-0_補助線
  6
JWW_HOJO
 62
   120
370
     5
100
AcDbLine
 10
2150.220608762119
 20
-1861.281644536695
 30
0.0
 11
1772.220519683784
 21
-1861.281644536695
 31
0.0
  0
LINE
  5
1D2
330
1F
100
AcDbEntity
  8
0-0_補助線
  6
JWW_HOJO
 62
   120
370
     5
100
AcDbLine
 10
2150.220608762119
 20
-1981.281644536695
 30
0.0
 11
1772.220519683784
 21
-1981.281644536695
 31
0.0
  0
LINE
  5
1D3
330
1F
100
AcDbEntity
  8
0-6_扉
  6
Continuous
 62
   200
370
    20
100
AcDbLine
 10
1898.220519683782
 20
-3001.281748740979
 30
0.0
 11
1898.220519683782
 21
-1981.281644536695
 31
0.0
  0
LINE
  5
1D4
330
1F
100
AcDbEntity
  8
0-6_扉
  6
Continuous
 62
   200
370
    20
100
AcDbLine
 10
1898.220519683782
 20
-1861.281644536695
 30
0.0
 11
1898.220519683782
 21
-661.2815403324119
 31
0.0
  0
MTEXT
  5
1D5
330
1F
100
AcDbEntity
  8
0-B_寸法
  6
Continuous
 62
     7
370
   211
100
AcDbMText
 10
2477.421745563828
 20
-587.1371476441053
 30
0.0
 40
68.58
 41
45.0
 46
0.0
 71
     7
 72
     1
  1
{\fＭＳ ゴシック|b0|i0|c128|p49;9}
 11
6.123031769111886E-17
 21
1.0
 31
0.0
 73
     1
 44
1.0
  0
MTEXT
  5
1D6
330
1F
100
AcDbEntity
  8
0-B_寸法
  6
Continuous
 62
     7
370
     0
100
AcDbMText
 10
2993.214830081894
 20
-631.2248739406783
 30
0.0
 40
97.15499999999999
 41
127.5
 46
0.0
 71
     7
 72
     1
  1
{\fＭＳ ゴシック|b0|i0|c128|p49;30}
 11
6.123031769111886E-17
 21
1.0
 31
0.0
 73
     1
 44
1.0
  0
MTEXT
  5
1D7
330
1F
100
AcDbEntity
  8
0-B_寸法
  6
Continuous
 62
     7
370
     0
100
AcDbMText
 10
2812.817095310991
 20
-736.842511550211
 30
0.0
 40
91.43999999999984
 41
59.99999999999989
 46
0.0
 71
     7
 72
     1
  1
{\fＭＳ ゴシック|b0|i0|c128|p49;3}
 11
6.123031769111886E-17
 21
1.0
 31
0.0
 73
     1
 44
1.0
  0
MTEXT
  5
1D8
330
1F
100
AcDbEntity
  8
0-B_寸法
  6
Continuous
 62
     7
370
   211
100
AcDbMText
 10
1671.714285714284
 20
-970.7371706521541
 30
0.0
 40
99.06
 41
195.0
 46
0.0
 71
     7
 72
     1
  1
{\fＭＳ ゴシック|b0|i0|c128|p49;105}
 73
     1
 44
1.0
  0
MTEXT
  5
1D9
330
1F
100
AcDbEntity
  8
0-B_寸法
  6
Continuous
 62
     7
370
     0
100
AcDbMText
 10
1813.463914554552
 20
-2843.804786444347
 30
0.0
 40
74.295
 41
97.5
 46
0.0
 71
     7
 72
     1
  1
{\fＭＳ ゴシック|b0|i0|c128|p49;75}
 73
     1
 44
1.0
  0
LINE
  5
1DA
330
1F
100
AcDbEntity
  8
0-B_寸法
  6
Continuous
 62
   120
370
     5
100
AcDbLine
 10
3008.214879569858
 20
-3115.281986283208
 30
0.0
 11
3008.214879569858
 21
-463.2815551788009
 31
0.0
  0
LINE
  5
1DB
330
1F
100
AcDbEntity
  8
0-0_補助線
  6
JWW_HOJO
 62
   120
370
     5
100
AcDbLine
 10
3008.214285714285
 20
-139.281540514917
 30
0.0
 11
3008.214285714285
 21
-3115.281986283208
 31
0.0
  0
LINE
  5
1DC
330
1F
100
AcDbEntity
  8
0-0_補助線
  6
Continuous
 62
    92
370
    13
100
AcDbLine
 10
3602.215102265679
 20
-643.2808128593331
 30
0.0
 11
5102.215102265676
 21
-643.2808128593331
 31
0.0
  0
LINE
  5
1DD
330
1F
100
AcDbEntity
  8
0-0_補助線
  6
Continuous
 62
    92
370
    13
100
AcDbLine
 10
3602.215102265679
 20
-463.280812859333
 30
0.0
 11
5102.215102265676
 21
-463.280812859333
 31
0.0
  0
LINE
  5
1DE
330
1F
100
AcDbEntity
  8
0-0_補助線
  6
Continuous
 62
    92
370
    13
100
AcDbLine
 10
3602.215102265683
 20
-2494.310130868118
 30
0.0
 11
3602.215102265679
 21
-463.280812859333
 31
0.0
  0
LINE
  5
1DF
330
1F
100
AcDbEntity
  8
0-0_補助線
  6
Continuous
 62
    92
370
    13
100
AcDbLine
 10
5102.21510226568
 20
-2494.310130868118
 30
0.0
 11
3602.215102265683
 21
-2494.310130868118
 31
0.0
  0
LINE
  5
1E0
330
1F
100
AcDbEntity
  8
0-0_補助線
  6
Continuous
 62
    92
370
    13
100
AcDbLine
 10
5102.21510226568
 20
-2494.310130868118
 30
0.0
 11
5102.215102265676
 21
-463.280812859333
 31
0.0
  0
LINE
  5
1E1
330
1F
100
AcDbEntity
  8
0-0_補助線
  6
Continuous
 62
   120
370
     5
100
AcDbLine
 10
4044.321281342743
 20
-943.2088189920083
 30
0.0
 11
4674.321281342743
 21
-943.2088189920083
 31
0.0
  0
LWPOLYLINE
  5
1E2
330
1F
100
AcDbEntity
  8
0-0_補助線
  6
Continuous
 62
     7
370
     9
100
AcDbPolyline
 90
        4
 70
     1
 43
3.0
 10
4045.821281342743
 20
-943.2088189920083
 42
0.4142135623731
 10
4044.321281342743
 20
-941.7088189920083
 42
0.4142135623731
 10
4042.821281342742
 20
-943.2088189920083
 42
0.4142135623731
 10
4044.321281342743
 20
-944.7088189920084
 42
0.4142135623731
  0
LWPOLYLINE
  5
1E3
330
1F
100
AcDbEntity
  8
0-0_補助線
  6
Continuous
 62
     7
370
     9
100
AcDbPolyline
 90
        4
 70
     1
 43
3.0
 10
4675.821281342743
 20
-943.2088189920083
 42
0.4142135623731
 10
4674.321281342743
 20
-941.7088189920083
 42
0.4142135623731
 10
4672.821281342742
 20
-943.2088189920083
 42
0.4142135623731
 10
4674.321281342743
 20
-944.7088189920084
 42
0.4142135623731
  0
LINE
  5
1E4
330
1F
100
AcDbEntity
  8
0-0_補助線
  6
Continuous
 62
   120
370
     5
100
AcDbLine
 10
4044.321281342743
 20
-943.2088189920083
 30
0.0
 11
4044.321281342743
 21
-1106.008183058741
 31
0.0
  0
LINE
  5
1E5
330
1F
100
AcDbEntity
  8
0-0_補助線
  6
Continuous
 62
   120
370
     5
100
AcDbLine
 10
4674.321281342743
 20
-943.2088189920083
 30
0.0
 11
4674.321281342743
 21
-1106.008183058741
 31
0.0
  0
MTEXT
  5
1E6
330
1F
100
AcDbEntity
  8
0-0_補助線
  6
Continuous
 62
     7
370
   211
100
AcDbMText
 10
4265.18449356036
 20
-938.6788189920084
 30
0.0
 40
99.06
 41
195.0
 46
0.0
 71
     7
 72
     1
  1
{\fＭＳ ゴシック|b0|i0|c128|p49;105}
 73
     1
 44
1.0
  0
LINE
  5
1E7
330
1F
100
AcDbEntity
  8
0-0_補助線
  6
Continuous
 62
    92
370
    13
100
AcDbLine
 10
4674.321281342743
 20
-1198.932559038532
 30
0.0
 11
4674.321281342743
 21
-1933.128111295016
 31
0.0
  0
LINE
  5
1E8
330
1F
100
AcDbEntity
  8
0-0_補助線
  6
Continuous
 62
    92
370
    13
100
AcDbLine
 10
4044.321281342743
 20
-1198.932559038532
 30
0.0
 11
4044.321281342743
 21
-1933.128111295016
 31
0.0
  0
LINE
  5
1E9
330
1F
100
AcDbEntity
  8
0-0_補助線
  6
Continuous
 62
    92
370
    13
100
AcDbLine
 10
4287.321281342742
 20
-1898.92811129501
 30
0.0
 11
4581.321281342744
 21
-1898.92811129501
 31
0.0
  0
LINE
  5
1EA
330
1F
100
AcDbEntity
  8
0-0_補助線
  6
Continuous
 62
    92
370
    13
100
AcDbLine
 10
4581.321281342744
 20
-1933.128111295016
 30
0.0
 11
4674.321281342743
 21
-1933.128111295016
 31
0.0
  0
LINE
  5
1EB
330
1F
100
AcDbEntity
  8
0-0_補助線
  6
Continuous
 62
    92
370
    13
100
AcDbLine
 10
4581.321281342744
 20
-1898.92811129501
 30
0.0
 11
4581.321281342744
 21
-1933.128111295016
 31
0.0
  0
LINE
  5
1EC
330
1F
100
AcDbEntity
  8
0-0_補助線
  6
Continuous
 62
    92
370
    13
100
AcDbLine
 10
4287.321281342742
 20
-1898.92811129501
 30
0.0
 11
4287.321281342742
 21
-1933.128111295016
 31
0.0
  0
LINE
  5
1ED
330
1F
100
AcDbEntity
  8
0-0_補助線
  6
Continuous
 62
    92
370
    13
100
AcDbLine
 10
4044.321281342743
 20
-1933.128111295016
 30
0.0
 11
4287.321281342742
 21
-1933.128111295016
 31
0.0
  0
LWPOLYLINE
  5
1EE
330
1F
100
AcDbEntity
  8
0-0_補助線
  6
Continuous
 62
     7
370
     9
100
AcDbPolyline
 90
        4
 70
     1
 43
3.0
 10
4675.821281342752
 20
-2310.226209806279
 42
0.4142135623731
 10
4674.321281342751
 20
-2308.72620980628
 42
0.4142135623731
 10
4672.821281342751
 20
-2310.226209806279
 42
0.4142135623731
 10
4674.321281342751
 20
-2311.726209806279
 42
0.4142135623731
  0
LWPOLYLINE
  5
1EF
330
1F
100
AcDbEntity
  8
0-0_補助線
  6
Continuous
 62
     7
370
     9
100
AcDbPolyline
 90
        4
 70
     1
 43
3.0
 10
4582.821281342744
 20
-2310.226209806279
 42
0.4142135623731
 10
4581.321281342744
 20
-2308.72620980628
 42
0.4142135623731
 10
4579.821281342744
 20
-2310.226209806279
 42
0.4142135623731
 10
4581.321281342744
 20
-2311.726209806279
 42
0.4142135623731
  0
LINE
  5
1F0
330
1F
100
AcDbEntity
  8
0-0_補助線
  6
Continuous
 62
   120
370
     5
100
AcDbLine
 10
4674.321281342751
 20
-2310.226209806279
 30
0.0
 11
4674.321281342751
 21
-2083.673688115736
 31
0.0
  0
LINE
  5
1F1
330
1F
100
AcDbEntity
  8
0-0_補助線
  6
Continuous
 62
   120
370
     5
100
AcDbLine
 10
4581.321281342744
 20
-2310.226209806279
 30
0.0
 11
4581.321281342744
 21
-2083.673688115736
 31
0.0
  0
LINE
  5
1F2
330
1F
100
AcDbEntity
  8
0-0_補助線
  6
Continuous
 62
   120
370
     5
100
AcDbLine
 10
4581.321281342744
 20
-2310.226209806279
 30
0.0
 11
4287.321281342742
 21
-2310.226209806279
 31
0.0
  0
LWPOLYLINE
  5
1F3
330
1F
100
AcDbEntity
  8
0-0_補助線
  6
Continuous
 62
     7
370
     9
100
AcDbPolyline
 90
        4
 70
     1
 43
3.0
 10
4288.821281342742
 20
-2310.226209806279
 42
0.4142135623731
 10
4287.321281342742
 20
-2308.72620980628
 42
0.4142135623731
 10
4285.821281342741
 20
-2310.226209806279
 42
0.4142135623731
 10
4287.321281342742
 20
-2311.726209806279
 42
0.4142135623731
  0
LINE
  5
1F4
330
1F
100
AcDbEntity
  8
0-0_補助線
  6
Continuous
 62
   120
370
     5
100
AcDbLine
 10
4287.321281342742
 20
-2310.226209806279
 30
0.0
 11
4287.321281342742
 21
-2083.673688115736
 31
0.0
  0
LWPOLYLINE
  5
1F5
330
1F
100
AcDbEntity
  8
0-0_補助線
  6
Continuous
 62
     7
370
     9
100
AcDbPolyline
 90
        4
 70
     1
 43
3.0
 10
4045.821281342743
 20
-2310.226209806279
 42
0.4142135623731
 10
4044.321281342743
 20
-2308.72620980628
 42
0.4142135623731
 10
4042.821281342742
 20
-2310.226209806279
 42
0.4142135623731
 10
4044.321281342743
 20
-2311.726209806279
 42
0.4142135623731
  0
LINE
  5
1F6
330
1F
100
AcDbEntity
  8
0-0_補助線
  6
Continuous
 62
   120
370
     5
100
AcDbLine
 10
4044.321281342743
 20
-2310.226209806279
 30
0.0
 11
4044.321281342743
 21
-2083.673688115736
 31
0.0
  0
MTEXT
  5
1F7
330
1F
100
AcDbEntity
  8
0-0_補助線
  6
Continuous
 62
     7
370
   211
100
AcDbMText
 10
4355.571281342743
 20
-2306.648709806279
 30
0.0
 40
97.15499999999999
 41
127.5
 46
0.0
 71
     7
 72
     1
  1
{\fＭＳ ゴシック|b0|i0|c128|p49;49}
 73
     1
 44
1.0
  0
MTEXT
  5
1F8
330
1F
100
AcDbEntity
  8
0-0_補助線
  6
Continuous
 62
     7
370
   211
100
AcDbMText
 10
3749.424342931477
 20
-2305.219959806279
 30
0.0
 40
100.0125
 41
262.5
 46
0.0
 71
     7
 72
     1
  1
{\fＭＳ ゴシック|b0|i0|c128|p49;40.5}
 73
     1
 44
1.0
  0
LINE
  5
1F9
330
1F
100
AcDbEntity
  8
0-0_補助線
  6
Continuous
 62
   120
370
     5
100
AcDbLine
 10
4287.321281342742
 20
-2310.226209806279
 30
0.0
 11
3705.544918944792
 21
-2310.226209806279
 31
0.0
  0
LINE
  5
1FA
330
1F
100
AcDbEntity
  8
0-0_補助線
  6
Continuous
 62
   120
370
     5
100
AcDbLine
 10
4986.342198847412
 20
-2310.226209806279
 30
0.0
 11
4581.321281342744
 21
-2310.226209806279
 31
0.0
  0
MTEXT
  5
1FB
330
1F
100
AcDbEntity
  8
0-0_補助線
  6
Continuous
 62
     7
370
   211
100
AcDbMText
 10
4712.636174858243
 20
-2305.219959806279
 30
0.0
 40
100.0125
 41
262.5
 46
0.0
 71
     7
 72
     1
  1
{\fＭＳ ゴシック|b0|i0|c128|p49;15.5}
 73
     1
 44
1.0
  0
MTEXT
  5
1FC
330
1F
100
AcDbEntity
  8
0-0_補助線
  6
Continuous
 62
     7
370
     0
100
AcDbMText
 10
3909.715102265679
 20
-627.5608128593327
 30
0.0
 40
91.44
 41
840.0
 46
0.0
 71
     7
 72
     1
  1
{\fＭＳ ゴシック|b0|i0|c128|p49;竪枠下端形状図}
 73
     1
 44
1.0
  0
LINE
  5
1FD
330
1F
100
AcDbEntity
  8
0-0_補助線
  6
JWW_HOJO
 62
   120
370
     5
100
AcDbLine
 10
-2799.83640161862
 20
-139.281540514917
 30
0.0
 11
-2799.83640161862
 21
-3115.281986283208
 31
0.0
  0
LINE
  5
1FE
330
1F
100
AcDbEntity
  8
0-B_寸法
  6
Continuous
 62
   120
370
     5
100
AcDbLine
 10
-2799.835807763047
 20
-415.2815551793336
 30
0.0
 11
-3507.836401618619
 21
-415.2815551793336
 31
0.0
  0
LWPOLYLINE
  5
1FF
330
1F
100
AcDbEntity
  8
0-B_寸法
  6
Continuous
 62
     7
370
     9
100
AcDbPolyline
 90
        4
 70
     1
 43
3.0
 10
-2798.335807763047
 20
-415.2815551793336
 42
0.4142135623731
 10
-2799.835807763047
 20
-413.7815551793336
 42
0.4142135623731
 10
-2801.335807763047
 20
-415.2815551793336
 42
0.4142135623731
 10
-2799.835807763047
 20
-416.7815551793336
 42
0.4142135623731
  0
MTEXT
  5
200
330
1F
100
AcDbEntity
  8
0-B_寸法
  6
Continuous
 62
     7
370
     0
100
AcDbMText
 10
-2814.835857251011
 20
-409.7702047536785
 30
0.0
 40
91.44
 41
60.0
 46
0.0
 71
     7
 72
     1
  1
{\fＭＳ ゴシック|b0|i0|c128|p49;8}
 11
6.123031769111886E-17
 21
1.0
 31
0.0
 73
     1
 44
1.0
  0
LINE
  5
201
330
1F
100
AcDbEntity
  8
0-3_仕上げ
  6
Continuous
 62
   120
370
     5
100
AcDbLine
 10
-3762.836401618619
 20
-415.2815551788007
 30
0.0
 11
-3762.836401618619
 21
-235.2815551788007
 31
0.0
  0
LINE
  5
202
330
1F
100
AcDbEntity
  8
0-3_仕上げ
  6
Continuous
 62
   120
370
     5
100
AcDbLine
 10
-3762.836401618619
 20
-235.2815551788007
 30
0.0
 11
-4182.83640161862
 21
-235.2815551788007
 31
0.0
  0
LINE
  5
203
330
1F
100
AcDbEntity
  8
0-3_仕上げ
  6
Continuous
 62
   120
370
     5
100
AcDbLine
 10
-4182.83640161862
 20
-235.2815551788007
 30
0.0
 11
-4182.83640161862
 21
-415.2815551788007
 31
0.0
  0
LINE
  5
204
330
1F
100
AcDbEntity
  8
0-3_仕上げ
  6
Continuous
 62
   120
370
     5
100
AcDbLine
 10
-3762.836401618619
 20
-235.2815551788007
 30
0.0
 11
-4182.83640161862
 21
-415.2815551788007
 31
0.0
  0
LINE
  5
205
330
1F
100
AcDbEntity
  8
0-3_仕上げ
  6
Continuous
 62
   120
370
     5
100
AcDbLine
 10
-4182.83640161862
 20
-415.2815551788007
 30
0.0
 11
-3762.836401618619
 21
-415.2815551788007
 31
0.0
  0
LINE
  5
206
330
1F
100
AcDbEntity
  8
0-B_寸法
  6
Continuous
 62
   120
370
     5
100
AcDbLine
 10
-3339.83640161862
 20
-661.2815403324123
 30
0.0
 11
-2979.83640161862
 21
-661.2815403324123
 31
0.0
  0
LINE
  5
207
330
1F
100
AcDbEntity
  8
0-B_寸法
  6
Continuous
 62
   120
370
     5
100
AcDbLine
 10
-2979.83640161862
 20
-641.3231679585732
 30
0.0
 11
-2799.835807763047
 21
-641.3231679585732
 31
0.0
  0
LINE
  5
208
330
1F
100
AcDbEntity
  8
0-B_寸法
  6
Continuous
 62
   120
370
     5
100
AcDbLine
 10
-3507.836401618619
 20
-463.2815551788013
 30
0.0
 11
-2619.835213907472
 21
-463.2815551788013
 31
0.0
  0
LWPOLYLINE
  5
209
330
1F
100
AcDbEntity
  8
0-B_寸法
  6
Continuous
 62
     7
370
     9
100
AcDbPolyline
 90
        4
 70
     1
 43
3.0
 10
-2978.33640161862
 20
-661.2815403324123
 42
0.4142135623731
 10
-2979.83640161862
 20
-659.7815403324123
 42
0.4142135623731
 10
-2981.33640161862
 20
-661.2815403324123
 42
0.4142135623731
 10
-2979.83640161862
 20
-662.7815403324123
 42
0.4142135623731
  0
LWPOLYLINE
  5
20A
330
1F
100
AcDbEntity
  8
0-B_寸法
  6
Continuous
 62
     7
370
     9
100
AcDbPolyline
 90
        4
 70
     1
 43
3.0
 10
-2978.33640161862
 20
-643.2814067149076
 42
0.4142135623731
 10
-2979.83640161862
 20
-641.7814067149076
 42
0.4142135623731
 10
-2981.33640161862
 20
-643.2814067149076
 42
0.4142135623731
 10
-2979.83640161862
 20
-644.7814067149076
 42
0.4142135623731
  0
LWPOLYLINE
  5
20B
330
1F
100
AcDbEntity
  8
0-B_寸法
  6
Continuous
 62
     7
370
     9
100
AcDbPolyline
 90
        4
 70
     1
 43
3.0
 10
-2798.335807763047
 20
-641.3231679585732
 42
0.4142135623731
 10
-2799.835807763047
 20
-639.8231679585732
 42
0.4142135623731
 10
-2801.335807763047
 20
-641.3231679585732
 42
0.4142135623731
 10
-2799.835807763047
 20
-642.8231679585732
 42
0.4142135623731
  0
LWPOLYLINE
  5
20C
330
1F
100
AcDbEntity
  8
0-B_寸法
  6
Continuous
 62
     7
370
     9
100
AcDbPolyline
 90
        4
 70
     1
 43
3.0
 10
-2798.335807763047
 20
-463.2815551788013
 42
0.4142135623731
 10
-2799.835807763047
 20
-461.7815551788013
 42
0.4142135623731
 10
-2801.335807763047
 20
-463.2815551788013
 42
0.4142135623731
 10
-2799.835807763047
 20
-464.7815551788013
 42
0.4142135623731
  0
LINE
  5
20D
330
1F
100
AcDbEntity
  8
0-B_寸法
  6
Continuous
 62
   120
370
     5
100
AcDbLine
 10
-2979.83640161862
 20
-643.2814067149076
 30
0.0
 11
-3339.83640161862
 21
-643.2814067149076
 31
0.0
  0
LINE
  5
20E
330
1F
100
AcDbEntity
  8
0-B_寸法
  6
Continuous
 62
   120
370
     5
100
AcDbLine
 10
-2619.835213907472
 20
-463.2808128593334
 30
0.0
 11
-3255.83701526938
 21
-463.2808128593334
 31
0.0
  0
LWPOLYLINE
  5
20F
330
1F
100
AcDbEntity
  8
0-B_寸法
  6
Continuous
 62
     7
370
     9
100
AcDbPolyline
 90
        4
 70
     1
 43
3.0
 10
-2618.335213907472
 20
-463.2815551788013
 42
0.4142135623731
 10
-2619.835213907472
 20
-461.7815551788013
 42
0.4142135623731
 10
-2621.335213907472
 20
-463.2815551788013
 42
0.4142135623731
 10
-2619.835213907472
 20
-464.7815551788013
 42
0.4142135623731
  0
LWPOLYLINE
  5
210
330
1F
100
AcDbEntity
  8
0-B_寸法
  6
Continuous
 62
     7
370
     9
100
AcDbPolyline
 90
        4
 70
     1
 43
3.0
 10
-2618.335213907472
 20
-463.2808128593334
 42
0.4142135623731
 10
-2619.835213907472
 20
-461.7808128593334
 42
0.4142135623731
 10
-2621.335213907472
 20
-463.2808128593334
 42
0.4142135623731
 10
-2619.835213907472
 20
-464.7808128593334
 42
0.4142135623731
  0
LINE
  5
211
330
1F
100
AcDbEntity
  8
0-4_枠
  6
Continuous
 62
    92
370
    13
100
AcDbLine
 10
-3699.83640161862
 20
-583.2815551788013
 30
0.0
 11
-3759.83640161862
 21
-583.2815551788013
 31
0.0
  0
LINE
  5
212
330
1F
100
AcDbEntity
  8
0-4_枠
  6
Continuous
 62
    92
370
    13
100
AcDbLine
 10
-3699.83640161862
 20
-583.2815551788013
 30
0.0
 11
-3699.83640161862
 21
-643.2815551788013
 31
0.0
  0
LINE
  5
213
330
1F
100
AcDbEntity
  8
0-4_枠
  6
Continuous
 62
    92
370
    13
100
AcDbLine
 10
-3759.83640161862
 20
-529.281555178801
 30
0.0
 11
-3759.83640161862
 21
-583.2815551788013
 31
0.0
  0
LINE
  5
214
330
1F
100
AcDbEntity
  8
0-4_枠
  6
Continuous
 62
    92
370
    13
100
AcDbLine
 10
-3699.83640161862
 20
-529.281555178801
 30
0.0
 11
-3759.83640161862
 21
-529.281555178801
 31
0.0
  0
LINE
  5
215
330
1F
100
AcDbEntity
  8
0-4_枠
  6
Continuous
 62
    92
370
    13
100
AcDbLine
 10
-3699.83640161862
 20
-529.281555178801
 30
0.0
 11
-3699.83640161862
 21
-493.2815551788013
 31
0.0
  0
LINE
  5
216
330
1F
100
AcDbEntity
  8
0-4_枠
  6
Continuous
 62
    92
370
    13
100
AcDbLine
 10
-3699.83640161862
 20
-493.2815551788013
 30
0.0
 11
-3741.83640161862
 21
-493.2815551788013
 31
0.0
  0
LINE
  5
217
330
1F
100
AcDbEntity
  8
0-4_枠
  6
Continuous
 62
    92
370
    13
100
AcDbLine
 10
-3741.83640161862
 20
-463.2815551788013
 30
0.0
 11
-3741.83640161862
 21
-493.2815551788013
 31
0.0
  0
LINE
  5
218
330
1F
100
AcDbEntity
  8
0-3_仕上げ
  6
Continuous
 62
    40
370
    15
100
AcDbLine
 10
-3687.836401618619
 20
-463.2815551788013
 30
0.0
 11
-3762.836401618619
 21
-463.2815551788013
 31
0.0
  0
LINE
  5
219
330
1F
100
AcDbEntity
  8
0-C_ハッチ
  6
Continuous
 62
   120
370
     5
100
AcDbLine
 10
-4059.410805031023
 20
-643.2817778746446
 30
0.0
 11
-4239.411027726868
 21
-463.2815551787996
 31
0.0
  0
LINE
  5
21A
330
1F
100
AcDbEntity
  8
0-C_ハッチ
  6
Continuous
 62
   120
370
     5
100
AcDbLine
 10
-4000.013835411336
 20
-643.28177787463
 30
0.0
 11
-4180.014058107181
 21
-463.2815551787851
 31
0.0
  0
LINE
  5
21B
330
1F
100
AcDbEntity
  8
0-C_ハッチ
  6
Continuous
 62
   120
370
     5
100
AcDbLine
 10
-3940.616865791676
 20
-643.2817778746437
 30
0.0
 11
-4120.617088487521
 21
-463.2815551787979
 31
0.0
  0
LINE
  5
21C
330
1F
100
AcDbEntity
  8
0-C_ハッチ
  6
Continuous
 62
   120
370
     5
100
AcDbLine
 10
-3881.219896171969
 20
-643.2817778746488
 30
0.0
 11
-4061.220118867809
 21
-463.2815551788082
 31
0.0
  0
LINE
  5
21D
330
1F
100
AcDbEntity
  8
0-C_ハッチ
  6
Continuous
 62
   120
370
     5
100
AcDbLine
 10
-3821.822926552328
 20
-643.281777874642
 30
0.0
 11
-4001.823149248174
 21
-463.2815551787962
 31
0.0
  0
LINE
  5
21E
330
1F
100
AcDbEntity
  8
0-C_ハッチ
  6
Continuous
 62
   120
370
     5
100
AcDbLine
 10
-3762.425956932684
 20
-643.2817778746394
 30
0.0
 11
-3942.426179628523
 21
-463.2815551787988
 31
0.0
  0
LINE
  5
21F
330
1F
100
AcDbEntity
  8
0-C_ハッチ
  6
Continuous
 62
   120
370
     5
100
AcDbLine
 10
-4118.807774650684
 20
-643.2817778746318
 30
0.0
 11
-4298.807997346514
 21
-463.2815551788013
 31
0.0
  0
LINE
  5
220
330
1F
100
AcDbEntity
  8
0-C_ハッチ
  6
Continuous
 62
   120
370
     5
100
AcDbLine
 10
-3703.029210008818
 20
-643.2815551788013
 30
0.0
 11
-3883.029210008826
 21
-463.2815551787945
 31
0.0
  0
LINE
  5
221
330
1F
100
AcDbEntity
  8
0-C_ハッチ
  6
Continuous
 62
   120
370
     5
100
AcDbLine
 10
-3699.83640161862
 20
-587.0773939493517
 30
0.0
 11
-3703.63224038917
 21
-583.2815551788013
 31
0.0
  0
LINE
  5
222
330
1F
100
AcDbEntity
  8
0-C_ハッチ
  6
Continuous
 62
   120
370
     5
100
AcDbLine
 10
-3757.632240389173
 20
-529.281555178801
 30
0.0
 11
-3823.632240389167
 21
-463.2815551788073
 31
0.0
  0
LINE
  5
223
330
1F
100
AcDbEntity
  8
0-C_ハッチ
  6
Continuous
 62
   120
370
     5
100
AcDbLine
 10
-3764.235270769479
 20
-463.2815551787928
 30
0.0
 11
-3741.83640161862
 21
-485.6804243296506
 31
0.0
  0
LINE
  5
224
330
1F
100
AcDbEntity
  8
0-C_ハッチ
  6
Continuous
 62
   120
370
     5
100
AcDbLine
 10
-3734.23527076947
 20
-493.2815551788013
 30
0.0
 11
-3699.83640161862
 21
-527.6804243296516
 31
0.0
  0
LINE
  5
225
330
1F
100
AcDbEntity
  8
0-C_ハッチ
  6
JWW_DASHED1
 62
   120
370
     5
100
AcDbLine
 10
-3740.86300304915
 20
-463.2815551788013
 30
0.0
 11
-3762.836401618619
 21
-441.3081566093334
 31
0.0
  0
LINE
  5
226
330
1F
100
AcDbEntity
  8
0-C_ハッチ
  6
JWW_DASHED1
 62
   120
370
     5
100
AcDbLine
 10
-3698.436476180485
 20
-463.2815551788013
 30
0.0
 11
-3762.836401618619
 21
-398.8816297406677
 31
0.0
  0
LINE
  5
227
330
1F
100
AcDbEntity
  8
0-C_ハッチ
  6
JWW_DASHED1
 62
   120
370
     5
100
AcDbLine
 10
-3687.836896498265
 20
-431.4546079923568
 30
0.0
 11
-3762.836401618619
 21
-356.4551028720021
 31
0.0
  0
LINE
  5
228
330
1F
100
AcDbEntity
  8
0-C_ハッチ
  6
JWW_DASHED1
 62
   120
370
     5
100
AcDbLine
 10
-3687.836896498265
 20
-389.0291946028935
 30
0.0
 11
-3762.836401618619
 21
-314.0296894825389
 31
0.0
  0
LINE
  5
229
330
1F
100
AcDbEntity
  8
0-C_ハッチ
  6
JWW_DASHED1
 62
   120
370
     5
100
AcDbLine
 10
-3687.836896498265
 20
-346.6026677342279
 30
0.0
 11
-3762.836401618619
 21
-271.6031626138732
 31
0.0
  0
LINE
  5
22A
330
1F
100
AcDbEntity
  8
0-C_ハッチ
  6
JWW_DASHED1
 62
   120
370
     5
100
AcDbLine
 10
-3687.836896498265
 20
-304.1761408655623
 30
0.0
 11
-3762.836401618619
 21
-229.1766357452076
 31
0.0
  0
LINE
  5
22B
330
1F
100
AcDbEntity
  8
0-C_ハッチ
  6
JWW_DASHED1
 62
   120
370
     5
100
AcDbLine
 10
-3687.836896498265
 20
-261.7499851566311
 30
0.0
 11
-3762.836401618619
 21
-186.7504800362764
 31
0.0
  0
LWPOLYLINE
  5
22C
330
1F
100
AcDbEntity
  8
0-B_寸法
  6
Continuous
 62
     7
370
     9
100
AcDbPolyline
 90
        4
 70
     1
 43
3.0
 10
-3698.33640161862
 20
-975.2671706521545
 42
0.4142135623731
 10
-3699.83640161862
 20
-973.7671706521546
 42
0.4142135623731
 10
-3701.33640161862
 20
-975.2671706521545
 42
0.4142135623731
 10
-3699.83640161862
 20
-976.7671706521544
 42
0.4142135623731
  0
LINE
  5
22D
330
1F
100
AcDbEntity
  8
0-B_寸法
  6
Continuous
 62
   120
370
     5
100
AcDbLine
 10
-3699.83640161862
 20
-975.2671706521545
 30
0.0
 11
-3699.83640161862
 21
-823.0419443521546
 31
0.0
  0
LINE
  5
22E
330
1F
100
AcDbEntity
  8
0-0_補助線
  6
JWW_HOJO
 62
    92
370
    13
100
AcDbLine
 10
-3327.836401618621
 20
-643.2815551788013
 30
0.0
 11
-3327.836401618621
 21
-463.2815551788013
 31
0.0
  0
LWPOLYLINE
  5
22F
330
1F
100
AcDbEntity
  8
0-B_寸法
  6
Continuous
 62
     7
370
     9
100
AcDbPolyline
 90
        4
 70
     1
 43
3.0
 10
-3326.336401618621
 20
-463.2815551788013
 42
0.4142135623731
 10
-3327.836401618621
 20
-461.7815551788013
 42
0.4142135623731
 10
-3329.336401618621
 20
-463.2815551788013
 42
0.4142135623731
 10
-3327.836401618621
 20
-464.7815551788013
 42
0.4142135623731
  0
LWPOLYLINE
  5
230
330
1F
100
AcDbEntity
  8
0-B_寸法
  6
Continuous
 62
     7
370
     9
100
AcDbPolyline
 90
        4
 70
     1
 43
3.0
 10
-3326.336401618621
 20
-493.2815551788013
 42
0.4142135623731
 10
-3327.836401618621
 20
-491.7815551788013
 42
0.4142135623731
 10
-3329.336401618621
 20
-493.2815551788013
 42
0.4142135623731
 10
-3327.836401618621
 20
-494.7815551788013
 42
0.4142135623731
  0
LWPOLYLINE
  5
231
330
1F
100
AcDbEntity
  8
0-B_寸法
  6
Continuous
 62
     7
370
     9
100
AcDbPolyline
 90
        4
 70
     1
 43
3.0
 10
-3326.336401618621
 20
-529.281555178801
 42
0.4142135623731
 10
-3327.836401618621
 20
-527.781555178801
 42
0.4142135623731
 10
-3329.336401618621
 20
-529.281555178801
 42
0.4142135623731
 10
-3327.836401618621
 20
-530.781555178801
 42
0.4142135623731
  0
LWPOLYLINE
  5
232
330
1F
100
AcDbEntity
  8
0-B_寸法
  6
Continuous
 62
     7
370
     9
100
AcDbPolyline
 90
        4
 70
     1
 43
3.0
 10
-3326.336401618621
 20
-583.2815551788013
 42
0.4142135623731
 10
-3327.836401618621
 20
-581.7815551788013
 42
0.4142135623731
 10
-3329.336401618621
 20
-583.2815551788013
 42
0.4142135623731
 10
-3327.836401618621
 20
-584.7815551788013
 42
0.4142135623731
  0
LWPOLYLINE
  5
233
330
1F
100
AcDbEntity
  8
0-B_寸法
  6
Continuous
 62
     7
370
     9
100
AcDbPolyline
 90
        4
 70
     1
 43
3.0
 10
-3326.336401618621
 20
-643.2815551788013
 42
0.4142135623731
 10
-3327.836401618621
 20
-641.7815551788013
 42
0.4142135623731
 10
-3329.336401618621
 20
-643.2815551788013
 42
0.4142135623731
 10
-3327.836401618621
 20
-644.7815551788013
 42
0.4142135623731
  0
LINE
  5
234
330
1F
100
AcDbEntity
  8
0-B_寸法
  6
Continuous
 62
   120
370
     5
100
AcDbLine
 10
-3327.836401618621
 20
-643.2815551788013
 30
0.0
 11
-3327.836401618621
 21
-463.2815551788013
 31
0.0
  0
LINE
  5
235
330
1F
100
AcDbEntity
  8
0-B_寸法
  6
Continuous
 62
   120
370
     5
100
AcDbLine
 10
-3327.836401618621
 20
-643.2815551788013
 30
0.0
 11
-3507.836401618619
 21
-643.2815551788013
 31
0.0
  0
LINE
  5
236
330
1F
100
AcDbEntity
  8
0-B_寸法
  6
Continuous
 62
   120
370
     5
100
AcDbLine
 10
-3327.836401618621
 20
-529.281555178801
 30
0.0
 11
-3507.836401618619
 21
-529.281555178801
 31
0.0
  0
LINE
  5
237
330
1F
100
AcDbEntity
  8
0-B_寸法
  6
Continuous
 62
   120
370
     5
100
AcDbLine
 10
-3327.836401618621
 20
-583.2815551788013
 30
0.0
 11
-3507.836401618619
 21
-583.2815551788013
 31
0.0
  0
LINE
  5
238
330
1F
100
AcDbEntity
  8
0-B_寸法
  6
Continuous
 62
   120
370
     5
100
AcDbLine
 10
-3327.836401618621
 20
-493.2815551788013
 30
0.0
 11
-3507.836401618619
 21
-493.2815551788013
 31
0.0
  0
LINE
  5
239
330
1F
100
AcDbEntity
  8
0-B_寸法
  6
Continuous
 62
   120
370
     5
100
AcDbLine
 10
-5109.836401618621
 20
-415.2815551788007
 30
0.0
 11
-4569.83640161862
 21
-415.2815551788007
 31
0.0
  0
LWPOLYLINE
  5
23A
330
1F
100
AcDbEntity
  8
0-B_寸法
  6
Continuous
 62
     7
370
     9
100
AcDbPolyline
 90
        4
 70
     1
 43
3.0
 10
-5108.33640161862
 20
-415.2815551788007
 42
0.4142135623731
 10
-5109.836401618621
 20
-413.7815551788007
 42
0.4142135623731
 10
-5111.336401618621
 20
-415.2815551788007
 42
0.4142135623731
 10
-5109.836401618621
 20
-416.7815551788007
 42
0.4142135623731
  0
LINE
  5
23B
330
1F
100
AcDbEntity
  8
0-7_金物
  6
Continuous
 62
     7
370
     9
100
AcDbLine
 10
-4068.836435950896
 20
-463.2815551788013
 30
0.0
 11
-4068.836435950896
 21
-439.2814865142509
 31
0.0
  0
LINE
  5
23C
330
1F
100
AcDbEntity
  8
0-7_金物
  6
Continuous
 62
     7
370
     9
100
AcDbLine
 10
-3960.836367286345
 20
-439.2814865142509
 30
0.0
 11
-3960.836367286345
 21
-463.2815551788013
 31
0.0
  0
LINE
  5
23D
330
1F
100
AcDbEntity
  8
0-7_金物
  6
Continuous
 62
     7
370
     9
100
AcDbLine
 10
-3954.836201347014
 20
-439.2814865142509
 30
0.0
 11
-4074.83585802426
 21
-439.2814865142509
 31
0.0
  0
LINE
  5
23E
330
1F
100
AcDbEntity
  8
0-7_金物
  6
Continuous
 62
     7
370
     9
100
AcDbLine
 10
-4074.83585802426
 20
-427.28189277951
 30
0.0
 11
-4074.83585802426
 21
-439.2814865142509
 31
0.0
  0
LINE
  5
23F
330
1F
100
AcDbEntity
  8
0-7_金物
  6
Continuous
 62
     7
370
     9
100
AcDbLine
 10
-3954.836201347014
 20
-427.28189277951
 30
0.0
 11
-3954.836201347014
 21
-439.2814865142509
 31
0.0
  0
LINE
  5
240
330
1F
100
AcDbEntity
  8
0-7_金物
  6
Continuous
 62
     7
370
     9
100
AcDbLine
 10
-3924.836098350188
 20
-415.2815551788007
 30
0.0
 11
-4104.835961021085
 21
-415.2815551788007
 31
0.0
  0
LINE
  5
241
330
1F
100
AcDbEntity
  8
0-7_金物
  6
Continuous
 62
     7
370
     9
100
AcDbLine
 10
-3924.836098350188
 20
-415.2815551788007
 30
0.0
 11
-3924.836098350188
 21
-427.28189277951
 31
0.0
  0
LINE
  5
242
330
1F
100
AcDbEntity
  8
0-7_金物
  6
Continuous
 62
     7
370
     9
100
AcDbLine
 10
-4104.835961021085
 20
-415.2815551788007
 30
0.0
 11
-4104.835961021085
 21
-427.28189277951
 31
0.0
  0
LINE
  5
243
330
1F
100
AcDbEntity
  8
0-7_金物
  6
Continuous
 62
     7
370
     9
100
AcDbLine
 10
-3924.836098350188
 20
-427.28189277951
 30
0.0
 11
-4104.835961021085
 21
-427.28189277951
 31
0.0
  0
LINE
  5
244
330
1F
100
AcDbEntity
  8
0-4_枠
  6
Continuous
 62
    92
370
    13
100
AcDbLine
 10
-4329.836401618621
 20
-463.2815551788013
 30
0.0
 11
-3741.83640161862
 21
-463.2815551788013
 31
0.0
  0
LINE
  5
245
330
1F
100
AcDbEntity
  8
0-4_枠
  6
Continuous
 62
    92
370
    13
100
AcDbLine
 10
-4329.836401618621
 20
-463.2815551788013
 30
0.0
 11
-4329.836401618621
 21
-643.2815551788013
 31
0.0
  0
LINE
  5
246
330
1F
100
AcDbEntity
  8
0-4_枠
  6
Continuous
 62
    92
370
    13
100
AcDbLine
 10
-3699.83640161862
 20
-643.2815551788013
 30
0.0
 11
-4329.836401618621
 21
-643.2815551788013
 31
0.0
  0
LINE
  5
247
330
1F
100
AcDbEntity
  8
0-4_枠
  6
Continuous
 62
    92
370
    13
100
AcDbLine
 10
-3699.83640161862
 20
-640.2815551788015
 30
0.0
 11
-4326.836401618621
 21
-640.2815551788015
 31
0.0
  0
LINE
  5
248
330
1F
100
AcDbEntity
  8
0-4_枠
  6
Continuous
 62
    92
370
    13
100
AcDbLine
 10
-4326.836401618621
 20
-463.2815551788013
 30
0.0
 11
-4326.836401618621
 21
-640.2815551788015
 31
0.0
  0
LINE
  5
249
330
1F
100
AcDbEntity
  8
0-C_ハッチ
  6
Continuous
 62
   120
370
     5
100
AcDbLine
 10
-4178.204744270372
 20
-643.2817778746437
 30
0.0
 11
-4326.836401618621
 21
-494.6501205263962
 31
0.0
  0
LINE
  5
24A
330
1F
100
AcDbEntity
  8
0-C_ハッチ
  6
Continuous
 62
   120
370
     5
100
AcDbLine
 10
-4237.601713890031
 20
-643.2817778746335
 30
0.0
 11
-4326.836401618621
 21
-554.0470901460435
 31
0.0
  0
LINE
  5
24B
330
1F
100
AcDbEntity
  8
0-C_ハッチ
  6
Continuous
 62
   120
370
     5
100
AcDbLine
 10
-4296.998683509688
 20
-643.2817778746335
 30
0.0
 11
-4326.836401618621
 21
-613.444059765701
 31
0.0
  0
LINE
  5
24C
330
1F
100
AcDbEntity
  8
0-0_補助線
  6
JWW_HOJO
 62
   120
370
     5
100
AcDbLine
 10
-3747.836401618621
 20
-823.0419443521546
 30
0.0
 11
-4329.836401618621
 21
-823.0419443521546
 31
0.0
  0
LINE
  5
24D
330
1F
100
AcDbEntity
  8
0-0_補助線
  6
JWW_HOJO
 62
   120
370
     5
100
AcDbLine
 10
-3747.836401618621
 20
-975.2671706521545
 30
0.0
 11
-4329.836401618621
 21
-975.2671706521545
 31
0.0
  0
LINE
  5
24E
330
1F
100
AcDbEntity
  8
0-B_寸法
  6
Continuous
 62
   120
370
     5
100
AcDbLine
 10
-4329.836401618621
 20
-975.2671706521545
 30
0.0
 11
-3699.83640161862
 21
-975.2671706521545
 31
0.0
  0
LWPOLYLINE
  5
24F
330
1F
100
AcDbEntity
  8
0-B_寸法
  6
Continuous
 62
     7
370
     9
100
AcDbPolyline
 90
        4
 70
     1
 43
3.0
 10
-4328.33640161862
 20
-975.2671706521545
 42
0.4142135623731
 10
-4329.836401618621
 20
-973.7671706521546
 42
0.4142135623731
 10
-4331.336401618621
 20
-975.2671706521545
 42
0.4142135623731
 10
-4329.836401618621
 20
-976.7671706521544
 42
0.4142135623731
  0
LINE
  5
250
330
1F
100
AcDbEntity
  8
0-B_寸法
  6
Continuous
 62
   120
370
     5
100
AcDbLine
 10
-4329.836401618621
 20
-975.2671706521545
 30
0.0
 11
-4329.836401618621
 21
-823.0419443521546
 31
0.0
  0
LINE
  5
251
330
1F
100
AcDbEntity
  8
0-B_寸法
  6
Continuous
 62
   120
370
     5
100
AcDbLine
 10
-3909.830167649123
 20
-1387.790532409613
 30
0.0
 11
-3909.830167649123
 21
-1453.281667465568
 31
0.0
  0
LWPOLYLINE
  5
252
330
1F
100
AcDbEntity
  8
0-B_寸法
  6
Continuous
 62
     7
370
     9
100
AcDbPolyline
 90
        4
 70
     1
 43
3.0
 10
-3908.330167649123
 20
-1453.281667465568
 42
0.4142135623731
 10
-3909.830167649123
 20
-1451.781667465568
 42
0.4142135623731
 10
-3911.330167649123
 20
-1453.281667465568
 42
0.4142135623731
 10
-3909.830167649123
 20
-1454.781667465568
 42
0.4142135623731
  0
LINE
  5
253
330
1F
100
AcDbEntity
  8
0-0_補助線
  6
JWW_HOJO
 62
   120
370
     5
100
AcDbLine
 10
-2619.83640161862
 20
-3187.281540616993
 30
0.0
 11
-5109.836401618621
 21
-3187.281540616993
 31
0.0
  0
LINE
  5
254
330
1F
100
AcDbEntity
  8
0-B_寸法
  6
Continuous
 62
   120
370
     5
100
AcDbLine
 10
-3339.83640161862
 20
-3115.281986283208
 30
0.0
 11
-2799.835807763047
 21
-3115.281986283208
 31
0.0
  0
LWPOLYLINE
  5
255
330
1F
100
AcDbEntity
  8
0-B_寸法
  6
Continuous
 62
     7
370
     9
100
AcDbPolyline
 90
        4
 70
     1
 43
3.0
 10
-2798.335807763047
 20
-3115.281986283208
 42
0.4142135623731
 10
-2799.835807763047
 20
-3113.781986283208
 42
0.4142135623731
 10
-2801.335807763047
 20
-3115.281986283208
 42
0.4142135623731
 10
-2799.835807763047
 20
-3116.781986283208
 42
0.4142135623731
  0
LWPOLYLINE
  5
256
330
1F
100
AcDbEntity
  8
0-B_寸法
  6
Continuous
 62
     7
370
     9
100
AcDbPolyline
 90
        4
 70
     1
 43
3.0
 10
-2798.335807763047
 20
-3115.281748740979
 42
0.4142135623731
 10
-2799.835807763047
 20
-3113.781748740979
 42
0.4142135623731
 10
-2801.335807763047
 20
-3115.281748740979
 42
0.4142135623731
 10
-2799.835807763047
 20
-3116.781748740979
 42
0.4142135623731
  0
LWPOLYLINE
  5
257
330
1F
100
AcDbEntity
  8
0-B_寸法
  6
Continuous
 62
     7
370
     9
100
AcDbPolyline
 90
        4
 70
     1
 43
3.0
 10
-2618.335213907472
 20
-3187.281540891528
 42
0.4142135623731
 10
-2619.835213907472
 20
-3185.781540891529
 42
0.4142135623731
 10
-2621.335213907472
 20
-3187.281540891528
 42
0.4142135623731
 10
-2619.835213907472
 20
-3188.781540891528
 42
0.4142135623731
  0
LINE
  5
258
330
1F
100
AcDbEntity
  8
0-B_寸法
  6
Continuous
 62
   120
370
     5
100
AcDbLine
 10
-3339.83640161862
 20
-3187.281540891528
 30
0.0
 11
-2619.835213907472
 21
-3187.281540891528
 31
0.0
  0
LWPOLYLINE
  5
259
330
1F
100
AcDbEntity
  8
0-B_寸法
  6
Continuous
 62
     7
370
     9
100
AcDbPolyline
 90
        4
 70
     1
 43
3.0
 10
-5108.33640161862
 20
-3187.281540616993
 42
0.4142135623731
 10
-5109.836401618621
 20
-3185.781540616993
 42
0.4142135623731
 10
-5111.336401618621
 20
-3187.281540616993
 42
0.4142135623731
 10
-5109.836401618621
 20
-3188.781540616993
 42
0.4142135623731
  0
LINE
  5
25A
330
1F
100
AcDbEntity
  8
0-B_寸法
  6
Continuous
 62
   120
370
     5
100
AcDbLine
 10
-5109.836401618621
 20
-3187.281540616993
 30
0.0
 11
-4749.836401618621
 21
-3187.281540616993
 31
0.0
  0
LINE
  5
25B
330
1F
100
AcDbEntity
  8
0-3_仕上げ
  6
Continuous
 62
    40
370
    15
100
AcDbLine
 10
-4737.836401618621
 20
-3115.281748740979
 30
0.0
 11
-3327.836401618621
 21
-3115.281748740979
 31
0.0
  0
LINE
  5
25C
330
1F
100
AcDbEntity
  8
0-3_仕上げ
  6
Continuous
 62
     7
370
     9
100
AcDbLine
 10
-3327.836401618621
 20
-3163.282352494145
 30
0.0
 11
-4737.836401618621
 21
-3163.282352494145
 31
0.0
  0
LINE
  5
25D
330
1F
100
AcDbEntity
  8
0-3_仕上げ
  6
Continuous
 62
     7
370
     9
100
AcDbLine
 10
-4737.836401618621
 20
-3127.282085259137
 30
0.0
 11
-3327.836401618621
 21
-3127.282085259137
 31
0.0
  0
LINE
  5
25E
330
1F
100
AcDbEntity
  8
0-3_仕上げ
  6
Continuous
 62
     7
370
     9
100
AcDbLine
 10
-4737.836401618621
 20
-3139.281679457828
 30
0.0
 11
-3327.836401618621
 21
-3139.281679457828
 31
0.0
  0
LINE
  5
25F
330
1F
100
AcDbEntity
  8
0-3_仕上げ
  6
Continuous
 62
     7
370
     9
100
AcDbLine
 10
-3327.836401618621
 20
-3151.282015975989
 30
0.0
 11
-4737.836401618621
 21
-3151.282015975989
 31
0.0
  0
LINE
  5
260
330
1F
100
AcDbEntity
  8
0-3_仕上げ
  6
Continuous
 62
     7
370
     9
100
AcDbLine
 10
-3327.836401618621
 20
-3175.281946692835
 30
0.0
 11
-4737.836401618621
 21
-3175.281946692835
 31
0.0
  0
LINE
  5
261
330
1F
100
AcDbEntity
  8
0-3_仕上げ
  6
Continuous
 62
    40
370
    15
100
AcDbLine
 10
-4737.836401618621
 20
-3187.281540891528
 30
0.0
 11
-3327.836401618621
 21
-3187.281540891528
 31
0.0
  0
LINE
  5
262
330
1F
100
AcDbEntity
  8
0-B_寸法
  6
Continuous
 62
   120
370
     5
100
AcDbLine
 10
-3339.83640161862
 20
-3001.28174874098
 30
0.0
 11
-2979.83640161862
 21
-3001.28174874098
 31
0.0
  0
LWPOLYLINE
  5
263
330
1F
100
AcDbEntity
  8
0-B_寸法
  6
Continuous
 62
     7
370
     9
100
AcDbPolyline
 90
        4
 70
     1
 43
3.0
 10
-2978.33640161862
 20
-3001.28174874098
 42
0.4142135623731
 10
-2979.83640161862
 20
-2999.78174874098
 42
0.4142135623731
 10
-2981.33640161862
 20
-3001.28174874098
 42
0.4142135623731
 10
-2979.83640161862
 20
-3002.78174874098
 42
0.4142135623731
  0
LWPOLYLINE
  5
264
330
1F
100
AcDbEntity
  8
0-B_寸法
  6
Continuous
 62
     7
370
     9
100
AcDbPolyline
 90
        4
 70
     1
 43
3.0
 10
-2978.33640161862
 20
-3025.281748740979
 42
0.4142135623731
 10
-2979.83640161862
 20
-3023.781748740979
 42
0.4142135623731
 10
-2981.33640161862
 20
-3025.281748740979
 42
0.4142135623731
 10
-2979.83640161862
 20
-3026.781748740979
 42
0.4142135623731
  0
LINE
  5
265
330
1F
100
AcDbEntity
  8
0-B_寸法
  6
Continuous
 62
   120
370
     5
100
AcDbLine
 10
-3339.83640161862
 20
-3025.281748740979
 30
0.0
 11
-2799.835807763047
 21
-3025.281748740979
 31
0.0
  0
LWPOLYLINE
  5
266
330
1F
100
AcDbEntity
  8
0-B_寸法
  6
Continuous
 62
     7
370
     9
100
AcDbPolyline
 90
        4
 70
     1
 43
3.0
 10
-2798.335807763047
 20
-3025.281748740979
 42
0.4142135623731
 10
-2799.835807763047
 20
-3023.781748740979
 42
0.4142135623731
 10
-2801.335807763047
 20
-3025.281748740979
 42
0.4142135623731
 10
-2799.835807763047
 20
-3026.781748740979
 42
0.4142135623731
  0
LWPOLYLINE
  5
267
330
1F
100
AcDbEntity
  8
0-B_寸法
  6
Continuous
 62
     7
370
     9
100
AcDbPolyline
 90
        4
 70
     1
 43
3.0
 10
-2798.335807763047
 20
-3025.281511198751
 42
0.4142135623731
 10
-2799.835807763047
 20
-3023.781511198751
 42
0.4142135623731
 10
-2801.335807763047
 20
-3025.281511198751
 42
0.4142135623731
 10
-2799.835807763047
 20
-3026.781511198751
 42
0.4142135623731
  0
LINE
  5
268
330
1F
100
AcDbEntity
  8
0-B_寸法
  6
Continuous
 62
   120
370
     5
100
AcDbLine
 10
-2979.83640161862
 20
-3115.281748740979
 30
0.0
 11
-2619.835213907472
 21
-3115.281748740979
 31
0.0
  0
LWPOLYLINE
  5
269
330
1F
100
AcDbEntity
  8
0-B_寸法
  6
Continuous
 62
     7
370
     9
100
AcDbPolyline
 90
        4
 70
     1
 43
3.0
 10
-2618.33640161862
 20
-3115.281748740979
 42
0.4142135623731
 10
-2619.83640161862
 20
-3113.781748740979
 42
0.4142135623731
 10
-2621.33640161862
 20
-3115.281748740979
 42
0.4142135623731
 10
-2619.83640161862
 20
-3116.781748740979
 42
0.4142135623731
  0
LINE
  5
26A
330
1F
100
AcDbEntity
  8
0-0_補助線
  6
Continuous
 62
    92
370
    13
100
AcDbLine
 10
-4080.994531319006
 20
-3025.281748740979
 30
0.0
 11
-4170.994531319006
 21
-3115.281748740979
 31
0.0
  0
LINE
  5
26B
330
1F
100
AcDbEntity
  8
0-0_補助線
  6
Continuous
 62
     7
370
     9
100
AcDbLine
 10
-3798.836401618619
 20
-3085.281748740979
 30
0.0
 11
-4092.836401618619
 21
-3085.281748740979
 31
0.0
  0
LINE
  5
26C
330
1F
100
AcDbEntity
  8
0-0_補助線
  6
Continuous
 62
     7
370
     9
100
AcDbLine
 10
-4092.836401618619
 20
-3085.281748740979
 30
0.0
 11
-4092.836401618619
 21
-3115.281748740979
 31
0.0
  0
LINE
  5
26D
330
1F
100
AcDbEntity
  8
0-0_補助線
  6
Continuous
 62
     7
370
     9
100
AcDbLine
 10
-3798.836401618619
 20
-3085.281748740979
 30
0.0
 11
-3798.836401618619
 21
-3115.281748740979
 31
0.0
  0
ARC
  5
26E
330
1F
100
AcDbEntity
  8
0-0_補助線
  6
Continuous
 62
    92
370
    13
100
AcDbCircle
 10
-3732.836401618619
 20
-3037.281748740979
 30
0.0
 40
12.0
100
AcDbArc
 50
0.0000000000000127
 51
90.00000000000001
  0
LINE
  5
26F
330
1F
100
AcDbEntity
  8
0-0_補助線
  6
Continuous
 62
    92
370
    13
100
AcDbLine
 10
-3720.83640161862
 20
-3037.281748740979
 30
0.0
 11
-3720.83640161862
 21
-3115.281748740979
 31
0.0
  0
LINE
  5
270
330
1F
100
AcDbEntity
  8
0-0_補助線
  6
Continuous
 62
    92
370
    13
100
AcDbLine
 10
-4170.836401618619
 20
-3037.281748740979
 30
0.0
 11
-4170.836401618619
 21
-3115.281748740979
 31
0.0
  0
ARC
  5
271
330
1F
100
AcDbEntity
  8
0-0_補助線
  6
Continuous
 62
    92
370
    13
100
AcDbCircle
 10
-4158.836401618619
 20
-3037.281748740979
 30
0.0
 40
12.0
100
AcDbArc
 50
90.0
 51
180.0
  0
LINE
  5
272
330
1F
100
AcDbEntity
  8
0-0_補助線
  6
Continuous
 62
    92
370
    13
100
AcDbLine
 10
-3732.836401618619
 20
-3025.281748740979
 30
0.0
 11
-4158.836401618619
 21
-3025.281748740979
 31
0.0
  0
LINE
  5
273
330
1F
100
AcDbEntity
  8
0-0_補助線
  6
Continuous
 62
    92
370
    13
100
AcDbLine
 10
-3720.83640161862
 20
-3089.387687752519
 30
0.0
 11
-3746.73046260708
 21
-3115.281748740979
 31
0.0
  0
LINE
  5
274
330
1F
100
AcDbEntity
  8
0-0_補助線
  6
Continuous
 62
    92
370
    13
100
AcDbLine
 10
-3996.141717576622
 20
-3025.281748740979
 30
0.0
 11
-4056.141717576622
 21
-3085.281748740979
 31
0.0
  0
LINE
  5
275
330
1F
100
AcDbEntity
  8
0-0_補助線
  6
Continuous
 62
    92
370
    13
100
AcDbLine
 10
-3911.288903834235
 20
-3025.281748740979
 30
0.0
 11
-3971.288903834235
 21
-3085.281748740979
 31
0.0
  0
LINE
  5
276
330
1F
100
AcDbEntity
  8
0-0_補助線
  6
Continuous
 62
    92
370
    13
100
AcDbLine
 10
-3826.436090091851
 20
-3025.281748740979
 30
0.0
 11
-3886.436090091851
 21
-3085.281748740979
 31
0.0
  0
LINE
  5
277
330
1F
100
AcDbEntity
  8
0-0_補助線
  6
Continuous
 62
    92
370
    13
100
AcDbLine
 10
-3741.583276349465
 20
-3025.281748740979
 30
0.0
 11
-3801.583276349465
 21
-3085.281748740979
 31
0.0
  0
LINE
  5
278
330
1F
100
AcDbEntity
  8
0-0_補助線
  6
Continuous
 62
     7
370
     9
100
AcDbLine
 10
-4092.836401618619
 20
-3097.230235274191
 30
0.0
 11
-4074.784888151831
 21
-3115.281748740979
 31
0.0
  0
LINE
  5
279
330
1F
100
AcDbEntity
  8
0-0_補助線
  6
Continuous
 62
     7
370
     9
100
AcDbLine
 10
-3807.800040053484
 20
-3085.281748740979
 30
0.0
 11
-3798.836401618619
 21
-3094.245387175843
 31
0.0
  0
LINE
  5
27A
330
1F
100
AcDbEntity
  8
0-0_補助線
  6
Continuous
 62
     7
370
     9
100
AcDbLine
 10
-3850.226446924675
 20
-3085.281748740979
 30
0.0
 11
-3820.226446924675
 21
-3115.281748740979
 31
0.0
  0
LINE
  5
27B
330
1F
100
AcDbEntity
  8
0-0_補助線
  6
Continuous
 62
     7
370
     9
100
AcDbLine
 10
-3892.652853795867
 20
-3085.281748740979
 30
0.0
 11
-3862.652853795867
 21
-3115.281748740979
 31
0.0
  0
LINE
  5
27C
330
1F
100
AcDbEntity
  8
0-0_補助線
  6
Continuous
 62
     7
370
     9
100
AcDbLine
 10
-3935.07926066706
 20
-3085.281748740979
 30
0.0
 11
-3905.07926066706
 21
-3115.281748740979
 31
0.0
  0
LINE
  5
27D
330
1F
100
AcDbEntity
  8
0-0_補助線
  6
Continuous
 62
     7
370
     9
100
AcDbLine
 10
-3977.505667538253
 20
-3085.281748740979
 30
0.0
 11
-3947.505667538253
 21
-3115.281748740979
 31
0.0
  0
LINE
  5
27E
330
1F
100
AcDbEntity
  8
0-0_補助線
  6
Continuous
 62
     7
370
     9
100
AcDbLine
 10
-4019.932074409446
 20
-3085.281748740979
 30
0.0
 11
-3989.932074409446
 21
-3115.281748740979
 31
0.0
  0
LINE
  5
27F
330
1F
100
AcDbEntity
  8
0-0_補助線
  6
Continuous
 62
     7
370
     9
100
AcDbLine
 10
-4062.358481280638
 20
-3085.281748740979
 30
0.0
 11
-4032.358481280638
 21
-3115.281748740979
 31
0.0
  0
LINE
  5
280
330
1F
100
AcDbEntity
  8
0-4_枠
  6
Continuous
 62
    92
370
    13
100
AcDbLine
 10
-4170.836401618619
 20
-3115.281748740979
 30
0.0
 11
-3720.83640161862
 21
-3115.281748740979
 31
0.0
  0
LINE
  5
281
330
1F
100
AcDbEntity
  8
0-B_寸法
  6
Continuous
 62
   120
370
     5
100
AcDbLine
 10
-4170.836401618619
 20
-2965.77802282526
 30
0.0
 11
-4170.836401618619
 21
-2850.95307825178
 31
0.0
  0
LWPOLYLINE
  5
282
330
1F
100
AcDbEntity
  8
0-B_寸法
  6
Continuous
 62
     7
370
     9
100
AcDbPolyline
 90
        4
 70
     1
 43
3.0
 10
-4169.336401618619
 20
-2850.95307825178
 42
0.4142135623731
 10
-4170.836401618619
 20
-2849.45307825178
 42
0.4142135623731
 10
-4172.33640161862
 20
-2850.95307825178
 42
0.4142135623731
 10
-4170.836401618619
 20
-2852.45307825178
 42
0.4142135623731
  0
LINE
  5
283
330
1F
100
AcDbEntity
  8
0-B_寸法
  6
Continuous
 62
   120
370
     5
100
AcDbLine
 10
-3720.83640161862
 20
-2850.95307825178
 30
0.0
 11
-4170.836401618619
 21
-2850.95307825178
 31
0.0
  0
LWPOLYLINE
  5
284
330
1F
100
AcDbEntity
  8
0-B_寸法
  6
Continuous
 62
     7
370
     9
100
AcDbPolyline
 90
        4
 70
     1
 43
3.0
 10
-3719.33640161862
 20
-2850.95307825178
 42
0.4142135623731
 10
-3720.83640161862
 20
-2849.45307825178
 42
0.4142135623731
 10
-3722.33640161862
 20
-2850.95307825178
 42
0.4142135623731
 10
-3720.83640161862
 20
-2852.45307825178
 42
0.4142135623731
  0
LINE
  5
285
330
1F
100
AcDbEntity
  8
0-B_寸法
  6
Continuous
 62
   120
370
     5
100
AcDbLine
 10
-3720.83640161862
 20
-2965.77802282526
 30
0.0
 11
-3720.83640161862
 21
-2850.95307825178
 31
0.0
  0
LINE
  5
286
330
1F
100
AcDbEntity
  8
0-B_寸法
  6
Continuous
 62
   120
370
     5
100
AcDbLine
 10
-2619.835213907472
 20
-3187.281540891528
 30
0.0
 11
-2619.835213907472
 21
-463.2815551788013
 31
0.0
  0
LINE
  5
287
330
1F
100
AcDbEntity
  8
0-B_寸法
  6
Continuous
 62
   120
370
     5
100
AcDbLine
 10
-2979.83640161862
 20
-3025.281748740979
 30
0.0
 11
-2979.83640161862
 21
-643.2814067149076
 31
0.0
  0
LINE
  5
288
330
1F
100
AcDbEntity
  8
0-B_寸法
  6
Continuous
 62
   120
370
     5
100
AcDbLine
 10
-5109.836401618621
 20
-415.2815551788007
 30
0.0
 11
-5109.836401618621
 21
-3187.281540616993
 31
0.0
  0
LINE
  5
289
330
1F
100
AcDbEntity
  8
0-C_ハッチ
  6
JWW_DASHED1
 62
   120
370
     5
100
AcDbLine
 10
-3687.836896498265
 20
-176.8969314192998
 30
0.0
 11
-3725.452287402648
 21
-139.281540514917
 31
0.0
  0
LINE
  5
28A
330
1F
100
AcDbEntity
  8
0-3_仕上げ
  6
Continuous
 62
    40
370
    15
100
AcDbLine
 10
-3762.836401618619
 20
-463.2815551788013
 30
0.0
 11
-3762.836401618619
 21
-139.281540514917
 31
0.0
  0
LINE
  5
28B
330
1F
100
AcDbEntity
  8
0-3_仕上げ
  6
Continuous
 62
    40
370
    15
100
AcDbLine
 10
-3687.836401618619
 20
-463.2815551788013
 30
0.0
 11
-3687.836401618619
 21
-139.281540514917
 31
0.0
  0
LINE
  5
28C
330
1F
100
AcDbEntity
  8
0-1_通り芯
  6
JWW_CENTER1
 62
   120
370
     5
100
AcDbLine
 10
-4014.83640161862
 20
-3268.775612243935
 30
0.0
 11
-4014.83640161862
 21
-139.281540514917
 31
0.0
  0
LINE
  5
28D
330
1F
100
AcDbEntity
  8
0-0_補助線
  6
JWW_HOJO
 62
   120
370
     5
100
AcDbLine
 10
-2979.83640161862
 20
-139.281540514917
 30
0.0
 11
-2979.83640161862
 21
-3187.281540616993
 31
0.0
  0
LINE
  5
28E
330
1F
100
AcDbEntity
  8
0-0_補助線
  6
JWW_HOJO
 62
   120
370
     5
100
AcDbLine
 10
-2619.83640161862
 20
-139.281540514917
 30
0.0
 11
-2619.83640161862
 21
-3187.281540616993
 31
0.0
  0
LINE
  5
28F
330
1F
100
AcDbEntity
  8
0-0_補助線
  6
JWW_HOJO
 62
   120
370
     5
100
AcDbLine
 10
-5109.836401618621
 20
-139.281540514917
 30
0.0
 11
-5109.836401618621
 21
-3187.281540616993
 31
0.0
  0
LINE
  5
290
330
1F
100
AcDbEntity
  8
0-0_補助線
  6
JWW_HOJO
 62
   120
370
     5
100
AcDbLine
 10
-4737.836401618621
 20
-139.281540514917
 30
0.0
 11
-4737.836401618621
 21
-3187.281540616993
 31
0.0
  0
LINE
  5
291
330
1F
100
AcDbEntity
  8
0-0_補助線
  6
JWW_HOJO
 62
   120
370
     5
100
AcDbLine
 10
-3327.836401618621
 20
-139.281540514917
 30
0.0
 11
-3327.836401618621
 21
-3187.281540616993
 31
0.0
  0
LINE
  5
292
330
1F
100
AcDbEntity
  8
0-0_補助線
  6
JWW_HOJO
 62
   120
370
     5
100
AcDbLine
 10
-2619.83640161862
 20
-139.281540514917
 30
0.0
 11
-5109.836401618621
 21
-139.281540514917
 31
0.0
  0
LINE
  5
293
330
1F
100
AcDbEntity
  8
0-C_ハッチ
  6
JWW_DASHED1
 62
   120
370
     5
100
AcDbLine
 10
-3687.836896498265
 20
-219.3234582879654
 30
0.0
 11
-3762.836401618619
 21
-144.3239531676107
 31
0.0
  0
LINE
  5
294
330
1F
100
AcDbEntity
  8
0-0_補助線
  6
JWW_HOJO
 62
   120
370
     5
100
AcDbLine
 10
-3657.830078570785
 20
-1861.281644536696
 30
0.0
 11
-4035.830167649121
 21
-1861.281644536696
 31
0.0
  0
LINE
  5
295
330
1F
100
AcDbEntity
  8
0-0_補助線
  6
JWW_HOJO
 62
   120
370
     5
100
AcDbLine
 10
-3657.830078570785
 20
-1981.281644536696
 30
0.0
 11
-4035.830167649121
 21
-1981.281644536696
 31
0.0
  0
LINE
  5
296
330
1F
100
AcDbEntity
  8
0-6_扉
  6
Continuous
 62
   200
370
    20
100
AcDbLine
 10
-3909.830167649123
 20
-3001.28174874098
 30
0.0
 11
-3909.830167649123
 21
-1981.281644536696
 31
0.0
  0
LINE
  5
297
330
1F
100
AcDbEntity
  8
0-6_扉
  6
Continuous
 62
   200
370
    20
100
AcDbLine
 10
-3909.830167649123
 20
-1861.281644536696
 30
0.0
 11
-3909.830167649123
 21
-661.2815403324123
 31
0.0
  0
MTEXT
  5
298
330
1F
100
AcDbEntity
  8
0-B_寸法
  6
Continuous
 62
     7
370
   211
100
AcDbMText
 10
-3330.628941769077
 20
-587.1371476441057
 30
0.0
 40
68.58
 41
45.0
 46
0.0
 71
     7
 72
     1
  1
{\fＭＳ ゴシック|b0|i0|c128|p49;9}
 11
6.123031769111886E-17
 21
1.0
 31
0.0
 73
     1
 44
1.0
  0
MTEXT
  5
299
330
1F
100
AcDbEntity
  8
0-B_寸法
  6
Continuous
 62
     7
370
     0
100
AcDbMText
 10
-2814.835857251011
 20
-631.2248739406788
 30
0.0
 40
97.15499999999999
 41
127.5
 46
0.0
 71
     7
 72
     1
  1
{\fＭＳ ゴシック|b0|i0|c128|p49;30}
 11
6.123031769111886E-17
 21
1.0
 31
0.0
 73
     1
 44
1.0
  0
MTEXT
  5
29A
330
1F
100
AcDbEntity
  8
0-B_寸法
  6
Continuous
 62
     7
370
     0
100
AcDbMText
 10
-2995.233592021914
 20
-736.8425115502114
 30
0.0
 40
91.44
 41
60.0
 46
0.0
 71
     7
 72
     1
  1
{\fＭＳ ゴシック|b0|i0|c128|p49;3}
 11
6.123031769111886E-17
 21
1.0
 31
0.0
 73
     1
 44
1.0
  0
MTEXT
  5
29B
330
1F
100
AcDbEntity
  8
0-B_寸法
  6
Continuous
 62
     7
370
   211
100
AcDbMText
 10
-4136.33640161862
 20
-970.7371706521548
 30
0.0
 40
99.05999999999956
 41
194.9999999999991
 46
0.0
 71
     7
 72
     1
  1
{\fＭＳ ゴシック|b0|i0|c128|p49;105}
 73
     1
 44
1.0
  0
MTEXT
  5
29C
330
1F
100
AcDbEntity
  8
0-B_寸法
  6
Continuous
 62
     7
370
     0
100
AcDbMText
 10
-3994.586772778352
 20
-2843.804786444348
 30
0.0
 40
74.295
 41
97.5
 46
0.0
 71
     7
 72
     1
  1
{\fＭＳ ゴシック|b0|i0|c128|p49;75}
 73
     1
 44
1.0
  0
LINE
  5
29D
330
1F
100
AcDbEntity
  8
0-B_寸法
  6
Continuous
 62
   120
370
     5
100
AcDbLine
 10
-2799.835807763047
 20
-3115.281986283208
 30
0.0
 11
-2799.835807763047
 21
-415.2815551793327
 31
0.0
  0
LINE
  5
29E
330
1F
100
AcDbEntity
  8
0-7_金物
  6
Continuous
 62
     7
370
     9
100
AcDbLine
 10
-5109.836302642692
 20
2371.500487801556
 30
0.0
 11
-5109.836302642692
 21
2191.50063626545
 31
0.0
  0
LINE
  5
29F
330
1F
100
AcDbEntity
  8
0-7_金物
  6
Continuous
 62
     7
370
     9
100
AcDbLine
 10
-5085.836371925842
 20
2335.500220566549
 30
0.0
 11
-5079.836302642692
 21
2335.500220566549
 31
0.0
  0
LINE
  5
2A0
330
1F
100
AcDbEntity
  8
0-7_金物
  6
Continuous
 62
     7
370
     9
100
AcDbLine
 10
-5085.836371925842
 20
2227.500161180991
 30
0.0
 11
-5079.836302642692
 21
2227.500161180991
 31
0.0
  0
LINE
  5
2A1
330
1F
100
AcDbEntity
  8
0-7_金物
  6
Continuous
 62
     7
370
     9
100
AcDbLine
 10
-5085.836371925842
 20
2341.500388825628
 30
0.0
 11
-5085.836371925842
 21
2221.50073524138
 31
0.0
  0
LINE
  5
2A2
330
1F
100
AcDbEntity
  8
0-7_金物
  6
Continuous
 62
     7
370
     9
100
AcDbLine
 10
-5097.835966124534
 20
2221.50073524138
 30
0.0
 11
-5085.836371925842
 21
2221.50073524138
 31
0.0
  0
LINE
  5
2A3
330
1F
100
AcDbEntity
  8
0-7_金物
  6
Continuous
 62
     7
370
     9
100
AcDbLine
 10
-5097.835966124534
 20
2341.500388825628
 30
0.0
 11
-5085.836371925842
 21
2341.500388825628
 31
0.0
  0
LINE
  5
2A4
330
1F
100
AcDbEntity
  8
0-7_金物
  6
Continuous
 62
     7
370
     9
100
AcDbLine
 10
-5109.836302642692
 20
2371.500487801556
 30
0.0
 11
-5097.835966124534
 21
2371.500487801556
 31
0.0
  0
LINE
  5
2A5
330
1F
100
AcDbEntity
  8
0-7_金物
  6
Continuous
 62
     7
370
     9
100
AcDbLine
 10
-5109.836302642692
 20
2191.50063626545
 30
0.0
 11
-5097.835966124534
 21
2191.50063626545
 31
0.0
  0
LINE
  5
2A6
330
1F
100
AcDbEntity
  8
0-7_金物
  6
Continuous
 62
     7
370
     9
100
AcDbLine
 10
-5097.835966124534
 20
2371.500487801556
 30
0.0
 11
-5097.835966124534
 21
2191.50063626545
 31
0.0
  0
LINE
  5
2A7
330
1F
100
AcDbEntity
  8
0-7_金物
  6
Continuous
 62
     7
370
     9
100
AcDbLine
 10
-645.8354860912982
 20
2191.499893945983
 30
0.0
 11
-645.8354860912982
 21
2371.499745482089
 31
0.0
  0
LINE
  5
2A8
330
1F
100
AcDbEntity
  8
0-7_金物
  6
Continuous
 62
     7
370
     9
100
AcDbLine
 10
-669.8354168081482
 20
2227.500161180991
 30
0.0
 11
-675.8354860912982
 21
2227.500161180991
 31
0.0
  0
LINE
  5
2A9
330
1F
100
AcDbEntity
  8
0-7_金物
  6
Continuous
 62
     7
370
     9
100
AcDbLine
 10
-669.8354168081482
 20
2335.500220566549
 30
0.0
 11
-675.8354860912982
 21
2335.500220566549
 31
0.0
  0
LINE
  5
2AA
330
1F
100
AcDbEntity
  8
0-7_金物
  6
Continuous
 62
     7
370
     9
100
AcDbLine
 10
-669.8354168081482
 20
2221.499992921911
 30
0.0
 11
-669.8354168081482
 21
2341.499646506159
 31
0.0
  0
LINE
  5
2AB
330
1F
100
AcDbEntity
  8
0-7_金物
  6
Continuous
 62
     7
370
     9
100
AcDbLine
 10
-657.8358226094559
 20
2341.499646506159
 30
0.0
 11
-669.8354168081482
 21
2341.499646506159
 31
0.0
  0
LINE
  5
2AC
330
1F
100
AcDbEntity
  8
0-7_金物
  6
Continuous
 62
     7
370
     9
100
AcDbLine
 10
-657.8358226094559
 20
2221.499992921911
 30
0.0
 11
-669.8354168081482
 21
2221.499992921911
 31
0.0
  0
LINE
  5
2AD
330
1F
100
AcDbEntity
  8
0-7_金物
  6
Continuous
 62
     7
370
     9
100
AcDbLine
 10
-645.8354860912982
 20
2191.499893945983
 30
0.0
 11
-657.8358226094559
 21
2191.499893945983
 31
0.0
  0
LINE
  5
2AE
330
1F
100
AcDbEntity
  8
0-7_金物
  6
Continuous
 62
     7
370
     9
100
AcDbLine
 10
-645.8354860912982
 20
2371.499745482089
 30
0.0
 11
-657.8358226094559
 21
2371.499745482089
 31
0.0
  0
LINE
  5
2AF
330
1F
100
AcDbEntity
  8
0-7_金物
  6
Continuous
 62
     7
370
     9
100
AcDbLine
 10
-657.8358226094559
 20
2191.499893945983
 30
0.0
 11
-657.8358226094559
 21
2371.499745482089
 31
0.0
  0
LINE
  5
2B0
330
1F
100
AcDbEntity
  8
0-B_寸法
  6
Continuous
 62
   120
370
     5
100
AcDbLine
 10
-4507.229845782999
 20
2596.500190873769
 30
0.0
 11
-4687.229845782999
 21
2596.500190873769
 31
0.0
  0
LWPOLYLINE
  5
2B1
330
1F
100
AcDbEntity
  8
0-B_寸法
  6
Continuous
 62
     7
370
     9
100
AcDbPolyline
 90
        4
 70
     1
 43
3.0
 10
-4505.729845782998
 20
2596.500190873769
 42
0.4142135623731
 10
-4507.229845782999
 20
2598.000190873769
 42
0.4142135623731
 10
-4508.729845782999
 20
2596.500190873769
 42
0.4142135623731
 10
-4507.229845782999
 20
2595.000190873769
 42
0.4142135623731
  0
LINE
  5
2B2
330
1F
100
AcDbEntity
  8
0-B_寸法
  6
Continuous
 62
   120
370
     5
100
AcDbLine
 10
-4507.229845782999
 20
2596.500190873769
 30
0.0
 11
-4507.229845782999
 21
1966.500190873769
 31
0.0
  0
LINE
  5
2B3
330
1F
100
AcDbEntity
  8
0-0_補助線
  6
JWW_HOJO
 62
   120
370
     5
100
AcDbLine
 10
-4507.229845782999
 20
1990.500190873769
 30
0.0
 11
-4507.229845782999
 21
2572.500190873769
 31
0.0
  0
LINE
  5
2B4
330
1F
100
AcDbEntity
  8
0-0_補助線
  6
JWW_HOJO
 62
   120
370
     5
100
AcDbLine
 10
-4687.229845782999
 20
1990.500190873769
 30
0.0
 11
-4687.229845782999
 21
2572.500190873769
 31
0.0
  0
LINE
  5
2B5
330
1F
100
AcDbEntity
  8
0-1_通り芯
  6
JWW_CENTER1
 62
   120
370
     5
100
AcDbLine
 10
-5679.83630264269
 20
2281.500190873769
 30
0.0
 11
-75.83548609129821
 21
2281.500190873769
 31
0.0
  0
LINE
  5
2B6
330
1F
100
AcDbEntity
  8
0-C_ハッチ
  6
Continuous
 62
   120
370
     5
100
AcDbLine
 10
-675.8354860913016
 20
2449.203650498097
 30
0.0
 11
-820.1320264669766
 21
2593.50019087377
 31
0.0
  0
LINE
  5
2B7
330
1F
100
AcDbEntity
  8
0-C_ハッチ
  6
Continuous
 62
   120
370
     5
100
AcDbLine
 10
-675.8354860912982
 20
2508.60062011774
 30
0.0
 11
-760.7350568473294
 21
2593.50019087377
 31
0.0
  0
LINE
  5
2B8
330
1F
100
AcDbEntity
  8
0-C_ハッチ
  6
Continuous
 62
   120
370
     5
100
AcDbLine
 10
-675.8354860912897
 20
2561.026318798606
 30
0.0
 11
-708.3093581664525
 21
2593.50019087377
 31
0.0
  0
LINE
  5
2B9
330
1F
100
AcDbEntity
  8
0-4_枠
  6
Continuous
 62
    92
370
    13
100
AcDbLine
 10
-852.8354860913009
 20
1966.500190873769
 30
0.0
 11
-852.8354860913009
 21
2593.50019087377
 31
0.0
  0
LINE
  5
2BA
330
1F
100
AcDbEntity
  8
0-4_枠
  6
Continuous
 62
    92
370
    13
100
AcDbLine
 10
-675.8354860912982
 20
2593.50019087377
 30
0.0
 11
-852.8354860913009
 21
2593.50019087377
 31
0.0
  0
LINE
  5
2BB
330
1F
100
AcDbEntity
  8
0-4_枠
  6
Continuous
 62
    92
370
    13
100
AcDbLine
 10
-855.8354860912999
 20
1966.500190873769
 30
0.0
 11
-855.8354860912999
 21
2596.500190873769
 31
0.0
  0
LINE
  5
2BC
330
1F
100
AcDbEntity
  8
0-4_枠
  6
Continuous
 62
    92
370
    13
100
AcDbLine
 10
-675.8354860912982
 20
2596.500190873769
 30
0.0
 11
-855.8354860912999
 21
2596.500190873769
 31
0.0
  0
LINE
  5
2BD
330
1F
100
AcDbEntity
  8
0-4_枠
  6
Continuous
 62
    92
370
    13
100
AcDbLine
 10
-675.8354860912982
 20
2596.500190873769
 30
0.0
 11
-675.8354860912982
 21
2008.50019087377
 31
0.0
  0
LINE
  5
2BE
330
1F
100
AcDbEntity
  8
0-C_ハッチ
  6
Continuous
 62
   120
370
     5
100
AcDbLine
 10
-5079.83630264269
 20
2449.203650498097
 30
0.0
 11
-4935.539762267014
 21
2593.50019087377
 31
0.0
  0
LINE
  5
2BF
330
1F
100
AcDbEntity
  8
0-C_ハッチ
  6
Continuous
 62
   120
370
     5
100
AcDbLine
 10
-5079.836302642692
 20
2508.60062011774
 30
0.0
 11
-4994.936731886662
 21
2593.50019087377
 31
0.0
  0
LINE
  5
2C0
330
1F
100
AcDbEntity
  8
0-C_ハッチ
  6
Continuous
 62
   120
370
     5
100
AcDbLine
 10
-5079.836302642704
 20
2561.026318798606
 30
0.0
 11
-5047.362430567539
 21
2593.50019087377
 31
0.0
  0
LINE
  5
2C1
330
1F
100
AcDbEntity
  8
0-4_枠
  6
Continuous
 62
    92
370
    13
100
AcDbLine
 10
-4902.83630264269
 20
1966.500190873769
 30
0.0
 11
-4902.83630264269
 21
2593.50019087377
 31
0.0
  0
LINE
  5
2C2
330
1F
100
AcDbEntity
  8
0-4_枠
  6
Continuous
 62
    92
370
    13
100
AcDbLine
 10
-5079.836302642692
 20
2593.50019087377
 30
0.0
 11
-4902.83630264269
 21
2593.50019087377
 31
0.0
  0
LINE
  5
2C3
330
1F
100
AcDbEntity
  8
0-4_枠
  6
Continuous
 62
    92
370
    13
100
AcDbLine
 10
-4899.836302642691
 20
1966.500190873769
 30
0.0
 11
-4899.836302642691
 21
2596.500190873769
 31
0.0
  0
LINE
  5
2C4
330
1F
100
AcDbEntity
  8
0-4_枠
  6
Continuous
 62
    92
370
    13
100
AcDbLine
 10
-5079.836302642692
 20
2596.500190873769
 30
0.0
 11
-4899.836302642691
 21
2596.500190873769
 31
0.0
  0
LINE
  5
2C5
330
1F
100
AcDbEntity
  8
0-4_枠
  6
Continuous
 62
    92
370
    13
100
AcDbLine
 10
-5079.836302642692
 20
2596.500190873769
 30
0.0
 11
-5079.836302642692
 21
2008.50019087377
 31
0.0
  0
LINE
  5
2C6
330
1F
100
AcDbEntity
  8
0-7_金物
  6
JWW_DASHED1
 62
     7
370
     9
100
AcDbLine
 10
-924.1914676171768
 20
2152.557630056306
 30
0.0
 11
-1065.491467617178
 21
2152.557630056306
 31
0.0
  0
LINE
  5
2C7
330
1F
100
AcDbEntity
  8
0-7_金物
  6
JWW_DASHED1
 62
     7
370
     9
100
AcDbLine
 10
-1065.491467617178
 20
2194.500190873769
 30
0.0
 11
-1065.491467617178
 21
2152.557630056306
 31
0.0
  0
LINE
  5
2C8
330
1F
100
AcDbEntity
  8
0-7_金物
  6
JWW_DASHED1
 62
     7
370
     9
100
AcDbLine
 10
-924.1914676171768
 20
2194.500190873769
 30
0.0
 11
-924.1914676171768
 21
2152.557630056306
 31
0.0
  0
LINE
  5
2C9
330
1F
100
AcDbEntity
  8
0-7_金物
  6
Continuous
 62
     7
370
     9
100
AcDbLine
 10
-878.3363026427105
 20
2289.544883490833
 30
0.0
 11
-878.3363026427105
 21
2444.944883490829
 31
0.0
  0
LINE
  5
2CA
330
1F
100
AcDbEntity
  8
0-7_金物
  6
Continuous
 62
     7
370
     9
100
AcDbLine
 10
-855.8363026427105
 20
2444.944883490829
 30
0.0
 11
-878.3363026427105
 21
2444.944883490829
 31
0.0
  0
LINE
  5
2CB
330
1F
100
AcDbEntity
  8
0-7_金物
  6
Continuous
 62
     7
370
     9
100
AcDbLine
 10
-878.6430815270535
 20
2242.405604902447
 30
0.0
 11
-878.3363026427105
 21
2292.24488349083
 31
0.0
  0
LINE
  5
2CC
330
1F
100
AcDbEntity
  8
0-7_金物
  6
Continuous
 62
     7
370
     9
100
AcDbLine
 10
-855.8363026427105
 20
2289.544883490833
 30
0.0
 11
-878.3529221245976
 21
2289.544883490833
 31
0.0
  0
LINE
  5
2CD
330
1F
100
AcDbEntity
  8
0-7_金物
  6
Continuous
 62
     7
370
     9
100
AcDbLine
 10
-981.7123056493625
 20
2194.500190873769
 30
0.0
 11
-878.6430815270535
 21
2242.405604902447
 31
0.0
  0
LINE
  5
2CE
330
1F
100
AcDbEntity
  8
0-7_金物
  6
Continuous
 62
     7
370
     9
100
AcDbLine
 10
-924.1914676171768
 20
2194.500190873769
 30
0.0
 11
-1065.491467617178
 21
2194.500190873769
 31
0.0
  0
LINE
  5
2CF
330
1F
100
AcDbEntity
  8
0-7_金物
  6
Continuous
 62
     7
370
     9
100
AcDbLine
 10
-1003.518825869043
 20
2224.869998731615
 30
0.0
 11
-1004.965007195606
 21
2194.500190873769
 31
0.0
  0
LINE
  5
2D0
330
1F
100
AcDbEntity
  8
0-7_金物
  6
Continuous
 62
     7
370
     9
100
AcDbLine
 10
-875.001801557662
 20
2472.204649293135
 30
0.0
 11
-877.8051269832622
 21
2473.606312005932
 31
0.0
  0
LINE
  5
2D1
330
1F
100
AcDbEntity
  8
0-7_金物
  6
Continuous
 62
     7
370
     9
100
AcDbLine
 10
-875.001801557662
 20
2464.930100747206
 30
0.0
 11
-875.001801557662
 21
2472.204649293135
 31
0.0
  0
LINE
  5
2D2
330
1F
100
AcDbEntity
  8
0-7_金物
  6
Continuous
 62
     7
370
     9
100
AcDbLine
 10
-875.001801557662
 20
2464.930100747206
 30
0.0
 11
-866.4380925099249
 21
2466.357385588497
 31
0.0
  0
LINE
  5
2D3
330
1F
100
AcDbEntity
  8
0-7_金物
  6
Continuous
 62
     7
370
     9
100
AcDbLine
 10
-948.9597117745882
 20
2277.004263310758
 30
0.0
 11
-1003.518825869043
 21
2224.869998731615
 31
0.0
  0
LINE
  5
2D4
330
1F
100
AcDbEntity
  8
0-7_金物
  6
Continuous
 62
     7
370
     9
100
AcDbLine
 10
-855.8363026427105
 20
2444.944883490829
 30
0.0
 11
-855.8363026427105
 21
2289.544883490833
 31
0.0
  0
LINE
  5
2D5
330
1F
100
AcDbEntity
  8
0-7_金物
  6
Continuous
 62
     7
370
     9
100
AcDbLine
 10
-877.4411698569236
 20
2493.244883490832
 30
0.0
 11
-878.3363026427105
 21
2444.944883490829
 31
0.0
  0
LINE
  5
2D6
330
1F
100
AcDbEntity
  8
0-7_金物
  6
Continuous
 62
     7
370
     9
100
AcDbLine
 10
-867.7272530117364
 20
2483.116472112022
 30
0.0
 11
-877.4931357314506
 21
2490.440884151807
 31
0.0
  0
LINE
  5
2D7
330
1F
100
AcDbEntity
  8
0-7_金物
  6
Continuous
 62
     7
370
     9
100
AcDbLine
 10
-867.7272530117364
 20
2483.116472112022
 30
0.0
 11
-866.4380925099249
 21
2466.357385588497
 31
0.0
  0
LINE
  5
2D8
330
1F
100
AcDbEntity
  8
0-7_金物
  6
Continuous
 62
     7
370
     9
100
AcDbLine
 10
-919.4401585122671
 20
2492.953418350203
 30
0.0
 11
-877.4411698569236
 21
2493.244883490832
 31
0.0
  0
LINE
  5
2D9
330
1F
100
AcDbEntity
  8
0-7_金物
  6
Continuous
 62
     7
370
     9
100
AcDbLine
 10
-919.4401585122671
 20
2492.953418350203
 30
0.0
 11
-948.9597117745882
 21
2277.004263310758
 31
0.0
  0
LINE
  5
2DA
330
1F
100
AcDbEntity
  8
0-7_金物
  6
JWW_DASHED1
 62
     7
370
     9
100
AcDbLine
 10
-4831.481137668223
 20
2152.557630056306
 30
0.0
 11
-4690.181137668224
 21
2152.557630056306
 31
0.0
  0
LINE
  5
2DB
330
1F
100
AcDbEntity
  8
0-7_金物
  6
JWW_DASHED1
 62
     7
370
     9
100
AcDbLine
 10
-4690.181137668224
 20
2194.500190873769
 30
0.0
 11
-4690.181137668224
 21
2152.557630056306
 31
0.0
  0
LINE
  5
2DC
330
1F
100
AcDbEntity
  8
0-7_金物
  6
JWW_DASHED1
 62
     7
370
     9
100
AcDbLine
 10
-4831.481137668223
 20
2194.500190873769
 30
0.0
 11
-4831.481137668223
 21
2152.557630056306
 31
0.0
  0
LINE
  5
2DD
330
1F
100
AcDbEntity
  8
0-7_金物
  6
Continuous
 62
     7
370
     9
100
AcDbLine
 10
-4877.336302642691
 20
2289.544883490833
 30
0.0
 11
-4877.336302642691
 21
2444.944883490829
 31
0.0
  0
LINE
  5
2DE
330
1F
100
AcDbEntity
  8
0-7_金物
  6
Continuous
 62
     7
370
     9
100
AcDbLine
 10
-4899.836302642691
 20
2444.944883490829
 30
0.0
 11
-4877.336302642691
 21
2444.944883490829
 31
0.0
  0
LINE
  5
2DF
330
1F
100
AcDbEntity
  8
0-7_金物
  6
Continuous
 62
     7
370
     9
100
AcDbLine
 10
-4877.029523758349
 20
2242.405604902447
 30
0.0
 11
-4877.336302642691
 21
2292.24488349083
 31
0.0
  0
LINE
  5
2E0
330
1F
100
AcDbEntity
  8
0-7_金物
  6
Continuous
 62
     7
370
     9
100
AcDbLine
 10
-4899.836302642691
 20
2289.544883490833
 30
0.0
 11
-4877.319683160804
 21
2289.544883490833
 31
0.0
  0
LINE
  5
2E1
330
1F
100
AcDbEntity
  8
0-7_金物
  6
Continuous
 62
     7
370
     9
100
AcDbLine
 10
-4773.960299636037
 20
2194.500190873769
 30
0.0
 11
-4877.029523758349
 21
2242.405604902447
 31
0.0
  0
LINE
  5
2E2
330
1F
100
AcDbEntity
  8
0-7_金物
  6
Continuous
 62
     7
370
     9
100
AcDbLine
 10
-4831.481137668223
 20
2194.500190873769
 30
0.0
 11
-4690.181137668224
 21
2194.500190873769
 31
0.0
  0
LINE
  5
2E3
330
1F
100
AcDbEntity
  8
0-7_金物
  6
Continuous
 62
     7
370
     9
100
AcDbLine
 10
-4752.15377941636
 20
2224.869998731615
 30
0.0
 11
-4750.707598089796
 21
2194.500190873769
 31
0.0
  0
LINE
  5
2E4
330
1F
100
AcDbEntity
  8
0-7_金物
  6
Continuous
 62
     7
370
     9
100
AcDbLine
 10
-4880.670803727738
 20
2472.204649293135
 30
0.0
 11
-4877.86747830214
 21
2473.606312005932
 31
0.0
  0
LINE
  5
2E5
330
1F
100
AcDbEntity
  8
0-7_金物
  6
Continuous
 62
     7
370
     9
100
AcDbLine
 10
-4880.670803727738
 20
2464.930100747206
 30
0.0
 11
-4880.670803727738
 21
2472.204649293135
 31
0.0
  0
LINE
  5
2E6
330
1F
100
AcDbEntity
  8
0-7_金物
  6
Continuous
 62
     7
370
     9
100
AcDbLine
 10
-4880.670803727738
 20
2464.930100747206
 30
0.0
 11
-4889.234512775477
 21
2466.357385588497
 31
0.0
  0
LINE
  5
2E7
330
1F
100
AcDbEntity
  8
0-7_金物
  6
Continuous
 62
     7
370
     9
100
AcDbLine
 10
-4806.712893510814
 20
2277.004263310758
 30
0.0
 11
-4752.15377941636
 21
2224.869998731615
 31
0.0
  0
LINE
  5
2E8
330
1F
100
AcDbEntity
  8
0-7_金物
  6
Continuous
 62
     7
370
     9
100
AcDbLine
 10
-4899.836302642691
 20
2444.944883490829
 30
0.0
 11
-4899.836302642691
 21
2289.544883490833
 31
0.0
  0
LINE
  5
2E9
330
1F
100
AcDbEntity
  8
0-7_金物
  6
Continuous
 62
     7
370
     9
100
AcDbLine
 10
-4878.231435428478
 20
2493.244883490832
 30
0.0
 11
-4877.336302642691
 21
2444.944883490829
 31
0.0
  0
LINE
  5
2EA
330
1F
100
AcDbEntity
  8
0-7_金物
  6
Continuous
 62
     7
370
     9
100
AcDbLine
 10
-4887.945352273666
 20
2483.116472112022
 30
0.0
 11
-4878.179469553951
 21
2490.440884151807
 31
0.0
  0
LINE
  5
2EB
330
1F
100
AcDbEntity
  8
0-7_金物
  6
Continuous
 62
     7
370
     9
100
AcDbLine
 10
-4887.945352273666
 20
2483.116472112022
 30
0.0
 11
-4889.234512775477
 21
2466.357385588497
 31
0.0
  0
LINE
  5
2EC
330
1F
100
AcDbEntity
  8
0-7_金物
  6
Continuous
 62
     7
370
     9
100
AcDbLine
 10
-4836.232446773135
 20
2492.953418350203
 30
0.0
 11
-4878.231435428478
 21
2493.244883490832
 31
0.0
  0
LINE
  5
2ED
330
1F
100
AcDbEntity
  8
0-7_金物
  6
Continuous
 62
     7
370
     9
100
AcDbLine
 10
-4836.232446773135
 20
2492.953418350203
 30
0.0
 11
-4806.712893510814
 21
2277.004263310758
 31
0.0
  0
LWPOLYLINE
  5
2EE
330
1F
100
AcDbEntity
  8
0-B_寸法
  6
Continuous
 62
     7
370
     9
100
AcDbPolyline
 90
        4
 70
     1
 43
3.0
 10
-644.3353871153702
 20
1087.50010674423
 42
0.4142135623731
 10
-645.8353871153702
 20
1089.00010674423
 42
0.4142135623731
 10
-647.3353871153702
 20
1087.50010674423
 42
0.4142135623731
 10
-645.8353871153702
 20
1086.00010674423
 42
0.4142135623731
  0
LWPOLYLINE
  5
2EF
330
1F
100
AcDbEntity
  8
0-B_寸法
  6
Continuous
 62
     7
370
     9
100
AcDbPolyline
 90
        4
 70
     1
 43
3.0
 10
-5108.336401618621
 20
1087.50010674423
 42
0.4142135623731
 10
-5109.836401618621
 20
1089.00010674423
 42
0.4142135623731
 10
-5111.336401618622
 20
1087.50010674423
 42
0.4142135623731
 10
-5109.836401618621
 20
1086.00010674423
 42
0.4142135623731
  0
LINE
  5
2F0
330
1F
100
AcDbEntity
  8
0-B_寸法
  6
Continuous
 62
   120
370
     5
100
AcDbLine
 10
-5109.836401618621
 20
1087.50010674423
 30
0.0
 11
-645.8353871153702
 21
1087.50010674423
 31
0.0
  0
LINE
  5
2F1
330
1F
100
AcDbEntity
  8
0-B_寸法
  6
Continuous
 62
   120
370
     5
100
AcDbLine
 10
-645.8353871153702
 20
907.49988402423
 30
0.0
 11
-645.8353871153702
 21
1807.500552135911
 31
0.0
  0
LINE
  5
2F2
330
1F
100
AcDbEntity
  8
0-B_寸法
  6
Continuous
 62
   120
370
     5
100
AcDbLine
 10
-5109.836401618621
 20
907.49988402423
 30
0.0
 11
-5109.836401618621
 21
1807.500552135911
 31
0.0
  0
LWPOLYLINE
  5
2F3
330
1F
100
AcDbEntity
  8
0-B_寸法
  6
Continuous
 62
     7
370
     9
100
AcDbPolyline
 90
        4
 70
     1
 43
3.0
 10
-644.3353871153702
 20
907.49988402423
 42
0.4142135623731
 10
-645.8353871153702
 20
908.99988402423
 42
0.4142135623731
 10
-647.3353871153702
 20
907.49988402423
 42
0.4142135623731
 10
-645.8353871153702
 20
905.99988402423
 42
0.4142135623731
  0
LWPOLYLINE
  5
2F4
330
1F
100
AcDbEntity
  8
0-B_寸法
  6
Continuous
 62
     7
370
     9
100
AcDbPolyline
 90
        4
 70
     1
 43
3.0
 10
-5108.336401618621
 20
907.49988402423
 42
0.4142135623731
 10
-5109.836401618621
 20
908.99988402423
 42
0.4142135623731
 10
-5111.336401618622
 20
907.49988402423
 42
0.4142135623731
 10
-5109.836401618621
 20
905.99988402423
 42
0.4142135623731
  0
LINE
  5
2F5
330
1F
100
AcDbEntity
  8
0-B_寸法
  6
Continuous
 62
   120
370
     5
100
AcDbLine
 10
-5109.836401618621
 20
907.49988402423
 30
0.0
 11
-645.8353871153702
 21
907.49988402423
 31
0.0
  0
LINE
  5
2F6
330
1F
100
AcDbEntity
  8
0-0_補助線
  6
JWW_HOJO
 62
   120
370
     5
100
AcDbLine
 10
-5079.836302642692
 20
907.49988402423
 30
0.0
 11
-675.8354860912982
 21
907.49988402423
 31
0.0
  0
LINE
  5
2F7
330
1F
100
AcDbEntity
  8
0-3_仕上げ
  6
Continuous
 62
    92
370
    13
100
AcDbLine
 10
-645.8353871153702
 20
2029.500190873769
 30
0.0
 11
-645.8353871153702
 21
2644.500190873769
 31
0.0
  0
LINE
  5
2F8
330
1F
100
AcDbEntity
  8
0-3_仕上げ
  6
Continuous
 62
    92
370
    13
100
AcDbLine
 10
-5109.836401618621
 20
2029.500190873769
 30
0.0
 11
-5109.836401618621
 21
2644.500190873769
 31
0.0
  0
LINE
  5
2F9
330
1F
100
AcDbEntity
  8
0-0_補助線
  6
JWW_HOJO
 62
   120
370
     5
100
AcDbLine
 10
-5679.83630264269
 20
1627.500552135911
 30
0.0
 11
-75.83548609129821
 21
1627.500552135911
 31
0.0
  0
LINE
  5
2FA
330
1F
100
AcDbEntity
  8
0-B_寸法
  6
Continuous
 62
   120
370
     5
100
AcDbLine
 10
-855.8353376274044
 20
1447.500552135911
 30
0.0
 11
-4899.836451106585
 21
1447.500552135911
 31
0.0
  0
LINE
  5
2FB
330
1F
100
AcDbEntity
  8
0-0_補助線
  6
JWW_HOJO
 62
   120
370
     5
100
AcDbLine
 10
-5679.83630264269
 20
2824.500190873769
 30
0.0
 11
-75.83548609129821
 21
2824.500190873769
 31
0.0
  0
LINE
  5
2FC
330
1F
100
AcDbEntity
  8
0-B_寸法
  6
Continuous
 62
   120
370
     5
100
AcDbLine
 10
-5079.836302642692
 20
1267.50032944007
 30
0.0
 11
-675.8354860912982
 21
1267.50032944007
 31
0.0
  0
LINE
  5
2FD
330
1F
100
AcDbEntity
  8
0-B_寸法
  6
Continuous
 62
   120
370
     5
100
AcDbLine
 10
-4860.554270339935
 20
1747.500552135911
 30
0.0
 11
-4744.487700432198
 21
1747.500552135911
 31
0.0
  0
LINE
  5
2FE
330
1F
100
AcDbEntity
  8
0-B_寸法
  6
Continuous
 62
   120
370
     5
100
AcDbLine
 10
-4929.836302642691
 20
1627.500552135911
 30
0.0
 11
-4860.554270339935
 21
1747.500552135911
 31
0.0
  0
LINE
  5
2FF
330
1F
100
AcDbEntity
  8
0-B_寸法
  6
Continuous
 62
   120
370
     5
100
AcDbLine
 10
-5143.785415441193
 20
1507.500552135911
 30
0.0
 11
-5101.118334945446
 21
1507.500552135911
 31
0.0
  0
LINE
  5
300
330
1F
100
AcDbEntity
  8
0-B_寸法
  6
Continuous
 62
   120
370
     5
100
AcDbLine
 10
-5031.836302642692
 20
1627.500552135911
 30
0.0
 11
-5101.118334945446
 21
1507.500552135911
 31
0.0
  0
LINE
  5
301
330
1F
100
AcDbEntity
  8
0-B_寸法
  6
Continuous
 62
   120
370
     5
100
AcDbLine
 10
-4887.836079946856
 20
1447.500552135911
 30
0.0
 11
-4887.836079946856
 21
1807.500552135911
 31
0.0
  0
LINE
  5
302
330
1F
100
AcDbEntity
  8
0-B_寸法
  6
Continuous
 62
   120
370
     5
100
AcDbLine
 10
-4899.836302642691
 20
1627.500552135911
 30
0.0
 11
-4899.836302642691
 21
1807.500552135911
 31
0.0
  0
LWPOLYLINE
  5
303
330
1F
100
AcDbEntity
  8
0-B_寸法
  6
Continuous
 62
     7
370
     9
100
AcDbPolyline
 90
        4
 70
     1
 43
3.0
 10
-4898.33630264269
 20
1627.500552135911
 42
0.4142135623731
 10
-4899.836302642691
 20
1629.000552135911
 42
0.4142135623731
 10
-4901.336302642691
 20
1627.500552135911
 42
0.4142135623731
 10
-4899.836302642691
 20
1626.000552135911
 42
0.4142135623731
  0
LINE
  5
304
330
1F
100
AcDbEntity
  8
0-B_寸法
  6
Continuous
 62
   120
370
     5
100
AcDbLine
 10
-4959.836302642691
 20
1627.500552135911
 30
0.0
 11
-4959.836302642691
 21
1807.500552135911
 31
0.0
  0
LWPOLYLINE
  5
305
330
1F
100
AcDbEntity
  8
0-B_寸法
  6
Continuous
 62
     7
370
     9
100
AcDbPolyline
 90
        4
 70
     1
 43
3.0
 10
-4958.33630264269
 20
1627.500552135911
 42
0.4142135623731
 10
-4959.836302642691
 20
1629.000552135911
 42
0.4142135623731
 10
-4961.336302642691
 20
1627.500552135911
 42
0.4142135623731
 10
-4959.836302642691
 20
1626.000552135911
 42
0.4142135623731
  0
LINE
  5
306
330
1F
100
AcDbEntity
  8
0-B_寸法
  6
Continuous
 62
   120
370
     5
100
AcDbLine
 10
-5013.83630264269
 20
1627.500552135911
 30
0.0
 11
-5013.83630264269
 21
1807.500552135911
 31
0.0
  0
LWPOLYLINE
  5
307
330
1F
100
AcDbEntity
  8
0-B_寸法
  6
Continuous
 62
     7
370
     9
100
AcDbPolyline
 90
        4
 70
     1
 43
3.0
 10
-5012.33630264269
 20
1627.500552135911
 42
0.4142135623731
 10
-5013.83630264269
 20
1629.000552135911
 42
0.4142135623731
 10
-5015.33630264269
 20
1627.500552135911
 42
0.4142135623731
 10
-5013.83630264269
 20
1626.000552135911
 42
0.4142135623731
  0
LINE
  5
308
330
1F
100
AcDbEntity
  8
0-B_寸法
  6
Continuous
 62
   120
370
     5
100
AcDbLine
 10
-5049.836302642692
 20
1627.500552135911
 30
0.0
 11
-5049.836302642692
 21
1807.500552135911
 31
0.0
  0
LWPOLYLINE
  5
309
330
1F
100
AcDbEntity
  8
0-B_寸法
  6
Continuous
 62
     7
370
     9
100
AcDbPolyline
 90
        4
 70
     1
 43
3.0
 10
-5048.336302642691
 20
1627.500552135911
 42
0.4142135623731
 10
-5049.836302642692
 20
1629.000552135911
 42
0.4142135623731
 10
-5051.336302642692
 20
1627.500552135911
 42
0.4142135623731
 10
-5049.836302642692
 20
1626.000552135911
 42
0.4142135623731
  0
LWPOLYLINE
  5
30A
330
1F
100
AcDbEntity
  8
0-B_寸法
  6
Continuous
 62
     7
370
     9
100
AcDbPolyline
 90
        4
 70
     1
 43
3.0
 10
-5078.336302642691
 20
1627.500552135911
 42
0.4142135623731
 10
-5079.836302642692
 20
1629.000552135911
 42
0.4142135623731
 10
-5081.336302642692
 20
1627.500552135911
 42
0.4142135623731
 10
-5079.836302642692
 20
1626.000552135911
 42
0.4142135623731
  0
LINE
  5
30B
330
1F
100
AcDbEntity
  8
0-B_寸法
  6
Continuous
 62
   120
370
     5
100
AcDbLine
 10
-5079.836302642692
 20
1627.500552135911
 30
0.0
 11
-4899.836302642691
 21
1627.500552135911
 31
0.0
  0
LINE
  5
30C
330
1F
100
AcDbEntity
  8
0-B_寸法
  6
Continuous
 62
   120
370
     5
100
AcDbLine
 10
-4507.229845782999
 20
1966.500190873769
 30
0.0
 11
-4687.229845782999
 21
1966.500190873769
 31
0.0
  0
LWPOLYLINE
  5
30D
330
1F
100
AcDbEntity
  8
0-B_寸法
  6
Continuous
 62
     7
370
     9
100
AcDbPolyline
 90
        4
 70
     1
 43
3.0
 10
-4505.729845782998
 20
1966.500190873769
 42
0.4142135623731
 10
-4507.229845782999
 20
1968.000190873769
 42
0.4142135623731
 10
-4508.729845782999
 20
1966.500190873769
 42
0.4142135623731
 10
-4507.229845782999
 20
1965.00019087377
 42
0.4142135623731
  0
LWPOLYLINE
  5
30E
330
1F
100
AcDbEntity
  8
0-B_寸法
  6
Continuous
 62
     7
370
     9
100
AcDbPolyline
 90
        4
 70
     1
 43
3.0
 10
-4886.336079946856
 20
1447.500552135911
 42
0.4142135623731
 10
-4887.836079946856
 20
1449.000552135911
 42
0.4142135623731
 10
-4889.336079946856
 20
1447.500552135911
 42
0.4142135623731
 10
-4887.836079946856
 20
1446.000552135911
 42
0.4142135623731
  0
LWPOLYLINE
  5
30F
330
1F
100
AcDbEntity
  8
0-B_寸法
  6
Continuous
 62
     7
370
     9
100
AcDbPolyline
 90
        4
 70
     1
 43
3.0
 10
-4898.336451106585
 20
1447.500552135911
 42
0.4142135623731
 10
-4899.836451106585
 20
1449.000552135911
 42
0.4142135623731
 10
-4901.336451106586
 20
1447.500552135911
 42
0.4142135623731
 10
-4899.836451106585
 20
1446.000552135911
 42
0.4142135623731
  0
LINE
  5
310
330
1F
100
AcDbEntity
  8
0-B_寸法
  6
Continuous
 62
   120
370
     5
100
AcDbLine
 10
-4899.836451106585
 20
1747.500428415999
 30
0.0
 11
-4899.836451106585
 21
1267.50032944007
 31
0.0
  0
LWPOLYLINE
  5
311
330
1F
100
AcDbEntity
  8
0-B_寸法
  6
Continuous
 62
     7
370
     9
100
AcDbPolyline
 90
        4
 70
     1
 43
3.0
 10
-5078.336302642691
 20
1267.50032944007
 42
0.4142135623731
 10
-5079.836302642692
 20
1269.00032944007
 42
0.4142135623731
 10
-5081.336302642692
 20
1267.50032944007
 42
0.4142135623731
 10
-5079.836302642692
 20
1266.00032944007
 42
0.4142135623731
  0
LWPOLYLINE
  5
312
330
1F
100
AcDbEntity
  8
0-B_寸法
  6
Continuous
 62
     7
370
     9
100
AcDbPolyline
 90
        4
 70
     1
 43
3.0
 10
-4898.336451106585
 20
1267.50032944007
 42
0.4142135623731
 10
-4899.836451106585
 20
1269.00032944007
 42
0.4142135623731
 10
-4901.336451106586
 20
1267.50032944007
 42
0.4142135623731
 10
-4899.836451106585
 20
1266.00032944007
 42
0.4142135623731
  0
LWPOLYLINE
  5
313
330
1F
100
AcDbEntity
  8
0-B_寸法
  6
Continuous
 62
     7
370
     9
100
AcDbPolyline
 90
        4
 70
     1
 43
3.0
 10
-5078.336302642691
 20
1087.50010674423
 42
0.4142135623731
 10
-5079.836302642692
 20
1089.00010674423
 42
0.4142135623731
 10
-5081.336302642692
 20
1087.50010674423
 42
0.4142135623731
 10
-5079.836302642692
 20
1086.00010674423
 42
0.4142135623731
  0
LINE
  5
314
330
1F
100
AcDbEntity
  8
0-B_寸法
  6
Continuous
 62
   120
370
     5
100
AcDbLine
 10
-5079.836302642692
 20
1807.500552135911
 30
0.0
 11
-5079.836302642692
 21
1087.50010674423
 31
0.0
  0
LINE
  5
315
330
1F
100
AcDbEntity
  8
0-B_寸法
  6
Continuous
 62
   120
370
     5
100
AcDbLine
 10
-855.8360799468682
 20
1447.500552135911
 30
0.0
 11
-855.8360799468682
 21
1747.500428415999
 31
0.0
  0
LWPOLYLINE
  5
316
330
1F
100
AcDbEntity
  8
0-B_寸法
  6
Continuous
 62
     7
370
     9
100
AcDbPolyline
 90
        4
 70
     1
 43
3.0
 10
-854.3360799468682
 20
1447.500552135911
 42
0.4142135623731
 10
-855.8360799468682
 20
1449.000552135911
 42
0.4142135623731
 10
-857.3360799468682
 20
1447.500552135911
 42
0.4142135623731
 10
-855.8360799468682
 20
1446.000552135911
 42
0.4142135623731
  0
LINE
  5
317
330
1F
100
AcDbEntity
  8
0-B_寸法
  6
Continuous
 62
   120
370
     5
100
AcDbLine
 10
-867.8360799468555
 20
1447.500552135911
 30
0.0
 11
-867.8360799468555
 21
1747.500428415999
 31
0.0
  0
LWPOLYLINE
  5
318
330
1F
100
AcDbEntity
  8
0-B_寸法
  6
Continuous
 62
     7
370
     9
100
AcDbPolyline
 90
        4
 70
     1
 43
3.0
 10
-866.3360799468555
 20
1447.500552135911
 42
0.4142135623731
 10
-867.8360799468555
 20
1449.000552135911
 42
0.4142135623731
 10
-869.3360799468555
 20
1447.500552135911
 42
0.4142135623731
 10
-867.8360799468555
 20
1446.000552135911
 42
0.4142135623731
  0
LINE
  5
319
330
1F
100
AcDbEntity
  8
0-B_寸法
  6
Continuous
 62
   120
370
     5
100
AcDbLine
 10
-855.8353376274044
 20
1747.500428415999
 30
0.0
 11
-855.8353376274044
 21
1267.50032944007
 31
0.0
  0
LWPOLYLINE
  5
31A
330
1F
100
AcDbEntity
  8
0-B_寸法
  6
Continuous
 62
     7
370
     9
100
AcDbPolyline
 90
        4
 70
     1
 43
3.0
 10
-674.3354860912982
 20
1267.50032944007
 42
0.4142135623731
 10
-675.8354860912982
 20
1269.00032944007
 42
0.4142135623731
 10
-677.3354860912982
 20
1267.50032944007
 42
0.4142135623731
 10
-675.8354860912982
 20
1266.00032944007
 42
0.4142135623731
  0
LWPOLYLINE
  5
31B
330
1F
100
AcDbEntity
  8
0-B_寸法
  6
Continuous
 62
     7
370
     9
100
AcDbPolyline
 90
        4
 70
     1
 43
3.0
 10
-674.3354860912982
 20
1087.50010674423
 42
0.4142135623731
 10
-675.8354860912982
 20
1089.00010674423
 42
0.4142135623731
 10
-677.3354860912982
 20
1087.50010674423
 42
0.4142135623731
 10
-675.8354860912982
 20
1086.00010674423
 42
0.4142135623731
  0
LWPOLYLINE
  5
31C
330
1F
100
AcDbEntity
  8
0-B_寸法
  6
Continuous
 62
     7
370
     9
100
AcDbPolyline
 90
        4
 70
     1
 43
3.0
 10
-854.3353376274044
 20
1267.50032944007
 42
0.4142135623731
 10
-855.8353376274044
 20
1269.00032944007
 42
0.4142135623731
 10
-857.3353376274044
 20
1267.50032944007
 42
0.4142135623731
 10
-855.8353376274044
 20
1266.00032944007
 42
0.4142135623731
  0
LINE
  5
31D
330
1F
100
AcDbEntity
  8
0-B_寸法
  6
Continuous
 62
   120
370
     5
100
AcDbLine
 10
-675.8354860912982
 20
1747.500428415999
 30
0.0
 11
-675.8354860912982
 21
1087.50010674423
 31
0.0
  0
LINE
  5
31E
330
1F
100
AcDbEntity
  8
0-B_寸法
  6
Continuous
 62
   120
370
     5
100
AcDbLine
 10
-2871.836079946856
 20
1447.500552135911
 30
0.0
 11
-2871.836079946856
 21
1747.500428415999
 31
0.0
  0
LWPOLYLINE
  5
31F
330
1F
100
AcDbEntity
  8
0-B_寸法
  6
Continuous
 62
     7
370
     9
100
AcDbPolyline
 90
        4
 70
     1
 43
3.0
 10
-2870.336079946856
 20
1447.500552135911
 42
0.4142135623731
 10
-2871.836079946856
 20
1449.000552135911
 42
0.4142135623731
 10
-2873.336079946856
 20
1447.500552135911
 42
0.4142135623731
 10
-2871.836079946856
 20
1446.000552135911
 42
0.4142135623731
  0
LINE
  5
320
330
1F
100
AcDbEntity
  8
0-B_寸法
  6
Continuous
 62
   120
370
     5
100
AcDbLine
 10
-2883.836079946857
 20
1447.500552135911
 30
0.0
 11
-2883.836079946857
 21
1747.500428415999
 31
0.0
  0
LWPOLYLINE
  5
321
330
1F
100
AcDbEntity
  8
0-B_寸法
  6
Continuous
 62
     7
370
     9
100
AcDbPolyline
 90
        4
 70
     1
 43
3.0
 10
-2882.336079946857
 20
1447.500552135911
 42
0.4142135623731
 10
-2883.836079946857
 20
1449.000552135911
 42
0.4142135623731
 10
-2885.336079946857
 20
1447.500552135911
 42
0.4142135623731
 10
-2883.836079946857
 20
1446.000552135911
 42
0.4142135623731
  0
LINE
  5
322
330
1F
100
AcDbEntity
  8
0-3_仕上げ
  6
Continuous
 62
    40
370
    15
100
AcDbLine
 10
-5079.836302642692
 20
1954.500190873769
 30
0.0
 11
-5679.83630264269
 21
1954.500190873769
 31
0.0
  0
LINE
  5
323
330
1F
100
AcDbEntity
  8
0-C_ハッチ
  6
JWW_DASHED1
 62
   120
370
     5
100
AcDbLine
 10
-5679.83630264269
 20
1966.959157103182
 30
0.0
 11
-5617.295268872102
 21
2029.500190873769
 31
0.0
  0
LINE
  5
324
330
1F
100
AcDbEntity
  8
0-C_ハッチ
  6
JWW_DASHED1
 62
   120
370
     5
100
AcDbLine
 10
-5679.83630264269
 20
2009.385312812113
 30
0.0
 11
-5659.721424581034
 21
2029.500190873769
 31
0.0
  0
LINE
  5
325
330
1F
100
AcDbEntity
  8
0-3_仕上げ
  6
Continuous
 62
    40
370
    15
100
AcDbLine
 10
-5079.836302642692
 20
2029.500190873769
 30
0.0
 11
-5679.83630264269
 21
2029.500190873769
 31
0.0
  0
LINE
  5
326
330
1F
100
AcDbEntity
  8
0-3_仕上げ
  6
Continuous
 62
    40
370
    15
100
AcDbLine
 10
-675.8354860912982
 20
2029.500190873769
 30
0.0
 11
-75.83548609129821
 21
2029.500190873769
 31
0.0
  0
LINE
  5
327
330
1F
100
AcDbEntity
  8
0-3_仕上げ
  6
Continuous
 62
    40
370
    15
100
AcDbLine
 10
-675.8354860912982
 20
1954.500190873769
 30
0.0
 11
-75.83548609129821
 21
1954.500190873769
 31
0.0
  0
LINE
  5
328
330
1F
100
AcDbEntity
  8
0-C_ハッチ
  6
JWW_DASHED1
 62
   120
370
     5
100
AcDbLine
 10
-75.83548609129821
 20
1966.959157103182
 30
0.0
 11
-138.3765198618875
 21
2029.500190873769
 31
0.0
  0
LINE
  5
329
330
1F
100
AcDbEntity
  8
0-C_ハッチ
  6
JWW_DASHED1
 62
   120
370
     5
100
AcDbLine
 10
-75.83548609129821
 20
2009.385312812113
 30
0.0
 11
-95.95036415295453
 21
2029.500190873769
 31
0.0
  0
LINE
  5
32A
330
1F
100
AcDbEntity
  8
0-0_補助線
  6
JWW_HOJO
 62
   120
370
     5
100
AcDbLine
 10
-75.83548609129821
 20
2824.500190873769
 30
0.0
 11
-75.83548609129821
 21
1627.500552135911
 31
0.0
  0
LINE
  5
32B
330
1F
100
AcDbEntity
  8
0-0_補助線
  6
JWW_HOJO
 62
   120
370
     5
100
AcDbLine
 10
-5679.83630264269
 20
2824.500190873769
 30
0.0
 11
-5679.83630264269
 21
1627.500552135911
 31
0.0
  0
LINE
  5
32C
330
1F
100
AcDbEntity
  8
0-C_ハッチ
  6
JWW_DASHED1
 62
   120
370
     5
100
AcDbLine
 10
-105.8027992907296
 20
1954.499943433947
 30
0.0
 11
-180.8030467305514
 21
2029.500190873769
 31
0.0
  0
LINE
  5
32D
330
1F
100
AcDbEntity
  8
0-C_ハッチ
  6
JWW_DASHED1
 62
   120
370
     5
100
AcDbLine
 10
-148.2293261593952
 20
1954.499943433947
 30
0.0
 11
-223.2295735992187
 21
2029.500190873769
 31
0.0
  0
LINE
  5
32E
330
1F
100
AcDbEntity
  8
0-C_ハッチ
  6
JWW_DASHED1
 62
   120
370
     5
100
AcDbLine
 10
-265.6561004678844
 20
2029.500190873769
 30
0.0
 11
-190.6558530280608
 21
1954.499943433947
 31
0.0
  0
LINE
  5
32F
330
1F
100
AcDbEntity
  8
0-C_ハッチ
  6
JWW_DASHED1
 62
   120
370
     5
100
AcDbLine
 10
-5649.868989443259
 20
1954.499943433947
 30
0.0
 11
-5574.868742003438
 21
2029.500190873769
 31
0.0
  0
LINE
  5
330
330
1F
100
AcDbEntity
  8
0-C_ハッチ
  6
JWW_DASHED1
 62
   120
370
     5
100
AcDbLine
 10
-5607.442462574595
 20
1954.499943433947
 30
0.0
 11
-5532.442215134772
 21
2029.500190873769
 31
0.0
  0
LINE
  5
331
330
1F
100
AcDbEntity
  8
0-C_ハッチ
  6
JWW_DASHED1
 62
   120
370
     5
100
AcDbLine
 10
-5565.015935705929
 20
1954.499943433947
 30
0.0
 11
-5490.015688266104
 21
2029.500190873769
 31
0.0
  0
LINE
  5
332
330
1F
100
AcDbEntity
  8
0-C_ハッチ
  6
JWW_DASHED1
 62
   120
370
     5
100
AcDbLine
 10
-5522.589408837262
 20
1954.499943433947
 30
0.0
 11
-5447.58916139744
 21
2029.500190873769
 31
0.0
  0
LINE
  5
333
330
1F
100
AcDbEntity
  8
0-C_ハッチ
  6
JWW_DASHED1
 62
   120
370
     5
100
AcDbLine
 10
-5480.163253128334
 20
1954.499943433947
 30
0.0
 11
-5405.163005688509
 21
2029.500190873769
 31
0.0
  0
LINE
  5
334
330
1F
100
AcDbEntity
  8
0-C_ハッチ
  6
JWW_DASHED1
 62
   120
370
     5
100
AcDbLine
 10
-5437.736726259667
 20
1954.499943433947
 30
0.0
 11
-5362.736478819844
 21
2029.500190873769
 31
0.0
  0
LINE
  5
335
330
1F
100
AcDbEntity
  8
0-C_ハッチ
  6
JWW_DASHED1
 62
   120
370
     5
100
AcDbLine
 10
-5395.310199391003
 20
1954.499943433947
 30
0.0
 11
-5320.309951951178
 21
2029.500190873769
 31
0.0
  0
LINE
  5
336
330
1F
100
AcDbEntity
  8
0-C_ハッチ
  6
JWW_DASHED1
 62
   120
370
     5
100
AcDbLine
 10
-5352.883672522335
 20
1954.499943433947
 30
0.0
 11
-5277.883425082514
 21
2029.500190873769
 31
0.0
  0
LINE
  5
337
330
1F
100
AcDbEntity
  8
0-C_ハッチ
  6
JWW_DASHED1
 62
   120
370
     5
100
AcDbLine
 10
-5235.457640533315
 20
2029.500190873769
 30
0.0
 11
-5310.457887973139
 21
1954.499943433947
 31
0.0
  0
LINE
  5
338
330
1F
100
AcDbEntity
  8
0-C_ハッチ
  6
JWW_DASHED1
 62
   120
370
     5
100
AcDbLine
 10
-5193.031113664648
 20
2029.500190873769
 30
0.0
 11
-5268.031361104471
 21
1954.499943433947
 31
0.0
  0
LINE
  5
339
330
1F
100
AcDbEntity
  8
0-C_ハッチ
  6
JWW_DASHED1
 62
   120
370
     5
100
AcDbLine
 10
-5183.178678526875
 20
1954.499943433947
 30
0.0
 11
-5108.178431087054
 21
2029.500190873769
 31
0.0
  0
LINE
  5
33A
330
1F
100
AcDbEntity
  8
0-C_ハッチ
  6
JWW_DASHED1
 62
   120
370
     5
100
AcDbLine
 10
-5140.752151658209
 20
1954.499943433947
 30
0.0
 11
-5079.836302642692
 21
2015.4161636092
 31
0.0
  0
LINE
  5
33B
330
1F
100
AcDbEntity
  8
0-C_ハッチ
  6
JWW_DASHED1
 62
   120
370
     5
100
AcDbLine
 10
-5098.325624789547
 20
1954.499943433947
 30
0.0
 11
-5079.836302642692
 21
1972.988894421067
 31
0.0
  0
LINE
  5
33C
330
1F
100
AcDbEntity
  8
0-C_ハッチ
  6
Continuous
 62
   120
370
     5
100
AcDbLine
 10
-4967.967035689971
 20
2026.500190873769
 30
0.0
 11
-4902.83630264269
 21
2091.63092392105
 31
0.0
  0
LINE
  5
33D
330
1F
100
AcDbEntity
  8
0-C_ハッチ
  6
Continuous
 62
   120
370
     5
100
AcDbLine
 10
-4902.83630264269
 20
2151.027893540753
 30
0.0
 11
-5049.836302642692
 21
2004.027893540752
 31
0.0
  0
LINE
  5
33E
330
1F
100
AcDbEntity
  8
0-C_ハッチ
  6
Continuous
 62
   120
370
     5
100
AcDbLine
 10
-5079.836302642685
 20
2389.806680878453
 30
0.0
 11
-4902.83630264269
 21
2566.806680878448
 31
0.0
  0
LINE
  5
33F
330
1F
100
AcDbEntity
  8
0-C_ハッチ
  6
Continuous
 62
   120
370
     5
100
AcDbLine
 10
-5079.836302642701
 20
2330.409711258736
 30
0.0
 11
-4902.83630264269
 21
2507.409711258745
 31
0.0
  0
LINE
  5
340
330
1F
100
AcDbEntity
  8
0-C_ハッチ
  6
Continuous
 62
   120
370
     5
100
AcDbLine
 10
-5079.836302642699
 20
2271.012741639092
 30
0.0
 11
-4902.83630264269
 21
2448.012741639098
 31
0.0
  0
LINE
  5
341
330
1F
100
AcDbEntity
  8
0-C_ハッチ
  6
Continuous
 62
   120
370
     5
100
AcDbLine
 10
-5079.836302642699
 20
2211.615772019391
 30
0.0
 11
-4902.83630264269
 21
2388.615772019397
 31
0.0
  0
LINE
  5
342
330
1F
100
AcDbEntity
  8
0-C_ハッチ
  6
Continuous
 62
   120
370
     5
100
AcDbLine
 10
-5079.836302642692
 20
2152.218802399747
 30
0.0
 11
-4902.83630264269
 21
2329.21880239975
 31
0.0
  0
LINE
  5
343
330
1F
100
AcDbEntity
  8
0-C_ハッチ
  6
Continuous
 62
   120
370
     5
100
AcDbLine
 10
-5079.836302642694
 20
2092.821832780045
 30
0.0
 11
-4902.83630264269
 21
2269.821832780048
 31
0.0
  0
LINE
  5
344
330
1F
100
AcDbEntity
  8
0-C_ハッチ
  6
Continuous
 62
   120
370
     5
100
AcDbLine
 10
-5079.836302642706
 20
2033.424863160387
 30
0.0
 11
-4902.83630264269
 21
2210.4248631604
 31
0.0
  0
LINE
  5
345
330
1F
100
AcDbEntity
  8
0-C_ハッチ
  6
Continuous
 62
   120
370
     5
100
AcDbLine
 10
-4902.83630264269
 20
2032.233954301403
 30
0.0
 11
-4959.836302642691
 21
1975.233954301403
 31
0.0
  0
LINE
  5
346
330
1F
100
AcDbEntity
  8
0-3_仕上げ
  6
Continuous
 62
    40
370
    15
100
AcDbLine
 10
-5079.836302642692
 20
2029.500190873769
 30
0.0
 11
-5079.836302642692
 21
1954.500190873769
 31
0.0
  0
LINE
  5
347
330
1F
100
AcDbEntity
  8
0-4_枠
  6
Continuous
 62
    92
370
    13
100
AcDbLine
 10
-5049.836302642692
 20
1966.500190873769
 30
0.0
 11
-5049.836302642692
 21
2008.50019087377
 31
0.0
  0
LINE
  5
348
330
1F
100
AcDbEntity
  8
0-4_枠
  6
Continuous
 62
    92
370
    13
100
AcDbLine
 10
-5079.836302642692
 20
2008.50019087377
 30
0.0
 11
-5049.836302642692
 21
2008.50019087377
 31
0.0
  0
LINE
  5
349
330
1F
100
AcDbEntity
  8
0-4_枠
  6
Continuous
 62
    92
370
    13
100
AcDbLine
 10
-5013.83630264269
 20
1966.500190873769
 30
0.0
 11
-5049.836302642692
 21
1966.500190873769
 31
0.0
  0
LINE
  5
34A
330
1F
100
AcDbEntity
  8
0-4_枠
  6
Continuous
 62
    92
370
    13
100
AcDbLine
 10
-4899.836302642691
 20
1966.500190873769
 30
0.0
 11
-4959.836302642691
 21
1966.500190873769
 31
0.0
  0
LINE
  5
34B
330
1F
100
AcDbEntity
  8
0-4_枠
  6
Continuous
 62
    92
370
    13
100
AcDbLine
 10
-5013.83630264269
 20
2026.500190873769
 30
0.0
 11
-4959.836302642691
 21
2026.500190873769
 31
0.0
  0
LINE
  5
34C
330
1F
100
AcDbEntity
  8
0-4_枠
  6
Continuous
 62
    92
370
    13
100
AcDbLine
 10
-5013.83630264269
 20
2026.500190873769
 30
0.0
 11
-5013.83630264269
 21
1966.500190873769
 31
0.0
  0
LINE
  5
34D
330
1F
100
AcDbEntity
  8
0-4_枠
  6
Continuous
 62
    92
370
    13
100
AcDbLine
 10
-4959.836302642691
 20
2026.500190873769
 30
0.0
 11
-4959.836302642691
 21
1966.500190873769
 31
0.0
  0
LINE
  5
34E
330
1F
100
AcDbEntity
  8
0-C_ハッチ
  6
JWW_DASHED1
 62
   120
370
     5
100
AcDbLine
 10
-233.0823798967265
 20
1954.499943433947
 30
0.0
 11
-308.0826273365483
 21
2029.500190873769
 31
0.0
  0
LINE
  5
34F
330
1F
100
AcDbEntity
  8
0-C_ハッチ
  6
JWW_DASHED1
 62
   120
370
     5
100
AcDbLine
 10
-275.508535605656
 20
1954.499943433947
 30
0.0
 11
-350.5087830454795
 21
2029.500190873769
 31
0.0
  0
LINE
  5
350
330
1F
100
AcDbEntity
  8
0-C_ハッチ
  6
JWW_DASHED1
 62
   120
370
     5
100
AcDbLine
 10
-317.9350624743233
 20
1954.499943433947
 30
0.0
 11
-392.9353099141451
 21
2029.500190873769
 31
0.0
  0
LINE
  5
351
330
1F
100
AcDbEntity
  8
0-C_ハッチ
  6
JWW_DASHED1
 62
   120
370
     5
100
AcDbLine
 10
-360.361589342989
 20
1954.499943433947
 30
0.0
 11
-435.3618367828108
 21
2029.500190873769
 31
0.0
  0
LINE
  5
352
330
1F
100
AcDbEntity
  8
0-C_ハッチ
  6
JWW_DASHED1
 62
   120
370
     5
100
AcDbLine
 10
-402.7881162116529
 20
1954.499943433947
 30
0.0
 11
-477.7883636514764
 21
2029.500190873769
 31
0.0
  0
LINE
  5
353
330
1F
100
AcDbEntity
  8
0-C_ハッチ
  6
JWW_DASHED1
 62
   120
370
     5
100
AcDbLine
 10
-445.2139007608514
 20
1954.499943433947
 30
0.0
 11
-520.2141482006732
 21
2029.500190873769
 31
0.0
  0
LINE
  5
354
330
1F
100
AcDbEntity
  8
0-C_ハッチ
  6
JWW_DASHED1
 62
   120
370
     5
100
AcDbLine
 10
-487.640427629517
 20
1954.499943433947
 30
0.0
 11
-562.6406750693405
 21
2029.500190873769
 31
0.0
  0
LINE
  5
355
330
1F
100
AcDbEntity
  8
0-C_ハッチ
  6
JWW_DASHED1
 62
   120
370
     5
100
AcDbLine
 10
-530.0669544981827
 20
1954.499943433947
 30
0.0
 11
-605.0672019380045
 21
2029.500190873769
 31
0.0
  0
LINE
  5
356
330
1F
100
AcDbEntity
  8
0-C_ハッチ
  6
JWW_DASHED1
 62
   120
370
     5
100
AcDbLine
 10
-572.4931102071139
 20
1954.499943433947
 30
0.0
 11
-647.4933576469374
 21
2029.500190873769
 31
0.0
  0
LINE
  5
357
330
1F
100
AcDbEntity
  8
0-C_ハッチ
  6
JWW_DASHED1
 62
   120
370
     5
100
AcDbLine
 10
-614.9196370757795
 20
1954.499943433947
 30
0.0
 11
-675.8354860912982
 21
2015.4161636092
 31
0.0
  0
LINE
  5
358
330
1F
100
AcDbEntity
  8
0-C_ハッチ
  6
JWW_DASHED1
 62
   120
370
     5
100
AcDbLine
 10
-657.3461639444469
 20
1954.499943433947
 30
0.0
 11
-675.8354860912982
 21
1972.988894421067
 31
0.0
  0
LINE
  5
359
330
1F
100
AcDbEntity
  8
0-C_ハッチ
  6
Continuous
 62
   120
370
     5
100
AcDbLine
 10
-787.7047530440177
 20
2026.500190873769
 30
0.0
 11
-852.8354860913009
 21
2091.63092392105
 31
0.0
  0
LINE
  5
35A
330
1F
100
AcDbEntity
  8
0-C_ハッチ
  6
Continuous
 62
   120
370
     5
100
AcDbLine
 10
-852.8354860913009
 20
2151.027893540753
 30
0.0
 11
-705.8354860912999
 21
2004.027893540752
 31
0.0
  0
LINE
  5
35B
330
1F
100
AcDbEntity
  8
0-C_ハッチ
  6
Continuous
 62
   120
370
     5
100
AcDbLine
 10
-675.835486091305
 20
2389.806680878453
 30
0.0
 11
-852.8354860913009
 21
2566.806680878448
 31
0.0
  0
LINE
  5
35C
330
1F
100
AcDbEntity
  8
0-C_ハッチ
  6
Continuous
 62
   120
370
     5
100
AcDbLine
 10
-675.8354860912914
 20
2330.409711258736
 30
0.0
 11
-852.8354860913009
 21
2507.409711258745
 31
0.0
  0
LINE
  5
35D
330
1F
100
AcDbEntity
  8
0-C_ハッチ
  6
Continuous
 62
   120
370
     5
100
AcDbLine
 10
-675.8354860912931
 20
2271.012741639092
 30
0.0
 11
-852.8354860913009
 21
2448.012741639098
 31
0.0
  0
LINE
  5
35E
330
1F
100
AcDbEntity
  8
0-C_ハッチ
  6
Continuous
 62
   120
370
     5
100
AcDbLine
 10
-675.8354860912931
 20
2211.615772019391
 30
0.0
 11
-852.8354860913009
 21
2388.615772019397
 31
0.0
  0
LINE
  5
35F
330
1F
100
AcDbEntity
  8
0-C_ハッチ
  6
Continuous
 62
   120
370
     5
100
AcDbLine
 10
-675.8354860912982
 20
2152.218802399747
 30
0.0
 11
-852.8354860913009
 21
2329.21880239975
 31
0.0
  0
LINE
  5
360
330
1F
100
AcDbEntity
  8
0-C_ハッチ
  6
Continuous
 62
   120
370
     5
100
AcDbLine
 10
-675.8354860912965
 20
2092.821832780045
 30
0.0
 11
-852.8354860913009
 21
2269.821832780048
 31
0.0
  0
LINE
  5
361
330
1F
100
AcDbEntity
  8
0-C_ハッチ
  6
Continuous
 62
   120
370
     5
100
AcDbLine
 10
-675.8354860912863
 20
2033.424863160387
 30
0.0
 11
-852.8354860913009
 21
2210.4248631604
 31
0.0
  0
LINE
  5
362
330
1F
100
AcDbEntity
  8
0-C_ハッチ
  6
Continuous
 62
   120
370
     5
100
AcDbLine
 10
-852.8354860913009
 20
2032.233954301403
 30
0.0
 11
-795.8354860912999
 21
1975.233954301403
 31
0.0
  0
LINE
  5
363
330
1F
100
AcDbEntity
  8
0-3_仕上げ
  6
Continuous
 62
    40
370
    15
100
AcDbLine
 10
-675.8354860912982
 20
2029.500190873769
 30
0.0
 11
-675.8354860912982
 21
1954.500190873769
 31
0.0
  0
LINE
  5
364
330
1F
100
AcDbEntity
  8
0-4_枠
  6
Continuous
 62
    92
370
    13
100
AcDbLine
 10
-705.8354860912999
 20
1966.500190873769
 30
0.0
 11
-705.8354860912999
 21
2008.50019087377
 31
0.0
  0
LINE
  5
365
330
1F
100
AcDbEntity
  8
0-4_枠
  6
Continuous
 62
    92
370
    13
100
AcDbLine
 10
-675.8354860912982
 20
2008.50019087377
 30
0.0
 11
-705.8354860912999
 21
2008.50019087377
 31
0.0
  0
LINE
  5
366
330
1F
100
AcDbEntity
  8
0-4_枠
  6
Continuous
 62
    92
370
    13
100
AcDbLine
 10
-741.8354860912996
 20
1966.500190873769
 30
0.0
 11
-705.8354860912999
 21
1966.500190873769
 31
0.0
  0
LINE
  5
367
330
1F
100
AcDbEntity
  8
0-4_枠
  6
Continuous
 62
    92
370
    13
100
AcDbLine
 10
-855.8354860912999
 20
1966.500190873769
 30
0.0
 11
-795.8354860912999
 21
1966.500190873769
 31
0.0
  0
LINE
  5
368
330
1F
100
AcDbEntity
  8
0-4_枠
  6
Continuous
 62
    92
370
    13
100
AcDbLine
 10
-741.8354860912996
 20
2026.500190873769
 30
0.0
 11
-795.8354860912999
 21
2026.500190873769
 31
0.0
  0
LINE
  5
369
330
1F
100
AcDbEntity
  8
0-4_枠
  6
Continuous
 62
    92
370
    13
100
AcDbLine
 10
-741.8354860912996
 20
2026.500190873769
 30
0.0
 11
-741.8354860912996
 21
1966.500190873769
 31
0.0
  0
LINE
  5
36A
330
1F
100
AcDbEntity
  8
0-4_枠
  6
Continuous
 62
    92
370
    13
100
AcDbLine
 10
-795.8354860912999
 20
2026.500190873769
 30
0.0
 11
-795.8354860912999
 21
1966.500190873769
 31
0.0
  0
LINE
  5
36B
330
1F
100
AcDbEntity
  8
0-C_ハッチ
  6
JWW_DASHED1
 62
   120
370
     5
100
AcDbLine
 10
-5225.604834235809
 20
1954.499943433947
 30
0.0
 11
-5150.604586795984
 21
2029.500190873769
 31
0.0
  0
LINE
  5
36C
330
1F
100
AcDbEntity
  8
0-6_扉
  6
Continuous
 62
   200
370
    20
100
AcDbLine
 10
-4887.836079946856
 20
2176.500190873769
 30
0.0
 11
-2883.836079946857
 21
2176.500190873769
 31
0.0
  0
LINE
  5
36D
330
1F
100
AcDbEntity
  8
0-6_扉
  6
Continuous
 62
   200
370
    20
100
AcDbLine
 10
-2871.836079946856
 20
2176.500190873769
 30
0.0
 11
-867.8360799468555
 21
2176.500190873769
 31
0.0
  0
LWPOLYLINE
  5
36E
330
1F
100
AcDbEntity
  8
0-B_寸法
  6
Continuous
 62
     7
370
     9
100
AcDbPolyline
 90
        4
 70
     1
 43
3.0
 10
-4145.42158766262
 20
2176.500190873769
 42
0.4142135623731
 10
-4146.92158766262
 20
2178.000190873769
 42
0.4142135623731
 10
-4148.421587662621
 20
2176.500190873769
 42
0.4142135623731
 10
-4146.92158766262
 20
2175.000190873769
 42
0.4142135623731
  0
LINE
  5
36F
330
1F
100
AcDbEntity
  8
0-B_寸法
  6
Continuous
 62
   120
370
     5
100
AcDbLine
 10
-4218.282985070771
 20
2176.500190873769
 30
0.0
 11
-4146.92158766262
 21
2176.500190873769
 31
0.0
  0
MTEXT
  5
370
330
1F
100
AcDbEntity
  8
0-B_寸法
  6
Continuous
 62
     7
370
   211
100
AcDbMText
 10
-4522.229845782999
 20
2197.530190873769
 30
0.0
 40
99.06
 41
195.0
 46
0.0
 71
     7
 72
     1
  1
{\fＭＳ ゴシック|b0|i0|c128|p49;105}
 11
6.123031769111886E-17
 21
1.0
 31
0.0
 73
     1
 44
1.0
  0
MTEXT
  5
371
330
1F
100
AcDbEntity
  8
0-B_寸法
  6
Continuous
 62
     7
370
   211
100
AcDbMText
 10
-4860.554270339936
 20
1739.648052135911
 30
0.0
 40
74.295
 41
97.5
 46
0.0
 71
     7
 72
     1
  1
{\fＭＳ ゴシック|b0|i0|c128|p49;10}
 73
     1
 44
1.0
  0
MTEXT
  5
372
330
1F
100
AcDbEntity
  8
0-B_寸法
  6
Continuous
 62
     7
370
   211
100
AcDbMText
 10
-5124.836302642692
 20
1616.790552135911
 30
0.0
 40
68.58
 41
45.0
 46
0.0
 71
     7
 72
     1
  1
{\fＭＳ ゴシック|b0|i0|c128|p49;5}
 73
     1
 44
1.0
  0
MTEXT
  5
373
330
1F
100
AcDbEntity
  8
0-B_寸法
  6
Continuous
 62
     7
370
   211
100
AcDbMText
 10
-5009.33630264269
 20
1616.790552135911
 30
0.0
 40
68.58
 41
45.0
 46
0.0
 71
     7
 72
     1
  1
{\fＭＳ ゴシック|b0|i0|c128|p49;9}
 73
     1
 44
1.0
  0
MTEXT
  5
374
330
1F
100
AcDbEntity
  8
0-B_寸法
  6
Continuous
 62
     7
370
   211
100
AcDbMText
 10
-5146.118334945444
 20
1496.790552135911
 30
0.0
 40
68.58
 41
45.0
 46
0.0
 71
     7
 72
     1
  1
{\fＭＳ ゴシック|b0|i0|c128|p49;6}
 73
     1
 44
1.0
  0
MTEXT
  5
375
330
1F
100
AcDbEntity
  8
0-B_寸法
  6
Continuous
 62
     7
370
   211
100
AcDbMText
 10
-4886.114920976415
 20
1448.220552135911
 30
0.0
 40
91.44
 41
60.0
 46
0.0
 71
     7
 72
     1
  1
{\fＭＳ ゴシック|b0|i0|c128|p49;2}
 73
     1
 44
1.0
  0
MTEXT
  5
376
330
1F
100
AcDbEntity
  8
0-B_寸法
  6
Continuous
 62
     7
370
   211
100
AcDbMText
 10
-4185.836079946856
 20
1453.300552135911
 30
0.0
 40
101.6
 41
600.0
 46
0.0
 71
     7
 72
     1
  1
{\fＭＳ ゴシック|b0|i0|c128|p49;ＤＷ＝334}
 73
     1
 44
1.0
  0
MTEXT
  5
377
330
1F
100
AcDbEntity
  8
0-B_寸法
  6
Continuous
 62
     7
370
   211
100
AcDbMText
 10
-2866.666453482154
 20
1448.220552135911
 30
0.0
 40
91.44
 41
60.0
 46
0.0
 71
     7
 72
     1
  1
{\fＭＳ ゴシック|b0|i0|c128|p49;2}
 73
     1
 44
1.0
  0
MTEXT
  5
378
330
1F
100
AcDbEntity
  8
0-B_寸法
  6
Continuous
 62
     7
370
   211
100
AcDbMText
 10
-2169.836079946855
 20
1453.300552135911
 30
0.0
 40
101.6
 41
600.0
 46
0.0
 71
     7
 72
     1
  1
{\fＭＳ ゴシック|b0|i0|c128|p49;ＤＷ＝334}
 73
     1
 44
1.0
  0
MTEXT
  5
379
330
1F
100
AcDbEntity
  8
0-B_寸法
  6
Continuous
 62
     7
370
   211
100
AcDbMText
 10
-930.4826804002454
 20
1448.220552135911
 30
0.0
 40
91.44
 41
60.0
 46
0.0
 71
     7
 72
     1
  1
{\fＭＳ ゴシック|b0|i0|c128|p49;2}
 73
     1
 44
1.0
  0
MTEXT
  5
37A
330
1F
100
AcDbEntity
  8
0-B_寸法
  6
Continuous
 62
     7
370
     0
100
AcDbMText
 10
-5057.336389246631
 20
1271.077878928036
 30
0.0
 40
97.1550000000013
 41
127.5000000000017
 46
0.0
 71
     7
 72
     1
  1
{\fＭＳ ゴシック|b0|i0|c128|p49;30}
 73
     1
 44
1.0
  0
MTEXT
  5
37B
330
1F
100
AcDbEntity
  8
0-B_寸法
  6
Continuous
 62
     7
370
     0
100
AcDbMText
 10
-833.3352386514747
 20
1271.077878928035
 30
0.0
 40
97.15499999999999
 41
127.5
 46
0.0
 71
     7
 72
     1
  1
{\fＭＳ ゴシック|b0|i0|c128|p49;30}
 73
     1
 44
1.0
  0
MTEXT
  5
37C
330
1F
100
AcDbEntity
  8
0-B_寸法
  6
Continuous
 62
     7
370
     0
100
AcDbMText
 10
-3177.835894366994
 20
1270.300329440071
 30
0.0
 40
101.6
 41
600.0
 46
0.0
 71
     7
 72
     1
  1
{\fＭＳ ゴシック|b0|i0|c128|p49;枠内＝674}
 73
     1
 44
1.0
  0
MTEXT
  5
37D
330
1F
100
AcDbEntity
  8
0-B_寸法
  6
Continuous
 62
     7
370
     0
100
AcDbMText
 10
-3177.835894366994
 20
1090.300106744231
 30
0.0
 40
101.6
 41
600.0
 46
0.0
 71
     7
 72
     1
  1
{\fＭＳ ゴシック|b0|i0|c128|p49;枠外＝734}
 73
     1
 44
1.0
  0
MTEXT
  5
37E
330
1F
100
AcDbEntity
  8
0-B_寸法
  6
Continuous
 62
     7
370
     9
100
AcDbMText
 10
-5079.525686480254
 20
1077.690515494089
 30
0.0
 40
91.44
 41
60.0
 46
0.0
 71
     7
 72
     1
  1
{\fＭＳ ゴシック|b0|i0|c128|p49;5}
 73
     1
 44
1.0
  0
MTEXT
  5
37F
330
1F
100
AcDbEntity
  8
0-B_寸法
  6
Continuous
 62
     7
370
     9
100
AcDbMText
 10
-732.1567608898448
 20
1077.096169993107
 30
0.0
 40
91.44
 41
60.0
 46
0.0
 71
     7
 72
     1
  1
{\fＭＳ ゴシック|b0|i0|c128|p49;5}
 73
     1
 44
1.0
  0
MTEXT
  5
380
330
1F
100
AcDbEntity
  8
0-B_寸法
  6
Continuous
 62
     7
370
   211
100
AcDbMText
 10
-3245.335894366995
 20
913.4153385696845
 30
0.0
 40
101.8309090909091
 41
735.0
 46
0.0
 71
     7
 72
     1
  1
{\fＭＳ ゴシック|b0|i0|c128|p49;ＲＯＷ＝744}
 73
     1
 44
1.0
  0
LINE
  5
381
330
1F
100
AcDbEntity
  8
0-0_補助線
  6
JWW_HOJO
 62
   120
370
     5
100
AcDbLine
 10
-75.83548609129821
 20
1807.500552135911
 30
0.0
 11
-5679.83630264269
 21
1807.500552135911
 31
0.0
  0
MTEXT
  5
382
330
1F
100
AcDbEntity
  8
0-B_寸法
  6
Continuous
 62
     7
370
     0
100
AcDbMText
 10
2813.214236226321
 20
-2413.182457270744
 30
0.0
 40
102.1976470588235
 41
1140.0
 46
0.0
 71
     7
 72
     1
  1
{\fＭＳ ゴシック|b0|i0|c128|p49;ＤＨ＝1,135 (780)}
 11
6.123031769111886E-17
 21
1.0
 31
0.0
 73
     1
 44
1.0
  0
MTEXT
  5
383
330
1F
100
AcDbEntity
  8
0-B_寸法
  6
Continuous
 62
     7
370
     0
100
AcDbMText
 10
3173.214236226321
 20
-2413.182457270744
 30
0.0
 40
102.1976470588235
 41
1140.0
 46
0.0
 71
     7
 72
     1
  1
{\fＭＳ ゴシック|b0|i0|c128|p49;枠内＝1,187 (832)}
 11
6.123031769111886E-17
 21
1.0
 31
0.0
 73
     1
 44
1.0
  0
MTEXT
  5
384
330
1F
100
AcDbEntity
  8
0-B_寸法
  6
Continuous
 62
     7
370
     0
100
AcDbMText
 10
-2634.835263395437
 20
-2750.557947466822
 30
0.0
 40
102.4466666666666
 41
1815.0
 46
0.0
 71
     7
 72
     1
  1
{\fＭＳ ゴシック|b0|i0|c128|p49;枠外＝2,336 (2,035) <1,785>}
 11
6.123031769111886E-17
 21
1.0
 31
0.0
 73
     1
 44
1.0
  0
MTEXT
  5
385
330
1F
100
AcDbEntity
  8
0-B_寸法
  6
Continuous
 62
     7
370
     0
100
AcDbMText
 10
-2814.835857251011
 20
-2750.557947466822
 30
0.0
 40
102.4466666666666
 41
1815.0
 46
0.0
 71
     7
 72
     1
  1
{\fＭＳ ゴシック|b0|i0|c128|p49;枠内＝2,291 (1,990) <1,740>}
 11
6.123031769111886E-17
 21
1.0
 31
0.0
 73
     1
 44
1.0
  0
MTEXT
  5
386
330
1F
100
AcDbEntity
  8
0-B_寸法
  6
Continuous
 62
     7
370
     0
100
AcDbMText
 10
-2994.836451106584
 20
-2750.557947466822
 30
0.0
 40
102.4466666666666
 41
1815.0
 46
0.0
 71
     7
 72
     1
  1
{\fＭＳ ゴシック|b0|i0|c128|p49;ＤＨ＝2,284 (1,983) <1,733>}
 11
6.123031769111886E-17
 21
1.0
 31
0.0
 73
     1
 44
1.0
  0
MTEXT
  5
387
330
1F
100
AcDbEntity
  8
0-B_寸法
  6
Continuous
 62
     7
370
   211
100
AcDbMText
 10
-5124.836401618621
 20
-2818.043349765673
 30
0.0
 40
102.4758620689655
 41
1950.0
 46
0.0
 71
     7
 72
     1
  1
{\fＭＳ ゴシック|b0|i0|c128|p49;ＲＯＨ＝2,356（2,055）<1,805>}
 11
6.123031769111886E-17
 21
1.0
 31
0.0
 73
     1
 44
1.0
  0
LINE
  5
388
330
1F
100
AcDbEntity
  8
0-A_文字
  6
Continuous
 62
    92
370
    13
100
AcDbLine
 10
-5679.83630264269
 20
4030.000577359586
 30
0.0
 11
-5679.83630264269
 21
3760.000577359586
 31
0.0
  0
LINE
  5
389
330
1F
100
AcDbEntity
  8
0-0_補助線
  6
Continuous
 62
    92
370
    13
100
AcDbLine
 10
-2175.835486091295
 20
-643.2808128593331
 30
0.0
 11
-675.8354860912991
 21
-643.2808128593331
 31
0.0
  0
LINE
  5
38A
330
1F
100
AcDbEntity
  8
0-0_補助線
  6
Continuous
 62
    92
370
    13
100
AcDbLine
 10
-2175.835486091295
 20
-463.280812859333
 30
0.0
 11
-675.8354860912991
 21
-463.280812859333
 31
0.0
  0
LINE
  5
38B
330
1F
100
AcDbEntity
  8
0-0_補助線
  6
Continuous
 62
    92
370
    13
100
AcDbLine
 10
-2175.835486091292
 20
-2494.310130868118
 30
0.0
 11
-2175.835486091295
 21
-463.280812859333
 31
0.0
  0
LINE
  5
38C
330
1F
100
AcDbEntity
  8
0-0_補助線
  6
Continuous
 62
    92
370
    13
100
AcDbLine
 10
-675.8354860912957
 20
-2494.310130868118
 30
0.0
 11
-2175.835486091292
 21
-2494.310130868118
 31
0.0
  0
LINE
  5
38D
330
1F
100
AcDbEntity
  8
0-0_補助線
  6
Continuous
 62
    92
370
    13
100
AcDbLine
 10
-675.8354860912957
 20
-2494.310130868118
 30
0.0
 11
-675.8354860912991
 21
-463.280812859333
 31
0.0
  0
LINE
  5
38E
330
1F
100
AcDbEntity
  8
0-0_補助線
  6
Continuous
 62
   120
370
     5
100
AcDbLine
 10
-1733.729307014233
 20
-943.2088189920083
 30
0.0
 11
-1103.729307014233
 21
-943.2088189920083
 31
0.0
  0
LWPOLYLINE
  5
38F
330
1F
100
AcDbEntity
  8
0-0_補助線
  6
Continuous
 62
     7
370
     9
100
AcDbPolyline
 90
        4
 70
     1
 43
3.0
 10
-1732.229307014233
 20
-943.2088189920083
 42
0.4142135623731
 10
-1733.729307014233
 20
-941.7088189920083
 42
0.4142135623731
 10
-1735.229307014233
 20
-943.2088189920083
 42
0.4142135623731
 10
-1733.729307014233
 20
-944.7088189920084
 42
0.4142135623731
  0
LWPOLYLINE
  5
390
330
1F
100
AcDbEntity
  8
0-0_補助線
  6
Continuous
 62
     7
370
     9
100
AcDbPolyline
 90
        4
 70
     1
 43
3.0
 10
-1102.229307014233
 20
-943.2088189920083
 42
0.4142135623731
 10
-1103.729307014233
 20
-941.7088189920083
 42
0.4142135623731
 10
-1105.229307014233
 20
-943.2088189920083
 42
0.4142135623731
 10
-1103.729307014233
 20
-944.7088189920084
 42
0.4142135623731
  0
LINE
  5
391
330
1F
100
AcDbEntity
  8
0-0_補助線
  6
Continuous
 62
   120
370
     5
100
AcDbLine
 10
-1733.729307014233
 20
-943.2088189920083
 30
0.0
 11
-1733.729307014233
 21
-1106.008183058741
 31
0.0
  0
LINE
  5
392
330
1F
100
AcDbEntity
  8
0-0_補助線
  6
Continuous
 62
   120
370
     5
100
AcDbLine
 10
-1103.729307014233
 20
-943.2088189920083
 30
0.0
 11
-1103.729307014233
 21
-1106.008183058741
 31
0.0
  0
MTEXT
  5
393
330
1F
100
AcDbEntity
  8
0-0_補助線
  6
Continuous
 62
     7
370
   211
100
AcDbMText
 10
-1512.866094796615
 20
-938.6788189920084
 30
0.0
 40
99.06
 41
195.0
 46
0.0
 71
     7
 72
     1
  1
{\fＭＳ ゴシック|b0|i0|c128|p49;105}
 73
     1
 44
1.0
  0
LINE
  5
394
330
1F
100
AcDbEntity
  8
0-0_補助線
  6
Continuous
 62
    92
370
    13
100
AcDbLine
 10
-1103.729307014233
 20
-1198.932559038532
 30
0.0
 11
-1103.729307014233
 21
-1933.128111295016
 31
0.0
  0
LINE
  5
395
330
1F
100
AcDbEntity
  8
0-0_補助線
  6
Continuous
 62
    92
370
    13
100
AcDbLine
 10
-1733.729307014233
 20
-1198.932559038532
 30
0.0
 11
-1733.729307014233
 21
-1933.128111295016
 31
0.0
  0
LINE
  5
396
330
1F
100
AcDbEntity
  8
0-0_補助線
  6
Continuous
 62
    92
370
    13
100
AcDbLine
 10
-1490.729307014234
 20
-1898.92811129501
 30
0.0
 11
-1196.729307014232
 21
-1898.92811129501
 31
0.0
  0
LINE
  5
397
330
1F
100
AcDbEntity
  8
0-0_補助線
  6
Continuous
 62
    92
370
    13
100
AcDbLine
 10
-1196.729307014232
 20
-1933.128111295016
 30
0.0
 11
-1103.729307014233
 21
-1933.128111295016
 31
0.0
  0
LINE
  5
398
330
1F
100
AcDbEntity
  8
0-0_補助線
  6
Continuous
 62
    92
370
    13
100
AcDbLine
 10
-1196.729307014232
 20
-1898.92811129501
 30
0.0
 11
-1196.729307014232
 21
-1933.128111295016
 31
0.0
  0
LINE
  5
399
330
1F
100
AcDbEntity
  8
0-0_補助線
  6
Continuous
 62
    92
370
    13
100
AcDbLine
 10
-1490.729307014234
 20
-1898.92811129501
 30
0.0
 11
-1490.729307014234
 21
-1933.128111295016
 31
0.0
  0
LINE
  5
39A
330
1F
100
AcDbEntity
  8
0-0_補助線
  6
Continuous
 62
    92
370
    13
100
AcDbLine
 10
-1733.729307014233
 20
-1933.128111295016
 30
0.0
 11
-1490.729307014234
 21
-1933.128111295016
 31
0.0
  0
LWPOLYLINE
  5
39B
330
1F
100
AcDbEntity
  8
0-0_補助線
  6
Continuous
 62
     7
370
     9
100
AcDbPolyline
 90
        4
 70
     1
 43
3.0
 10
-1102.229307014224
 20
-2310.226209806279
 42
0.4142135623731
 10
-1103.729307014224
 20
-2308.72620980628
 42
0.4142135623731
 10
-1105.229307014224
 20
-2310.226209806279
 42
0.4142135623731
 10
-1103.729307014224
 20
-2311.726209806279
 42
0.4142135623731
  0
LWPOLYLINE
  5
39C
330
1F
100
AcDbEntity
  8
0-0_補助線
  6
Continuous
 62
     7
370
     9
100
AcDbPolyline
 90
        4
 70
     1
 43
3.0
 10
-1195.229307014232
 20
-2310.226209806279
 42
0.4142135623731
 10
-1196.729307014232
 20
-2308.72620980628
 42
0.4142135623731
 10
-1198.229307014231
 20
-2310.226209806279
 42
0.4142135623731
 10
-1196.729307014232
 20
-2311.726209806279
 42
0.4142135623731
  0
LINE
  5
39D
330
1F
100
AcDbEntity
  8
0-0_補助線
  6
Continuous
 62
   120
370
     5
100
AcDbLine
 10
-1103.729307014224
 20
-2310.226209806279
 30
0.0
 11
-1103.729307014224
 21
-2083.673688115736
 31
0.0
  0
LINE
  5
39E
330
1F
100
AcDbEntity
  8
0-0_補助線
  6
Continuous
 62
   120
370
     5
100
AcDbLine
 10
-1196.729307014232
 20
-2310.226209806279
 30
0.0
 11
-1196.729307014232
 21
-2083.673688115736
 31
0.0
  0
LINE
  5
39F
330
1F
100
AcDbEntity
  8
0-0_補助線
  6
Continuous
 62
   120
370
     5
100
AcDbLine
 10
-1196.729307014232
 20
-2310.226209806279
 30
0.0
 11
-1490.729307014234
 21
-2310.226209806279
 31
0.0
  0
LWPOLYLINE
  5
3A0
330
1F
100
AcDbEntity
  8
0-0_補助線
  6
Continuous
 62
     7
370
     9
100
AcDbPolyline
 90
        4
 70
     1
 43
3.0
 10
-1489.229307014234
 20
-2310.226209806279
 42
0.4142135623731
 10
-1490.729307014234
 20
-2308.72620980628
 42
0.4142135623731
 10
-1492.229307014233
 20
-2310.226209806279
 42
0.4142135623731
 10
-1490.729307014234
 20
-2311.726209806279
 42
0.4142135623731
  0
LINE
  5
3A1
330
1F
100
AcDbEntity
  8
0-0_補助線
  6
Continuous
 62
   120
370
     5
100
AcDbLine
 10
-1490.729307014234
 20
-2310.226209806279
 30
0.0
 11
-1490.729307014234
 21
-2083.673688115736
 31
0.0
  0
LWPOLYLINE
  5
3A2
330
1F
100
AcDbEntity
  8
0-0_補助線
  6
Continuous
 62
     7
370
     9
100
AcDbPolyline
 90
        4
 70
     1
 43
3.0
 10
-1732.229307014233
 20
-2310.226209806279
 42
0.4142135623731
 10
-1733.729307014233
 20
-2308.72620980628
 42
0.4142135623731
 10
-1735.229307014233
 20
-2310.226209806279
 42
0.4142135623731
 10
-1733.729307014233
 20
-2311.726209806279
 42
0.4142135623731
  0
LINE
  5
3A3
330
1F
100
AcDbEntity
  8
0-0_補助線
  6
Continuous
 62
   120
370
     5
100
AcDbLine
 10
-1733.729307014233
 20
-2310.226209806279
 30
0.0
 11
-1733.729307014233
 21
-2083.673688115736
 31
0.0
  0
MTEXT
  5
3A4
330
1F
100
AcDbEntity
  8
0-0_補助線
  6
Continuous
 62
     7
370
   211
100
AcDbMText
 10
-1422.479307014233
 20
-2306.648709806279
 30
0.0
 40
97.15499999999999
 41
127.5
 46
0.0
 71
     7
 72
     1
  1
{\fＭＳ ゴシック|b0|i0|c128|p49;49}
 73
     1
 44
1.0
  0
MTEXT
  5
3A5
330
1F
100
AcDbEntity
  8
0-0_補助線
  6
Continuous
 62
     7
370
   211
100
AcDbMText
 10
-2028.626245425498
 20
-2305.219959806279
 30
0.0
 40
100.0125
 41
262.5
 46
0.0
 71
     7
 72
     1
  1
{\fＭＳ ゴシック|b0|i0|c128|p49;40.5}
 73
     1
 44
1.0
  0
LINE
  5
3A6
330
1F
100
AcDbEntity
  8
0-0_補助線
  6
Continuous
 62
   120
370
     5
100
AcDbLine
 10
-1490.729307014234
 20
-2310.226209806279
 30
0.0
 11
-2072.505669412184
 21
-2310.226209806279
 31
0.0
  0
LINE
  5
3A7
330
1F
100
AcDbEntity
  8
0-0_補助線
  6
Continuous
 62
   120
370
     5
100
AcDbLine
 10
-791.7083895095632
 20
-2310.226209806279
 30
0.0
 11
-1196.729307014232
 21
-2310.226209806279
 31
0.0
  0
MTEXT
  5
3A8
330
1F
100
AcDbEntity
  8
0-0_補助線
  6
Continuous
 62
     7
370
   211
100
AcDbMText
 10
-1065.414413498732
 20
-2305.219959806279
 30
0.0
 40
100.0125
 41
262.5
 46
0.0
 71
     7
 72
     1
  1
{\fＭＳ ゴシック|b0|i0|c128|p49;15.5}
 73
     1
 44
1.0
  0
MTEXT
  5
3A9
330
1F
100
AcDbEntity
  8
0-0_補助線
  6
Continuous
 62
     7
370
     0
100
AcDbMText
 10
-1868.335486091296
 20
-627.5608128593327
 30
0.0
 40
91.44
 41
840.0
 46
0.0
 71
     7
 72
     1
  1
{\fＭＳ ゴシック|b0|i0|c128|p49;竪枠下端形状図}
 73
     1
 44
1.0
  0
MTEXT
  5
3AA
330
1F
100
AcDbEntity
  8
0-A_文字
  6
Continuous
 62
     7
370
     9
100
AcDbMText
 10
-5121.622115904333
 20
-70.63298372940383
 30
0.0
 40
91.43999999999998
 41
2160.0
 46
0.0
 71
     7
 72
     1
  1
{\fＭＳ ゴシック|b0|i0|c128|p49;■縦断面図　Ｈ＝８尺　(７尺)　<６尺>}
 73
     1
 44
1.0
  0
MTEXT
  5
3AB
330
1F
100
AcDbEntity
  8
0-A_文字
  6
Continuous
 62
     7
370
     9
100
AcDbMText
 10
694.9999999999998
 20
-87.03922648870704
 30
0.0
 40
91.43999999999998
 41
1680.0
 46
0.0
 71
     7
 72
     1
  1
{\fＭＳ ゴシック|b0|i0|c128|p49;■縦断面図　Ｈ＝４尺　(３尺)}
 73
     1
 44
1.0
  0
MTEXT
  5
3AC
330
1F
100
AcDbEntity
  8
0-B_寸法
  6
Continuous
 62
     7
370
     0
100
AcDbMText
 10
-2446.428571428572
 20
-3228.743928571429
 30
0.0
 40
97.15499999999999
 41
127.5
 46
0.0
 71
     7
 72
     1
  1
{\fＭＳ ゴシック|b0|i0|c128|p49;12}
 11
6.123031769111886E-17
 21
1.0
 31
0.0
 73
     1
 44
1.0
  0
MTEXT
  5
3AD
330
1F
100
AcDbEntity
  8
0-B_寸法
  6
Continuous
 62
     7
370
     0
100
AcDbMText
 10
3361.622115904333
 20
-3228.743928571428
 30
0.0
 40
97.15499999999999
 41
127.5
 46
0.0
 71
     7
 72
     1
  1
{\fＭＳ ゴシック|b0|i0|c128|p49;12}
 11
6.123031769111886E-17
 21
1.0
 31
0.0
 73
     1
 44
1.0
  0
MTEXT
  5
3AE
330
1F
100
AcDbEntity
  8
0-B_寸法
  6
Continuous
 62
     7
370
     0
100
AcDbMText
 10
-3356.785209731979
 20
-3060.691878508653
 30
0.0
 40
91.44
 41
60.0
 46
0.0
 71
     7
 72
     1
  1
{\fＭＳ ゴシック|b0|i0|c128|p49;4}
 11
6.123031769111886E-17
 21
1.0
 31
0.0
 73
     1
 44
1.0
  0
MTEXT
  5
3AF
330
1F
100
AcDbEntity
  8
0-B_寸法
  6
Continuous
 62
     7
370
     0
100
AcDbMText
 10
2451.265477600926
 20
-3060.691878508653
 30
0.0
 40
91.44
 41
60.0
 46
0.0
 71
     7
 72
     1
  1
{\fＭＳ ゴシック|b0|i0|c128|p49;4}
 11
6.123031769111886E-17
 21
1.0
 31
0.0
 73
     1
 44
1.0
  0
MTEXT
  5
3B0
330
1F
100
AcDbEntity
  8
0-B_寸法
  6
Continuous
 62
     7
370
     0
100
AcDbMText
 10
-2826.881246325692
 20
-3149.643399470899
 30
0.0
 40
97.15499999999999
 41
127.5
 46
0.0
 71
     7
 72
     1
  1
{\fＭＳ ゴシック|b0|i0|c128|p49;15}
 11
6.123031769111886E-17
 21
1.0
 31
0.0
 73
     1
 44
1.0
  0
MTEXT
  5
3B1
330
1F
100
AcDbEntity
  8
0-B_寸法
  6
Continuous
 62
     7
370
   211
100
AcDbMText
 10
-3520.532039976486
 20
-674.3714594356255
 30
0.0
 40
74.295
 41
97.5
 46
0.0
 71
     7
 72
     1
  1
{\fＭＳ ゴシック|b0|i0|c128|p49;10}
 11
6.123031769111886E-17
 21
1.0
 31
0.0
 73
     1
 44
1.0
  0
MTEXT
  5
3B2
330
1F
100
AcDbEntity
  8
0-B_寸法
  6
Continuous
 62
     7
370
   211
100
AcDbMText
 10
2287.518647356419
 20
-674.371459435625
 30
0.0
 40
74.295
 41
97.5
 46
0.0
 71
     7
 72
     1
  1
{\fＭＳ ゴシック|b0|i0|c128|p49;10}
 11
6.123031769111886E-17
 21
1.0
 31
0.0
 73
     1
 44
1.0
  0
MTEXT
  5
3B3
330
1F
100
AcDbEntity
  8
0-B_寸法
  6
Continuous
 62
     7
370
   211
100
AcDbMText
 10
-3526.464824612975
 20
-510.368316458727
 30
0.0
 40
68.58
 41
45.0
 46
0.0
 71
     7
 72
     1
  1
{\fＭＳ ゴシック|b0|i0|c128|p49;5}
 11
6.123031769111886E-17
 21
1.0
 31
0.0
 73
     1
 44
1.0
  0
MTEXT
  5
3B4
330
1F
100
AcDbEntity
  8
0-B_寸法
  6
Continuous
 62
     7
370
   211
100
AcDbMText
 10
2281.58586271993
 20
-510.3683164587264
 30
0.0
 40
68.58
 41
45.0
 46
0.0
 71
     7
 72
     1
  1
{\fＭＳ ゴシック|b0|i0|c128|p49;5}
 11
6.123031769111886E-17
 21
1.0
 31
0.0
 73
     1
 44
1.0
  0
MTEXT
  5
3B5
330
1F
100
AcDbEntity
  8
0-B_寸法
  6
Continuous
 62
     7
370
   211
100
AcDbMText
 10
-3220.930047385737
 20
-544.6396998947727
 30
0.0
 40
68.58
 41
45.0
 46
0.0
 71
     7
 72
     1
  1
{\fＭＳ ゴシック|b0|i0|c128|p49;6}
 11
6.123031769111886E-17
 21
1.0
 31
0.0
 73
     1
 44
1.0
  0
MTEXT
  5
3B6
330
1F
100
AcDbEntity
  8
0-B_寸法
  6
Continuous
 62
     7
370
   211
100
AcDbMText
 10
2587.120639947168
 20
-544.6396998947721
 30
0.0
 40
68.58
 41
45.0
 46
0.0
 71
     7
 72
     1
  1
{\fＭＳ ゴシック|b0|i0|c128|p49;6}
 11
6.123031769111886E-17
 21
1.0
 31
0.0
 73
     1
 44
1.0
  0
MTEXT
  5
3B7
330
1F
100
AcDbEntity
  8
0-B_寸法
  6
Continuous
 62
     7
370
     0
100
AcDbMText
 10
2308.350390493404
 20
831.8081219082522
 30
0.0
 40
79.61586206896553
 41
3030.0
 46
0.0
 71
     7
 72
     1
  1
{\fＭＳ ゴシック|b0|i0|c128|p49;※Ｈ＝４尺、Ｈ＝３尺には躯体接合金具は装備されていません。}
 73
     1
 44
1.0
  0
MTEXT
  5
3B8
330
1F
100
AcDbEntity
  8
0-A_文字
  6
Continuous
 62
     7
370
     0
100
AcDbMText
 10
-4035.989818324111
 20
-3534.394478256343
 30
0.0
 40
79.24799999999999
 41
1560.0
 46
0.0
 71
     7
 72
     1
  1
{\fＭＳ ゴシック|b0|i0|c128|p49;※扉厚 [  ] 内はからっ戸の場合}
 73
     1
 44
1.0
  0
MTEXT
  5
3B9
330
1F
100
AcDbEntity
  8
0-A_文字
  6
Continuous
 62
     7
370
     0
100
AcDbMText
 10
-2164.119373717698
 20
743.4411009475217
 30
0.0
 40
79.248
 41
1560.0
 46
0.0
 71
     7
 72
     1
  1
{\fＭＳ ゴシック|b0|i0|c128|p49;※扉厚 [  ] 内はからっ戸の場合}
 73
     1
 44
1.0
  0
MTEXT
  5
3BA
330
1F
100
AcDbEntity
  8
0-A_文字
  6
Continuous
 62
     7
370
     0
100
AcDbMText
 10
2309.285714285715
 20
702.5605079365079
 30
0.0
 40
79.248
 41
1560.0
 46
0.0
 71
     7
 72
     1
  1
{\fＭＳ ゴシック|b0|i0|c128|p49;※扉厚 [  ] 内はからっ戸の場合}
 73
     1
 44
1.0
  0
MTEXT
  5
3BB
330
1F
100
AcDbEntity
  8
0-A_文字
  6
Continuous
 62
     7
370
     0
100
AcDbMText
 10
738.3314280315739
 20
-3590.296634920635
 30
0.0
 40
79.248
 41
1560.0
 46
0.0
 71
     7
 72
     1
  1
{\fＭＳ ゴシック|b0|i0|c128|p49;※扉厚 [  ] 内はからっ戸の場合}
 73
     1
 44
1.0
  0
MTEXT
  5
3BC
330
1F
100
AcDbEntity
  8
0-A_文字
  6
Continuous
 62
    92
370
    13
100
AcDbMText
 10
-5593.586302642691
 20
3788.887363073872
 30
0.0
 40
147.7735714285714
 41
2715.0
 46
0.0
 71
     7
 72
     1
  1
{\fＭＳ ゴシック|b0|i0|c128|p49;収納両開き戸　調整枠　４方枠}
 73
     1
 44
1.0
  0
LINE
  5
3BD
330
1F
100
AcDbEntity
  8
0-A_文字
  6
Continuous
 62
    92
370
    13
100
AcDbLine
 10
-2792.857142857143
 20
4030.000577359586
 30
0.0
 11
-2792.857142857143
 21
3760.000577359586
 31
0.0
  0
LINE
  5
3BE
330
1F
100
AcDbEntity
  8
0-A_文字
  6
Continuous
 62
    92
370
    13
100
AcDbLine
 10
-5679.83630264269
 20
3760.000577359586
 30
0.0
 11
-2792.857142857143
 21
3760.000577359586
 31
0.0
  0
LINE
  5
3BF
330
1F
100
AcDbEntity
  8
0-A_文字
  6
Continuous
 62
    92
370
    13
100
AcDbLine
 10
-5679.83630264269
 20
4030.000577359586
 30
0.0
 11
-2792.857142857143
 21
4030.000577359586
 31
0.0
  0
MTEXT
  5
3C0
330
1F
100
AcDbEntity
  8
F-A_文字
  6
Continuous
 62
     7
370
     0
100
AcDbMText
 10
-5087.628710189611
 20
-4045.113998578389
 30
0.0
 40
79.77187499999998
 41
2512.5
 46
0.0
 71
     7
 72
     1
  1
{\fＭＳ ゴシック|b0|i0|c128|p49;ドレタス　収納両開き戸　調整枠　４方枠　枠外W734}
 73
     1
 44
1.0
  0
LINE
  5
3C1
330
1F
100
AcDbEntity
  8
0-6_扉
  6
Continuous
 62
   200
370
    20
100
AcDbLine
 10
-2883.836079946857
 20
2176.500190873769
 30
0.0
 11
-2883.836079946857
 21
2056.500190873769
 31
0.0
  0
LINE
  5
3C2
330
1F
100
AcDbEntity
  8
0-6_扉
  6
Continuous
 62
   200
370
    20
100
AcDbLine
 10
-2871.836079946856
 20
2176.500190873769
 30
0.0
 11
-2871.836079946856
 21
2056.500190873769
 31
0.0
  0
LINE
  5
3C3
330
1F
100
AcDbEntity
  8
0-6_扉
  6
Continuous
 62
   200
370
    20
100
AcDbLine
 10
-867.8360799468555
 20
2176.500190873769
 30
0.0
 11
-867.8360799468555
 21
2056.500190873769
 31
0.0
  0
LINE
  5
3C4
330
1F
100
AcDbEntity
  8
0-6_扉
  6
Continuous
 62
   200
370
    20
100
AcDbLine
 10
-4887.836079946856
 20
2176.500190873769
 30
0.0
 11
-4887.836079946856
 21
2056.500190873769
 31
0.0
  0
LINE
  5
3C5
330
1F
100
AcDbEntity
  8
0-6_扉
  6
Continuous
 62
   200
370
    20
100
AcDbLine
 10
-2871.836079946856
 20
2056.500190873769
 30
0.0
 11
-867.8360799468555
 21
2056.500190873769
 31
0.0
  0
LINE
  5
3C6
330
1F
100
AcDbEntity
  8
0-6_扉
  6
Continuous
 62
   200
370
    20
100
AcDbLine
 10
-4887.836079946856
 20
2056.500190873769
 30
0.0
 11
-2883.836079946857
 21
2056.500190873769
 31
0.0
  0
LINE
  5
3C7
330
1F
100
AcDbEntity
  8
0-B_寸法
  6
Continuous
 62
   120
370
     5
100
AcDbLine
 10
-4146.92158766262
 20
2176.500190873769
 30
0.0
 11
-4146.92158766262
 21
2056.500190873769
 31
0.0
  0
LINE
  5
3C8
330
1F
100
AcDbEntity
  8
0-B_寸法
  6
Continuous
 62
   120
370
     5
100
AcDbLine
 10
-4218.282985070771
 20
2056.500190873769
 30
0.0
 11
-4146.92158766262
 21
2056.500190873769
 31
0.0
  0
LWPOLYLINE
  5
3C9
330
1F
100
AcDbEntity
  8
0-B_寸法
  6
Continuous
 62
     7
370
     9
100
AcDbPolyline
 90
        4
 70
     1
 43
3.0
 10
-4145.42158766262
 20
2056.500190873769
 42
0.4142135623731
 10
-4146.92158766262
 20
2058.000190873769
 42
0.4142135623731
 10
-4148.421587662621
 20
2056.500190873769
 42
0.4142135623731
 10
-4146.92158766262
 20
2055.000190873769
 42
0.4142135623731
  0
MTEXT
  5
3CA
330
1F
100
AcDbEntity
  8
0-A_文字
  6
Continuous
 62
     7
370
     0
100
AcDbMText
 10
-3979.830652127434
 20
1982.22019087377
 30
0.0
 40
91.44
 41
240.0
 46
0.0
 71
     7
 72
     1
  1
{\fＭＳ ゴシック|b0|i0|c128|p49;[24]}
 11
6.123031769111886E-17
 21
1.0
 31
0.0
 73
     1
 44
1.0
  0
MTEXT
  5
3CB
330
1F
100
AcDbEntity
  8
0-B_寸法
  6
Continuous
 62
     7
370
     0
100
AcDbMText
 10
-4161.921637150586
 20
2041.32769087377
 30
0.0
 40
97.15499999999999
 41
127.5
 46
0.0
 71
     7
 72
     1
  1
{\fＭＳ ゴシック|b0|i0|c128|p49;20}
 11
6.123031769111886E-17
 21
1.0
 31
0.0
 73
     1
 44
1.0
  0
LINE
  5
3CC
330
1F
100
AcDbEntity
  8
0-6_扉
  6
Continuous
 62
   200
370
    20
100
AcDbLine
 10
2894.214508410119
 20
2176.500190873769
 30
0.0
 11
2894.214508410119
 21
2056.500190873769
 31
0.0
  0
LINE
  5
3CD
330
1F
100
AcDbEntity
  8
0-6_扉
  6
Continuous
 62
   200
370
    20
100
AcDbLine
 10
2906.21450841012
 20
2176.500190873769
 30
0.0
 11
2906.21450841012
 21
2056.500190873769
 31
0.0
  0
LINE
  5
3CE
330
1F
100
AcDbEntity
  8
0-6_扉
  6
Continuous
 62
   200
370
    20
100
AcDbLine
 10
4910.214508410118
 20
2176.500190873769
 30
0.0
 11
4910.214508410118
 21
2056.500190873769
 31
0.0
  0
LINE
  5
3CF
330
1F
100
AcDbEntity
  8
0-6_扉
  6
Continuous
 62
   200
370
    20
100
AcDbLine
 10
890.2145084101187
 20
2176.500190873769
 30
0.0
 11
890.2145084101187
 21
2056.500190873769
 31
0.0
  0
LINE
  5
3D0
330
1F
100
AcDbEntity
  8
0-6_扉
  6
Continuous
 62
   200
370
    20
100
AcDbLine
 10
2906.21450841012
 20
2056.500190873769
 30
0.0
 11
4910.214508410118
 21
2056.500190873769
 31
0.0
  0
LINE
  5
3D1
330
1F
100
AcDbEntity
  8
0-6_扉
  6
Continuous
 62
   200
370
    20
100
AcDbLine
 10
890.2145084101187
 20
2056.500190873769
 30
0.0
 11
2894.214508410119
 21
2056.500190873769
 31
0.0
  0
LINE
  5
3D2
330
1F
100
AcDbEntity
  8
0-B_寸法
  6
Continuous
 62
   120
370
     5
100
AcDbLine
 10
1631.129000694355
 20
2176.500190873769
 30
0.0
 11
1631.129000694355
 21
2056.500190873769
 31
0.0
  0
LINE
  5
3D3
330
1F
100
AcDbEntity
  8
0-B_寸法
  6
Continuous
 62
   120
370
     5
100
AcDbLine
 10
1559.767603286205
 20
2056.500190873769
 30
0.0
 11
1631.129000694355
 21
2056.500190873769
 31
0.0
  0
LWPOLYLINE
  5
3D4
330
1F
100
AcDbEntity
  8
0-B_寸法
  6
Continuous
 62
     7
370
     9
100
AcDbPolyline
 90
        4
 70
     1
 43
3.0
 10
1632.629000694355
 20
2056.500190873769
 42
0.4142135623731
 10
1631.129000694355
 20
2058.000190873769
 42
0.4142135623731
 10
1629.629000694355
 20
2056.500190873769
 42
0.4142135623731
 10
1631.129000694355
 20
2055.000190873769
 42
0.4142135623731
  0
MTEXT
  5
3D5
330
1F
100
AcDbEntity
  8
0-B_寸法
  6
Continuous
 62
     7
370
     0
100
AcDbMText
 10
1616.12895120639
 20
2041.32769087377
 30
0.0
 40
97.15499999999999
 41
127.5
 46
0.0
 71
     7
 72
     1
  1
{\fＭＳ ゴシック|b0|i0|c128|p49;20}
 11
6.123031769111886E-17
 21
1.0
 31
0.0
 73
     1
 44
1.0
  0
MTEXT
  5
3D6
330
1F
100
AcDbEntity
  8
0-A_文字
  6
Continuous
 62
     7
370
     0
100
AcDbMText
 10
1876.560708002621
 20
1982.22019087377
 30
0.0
 40
91.44
 41
240.0
 46
0.0
 71
     7
 72
     1
  1
{\fＭＳ ゴシック|b0|i0|c128|p49;[24]}
 11
6.123031769111886E-17
 21
1.0
 31
0.0
 73
     1
 44
1.0
  0
LINE
  5
3D7
330
1F
100
AcDbEntity
  8
0-6_扉
  6
Continuous
 62
   200
370
    20
100
AcDbLine
 10
-3789.830167649123
 20
-661.2815403324123
 30
0.0
 11
-3909.830167649123
 21
-661.2815403324123
 31
0.0
  0
LINE
  5
3D8
330
1F
100
AcDbEntity
  8
0-B_寸法
  6
Continuous
 62
   120
370
     5
100
AcDbLine
 10
-3789.830167649123
 20
-1453.281667465568
 30
0.0
 11
-3909.830167649123
 21
-1453.281667465568
 31
0.0
  0
LWPOLYLINE
  5
3D9
330
1F
100
AcDbEntity
  8
0-B_寸法
  6
Continuous
 62
     7
370
     9
100
AcDbPolyline
 90
        4
 70
     1
 43
3.0
 10
-3788.330167649123
 20
-1453.281667465568
 42
0.4142135623731
 10
-3789.830167649123
 20
-1451.781667465568
 42
0.4142135623731
 10
-3791.330167649123
 20
-1453.281667465568
 42
0.4142135623731
 10
-3789.830167649123
 20
-1454.781667465568
 42
0.4142135623731
  0
LINE
  5
3DA
330
1F
100
AcDbEntity
  8
0-B_寸法
  6
Continuous
 62
   120
370
     5
100
AcDbLine
 10
-3789.830167649123
 20
-1387.790532409613
 30
0.0
 11
-3789.830167649123
 21
-1453.281667465568
 31
0.0
  0
LINE
  5
3DB
330
1F
100
AcDbEntity
  8
0-6_扉
  6
Continuous
 62
   200
370
    20
100
AcDbLine
 10
-3909.830167649123
 20
-3001.28174874098
 30
0.0
 11
-3789.830167649123
 21
-3001.28174874098
 31
0.0
  0
LINE
  5
3DC
330
1F
100
AcDbEntity
  8
0-6_扉
  6
Continuous
 62
   200
370
    20
100
AcDbLine
 10
-3789.830167649123
 20
-3001.28174874098
 30
0.0
 11
-3789.830167649123
 21
-1981.281644536696
 31
0.0
  0
LINE
  5
3DD
330
1F
100
AcDbEntity
  8
0-6_扉
  6
Continuous
 62
   200
370
    20
100
AcDbLine
 10
-3789.830167649123
 20
-1861.281644536696
 30
0.0
 11
-3789.830167649123
 21
-661.2815403324123
 31
0.0
  0
MTEXT
  5
3DE
330
1F
100
AcDbEntity
  8
0-B_寸法
  6
Continuous
 62
     7
370
     0
100
AcDbMText
 10
-3913.580167649123
 20
-1449.704117977603
 30
0.0
 40
97.15499999999999
 41
127.5
 46
0.0
 71
     7
 72
     1
  1
{\fＭＳ ゴシック|b0|i0|c128|p49;20}
 73
     1
 44
1.0
  0
MTEXT
  5
3DF
330
1F
100
AcDbEntity
  8
0-A_文字
  6
Continuous
 62
     7
370
     0
100
AcDbMText
 10
-3969.830167649123
 20
-1699.200634920635
 30
0.0
 40
91.44
 41
240.0
 46
0.0
 71
     7
 72
     1
  1
{\fＭＳ ゴシック|b0|i0|c128|p49;[24]}
 73
     1
 44
1.0
  0
LINE
  5
3E0
330
1F
100
AcDbEntity
  8
0-6_扉
  6
Continuous
 62
   200
370
    20
100
AcDbLine
 10
2018.220519683782
 20
-661.2815403324119
 30
0.0
 11
1898.220519683782
 21
-661.2815403324119
 31
0.0
  0
LINE
  5
3E1
330
1F
100
AcDbEntity
  8
0-B_寸法
  6
Continuous
 62
   120
370
     5
100
AcDbLine
 10
2018.220519683782
 20
-1453.281667465567
 30
0.0
 11
1898.220519683782
 21
-1453.281667465567
 31
0.0
  0
LWPOLYLINE
  5
3E2
330
1F
100
AcDbEntity
  8
0-B_寸法
  6
Continuous
 62
     7
370
     9
100
AcDbPolyline
 90
        4
 70
     1
 43
3.0
 10
2019.720519683782
 20
-1453.281667465567
 42
0.4142135623731
 10
2018.220519683782
 20
-1451.781667465568
 42
0.4142135623731
 10
2016.720519683782
 20
-1453.281667465567
 42
0.4142135623731
 10
2018.220519683782
 20
-1454.781667465567
 42
0.4142135623731
  0
LINE
  5
3E3
330
1F
100
AcDbEntity
  8
0-B_寸法
  6
Continuous
 62
   120
370
     5
100
AcDbLine
 10
2018.220519683782
 20
-1387.790532409613
 30
0.0
 11
2018.220519683782
 21
-1453.281667465567
 31
0.0
  0
LINE
  5
3E4
330
1F
100
AcDbEntity
  8
0-6_扉
  6
Continuous
 62
   200
370
    20
100
AcDbLine
 10
1898.220519683782
 20
-3001.281748740979
 30
0.0
 11
2018.220519683782
 21
-3001.281748740979
 31
0.0
  0
LINE
  5
3E5
330
1F
100
AcDbEntity
  8
0-6_扉
  6
Continuous
 62
   200
370
    20
100
AcDbLine
 10
2018.220519683782
 20
-3001.281748740979
 30
0.0
 11
2018.220519683782
 21
-1981.281644536695
 31
0.0
  0
LINE
  5
3E6
330
1F
100
AcDbEntity
  8
0-6_扉
  6
Continuous
 62
   200
370
    20
100
AcDbLine
 10
2018.220519683782
 20
-1861.281644536695
 30
0.0
 11
2018.220519683782
 21
-661.2815403324119
 31
0.0
  0
MTEXT
  5
3E7
330
1F
100
AcDbEntity
  8
0-B_寸法
  6
Continuous
 62
     7
370
     0
100
AcDbMText
 10
1895.220487516604
 20
-1449.704117977603
 30
0.0
 40
97.15499999999999
 41
127.5
 46
0.0
 71
     7
 72
     1
  1
{\fＭＳ ゴシック|b0|i0|c128|p49;20}
 73
     1
 44
1.0
  0
MTEXT
  5
3E8
330
1F
100
AcDbEntity
  8
F-A_文字
  6
Continuous
 62
     7
370
     0
100
AcDbMText
 10
4938.667793092893
 20
-3938.071010139966
 30
0.0
 40
78.86699999999999
 41
517.5
 46
0.0
 71
     7
 72
     1
  1
{\fＭＳ ゴシック|b0|i0|c128|p49;2024.04.01}
 73
     1
 44
1.0
  0
MTEXT
  5
3E9
330
1F
100
AcDbEntity
  8
0-A_文字
  6
Continuous
 62
     7
370
     0
100
AcDbMText
 10
1838.220519683782
 20
-1699.200634920635
 30
0.0
 40
91.44
 41
240.0
 46
0.0
 71
     7
 72
     1
  1
{\fＭＳ ゴシック|b0|i0|c128|p49;[24]}
 73
     1
 44
1.0
  0
MTEXT
  5
3EA
330
1F
100
AcDbEntity
  8
0-A_文字
  6
Continuous
 62
     9
370
     5
100
AcDbMText
 10
0.0
 20
-30045.0
 30
0.0
 40
0.0
 41
0.0
 46
0.0
 71
     7
 72
     1
  1
{\fＭＳ ゴシック|b0|i0|c128|p49;Printer_Orientation = 0}
 73
     1
 44
1.0
  0
MTEXT
  5
3EB
330
1F
100
AcDbEntity
  8
0-A_文字
  6
Continuous
 62
     9
370
     5
100
AcDbMText
 10
0.0
 20
-30045.0
 30
0.0
 40
0.0
 41
0.0
 46
0.0
 71
     7
 72
     1
  1
{\fＭＳ ゴシック|b0|i0|c128|p49;Printer_PaperSize = 0}
 73
     1
 44
1.0
  0
MTEXT
  5
3EC
330
1F
100
AcDbEntity
  8
0-A_文字
  6
Continuous
 62
     9
370
     5
100
AcDbMText
 10
0.0
 20
-30045.0
 30
0.0
 40
0.0
 41
0.0
 46
0.0
 71
     7
 72
     1
  1
{\fＭＳ ゴシック|b0|i0|c128|p49;Printer_D2dBMP = 0}
 73
     1
 44
1.0
  0
MTEXT
  5
3ED
330
1F
100
AcDbEntity
  8
0-A_文字
  6
Continuous
 62
     9
370
     5
100
AcDbMText
 10
0.0
 20
-30045.0
 30
0.0
 40
0.0
 41
0.0
 46
0.0
 71
     7
 72
     1
  1
{\fＭＳ ゴシック|b0|i0|c128|p49;Printer_BmpZENTAI = 0}
 73
     1
 44
1.0
  0
MTEXT
  5
3EE
330
1F
100
AcDbEntity
  8
0-A_文字
  6
Continuous
 62
     9
370
     5
100
AcDbMText
 10
0.0
 20
-30045.0
 30
0.0
 40
0.0
 41
0.0
 46
0.0
 71
     7
 72
     1
  1
{\fＭＳ ゴシック|b0|i0|c128|p49;View_Direct2d = 1}
 73
     1
 44
1.0
  0
MTEXT
  5
3EF
330
1F
100
AcDbEntity
  8
0-A_文字
  6
Continuous
 62
     9
370
     5
100
AcDbMText
 10
0.0
 20
-30045.0
 30
0.0
 40
0.0
 41
0.0
 46
0.0
 71
     7
 72
     1
  1
{\fＭＳ ゴシック|b0|i0|c128|p49;Draw_BmpTOUKA = 1}
 73
     1
 44
1.0
  0
ENDSEC
  0
SECTION
  2
OBJECTS
  0
DICTIONARY
  5
C
330
0
100
AcDbDictionary
281
     1
  3
ACAD_GROUP
350
D
  3
ACAD_LAYOUT
350
1A
  3
ACAD_MATERIAL
350
3B
  3
ACAD_MLEADERSTYLE
350
3F1
  3
ACAD_MLINESTYLE
350
17
  3
ACAD_PLOTSETTINGS
350
19
  3
ACAD_PLOTSTYLENAME
350
E
  3
ACAD_TABLESTYLE
350
3F0
  3
ACAD_VISUALSTYLE
350
2A
  0
DICTIONARY
  5
D
102
{ACAD_REACTORS
330
C
102
}
330
C
100
AcDbDictionary
281
     1
  0
DICTIONARY
  5
1A
102
{ACAD_REACTORS
330
C
102
}
330
C
100
AcDbDictionary
281
     1
  3
Layout1
350
1E
  3
Layout2
350
26
  3
Model
350
22
  0
DICTIONARY
  5
3B
102
{ACAD_REACTORS
330
C
102
}
330
C
100
AcDbDictionary
281
     1
  3
ByBlock
350
3D
  3
ByLayer
350
3C
  3
Global
350
3E
  0
DICTIONARY
  5
3F1
102
{ACAD_REACTORS
330
C
102
}
330
C
100
AcDbDictionary
281
     1
  0
DICTIONARY
  5
17
102
{ACAD_REACTORS
330
C
102
}
330
C
100
AcDbDictionary
281
     1
  3
Standard
350
18
  0
DICTIONARY
  5
19
102
{ACAD_REACTORS
330
C
102
}
330
C
100
AcDbDictionary
281
     1
  0
ACDBDICTIONARYWDFLT
  5
E
102
{ACAD_REACTORS
330
C
102
}
330
C
100
AcDbDictionary
281
     1
  3
Normal
350
F
100
AcDbDictionaryWithDefault
340
F
  0
DICTIONARY
  5
3F0
102
{ACAD_REACTORS
330
C
102
}
330
C
100
AcDbDictionary
281
     1
  0
DICTIONARY
  5
2A
102
{ACAD_REACTORS
330
C
102
}
330
C
100
AcDbDictionary
281
     1
  3
2dWireframe
350
2F
  3
3D Hidden
350
31
  3
3dWireframe
350
30
  3
Basic
350
32
  3
Brighten
350
36
  3
ColorChange
350
3A
  3
Conceptual
350
34
  3
Dim
350
35
  3
Facepattern
350
39
  3
Flat
350
2B
  3
FlatWithEdges
350
2C
  3
Gouraud
350
2D
  3
GouraudWithEdges
350
2E
  3
Linepattern
350
38
  3
Realistic
350
33
  3
Thicken
350
37
  0
LAYOUT
  5
1E
102
{ACAD_REACTORS
330
1A
102
}
330
1A
100
AcDbPlotSettings
  1

  2
none_device
  4

  6

 40
0.0
 41
0.0
 42
0.0
 43
0.0
 44
0.0
 45
0.0
 46
0.0
 47
0.0
 48
0.0
 49
0.0
140
0.0
141
0.0
142
1.0
143
1.0
 70
   688
 72
     0
 73
     0
 74
     5
  7

 75
    16
 76
     0
 77
     5
 78
   300
147
1.0
148
0.0
149
0.0
100
AcDbLayout
  1
Layout1
 70
     1
 71
     1
 10
0.0
 20
0.0
 11
420.0
 21
297.0
 12
0.0
 22
0.0
 32
0.0
 14
1.000000000000000E+20
 24
1.000000000000000E+20
 34
1.000000000000000E+20
 15
-1.000000000000000E+20
 25
-1.000000000000000E+20
 35
-1.000000000000000E+20
146
0.0
 13
0.0
 23
0.0
 33
0.0
 16
1.0
 26
0.0
 36
0.0
 17
0.0
 27
1.0
 37
0.0
 76
     0
330
1B
  0
LAYOUT
  5
26
102
{ACAD_REACTORS
330
1A
102
}
330
1A
100
AcDbPlotSettings
  1

  2
none_device
  4

  6

 40
0.0
 41
0.0
 42
0.0
 43
0.0
 44
0.0
 45
0.0
 46
0.0
 47
0.0
 48
0.0
 49
0.0
140
0.0
141
0.0
142
1.0
143
1.0
 70
   688
 72
     0
 73
     0
 74
     5
  7

 75
    16
 76
     0
 77
     5
 78
   300
147
1.0
148
0.0
149
0.0
100
AcDbLayout
  1
Layout2
 70
     1
 71
     2
 10
0.0
 20
0.0
 11
0.0
 21
0.0
 12
0.0
 22
0.0
 32
0.0
 14
0.0
 24
0.0
 34
0.0
 15
0.0
 25
0.0
 35
0.0
146
0.0
 13
0.0
 23
0.0
 33
0.0
 16
1.0
 26
0.0
 36
0.0
 17
0.0
 27
1.0
 37
0.0
 76
     0
330
23
  0
LAYOUT
  5
22
102
{ACAD_REACTORS
330
1A
102
}
330
1A
100
AcDbPlotSettings
  1

  2
none_device
  4

  6

 40
0.0
 41
0.0
 42
0.0
 43
0.0
 44
0.0
 45
0.0
 46
0.0
 47
0.0
 48
0.0
 49
0.0
140
0.0
141
0.0
142
1.0
143
1.0
 70
  1712
 72
     0
 73
     0
 74
     0
  7

 75
     0
 76
     0
 77
     5
 78
   300
147
1.0
148
0.0
149
0.0
100
AcDbLayout
  1
Model
 70
     1
 71
     0
 10
-6300.0
 20
-4455.0
 11
6300.0
 21
4455.0
 12
0.0
 22
0.0
 32
0.0
 14
-6300.0
 24
-4455.0
 34
0.0
 15
6300.0
 25
4455.0
 35
0.0
146
0.0
 13
0.0
 23
0.0
 33
0.0
 16
1.0
 26
0.0
 36
0.0
 17
0.0
 27
1.0
 37
0.0
 76
     0
330
1F
331
29
  0
MATERIAL
  5
3D
102
{ACAD_REACTORS
330
3B
102
}
330
3B
100
AcDbMaterial
  1
ByBlock
 72
     1
 94
      127
  0
MATERIAL
  5
3C
102
{ACAD_REACTORS
330
3B
102
}
330
3B
100
AcDbMaterial
  1
ByLayer
 72
     1
 94
      127
  0
MATERIAL
  5
3E
102
{ACAD_REACTORS
330
3B
102
}
330
3B
100
AcDbMaterial
  1
Global
 72
     1
 94
      127
  0
MLINESTYLE
  5
18
102
{ACAD_REACTORS
330
17
102
}
330
17
100
AcDbMlineStyle
  2
Standard
 70
     0
  3

 62
   256
 51
90.0
 52
90.0
 71
     2
 49
0.5
 62
   256
  6
BYLAYER
 49
-0.5
 62
   256
  6
BYLAYER
  0
ACDBPLACEHOLDER
  5
F
102
{ACAD_REACTORS
330
E
102
}
330
E
  0
VISUALSTYLE
  5
2F
102
{ACAD_REACTORS
330
2A
102
}
330
2A
100
AcDbVisualStyle
  2
2dWireframe
 70
     4
177
     2
291
     0
 71
     0
176
     1
 72
     2
176
     1
 73
     0
176
     1
 90
        0
176
     1
 40
-0.6
176
     1
 41
-30.0
176
     1
 62
     5
 63
     7
421
 16777215
176
     1
 74
     1
176
     1
 91
        4
176
     1
 64
     7
176
     1
 65
   257
176
     1
 75
     1
176
     1
175
     1
176
     1
 42
1.0
176
     1
 92
        0
176
     1
 66
   257
176
     1
 43
1.0
176
     1
 76
     1
176
     1
 77
     6
176
     1
 78
     2
176
     1
 67
     7
176
     1
 79
     5
176
     1
170
     0
176
     1
171
     0
176
     1
290
     0
176
     1
 93
        1
176
     1
 44
0.0
176
     1
173
     0
176
     1
  0
VISUALSTYLE
  5
31
102
{ACAD_REACTORS
330
2A
102
}
330
2A
100
AcDbVisualStyle
  2
3D Hidden
 70
     6
177
     2
291
     0
 71
     1
176
     1
 72
     2
176
     1
 73
     2
176
     1
 90
        0
176
     1
 40
-0.6
176
     1
 41
-30.0
176
     1
 62
     5
 63
     7
421
 16777215
176
     1
 74
     2
176
     1
 91
        2
176
     1
 64
     7
176
     1
 65
   257
176
     1
 75
     2
176
     1
175
     1
176
     1
 42
40.0
176
     1
 92
        0
176
     1
 66
   257
176
     1
 43
1.0
176
     1
 76
     1
176
     1
 77
     6
176
     1
 78
     2
176
     1
 67
     7
176
     1
 79
     3
176
     1
170
     0
176
     1
171
     0
176
     1
290
     0
176
     1
 93
        1
176
     1
 44
0.0
176
     1
173
     0
176
     1
  0
VISUALSTYLE
  5
30
102
{ACAD_REACTORS
330
2A
102
}
330
2A
100
AcDbVisualStyle
  2
3dWireframe
 70
     5
177
     2
291
     0
 71
     0
176
     1
 72
     2
176
     1
 73
     0
176
     1
 90
        0
176
     1
 40
-0.6
176
     1
 41
-30.0
176
     1
 62
     5
 63
     7
421
 16777215
176
     1
 74
     1
176
     1
 91
        4
176
     1
 64
     7
176
     1
 65
   257
176
     1
 75
     1
176
     1
175
     1
176
     1
 42
1.0
176
     1
 92
        0
176
     1
 66
   257
176
     1
 43
1.0
176
     1
 76
     1
176
     1
 77
     6
176
     1
 78
     2
176
     1
 67
     7
176
     1
 79
     5
176
     1
170
     0
176
     1
171
     0
176
     1
290
     0
176
     1
 93
        1
176
     1
 44
0.0
176
     1
173
     0
176
     1
  0
VISUALSTYLE
  5
32
102
{ACAD_REACTORS
330
2A
102
}
330
2A
100
AcDbVisualStyle
  2
Basic
 70
     7
177
     2
291
     1
 71
     1
176
     1
 72
     0
176
     1
 73
     1
176
     1
 90
        0
176
     1
 40
-0.6
176
     1
 41
-30.0
176
     1
 62
     5
 63
     7
421
 16777215
176
     1
 74
     0
176
     1
 91
        4
176
     1
 64
     7
176
     1
 65
   257
176
     1
 75
     1
176
     1
175
     1
176
     1
 42
1.0
176
     1
 92
        8
176
     1
 66
     7
176
     1
 43
1.0
176
     1
 76
     1
176
     1
 77
     6
176
     1
 78
     2
176
     1
 67
     7
176
     1
 79
     5
176
     1
170
     0
176
     1
171
     0
176
     1
290
     0
176
     1
 93
        1
176
     1
 44
0.0
176
     1
173
     0
176
     1
  0
VISUALSTYLE
  5
36
102
{ACAD_REACTORS
330
2A
102
}
330
2A
100
AcDbVisualStyle
  2
Brighten
 70
    12
177
     2
291
     1
 71
     2
176
     1
 72
     2
176
     1
 73
     0
176
     1
 90
        0
176
     1
 40
-0.6
176
     1
 41
-30.0
176
     1
 62
     5
 63
     7
421
 16777215
176
     1
 74
     1
176
     1
 91
        4
176
     1
 64
     7
176
     1
 65
   257
176
     1
 75
     1
176
     1
175
     1
176
     1
 42
1.0
176
     1
 92
        8
176
     1
 66
     7
176
     1
 43
1.0
176
     1
 76
     1
176
     1
 77
     6
176
     1
 78
     2
176
     1
 67
     7
176
     1
 79
     5
176
     1
170
     0
176
     1
171
     0
176
     1
290
     0
176
     1
 93
        1
176
     1
 44
50.0
176
     1
173
     0
176
     1
  0
VISUALSTYLE
  5
3A
102
{ACAD_REACTORS
330
2A
102
}
330
2A
100
AcDbVisualStyle
  2
ColorChange
 70
    16
177
     2
291
     1
 71
     2
176
     1
 72
     2
176
     1
 73
     3
176
     1
 90
        0
176
     1
 40
-0.6
176
     1
 41
-30.0
176
     1
 62
     5
 63
     8
421
  8421504
176
     1
 74
     1
176
     1
 91
        4
176
     1
 64
     7
176
     1
 65
   257
176
     1
 75
     1
176
     1
175
     1
176
     1
 42
1.0
176
     1
 92
        8
176
     1
 66
     8
424
  8421504
176
     1
 43
1.0
176
     1
 76
     1
176
     1
 77
     6
176
     1
 78
     2
176
     1
 67
     7
176
     1
 79
     5
176
     1
170
     0
176
     1
171
     0
176
     1
290
     0
176
     1
 93
        1
176
     1
 44
0.0
176
     1
173
     0
176
     1
  0
VISUALSTYLE
  5
34
102
{ACAD_REACTORS
330
2A
102
}
330
2A
100
AcDbVisualStyle
  2
Conceptual
 70
     9
177
     2
291
     0
 71
     3
176
     1
 72
     2
176
     1
 73
     0
176
     1
 90
        0
176
     1
 40
-0.6
176
     1
 41
-30.0
176
     1
 62
     5
 63
     7
421
 16777215
176
     1
 74
     2
176
     1
 91
        2
176
     1
 64
     7
176
     1
 65
   257
176
     1
 75
     1
176
     1
175
     1
176
     1
 42
40.0
176
     1
 92
        8
176
     1
 66
     7
176
     1
 43
1.0
176
     1
 76
     1
176
     1
 77
     6
176
     1
 78
     2
176
     1
 67
     7
176
     1
 79
     3
176
     1
170
     0
176
     1
171
     0
176
     1
290
     0
176
     1
 93
        1
176
     1
 44
0.0
176
     1
173
     0
176
     1
  0
VISUALSTYLE
  5
35
102
{ACAD_REACTORS
330
2A
102
}
330
2A
100
AcDbVisualStyle
  2
Dim
 70
    11
177
     2
291
     1
 71
     2
176
     1
 72
     2
176
     1
 73
     0
176
     1
 90
        0
176
     1
 40
-0.6
176
     1
 41
-30.0
176
     1
 62
     5
 63
     7
421
 16777215
176
     1
 74
     1
176
     1
 91
        4
176
     1
 64
     7
176
     1
 65
   257
176
     1
 75
     1
176
     1
175
     1
176
     1
 42
1.0
176
     1
 92
        8
176
     1
 66
     7
176
     1
 43
1.0
176
     1
 76
     1
176
     1
 77
     6
176
     1
 78
     2
176
     1
 67
     7
176
     1
 79
     5
176
     1
170
     0
176
     1
171
     0
176
     1
290
     0
176
     1
 93
        1
176
     1
 44
-50.0
176
     1
173
     0
176
     1
  0
VISUALSTYLE
  5
39
102
{ACAD_REACTORS
330
2A
102
}
330
2A
100
AcDbVisualStyle
  2
Facepattern
 70
    15
177
     2
291
     1
 71
     2
176
     1
 72
     2
176
     1
 73
     0
176
     1
 90
        0
176
     1
 40
-0.6
176
     1
 41
-30.0
176
     1
 62
     5
 63
     7
421
 16777215
176
     1
 74
     1
176
     1
 91
        4
176
     1
 64
     7
176
     1
 65
   257
176
     1
 75
     1
176
     1
175
     1
176
     1
 42
1.0
176
     1
 92
        8
176
     1
 66
     7
176
     1
 43
1.0
176
     1
 76
     1
176
     1
 77
     6
176
     1
 78
     2
176
     1
 67
     7
176
     1
 79
     5
176
     1
170
     0
176
     1
171
     0
176
     1
290
     0
176
     1
 93
        1
176
     1
 44
0.0
176
     1
173
     0
176
     1
  0
VISUALSTYLE
  5
2B
102
{ACAD_REACTORS
330
2A
102
}
330
2A
100
AcDbVisualStyle
  2
Flat
 70
     0
177
     2
291
     1
 71
     2
176
     1
 72
     1
176
     1
 73
     1
176
     1
 90
        2
176
     1
 40
-0.6
176
     1
 41
30.0
176
     1
 62
     5
 63
     7
421
 16777215
176
     1
 74
     0
176
     1
 91
        4
176
     1
 64
     7
176
     1
 65
   257
176
     1
 75
     1
176
     1
175
     1
176
     1
 42
1.0
176
     1
 92
        8
176
     1
 66
     7
176
     1
 43
1.0
176
     1
 76
     1
176
     1
 77
     6
176
     1
 78
     2
176
     1
 67
     7
176
     1
 79
     5
176
     1
170
     0
176
     1
171
     0
176
     1
290
     0
176
     1
 93
       13
176
     1
 44
0.0
176
     1
173
     0
176
     1
  0
VISUALSTYLE
  5
2C
102
{ACAD_REACTORS
330
2A
102
}
330
2A
100
AcDbVisualStyle
  2
FlatWithEdges
 70
     1
177
     2
291
     1
 71
     2
176
     1
 72
     1
176
     1
 73
     1
176
     1
 90
        2
176
     1
 40
-0.6
176
     1
 41
30.0
176
     1
 62
     5
 63
     7
421
 16777215
176
     1
 74
     1
176
     1
 91
        4
176
     1
 64
     7
176
     1
 65
   257
176
     1
 75
     1
176
     1
175
     1
176
     1
 42
1.0
176
     1
 92
        0
176
     1
 66
   257
176
     1
 43
1.0
176
     1
 76
     1
176
     1
 77
     6
176
     1
 78
     2
176
     1
 67
     7
176
     1
 79
     5
176
     1
170
     0
176
     1
171
     0
176
     1
290
     0
176
     1
 93
       13
176
     1
 44
0.0
176
     1
173
     0
176
     1
  0
VISUALSTYLE
  5
2D
102
{ACAD_REACTORS
330
2A
102
}
330
2A
100
AcDbVisualStyle
  2
Gouraud
 70
     2
177
     2
291
     1
 71
     2
176
     1
 72
     2
176
     1
 73
     1
176
     1
 90
        2
176
     1
 40
-0.6
176
     1
 41
30.0
176
     1
 62
     5
 63
     7
421
 16777215
176
     1
 74
     0
176
     1
 91
        4
176
     1
 64
     7
176
     1
 65
   257
176
     1
 75
     1
176
     1
175
     1
176
     1
 42
1.0
176
     1
 92
        0
176
     1
 66
     7
176
     1
 43
1.0
176
     1
 76
     1
176
     1
 77
     6
176
     1
 78
     2
176
     1
 67
     7
176
     1
 79
     5
176
     1
170
     0
176
     1
171
     0
176
     1
290
     0
176
     1
 93
       13
176
     1
 44
0.0
176
     1
173
     0
176
     1
  0
VISUALSTYLE
  5
2E
102
{ACAD_REACTORS
330
2A
102
}
330
2A
100
AcDbVisualStyle
  2
GouraudWithEdges
 70
     3
177
     2
291
     1
 71
     2
176
     1
 72
     2
176
     1
 73
     1
176
     1
 90
        2
176
     1
 40
-0.6
176
     1
 41
30.0
176
     1
 62
     5
 63
     7
421
 16777215
176
     1
 74
     1
176
     1
 91
        4
176
     1
 64
     7
176
     1
 65
   257
176
     1
 75
     1
176
     1
175
     1
176
     1
 42
1.0
176
     1
 92
        0
176
     1
 66
   257
176
     1
 43
1.0
176
     1
 76
     1
176
     1
 77
     6
176
     1
 78
     2
176
     1
 67
     7
176
     1
 79
     5
176
     1
170
     0
176
     1
171
     0
176
     1
290
     0
176
     1
 93
       13
176
     1
 44
0.0
176
     1
173
     0
176
     1
  0
VISUALSTYLE
  5
38
102
{ACAD_REACTORS
330
2A
102
}
330
2A
100
AcDbVisualStyle
  2
Linepattern
 70
    14
177
     2
291
     1
 71
     2
176
     1
 72
     2
176
     1
 73
     0
176
     1
 90
        0
176
     1
 40
-0.6
176
     1
 41
-30.0
176
     1
 62
     5
 63
     7
421
 16777215
176
     1
 74
     1
176
     1
 91
        4
176
     1
 64
     7
176
     1
 65
   257
176
     1
 75
     7
176
     1
175
     7
176
     1
 42
1.0
176
     1
 92
        8
176
     1
 66
     7
176
     1
 43
1.0
176
     1
 76
     1
176
     1
 77
     6
176
     1
 78
     2
176
     1
 67
     7
176
     1
 79
     5
176
     1
170
     0
176
     1
171
     0
176
     1
290
     0
176
     1
 93
        1
176
     1
 44
0.0
176
     1
173
     0
176
     1
  0
VISUALSTYLE
  5
33
102
{ACAD_REACTORS
330
2A
102
}
330
2A
100
AcDbVisualStyle
  2
Realistic
 70
     8
177
     2
291
     0
 71
     2
176
     1
 72
     2
176
     1
 73
     0
176
     1
 90
        0
176
     1
 40
-0.6
176
     1
 41
-30.0
176
     1
 62
     5
 63
     7
421
 16777215
176
     1
 74
     1
176
     1
 91
        0
176
     1
 64
     7
176
     1
 65
   257
176
     1
 75
     1
176
     1
175
     1
176
     1
 42
1.0
176
     1
 92
        8
176
     1
 66
     8
424
  7895160
176
     1
 43
1.0
176
     1
 76
     1
176
     1
 77
     6
176
     1
 78
     2
176
     1
 67
     7
176
     1
 79
     5
176
     1
170
     0
176
     1
171
     0
176
     1
290
     0
176
     1
 93
       13
176
     1
 44
0.0
176
     1
173
     0
176
     1
  0
VISUALSTYLE
  5
37
102
{ACAD_REACTORS
330
2A
102
}
330
2A
100
AcDbVisualStyle
  2
Thicken
 70
    13
177
     2
291
     1
 71
     2
176
     1
 72
     2
176
     1
 73
     0
176
     1
 90
        0
176
     1
 40
-0.6
176
     1
 41
-30.0
176
     1
 62
     5
 63
     7
421
 16777215
176
     1
 74
     1
176
     1
 91
        4
176
     1
 64
     7
176
     1
 65
   257
176
     1
 75
     1
176
     1
175
     1
176
     1
 42
1.0
176
     1
 92
       12
176
     1
 66
     7
176
     1
 43
1.0
176
     1
 76
     1
176
     1
 77
     6
176
     1
 78
     2
176
     1
 67
     7
176
     1
 79
     5
176
     1
170
     0
176
     1
171
     0
176
     1
290
     0
176
     1
 93
        1
176
     1
 44
0.0
176
     1
173
     0
176
     1
  0
ENDSEC
  0
EOF
