  0
SECTION
  2
HEADER
  9
$ACADVER
  1
AC1024
  9
$ACADMAINTVER
 70
     6
  9
$DWGCODEPAGE
  3
ANSI_932
  9
$INSBASE
 10
0.0
 20
0.0
 30
0.0
  9
$EXTMIN
 10
-6300.0
 20
-4455.0
 30
0.0
  9
$EXTMAX
 10
6300.0
 20
4455.0
 30
0.0
  9
$LIMMIN
 10
-6300.0
 20
-4455.0
  9
$LIMMAX
 10
6300.0
 20
4455.0
  9
$ORTHOMODE
 70
     0
  9
$REGENMODE
 70
     1
  9
$FILLMODE
 70
     1
  9
$QTEXTMODE
 70
     0
  9
$MIRRTEXT
 70
     1
  9
$LTSCALE
 40
30.0
  9
$ATTMODE
 70
     1
  9
$TEXTSIZE
 40
2.5
  9
$TRACEWID
 40
1.0
  9
$TEXTSTYLE
  7
Standard
  9
$CLAYER
  8
0
  9
$CELTYPE
  6
ByLayer
  9
$CECOLOR
 62
   256
  9
$CELTSCALE
 40
1.0
  9
$DISPSILH
 70
     0
  9
$DIMSCALE
 40
1.0
  9
$DIMASZ
 40
2.5
  9
$DIMEXO
 40
0.625
  9
$DIMDLI
 40
3.75
  9
$DIMRND
 40
0.0
  9
$DIMDLE
 40
0.0
  9
$DIMEXE
 40
1.25
  9
$DIMTP
 40
0.0
  9
$DIMTM
 40
0.0
  9
$DIMTXT
 40
2.5
  9
$DIMCEN
 40
2.5
  9
$DIMTSZ
 40
0.0
  9
$DIMTOL
 70
     0
  9
$DIMLIM
 70
     0
  9
$DIMTIH
 70
     0
  9
$DIMTOH
 70
     0
  9
$DIMSE1
 70
     0
  9
$DIMSE2
 70
     0
  9
$DIMTAD
 70
     1
  9
$DIMZIN
 70
     8
  9
$DIMBLK
  1

  9
$DIMASO
 70
     1
  9
$DIMSHO
 70
     1
  9
$DIMPOST
  1

  9
$DIMAPOST
  1

  9
$DIMALT
 70
     0
  9
$DIMALTD
 70
     3
  9
$DIMALTF
 40
0.03937007874016
  9
$DIMLFAC
 40
1.0
  9
$DIMTOFL
 70
     1
  9
$DIMTVP
 40
0.0
  9
$DIMTIX
 70
     0
  9
$DIMSOXD
 70
     0
  9
$DIMSAH
 70
     0
  9
$DIMBLK1
  1

  9
$DIMBLK2
  1

  9
$DIMSTYLE
  2
ISO-25
  9
$DIMCLRD
 70
     0
  9
$DIMCLRE
 70
     0
  9
$DIMCLRT
 70
     0
  9
$DIMTFAC
 40
1.0
  9
$DIMGAP
 40
0.625
  9
$DIMJUST
 70
     0
  9
$DIMSD1
 70
     0
  9
$DIMSD2
 70
     0
  9
$DIMTOLJ
 70
     0
  9
$DIMTZIN
 70
     8
  9
$DIMALTZ
 70
     0
  9
$DIMALTTZ
 70
     0
  9
$DIMUPT
 70
     0
  9
$DIMDEC
 70
     2
  9
$DIMTDEC
 70
     2
  9
$DIMALTU
 70
     2
  9
$DIMALTTD
 70
     3
  9
$DIMTXSTY
  7
Standard
  9
$DIMAUNIT
 70
     0
  9
$DIMADEC
 70
     0
  9
$DIMALTRND
 40
0.0
  9
$DIMAZIN
 70
     0
  9
$DIMDSEP
 70
    44
  9
$DIMATFIT
 70
     3
  9
$DIMFRAC
 70
     0
  9
$DIMLDRBLK
  1

  9
$DIMLUNIT
 70
     2
  9
$DIMLWD
 70
    -2
  9
$DIMLWE
 70
    -2
  9
$DIMTMOVE
 70
     0
  9
$DIMFXL
 40
1.0
  9
$DIMFXLON
 70
     0
  9
$DIMJOGANG
 40
0.7853981633974483
  9
$DIMTFILL
 70
     0
  9
$DIMTFILLCLR
 70
     0
  9
$DIMARCSYM
 70
     0
  9
$DIMLTYPE
  6

  9
$DIMLTEX1
  6

  9
$DIMLTEX2
  6

  9
$DIMTXTDIRECTION
 70
     0
  9
$LUNITS
 70
     2
  9
$LUPREC
 70
     4
  9
$SKETCHINC
 40
1.0
  9
$FILLETRAD
 40
10.0
  9
$AUNITS
 70
     0
  9
$AUPREC
 70
     0
  9
$MENU
  1
.
  9
$ELEVATION
 40
0.0
  9
$PELEVATION
 40
0.0
  9
$THICKNESS
 40
0.0
  9
$LIMCHECK
 70
     0
  9
$CHAMFERA
 40
10.0
  9
$CHAMFERB
 40
10.0
  9
$CHAMFERC
 40
20.0
  9
$CHAMFERD
 40
0.0
  9
$SKPOLY
 70
     0
  9
$TDCREATE
 40
2460327.706159502
  9
$TDUCREATE
 40
2460327.331159502
  9
$TDUPDATE
 40
2460327.706159514
  9
$TDUUPDATE
 40
2460327.331159514
  9
$TDINDWG
 40
0.0000000116
  9
$TDUSRTIMER
 40
0.0000000116
  9
$USRTIMER
 70
     1
  9
$ANGBASE
 50
0.0
  9
$ANGDIR
 70
     0
  9
$PDMODE
 70
     0
  9
$PDSIZE
 40
0.0
  9
$PLINEWID
 40
0.0
  9
$SPLFRAME
 70
     0
  9
$SPLINETYPE
 70
     6
  9
$SPLINESEGS
 70
     8
  9
$HANDSEED
  5
369
  9
$SURFTAB1
 70
     6
  9
$SURFTAB2
 70
     6
  9
$SURFTYPE
 70
     6
  9
$SURFU
 70
     6
  9
$SURFV
 70
     6
  9
$UCSBASE
  2

  9
$UCSNAME
  2

  9
$UCSORG
 10
0.0
 20
0.0
 30
0.0
  9
$UCSXDIR
 10
1.0
 20
0.0
 30
0.0
  9
$UCSYDIR
 10
0.0
 20
1.0
 30
0.0
  9
$UCSORTHOREF
  2

  9
$UCSORTHOVIEW
 70
     0
  9
$UCSORGTOP
 10
0.0
 20
0.0
 30
0.0
  9
$UCSORGBOTTOM
 10
0.0
 20
0.0
 30
0.0
  9
$UCSORGLEFT
 10
0.0
 20
0.0
 30
0.0
  9
$UCSORGRIGHT
 10
0.0
 20
0.0
 30
0.0
  9
$UCSORGFRONT
 10
0.0
 20
0.0
 30
0.0
  9
$UCSORGBACK
 10
0.0
 20
0.0
 30
0.0
  9
$PUCSBASE
  2

  9
$PUCSNAME
  2

  9
$PUCSORG
 10
0.0
 20
0.0
 30
0.0
  9
$PUCSXDIR
 10
1.0
 20
0.0
 30
0.0
  9
$PUCSYDIR
 10
0.0
 20
1.0
 30
0.0
  9
$PUCSORTHOREF
  2

  9
$PUCSORTHOVIEW
 70
     0
  9
$PUCSORGTOP
 10
0.0
 20
0.0
 30
0.0
  9
$PUCSORGBOTTOM
 10
0.0
 20
0.0
 30
0.0
  9
$PUCSORGLEFT
 10
0.0
 20
0.0
 30
0.0
  9
$PUCSORGRIGHT
 10
0.0
 20
0.0
 30
0.0
  9
$PUCSORGFRONT
 10
0.0
 20
0.0
 30
0.0
  9
$PUCSORGBACK
 10
0.0
 20
0.0
 30
0.0
  9
$USERI1
 70
     0
  9
$USERI2
 70
     0
  9
$USERI3
 70
     0
  9
$USERI4
 70
     0
  9
$USERI5
 70
     0
  9
$USERR1
 40
0.0
  9
$USERR2
 40
0.0
  9
$USERR3
 40
0.0
  9
$USERR4
 40
0.0
  9
$USERR5
 40
0.0
  9
$WORLDVIEW
 70
     1
  9
$SHADEDGE
 70
     3
  9
$SHADEDIF
 70
    70
  9
$TILEMODE
 70
     1
  9
$MAXACTVP
 70
    64
  9
$PINSBASE
 10
0.0
 20
0.0
 30
0.0
  9
$PLIMCHECK
 70
     0
  9
$PEXTMIN
 10
1.000000000000000E+20
 20
1.000000000000000E+20
 30
1.000000000000000E+20
  9
$PEXTMAX
 10
-1.000000000000000E+20
 20
-1.000000000000000E+20
 30
-1.000000000000000E+20
  9
$PLIMMIN
 10
0.0
 20
0.0
  9
$PLIMMAX
 10
420.0
 20
297.0
  9
$UNITMODE
 70
     0
  9
$VISRETAIN
 70
     1
  9
$PLINEGEN
 70
     0
  9
$PSLTSCALE
 70
     1
  9
$TREEDEPTH
 70
  3020
  9
$CMLSTYLE
  2
Standard
  9
$CMLJUST
 70
     0
  9
$CMLSCALE
 40
20.0
  9
$PROXYGRAPHICS
 70
     1
  9
$MEASUREMENT
 70
     1
  9
$CELWEIGHT
370
    -1
  9
$ENDCAPS
280
     0
  9
$JOINSTYLE
280
     0
  9
$LWDISPLAY
290
     0
  9
$INSUNITS
 70
     4
  9
$HYPERLINKBASE
  1

  9
$STYLESHEET
  1

  9
$XEDIT
290
     1
  9
$CEPSNTYPE
380
     0
  9
$PSTYLEMODE
290
     1
  9
$FINGERPRINTGUID
  2
{72242C09-B28E-451E-9DF4-E32FAB8251A0}
  9
$VERSIONGUID
  2
{FAEB1C32-E019-11D5-929B-00C0DF256EC4}
  9
$EXTNAMES
290
     1
  9
$PSVPSCALE
 40
0.0
  9
$OLESTARTUP
290
     0
  9
$SORTENTS
280
   127
  9
$INDEXCTL
280
     0
  9
$HIDETEXT
280
     1
  9
$XCLIPFRAME
280
     2
  9
$HALOGAP
280
     0
  9
$OBSCOLOR
 70
   257
  9
$OBSLTYPE
280
     0
  9
$INTERSECTIONDISPLAY
280
     0
  9
$INTERSECTIONCOLOR
 70
   257
  9
$DIMASSOC
280
     2
  9
$PROJECTNAME
  1

  9
$CAMERADISPLAY
290
     0
  9
$LENSLENGTH
 40
50.0
  9
$CAMERAHEIGHT
 40
0.0
  9
$STEPSPERSEC
 40
2.0
  9
$STEPSIZE
 40
6.0
  9
$3DDWFPREC
 40
2.0
  9
$PSOLWIDTH
 40
5.0
  9
$PSOLHEIGHT
 40
80.0
  9
$LOFTANG1
 40
1.570796326794897
  9
$LOFTANG2
 40
1.570796326794897
  9
$LOFTMAG1
 40
0.0
  9
$LOFTMAG2
 40
0.0
  9
$LOFTPARAM
 70
     7
  9
$LOFTNORMALS
280
     1
  9
$LATITUDE
 40
37.795
  9
$LONGITUDE
 40
-122.394
  9
$NORTHDIRECTION
 40
0.0
  9
$TIMEZONE
 70
 -8000
  9
$LIGHTGLYPHDISPLAY
280
     1
  9
$TILEMODELIGHTSYNCH
280
     1
  9
$SOLIDHIST
280
     1
  9
$SHOWHIST
280
     1
  9
$DWFFRAME
280
     2
  9
$DGNFRAME
280
     2
  9
$REALWORLDSCALE
290
     1
  9
$INTERFERECOLOR
 62
   256
  9
$CSHADOW
280
     0
  9
$SHADOWPLANELOCATION
 40
0.0
  0
ENDSEC
  0
SECTION
  2
CLASSES
  0
CLASS
  1
ACDBDICTIONARYWDFLT
  2
AcDbDictionaryWithDefault
  3
ObjectDBX Classes
 90
        0
 91
        4
280
     0
281
     0
  0
CLASS
  1
VISUALSTYLE
  2
AcDbVisualStyle
  3
ObjectDBX Classes
 90
     4095
 91
        4
280
     0
281
     0
  0
CLASS
  1
MATERIAL
  2
AcDbMaterial
  3
ObjectDBX Classes
 90
     1153
 91
        4
280
     0
281
     0
  0
ENDSEC
  0
SECTION
  2
TABLES
  0
TABLE
  2
VPORT
  5
8
330
0
100
AcDbSymbolTable
 70
     1
  0
VPORT
  5
29
330
8
100
AcDbSymbolTableRecord
100
AcDbViewportTableRecord
  2
*Active
 70
     0
 10
0.0
 20
0.0
 11
1.0
 21
1.0
 12
0.0
 22
0.0
 13
0.0
 23
0.0
 14
10.0
 24
10.0
 15
10.0
 25
10.0
 16
0.0
 26
0.0
 36
1.0
 17
0.0
 27
0.0
 37
0.0
 40
9801.0
 41
1.414141414141414
 42
50.0
 43
0.0
 44
0.0
 50
0.0
 51
0.0
 71
     0
 72
 10000
 73
     1
 74
     3
 75
     0
 76
     0
 77
     0
 78
     0
281
     0
 65
     1
110
0.0
120
0.0
130
0.0
111
1.0
121
0.0
131
0.0
112
0.0
122
1.0
132
0.0
 79
     0
146
0.0
 60
     3
 61
     5
292
     1
282
     1
141
0.0
142
0.0
 63
   250
  0
ENDTAB
  0
TABLE
  2
LTYPE
  5
5
330
0
100
AcDbSymbolTable
 70
     4
  0
LTYPE
  5
14
330
5
100
AcDbSymbolTableRecord
100
AcDbLinetypeTableRecord
  2
ByBlock
 70
     0
  3

 72
    65
 73
     0
 40
0.0
  0
LTYPE
  5
15
330
5
100
AcDbSymbolTableRecord
100
AcDbLinetypeTableRecord
  2
ByLayer
 70
     0
  3

 72
    65
 73
     0
 40
0.0
  0
LTYPE
  5
16
330
5
100
AcDbSymbolTableRecord
100
AcDbLinetypeTableRecord
  2
Continuous
 70
     0
  3
Solid line
 72
    65
 73
     0
 40
0.0
  0
LTYPE
  5
3F
330
5
100
AcDbSymbolTableRecord
100
AcDbLinetypeTableRecord
  2
JWW_HOJO
 70
     0
  3
  -   -   -   -   -   -   -   - 
 72
    65
 73
     2
 40
1.693333333333333
 49
-1.27
 74
     0
 49
0.4233333333333333
 74
     0
  0
LTYPE
  5
40
330
5
100
AcDbSymbolTableRecord
100
AcDbLinetypeTableRecord
  2
JWW_DASHED1
 70
     0
  3
-  --  --  --  --  --  --  --  -
 72
    65
 73
     2
 40
1.693333333333333
 49
0.8466666666666667
 74
     0
 49
-0.8466666666666667
 74
     0
  0
LTYPE
  5
41
330
5
100
AcDbSymbolTableRecord
100
AcDbLinetypeTableRecord
  2
JWW_CENTER1
 70
     0
  3
-----  --  ----------  --  -----
 72
    65
 73
     4
 40
6.773333333333333
 49
4.233333333333333
 74
     0
 49
-0.8466666666666667
 74
     0
 49
0.8466666666666667
 74
     0
 49
-0.8466666666666667
 74
     0
  0
ENDTAB
  0
TABLE
  2
LAYER
  5
2
330
0
100
AcDbSymbolTable
 70
    13
  0
LAYER
  5
10
330
2
100
AcDbSymbolTableRecord
100
AcDbLayerTableRecord
  2
0
 70
     0
 62
     7
  6
Continuous
370
    -3
390
F
347
3E
  0
LAYER
  5
42
330
2
100
AcDbSymbolTableRecord
100
AcDbLayerTableRecord
  2
F-0_補助線
 70
     0
 62
     7
  6
Continuous
370
    -3
390
F
347
3E
  0
LAYER
  5
43
330
2
100
AcDbSymbolTableRecord
100
AcDbLayerTableRecord
  2
F-1_枠
 70
     0
 62
     7
  6
Continuous
370
    -3
390
F
347
3E
  0
LAYER
  5
44
330
2
100
AcDbSymbolTableRecord
100
AcDbLayerTableRecord
  2
F-A_文字
 70
     0
 62
     7
  6
Continuous
370
    -3
390
F
347
3E
  0
LAYER
  5
45
330
2
100
AcDbSymbolTableRecord
100
AcDbLayerTableRecord
  2
0-C_ハッチ
 70
     0
 62
     7
  6
Continuous
370
    -3
390
F
347
3E
  0
LAYER
  5
46
330
2
100
AcDbSymbolTableRecord
100
AcDbLayerTableRecord
  2
0-B_寸法
 70
     0
 62
     7
  6
Continuous
370
    -3
390
F
347
3E
  0
LAYER
  5
47
330
2
100
AcDbSymbolTableRecord
100
AcDbLayerTableRecord
  2
0-4_枠
 70
     0
 62
     7
  6
Continuous
370
    -3
390
F
347
3E
  0
LAYER
  5
48
330
2
100
AcDbSymbolTableRecord
100
AcDbLayerTableRecord
  2
0-3_仕上げ
 70
     0
 62
     7
  6
Continuous
370
    -3
390
F
347
3E
  0
LAYER
  5
49
330
2
100
AcDbSymbolTableRecord
100
AcDbLayerTableRecord
  2
0-1_通り芯
 70
     0
 62
     7
  6
Continuous
370
    -3
390
F
347
3E
  0
LAYER
  5
4A
330
2
100
AcDbSymbolTableRecord
100
AcDbLayerTableRecord
  2
0-0_補助線
 70
     0
 62
     7
  6
Continuous
370
    -3
390
F
347
3E
  0
LAYER
  5
4B
330
2
100
AcDbSymbolTableRecord
100
AcDbLayerTableRecord
  2
0-7_金物
 70
     0
 62
     7
  6
Continuous
370
    -3
390
F
347
3E
  0
LAYER
  5
4C
330
2
100
AcDbSymbolTableRecord
100
AcDbLayerTableRecord
  2
0-6_扉
 70
     0
 62
     7
  6
Continuous
370
    -3
390
F
347
3E
  0
LAYER
  5
4D
330
2
100
AcDbSymbolTableRecord
100
AcDbLayerTableRecord
  2
0-A_文字
 70
     0
 62
     7
  6
Continuous
370
    -3
390
F
347
3E
  0
ENDTAB
  0
TABLE
  2
STYLE
  5
3
330
0
100
AcDbSymbolTable
 70
     1
  0
STYLE
  5
11
330
3
100
AcDbSymbolTableRecord
100
AcDbTextStyleTableRecord
  2
Standard
 70
     0
 40
0.0
 41
1.0
 50
0.0
 71
     0
 42
2.5
  3
txt
  4

  0
ENDTAB
  0
TABLE
  2
VIEW
  5
6
330
0
100
AcDbSymbolTable
 70
     0
  0
ENDTAB
  0
TABLE
  2
UCS
  5
7
330
0
100
AcDbSymbolTable
 70
     0
  0
ENDTAB
  0
TABLE
  2
APPID
  5
9
330
0
100
AcDbSymbolTable
 70
     1
  0
APPID
  5
12
330
9
100
AcDbSymbolTableRecord
100
AcDbRegAppTableRecord
  2
ACAD
 70
     0
  0
ENDTAB
  0
TABLE
  2
DIMSTYLE
  5
A
330
0
100
AcDbSymbolTable
 70
     1
100
AcDbDimStyleTable
  0
DIMSTYLE
105
27
330
A
100
AcDbSymbolTableRecord
100
AcDbDimStyleTableRecord
  2
ISO-25
 70
     0
 41
2.5
 42
0.625
 43
3.75
 44
1.25
 73
     0
 74
     0
 77
     1
 78
     8
140
2.5
141
2.5
143
0.03937007874016
147
0.625
171
     3
172
     1
178
     0
271
     2
272
     2
274
     3
278
    44
283
     0
284
     8
340
11
  0
ENDTAB
  0
TABLE
  2
BLOCK_RECORD
  5
1
330
0
100
AcDbSymbolTable
 70
     1
  0
BLOCK_RECORD
  5
1F
330
1
100
AcDbSymbolTableRecord
100
AcDbBlockTableRecord
  2
*Model_Space
340
22
 70
     0
280
     1
281
     0
  0
BLOCK_RECORD
  5
1B
330
1
100
AcDbSymbolTableRecord
100
AcDbBlockTableRecord
  2
*Paper_Space
340
1E
 70
     0
280
     1
281
     0
  0
BLOCK_RECORD
  5
23
330
1
100
AcDbSymbolTableRecord
100
AcDbBlockTableRecord
  2
*Paper_Space0
340
26
 70
     0
280
     1
281
     0
  0
ENDTAB
  0
ENDSEC
  0
SECTION
  2
BLOCKS
  0
BLOCK
  5
20
330
1F
100
AcDbEntity
  8
0
100
AcDbBlockBegin
  2
*Model_Space
 70
     0
 10
0.0
 20
0.0
 30
0.0
  3
*Model_Space
  1

  0
ENDBLK
  5
21
330
1F
100
AcDbEntity
  8
0
100
AcDbBlockEnd
  0
BLOCK
  5
1C
330
1B
100
AcDbEntity
 67
     1
  8
0
100
AcDbBlockBegin
  2
*Paper_Space
 70
     0
 10
0.0
 20
0.0
 30
0.0
  3
*Paper_Space
  1

  0
ENDBLK
  5
1D
330
1B
100
AcDbEntity
 67
     1
  8
0
100
AcDbBlockEnd
  0
BLOCK
  5
24
330
23
100
AcDbEntity
  8
0
100
AcDbBlockBegin
  2
*Paper_Space0
 70
     0
 10
0.0
 20
0.0
 30
0.0
  3
*Paper_Space0
  1

  0
ENDBLK
  5
25
330
23
100
AcDbEntity
  8
0
100
AcDbBlockEnd
  0
ENDSEC
  0
SECTION
  2
ENTITIES
  0
LINE
  5
4E
330
1F
100
AcDbEntity
  8
F-0_補助線
  6
JWW_HOJO
 62
   120
370
     5
100
AcDbLine
 10
-6140.081333436773
 20
-4455.0
 30
0.0
 11
-6140.081333436773
 21
4424.999604096284
 31
0.0
  0
LINE
  5
4F
330
1F
100
AcDbEntity
  8
F-0_補助線
  6
JWW_HOJO
 62
   120
370
     5
100
AcDbLine
 10
-6140.081333436773
 20
4424.999604096284
 30
0.0
 11
6159.917676803936
 21
4424.999604096284
 31
0.0
  0
LINE
  5
50
330
1F
100
AcDbEntity
  8
F-0_補助線
  6
JWW_HOJO
 62
   120
370
     5
100
AcDbLine
 10
6159.917676803936
 20
4424.999604096284
 30
0.0
 11
6159.917676803936
 21
-4455.0
 31
0.0
  0
LINE
  5
51
330
1F
100
AcDbEntity
  8
F-0_補助線
  6
JWW_HOJO
 62
   120
370
     5
100
AcDbLine
 10
6159.917676803936
 20
-4455.0
 30
0.0
 11
-6140.081333436773
 21
-4455.0
 31
0.0
  0
LINE
  5
52
330
1F
100
AcDbEntity
  8
F-0_補助線
  6
JWW_HOJO
 62
     7
370
     9
100
AcDbLine
 10
1009.918254163523
 20
-3795.000003092998
 30
0.0
 11
1009.918254163523
 21
-4195.000008247994
 31
0.0
  0
LINE
  5
53
330
1F
100
AcDbEntity
  8
F-0_補助線
  6
JWW_HOJO
 62
     7
370
     9
100
AcDbLine
 10
509.9185840832865
 20
-3795.000003092998
 30
0.0
 11
509.9185840832865
 21
-4195.000008247994
 31
0.0
  0
LINE
  5
54
330
1F
100
AcDbEntity
  8
F-1_枠
  6
Continuous
 62
   200
370
    20
100
AcDbLine
 10
5859.917429364114
 20
4174.999769056166
 30
0.0
 11
5859.917429364114
 21
-4205.000164959882
 31
0.0
  0
LINE
  5
55
330
1F
100
AcDbEntity
  8
F-1_枠
  6
Continuous
 62
   200
370
    20
100
AcDbLine
 10
-5840.081317971782
 20
4174.999769056166
 30
0.0
 11
-5840.081317971782
 21
-4205.000164959882
 31
0.0
  0
LINE
  5
56
330
1F
100
AcDbEntity
  8
F-1_枠
  6
Continuous
 62
   200
370
    20
100
AcDbLine
 10
5859.917429364114
 20
-4205.000002577498
 30
0.0
 11
-5840.081085996952
 21
-4205.000002577498
 31
0.0
  0
LINE
  5
57
330
1F
100
AcDbEntity
  8
F-1_枠
  6
Continuous
 62
   200
370
    20
100
AcDbLine
 10
-5830.081323642279
 20
4174.999769056166
 30
0.0
 11
-5830.081323642279
 21
-4205.000164959882
 31
0.0
  0
LINE
  5
58
330
1F
100
AcDbEntity
  8
F-1_枠
  6
Continuous
 62
   200
370
    20
100
AcDbLine
 10
-5835.081309208291
 20
4174.999769056166
 30
0.0
 11
-5835.081309208291
 21
-4205.000164959882
 31
0.0
  0
LINE
  5
59
330
1F
100
AcDbEntity
  8
F-1_枠
  6
Continuous
 62
   200
370
    20
100
AcDbLine
 10
5854.917165428304
 20
4174.999769056166
 30
0.0
 11
5854.917165428304
 21
-4205.000164959882
 31
0.0
  0
LINE
  5
5A
330
1F
100
AcDbEntity
  8
F-1_枠
  6
Continuous
 62
   200
370
    20
100
AcDbLine
 10
5849.917643811961
 20
4174.999769056166
 30
0.0
 11
5849.917643811961
 21
-4205.000164959882
 31
0.0
  0
LINE
  5
5B
330
1F
100
AcDbEntity
  8
F-1_枠
  6
Continuous
 62
   200
370
    20
100
AcDbLine
 10
5859.917429364114
 20
-4199.999993814004
 30
0.0
 11
-5840.081085996952
 21
-4199.999993814004
 31
0.0
  0
LINE
  5
5C
330
1F
100
AcDbEntity
  8
F-1_枠
  6
Continuous
 62
   200
370
    20
100
AcDbLine
 10
5859.917429364114
 20
-4195.000008247994
 30
0.0
 11
-5840.081085996952
 21
-4195.000008247994
 31
0.0
  0
LINE
  5
5D
330
1F
100
AcDbEntity
  8
F-1_枠
  6
Continuous
 62
   200
370
    20
100
AcDbLine
 10
4349.917891251784
 20
-3795.000003092998
 30
0.0
 11
4349.917891251784
 21
-4195.000008247994
 31
0.0
  0
LINE
  5
5E
330
1F
100
AcDbEntity
  8
F-1_枠
  6
Continuous
 62
   200
370
    20
100
AcDbLine
 10
2849.917396372139
 20
-3795.000003092998
 30
0.0
 11
2849.917396372139
 21
-4195.000008247994
 31
0.0
  0
LINE
  5
5F
330
1F
100
AcDbEntity
  8
F-1_枠
  6
Continuous
 62
   200
370
    20
100
AcDbLine
 10
9.918542843316231
 20
-3795.000003092998
 30
0.0
 11
9.918542843316231
 21
-4195.000008247994
 31
0.0
  0
LINE
  5
60
330
1F
100
AcDbEntity
  8
F-1_枠
  6
Continuous
 62
   200
370
    20
100
AcDbLine
 10
9.918542843316231
 20
-3994.999936078046
 30
0.0
 11
5849.917643811961
 21
-3995.005364289155
 31
0.0
  0
LINE
  5
61
330
1F
100
AcDbEntity
  8
F-1_枠
  6
Continuous
 62
   200
370
    20
100
AcDbLine
 10
-5840.081085996952
 20
4174.999769056166
 30
0.0
 11
5859.917429364114
 21
4174.999769056166
 31
0.0
  0
LINE
  5
62
330
1F
100
AcDbEntity
  8
F-1_枠
  6
Continuous
 62
   200
370
    20
100
AcDbLine
 10
-5840.081085996952
 20
4164.999983504013
 30
0.0
 11
5859.917429364114
 21
4164.999983504013
 31
0.0
  0
LINE
  5
63
330
1F
100
AcDbEntity
  8
F-1_枠
  6
Continuous
 62
   200
370
    20
100
AcDbLine
 10
-5840.081085996952
 20
4169.999505120355
 30
0.0
 11
5859.917429364114
 21
4169.999505120355
 31
0.0
  0
LINE
  5
64
330
1F
100
AcDbEntity
  8
F-0_補助線
  6
JWW_HOJO
 62
     7
370
     9
100
AcDbLine
 10
-5830.081323642279
 20
-3994.99993607839
 30
0.0
 11
9.918542843316231
 21
-3994.99993607839
 31
0.0
  0
LINE
  5
65
330
1F
100
AcDbEntity
  8
F-0_補助線
  6
JWW_HOJO
 62
     7
370
     9
100
AcDbLine
 10
-5830.081323642279
 20
-3904.99993607839
 30
0.0
 11
9.918542843316231
 21
-3904.99993607839
 31
0.0
  0
LINE
  5
66
330
1F
100
AcDbEntity
  8
F-0_補助線
  6
JWW_HOJO
 62
     7
370
     9
100
AcDbLine
 10
-5830.081323642279
 20
-4084.99993607839
 30
0.0
 11
9.918542843316231
 21
-4084.99993607839
 31
0.0
  0
LINE
  5
67
330
1F
100
AcDbEntity
  8
F-0_補助線
  6
JWW_HOJO
 62
     7
370
     9
100
AcDbLine
 10
9.918408067688347
 20
-4139.999739777983
 30
0.0
 11
5849.917509036332
 21
-4140.005167989091
 31
0.0
  0
LINE
  5
68
330
1F
100
AcDbEntity
  8
F-0_補助線
  6
JWW_HOJO
 62
     7
370
     9
100
AcDbLine
 10
9.918491721639953
 20
-4049.999739778022
 30
0.0
 11
5849.917592690284
 21
-4050.005167989131
 31
0.0
  0
LINE
  5
69
330
1F
100
AcDbEntity
  8
F-0_補助線
  6
JWW_HOJO
 62
     7
370
     9
100
AcDbLine
 10
9.918593965360003
 20
-3939.99973721807
 30
0.0
 11
5849.917694934004
 21
-3940.005165429179
 31
0.0
  0
LINE
  5
6A
330
1F
100
AcDbEntity
  8
F-0_補助線
  6
JWW_HOJO
 62
     7
370
     9
100
AcDbLine
 10
9.918677619311609
 20
-3849.999737218109
 30
0.0
 11
5849.917778587956
 21
-3850.005165429218
 31
0.0
  0
LINE
  5
6B
330
1F
100
AcDbEntity
  8
F-0_補助線
  6
JWW_HOJO
 62
     7
370
     9
100
AcDbLine
 10
2939.917396372139
 20
-3795.000003092998
 30
0.0
 11
2939.917396372139
 21
-4195.000008247994
 31
0.0
  0
LINE
  5
6C
330
1F
100
AcDbEntity
  8
F-0_補助線
  6
JWW_HOJO
 62
     7
370
     9
100
AcDbLine
 10
99.91854284331623
 20
-3795.000003092998
 30
0.0
 11
99.91854284331623
 21
-4195.000008247994
 31
0.0
  0
LINE
  5
6D
330
1F
100
AcDbEntity
  8
F-0_補助線
  6
JWW_HOJO
 62
     7
370
     9
100
AcDbLine
 10
4439.917891251784
 20
-3795.000003092998
 30
0.0
 11
4439.917891251784
 21
-4195.000008247994
 31
0.0
  0
LINE
  5
6E
330
1F
100
AcDbEntity
  8
F-1_枠
  6
Continuous
 62
   200
370
    20
100
AcDbLine
 10
5859.917429364114
 20
-3795.000003092998
 30
0.0
 11
-5840.081085996952
 21
-3795.000003092998
 31
0.0
  0
LINE
  5
6F
330
1F
100
AcDbEntity
  8
F-1_枠
  6
Continuous
 62
   200
370
    20
100
AcDbLine
 10
5859.917429364114
 20
-3790.000017526987
 30
0.0
 11
-5840.081085996952
 21
-3790.000017526987
 31
0.0
  0
LINE
  5
70
330
1F
100
AcDbEntity
  8
F-0_補助線
  6
JWW_HOJO
 62
     7
370
     9
100
AcDbLine
 10
-5087.628710189611
 20
-3795.000003092999
 30
0.0
 11
-5087.628710189611
 21
-4205.000164959882
 31
0.0
  0
LINE
  5
71
330
1F
100
AcDbEntity
  8
F-0_補助線
  6
JWW_HOJO
 62
     7
370
     9
100
AcDbLine
 10
-50.08145715668377
 20
-3795.000003092998
 30
0.0
 11
-50.08145715668377
 21
-4195.000008247994
 31
0.0
  0
MTEXT
  5
72
330
1F
100
AcDbEntity
  8
F-0_補助線
  6
Continuous
 62
     7
370
     0
100
AcDbMText
 10
509.9185840832865
 20
-3946.496666872503
 30
0.0
 40
78.58125
 41
412.5
 46
0.0
 71
     7
 72
     1
  1
{\fＭＳ ゴシック|b0|i0|c128|p49;DOORETUS}
 73
     1
 44
1.0
  0
MTEXT
  5
73
330
1F
100
AcDbEntity
  8
F-0_補助線
  6
Continuous
 62
     7
370
     0
100
AcDbMText
 10
1110.209427605311
 20
-3946.734791872504
 30
0.0
 40
78.105
 41
615.0
 46
0.0
 71
     7
 72
     1
  1
{\fＭＳ ゴシック|b0|i0|c128|p49;建具納まり図}
 73
     1
 44
1.0
  0
MTEXT
  5
74
330
1F
100
AcDbEntity
  8
F-A_文字
  6
Continuous
 62
     7
370
     0
100
AcDbMText
 10
99.91854284331623
 20
-3887.139820871936
 30
0.0
 40
45.72
 41
180.0
 46
0.0
 71
     7
 72
     1
  1
{\fＭＳ ゴシック|b0|i0|c128|p49;図面名}
 73
     1
 44
1.0
  0
MTEXT
  5
75
330
1F
100
AcDbEntity
  8
F-A_文字
  6
Continuous
 62
     7
370
     0
100
AcDbMText
 10
2939.917396372139
 20
-3887.142460617774
 30
0.0
 40
45.72
 41
300.0
 46
0.0
 71
     7
 72
     1
  1
{\fＭＳ ゴシック|b0|i0|c128|p49;ＳＣＡＬＥ}
 73
     1
 44
1.0
  0
MTEXT
  5
76
330
1F
100
AcDbEntity
  8
F-A_文字
  6
Continuous
 62
     7
370
     0
100
AcDbMText
 10
4439.917891251784
 20
-3887.143854850754
 30
0.0
 40
45.72
 41
240.0
 46
0.0
 71
     7
 72
     1
  1
{\fＭＳ ゴシック|b0|i0|c128|p49;ＤＡＴＥ}
 73
     1
 44
1.0
  0
MTEXT
  5
77
330
1F
100
AcDbEntity
  8
F-A_文字
  6
Continuous
 62
     7
370
     0
100
AcDbMText
 10
2939.917396372139
 20
-4087.14246317786
 30
0.0
 40
45.72
 41
240.0
 46
0.0
 71
     7
 72
     1
  1
{\fＭＳ ゴシック|b0|i0|c128|p49;ＦＩＬＥ}
 73
     1
 44
1.0
  0
MTEXT
  5
78
330
1F
100
AcDbEntity
  8
F-A_文字
  6
Continuous
 62
     7
370
     0
100
AcDbMText
 10
4439.917891251784
 20
-4087.143857410839
 30
0.0
 40
45.72
 41
180.0
 46
0.0
 71
     7
 72
     1
  1
{\fＭＳ ゴシック|b0|i0|c128|p49;ＮＯ．}
 73
     1
 44
1.0
  0
MTEXT
  5
79
330
1F
100
AcDbEntity
  8
F-A_文字
  6
Continuous
 62
     7
370
     0
100
AcDbMText
 10
1394.917396372138
 20
-4096.140669266149
 30
0.0
 40
45.72
 41
120.0
 46
0.0
 71
     7
 72
     1
  1
{\fＭＳ ゴシック|b0|i0|c128|p49;株式}
 73
     1
 44
1.0
  0
MTEXT
  5
7A
330
1F
100
AcDbEntity
  8
F-A_文字
  6
Continuous
 62
     7
370
     0
100
AcDbMText
 10
1604.917396372138
 20
-4164.281754523929
 30
0.0
 40
101.44125
 41
1065.0
 46
0.0
 71
     7
 72
     1
  1
{\fＭＳ ゴシック|b0|i0|c128|p49;ウッドワン・・・}
 73
     1
 44
1.0
  0
MTEXT
  5
7B
330
1F
100
AcDbEntity
  8
F-A_文字
  6
Continuous
 62
     7
370
     0
100
AcDbMText
 10
1394.917396372138
 20
-4168.140669266187
 30
0.0
 40
45.72
 41
120.0
 46
0.0
 71
     7
 72
     1
  1
{\fＭＳ ゴシック|b0|i0|c128|p49;会社}
 73
     1
 44
1.0
  0
MTEXT
  5
7C
330
1F
100
AcDbEntity
  8
F-A_文字
  6
Continuous
 62
     7
370
     0
100
AcDbMText
 10
5768.321977672939
 20
-4314.841419020919
 30
0.0
 40
68.58
 41
90.0
 46
0.0
 71
     7
 72
     1
  1
{\fＭＳ ゴシック|b0|i0|c128|p49;）}
 73
     1
 44
1.0
  0
MTEXT
  5
7D
330
1F
100
AcDbEntity
  8
F-A_文字
  6
Continuous
 62
     7
370
     0
100
AcDbMText
 10
5350.114617405298
 20
-4316.235443869856
 30
0.0
 40
68.58
 41
45.0
 46
0.0
 71
     7
 72
     1
  1
{\fＭＳ ゴシック|b0|i0|c128|p49;,}
 73
     1
 44
1.0
  0
MTEXT
  5
7E
330
1F
100
AcDbEntity
  8
F-A_文字
  6
Continuous
 62
     7
370
     0
100
AcDbMText
 10
5083.855928478601
 20
-4314.771967288282
 30
0.0
 40
74.295
 41
97.5
 46
0.0
 71
     7
 72
     1
  1
{\fＭＳ ゴシック|b0|i0|c128|p49;$y}
 73
     1
 44
1.0
  0
MTEXT
  5
7F
330
1F
100
AcDbEntity
  8
F-A_文字
  6
Continuous
 62
     7
370
     0
100
AcDbMText
 10
5238.592649517422
 20
-4314.771967288282
 30
0.0
 40
74.295
 41
97.5
 46
0.0
 71
     7
 72
     1
  1
{\fＭＳ ゴシック|b0|i0|c128|p49;$m}
 73
     1
 44
1.0
  0
MTEXT
  5
80
330
1F
100
AcDbEntity
  8
F-A_文字
  6
Continuous
 62
     7
370
     0
100
AcDbMText
 10
5393.32938200033
 20
-4314.771967288282
 30
0.0
 40
74.295
 41
97.5
 46
0.0
 71
     7
 72
     1
  1
{\fＭＳ ゴシック|b0|i0|c128|p49;$d}
 73
     1
 44
1.0
  0
MTEXT
  5
81
330
1F
100
AcDbEntity
  8
F-A_文字
  6
Continuous
 62
     7
370
     0
100
AcDbMText
 10
5548.066114483239
 20
-4314.771967288282
 30
0.0
 40
74.295
 41
195.0
 46
0.0
 71
     7
 72
     1
  1
{\fＭＳ ゴシック|b0|i0|c128|p49;印刷}
 73
     1
 44
1.0
  0
MTEXT
  5
82
330
1F
100
AcDbEntity
  8
F-A_文字
  6
Continuous
 62
     7
370
     0
100
AcDbMText
 10
4943.952040816226
 20
-4319.023493567732
 30
0.0
 40
68.58
 41
90.0
 46
0.0
 71
     7
 72
     1
  1
{\fＭＳ ゴシック|b0|i0|c128|p49;（}
 73
     1
 44
1.0
  0
MTEXT
  5
83
330
1F
100
AcDbEntity
  8
F-A_文字
  6
Continuous
 62
     7
370
     0
100
AcDbMText
 10
5191.195810375571
 20
-4319.023493567732
 30
0.0
 40
68.58
 41
45.0
 46
0.0
 71
     7
 72
     1
  1
{\fＭＳ ゴシック|b0|i0|c128|p49;,}
 73
     1
 44
1.0
  0
MTEXT
  5
84
330
1F
100
AcDbEntity
  8
F-A_文字
  6
Continuous
 62
     7
370
     9
100
AcDbMText
 10
5096.167700144058
 20
-4147.857012699985
 30
0.0
 40
74.295
 41
97.5
 46
0.0
 71
     7
 72
     1
  1
{\fＭＳ ゴシック|b0|i0|c128|p49;01}
 73
     1
 44
1.0
  0
LINE
  5
85
330
1F
100
AcDbEntity
  8
F-0_補助線
  6
JWW_HOJO
 62
     7
370
     9
100
AcDbLine
 10
3764.917643811961
 20
-3795.000003092998
 30
0.0
 11
3764.917643811961
 21
-4195.000008247994
 31
0.0
  0
MTEXT
  5
86
330
1F
100
AcDbEntity
  8
F-A_文字
  6
Continuous
 62
     7
370
     0
100
AcDbMText
 10
3689.917643811961
 20
-3946.903115907308
 30
0.0
 40
76.19999999999999
 41
150.0
 46
0.0
 71
     7
 72
     1
  1
{\fＭＳ ゴシック|b0|i0|c128|p49;1/5}
 73
     1
 44
1.0
  0
LINE
  5
87
330
1F
100
AcDbEntity
  8
0-C_ハッチ
  6
JWW_DASHED1
 62
   120
370
     5
100
AcDbLine
 10
-306.4409878332722
 20
2086.500190873769
 30
0.0
 11
-231.4407403934491
 21
2161.500438313593
 31
0.0
  0
LWPOLYLINE
  5
88
330
1F
100
AcDbEntity
  8
0-B_寸法
  6
Continuous
 62
     7
370
     9
100
AcDbPolyline
 90
        4
 70
     1
 43
3.0
 10
-2882.336079946853
 20
1474.500190873769
 42
0.4142135623731
 10
-2883.836079946853
 20
1476.000190873769
 42
0.4142135623731
 10
-2885.336079946853
 20
1474.500190873769
 42
0.4142135623731
 10
-2883.836079946853
 20
1473.000190873769
 42
0.4142135623731
  0
LINE
  5
89
330
1F
100
AcDbEntity
  8
0-B_寸法
  6
Continuous
 62
   120
370
     5
100
AcDbLine
 10
-2883.836079946853
 20
1474.500190873769
 30
0.0
 11
-2883.836079946853
 21
1834.500190873769
 31
0.0
  0
LWPOLYLINE
  5
8A
330
1F
100
AcDbEntity
  8
0-B_寸法
  6
Continuous
 62
     7
370
     9
100
AcDbPolyline
 90
        4
 70
     1
 43
3.0
 10
-2870.336079946853
 20
1474.500190873769
 42
0.4142135623731
 10
-2871.836079946853
 20
1476.000190873769
 42
0.4142135623731
 10
-2873.336079946853
 20
1474.500190873769
 42
0.4142135623731
 10
-2871.836079946853
 20
1473.000190873769
 42
0.4142135623731
  0
LINE
  5
8B
330
1F
100
AcDbEntity
  8
0-B_寸法
  6
Continuous
 62
   120
370
     5
100
AcDbLine
 10
-2871.836079946853
 20
1474.500190873769
 30
0.0
 11
-2871.836079946853
 21
1834.500190873769
 31
0.0
  0
LINE
  5
8C
330
1F
100
AcDbEntity
  8
0-B_寸法
  6
Continuous
 62
   120
370
     5
100
AcDbLine
 10
-4687.229845782997
 20
2014.500190873769
 30
0.0
 11
-4507.229845782997
 21
2014.500190873769
 31
0.0
  0
LWPOLYLINE
  5
8D
330
1F
100
AcDbEntity
  8
0-B_寸法
  6
Continuous
 62
     7
370
     9
100
AcDbPolyline
 90
        4
 70
     1
 43
3.0
 10
-4505.729845782997
 20
2014.500190873769
 42
0.4142135623731
 10
-4507.229845782997
 20
2016.000190873769
 42
0.4142135623731
 10
-4508.729845782997
 20
2014.500190873769
 42
0.4142135623731
 10
-4507.229845782997
 20
2013.000190873769
 42
0.4142135623731
  0
LINE
  5
8E
330
1F
100
AcDbEntity
  8
0-B_寸法
  6
Continuous
 62
   120
370
     5
100
AcDbLine
 10
-4687.229845782997
 20
2644.500190873769
 30
0.0
 11
-4507.229845782997
 21
2644.500190873769
 31
0.0
  0
LINE
  5
8F
330
1F
100
AcDbEntity
  8
0-B_寸法
  6
Continuous
 62
   120
370
     5
100
AcDbLine
 10
-4507.229845782997
 20
2644.500190873769
 30
0.0
 11
-4507.229845782997
 21
2014.500190873769
 31
0.0
  0
LWPOLYLINE
  5
90
330
1F
100
AcDbEntity
  8
0-B_寸法
  6
Continuous
 62
     7
370
     9
100
AcDbPolyline
 90
        4
 70
     1
 43
3.0
 10
-4505.729845782997
 20
2644.500190873769
 42
0.4142135623731
 10
-4507.229845782997
 20
2646.000190873769
 42
0.4142135623731
 10
-4508.729845782997
 20
2644.500190873769
 42
0.4142135623731
 10
-4507.229845782997
 20
2643.000190873769
 42
0.4142135623731
  0
LINE
  5
91
330
1F
100
AcDbEntity
  8
0-4_枠
  6
Continuous
 62
    92
370
    13
100
AcDbLine
 10
-4923.836079946848
 20
2644.500190873769
 30
0.0
 11
-5079.83630264269
 21
2644.500190873769
 31
0.0
  0
LINE
  5
92
330
1F
100
AcDbEntity
  8
0-4_枠
  6
Continuous
 62
    92
370
    13
100
AcDbLine
 10
-4923.836079946848
 20
2644.500190873769
 30
0.0
 11
-4899.836079946848
 21
2620.500190873769
 31
0.0
  0
LINE
  5
93
330
1F
100
AcDbEntity
  8
0-4_枠
  6
Continuous
 62
    92
370
    13
100
AcDbLine
 10
-4899.836079946848
 20
2038.500190873771
 30
0.0
 11
-4899.836079946848
 21
2620.500190873769
 31
0.0
  0
LINE
  5
94
330
1F
100
AcDbEntity
  8
0-4_枠
  6
Continuous
 62
    92
370
    13
100
AcDbLine
 10
-4923.836079946848
 20
2014.500190873769
 30
0.0
 11
-5079.83630264269
 21
2014.500190873769
 31
0.0
  0
LINE
  5
95
330
1F
100
AcDbEntity
  8
0-4_枠
  6
Continuous
 62
    92
370
    13
100
AcDbLine
 10
-4899.836079946848
 20
2038.500190873771
 30
0.0
 11
-4923.836079946848
 21
2014.500190873769
 31
0.0
  0
LINE
  5
96
330
1F
100
AcDbEntity
  8
0-C_ハッチ
  6
Continuous
 62
   120
370
     5
100
AcDbLine
 10
-4944.570066070317
 20
2014.500190873776
 30
0.0
 11
-4899.836079946852
 21
2059.234176997239
 31
0.0
  0
LINE
  5
97
330
1F
100
AcDbEntity
  8
0-C_ハッチ
  6
Continuous
 62
   120
370
     5
100
AcDbLine
 10
-5003.967035689959
 20
2014.50019087378
 30
0.0
 11
-4899.836079946855
 21
2118.631146616884
 31
0.0
  0
LINE
  5
98
330
1F
100
AcDbEntity
  8
0-C_ハッチ
  6
Continuous
 62
   120
370
     5
100
AcDbLine
 10
-5063.364005309661
 20
2014.50019087378
 30
0.0
 11
-4899.836079946839
 21
2178.028116236601
 31
0.0
  0
LINE
  5
99
330
1F
100
AcDbEntity
  8
0-C_ハッチ
  6
Continuous
 62
   120
370
     5
100
AcDbLine
 10
-5079.836302642701
 20
2057.424863160387
 30
0.0
 11
-4899.836079946853
 21
2237.425085856235
 31
0.0
  0
LINE
  5
9A
330
1F
100
AcDbEntity
  8
0-C_ハッチ
  6
Continuous
 62
   120
370
     5
100
AcDbLine
 10
-5079.83630264269
 20
2116.821832780045
 30
0.0
 11
-4899.836079946848
 21
2296.822055475887
 31
0.0
  0
LINE
  5
9B
330
1F
100
AcDbEntity
  8
0-C_ハッチ
  6
Continuous
 62
   120
370
     5
100
AcDbLine
 10
-5079.83630264269
 20
2176.218802399747
 30
0.0
 11
-4899.836079946848
 21
2356.219025095589
 31
0.0
  0
LINE
  5
9C
330
1F
100
AcDbEntity
  8
0-C_ハッチ
  6
Continuous
 62
   120
370
     5
100
AcDbLine
 10
-5079.836302642694
 20
2235.61577201939
 30
0.0
 11
-4899.836079946852
 21
2415.615994715232
 31
0.0
  0
LINE
  5
9D
330
1F
100
AcDbEntity
  8
0-C_ハッチ
  6
Continuous
 62
   120
370
     5
100
AcDbLine
 10
-5079.836302642694
 20
2295.012741639092
 30
0.0
 11
-4899.836079946852
 21
2475.012964334936
 31
0.0
  0
LINE
  5
9E
330
1F
100
AcDbEntity
  8
0-C_ハッチ
  6
Continuous
 62
   120
370
     5
100
AcDbLine
 10
-5079.836302642697
 20
2354.409711258736
 30
0.0
 11
-4899.836079946855
 21
2534.409933954578
 31
0.0
  0
LINE
  5
9F
330
1F
100
AcDbEntity
  8
0-C_ハッチ
  6
Continuous
 62
   120
370
     5
100
AcDbLine
 10
-5079.836302642681
 20
2413.806680878453
 30
0.0
 11
-4899.836079946848
 21
2593.806903574287
 31
0.0
  0
LINE
  5
A0
330
1F
100
AcDbEntity
  8
0-C_ハッチ
  6
Continuous
 62
   120
370
     5
100
AcDbLine
 10
-5079.836302642685
 20
2473.203650498097
 30
0.0
 11
-4916.187921106931
 21
2636.852032033852
 31
0.0
  0
LINE
  5
A1
330
1F
100
AcDbEntity
  8
0-C_ハッチ
  6
Continuous
 62
   120
370
     5
100
AcDbLine
 10
-5079.83630264269
 20
2532.600620117741
 30
0.0
 11
-4967.93673188666
 21
2644.500190873769
 31
0.0
  0
LINE
  5
A2
330
1F
100
AcDbEntity
  8
0-C_ハッチ
  6
Continuous
 62
   120
370
     5
100
AcDbLine
 10
-5079.836302642699
 20
2585.026318798606
 30
0.0
 11
-5020.362430567535
 21
2644.500190873769
 31
0.0
  0
LINE
  5
A3
330
1F
100
AcDbEntity
  8
0-C_ハッチ
  6
JWW_DASHED1
 62
   120
370
     5
100
AcDbLine
 10
-5098.325624789542
 20
2086.500190873769
 30
0.0
 11
-5079.83630264269
 21
2104.989141860891
 31
0.0
  0
LINE
  5
A4
330
1F
100
AcDbEntity
  8
0-C_ハッチ
  6
JWW_DASHED1
 62
   120
370
     5
100
AcDbLine
 10
-5140.752151658209
 20
2086.500190873769
 30
0.0
 11
-5079.83630264269
 21
2147.416411049024
 31
0.0
  0
LINE
  5
A5
330
1F
100
AcDbEntity
  8
0-C_ハッチ
  6
JWW_DASHED1
 62
   120
370
     5
100
AcDbLine
 10
-5183.178678526873
 20
2086.500190873769
 30
0.0
 11
-5108.178431087052
 21
2161.500438313593
 31
0.0
  0
LINE
  5
A6
330
1F
100
AcDbEntity
  8
0-C_ハッチ
  6
JWW_DASHED1
 62
   120
370
     5
100
AcDbLine
 10
-5225.604834235806
 20
2086.500190873769
 30
0.0
 11
-5150.604586795982
 21
2161.500438313593
 31
0.0
  0
LINE
  5
A7
330
1F
100
AcDbEntity
  8
0-C_ハッチ
  6
JWW_DASHED1
 62
   120
370
     5
100
AcDbLine
 10
-5268.031361104469
 20
2086.500190873769
 30
0.0
 11
-5193.031113664648
 21
2161.500438313593
 31
0.0
  0
LINE
  5
A8
330
1F
100
AcDbEntity
  8
0-C_ハッチ
  6
JWW_DASHED1
 62
   120
370
     5
100
AcDbLine
 10
-5310.457887973135
 20
2086.500190873769
 30
0.0
 11
-5235.457640533315
 21
2161.500438313593
 31
0.0
  0
LINE
  5
A9
330
1F
100
AcDbEntity
  8
0-C_ハッチ
  6
JWW_DASHED1
 62
   120
370
     5
100
AcDbLine
 10
-5352.883672522334
 20
2086.500190873769
 30
0.0
 11
-5277.88342508251
 21
2161.500438313593
 31
0.0
  0
LINE
  5
AA
330
1F
100
AcDbEntity
  8
0-C_ハッチ
  6
JWW_DASHED1
 62
   120
370
     5
100
AcDbLine
 10
-5395.310199391
 20
2086.500190873769
 30
0.0
 11
-5320.309951951178
 21
2161.500438313593
 31
0.0
  0
LINE
  5
AB
330
1F
100
AcDbEntity
  8
0-C_ハッチ
  6
JWW_DASHED1
 62
   120
370
     5
100
AcDbLine
 10
-5437.736726259669
 20
2086.500190873769
 30
0.0
 11
-5362.736478819842
 21
2161.500438313593
 31
0.0
  0
LINE
  5
AC
330
1F
100
AcDbEntity
  8
0-C_ハッチ
  6
JWW_DASHED1
 62
   120
370
     5
100
AcDbLine
 10
-5480.163253128331
 20
2086.500190873769
 30
0.0
 11
-5405.163005688508
 21
2161.500438313593
 31
0.0
  0
LINE
  5
AD
330
1F
100
AcDbEntity
  8
0-C_ハッチ
  6
JWW_DASHED1
 62
   120
370
     5
100
AcDbLine
 10
-5522.589408837262
 20
2086.500190873769
 30
0.0
 11
-5447.589161397438
 21
2161.500438313593
 31
0.0
  0
LINE
  5
AE
330
1F
100
AcDbEntity
  8
0-C_ハッチ
  6
JWW_DASHED1
 62
   120
370
     5
100
AcDbLine
 10
-5565.015935705931
 20
2086.500190873769
 30
0.0
 11
-5490.015688266106
 21
2161.500438313593
 31
0.0
  0
LINE
  5
AF
330
1F
100
AcDbEntity
  8
0-C_ハッチ
  6
JWW_DASHED1
 62
   120
370
     5
100
AcDbLine
 10
-5607.442462574593
 20
2086.500190873769
 30
0.0
 11
-5532.442215134772
 21
2161.500438313593
 31
0.0
  0
LINE
  5
B0
330
1F
100
AcDbEntity
  8
0-C_ハッチ
  6
JWW_DASHED1
 62
   120
370
     5
100
AcDbLine
 10
-5649.868989443263
 20
2086.500190873769
 30
0.0
 11
-5574.868742003438
 21
2161.500438313593
 31
0.0
  0
LINE
  5
B1
330
1F
100
AcDbEntity
  8
0-3_仕上げ
  6
Continuous
 62
    40
370
    15
100
AcDbLine
 10
-5079.83630264269
 20
2086.500190873769
 30
0.0
 11
-5679.83630264269
 21
2086.500190873769
 31
0.0
  0
LINE
  5
B2
330
1F
100
AcDbEntity
  8
0-3_仕上げ
  6
Continuous
 62
    40
370
    15
100
AcDbLine
 10
-5079.83630264269
 20
2161.500438313593
 30
0.0
 11
-5679.83630264269
 21
2161.500438313593
 31
0.0
  0
LINE
  5
B3
330
1F
100
AcDbEntity
  8
0-C_ハッチ
  6
JWW_DASHED1
 62
   120
370
     5
100
AcDbLine
 10
-5679.83630264269
 20
2141.385560251937
 30
0.0
 11
-5659.721424581032
 21
2161.500438313593
 31
0.0
  0
LINE
  5
B4
330
1F
100
AcDbEntity
  8
0-C_ハッチ
  6
JWW_DASHED1
 62
   120
370
     5
100
AcDbLine
 10
-5679.83630264269
 20
2098.959404543007
 30
0.0
 11
-5617.295268872102
 21
2161.500438313593
 31
0.0
  0
LINE
  5
B5
330
1F
100
AcDbEntity
  8
0-B_寸法
  6
Continuous
 62
   120
370
     5
100
AcDbLine
 10
-5079.83630264269
 20
1834.500190873769
 30
0.0
 11
-5079.83630264269
 21
1114.499745482088
 31
0.0
  0
LWPOLYLINE
  5
B6
330
1F
100
AcDbEntity
  8
0-B_寸法
  6
Continuous
 62
     7
370
     9
100
AcDbPolyline
 90
        4
 70
     1
 43
3.0
 10
-5078.33630264269
 20
1114.499745482088
 42
0.4142135623731
 10
-5079.83630264269
 20
1115.999745482088
 42
0.4142135623731
 10
-5081.33630264269
 20
1114.499745482088
 42
0.4142135623731
 10
-5079.83630264269
 20
1112.999745482088
 42
0.4142135623731
  0
LWPOLYLINE
  5
B7
330
1F
100
AcDbEntity
  8
0-B_寸法
  6
Continuous
 62
     7
370
     9
100
AcDbPolyline
 90
        4
 70
     1
 43
3.0
 10
-4898.336451106582
 20
1294.49996817793
 42
0.4142135623731
 10
-4899.836451106583
 20
1295.99996817793
 42
0.4142135623731
 10
-4901.336451106583
 20
1294.49996817793
 42
0.4142135623731
 10
-4899.836451106583
 20
1292.99996817793
 42
0.4142135623731
  0
LWPOLYLINE
  5
B8
330
1F
100
AcDbEntity
  8
0-B_寸法
  6
Continuous
 62
     7
370
     9
100
AcDbPolyline
 90
        4
 70
     1
 43
3.0
 10
-5078.33630264269
 20
1294.49996817793
 42
0.4142135623731
 10
-5079.83630264269
 20
1295.99996817793
 42
0.4142135623731
 10
-5081.33630264269
 20
1294.49996817793
 42
0.4142135623731
 10
-5079.83630264269
 20
1292.99996817793
 42
0.4142135623731
  0
LINE
  5
B9
330
1F
100
AcDbEntity
  8
0-B_寸法
  6
Continuous
 62
   120
370
     5
100
AcDbLine
 10
-4899.836451106583
 20
1834.500190873769
 30
0.0
 11
-4899.836451106583
 21
1294.49996817793
 31
0.0
  0
LWPOLYLINE
  5
BA
330
1F
100
AcDbEntity
  8
0-B_寸法
  6
Continuous
 62
     7
370
     9
100
AcDbPolyline
 90
        4
 70
     1
 43
3.0
 10
-4898.336451106582
 20
1474.500190873769
 42
0.4142135623731
 10
-4899.836451106583
 20
1476.000190873769
 42
0.4142135623731
 10
-4901.336451106583
 20
1474.500190873769
 42
0.4142135623731
 10
-4899.836451106583
 20
1473.000190873769
 42
0.4142135623731
  0
LWPOLYLINE
  5
BB
330
1F
100
AcDbEntity
  8
0-B_寸法
  6
Continuous
 62
     7
370
     9
100
AcDbPolyline
 90
        4
 70
     1
 43
3.0
 10
-4886.336079946852
 20
1474.500190873769
 42
0.4142135623731
 10
-4887.836079946852
 20
1476.000190873769
 42
0.4142135623731
 10
-4889.336079946853
 20
1474.500190873769
 42
0.4142135623731
 10
-4887.836079946852
 20
1473.000190873769
 42
0.4142135623731
  0
LINE
  5
BC
330
1F
100
AcDbEntity
  8
0-B_寸法
  6
Continuous
 62
   120
370
     5
100
AcDbLine
 10
-4887.836079946852
 20
1474.500190873769
 30
0.0
 11
-4887.836079946852
 21
1834.500190873769
 31
0.0
  0
LINE
  5
BD
330
1F
100
AcDbEntity
  8
0-B_寸法
  6
Continuous
 62
   120
370
     5
100
AcDbLine
 10
-855.8353376274023
 20
1474.500190873769
 30
0.0
 11
-4899.836451106583
 21
1474.500190873769
 31
0.0
  0
LINE
  5
BE
330
1F
100
AcDbEntity
  8
0-B_寸法
  6
Continuous
 62
   120
370
     5
100
AcDbLine
 10
-5079.83630264269
 20
1294.49996817793
 30
0.0
 11
-675.835486091296
 21
1294.49996817793
 31
0.0
  0
LINE
  5
BF
330
1F
100
AcDbEntity
  8
0-B_寸法
  6
Continuous
 62
   120
370
     5
100
AcDbLine
 10
-855.8360799468669
 20
1474.500190873769
 30
0.0
 11
-855.8360799468669
 21
1834.500190873769
 31
0.0
  0
LWPOLYLINE
  5
C0
330
1F
100
AcDbEntity
  8
0-B_寸法
  6
Continuous
 62
     7
370
     9
100
AcDbPolyline
 90
        4
 70
     1
 43
3.0
 10
-854.3360799468669
 20
1474.500190873769
 42
0.4142135623731
 10
-855.8360799468669
 20
1476.000190873769
 42
0.4142135623731
 10
-857.3360799468669
 20
1474.500190873769
 42
0.4142135623731
 10
-855.8360799468669
 20
1473.000190873769
 42
0.4142135623731
  0
LINE
  5
C1
330
1F
100
AcDbEntity
  8
0-B_寸法
  6
Continuous
 62
   120
370
     5
100
AcDbLine
 10
-867.8360799468534
 20
1474.500190873769
 30
0.0
 11
-867.8360799468534
 21
1834.500190873769
 31
0.0
  0
LWPOLYLINE
  5
C2
330
1F
100
AcDbEntity
  8
0-B_寸法
  6
Continuous
 62
     7
370
     9
100
AcDbPolyline
 90
        4
 70
     1
 43
3.0
 10
-866.3360799468534
 20
1474.500190873769
 42
0.4142135623731
 10
-867.8360799468534
 20
1476.000190873769
 42
0.4142135623731
 10
-869.3360799468534
 20
1474.500190873769
 42
0.4142135623731
 10
-867.8360799468534
 20
1473.000190873769
 42
0.4142135623731
  0
LINE
  5
C3
330
1F
100
AcDbEntity
  8
0-B_寸法
  6
Continuous
 62
   120
370
     5
100
AcDbLine
 10
-855.8353376274023
 20
1834.500190873769
 30
0.0
 11
-855.8353376274023
 21
1294.49996817793
 31
0.0
  0
LWPOLYLINE
  5
C4
330
1F
100
AcDbEntity
  8
0-B_寸法
  6
Continuous
 62
     7
370
     9
100
AcDbPolyline
 90
        4
 70
     1
 43
3.0
 10
-674.335486091296
 20
1294.49996817793
 42
0.4142135623731
 10
-675.835486091296
 20
1295.99996817793
 42
0.4142135623731
 10
-677.335486091296
 20
1294.49996817793
 42
0.4142135623731
 10
-675.835486091296
 20
1292.99996817793
 42
0.4142135623731
  0
LWPOLYLINE
  5
C5
330
1F
100
AcDbEntity
  8
0-B_寸法
  6
Continuous
 62
     7
370
     9
100
AcDbPolyline
 90
        4
 70
     1
 43
3.0
 10
-674.335486091296
 20
1114.499745482088
 42
0.4142135623731
 10
-675.835486091296
 20
1115.999745482088
 42
0.4142135623731
 10
-677.335486091296
 20
1114.499745482088
 42
0.4142135623731
 10
-675.835486091296
 20
1112.999745482088
 42
0.4142135623731
  0
LWPOLYLINE
  5
C6
330
1F
100
AcDbEntity
  8
0-B_寸法
  6
Continuous
 62
     7
370
     9
100
AcDbPolyline
 90
        4
 70
     1
 43
3.0
 10
-854.3353376274023
 20
1294.49996817793
 42
0.4142135623731
 10
-855.8353376274023
 20
1295.99996817793
 42
0.4142135623731
 10
-857.3353376274023
 20
1294.49996817793
 42
0.4142135623731
 10
-855.8353376274023
 20
1292.99996817793
 42
0.4142135623731
  0
LINE
  5
C7
330
1F
100
AcDbEntity
  8
0-B_寸法
  6
Continuous
 62
   120
370
     5
100
AcDbLine
 10
-675.835486091296
 20
1834.500190873769
 30
0.0
 11
-675.835486091296
 21
1114.499745482088
 31
0.0
  0
LINE
  5
C8
330
1F
100
AcDbEntity
  8
0-C_ハッチ
  6
JWW_DASHED1
 62
   120
370
     5
100
AcDbLine
 10
-675.835486091296
 20
2098.942207475332
 30
0.0
 11
-613.277255253035
 21
2161.500438313593
 31
0.0
  0
LINE
  5
C9
330
1F
100
AcDbEntity
  8
0-C_ハッチ
  6
JWW_DASHED1
 62
   120
370
     5
100
AcDbLine
 10
-645.85171814366
 20
2086.500190873769
 30
0.0
 11
-570.8514707038382
 21
2161.500438313593
 31
0.0
  0
LINE
  5
CA
330
1F
100
AcDbEntity
  8
0-C_ハッチ
  6
JWW_DASHED1
 62
   120
370
     5
100
AcDbLine
 10
-603.4251912749944
 20
2086.500190873769
 30
0.0
 11
-528.4249438351726
 21
2161.500438313593
 31
0.0
  0
LINE
  5
CB
330
1F
100
AcDbEntity
  8
0-C_ハッチ
  6
JWW_DASHED1
 62
   120
370
     5
100
AcDbLine
 10
-560.9986644063288
 20
2086.500190873769
 30
0.0
 11
-485.998416966507
 21
2161.500438313593
 31
0.0
  0
LINE
  5
CC
330
1F
100
AcDbEntity
  8
0-C_ハッチ
  6
JWW_DASHED1
 62
   120
370
     5
100
AcDbLine
 10
-518.5721375376631
 20
2086.500190873769
 30
0.0
 11
-443.5718900978413
 21
2161.500438313593
 31
0.0
  0
LINE
  5
CD
330
1F
100
AcDbEntity
  8
0-C_ハッチ
  6
JWW_DASHED1
 62
   120
370
     5
100
AcDbLine
 10
-476.1463529884663
 20
2086.500190873769
 30
0.0
 11
-401.1461055486428
 21
2161.500438313593
 31
0.0
  0
LINE
  5
CE
330
1F
100
AcDbEntity
  8
0-C_ハッチ
  6
JWW_DASHED1
 62
   120
370
     5
100
AcDbLine
 10
-433.7198261198007
 20
2086.500190873769
 30
0.0
 11
-358.7195786799772
 21
2161.500438313593
 31
0.0
  0
LINE
  5
CF
330
1F
100
AcDbEntity
  8
0-C_ハッチ
  6
JWW_DASHED1
 62
   120
370
     5
100
AcDbLine
 10
-391.2940415706022
 20
2086.500190873769
 30
0.0
 11
-316.2937941307804
 21
2161.500438313593
 31
0.0
  0
LINE
  5
D0
330
1F
100
AcDbEntity
  8
0-C_ハッチ
  6
JWW_DASHED1
 62
   120
370
     5
100
AcDbLine
 10
-348.8675147019379
 20
2086.500190873769
 30
0.0
 11
-273.8672672621148
 21
2161.500438313593
 31
0.0
  0
LINE
  5
D1
330
1F
100
AcDbEntity
  8
0-C_ハッチ
  6
JWW_DASHED1
 62
   120
370
     5
100
AcDbLine
 10
-264.0144609646066
 20
2086.500190873769
 30
0.0
 11
-189.0142135247835
 21
2161.500438313593
 31
0.0
  0
LINE
  5
D2
330
1F
100
AcDbEntity
  8
0-C_ハッチ
  6
JWW_DASHED1
 62
   120
370
     5
100
AcDbLine
 10
-221.5886764154085
 20
2086.500190873769
 30
0.0
 11
-146.5884289755867
 21
2161.500438313593
 31
0.0
  0
LINE
  5
D3
330
1F
100
AcDbEntity
  8
0-C_ハッチ
  6
JWW_DASHED1
 62
   120
370
     5
100
AcDbLine
 10
-179.1621495467429
 20
2086.500190873769
 30
0.0
 11
-104.1619021069211
 21
2161.500438313593
 31
0.0
  0
LINE
  5
D4
330
1F
100
AcDbEntity
  8
0-C_ハッチ
  6
Continuous
 62
   120
370
     5
100
AcDbLine
 10
-855.8360799468404
 20
2562.142020607322
 30
0.0
 11
-773.477909680392
 21
2644.500190873769
 31
0.0
  0
LINE
  5
D5
330
1F
100
AcDbEntity
  8
0-C_ハッチ
  6
Continuous
 62
   120
370
     5
100
AcDbLine
 10
-855.8360799468609
 20
2383.951111748304
 30
0.0
 11
-675.835486091296
 21
2563.951705603869
 31
0.0
  0
LINE
  5
D6
330
1F
100
AcDbEntity
  8
0-C_ハッチ
  6
Continuous
 62
   120
370
     5
100
AcDbLine
 10
-855.8360799468609
 20
2443.348081368006
 30
0.0
 11
-675.835486091296
 21
2623.348675223571
 31
0.0
  0
LINE
  5
D7
330
1F
100
AcDbEntity
  8
0-C_ハッチ
  6
Continuous
 62
   120
370
     5
100
AcDbLine
 10
-855.8360799468506
 20
2502.745050987663
 30
0.0
 11
-714.0809400607448
 21
2644.500190873769
 31
0.0
  0
LINE
  5
D8
330
1F
100
AcDbEntity
  8
0-C_ハッチ
  6
Continuous
 62
   120
370
     5
100
AcDbLine
 10
-855.8360799468575
 20
2324.55414212866
 30
0.0
 11
-675.8354860912773
 21
2504.554735984241
 31
0.0
  0
LINE
  5
D9
330
1F
100
AcDbEntity
  8
0-C_ハッチ
  6
Continuous
 62
   120
370
     5
100
AcDbLine
 10
-855.8360799468737
 20
2265.157172508944
 30
0.0
 11
-675.8354860912943
 21
2445.157766364523
 31
0.0
  0
LINE
  5
DA
330
1F
100
AcDbEntity
  8
0-C_ハッチ
  6
Continuous
 62
   120
370
     5
100
AcDbLine
 10
-855.8360799468533
 20
2205.760202889315
 30
0.0
 11
-675.8354860912739
 21
2385.760796744895
 31
0.0
  0
LINE
  5
DB
330
1F
100
AcDbEntity
  8
0-C_ハッチ
  6
Continuous
 62
   120
370
     5
100
AcDbLine
 10
-855.8360799468652
 20
2146.363233269656
 30
0.0
 11
-675.8354860912858
 21
2326.363827125236
 31
0.0
  0
LINE
  5
DC
330
1F
100
AcDbEntity
  8
0-C_ハッチ
  6
Continuous
 62
   120
370
     5
100
AcDbLine
 10
-855.8360799468669
 20
2086.966263649954
 30
0.0
 11
-675.8354860913021
 21
2266.966857505518
 31
0.0
  0
LINE
  5
DD
330
1F
100
AcDbEntity
  8
0-C_ハッチ
  6
Continuous
 62
   120
370
     5
100
AcDbLine
 10
-809.5082134837053
 20
2014.500190873767
 30
0.0
 11
-675.8354860912987
 21
2148.172918266172
 31
0.0
  0
LINE
  5
DE
330
1F
100
AcDbEntity
  8
0-C_ハッチ
  6
Continuous
 62
   120
370
     5
100
AcDbLine
 10
-750.1112438640673
 20
2014.500190873756
 30
0.0
 11
-675.835486091279
 21
2088.775948646545
 31
0.0
  0
LINE
  5
DF
330
1F
100
AcDbEntity
  8
0-C_ハッチ
  6
Continuous
 62
   120
370
     5
100
AcDbLine
 10
-690.7142742444107
 20
2014.500190873765
 30
0.0
 11
-675.8354860912901
 21
2029.378979026886
 31
0.0
  0
LINE
  5
E0
330
1F
100
AcDbEntity
  8
0-4_枠
  6
Continuous
 62
    92
370
    13
100
AcDbLine
 10
-831.8360799468691
 20
2644.500190873769
 30
0.0
 11
-675.835486091296
 21
2644.500190873769
 31
0.0
  0
LINE
  5
E1
330
1F
100
AcDbEntity
  8
0-4_枠
  6
Continuous
 62
    92
370
    13
100
AcDbLine
 10
-855.8360799468703
 20
2038.500190873771
 30
0.0
 11
-831.8360799468691
 21
2014.500190873769
 31
0.0
  0
LINE
  5
E2
330
1F
100
AcDbEntity
  8
0-4_枠
  6
Continuous
 62
    92
370
    13
100
AcDbLine
 10
-831.8360799468691
 20
2014.500190873769
 30
0.0
 11
-675.835486091296
 21
2014.500190873769
 31
0.0
  0
LINE
  5
E3
330
1F
100
AcDbEntity
  8
0-4_枠
  6
Continuous
 62
    92
370
    13
100
AcDbLine
 10
-855.8360799468703
 20
2038.500190873771
 30
0.0
 11
-855.8360799468703
 21
2620.500190873769
 31
0.0
  0
LINE
  5
E4
330
1F
100
AcDbEntity
  8
0-4_枠
  6
Continuous
 62
    92
370
    13
100
AcDbLine
 10
-831.8360799468691
 20
2644.500190873769
 30
0.0
 11
-855.8360799468703
 21
2620.500190873769
 31
0.0
  0
LINE
  5
E5
330
1F
100
AcDbEntity
  8
0-4_枠
  6
Continuous
 62
    92
370
    13
100
AcDbLine
 10
-675.835486091296
 20
2014.500190873769
 30
0.0
 11
-675.835486091296
 21
2644.500190873769
 31
0.0
  0
LINE
  5
E6
330
1F
100
AcDbEntity
  8
0-1_通り芯
  6
JWW_CENTER1
 62
   120
370
     5
100
AcDbLine
 10
-5679.83630264269
 20
2329.500190873769
 30
0.0
 11
-75.83548609129608
 21
2329.500190873769
 31
0.0
  0
LINE
  5
E7
330
1F
100
AcDbEntity
  8
0-3_仕上げ
  6
Continuous
 62
    40
370
    15
100
AcDbLine
 10
-675.835486091296
 20
2161.500438313593
 30
0.0
 11
-75.83548609129608
 21
2161.500438313593
 31
0.0
  0
LINE
  5
E8
330
1F
100
AcDbEntity
  8
0-3_仕上げ
  6
Continuous
 62
    40
370
    15
100
AcDbLine
 10
-675.835486091296
 20
2086.500190873769
 30
0.0
 11
-75.83548609129608
 21
2086.500190873769
 31
0.0
  0
LINE
  5
E9
330
1F
100
AcDbEntity
  8
0-C_ハッチ
  6
JWW_DASHED1
 62
   120
370
     5
100
AcDbLine
 10
-94.30983812888044
 20
2086.500190873769
 30
0.0
 11
-75.83548609129608
 21
2104.974542911355
 31
0.0
  0
LINE
  5
EA
330
1F
100
AcDbEntity
  8
0-C_ハッチ
  6
JWW_DASHED1
 62
   120
370
     5
100
AcDbLine
 10
-136.7363649975461
 20
2086.500190873769
 30
0.0
 11
-75.83548609129608
 21
2147.400467015867
 31
0.0
  0
LINE
  5
EB
330
1F
100
AcDbEntity
  8
0-0_補助線
  6
JWW_HOJO
 62
   120
370
     5
100
AcDbLine
 10
-75.83548609129608
 20
2824.500190873769
 30
0.0
 11
-75.83548609129608
 21
1834.500190873769
 31
0.0
  0
LINE
  5
EC
330
1F
100
AcDbEntity
  8
0-0_補助線
  6
JWW_HOJO
 62
   120
370
     5
100
AcDbLine
 10
-75.83548609129693
 20
1834.500190873769
 30
0.0
 11
-5679.83630264269
 21
1834.500190873769
 31
0.0
  0
LINE
  5
ED
330
1F
100
AcDbEntity
  8
0-0_補助線
  6
JWW_HOJO
 62
   120
370
     5
100
AcDbLine
 10
-5679.83630264269
 20
2824.500190873769
 30
0.0
 11
-5679.83630264269
 21
1834.500190873769
 31
0.0
  0
LINE
  5
EE
330
1F
100
AcDbEntity
  8
0-0_補助線
  6
JWW_HOJO
 62
   120
370
     5
100
AcDbLine
 10
-2877.836079946854
 20
2197.461154767351
 30
0.0
 11
-2877.836079946854
 21
2824.500190873769
 31
0.0
  0
LINE
  5
EF
330
1F
100
AcDbEntity
  8
0-0_補助線
  6
JWW_HOJO
 62
   120
370
     5
100
AcDbLine
 10
-75.83548609129608
 20
2824.500190873769
 30
0.0
 11
-5679.83630264269
 21
2824.500190873769
 31
0.0
  0
LINE
  5
F0
330
1F
100
AcDbEntity
  8
0-3_仕上げ
  6
Continuous
 62
    92
370
    13
100
AcDbLine
 10
-5109.836401618621
 20
2161.500438313593
 30
0.0
 11
-5109.836401618621
 21
2645.991703141936
 31
0.0
  0
LINE
  5
F1
330
1F
100
AcDbEntity
  8
0-3_仕上げ
  6
Continuous
 62
    92
370
    13
100
AcDbLine
 10
-645.8353871153689
 20
2161.500438313593
 30
0.0
 11
-645.8353871153689
 21
2613.380484767104
 31
0.0
  0
LINE
  5
F2
330
1F
100
AcDbEntity
  8
0-4_枠
  6
Continuous
 62
    92
370
    13
100
AcDbLine
 10
-5079.83630264269
 20
2014.500190873769
 30
0.0
 11
-5079.83630264269
 21
2644.500190873769
 31
0.0
  0
LWPOLYLINE
  5
F3
330
1F
100
AcDbEntity
  8
0-B_寸法
  6
Continuous
 62
     7
370
     9
100
AcDbPolyline
 90
        4
 70
     1
 43
3.0
 10
-644.3353871153697
 20
1114.499745482088
 42
0.4142135623731
 10
-645.8353871153697
 20
1115.999745482088
 42
0.4142135623731
 10
-647.3353871153697
 20
1114.499745482088
 42
0.4142135623731
 10
-645.8353871153697
 20
1112.999745482088
 42
0.4142135623731
  0
LWPOLYLINE
  5
F4
330
1F
100
AcDbEntity
  8
0-B_寸法
  6
Continuous
 62
     7
370
     9
100
AcDbPolyline
 90
        4
 70
     1
 43
3.0
 10
-5108.33640161862
 20
1114.499745482088
 42
0.4142135623731
 10
-5109.836401618621
 20
1115.999745482088
 42
0.4142135623731
 10
-5111.336401618621
 20
1114.499745482088
 42
0.4142135623731
 10
-5109.836401618621
 20
1112.999745482088
 42
0.4142135623731
  0
LINE
  5
F5
330
1F
100
AcDbEntity
  8
0-B_寸法
  6
Continuous
 62
   120
370
     5
100
AcDbLine
 10
-5109.836401618621
 20
1114.499745482088
 30
0.0
 11
-645.8353871153697
 21
1114.499745482088
 31
0.0
  0
LINE
  5
F6
330
1F
100
AcDbEntity
  8
0-7_金物
  6
Continuous
 62
     7
370
     9
100
AcDbLine
 10
-4836.232224077292
 20
2516.953418350204
 30
0.0
 11
-4806.71267081497
 21
2301.004263310759
 31
0.0
  0
LINE
  5
F7
330
1F
100
AcDbEntity
  8
0-7_金物
  6
Continuous
 62
     7
370
     9
100
AcDbLine
 10
-4836.232224077292
 20
2516.953418350204
 30
0.0
 11
-4878.231212732635
 21
2517.244883490833
 31
0.0
  0
LINE
  5
F8
330
1F
100
AcDbEntity
  8
0-7_金物
  6
Continuous
 62
     7
370
     9
100
AcDbLine
 10
-4887.945129577822
 20
2507.116472112024
 30
0.0
 11
-4889.234290079634
 21
2490.357385588498
 31
0.0
  0
LINE
  5
F9
330
1F
100
AcDbEntity
  8
0-7_金物
  6
Continuous
 62
     7
370
     9
100
AcDbLine
 10
-4887.945129577822
 20
2507.116472112024
 30
0.0
 11
-4878.179246858108
 21
2514.44088415181
 31
0.0
  0
LINE
  5
FA
330
1F
100
AcDbEntity
  8
0-7_金物
  6
Continuous
 62
     7
370
     9
100
AcDbLine
 10
-4878.231212732635
 20
2517.244883490833
 30
0.0
 11
-4877.336079946848
 21
2468.944883490832
 31
0.0
  0
LINE
  5
FB
330
1F
100
AcDbEntity
  8
0-7_金物
  6
Continuous
 62
     7
370
     9
100
AcDbLine
 10
-4899.836079946848
 20
2468.944883490832
 30
0.0
 11
-4899.836079946848
 21
2313.544883490834
 31
0.0
  0
LINE
  5
FC
330
1F
100
AcDbEntity
  8
0-7_金物
  6
Continuous
 62
     7
370
     9
100
AcDbLine
 10
-4806.71267081497
 20
2301.004263310759
 30
0.0
 11
-4752.153556720516
 21
2248.869998731616
 31
0.0
  0
LINE
  5
FD
330
1F
100
AcDbEntity
  8
0-7_金物
  6
Continuous
 62
     7
370
     9
100
AcDbLine
 10
-4880.670581031894
 20
2488.930100747207
 30
0.0
 11
-4889.234290079634
 21
2490.357385588498
 31
0.0
  0
LINE
  5
FE
330
1F
100
AcDbEntity
  8
0-7_金物
  6
Continuous
 62
     7
370
     9
100
AcDbLine
 10
-4880.670581031894
 20
2488.930100747207
 30
0.0
 11
-4880.670581031894
 21
2496.204649293136
 31
0.0
  0
LINE
  5
FF
330
1F
100
AcDbEntity
  8
0-7_金物
  6
Continuous
 62
     7
370
     9
100
AcDbLine
 10
-4880.670581031894
 20
2496.204649293136
 30
0.0
 11
-4877.867255606297
 21
2497.606312005933
 31
0.0
  0
LINE
  5
100
330
1F
100
AcDbEntity
  8
0-7_金物
  6
Continuous
 62
     7
370
     9
100
AcDbLine
 10
-4752.153556720516
 20
2248.869998731616
 30
0.0
 11
-4750.707375393953
 21
2218.50019087377
 31
0.0
  0
LINE
  5
101
330
1F
100
AcDbEntity
  8
0-7_金物
  6
Continuous
 62
     7
370
     9
100
AcDbLine
 10
-4831.48091497238
 20
2218.50019087377
 30
0.0
 11
-4690.18091497238
 21
2218.50019087377
 31
0.0
  0
LINE
  5
102
330
1F
100
AcDbEntity
  8
0-7_金物
  6
Continuous
 62
     7
370
     9
100
AcDbLine
 10
-4773.960076940194
 20
2218.50019087377
 30
0.0
 11
-4877.029301062505
 21
2266.405604902448
 31
0.0
  0
LINE
  5
103
330
1F
100
AcDbEntity
  8
0-7_金物
  6
Continuous
 62
     7
370
     9
100
AcDbLine
 10
-4899.836079946848
 20
2313.544883490834
 30
0.0
 11
-4877.319460464961
 21
2313.544883490834
 31
0.0
  0
LINE
  5
104
330
1F
100
AcDbEntity
  8
0-7_金物
  6
Continuous
 62
     7
370
     9
100
AcDbLine
 10
-4877.029301062505
 20
2266.405604902448
 30
0.0
 11
-4877.336079946848
 21
2316.244883490832
 31
0.0
  0
LINE
  5
105
330
1F
100
AcDbEntity
  8
0-7_金物
  6
Continuous
 62
     7
370
     9
100
AcDbLine
 10
-4899.836079946848
 20
2468.944883490832
 30
0.0
 11
-4877.336079946848
 21
2468.944883490832
 31
0.0
  0
LINE
  5
106
330
1F
100
AcDbEntity
  8
0-7_金物
  6
Continuous
 62
     7
370
     9
100
AcDbLine
 10
-4877.336079946848
 20
2313.544883490834
 30
0.0
 11
-4877.336079946848
 21
2468.944883490832
 31
0.0
  0
LINE
  5
107
330
1F
100
AcDbEntity
  8
0-7_金物
  6
JWW_DASHED1
 62
     7
370
     9
100
AcDbLine
 10
-4831.48091497238
 20
2218.50019087377
 30
0.0
 11
-4831.48091497238
 21
2176.557630056308
 31
0.0
  0
LINE
  5
108
330
1F
100
AcDbEntity
  8
0-7_金物
  6
JWW_DASHED1
 62
     7
370
     9
100
AcDbLine
 10
-4690.18091497238
 20
2218.50019087377
 30
0.0
 11
-4690.18091497238
 21
2176.557630056308
 31
0.0
  0
LINE
  5
109
330
1F
100
AcDbEntity
  8
0-7_金物
  6
JWW_DASHED1
 62
     7
370
     9
100
AcDbLine
 10
-4831.48091497238
 20
2176.557630056308
 30
0.0
 11
-4690.18091497238
 21
2176.557630056308
 31
0.0
  0
LINE
  5
10A
330
1F
100
AcDbEntity
  8
0-7_金物
  6
Continuous
 62
     7
370
     9
100
AcDbLine
 10
-919.4399358164235
 20
2516.953418350204
 30
0.0
 11
-948.9594890787446
 21
2301.004263310759
 31
0.0
  0
LINE
  5
10B
330
1F
100
AcDbEntity
  8
0-7_金物
  6
Continuous
 62
     7
370
     9
100
AcDbLine
 10
-919.4399358164235
 20
2516.953418350204
 30
0.0
 11
-877.44094716108
 21
2517.244883490833
 31
0.0
  0
LINE
  5
10C
330
1F
100
AcDbEntity
  8
0-7_金物
  6
Continuous
 62
     7
370
     9
100
AcDbLine
 10
-867.7270303158928
 20
2507.116472112024
 30
0.0
 11
-866.4378698140813
 21
2490.357385588498
 31
0.0
  0
LINE
  5
10D
330
1F
100
AcDbEntity
  8
0-7_金物
  6
Continuous
 62
     7
370
     9
100
AcDbLine
 10
-867.7270303158928
 20
2507.116472112024
 30
0.0
 11
-877.492913035607
 21
2514.44088415181
 31
0.0
  0
LINE
  5
10E
330
1F
100
AcDbEntity
  8
0-7_金物
  6
Continuous
 62
     7
370
     9
100
AcDbLine
 10
-877.44094716108
 20
2517.244883490833
 30
0.0
 11
-878.3360799468669
 21
2468.944883490832
 31
0.0
  0
LINE
  5
10F
330
1F
100
AcDbEntity
  8
0-7_金物
  6
Continuous
 62
     7
370
     9
100
AcDbLine
 10
-855.8360799468669
 20
2468.944883490832
 30
0.0
 11
-855.8360799468669
 21
2313.544883490834
 31
0.0
  0
LINE
  5
110
330
1F
100
AcDbEntity
  8
0-7_金物
  6
Continuous
 62
     7
370
     9
100
AcDbLine
 10
-948.9594890787446
 20
2301.004263310759
 30
0.0
 11
-1003.518603173199
 21
2248.869998731616
 31
0.0
  0
LINE
  5
111
330
1F
100
AcDbEntity
  8
0-7_金物
  6
Continuous
 62
     7
370
     9
100
AcDbLine
 10
-875.0015788618184
 20
2488.930100747207
 30
0.0
 11
-866.4378698140813
 21
2490.357385588498
 31
0.0
  0
LINE
  5
112
330
1F
100
AcDbEntity
  8
0-7_金物
  6
Continuous
 62
     7
370
     9
100
AcDbLine
 10
-875.0015788618184
 20
2488.930100747207
 30
0.0
 11
-875.0015788618184
 21
2496.204649293136
 31
0.0
  0
LINE
  5
113
330
1F
100
AcDbEntity
  8
0-7_金物
  6
Continuous
 62
     7
370
     9
100
AcDbLine
 10
-875.0015788618184
 20
2496.204649293136
 30
0.0
 11
-877.8049042874186
 21
2497.606312005933
 31
0.0
  0
LINE
  5
114
330
1F
100
AcDbEntity
  8
0-7_金物
  6
Continuous
 62
     7
370
     9
100
AcDbLine
 10
-1003.518603173199
 20
2248.869998731616
 30
0.0
 11
-1004.964784499762
 21
2218.50019087377
 31
0.0
  0
LINE
  5
115
330
1F
100
AcDbEntity
  8
0-7_金物
  6
Continuous
 62
     7
370
     9
100
AcDbLine
 10
-924.1912449213332
 20
2218.50019087377
 30
0.0
 11
-1065.491244921334
 21
2218.50019087377
 31
0.0
  0
LINE
  5
116
330
1F
100
AcDbEntity
  8
0-7_金物
  6
Continuous
 62
     7
370
     9
100
AcDbLine
 10
-981.7120829535189
 20
2218.50019087377
 30
0.0
 11
-878.6428588312099
 21
2266.405604902448
 31
0.0
  0
LINE
  5
117
330
1F
100
AcDbEntity
  8
0-7_金物
  6
Continuous
 62
     7
370
     9
100
AcDbLine
 10
-855.8360799468669
 20
2313.544883490834
 30
0.0
 11
-878.352699428754
 21
2313.544883490834
 31
0.0
  0
LINE
  5
118
330
1F
100
AcDbEntity
  8
0-7_金物
  6
Continuous
 62
     7
370
     9
100
AcDbLine
 10
-878.6428588312099
 20
2266.405604902448
 30
0.0
 11
-878.3360799468669
 21
2316.244883490832
 31
0.0
  0
LINE
  5
119
330
1F
100
AcDbEntity
  8
0-7_金物
  6
Continuous
 62
     7
370
     9
100
AcDbLine
 10
-855.8360799468669
 20
2468.944883490832
 30
0.0
 11
-878.3360799468669
 21
2468.944883490832
 31
0.0
  0
LINE
  5
11A
330
1F
100
AcDbEntity
  8
0-7_金物
  6
Continuous
 62
     7
370
     9
100
AcDbLine
 10
-878.3360799468669
 20
2313.544883490834
 30
0.0
 11
-878.3360799468669
 21
2468.944883490832
 31
0.0
  0
LINE
  5
11B
330
1F
100
AcDbEntity
  8
0-7_金物
  6
JWW_DASHED1
 62
     7
370
     9
100
AcDbLine
 10
-924.1912449213332
 20
2218.50019087377
 30
0.0
 11
-924.1912449213332
 21
2176.557630056308
 31
0.0
  0
LINE
  5
11C
330
1F
100
AcDbEntity
  8
0-7_金物
  6
JWW_DASHED1
 62
     7
370
     9
100
AcDbLine
 10
-1065.491244921334
 20
2218.50019087377
 30
0.0
 11
-1065.491244921334
 21
2176.557630056308
 31
0.0
  0
LINE
  5
11D
330
1F
100
AcDbEntity
  8
0-7_金物
  6
JWW_DASHED1
 62
     7
370
     9
100
AcDbLine
 10
-924.1912449213332
 20
2176.557630056308
 30
0.0
 11
-1065.491244921334
 21
2176.557630056308
 31
0.0
  0
LWPOLYLINE
  5
11E
330
1F
100
AcDbEntity
  8
0-B_寸法
  6
Continuous
 62
     7
370
     9
100
AcDbPolyline
 90
        4
 70
     1
 43
3.0
 10
-5108.33640161862
 20
934.4997454820881
 42
0.4142135623731
 10
-5109.836401618621
 20
935.9997454820881
 42
0.4142135623731
 10
-5111.336401618621
 20
934.4997454820881
 42
0.4142135623731
 10
-5109.836401618621
 20
932.999745482088
 42
0.4142135623731
  0
LWPOLYLINE
  5
11F
330
1F
100
AcDbEntity
  8
0-B_寸法
  6
Continuous
 62
     7
370
     9
100
AcDbPolyline
 90
        4
 70
     1
 43
3.0
 10
-644.3353871153697
 20
934.4997454820881
 42
0.4142135623731
 10
-645.8353871153697
 20
935.9997454820881
 42
0.4142135623731
 10
-647.3353871153697
 20
934.4997454820881
 42
0.4142135623731
 10
-645.8353871153697
 20
932.999745482088
 42
0.4142135623731
  0
LINE
  5
120
330
1F
100
AcDbEntity
  8
0-B_寸法
  6
Continuous
 62
   120
370
     5
100
AcDbLine
 10
-5109.836401618621
 20
934.4997454820881
 30
0.0
 11
-645.8353871153697
 21
934.4997454820881
 31
0.0
  0
LINE
  5
121
330
1F
100
AcDbEntity
  8
0-B_寸法
  6
Continuous
 62
   120
370
     5
100
AcDbLine
 10
-645.8353871153697
 20
934.4997454820881
 30
0.0
 11
-645.8353871153697
 21
1834.500190873769
 31
0.0
  0
LINE
  5
122
330
1F
100
AcDbEntity
  8
0-B_寸法
  6
Continuous
 62
   120
370
     5
100
AcDbLine
 10
-5109.836401618621
 20
934.4997454820881
 30
0.0
 11
-5109.836401618621
 21
1834.500190873769
 31
0.0
  0
LINE
  5
123
330
1F
100
AcDbEntity
  8
0-C_ハッチ
  6
Continuous
 62
   120
370
     5
100
AcDbLine
 10
-850.370631525136
 20
2033.034742452036
 30
0.0
 11
-675.8354860912816
 21
2207.56988788589
 31
0.0
  0
LINE
  5
124
330
1F
100
AcDbEntity
  8
0-7_金物
  6
Continuous
 62
     7
370
     9
100
AcDbLine
 10
-657.8358226094538
 20
2239.499893945983
 30
0.0
 11
-657.8358226094538
 21
2419.499745482089
 31
0.0
  0
LINE
  5
125
330
1F
100
AcDbEntity
  8
0-7_金物
  6
Continuous
 62
     7
370
     9
100
AcDbLine
 10
-645.835486091296
 20
2419.499745482089
 30
0.0
 11
-657.8358226094538
 21
2419.499745482089
 31
0.0
  0
LINE
  5
126
330
1F
100
AcDbEntity
  8
0-7_金物
  6
Continuous
 62
     7
370
     9
100
AcDbLine
 10
-645.835486091296
 20
2239.499893945983
 30
0.0
 11
-657.8358226094538
 21
2239.499893945983
 31
0.0
  0
LINE
  5
127
330
1F
100
AcDbEntity
  8
0-7_金物
  6
Continuous
 62
     7
370
     9
100
AcDbLine
 10
-657.8358226094538
 20
2269.499992921911
 30
0.0
 11
-669.8354168081461
 21
2269.499992921911
 31
0.0
  0
LINE
  5
128
330
1F
100
AcDbEntity
  8
0-7_金物
  6
Continuous
 62
     7
370
     9
100
AcDbLine
 10
-657.8358226094538
 20
2389.499646506159
 30
0.0
 11
-669.8354168081461
 21
2389.499646506159
 31
0.0
  0
LINE
  5
129
330
1F
100
AcDbEntity
  8
0-7_金物
  6
Continuous
 62
     7
370
     9
100
AcDbLine
 10
-669.8354168081461
 20
2269.499992921911
 30
0.0
 11
-669.8354168081461
 21
2389.499646506159
 31
0.0
  0
LINE
  5
12A
330
1F
100
AcDbEntity
  8
0-7_金物
  6
Continuous
 62
     7
370
     9
100
AcDbLine
 10
-669.8354168081461
 20
2383.500220566548
 30
0.0
 11
-675.835486091296
 21
2383.500220566548
 31
0.0
  0
LINE
  5
12B
330
1F
100
AcDbEntity
  8
0-7_金物
  6
Continuous
 62
     7
370
     9
100
AcDbLine
 10
-669.8354168081461
 20
2275.50016118099
 30
0.0
 11
-675.835486091296
 21
2275.50016118099
 31
0.0
  0
LINE
  5
12C
330
1F
100
AcDbEntity
  8
0-7_金物
  6
Continuous
 62
     7
370
     9
100
AcDbLine
 10
-645.835486091296
 20
2239.499893945983
 30
0.0
 11
-645.835486091296
 21
2419.499745482089
 31
0.0
  0
LINE
  5
12D
330
1F
100
AcDbEntity
  8
0-7_金物
  6
Continuous
 62
     7
370
     9
100
AcDbLine
 10
-5097.835966124532
 20
2419.500487801556
 30
0.0
 11
-5097.835966124532
 21
2239.50063626545
 31
0.0
  0
LINE
  5
12E
330
1F
100
AcDbEntity
  8
0-7_金物
  6
Continuous
 62
     7
370
     9
100
AcDbLine
 10
-5109.83630264269
 20
2239.50063626545
 30
0.0
 11
-5097.835966124532
 21
2239.50063626545
 31
0.0
  0
LINE
  5
12F
330
1F
100
AcDbEntity
  8
0-7_金物
  6
Continuous
 62
     7
370
     9
100
AcDbLine
 10
-5109.83630264269
 20
2419.500487801556
 30
0.0
 11
-5097.835966124532
 21
2419.500487801556
 31
0.0
  0
LINE
  5
130
330
1F
100
AcDbEntity
  8
0-7_金物
  6
Continuous
 62
     7
370
     9
100
AcDbLine
 10
-5097.835966124532
 20
2389.500388825628
 30
0.0
 11
-5085.83637192584
 21
2389.500388825628
 31
0.0
  0
LINE
  5
131
330
1F
100
AcDbEntity
  8
0-7_金物
  6
Continuous
 62
     7
370
     9
100
AcDbLine
 10
-5097.835966124532
 20
2269.50073524138
 30
0.0
 11
-5085.83637192584
 21
2269.50073524138
 31
0.0
  0
LINE
  5
132
330
1F
100
AcDbEntity
  8
0-7_金物
  6
Continuous
 62
     7
370
     9
100
AcDbLine
 10
-5085.83637192584
 20
2389.500388825628
 30
0.0
 11
-5085.83637192584
 21
2269.50073524138
 31
0.0
  0
LINE
  5
133
330
1F
100
AcDbEntity
  8
0-7_金物
  6
Continuous
 62
     7
370
     9
100
AcDbLine
 10
-5085.83637192584
 20
2275.50016118099
 30
0.0
 11
-5079.83630264269
 21
2275.50016118099
 31
0.0
  0
LINE
  5
134
330
1F
100
AcDbEntity
  8
0-7_金物
  6
Continuous
 62
     7
370
     9
100
AcDbLine
 10
-5085.83637192584
 20
2383.500220566548
 30
0.0
 11
-5079.83630264269
 21
2383.500220566548
 31
0.0
  0
LINE
  5
135
330
1F
100
AcDbEntity
  8
0-7_金物
  6
Continuous
 62
     7
370
     9
100
AcDbLine
 10
-5109.83630264269
 20
2419.500487801556
 30
0.0
 11
-5109.83630264269
 21
2239.50063626545
 31
0.0
  0
LINE
  5
136
330
1F
100
AcDbEntity
  8
0-6_扉
  6
Continuous
 62
   200
370
    20
100
AcDbLine
 10
-2871.836079946853
 20
2200.500190873771
 30
0.0
 11
-867.8360799468534
 21
2200.500190873771
 31
0.0
  0
LINE
  5
137
330
1F
100
AcDbEntity
  8
0-6_扉
  6
Continuous
 62
   200
370
    20
100
AcDbLine
 10
-4887.836079946852
 20
2200.500190873771
 30
0.0
 11
-2883.836079946853
 21
2200.500190873771
 31
0.0
  0
LINE
  5
138
330
1F
100
AcDbEntity
  8
0-B_寸法
  6
Continuous
 62
   120
370
     5
100
AcDbLine
 10
-4296.62375684385
 20
2200.500190873771
 30
0.0
 11
-4225.2623594357
 21
2200.500190873771
 31
0.0
  0
LWPOLYLINE
  5
139
330
1F
100
AcDbEntity
  8
0-B_寸法
  6
Continuous
 62
     7
370
     9
100
AcDbPolyline
 90
        4
 70
     1
 43
3.0
 10
-4223.7623594357
 20
2200.500190873771
 42
0.4142135623731
 10
-4225.2623594357
 20
2202.000190873771
 42
0.4142135623731
 10
-4226.762359435701
 20
2200.500190873771
 42
0.4142135623731
 10
-4225.2623594357
 20
2199.000190873771
 42
0.4142135623731
  0
MTEXT
  5
13A
330
1F
100
AcDbEntity
  8
0-B_寸法
  6
Continuous
 62
     7
370
     0
100
AcDbMText
 10
-4522.229895270963
 20
2205.030507596743
 30
0.0
 40
99.06
 41
195.0
 46
0.0
 71
     7
 72
     1
  1
{\fＭＳ ゴシック|b0|i0|c128|p49;105}
 11
6.123031769111886E-17
 21
1.0
 31
0.0
 73
     1
 44
1.0
  0
MTEXT
  5
13B
330
1F
100
AcDbEntity
  8
0-B_寸法
  6
Continuous
 62
     7
370
   211
100
AcDbMText
 10
-4886.114920976412
 20
1475.22019087377
 30
0.0
 40
91.44
 41
60.0
 46
0.0
 71
     7
 72
     1
  1
{\fＭＳ ゴシック|b0|i0|c128|p49;2}
 73
     1
 44
1.0
  0
MTEXT
  5
13C
330
1F
100
AcDbEntity
  8
0-B_寸法
  6
Continuous
 62
     7
370
   211
100
AcDbMText
 10
-4185.836079946855
 20
1480.300190873769
 30
0.0
 40
101.6000000000001
 41
600.0000000000005
 46
0.0
 71
     7
 72
     1
  1
{\fＭＳ ゴシック|b0|i0|c128|p49;ＤＷ＝334}
 73
     1
 44
1.0
  0
MTEXT
  5
13D
330
1F
100
AcDbEntity
  8
0-B_寸法
  6
Continuous
 62
     7
370
   211
100
AcDbMText
 10
-2866.666453482151
 20
1475.22019087377
 30
0.0
 40
91.44
 41
60.0
 46
0.0
 71
     7
 72
     1
  1
{\fＭＳ ゴシック|b0|i0|c128|p49;2}
 73
     1
 44
1.0
  0
MTEXT
  5
13E
330
1F
100
AcDbEntity
  8
0-B_寸法
  6
Continuous
 62
     7
370
   211
100
AcDbMText
 10
-2169.836079946854
 20
1480.300190873769
 30
0.0
 40
101.6
 41
600.0
 46
0.0
 71
     7
 72
     1
  1
{\fＭＳ ゴシック|b0|i0|c128|p49;ＤＷ＝334}
 73
     1
 44
1.0
  0
MTEXT
  5
13F
330
1F
100
AcDbEntity
  8
0-B_寸法
  6
Continuous
 62
     7
370
   211
100
AcDbMText
 10
-930.4826804002424
 20
1475.22019087377
 30
0.0
 40
91.44
 41
60.0
 46
0.0
 71
     7
 72
     1
  1
{\fＭＳ ゴシック|b0|i0|c128|p49;2}
 73
     1
 44
1.0
  0
MTEXT
  5
140
330
1F
100
AcDbEntity
  8
0-B_寸法
  6
Continuous
 62
     7
370
     0
100
AcDbMText
 10
-5057.336389246626
 20
1298.077517665894
 30
0.0
 40
97.15499999999999
 41
127.5
 46
0.0
 71
     7
 72
     1
  1
{\fＭＳ ゴシック|b0|i0|c128|p49;30}
 73
     1
 44
1.0
  0
MTEXT
  5
141
330
1F
100
AcDbEntity
  8
0-B_寸法
  6
Continuous
 62
     7
370
     0
100
AcDbMText
 10
-833.3352386514734
 20
1298.077517665894
 30
0.0
 40
97.15499999999999
 41
127.5
 46
0.0
 71
     7
 72
     1
  1
{\fＭＳ ゴシック|b0|i0|c128|p49;30}
 73
     1
 44
1.0
  0
MTEXT
  5
142
330
1F
100
AcDbEntity
  8
0-B_寸法
  6
Continuous
 62
     7
370
     0
100
AcDbMText
 10
-3177.835894366992
 20
1297.299968177928
 30
0.0
 40
101.6
 41
600.0
 46
0.0
 71
     7
 72
     1
  1
{\fＭＳ ゴシック|b0|i0|c128|p49;枠内＝674}
 73
     1
 44
1.0
  0
MTEXT
  5
143
330
1F
100
AcDbEntity
  8
0-B_寸法
  6
Continuous
 62
     7
370
   211
100
AcDbMText
 10
-5068.143009365741
 20
1115.219745482088
 30
0.0
 40
91.44
 41
60.0
 46
0.0
 71
     7
 72
     1
  1
{\fＭＳ ゴシック|b0|i0|c128|p49;5}
 73
     1
 44
1.0
  0
MTEXT
  5
144
330
1F
100
AcDbEntity
  8
0-B_寸法
  6
Continuous
 62
     7
370
   211
100
AcDbMText
 10
-743.437127012799
 20
1115.219745482088
 30
0.0
 40
91.44
 41
60.0
 46
0.0
 71
     7
 72
     1
  1
{\fＭＳ ゴシック|b0|i0|c128|p49;5}
 73
     1
 44
1.0
  0
MTEXT
  5
145
330
1F
100
AcDbEntity
  8
0-B_寸法
  6
Continuous
 62
     7
370
     0
100
AcDbMText
 10
-3177.835894366992
 20
1117.299745482089
 30
0.0
 40
101.6
 41
600.0
 46
0.0
 71
     7
 72
     1
  1
{\fＭＳ ゴシック|b0|i0|c128|p49;枠外＝734}
 73
     1
 44
1.0
  0
MTEXT
  5
146
330
1F
100
AcDbEntity
  8
0-B_寸法
  6
Continuous
 62
     7
370
   211
100
AcDbMText
 10
-3245.335894366995
 20
930.6367493681828
 30
0.0
 40
101.8309090909091
 41
735.0
 46
0.0
 71
     7
 72
     1
  1
{\fＭＳ ゴシック|b0|i0|c128|p49;ＲＯＷ＝744}
 73
     1
 44
1.0
  0
MTEXT
  5
147
330
1F
100
AcDbEntity
  8
0-A_文字
  6
Continuous
 62
     7
370
     9
100
AcDbMText
 10
-5684.883234941845
 20
2926.160755482369
 30
0.0
 40
91.43999999999993
 41
1919.999999999999
 46
0.0
 71
     7
 72
     1
  1
{\fＭＳ ゴシック|b0|i0|c128|p49;■横断面図　Ｈ＝８尺、７尺、６尺}
 73
     1
 44
1.0
  0
LINE
  5
148
330
1F
100
AcDbEntity
  8
0-C_ハッチ
  6
JWW_DASHED1
 62
   120
370
     5
100
AcDbLine
 10
5471.609600523703
 20
2086.500190873769
 30
0.0
 11
5546.609847963527
 21
2161.500438313593
 31
0.0
  0
LWPOLYLINE
  5
149
330
1F
100
AcDbEntity
  8
0-B_寸法
  6
Continuous
 62
     7
370
     9
100
AcDbPolyline
 90
        4
 70
     1
 43
3.0
 10
2895.714508410122
 20
1474.500190873769
 42
0.4142135623731
 10
2894.214508410122
 20
1476.000190873769
 42
0.4142135623731
 10
2892.714508410122
 20
1474.500190873769
 42
0.4142135623731
 10
2894.214508410122
 20
1473.000190873769
 42
0.4142135623731
  0
LINE
  5
14A
330
1F
100
AcDbEntity
  8
0-B_寸法
  6
Continuous
 62
   120
370
     5
100
AcDbLine
 10
2894.214508410122
 20
1474.500190873769
 30
0.0
 11
2894.214508410122
 21
1834.500190873769
 31
0.0
  0
LWPOLYLINE
  5
14B
330
1F
100
AcDbEntity
  8
0-B_寸法
  6
Continuous
 62
     7
370
     9
100
AcDbPolyline
 90
        4
 70
     1
 43
3.0
 10
2907.714508410122
 20
1474.500190873769
 42
0.4142135623731
 10
2906.214508410122
 20
1476.000190873769
 42
0.4142135623731
 10
2904.714508410122
 20
1474.500190873769
 42
0.4142135623731
 10
2906.214508410122
 20
1473.000190873769
 42
0.4142135623731
  0
LINE
  5
14C
330
1F
100
AcDbEntity
  8
0-B_寸法
  6
Continuous
 62
   120
370
     5
100
AcDbLine
 10
2906.214508410122
 20
1474.500190873769
 30
0.0
 11
2906.214508410122
 21
1834.500190873769
 31
0.0
  0
LINE
  5
14D
330
1F
100
AcDbEntity
  8
0-B_寸法
  6
Continuous
 62
   120
370
     5
100
AcDbLine
 10
1090.820742573978
 20
2014.500190873769
 30
0.0
 11
1270.820742573978
 21
2014.500190873769
 31
0.0
  0
LWPOLYLINE
  5
14E
330
1F
100
AcDbEntity
  8
0-B_寸法
  6
Continuous
 62
     7
370
     9
100
AcDbPolyline
 90
        4
 70
     1
 43
3.0
 10
1272.320742573978
 20
2014.500190873769
 42
0.4142135623731
 10
1270.820742573978
 20
2016.000190873769
 42
0.4142135623731
 10
1269.320742573978
 20
2014.500190873769
 42
0.4142135623731
 10
1270.820742573978
 20
2013.000190873769
 42
0.4142135623731
  0
LINE
  5
14F
330
1F
100
AcDbEntity
  8
0-B_寸法
  6
Continuous
 62
   120
370
     5
100
AcDbLine
 10
1090.820742573978
 20
2644.500190873769
 30
0.0
 11
1270.820742573978
 21
2644.500190873769
 31
0.0
  0
LINE
  5
150
330
1F
100
AcDbEntity
  8
0-B_寸法
  6
Continuous
 62
   120
370
     5
100
AcDbLine
 10
1270.820742573978
 20
2644.500190873769
 30
0.0
 11
1270.820742573978
 21
2014.500190873769
 31
0.0
  0
LWPOLYLINE
  5
151
330
1F
100
AcDbEntity
  8
0-B_寸法
  6
Continuous
 62
     7
370
     9
100
AcDbPolyline
 90
        4
 70
     1
 43
3.0
 10
1272.320742573978
 20
2644.500190873769
 42
0.4142135623731
 10
1270.820742573978
 20
2646.000190873769
 42
0.4142135623731
 10
1269.320742573978
 20
2644.500190873769
 42
0.4142135623731
 10
1270.820742573978
 20
2643.000190873769
 42
0.4142135623731
  0
LINE
  5
152
330
1F
100
AcDbEntity
  8
0-4_枠
  6
Continuous
 62
    92
370
    13
100
AcDbLine
 10
854.2145084101263
 20
2644.500190873769
 30
0.0
 11
698.2142857142843
 21
2644.500190873769
 31
0.0
  0
LINE
  5
153
330
1F
100
AcDbEntity
  8
0-4_枠
  6
Continuous
 62
    92
370
    13
100
AcDbLine
 10
854.2145084101263
 20
2644.500190873769
 30
0.0
 11
878.2145084101267
 21
2620.500190873769
 31
0.0
  0
LINE
  5
154
330
1F
100
AcDbEntity
  8
0-4_枠
  6
Continuous
 62
    92
370
    13
100
AcDbLine
 10
878.2145084101267
 20
2038.500190873771
 30
0.0
 11
878.2145084101267
 21
2620.500190873769
 31
0.0
  0
LINE
  5
155
330
1F
100
AcDbEntity
  8
0-4_枠
  6
Continuous
 62
    92
370
    13
100
AcDbLine
 10
854.2145084101263
 20
2014.500190873769
 30
0.0
 11
698.2142857142843
 21
2014.500190873769
 31
0.0
  0
LINE
  5
156
330
1F
100
AcDbEntity
  8
0-4_枠
  6
Continuous
 62
    92
370
    13
100
AcDbLine
 10
878.2145084101267
 20
2038.500190873771
 30
0.0
 11
854.2145084101263
 21
2014.500190873769
 31
0.0
  0
LINE
  5
157
330
1F
100
AcDbEntity
  8
0-C_ハッチ
  6
Continuous
 62
   120
370
     5
100
AcDbLine
 10
833.4805222866582
 20
2014.500190873776
 30
0.0
 11
878.2145084101232
 21
2059.234176997239
 31
0.0
  0
LINE
  5
158
330
1F
100
AcDbEntity
  8
0-C_ハッチ
  6
Continuous
 62
   120
370
     5
100
AcDbLine
 10
774.0835526670161
 20
2014.50019087378
 30
0.0
 11
878.2145084101198
 21
2118.631146616884
 31
0.0
  0
LINE
  5
159
330
1F
100
AcDbEntity
  8
0-C_ハッチ
  6
Continuous
 62
   120
370
     5
100
AcDbLine
 10
714.6865830473142
 20
2014.50019087378
 30
0.0
 11
878.2145084101352
 21
2178.028116236601
 31
0.0
  0
LINE
  5
15A
330
1F
100
AcDbEntity
  8
0-C_ハッチ
  6
Continuous
 62
   120
370
     5
100
AcDbLine
 10
698.2142857142741
 20
2057.424863160387
 30
0.0
 11
878.2145084101215
 21
2237.425085856235
 31
0.0
  0
LINE
  5
15B
330
1F
100
AcDbEntity
  8
0-C_ハッチ
  6
Continuous
 62
   120
370
     5
100
AcDbLine
 10
698.2142857142843
 20
2116.821832780045
 30
0.0
 11
878.2145084101267
 21
2296.822055475887
 31
0.0
  0
LINE
  5
15C
330
1F
100
AcDbEntity
  8
0-C_ハッチ
  6
Continuous
 62
   120
370
     5
100
AcDbLine
 10
698.2142857142843
 20
2176.218802399747
 30
0.0
 11
878.2145084101267
 21
2356.219025095589
 31
0.0
  0
LINE
  5
15D
330
1F
100
AcDbEntity
  8
0-C_ハッチ
  6
Continuous
 62
   120
370
     5
100
AcDbLine
 10
698.2142857142809
 20
2235.61577201939
 30
0.0
 11
878.2145084101232
 21
2415.615994715232
 31
0.0
  0
LINE
  5
15E
330
1F
100
AcDbEntity
  8
0-C_ハッチ
  6
Continuous
 62
   120
370
     5
100
AcDbLine
 10
698.2142857142809
 20
2295.012741639092
 30
0.0
 11
878.2145084101232
 21
2475.012964334936
 31
0.0
  0
LINE
  5
15F
330
1F
100
AcDbEntity
  8
0-C_ハッチ
  6
Continuous
 62
   120
370
     5
100
AcDbLine
 10
698.2142857142775
 20
2354.409711258736
 30
0.0
 11
878.2145084101198
 21
2534.409933954578
 31
0.0
  0
LINE
  5
160
330
1F
100
AcDbEntity
  8
0-C_ハッチ
  6
Continuous
 62
   120
370
     5
100
AcDbLine
 10
698.2142857142928
 20
2413.806680878453
 30
0.0
 11
878.2145084101267
 21
2593.806903574287
 31
0.0
  0
LINE
  5
161
330
1F
100
AcDbEntity
  8
0-C_ハッチ
  6
Continuous
 62
   120
370
     5
100
AcDbLine
 10
698.2142857142894
 20
2473.203650498097
 30
0.0
 11
861.8626672500442
 21
2636.852032033852
 31
0.0
  0
LINE
  5
162
330
1F
100
AcDbEntity
  8
0-C_ハッチ
  6
Continuous
 62
   120
370
     5
100
AcDbLine
 10
698.2142857142843
 20
2532.600620117741
 30
0.0
 11
810.1138564703148
 21
2644.500190873769
 31
0.0
  0
LINE
  5
163
330
1F
100
AcDbEntity
  8
0-C_ハッチ
  6
Continuous
 62
   120
370
     5
100
AcDbLine
 10
698.2142857142758
 20
2585.026318798606
 30
0.0
 11
757.6881577894396
 21
2644.500190873769
 31
0.0
  0
LINE
  5
164
330
1F
100
AcDbEntity
  8
0-C_ハッチ
  6
JWW_DASHED1
 62
   120
370
     5
100
AcDbLine
 10
679.724963567433
 20
2086.500190873769
 30
0.0
 11
698.2142857142843
 21
2104.989141860891
 31
0.0
  0
LINE
  5
165
330
1F
100
AcDbEntity
  8
0-C_ハッチ
  6
JWW_DASHED1
 62
   120
370
     5
100
AcDbLine
 10
637.2984366987656
 20
2086.500190873769
 30
0.0
 11
698.2142857142843
 21
2147.416411049024
 31
0.0
  0
LINE
  5
166
330
1F
100
AcDbEntity
  8
0-C_ハッチ
  6
JWW_DASHED1
 62
   120
370
     5
100
AcDbLine
 10
594.8719098301017
 20
2086.500190873769
 30
0.0
 11
669.8721572699235
 21
2161.500438313593
 31
0.0
  0
LINE
  5
167
330
1F
100
AcDbEntity
  8
0-C_ハッチ
  6
JWW_DASHED1
 62
   120
370
     5
100
AcDbLine
 10
552.4457541211688
 20
2086.500190873769
 30
0.0
 11
627.4460015609923
 21
2161.500438313593
 31
0.0
  0
LINE
  5
168
330
1F
100
AcDbEntity
  8
0-C_ハッチ
  6
JWW_DASHED1
 62
   120
370
     5
100
AcDbLine
 10
510.0192272525048
 20
2086.500190873769
 30
0.0
 11
585.0194746923266
 21
2161.500438313593
 31
0.0
  0
LINE
  5
169
330
1F
100
AcDbEntity
  8
0-C_ハッチ
  6
JWW_DASHED1
 62
   120
370
     5
100
AcDbLine
 10
467.5927003838392
 20
2086.500190873769
 30
0.0
 11
542.5929478236593
 21
2161.500438313593
 31
0.0
  0
LINE
  5
16A
330
1F
100
AcDbEntity
  8
0-C_ハッチ
  6
JWW_DASHED1
 62
   120
370
     5
100
AcDbLine
 10
425.1669158346407
 20
2086.500190873769
 30
0.0
 11
500.1671632744642
 21
2161.500438313593
 31
0.0
  0
LINE
  5
16B
330
1F
100
AcDbEntity
  8
0-C_ハッチ
  6
JWW_DASHED1
 62
   120
370
     5
100
AcDbLine
 10
382.7403889659751
 20
2086.500190873769
 30
0.0
 11
457.7406364057969
 21
2161.500438313593
 31
0.0
  0
LINE
  5
16C
330
1F
100
AcDbEntity
  8
0-C_ハッチ
  6
JWW_DASHED1
 62
   120
370
     5
100
AcDbLine
 10
340.3138620973077
 20
2086.500190873769
 30
0.0
 11
415.3141095371329
 21
2161.500438313593
 31
0.0
  0
LINE
  5
16D
330
1F
100
AcDbEntity
  8
0-C_ハッチ
  6
JWW_DASHED1
 62
   120
370
     5
100
AcDbLine
 10
297.8873352286438
 20
2086.500190873769
 30
0.0
 11
372.8875826684673
 21
2161.500438313593
 31
0.0
  0
LINE
  5
16E
330
1F
100
AcDbEntity
  8
0-C_ハッチ
  6
JWW_DASHED1
 62
   120
370
     5
100
AcDbLine
 10
255.4611795197125
 20
2086.500190873769
 30
0.0
 11
330.4614269595361
 21
2161.500438313593
 31
0.0
  0
LINE
  5
16F
330
1F
100
AcDbEntity
  8
0-C_ハッチ
  6
JWW_DASHED1
 62
   120
370
     5
100
AcDbLine
 10
213.0346526510452
 20
2086.500190873769
 30
0.0
 11
288.0349000908705
 21
2161.500438313593
 31
0.0
  0
LINE
  5
170
330
1F
100
AcDbEntity
  8
0-C_ハッチ
  6
JWW_DASHED1
 62
   120
370
     5
100
AcDbLine
 10
170.6081257823813
 20
2086.500190873769
 30
0.0
 11
245.6083732222031
 21
2161.500438313593
 31
0.0
  0
LINE
  5
171
330
1F
100
AcDbEntity
  8
0-C_ハッチ
  6
JWW_DASHED1
 62
   120
370
     5
100
AcDbLine
 10
128.1815989137139
 20
2086.500190873769
 30
0.0
 11
203.1818463535392
 21
2161.500438313593
 31
0.0
  0
LINE
  5
172
330
1F
100
AcDbEntity
  8
0-3_仕上げ
  6
Continuous
 62
    40
370
    15
100
AcDbLine
 10
698.2142857142843
 20
2086.500190873769
 30
0.0
 11
98.2142857142847
 21
2086.500190873769
 31
0.0
  0
LINE
  5
173
330
1F
100
AcDbEntity
  8
0-3_仕上げ
  6
Continuous
 62
    40
370
    15
100
AcDbLine
 10
698.2142857142843
 20
2161.500438313593
 30
0.0
 11
98.2142857142847
 21
2161.500438313593
 31
0.0
  0
LINE
  5
174
330
1F
100
AcDbEntity
  8
0-C_ハッチ
  6
JWW_DASHED1
 62
   120
370
     5
100
AcDbLine
 10
98.2142857142847
 20
2141.385560251937
 30
0.0
 11
118.3291637759423
 21
2161.500438313593
 31
0.0
  0
LINE
  5
175
330
1F
100
AcDbEntity
  8
0-C_ハッチ
  6
JWW_DASHED1
 62
   120
370
     5
100
AcDbLine
 10
98.2142857142847
 20
2098.959404543007
 30
0.0
 11
160.7553194848735
 21
2161.500438313593
 31
0.0
  0
LINE
  5
176
330
1F
100
AcDbEntity
  8
0-B_寸法
  6
Continuous
 62
   120
370
     5
100
AcDbLine
 10
698.2142857142843
 20
1834.500190873769
 30
0.0
 11
698.2142857142843
 21
1114.499745482088
 31
0.0
  0
LWPOLYLINE
  5
177
330
1F
100
AcDbEntity
  8
0-B_寸法
  6
Continuous
 62
     7
370
     9
100
AcDbPolyline
 90
        4
 70
     1
 43
3.0
 10
699.7142857142843
 20
1114.499745482088
 42
0.4142135623731
 10
698.2142857142843
 20
1115.999745482088
 42
0.4142135623731
 10
696.7142857142843
 20
1114.499745482088
 42
0.4142135623731
 10
698.2142857142843
 20
1112.999745482088
 42
0.4142135623731
  0
LWPOLYLINE
  5
178
330
1F
100
AcDbEntity
  8
0-B_寸法
  6
Continuous
 62
     7
370
     9
100
AcDbPolyline
 90
        4
 70
     1
 43
3.0
 10
879.7141372503922
 20
1294.49996817793
 42
0.4142135623731
 10
878.2141372503922
 20
1295.99996817793
 42
0.4142135623731
 10
876.7141372503922
 20
1294.49996817793
 42
0.4142135623731
 10
878.2141372503922
 20
1292.99996817793
 42
0.4142135623731
  0
LWPOLYLINE
  5
179
330
1F
100
AcDbEntity
  8
0-B_寸法
  6
Continuous
 62
     7
370
     9
100
AcDbPolyline
 90
        4
 70
     1
 43
3.0
 10
699.7142857142843
 20
1294.49996817793
 42
0.4142135623731
 10
698.2142857142843
 20
1295.99996817793
 42
0.4142135623731
 10
696.7142857142843
 20
1294.49996817793
 42
0.4142135623731
 10
698.2142857142843
 20
1292.99996817793
 42
0.4142135623731
  0
LINE
  5
17A
330
1F
100
AcDbEntity
  8
0-B_寸法
  6
Continuous
 62
   120
370
     5
100
AcDbLine
 10
878.2141372503922
 20
1834.500190873769
 30
0.0
 11
878.2141372503922
 21
1294.49996817793
 31
0.0
  0
LWPOLYLINE
  5
17B
330
1F
100
AcDbEntity
  8
0-B_寸法
  6
Continuous
 62
     7
370
     9
100
AcDbPolyline
 90
        4
 70
     1
 43
3.0
 10
879.7141372503922
 20
1474.500190873769
 42
0.4142135623731
 10
878.2141372503922
 20
1476.000190873769
 42
0.4142135623731
 10
876.7141372503922
 20
1474.500190873769
 42
0.4142135623731
 10
878.2141372503922
 20
1473.000190873769
 42
0.4142135623731
  0
LWPOLYLINE
  5
17C
330
1F
100
AcDbEntity
  8
0-B_寸法
  6
Continuous
 62
     7
370
     9
100
AcDbPolyline
 90
        4
 70
     1
 43
3.0
 10
891.7145084101226
 20
1474.500190873769
 42
0.4142135623731
 10
890.2145084101226
 20
1476.000190873769
 42
0.4142135623731
 10
888.7145084101226
 20
1474.500190873769
 42
0.4142135623731
 10
890.2145084101226
 20
1473.000190873769
 42
0.4142135623731
  0
LINE
  5
17D
330
1F
100
AcDbEntity
  8
0-B_寸法
  6
Continuous
 62
   120
370
     5
100
AcDbLine
 10
890.2145084101226
 20
1474.500190873769
 30
0.0
 11
890.2145084101226
 21
1834.500190873769
 31
0.0
  0
LINE
  5
17E
330
1F
100
AcDbEntity
  8
0-B_寸法
  6
Continuous
 62
   120
370
     5
100
AcDbLine
 10
4922.215250729573
 20
1474.500190873769
 30
0.0
 11
878.2141372503922
 21
1474.500190873769
 31
0.0
  0
LINE
  5
17F
330
1F
100
AcDbEntity
  8
0-B_寸法
  6
Continuous
 62
   120
370
     5
100
AcDbLine
 10
698.2142857142843
 20
1294.49996817793
 30
0.0
 11
5102.21510226568
 21
1294.49996817793
 31
0.0
  0
LINE
  5
180
330
1F
100
AcDbEntity
  8
0-B_寸法
  6
Continuous
 62
   120
370
     5
100
AcDbLine
 10
4922.214508410108
 20
1474.500190873769
 30
0.0
 11
4922.214508410108
 21
1834.500190873769
 31
0.0
  0
LWPOLYLINE
  5
181
330
1F
100
AcDbEntity
  8
0-B_寸法
  6
Continuous
 62
     7
370
     9
100
AcDbPolyline
 90
        4
 70
     1
 43
3.0
 10
4923.714508410108
 20
1474.500190873769
 42
0.4142135623731
 10
4922.214508410108
 20
1476.000190873769
 42
0.4142135623731
 10
4920.714508410108
 20
1474.500190873769
 42
0.4142135623731
 10
4922.214508410108
 20
1473.000190873769
 42
0.4142135623731
  0
LINE
  5
182
330
1F
100
AcDbEntity
  8
0-B_寸法
  6
Continuous
 62
   120
370
     5
100
AcDbLine
 10
4910.214508410122
 20
1474.500190873769
 30
0.0
 11
4910.214508410122
 21
1834.500190873769
 31
0.0
  0
LWPOLYLINE
  5
183
330
1F
100
AcDbEntity
  8
0-B_寸法
  6
Continuous
 62
     7
370
     9
100
AcDbPolyline
 90
        4
 70
     1
 43
3.0
 10
4911.714508410122
 20
1474.500190873769
 42
0.4142135623731
 10
4910.214508410122
 20
1476.000190873769
 42
0.4142135623731
 10
4908.714508410122
 20
1474.500190873769
 42
0.4142135623731
 10
4910.214508410122
 20
1473.000190873769
 42
0.4142135623731
  0
LINE
  5
184
330
1F
100
AcDbEntity
  8
0-B_寸法
  6
Continuous
 62
   120
370
     5
100
AcDbLine
 10
4922.215250729573
 20
1834.500190873769
 30
0.0
 11
4922.215250729573
 21
1294.49996817793
 31
0.0
  0
LWPOLYLINE
  5
185
330
1F
100
AcDbEntity
  8
0-B_寸法
  6
Continuous
 62
     7
370
     9
100
AcDbPolyline
 90
        4
 70
     1
 43
3.0
 10
5103.71510226568
 20
1294.49996817793
 42
0.4142135623731
 10
5102.21510226568
 20
1295.99996817793
 42
0.4142135623731
 10
5100.715102265679
 20
1294.49996817793
 42
0.4142135623731
 10
5102.21510226568
 20
1292.99996817793
 42
0.4142135623731
  0
LWPOLYLINE
  5
186
330
1F
100
AcDbEntity
  8
0-B_寸法
  6
Continuous
 62
     7
370
     9
100
AcDbPolyline
 90
        4
 70
     1
 43
3.0
 10
5103.71510226568
 20
1114.499745482088
 42
0.4142135623731
 10
5102.21510226568
 20
1115.999745482088
 42
0.4142135623731
 10
5100.715102265679
 20
1114.499745482088
 42
0.4142135623731
 10
5102.21510226568
 20
1112.999745482088
 42
0.4142135623731
  0
LWPOLYLINE
  5
187
330
1F
100
AcDbEntity
  8
0-B_寸法
  6
Continuous
 62
     7
370
     9
100
AcDbPolyline
 90
        4
 70
     1
 43
3.0
 10
4923.715250729573
 20
1294.49996817793
 42
0.4142135623731
 10
4922.215250729573
 20
1295.99996817793
 42
0.4142135623731
 10
4920.715250729573
 20
1294.49996817793
 42
0.4142135623731
 10
4922.215250729573
 20
1292.99996817793
 42
0.4142135623731
  0
LINE
  5
188
330
1F
100
AcDbEntity
  8
0-B_寸法
  6
Continuous
 62
   120
370
     5
100
AcDbLine
 10
5102.21510226568
 20
1834.500190873769
 30
0.0
 11
5102.21510226568
 21
1114.499745482088
 31
0.0
  0
LINE
  5
189
330
1F
100
AcDbEntity
  8
0-C_ハッチ
  6
JWW_DASHED1
 62
   120
370
     5
100
AcDbLine
 10
5102.21510226568
 20
2098.942207475332
 30
0.0
 11
5164.773333103941
 21
2161.500438313593
 31
0.0
  0
LINE
  5
18A
330
1F
100
AcDbEntity
  8
0-C_ハッチ
  6
JWW_DASHED1
 62
   120
370
     5
100
AcDbLine
 10
5132.198870213316
 20
2086.500190873769
 30
0.0
 11
5207.199117653137
 21
2161.500438313593
 31
0.0
  0
LINE
  5
18B
330
1F
100
AcDbEntity
  8
0-C_ハッチ
  6
JWW_DASHED1
 62
   120
370
     5
100
AcDbLine
 10
5174.625397081981
 20
2086.500190873769
 30
0.0
 11
5249.625644521803
 21
2161.500438313593
 31
0.0
  0
LINE
  5
18C
330
1F
100
AcDbEntity
  8
0-C_ハッチ
  6
JWW_DASHED1
 62
   120
370
     5
100
AcDbLine
 10
5217.051923950647
 20
2086.500190873769
 30
0.0
 11
5292.052171390468
 21
2161.500438313593
 31
0.0
  0
LINE
  5
18D
330
1F
100
AcDbEntity
  8
0-C_ハッチ
  6
JWW_DASHED1
 62
   120
370
     5
100
AcDbLine
 10
5259.478450819312
 20
2086.500190873769
 30
0.0
 11
5334.478698259134
 21
2161.500438313593
 31
0.0
  0
LINE
  5
18E
330
1F
100
AcDbEntity
  8
0-C_ハッチ
  6
JWW_DASHED1
 62
   120
370
     5
100
AcDbLine
 10
5301.904235368509
 20
2086.500190873769
 30
0.0
 11
5376.904482808332
 21
2161.500438313593
 31
0.0
  0
LINE
  5
18F
330
1F
100
AcDbEntity
  8
0-C_ハッチ
  6
JWW_DASHED1
 62
   120
370
     5
100
AcDbLine
 10
5344.330762237175
 20
2086.500190873769
 30
0.0
 11
5419.331009676998
 21
2161.500438313593
 31
0.0
  0
LINE
  5
190
330
1F
100
AcDbEntity
  8
0-C_ハッチ
  6
JWW_DASHED1
 62
   120
370
     5
100
AcDbLine
 10
5386.756546786373
 20
2086.500190873769
 30
0.0
 11
5461.756794226195
 21
2161.500438313593
 31
0.0
  0
LINE
  5
191
330
1F
100
AcDbEntity
  8
0-C_ハッチ
  6
JWW_DASHED1
 62
   120
370
     5
100
AcDbLine
 10
5429.183073655037
 20
2086.500190873769
 30
0.0
 11
5504.183321094861
 21
2161.500438313593
 31
0.0
  0
LINE
  5
192
330
1F
100
AcDbEntity
  8
0-C_ハッチ
  6
JWW_DASHED1
 62
   120
370
     5
100
AcDbLine
 10
5514.036127392368
 20
2086.500190873769
 30
0.0
 11
5589.036374832192
 21
2161.500438313593
 31
0.0
  0
LINE
  5
193
330
1F
100
AcDbEntity
  8
0-C_ハッチ
  6
JWW_DASHED1
 62
   120
370
     5
100
AcDbLine
 10
5556.461911941567
 20
2086.500190873769
 30
0.0
 11
5631.462159381389
 21
2161.500438313593
 31
0.0
  0
LINE
  5
194
330
1F
100
AcDbEntity
  8
0-C_ハッチ
  6
JWW_DASHED1
 62
   120
370
     5
100
AcDbLine
 10
5598.888438810232
 20
2086.500190873769
 30
0.0
 11
5673.888686250055
 21
2161.500438313593
 31
0.0
  0
LINE
  5
195
330
1F
100
AcDbEntity
  8
0-C_ハッチ
  6
Continuous
 62
   120
370
     5
100
AcDbLine
 10
4922.214508410135
 20
2562.142020607322
 30
0.0
 11
5004.572678676584
 21
2644.500190873769
 31
0.0
  0
LINE
  5
196
330
1F
100
AcDbEntity
  8
0-C_ハッチ
  6
Continuous
 62
   120
370
     5
100
AcDbLine
 10
4922.214508410115
 20
2383.951111748304
 30
0.0
 11
5102.21510226568
 21
2563.951705603869
 31
0.0
  0
LINE
  5
197
330
1F
100
AcDbEntity
  8
0-C_ハッチ
  6
Continuous
 62
   120
370
     5
100
AcDbLine
 10
4922.214508410115
 20
2443.348081368006
 30
0.0
 11
5102.21510226568
 21
2623.348675223571
 31
0.0
  0
LINE
  5
198
330
1F
100
AcDbEntity
  8
0-C_ハッチ
  6
Continuous
 62
   120
370
     5
100
AcDbLine
 10
4922.214508410125
 20
2502.745050987663
 30
0.0
 11
5063.969648296231
 21
2644.500190873769
 31
0.0
  0
LINE
  5
199
330
1F
100
AcDbEntity
  8
0-C_ハッチ
  6
Continuous
 62
   120
370
     5
100
AcDbLine
 10
4922.214508410118
 20
2324.55414212866
 30
0.0
 11
5102.215102265698
 21
2504.554735984241
 31
0.0
  0
LINE
  5
19A
330
1F
100
AcDbEntity
  8
0-C_ハッチ
  6
Continuous
 62
   120
370
     5
100
AcDbLine
 10
4922.214508410101
 20
2265.157172508944
 30
0.0
 11
5102.215102265681
 21
2445.157766364523
 31
0.0
  0
LINE
  5
19B
330
1F
100
AcDbEntity
  8
0-C_ハッチ
  6
Continuous
 62
   120
370
     5
100
AcDbLine
 10
4922.214508410121
 20
2205.760202889315
 30
0.0
 11
5102.215102265702
 21
2385.760796744895
 31
0.0
  0
LINE
  5
19C
330
1F
100
AcDbEntity
  8
0-C_ハッチ
  6
Continuous
 62
   120
370
     5
100
AcDbLine
 10
4922.214508410109
 20
2146.363233269656
 30
0.0
 11
5102.21510226569
 21
2326.363827125236
 31
0.0
  0
LINE
  5
19D
330
1F
100
AcDbEntity
  8
0-C_ハッチ
  6
Continuous
 62
   120
370
     5
100
AcDbLine
 10
4922.214508410108
 20
2086.966263649954
 30
0.0
 11
5102.215102265673
 21
2266.966857505518
 31
0.0
  0
LINE
  5
19E
330
1F
100
AcDbEntity
  8
0-C_ハッチ
  6
Continuous
 62
   120
370
     5
100
AcDbLine
 10
4968.542374873269
 20
2014.500190873767
 30
0.0
 11
5102.215102265676
 21
2148.172918266172
 31
0.0
  0
LINE
  5
19F
330
1F
100
AcDbEntity
  8
0-C_ハッチ
  6
Continuous
 62
   120
370
     5
100
AcDbLine
 10
5027.939344492908
 20
2014.500190873756
 30
0.0
 11
5102.215102265696
 21
2088.775948646545
 31
0.0
  0
LINE
  5
1A0
330
1F
100
AcDbEntity
  8
0-C_ハッチ
  6
Continuous
 62
   120
370
     5
100
AcDbLine
 10
5087.336314112564
 20
2014.500190873765
 30
0.0
 11
5102.215102265684
 21
2029.378979026886
 31
0.0
  0
LINE
  5
1A1
330
1F
100
AcDbEntity
  8
0-4_枠
  6
Continuous
 62
    92
370
    13
100
AcDbLine
 10
4946.214508410107
 20
2644.500190873769
 30
0.0
 11
5102.21510226568
 21
2644.500190873769
 31
0.0
  0
LINE
  5
1A2
330
1F
100
AcDbEntity
  8
0-4_枠
  6
Continuous
 62
    92
370
    13
100
AcDbLine
 10
4922.214508410105
 20
2038.500190873771
 30
0.0
 11
4946.214508410107
 21
2014.500190873769
 31
0.0
  0
LINE
  5
1A3
330
1F
100
AcDbEntity
  8
0-4_枠
  6
Continuous
 62
    92
370
    13
100
AcDbLine
 10
4946.214508410107
 20
2014.500190873769
 30
0.0
 11
5102.21510226568
 21
2014.500190873769
 31
0.0
  0
LINE
  5
1A4
330
1F
100
AcDbEntity
  8
0-4_枠
  6
Continuous
 62
    92
370
    13
100
AcDbLine
 10
4922.214508410105
 20
2038.500190873771
 30
0.0
 11
4922.214508410105
 21
2620.500190873769
 31
0.0
  0
LINE
  5
1A5
330
1F
100
AcDbEntity
  8
0-4_枠
  6
Continuous
 62
    92
370
    13
100
AcDbLine
 10
4946.214508410107
 20
2644.500190873769
 30
0.0
 11
4922.214508410105
 21
2620.500190873769
 31
0.0
  0
LINE
  5
1A6
330
1F
100
AcDbEntity
  8
0-4_枠
  6
Continuous
 62
    92
370
    13
100
AcDbLine
 10
5102.21510226568
 20
2014.500190873769
 30
0.0
 11
5102.21510226568
 21
2644.500190873769
 31
0.0
  0
LINE
  5
1A7
330
1F
100
AcDbEntity
  8
0-1_通り芯
  6
JWW_CENTER1
 62
   120
370
     5
100
AcDbLine
 10
98.2142857142847
 20
2329.500190873769
 30
0.0
 11
5702.21510226568
 21
2329.500190873769
 31
0.0
  0
LINE
  5
1A8
330
1F
100
AcDbEntity
  8
0-3_仕上げ
  6
Continuous
 62
    40
370
    15
100
AcDbLine
 10
5102.21510226568
 20
2161.500438313593
 30
0.0
 11
5702.21510226568
 21
2161.500438313593
 31
0.0
  0
LINE
  5
1A9
330
1F
100
AcDbEntity
  8
0-3_仕上げ
  6
Continuous
 62
    40
370
    15
100
AcDbLine
 10
5102.21510226568
 20
2086.500190873769
 30
0.0
 11
5702.21510226568
 21
2086.500190873769
 31
0.0
  0
LINE
  5
1AA
330
1F
100
AcDbEntity
  8
0-C_ハッチ
  6
JWW_DASHED1
 62
   120
370
     5
100
AcDbLine
 10
5683.740750228095
 20
2086.500190873769
 30
0.0
 11
5702.21510226568
 21
2104.974542911355
 31
0.0
  0
LINE
  5
1AB
330
1F
100
AcDbEntity
  8
0-C_ハッチ
  6
JWW_DASHED1
 62
   120
370
     5
100
AcDbLine
 10
5641.31422335943
 20
2086.500190873769
 30
0.0
 11
5702.21510226568
 21
2147.400467015867
 31
0.0
  0
LINE
  5
1AC
330
1F
100
AcDbEntity
  8
0-0_補助線
  6
JWW_HOJO
 62
   120
370
     5
100
AcDbLine
 10
5702.21510226568
 20
2824.500190873769
 30
0.0
 11
5702.21510226568
 21
1834.500190873769
 31
0.0
  0
LINE
  5
1AD
330
1F
100
AcDbEntity
  8
0-0_補助線
  6
JWW_HOJO
 62
   120
370
     5
100
AcDbLine
 10
5702.215102265678
 20
1834.500190873769
 30
0.0
 11
98.2142857142847
 21
1834.500190873769
 31
0.0
  0
LINE
  5
1AE
330
1F
100
AcDbEntity
  8
0-0_補助線
  6
JWW_HOJO
 62
   120
370
     5
100
AcDbLine
 10
98.2142857142847
 20
2824.500190873769
 30
0.0
 11
98.2142857142847
 21
1834.500190873769
 31
0.0
  0
LINE
  5
1AF
330
1F
100
AcDbEntity
  8
0-0_補助線
  6
JWW_HOJO
 62
   120
370
     5
100
AcDbLine
 10
2900.214508410121
 20
2197.461154767351
 30
0.0
 11
2900.214508410121
 21
2824.500190873769
 31
0.0
  0
LINE
  5
1B0
330
1F
100
AcDbEntity
  8
0-0_補助線
  6
JWW_HOJO
 62
   120
370
     5
100
AcDbLine
 10
5702.21510226568
 20
2824.500190873769
 30
0.0
 11
98.2142857142847
 21
2824.500190873769
 31
0.0
  0
LINE
  5
1B1
330
1F
100
AcDbEntity
  8
0-4_枠
  6
Continuous
 62
    92
370
    13
100
AcDbLine
 10
698.2142857142843
 20
2014.500190873769
 30
0.0
 11
698.2142857142843
 21
2644.500190873769
 31
0.0
  0
LINE
  5
1B2
330
1F
100
AcDbEntity
  8
0-7_金物
  6
Continuous
 62
     7
370
     9
100
AcDbLine
 10
941.8183642796832
 20
2516.953418350204
 30
0.0
 11
971.3379175420043
 21
2301.004263310759
 31
0.0
  0
LINE
  5
1B3
330
1F
100
AcDbEntity
  8
0-7_金物
  6
Continuous
 62
     7
370
     9
100
AcDbLine
 10
941.8183642796832
 20
2516.953418350204
 30
0.0
 11
899.8193756243397
 21
2517.244883490833
 31
0.0
  0
LINE
  5
1B4
330
1F
100
AcDbEntity
  8
0-7_金物
  6
Continuous
 62
     7
370
     9
100
AcDbLine
 10
890.1054587791525
 20
2507.116472112024
 30
0.0
 11
888.816298277341
 21
2490.357385588498
 31
0.0
  0
LINE
  5
1B5
330
1F
100
AcDbEntity
  8
0-7_金物
  6
Continuous
 62
     7
370
     9
100
AcDbLine
 10
890.1054587791525
 20
2507.116472112024
 30
0.0
 11
899.8713414988667
 21
2514.44088415181
 31
0.0
  0
LINE
  5
1B6
330
1F
100
AcDbEntity
  8
0-7_金物
  6
Continuous
 62
     7
370
     9
100
AcDbLine
 10
899.8193756243397
 20
2517.244883490833
 30
0.0
 11
900.7145084101267
 21
2468.944883490832
 31
0.0
  0
LINE
  5
1B7
330
1F
100
AcDbEntity
  8
0-7_金物
  6
Continuous
 62
     7
370
     9
100
AcDbLine
 10
878.2145084101267
 20
2468.944883490832
 30
0.0
 11
878.2145084101267
 21
2313.544883490834
 31
0.0
  0
LINE
  5
1B8
330
1F
100
AcDbEntity
  8
0-7_金物
  6
Continuous
 62
     7
370
     9
100
AcDbLine
 10
971.3379175420043
 20
2301.004263310759
 30
0.0
 11
1025.897031636459
 21
2248.869998731616
 31
0.0
  0
LINE
  5
1B9
330
1F
100
AcDbEntity
  8
0-7_金物
  6
Continuous
 62
     7
370
     9
100
AcDbLine
 10
897.3800073250799
 20
2488.930100747207
 30
0.0
 11
888.816298277341
 21
2490.357385588498
 31
0.0
  0
LINE
  5
1BA
330
1F
100
AcDbEntity
  8
0-7_金物
  6
Continuous
 62
     7
370
     9
100
AcDbLine
 10
897.3800073250799
 20
2488.930100747207
 30
0.0
 11
897.3800073250799
 21
2496.204649293136
 31
0.0
  0
LINE
  5
1BB
330
1F
100
AcDbEntity
  8
0-7_金物
  6
Continuous
 62
     7
370
     9
100
AcDbLine
 10
897.3800073250799
 20
2496.204649293136
 30
0.0
 11
900.1833327506783
 21
2497.606312005933
 31
0.0
  0
LINE
  5
1BC
330
1F
100
AcDbEntity
  8
0-7_金物
  6
Continuous
 62
     7
370
     9
100
AcDbLine
 10
1025.897031636459
 20
2248.869998731616
 30
0.0
 11
1027.343212963022
 21
2218.50019087377
 31
0.0
  0
LINE
  5
1BD
330
1F
100
AcDbEntity
  8
0-7_金物
  6
Continuous
 62
     7
370
     9
100
AcDbLine
 10
946.5696733845947
 20
2218.50019087377
 30
0.0
 11
1087.869673384594
 21
2218.50019087377
 31
0.0
  0
LINE
  5
1BE
330
1F
100
AcDbEntity
  8
0-7_金物
  6
Continuous
 62
     7
370
     9
100
AcDbLine
 10
1004.09051141678
 20
2218.50019087377
 30
0.0
 11
901.0212872944696
 21
2266.405604902448
 31
0.0
  0
LINE
  5
1BF
330
1F
100
AcDbEntity
  8
0-7_金物
  6
Continuous
 62
     7
370
     9
100
AcDbLine
 10
878.2145084101267
 20
2313.544883490834
 30
0.0
 11
900.7311278920138
 21
2313.544883490834
 31
0.0
  0
LINE
  5
1C0
330
1F
100
AcDbEntity
  8
0-7_金物
  6
Continuous
 62
     7
370
     9
100
AcDbLine
 10
901.0212872944696
 20
2266.405604902448
 30
0.0
 11
900.7145084101267
 21
2316.244883490832
 31
0.0
  0
LINE
  5
1C1
330
1F
100
AcDbEntity
  8
0-7_金物
  6
Continuous
 62
     7
370
     9
100
AcDbLine
 10
878.2145084101267
 20
2468.944883490832
 30
0.0
 11
900.7145084101267
 21
2468.944883490832
 31
0.0
  0
LINE
  5
1C2
330
1F
100
AcDbEntity
  8
0-7_金物
  6
Continuous
 62
     7
370
     9
100
AcDbLine
 10
900.7145084101267
 20
2313.544883490834
 30
0.0
 11
900.7145084101267
 21
2468.944883490832
 31
0.0
  0
LINE
  5
1C3
330
1F
100
AcDbEntity
  8
0-7_金物
  6
JWW_DASHED1
 62
     7
370
     9
100
AcDbLine
 10
946.5696733845947
 20
2218.50019087377
 30
0.0
 11
946.5696733845947
 21
2176.557630056308
 31
0.0
  0
LINE
  5
1C4
330
1F
100
AcDbEntity
  8
0-7_金物
  6
JWW_DASHED1
 62
     7
370
     9
100
AcDbLine
 10
1087.869673384594
 20
2218.50019087377
 30
0.0
 11
1087.869673384594
 21
2176.557630056308
 31
0.0
  0
LINE
  5
1C5
330
1F
100
AcDbEntity
  8
0-7_金物
  6
JWW_DASHED1
 62
     7
370
     9
100
AcDbLine
 10
946.5696733845947
 20
2176.557630056308
 30
0.0
 11
1087.869673384594
 21
2176.557630056308
 31
0.0
  0
LINE
  5
1C6
330
1F
100
AcDbEntity
  8
0-7_金物
  6
Continuous
 62
     7
370
     9
100
AcDbLine
 10
4858.610652540551
 20
2516.953418350204
 30
0.0
 11
4829.09109927823
 21
2301.004263310759
 31
0.0
  0
LINE
  5
1C7
330
1F
100
AcDbEntity
  8
0-7_金物
  6
Continuous
 62
     7
370
     9
100
AcDbLine
 10
4858.610652540551
 20
2516.953418350204
 30
0.0
 11
4900.609641195895
 21
2517.244883490833
 31
0.0
  0
LINE
  5
1C8
330
1F
100
AcDbEntity
  8
0-7_金物
  6
Continuous
 62
     7
370
     9
100
AcDbLine
 10
4910.323558041082
 20
2507.116472112024
 30
0.0
 11
4911.612718542893
 21
2490.357385588498
 31
0.0
  0
LINE
  5
1C9
330
1F
100
AcDbEntity
  8
0-7_金物
  6
Continuous
 62
     7
370
     9
100
AcDbLine
 10
4910.323558041082
 20
2507.116472112024
 30
0.0
 11
4900.557675321368
 21
2514.44088415181
 31
0.0
  0
LINE
  5
1CA
330
1F
100
AcDbEntity
  8
0-7_金物
  6
Continuous
 62
     7
370
     9
100
AcDbLine
 10
4900.609641195895
 20
2517.244883490833
 30
0.0
 11
4899.714508410108
 21
2468.944883490832
 31
0.0
  0
LINE
  5
1CB
330
1F
100
AcDbEntity
  8
0-7_金物
  6
Continuous
 62
     7
370
     9
100
AcDbLine
 10
4922.214508410108
 20
2468.944883490832
 30
0.0
 11
4922.214508410108
 21
2313.544883490834
 31
0.0
  0
LINE
  5
1CC
330
1F
100
AcDbEntity
  8
0-7_金物
  6
Continuous
 62
     7
370
     9
100
AcDbLine
 10
4829.09109927823
 20
2301.004263310759
 30
0.0
 11
4774.531985183776
 21
2248.869998731616
 31
0.0
  0
LINE
  5
1CD
330
1F
100
AcDbEntity
  8
0-7_金物
  6
Continuous
 62
     7
370
     9
100
AcDbLine
 10
4903.049009495156
 20
2488.930100747207
 30
0.0
 11
4911.612718542893
 21
2490.357385588498
 31
0.0
  0
LINE
  5
1CE
330
1F
100
AcDbEntity
  8
0-7_金物
  6
Continuous
 62
     7
370
     9
100
AcDbLine
 10
4903.049009495156
 20
2488.930100747207
 30
0.0
 11
4903.049009495156
 21
2496.204649293136
 31
0.0
  0
LINE
  5
1CF
330
1F
100
AcDbEntity
  8
0-7_金物
  6
Continuous
 62
     7
370
     9
100
AcDbLine
 10
4903.049009495156
 20
2496.204649293136
 30
0.0
 11
4900.245684069556
 21
2497.606312005933
 31
0.0
  0
LINE
  5
1D0
330
1F
100
AcDbEntity
  8
0-7_金物
  6
Continuous
 62
     7
370
     9
100
AcDbLine
 10
4774.531985183776
 20
2248.869998731616
 30
0.0
 11
4773.085803857212
 21
2218.50019087377
 31
0.0
  0
LINE
  5
1D1
330
1F
100
AcDbEntity
  8
0-7_金物
  6
Continuous
 62
     7
370
     9
100
AcDbLine
 10
4853.859343435642
 20
2218.50019087377
 30
0.0
 11
4712.559343435641
 21
2218.50019087377
 31
0.0
  0
LINE
  5
1D2
330
1F
100
AcDbEntity
  8
0-7_金物
  6
Continuous
 62
     7
370
     9
100
AcDbLine
 10
4796.338505403456
 20
2218.50019087377
 30
0.0
 11
4899.407729525765
 21
2266.405604902448
 31
0.0
  0
LINE
  5
1D3
330
1F
100
AcDbEntity
  8
0-7_金物
  6
Continuous
 62
     7
370
     9
100
AcDbLine
 10
4922.214508410108
 20
2313.544883490834
 30
0.0
 11
4899.697888928221
 21
2313.544883490834
 31
0.0
  0
LINE
  5
1D4
330
1F
100
AcDbEntity
  8
0-7_金物
  6
Continuous
 62
     7
370
     9
100
AcDbLine
 10
4899.407729525765
 20
2266.405604902448
 30
0.0
 11
4899.714508410108
 21
2316.244883490832
 31
0.0
  0
LINE
  5
1D5
330
1F
100
AcDbEntity
  8
0-7_金物
  6
Continuous
 62
     7
370
     9
100
AcDbLine
 10
4922.214508410108
 20
2468.944883490832
 30
0.0
 11
4899.714508410108
 21
2468.944883490832
 31
0.0
  0
LINE
  5
1D6
330
1F
100
AcDbEntity
  8
0-7_金物
  6
Continuous
 62
     7
370
     9
100
AcDbLine
 10
4899.714508410108
 20
2313.544883490834
 30
0.0
 11
4899.714508410108
 21
2468.944883490832
 31
0.0
  0
LINE
  5
1D7
330
1F
100
AcDbEntity
  8
0-7_金物
  6
JWW_DASHED1
 62
     7
370
     9
100
AcDbLine
 10
4853.859343435642
 20
2218.50019087377
 30
0.0
 11
4853.859343435642
 21
2176.557630056308
 31
0.0
  0
LINE
  5
1D8
330
1F
100
AcDbEntity
  8
0-7_金物
  6
JWW_DASHED1
 62
     7
370
     9
100
AcDbLine
 10
4712.559343435641
 20
2218.50019087377
 30
0.0
 11
4712.559343435641
 21
2176.557630056308
 31
0.0
  0
LINE
  5
1D9
330
1F
100
AcDbEntity
  8
0-7_金物
  6
JWW_DASHED1
 62
     7
370
     9
100
AcDbLine
 10
4853.859343435642
 20
2176.557630056308
 30
0.0
 11
4712.559343435641
 21
2176.557630056308
 31
0.0
  0
LINE
  5
1DA
330
1F
100
AcDbEntity
  8
0-C_ハッチ
  6
Continuous
 62
   120
370
     5
100
AcDbLine
 10
4927.679956831838
 20
2033.034742452036
 30
0.0
 11
5102.215102265693
 21
2207.56988788589
 31
0.0
  0
LINE
  5
1DB
330
1F
100
AcDbEntity
  8
0-6_扉
  6
Continuous
 62
   200
370
    20
100
AcDbLine
 10
2906.214508410122
 20
2200.500190873771
 30
0.0
 11
4910.214508410122
 21
2200.500190873771
 31
0.0
  0
LINE
  5
1DC
330
1F
100
AcDbEntity
  8
0-6_扉
  6
Continuous
 62
   200
370
    20
100
AcDbLine
 10
890.2145084101226
 20
2200.500190873771
 30
0.0
 11
2894.214508410122
 21
2200.500190873771
 31
0.0
  0
LINE
  5
1DD
330
1F
100
AcDbEntity
  8
0-B_寸法
  6
Continuous
 62
   120
370
     5
100
AcDbLine
 10
1481.426831513124
 20
2200.500190873771
 30
0.0
 11
1552.788228921274
 21
2200.500190873771
 31
0.0
  0
LWPOLYLINE
  5
1DE
330
1F
100
AcDbEntity
  8
0-B_寸法
  6
Continuous
 62
     7
370
     9
100
AcDbPolyline
 90
        4
 70
     1
 43
3.0
 10
1554.288228921274
 20
2200.500190873771
 42
0.4142135623731
 10
1552.788228921274
 20
2202.000190873771
 42
0.4142135623731
 10
1551.288228921274
 20
2200.500190873771
 42
0.4142135623731
 10
1552.788228921274
 20
2199.000190873771
 42
0.4142135623731
  0
MTEXT
  5
1DF
330
1F
100
AcDbEntity
  8
0-B_寸法
  6
Continuous
 62
     7
370
     0
100
AcDbMText
 10
1255.820693086012
 20
2205.030507596743
 30
0.0
 40
99.06
 41
195.0
 46
0.0
 71
     7
 72
     1
  1
{\fＭＳ ゴシック|b0|i0|c128|p49;105}
 11
6.123031769111886E-17
 21
1.0
 31
0.0
 73
     1
 44
1.0
  0
MTEXT
  5
1E0
330
1F
100
AcDbEntity
  8
0-B_寸法
  6
Continuous
 62
     7
370
   211
100
AcDbMText
 10
891.9356673805628
 20
1475.22019087377
 30
0.0
 40
91.44
 41
60.0
 46
0.0
 71
     7
 72
     1
  1
{\fＭＳ ゴシック|b0|i0|c128|p49;2}
 73
     1
 44
1.0
  0
MTEXT
  5
1E1
330
1F
100
AcDbEntity
  8
0-B_寸法
  6
Continuous
 62
     7
370
   211
100
AcDbMText
 10
1592.214508410122
 20
1480.300190873769
 30
0.0
 40
101.5999999999999
 41
599.9999999999995
 46
0.0
 71
     7
 72
     1
  1
{\fＭＳ ゴシック|b0|i0|c128|p49;ＤＷ＝334}
 73
     1
 44
1.0
  0
MTEXT
  5
1E2
330
1F
100
AcDbEntity
  8
0-B_寸法
  6
Continuous
 62
     7
370
   211
100
AcDbMText
 10
2911.384134874824
 20
1475.22019087377
 30
0.0
 40
91.44
 41
60.0
 46
0.0
 71
     7
 72
     1
  1
{\fＭＳ ゴシック|b0|i0|c128|p49;2}
 73
     1
 44
1.0
  0
MTEXT
  5
1E3
330
1F
100
AcDbEntity
  8
0-B_寸法
  6
Continuous
 62
     7
370
   211
100
AcDbMText
 10
3608.214508410122
 20
1480.300190873769
 30
0.0
 40
101.5999999999999
 41
599.9999999999995
 46
0.0
 71
     7
 72
     1
  1
{\fＭＳ ゴシック|b0|i0|c128|p49;ＤＷ＝334}
 73
     1
 44
1.0
  0
MTEXT
  5
1E4
330
1F
100
AcDbEntity
  8
0-B_寸法
  6
Continuous
 62
     7
370
   211
100
AcDbMText
 10
4847.567907956733
 20
1475.22019087377
 30
0.0
 40
91.44
 41
60.0
 46
0.0
 71
     7
 72
     1
  1
{\fＭＳ ゴシック|b0|i0|c128|p49;2}
 73
     1
 44
1.0
  0
MTEXT
  5
1E5
330
1F
100
AcDbEntity
  8
0-B_寸法
  6
Continuous
 62
     7
370
     0
100
AcDbMText
 10
720.7141991103485
 20
1298.077517665894
 30
0.0
 40
97.15499999999999
 41
127.5
 46
0.0
 71
     7
 72
     1
  1
{\fＭＳ ゴシック|b0|i0|c128|p49;30}
 73
     1
 44
1.0
  0
MTEXT
  5
1E6
330
1F
100
AcDbEntity
  8
0-B_寸法
  6
Continuous
 62
     7
370
     0
100
AcDbMText
 10
4944.715349705501
 20
1298.077517665894
 30
0.0
 40
97.15499999999999
 41
127.5
 46
0.0
 71
     7
 72
     1
  1
{\fＭＳ ゴシック|b0|i0|c128|p49;30}
 73
     1
 44
1.0
  0
MTEXT
  5
1E7
330
1F
100
AcDbEntity
  8
0-B_寸法
  6
Continuous
 62
     7
370
     0
100
AcDbMText
 10
2600.214693989983
 20
1297.299968177928
 30
0.0
 40
101.6
 41
600.0
 46
0.0
 71
     7
 72
     1
  1
{\fＭＳ ゴシック|b0|i0|c128|p49;枠内＝674}
 73
     1
 44
1.0
  0
MTEXT
  5
1E8
330
1F
100
AcDbEntity
  8
0-B_寸法
  6
Continuous
 62
     7
370
     0
100
AcDbMText
 10
2600.214693989983
 20
1117.299745482089
 30
0.0
 40
101.6
 41
600.0
 46
0.0
 71
     7
 72
     1
  1
{\fＭＳ ゴシック|b0|i0|c128|p49;枠外＝734}
 73
     1
 44
1.0
  0
LINE
  5
1E9
330
1F
100
AcDbEntity
  8
0-B_寸法
  6
Continuous
 62
   120
370
     5
100
AcDbLine
 10
698.2142857142843
 20
1114.499745482088
 30
0.0
 11
5102.21510226568
 21
1114.499745482088
 31
0.0
  0
MTEXT
  5
1EA
330
1F
100
AcDbEntity
  8
0-A_文字
  6
Continuous
 62
     7
370
     9
100
AcDbMText
 10
93.16735341512953
 20
2926.160755482368
 30
0.0
 40
91.43999999999994
 41
1560.0
 46
0.0
 71
     7
 72
     1
  1
{\fＭＳ ゴシック|b0|i0|c128|p49;■横断面図　Ｈ＝４尺、３尺}
 73
     1
 44
1.0
  0
MTEXT
  5
1EB
330
1F
100
AcDbEntity
  8
0-B_寸法
  6
Continuous
 62
     7
370
     0
100
AcDbMText
 10
2308.350390493404
 20
831.7935242071026
 30
0.0
 40
79.58666666666662
 41
2819.999999999998
 46
0.0
 71
     7
 72
     1
  1
{\fＭＳ ゴシック|b0|i0|c128|p49;※Ｈ＝３尺、４尺には躯体接合金具は装備されていません。}
 73
     1
 44
1.0
  0
LINE
  5
1EC
330
1F
100
AcDbEntity
  8
0-B_寸法
  6
Continuous
 62
   120
370
     5
100
AcDbLine
 10
-3447.835659299155
 20
-3115.281986283207
 30
0.0
 11
-2907.835659299154
 21
-3115.281986283207
 31
0.0
  0
LWPOLYLINE
  5
1ED
330
1F
100
AcDbEntity
  8
0-B_寸法
  6
Continuous
 62
     7
370
     9
100
AcDbPolyline
 90
        4
 70
     1
 43
3.0
 10
-2906.335659299154
 20
-3115.281986283207
 42
0.4142135623731
 10
-2907.835659299154
 20
-3113.781986283208
 42
0.4142135623731
 10
-2909.335659299154
 20
-3115.281986283207
 42
0.4142135623731
 10
-2907.835659299154
 20
-3116.781986283207
 42
0.4142135623731
  0
LWPOLYLINE
  5
1EE
330
1F
100
AcDbEntity
  8
0-B_寸法
  6
Continuous
 62
     7
370
     9
100
AcDbPolyline
 90
        4
 70
     1
 43
3.0
 10
-2906.335659299154
 20
-3115.281748740978
 42
0.4142135623731
 10
-2907.835659299154
 20
-3113.781748740979
 42
0.4142135623731
 10
-2909.335659299154
 20
-3115.281748740978
 42
0.4142135623731
 10
-2907.835659299154
 20
-3116.781748740978
 42
0.4142135623731
  0
LWPOLYLINE
  5
1EF
330
1F
100
AcDbEntity
  8
0-B_寸法
  6
Continuous
 62
     7
370
     9
100
AcDbPolyline
 90
        4
 70
     1
 43
3.0
 10
-2726.335659299155
 20
-3187.281540891527
 42
0.4142135623731
 10
-2727.835659299155
 20
-3185.781540891527
 42
0.4142135623731
 10
-2729.335659299155
 20
-3187.281540891527
 42
0.4142135623731
 10
-2727.835659299155
 20
-3188.781540891527
 42
0.4142135623731
  0
LINE
  5
1F0
330
1F
100
AcDbEntity
  8
0-B_寸法
  6
Continuous
 62
   120
370
     5
100
AcDbLine
 10
-3447.835659299155
 20
-3187.281540891527
 30
0.0
 11
-2727.835659299155
 21
-3187.281540891527
 31
0.0
  0
LINE
  5
1F1
330
1F
100
AcDbEntity
  8
0-0_補助線
  6
JWW_HOJO
 62
   120
370
     5
100
AcDbLine
 10
-5109.836401618621
 20
-3187.281541010995
 30
0.0
 11
-3087.835659299154
 21
-3187.281541010995
 31
0.0
  0
LINE
  5
1F2
330
1F
100
AcDbEntity
  8
0-3_仕上げ
  6
Continuous
 62
    40
370
    15
100
AcDbLine
 10
-4746.709009700336
 20
-3115.281748740978
 30
0.0
 11
-3447.834916979687
 21
-3115.281748740978
 31
0.0
  0
LINE
  5
1F3
330
1F
100
AcDbEntity
  8
0-3_仕上げ
  6
Continuous
 62
     7
370
     9
100
AcDbLine
 10
-3447.834916979687
 20
-3163.282352494145
 30
0.0
 11
-4749.835659299151
 21
-3163.282352494145
 31
0.0
  0
LINE
  5
1F4
330
1F
100
AcDbEntity
  8
0-3_仕上げ
  6
Continuous
 62
     7
370
     9
100
AcDbLine
 10
-4749.835659299151
 20
-3127.282085259137
 30
0.0
 11
-3447.834916979687
 21
-3127.282085259137
 31
0.0
  0
LINE
  5
1F5
330
1F
100
AcDbEntity
  8
0-3_仕上げ
  6
Continuous
 62
     7
370
     9
100
AcDbLine
 10
-4749.835659299151
 20
-3139.281679457827
 30
0.0
 11
-3447.834916979687
 21
-3139.281679457827
 31
0.0
  0
LINE
  5
1F6
330
1F
100
AcDbEntity
  8
0-3_仕上げ
  6
Continuous
 62
     7
370
     9
100
AcDbLine
 10
-3447.834916979687
 20
-3151.282015975987
 30
0.0
 11
-4749.835659299151
 21
-3151.282015975987
 31
0.0
  0
LINE
  5
1F7
330
1F
100
AcDbEntity
  8
0-3_仕上げ
  6
Continuous
 62
     7
370
     9
100
AcDbLine
 10
-3447.834916979687
 20
-3175.281946692834
 30
0.0
 11
-4749.835659299151
 21
-3175.281946692834
 31
0.0
  0
LINE
  5
1F8
330
1F
100
AcDbEntity
  8
0-3_仕上げ
  6
Continuous
 62
    40
370
    15
100
AcDbLine
 10
-4749.835659299151
 20
-3187.281540891527
 30
0.0
 11
-3447.834916979687
 21
-3187.281540891527
 31
0.0
  0
LINE
  5
1F9
330
1F
100
AcDbEntity
  8
0-B_寸法
  6
Continuous
 62
   120
370
     5
100
AcDbLine
 10
-3447.835659299155
 20
-3001.281748740979
 30
0.0
 11
-3087.835659299154
 21
-3001.281748740979
 31
0.0
  0
LWPOLYLINE
  5
1FA
330
1F
100
AcDbEntity
  8
0-B_寸法
  6
Continuous
 62
     7
370
     9
100
AcDbPolyline
 90
        4
 70
     1
 43
3.0
 10
-3086.335659299154
 20
-3001.281748740979
 42
0.4142135623731
 10
-3087.835659299154
 20
-2999.781748740979
 42
0.4142135623731
 10
-3089.335659299154
 20
-3001.281748740979
 42
0.4142135623731
 10
-3087.835659299154
 20
-3002.781748740979
 42
0.4142135623731
  0
LWPOLYLINE
  5
1FB
330
1F
100
AcDbEntity
  8
0-B_寸法
  6
Continuous
 62
     7
370
     9
100
AcDbPolyline
 90
        4
 70
     1
 43
3.0
 10
-3086.335659299154
 20
-3025.281748740978
 42
0.4142135623731
 10
-3087.835659299154
 20
-3023.781748740979
 42
0.4142135623731
 10
-3089.335659299154
 20
-3025.281748740978
 42
0.4142135623731
 10
-3087.835659299154
 20
-3026.781748740978
 42
0.4142135623731
  0
LINE
  5
1FC
330
1F
100
AcDbEntity
  8
0-B_寸法
  6
Continuous
 62
   120
370
     5
100
AcDbLine
 10
-3447.835659299155
 20
-3025.281748740978
 30
0.0
 11
-2907.835659299154
 21
-3025.281748740978
 31
0.0
  0
LWPOLYLINE
  5
1FD
330
1F
100
AcDbEntity
  8
0-B_寸法
  6
Continuous
 62
     7
370
     9
100
AcDbPolyline
 90
        4
 70
     1
 43
3.0
 10
-2906.335659299154
 20
-3025.281748740978
 42
0.4142135623731
 10
-2907.835659299154
 20
-3023.781748740979
 42
0.4142135623731
 10
-2909.335659299154
 20
-3025.281748740978
 42
0.4142135623731
 10
-2907.835659299154
 20
-3026.781748740978
 42
0.4142135623731
  0
LWPOLYLINE
  5
1FE
330
1F
100
AcDbEntity
  8
0-B_寸法
  6
Continuous
 62
     7
370
     9
100
AcDbPolyline
 90
        4
 70
     1
 43
3.0
 10
-2906.335659299154
 20
-3025.28151119875
 42
0.4142135623731
 10
-2907.835659299154
 20
-3023.78151119875
 42
0.4142135623731
 10
-2909.335659299154
 20
-3025.28151119875
 42
0.4142135623731
 10
-2907.835659299154
 20
-3026.78151119875
 42
0.4142135623731
  0
LINE
  5
1FF
330
1F
100
AcDbEntity
  8
0-B_寸法
  6
Continuous
 62
   120
370
     5
100
AcDbLine
 10
-3087.835659299154
 20
-3115.281748740978
 30
0.0
 11
-2727.835659299155
 21
-3115.281748740978
 31
0.0
  0
LWPOLYLINE
  5
200
330
1F
100
AcDbEntity
  8
0-B_寸法
  6
Continuous
 62
     7
370
     9
100
AcDbPolyline
 90
        4
 70
     1
 43
3.0
 10
-2726.335659299155
 20
-3115.281748740978
 42
0.4142135623731
 10
-2727.835659299155
 20
-3113.781748740979
 42
0.4142135623731
 10
-2729.335659299155
 20
-3115.281748740978
 42
0.4142135623731
 10
-2727.835659299155
 20
-3116.781748740978
 42
0.4142135623731
  0
LWPOLYLINE
  5
201
330
1F
100
AcDbEntity
  8
0-B_寸法
  6
Continuous
 62
     7
370
     9
100
AcDbPolyline
 90
        4
 70
     1
 43
3.0
 10
-5108.33640161862
 20
-3187.281541010995
 42
0.4142135623731
 10
-5109.836401618621
 20
-3185.781541010996
 42
0.4142135623731
 10
-5111.336401618621
 20
-3187.281541010995
 42
0.4142135623731
 10
-5109.836401618621
 20
-3188.781541010995
 42
0.4142135623731
  0
LINE
  5
202
330
1F
100
AcDbEntity
  8
0-B_寸法
  6
Continuous
 62
   120
370
     5
100
AcDbLine
 10
-5109.836401618621
 20
-3187.281541010995
 30
0.0
 11
-4749.836401618621
 21
-3187.281541010995
 31
0.0
  0
LINE
  5
203
330
1F
100
AcDbEntity
  8
0-0_補助線
  6
Continuous
 62
    92
370
    13
100
AcDbLine
 10
-3894.677529598766
 20
-3025.281748740978
 30
0.0
 11
-3804.677529598766
 21
-3115.281748740978
 31
0.0
  0
LINE
  5
204
330
1F
100
AcDbEntity
  8
0-0_補助線
  6
Continuous
 62
     7
370
     9
100
AcDbLine
 10
-4176.835659299154
 20
-3085.281748740978
 30
0.0
 11
-3882.835659299152
 21
-3085.281748740978
 31
0.0
  0
LINE
  5
205
330
1F
100
AcDbEntity
  8
0-0_補助線
  6
Continuous
 62
     7
370
     9
100
AcDbLine
 10
-3882.835659299152
 20
-3085.281748740978
 30
0.0
 11
-3882.835659299152
 21
-3115.281748740978
 31
0.0
  0
LINE
  5
206
330
1F
100
AcDbEntity
  8
0-0_補助線
  6
Continuous
 62
     7
370
     9
100
AcDbLine
 10
-4176.835659299154
 20
-3085.281748740978
 30
0.0
 11
-4176.835659299154
 21
-3115.281748740978
 31
0.0
  0
ARC
  5
207
330
1F
100
AcDbEntity
  8
0-0_補助線
  6
Continuous
 62
    92
370
    13
100
AcDbCircle
 10
-4242.835659299154
 20
-3037.281748740979
 30
0.0
 40
12.0
100
AcDbArc
 50
89.99999999999999
 51
180.0
  0
LINE
  5
208
330
1F
100
AcDbEntity
  8
0-0_補助線
  6
Continuous
 62
    92
370
    13
100
AcDbLine
 10
-4254.835659299155
 20
-3037.281748740979
 30
0.0
 11
-4254.835659299155
 21
-3115.281748740978
 31
0.0
  0
LINE
  5
209
330
1F
100
AcDbEntity
  8
0-0_補助線
  6
Continuous
 62
    92
370
    13
100
AcDbLine
 10
-3804.835659299155
 20
-3037.281748740979
 30
0.0
 11
-3804.835659299155
 21
-3115.281748740978
 31
0.0
  0
ARC
  5
20A
330
1F
100
AcDbEntity
  8
0-0_補助線
  6
Continuous
 62
    92
370
    13
100
AcDbCircle
 10
-3816.835659299154
 20
-3037.281748740979
 30
0.0
 40
12.0
100
AcDbArc
 50
0.0
 51
90.0
  0
LINE
  5
20B
330
1F
100
AcDbEntity
  8
0-0_補助線
  6
Continuous
 62
    92
370
    13
100
AcDbLine
 10
-4242.835659299154
 20
-3025.281748740978
 30
0.0
 11
-3816.835659299154
 21
-3025.281748740978
 31
0.0
  0
LINE
  5
20C
330
1F
100
AcDbEntity
  8
0-0_補助線
  6
Continuous
 62
    92
370
    13
100
AcDbLine
 10
-4254.835659299155
 20
-3089.387687752519
 30
0.0
 11
-4228.941598310693
 21
-3115.281748740978
 31
0.0
  0
LINE
  5
20D
330
1F
100
AcDbEntity
  8
0-0_補助線
  6
Continuous
 62
    92
370
    13
100
AcDbLine
 10
-3979.530343341153
 20
-3025.281748740978
 30
0.0
 11
-3919.530343341153
 21
-3085.281748740978
 31
0.0
  0
LINE
  5
20E
330
1F
100
AcDbEntity
  8
0-0_補助線
  6
Continuous
 62
    92
370
    13
100
AcDbLine
 10
-4064.383157083537
 20
-3025.281748740978
 30
0.0
 11
-4004.383157083537
 21
-3085.281748740978
 31
0.0
  0
LINE
  5
20F
330
1F
100
AcDbEntity
  8
0-0_補助線
  6
Continuous
 62
    92
370
    13
100
AcDbLine
 10
-4149.235970825922
 20
-3025.281748740978
 30
0.0
 11
-4089.235970825922
 21
-3085.281748740978
 31
0.0
  0
LINE
  5
210
330
1F
100
AcDbEntity
  8
0-0_補助線
  6
Continuous
 62
    92
370
    13
100
AcDbLine
 10
-4234.088784568308
 20
-3025.281748740978
 30
0.0
 11
-4174.088784568308
 21
-3085.281748740978
 31
0.0
  0
LINE
  5
211
330
1F
100
AcDbEntity
  8
0-0_補助線
  6
Continuous
 62
     7
370
     9
100
AcDbLine
 10
-3882.835659299152
 20
-3097.230235274189
 30
0.0
 11
-3900.88717276594
 21
-3115.281748740978
 31
0.0
  0
LINE
  5
212
330
1F
100
AcDbEntity
  8
0-0_補助線
  6
Continuous
 62
     7
370
     9
100
AcDbLine
 10
-4167.872020864289
 20
-3085.281748740978
 30
0.0
 11
-4176.835659299154
 21
-3094.245387175843
 31
0.0
  0
LINE
  5
213
330
1F
100
AcDbEntity
  8
0-0_補助線
  6
Continuous
 62
     7
370
     9
100
AcDbLine
 10
-4125.445613993098
 20
-3085.281748740978
 30
0.0
 11
-4155.445613993098
 21
-3115.281748740978
 31
0.0
  0
LINE
  5
214
330
1F
100
AcDbEntity
  8
0-0_補助線
  6
Continuous
 62
     7
370
     9
100
AcDbLine
 10
-4083.019207121906
 20
-3085.281748740978
 30
0.0
 11
-4113.019207121906
 21
-3115.281748740978
 31
0.0
  0
LINE
  5
215
330
1F
100
AcDbEntity
  8
0-0_補助線
  6
Continuous
 62
     7
370
     9
100
AcDbLine
 10
-4040.592800250713
 20
-3085.281748740978
 30
0.0
 11
-4070.592800250713
 21
-3115.281748740978
 31
0.0
  0
LINE
  5
216
330
1F
100
AcDbEntity
  8
0-0_補助線
  6
Continuous
 62
     7
370
     9
100
AcDbLine
 10
-3998.16639337952
 20
-3085.281748740978
 30
0.0
 11
-4028.16639337952
 21
-3115.281748740978
 31
0.0
  0
LINE
  5
217
330
1F
100
AcDbEntity
  8
0-0_補助線
  6
Continuous
 62
     7
370
     9
100
AcDbLine
 10
-3955.739986508327
 20
-3085.281748740978
 30
0.0
 11
-3985.739986508327
 21
-3115.281748740978
 31
0.0
  0
LINE
  5
218
330
1F
100
AcDbEntity
  8
0-0_補助線
  6
Continuous
 62
     7
370
     9
100
AcDbLine
 10
-3913.313579637133
 20
-3085.281748740978
 30
0.0
 11
-3943.313579637133
 21
-3115.281748740978
 31
0.0
  0
LINE
  5
219
330
1F
100
AcDbEntity
  8
0-4_枠
  6
Continuous
 62
    92
370
    13
100
AcDbLine
 10
-3804.835659299155
 20
-3115.281748740978
 30
0.0
 11
-4254.835659299155
 21
-3115.281748740978
 31
0.0
  0
LINE
  5
21A
330
1F
100
AcDbEntity
  8
0-B_寸法
  6
Continuous
 62
   120
370
     5
100
AcDbLine
 10
-4254.828138642578
 20
-2965.77802282526
 30
0.0
 11
-4254.828138642578
 21
-2850.953078251778
 31
0.0
  0
LWPOLYLINE
  5
21B
330
1F
100
AcDbEntity
  8
0-B_寸法
  6
Continuous
 62
     7
370
     9
100
AcDbPolyline
 90
        4
 70
     1
 43
3.0
 10
-4253.328138642577
 20
-2850.953078251778
 42
0.4142135623731
 10
-4254.828138642578
 20
-2849.453078251778
 42
0.4142135623731
 10
-4256.328138642578
 20
-2850.953078251778
 42
0.4142135623731
 10
-4254.828138642578
 20
-2852.453078251778
 42
0.4142135623731
  0
LINE
  5
21C
330
1F
100
AcDbEntity
  8
0-B_寸法
  6
Continuous
 62
   120
370
     5
100
AcDbLine
 10
-3804.835659299155
 20
-2850.953078251778
 30
0.0
 11
-4254.828138642578
 21
-2850.953078251778
 31
0.0
  0
LWPOLYLINE
  5
21D
330
1F
100
AcDbEntity
  8
0-B_寸法
  6
Continuous
 62
     7
370
     9
100
AcDbPolyline
 90
        4
 70
     1
 43
3.0
 10
-3803.335659299155
 20
-2850.953078251778
 42
0.4142135623731
 10
-3804.835659299155
 20
-2849.453078251778
 42
0.4142135623731
 10
-3806.335659299154
 20
-2850.953078251778
 42
0.4142135623731
 10
-3804.835659299155
 20
-2852.453078251778
 42
0.4142135623731
  0
LINE
  5
21E
330
1F
100
AcDbEntity
  8
0-B_寸法
  6
Continuous
 62
   120
370
     5
100
AcDbLine
 10
-3804.835659299155
 20
-2965.77802282526
 30
0.0
 11
-3804.835659299155
 21
-2850.953078251778
 31
0.0
  0
LINE
  5
21F
330
1F
100
AcDbEntity
  8
0-B_寸法
  6
Continuous
 62
   120
370
     5
100
AcDbLine
 10
-3447.835659299155
 20
-661.2815403324116
 30
0.0
 11
-3087.835659299154
 21
-661.2815403324116
 31
0.0
  0
LINE
  5
220
330
1F
100
AcDbEntity
  8
0-B_寸法
  6
Continuous
 62
   120
370
     5
100
AcDbLine
 10
-3087.835659299154
 20
-643.2814067149078
 30
0.0
 11
-3447.835659299155
 21
-643.2814067149078
 31
0.0
  0
LWPOLYLINE
  5
221
330
1F
100
AcDbEntity
  8
0-B_寸法
  6
Continuous
 62
     7
370
     9
100
AcDbPolyline
 90
        4
 70
     1
 43
3.0
 10
-3086.335659299154
 20
-661.2815403324116
 42
0.4142135623731
 10
-3087.835659299154
 20
-659.7815403324116
 42
0.4142135623731
 10
-3089.335659299154
 20
-661.2815403324116
 42
0.4142135623731
 10
-3087.835659299154
 20
-662.7815403324117
 42
0.4142135623731
  0
LWPOLYLINE
  5
222
330
1F
100
AcDbEntity
  8
0-B_寸法
  6
Continuous
 62
     7
370
     9
100
AcDbPolyline
 90
        4
 70
     1
 43
3.0
 10
-3086.335659299154
 20
-643.2814067149078
 42
0.4142135623731
 10
-3087.835659299154
 20
-641.7814067149078
 42
0.4142135623731
 10
-3089.335659299154
 20
-643.2814067149078
 42
0.4142135623731
 10
-3087.835659299154
 20
-644.7814067149078
 42
0.4142135623731
  0
LWPOLYLINE
  5
223
330
1F
100
AcDbEntity
  8
0-B_寸法
  6
Continuous
 62
     7
370
     9
100
AcDbPolyline
 90
        4
 70
     1
 43
3.0
 10
-2906.335659299154
 20
-463.2815551788016
 42
0.4142135623731
 10
-2907.835659299154
 20
-461.7815551788015
 42
0.4142135623731
 10
-2909.335659299154
 20
-463.2815551788016
 42
0.4142135623731
 10
-2907.835659299154
 20
-464.7815551788016
 42
0.4142135623731
  0
LINE
  5
224
330
1F
100
AcDbEntity
  8
0-B_寸法
  6
Continuous
 62
   120
370
     5
100
AcDbLine
 10
-3447.835659299155
 20
-463.2815551788016
 30
0.0
 11
-2727.835659299155
 21
-463.2815551788016
 31
0.0
  0
LINE
  5
225
330
1F
100
AcDbEntity
  8
0-B_寸法
  6
Continuous
 62
   120
370
     5
100
AcDbLine
 10
-2727.835659299155
 20
-463.2808128593327
 30
0.0
 11
-3183.835382166552
 21
-463.2808128593327
 31
0.0
  0
LINE
  5
226
330
1F
100
AcDbEntity
  8
0-B_寸法
  6
Continuous
 62
   120
370
     5
100
AcDbLine
 10
-2727.835659299155
 20
-3187.281540891527
 30
0.0
 11
-2727.835659299155
 21
-463.2815551788016
 31
0.0
  0
LWPOLYLINE
  5
227
330
1F
100
AcDbEntity
  8
0-B_寸法
  6
Continuous
 62
     7
370
     9
100
AcDbPolyline
 90
        4
 70
     1
 43
3.0
 10
-2726.335659299155
 20
-463.2815551788016
 42
0.4142135623731
 10
-2727.835659299155
 20
-461.7815551788015
 42
0.4142135623731
 10
-2729.335659299155
 20
-463.2815551788016
 42
0.4142135623731
 10
-2727.835659299155
 20
-464.7815551788016
 42
0.4142135623731
  0
LWPOLYLINE
  5
228
330
1F
100
AcDbEntity
  8
0-B_寸法
  6
Continuous
 62
     7
370
     9
100
AcDbPolyline
 90
        4
 70
     1
 43
3.0
 10
-2726.335659299155
 20
-463.2808128593327
 42
0.4142135623731
 10
-2727.835659299155
 20
-461.7808128593327
 42
0.4142135623731
 10
-2729.335659299155
 20
-463.2808128593327
 42
0.4142135623731
 10
-2727.835659299155
 20
-464.7808128593327
 42
0.4142135623731
  0
LINE
  5
229
330
1F
100
AcDbEntity
  8
0-B_寸法
  6
Continuous
 62
   120
370
     5
100
AcDbLine
 10
-4389.835659299153
 20
-826.0419443521547
 30
0.0
 11
-4389.835659299153
 21
-978.2671706771116
 31
0.0
  0
LINE
  5
22A
330
1F
100
AcDbEntity
  8
0-B_寸法
  6
Continuous
 62
   120
370
     5
100
AcDbLine
 10
-3807.83565929915
 20
-978.2671706771116
 30
0.0
 11
-4389.835659299153
 21
-978.2671706771116
 31
0.0
  0
LWPOLYLINE
  5
22B
330
1F
100
AcDbEntity
  8
0-B_寸法
  6
Continuous
 62
     7
370
     9
100
AcDbPolyline
 90
        4
 70
     1
 43
3.0
 10
-4388.335659299153
 20
-978.2671706771116
 42
0.4142135623731
 10
-4389.835659299153
 20
-976.7671706771117
 42
0.4142135623731
 10
-4391.335659299153
 20
-978.2671706771116
 42
0.4142135623731
 10
-4389.835659299153
 20
-979.7671706771116
 42
0.4142135623731
  0
LINE
  5
22C
330
1F
100
AcDbEntity
  8
0-4_枠
  6
Continuous
 62
    92
370
    13
100
AcDbLine
 10
-3807.834916979687
 20
-463.2815551788016
 30
0.0
 11
-4389.835659299153
 21
-463.2815551788016
 31
0.0
  0
LINE
  5
22D
330
1F
100
AcDbEntity
  8
0-4_枠
  6
Continuous
 62
    92
370
    13
100
AcDbLine
 10
-3807.834916979687
 20
-463.2815551788016
 30
0.0
 11
-3807.834916979687
 21
-643.2817778746422
 31
0.0
  0
LINE
  5
22E
330
1F
100
AcDbEntity
  8
0-4_枠
  6
Continuous
 62
    92
370
    13
100
AcDbLine
 10
-4389.835659299153
 20
-463.2815551788016
 30
0.0
 11
-4389.835659299153
 21
-643.2817778746422
 31
0.0
  0
LINE
  5
22F
330
1F
100
AcDbEntity
  8
0-4_枠
  6
Continuous
 62
    92
370
    13
100
AcDbLine
 10
-4389.835659299153
 20
-643.2817778746422
 30
0.0
 11
-3807.834916979687
 21
-643.2817778746422
 31
0.0
  0
LINE
  5
230
330
1F
100
AcDbEntity
  8
0-B_寸法
  6
Continuous
 62
   120
370
     5
100
AcDbLine
 10
-3807.83565929915
 20
-826.0419443521547
 30
0.0
 11
-3807.83565929915
 21
-978.2671706771116
 31
0.0
  0
LWPOLYLINE
  5
231
330
1F
100
AcDbEntity
  8
0-B_寸法
  6
Continuous
 62
     7
370
     9
100
AcDbPolyline
 90
        4
 70
     1
 43
3.0
 10
-3806.33565929915
 20
-978.2671706771116
 42
0.4142135623731
 10
-3807.83565929915
 20
-976.7671706771117
 42
0.4142135623731
 10
-3809.33565929915
 20
-978.2671706771116
 42
0.4142135623731
 10
-3807.83565929915
 20
-979.7671706771116
 42
0.4142135623731
  0
LINE
  5
232
330
1F
100
AcDbEntity
  8
0-C_ハッチ
  6
Continuous
 62
   120
370
     5
100
AcDbLine
 10
-4119.410062711556
 20
-643.2817778746439
 30
0.0
 11
-4299.4102854074
 21
-463.2815551787982
 31
0.0
  0
LINE
  5
233
330
1F
100
AcDbEntity
  8
0-C_ハッチ
  6
Continuous
 62
   120
370
     5
100
AcDbLine
 10
-4060.013093091868
 20
-643.2817778746303
 30
0.0
 11
-4240.013315787712
 21
-463.2815551787845
 31
0.0
  0
LINE
  5
234
330
1F
100
AcDbEntity
  8
0-C_ハッチ
  6
Continuous
 62
   120
370
     5
100
AcDbLine
 10
-4000.616123472207
 20
-643.2817778746422
 30
0.0
 11
-4180.616346168054
 21
-463.2815551787973
 31
0.0
  0
LINE
  5
235
330
1F
100
AcDbEntity
  8
0-C_ハッチ
  6
Continuous
 62
   120
370
     5
100
AcDbLine
 10
-3941.219153852499
 20
-643.281777874649
 30
0.0
 11
-4121.219376548341
 21
-463.2815551788084
 31
0.0
  0
LINE
  5
236
330
1F
100
AcDbEntity
  8
0-C_ハッチ
  6
Continuous
 62
   120
370
     5
100
AcDbLine
 10
-3881.822184232861
 20
-643.2817778746413
 30
0.0
 11
-4061.822406928707
 21
-463.2815551787947
 31
0.0
  0
LINE
  5
237
330
1F
100
AcDbEntity
  8
0-C_ハッチ
  6
Continuous
 62
   120
370
     5
100
AcDbLine
 10
-3822.425214613215
 20
-643.2817778746388
 30
0.0
 11
-4002.425437309054
 21
-463.2815551787982
 31
0.0
  0
LINE
  5
238
330
1F
100
AcDbEntity
  8
0-C_ハッチ
  6
Continuous
 62
   120
370
     5
100
AcDbLine
 10
-3807.834916979683
 20
-598.4751058884699
 30
0.0
 11
-3943.028467689359
 21
-463.2815551787947
 31
0.0
  0
LINE
  5
239
330
1F
100
AcDbEntity
  8
0-C_ハッチ
  6
Continuous
 62
   120
370
     5
100
AcDbLine
 10
-3807.834916979693
 20
-539.0781362688116
 30
0.0
 11
-3883.6314980697
 21
-463.2815551788067
 31
0.0
  0
LINE
  5
23A
330
1F
100
AcDbEntity
  8
0-C_ハッチ
  6
Continuous
 62
   120
370
     5
100
AcDbLine
 10
-3807.83491697968
 20
-479.6811666491259
 30
0.0
 11
-3824.234528450012
 21
-463.281555178793
 31
0.0
  0
LINE
  5
23B
330
1F
100
AcDbEntity
  8
0-C_ハッチ
  6
Continuous
 62
   120
370
     5
100
AcDbLine
 10
-4297.600971570564
 20
-643.2817778746328
 30
0.0
 11
-4389.835659299153
 21
-551.0470901460448
 31
0.0
  0
LINE
  5
23C
330
1F
100
AcDbEntity
  8
0-C_ハッチ
  6
Continuous
 62
   120
370
     5
100
AcDbLine
 10
-4238.204001950905
 20
-643.281777874643
 30
0.0
 11
-4389.835659299153
 21
-491.6501205263958
 31
0.0
  0
LINE
  5
23D
330
1F
100
AcDbEntity
  8
0-C_ハッチ
  6
Continuous
 62
   120
370
     5
100
AcDbLine
 10
-4178.807032331215
 20
-643.281777874632
 30
0.0
 11
-4358.807255027047
 21
-463.2815551788016
 31
0.0
  0
LINE
  5
23E
330
1F
100
AcDbEntity
  8
0-C_ハッチ
  6
Continuous
 62
   120
370
     5
100
AcDbLine
 10
-4356.997941190221
 20
-643.2817778746328
 30
0.0
 11
-4389.835659299153
 21
-610.4440597657014
 31
0.0
  0
LINE
  5
23F
330
1F
100
AcDbEntity
  8
0-C_ハッチ
  6
JWW_DASHED1
 62
   120
370
     5
100
AcDbLine
 10
-3908.861023530571
 20
-463.2815551788016
 30
0.0
 11
-3930.83442210004
 21
-441.3081566093327
 31
0.0
  0
LINE
  5
240
330
1F
100
AcDbEntity
  8
0-C_ハッチ
  6
JWW_DASHED1
 62
   120
370
     5
100
AcDbLine
 10
-3866.434496661906
 20
-463.2815551788016
 30
0.0
 11
-3930.83442210004
 21
-398.8816297406671
 31
0.0
  0
LINE
  5
241
330
1F
100
AcDbEntity
  8
0-C_ハッチ
  6
JWW_DASHED1
 62
   120
370
     5
100
AcDbLine
 10
-3855.834916979686
 20
-431.4546079923562
 30
0.0
 11
-3930.83442210004
 21
-356.4551028720015
 31
0.0
  0
LINE
  5
242
330
1F
100
AcDbEntity
  8
0-C_ハッチ
  6
JWW_DASHED1
 62
   120
370
     5
100
AcDbLine
 10
-3855.834916979686
 20
-389.0291946028929
 30
0.0
 11
-3930.83442210004
 21
-314.0296894825391
 31
0.0
  0
LINE
  5
243
330
1F
100
AcDbEntity
  8
0-C_ハッチ
  6
JWW_DASHED1
 62
   120
370
     5
100
AcDbLine
 10
-3855.834916979686
 20
-346.6026677342273
 30
0.0
 11
-3930.83442210004
 21
-271.6031626138735
 31
0.0
  0
LINE
  5
244
330
1F
100
AcDbEntity
  8
0-C_ハッチ
  6
JWW_DASHED1
 62
   120
370
     5
100
AcDbLine
 10
-3855.834916979686
 20
-304.1761408655616
 30
0.0
 11
-3930.83442210004
 21
-229.176635745207
 31
0.0
  0
LINE
  5
245
330
1F
100
AcDbEntity
  8
0-C_ハッチ
  6
JWW_DASHED1
 62
   120
370
     5
100
AcDbLine
 10
-3855.834916979686
 20
-261.7499851566304
 30
0.0
 11
-3930.83442210004
 21
-186.7504800362757
 31
0.0
  0
LINE
  5
246
330
1F
100
AcDbEntity
  8
0-B_寸法
  6
Continuous
 62
   120
370
     5
100
AcDbLine
 10
-3087.835659299154
 20
-3025.281748740978
 30
0.0
 11
-3087.835659299154
 21
-643.2814067149078
 31
0.0
  0
LINE
  5
247
330
1F
100
AcDbEntity
  8
0-B_寸法
  6
Continuous
 62
   120
370
     5
100
AcDbLine
 10
-3087.835659299154
 20
-643.2814067149078
 30
0.0
 11
-2907.835659299154
 21
-643.2814067149078
 31
0.0
  0
LWPOLYLINE
  5
248
330
1F
100
AcDbEntity
  8
0-B_寸法
  6
Continuous
 62
     7
370
     9
100
AcDbPolyline
 90
        4
 70
     1
 43
3.0
 10
-2906.335659299154
 20
-643.2814067149078
 42
0.4142135623731
 10
-2907.835659299154
 20
-641.7814067149078
 42
0.4142135623731
 10
-2909.335659299154
 20
-643.2814067149078
 42
0.4142135623731
 10
-2907.835659299154
 20
-644.7814067149078
 42
0.4142135623731
  0
LINE
  5
249
330
1F
100
AcDbEntity
  8
0-7_金物
  6
Continuous
 62
     7
370
     9
100
AcDbLine
 10
-4152.835693631429
 20
-463.2815551788016
 30
0.0
 11
-4152.835693631429
 21
-439.2814864934255
 31
0.0
  0
LINE
  5
24A
330
1F
100
AcDbEntity
  8
0-7_金物
  6
Continuous
 62
     7
370
     9
100
AcDbLine
 10
-4044.835624966878
 20
-439.2814864934255
 30
0.0
 11
-4044.835624966878
 21
-463.2815551788016
 31
0.0
  0
LINE
  5
24B
330
1F
100
AcDbEntity
  8
0-7_金物
  6
Continuous
 62
     7
370
     9
100
AcDbLine
 10
-4038.835459027547
 20
-439.2814864934255
 30
0.0
 11
-4158.835115704793
 21
-439.2814864934255
 31
0.0
  0
LINE
  5
24C
330
1F
100
AcDbEntity
  8
0-7_金物
  6
Continuous
 62
     7
370
     9
100
AcDbLine
 10
-4158.835115704793
 20
-427.2818927586846
 30
0.0
 11
-4158.835115704793
 21
-439.2814864934255
 31
0.0
  0
LINE
  5
24D
330
1F
100
AcDbEntity
  8
0-7_金物
  6
Continuous
 62
     7
370
     9
100
AcDbLine
 10
-4038.835459027547
 20
-427.2818927586846
 30
0.0
 11
-4038.835459027547
 21
-439.2814864934255
 31
0.0
  0
LINE
  5
24E
330
1F
100
AcDbEntity
  8
0-7_金物
  6
Continuous
 62
     7
370
     9
100
AcDbLine
 10
-4008.835356030722
 20
-415.2815551579757
 30
0.0
 11
-4188.835218701618
 21
-415.2815551579757
 31
0.0
  0
LINE
  5
24F
330
1F
100
AcDbEntity
  8
0-7_金物
  6
Continuous
 62
     7
370
     9
100
AcDbLine
 10
-4008.835356030722
 20
-415.2815551579757
 30
0.0
 11
-4008.835356030722
 21
-427.2818927586846
 31
0.0
  0
LINE
  5
250
330
1F
100
AcDbEntity
  8
0-7_金物
  6
Continuous
 62
     7
370
     9
100
AcDbLine
 10
-4188.835218701618
 20
-415.2815551579757
 30
0.0
 11
-4188.835218701618
 21
-427.2818927586846
 31
0.0
  0
LINE
  5
251
330
1F
100
AcDbEntity
  8
0-7_金物
  6
Continuous
 62
     7
370
     9
100
AcDbLine
 10
-4008.835356030722
 20
-427.2818927586846
 30
0.0
 11
-4188.835218701618
 21
-427.2818927586846
 31
0.0
  0
LINE
  5
252
330
1F
100
AcDbEntity
  8
0-3_仕上げ
  6
Continuous
 62
   120
370
     5
100
AcDbLine
 10
-3930.83442210004
 20
-415.2815551579757
 30
0.0
 11
-3930.83442210004
 21
-235.2815551579757
 31
0.0
  0
LINE
  5
253
330
1F
100
AcDbEntity
  8
0-3_仕上げ
  6
Continuous
 62
   120
370
     5
100
AcDbLine
 10
-3930.83442210004
 20
-235.2815551579757
 30
0.0
 11
-4350.834422100041
 21
-235.2815551579757
 31
0.0
  0
LINE
  5
254
330
1F
100
AcDbEntity
  8
0-3_仕上げ
  6
Continuous
 62
   120
370
     5
100
AcDbLine
 10
-4350.834422100041
 20
-235.2815551579757
 30
0.0
 11
-4350.834422100041
 21
-415.2815551579757
 31
0.0
  0
LINE
  5
255
330
1F
100
AcDbEntity
  8
0-3_仕上げ
  6
Continuous
 62
   120
370
     5
100
AcDbLine
 10
-3930.83442210004
 20
-235.2815551579757
 30
0.0
 11
-4350.834422100041
 21
-415.2815551579757
 31
0.0
  0
LINE
  5
256
330
1F
100
AcDbEntity
  8
0-3_仕上げ
  6
Continuous
 62
   120
370
     5
100
AcDbLine
 10
-4350.834422100041
 20
-415.2815551579757
 30
0.0
 11
-3930.83442210004
 21
-415.2815551579757
 31
0.0
  0
LWPOLYLINE
  5
257
330
1F
100
AcDbEntity
  8
0-B_寸法
  6
Continuous
 62
     7
370
     9
100
AcDbPolyline
 90
        4
 70
     1
 43
3.0
 10
-5108.33640161862
 20
-415.2815551579757
 42
0.4142135623731
 10
-5109.836401618621
 20
-413.7815551579757
 42
0.4142135623731
 10
-5111.336401618621
 20
-415.2815551579757
 42
0.4142135623731
 10
-5109.836401618621
 20
-416.7815551579757
 42
0.4142135623731
  0
LINE
  5
258
330
1F
100
AcDbEntity
  8
0-B_寸法
  6
Continuous
 62
   120
370
     5
100
AcDbLine
 10
-5109.836401618621
 20
-415.2815551579757
 30
0.0
 11
-4749.836401618621
 21
-415.2815551579757
 31
0.0
  0
LINE
  5
259
330
1F
100
AcDbEntity
  8
0-B_寸法
  6
Continuous
 62
   120
370
     5
100
AcDbLine
 10
-5109.836401618621
 20
-3187.281541010995
 30
0.0
 11
-5109.836401618621
 21
-415.2815551579757
 31
0.0
  0
LINE
  5
25A
330
1F
100
AcDbEntity
  8
0-B_寸法
  6
Continuous
 62
   120
370
     5
100
AcDbLine
 10
-3447.835659299155
 20
-415.2815551788017
 30
0.0
 11
-2907.835659299154
 21
-415.2815551788017
 31
0.0
  0
LINE
  5
25B
330
1F
100
AcDbEntity
  8
0-B_寸法
  6
Continuous
 62
   120
370
     5
100
AcDbLine
 10
-2907.835659299154
 20
-3115.281748740978
 30
0.0
 11
-2907.835659299154
 21
-415.2815551788017
 31
0.0
  0
LWPOLYLINE
  5
25C
330
1F
100
AcDbEntity
  8
0-B_寸法
  6
Continuous
 62
     7
370
     9
100
AcDbPolyline
 90
        4
 70
     1
 43
3.0
 10
-2906.335659299154
 20
-415.2815551788017
 42
0.4142135623731
 10
-2907.835659299154
 20
-413.7815551788017
 42
0.4142135623731
 10
-2909.335659299154
 20
-415.2815551788017
 42
0.4142135623731
 10
-2907.835659299154
 20
-416.7815551788017
 42
0.4142135623731
  0
LINE
  5
25D
330
1F
100
AcDbEntity
  8
0-C_ハッチ
  6
JWW_DASHED1
 62
   120
370
     5
100
AcDbLine
 10
-3855.834916979686
 20
-176.8969314192992
 30
0.0
 11
-3893.450307884068
 21
-139.2815405149173
 31
0.0
  0
LINE
  5
25E
330
1F
100
AcDbEntity
  8
0-3_仕上げ
  6
Continuous
 62
    40
370
    15
100
AcDbLine
 10
-3855.834916979686
 20
-463.2815551788016
 30
0.0
 11
-3855.834916979686
 21
-139.2815405149173
 31
0.0
  0
LINE
  5
25F
330
1F
100
AcDbEntity
  8
0-3_仕上げ
  6
Continuous
 62
    40
370
    15
100
AcDbLine
 10
-3930.83442210004
 20
-463.2815551788016
 30
0.0
 11
-3930.83442210004
 21
-139.2815405149173
 31
0.0
  0
LINE
  5
260
330
1F
100
AcDbEntity
  8
0-0_補助線
  6
JWW_HOJO
 62
   120
370
     5
100
AcDbLine
 10
-3087.835659299154
 20
-139.2815405149173
 30
0.0
 11
-3087.835659299154
 21
-3187.281541010995
 31
0.0
  0
LINE
  5
261
330
1F
100
AcDbEntity
  8
0-0_補助線
  6
JWW_HOJO
 62
   120
370
     5
100
AcDbLine
 10
-5109.836401618621
 20
-139.2815405149173
 30
0.0
 11
-5109.836401618621
 21
-3187.281541010995
 31
0.0
  0
LINE
  5
262
330
1F
100
AcDbEntity
  8
0-0_補助線
  6
JWW_HOJO
 62
   120
370
     5
100
AcDbLine
 10
-4749.835659299151
 20
-139.2815405149173
 30
0.0
 11
-4749.835659299151
 21
-3187.281541010995
 31
0.0
  0
LINE
  5
263
330
1F
100
AcDbEntity
  8
0-0_補助線
  6
JWW_HOJO
 62
   120
370
     5
100
AcDbLine
 10
-3447.834916979687
 20
-139.2815405149173
 30
0.0
 11
-3447.834916979687
 21
-3187.281541010995
 31
0.0
  0
LINE
  5
264
330
1F
100
AcDbEntity
  8
0-1_通り芯
  6
JWW_CENTER1
 62
   120
370
     5
100
AcDbLine
 10
-4098.835659299153
 20
-3268.775612243934
 30
0.0
 11
-4098.835659299153
 21
-139.2815405149173
 31
0.0
  0
LINE
  5
265
330
1F
100
AcDbEntity
  8
0-0_補助線
  6
JWW_HOJO
 62
   120
370
     5
100
AcDbLine
 10
-5109.836401618621
 20
-139.2815405149173
 30
0.0
 11
-3087.835659299154
 21
-139.2815405149173
 31
0.0
  0
LINE
  5
266
330
1F
100
AcDbEntity
  8
0-C_ハッチ
  6
JWW_DASHED1
 62
   120
370
     5
100
AcDbLine
 10
-3855.834916979686
 20
-219.3234582879648
 30
0.0
 11
-3930.83442210004
 21
-144.3239531676101
 31
0.0
  0
LINE
  5
267
330
1F
100
AcDbEntity
  8
0-0_補助線
  6
JWW_HOJO
 62
   120
370
     5
100
AcDbLine
 10
-3714.835703838321
 20
-1861.281644536695
 30
0.0
 11
-4092.835792916656
 21
-1861.281644536695
 31
0.0
  0
LINE
  5
268
330
1F
100
AcDbEntity
  8
0-0_補助線
  6
JWW_HOJO
 62
   120
370
     5
100
AcDbLine
 10
-3714.835703838321
 20
-1981.281644536695
 30
0.0
 11
-4092.835792916656
 21
-1981.281644536695
 31
0.0
  0
LINE
  5
269
330
1F
100
AcDbEntity
  8
0-B_寸法
  6
Continuous
 62
   120
370
     5
100
AcDbLine
 10
-3966.835748377489
 20
-1387.790532409612
 30
0.0
 11
-3966.835748377489
 21
-1453.281667465567
 31
0.0
  0
LWPOLYLINE
  5
26A
330
1F
100
AcDbEntity
  8
0-B_寸法
  6
Continuous
 62
     7
370
     9
100
AcDbPolyline
 90
        4
 70
     1
 43
3.0
 10
-3965.335748377488
 20
-1453.281667465567
 42
0.4142135623731
 10
-3966.835748377489
 20
-1451.781667465568
 42
0.4142135623731
 10
-3968.335748377489
 20
-1453.281667465567
 42
0.4142135623731
 10
-3966.835748377489
 20
-1454.781667465567
 42
0.4142135623731
  0
LINE
  5
26B
330
1F
100
AcDbEntity
  8
0-6_扉
  6
Continuous
 62
   200
370
    20
100
AcDbLine
 10
-3966.835748377489
 20
-1861.281644536695
 30
0.0
 11
-3966.835748377489
 21
-661.2815403324116
 31
0.0
  0
LINE
  5
26C
330
1F
100
AcDbEntity
  8
0-6_扉
  6
Continuous
 62
   200
370
    20
100
AcDbLine
 10
-3966.835748377489
 20
-3001.281748740979
 30
0.0
 11
-3966.835748377489
 21
-1981.281644536695
 31
0.0
  0
MTEXT
  5
26D
330
1F
100
AcDbEntity
  8
0-B_寸法
  6
Continuous
 62
     7
370
     0
100
AcDbMText
 10
-2922.835708787118
 20
-631.2248739406781
 30
0.0
 40
97.15499999999999
 41
127.5
 46
0.0
 71
     7
 72
     1
  1
{\fＭＳ ゴシック|b0|i0|c128|p49;30}
 11
6.123031769111886E-17
 21
1.0
 31
0.0
 73
     1
 44
1.0
  0
MTEXT
  5
26E
330
1F
100
AcDbEntity
  8
0-B_寸法
  6
Continuous
 62
     7
370
     0
100
AcDbMText
 10
-4147.585048122793
 20
-974.6896211891476
 30
0.0
 40
97.15499999999999
 41
127.5
 46
0.0
 71
     7
 72
     1
  1
{\fＭＳ ゴシック|b0|i0|c128|p49;97}
 73
     1
 44
1.0
  0
MTEXT
  5
26F
330
1F
100
AcDbEntity
  8
0-B_寸法
  6
Continuous
 62
     7
370
     0
100
AcDbMText
 10
-4093.578509802309
 20
-2847.374786444347
 30
0.0
 40
97.15499999999999
 41
127.5
 46
0.0
 71
     7
 72
     1
  1
{\fＭＳ ゴシック|b0|i0|c128|p49;75}
 73
     1
 44
1.0
  0
MTEXT
  5
270
330
1F
100
AcDbEntity
  8
0-B_寸法
  6
Continuous
 62
     7
370
     0
100
AcDbMText
 10
-3102.835708787118
 20
-2750.557947466822
 30
0.0
 40
102.4466666666666
 41
1815.0
 46
0.0
 71
     7
 72
     1
  1
{\fＭＳ ゴシック|b0|i0|c128|p49;ＤＨ＝2,284 (1,983) <1,733>}
 11
6.123031769111886E-17
 21
1.0
 31
0.0
 73
     1
 44
1.0
  0
MTEXT
  5
271
330
1F
100
AcDbEntity
  8
0-B_寸法
  6
Continuous
 62
     7
370
   211
100
AcDbMText
 10
-5124.836401618621
 20
-2818.043349765673
 30
0.0
 40
102.4758620689655
 41
1950.0
 46
0.0
 71
     7
 72
     1
  1
{\fＭＳ ゴシック|b0|i0|c128|p49;ＲＯＨ＝2,356 (2,055) <1,805>}
 11
6.123031769111886E-17
 21
1.0
 31
0.0
 73
     1
 44
1.0
  0
MTEXT
  5
272
330
1F
100
AcDbEntity
  8
0-B_寸法
  6
Continuous
 62
     7
370
     0
100
AcDbMText
 10
-2922.835708787118
 20
-2750.557947466822
 30
0.0
 40
102.4466666666666
 41
1815.0
 46
0.0
 71
     7
 72
     1
  1
{\fＭＳ ゴシック|b0|i0|c128|p49;枠内＝2,291 (1,990) <1,740>}
 11
6.123031769111886E-17
 21
1.0
 31
0.0
 73
     1
 44
1.0
  0
MTEXT
  5
273
330
1F
100
AcDbEntity
  8
0-B_寸法
  6
Continuous
 62
     7
370
     0
100
AcDbMText
 10
-2742.83570878712
 20
-2750.557947466822
 30
0.0
 40
102.4466666666666
 41
1815.0
 46
0.0
 71
     7
 72
     1
  1
{\fＭＳ ゴシック|b0|i0|c128|p49;枠外＝2,336 (2,035) <1,785>}
 11
6.123031769111886E-17
 21
1.0
 31
0.0
 73
     1
 44
1.0
  0
MTEXT
  5
274
330
1F
100
AcDbEntity
  8
0-B_寸法
  6
Continuous
 62
     7
370
     0
100
AcDbMText
 10
718.7433178951165
 20
-3474.379866882795
 30
0.0
 40
79.61586206896554
 41
3030.0
 46
0.0
 71
     7
 72
     1
  1
{\fＭＳ ゴシック|b0|i0|c128|p49;※Ｈ＝４尺、Ｈ＝３尺には躯体接合金具は装備されていません。}
 73
     1
 44
1.0
  0
LINE
  5
275
330
1F
100
AcDbEntity
  8
0-B_寸法
  6
Continuous
 62
   120
370
     5
100
AcDbLine
 10
2360.215028033751
 20
-3115.281986283208
 30
0.0
 11
2900.21502803375
 21
-3115.281986283208
 31
0.0
  0
LWPOLYLINE
  5
276
330
1F
100
AcDbEntity
  8
0-B_寸法
  6
Continuous
 62
     7
370
     9
100
AcDbPolyline
 90
        4
 70
     1
 43
3.0
 10
2901.71502803375
 20
-3115.281986283208
 42
0.4142135623731
 10
2900.21502803375
 20
-3113.781986283208
 42
0.4142135623731
 10
2898.715028033751
 20
-3115.281986283208
 42
0.4142135623731
 10
2900.21502803375
 20
-3116.781986283208
 42
0.4142135623731
  0
LWPOLYLINE
  5
277
330
1F
100
AcDbEntity
  8
0-B_寸法
  6
Continuous
 62
     7
370
     9
100
AcDbPolyline
 90
        4
 70
     1
 43
3.0
 10
2901.71502803375
 20
-3115.281748740979
 42
0.4142135623731
 10
2900.21502803375
 20
-3113.781748740979
 42
0.4142135623731
 10
2898.715028033751
 20
-3115.281748740979
 42
0.4142135623731
 10
2900.21502803375
 20
-3116.781748740979
 42
0.4142135623731
  0
LWPOLYLINE
  5
278
330
1F
100
AcDbEntity
  8
0-B_寸法
  6
Continuous
 62
     7
370
     9
100
AcDbPolyline
 90
        4
 70
     1
 43
3.0
 10
3081.71502803375
 20
-3187.281540891528
 42
0.4142135623731
 10
3080.21502803375
 20
-3185.781540891528
 42
0.4142135623731
 10
3078.715028033751
 20
-3187.281540891528
 42
0.4142135623731
 10
3080.21502803375
 20
-3188.781540891527
 42
0.4142135623731
  0
LINE
  5
279
330
1F
100
AcDbEntity
  8
0-B_寸法
  6
Continuous
 62
   120
370
     5
100
AcDbLine
 10
2360.215028033751
 20
-3187.281540891528
 30
0.0
 11
3080.21502803375
 21
-3187.281540891528
 31
0.0
  0
LINE
  5
27A
330
1F
100
AcDbEntity
  8
0-0_補助線
  6
JWW_HOJO
 62
   120
370
     5
100
AcDbLine
 10
698.2142857142843
 20
-3187.281541010996
 30
0.0
 11
2720.21502803375
 21
-3187.281541010996
 31
0.0
  0
LINE
  5
27B
330
1F
100
AcDbEntity
  8
0-3_仕上げ
  6
Continuous
 62
    40
370
    15
100
AcDbLine
 10
1061.341677632568
 20
-3115.281748740979
 30
0.0
 11
2360.215770353218
 21
-3115.281748740979
 31
0.0
  0
LINE
  5
27C
330
1F
100
AcDbEntity
  8
0-3_仕上げ
  6
Continuous
 62
     7
370
     9
100
AcDbLine
 10
2360.215770353218
 20
-3163.282352494145
 30
0.0
 11
1058.215028033753
 21
-3163.282352494145
 31
0.0
  0
LINE
  5
27D
330
1F
100
AcDbEntity
  8
0-3_仕上げ
  6
Continuous
 62
     7
370
     9
100
AcDbLine
 10
1058.215028033753
 20
-3127.282085259138
 30
0.0
 11
2360.215770353218
 21
-3127.282085259138
 31
0.0
  0
LINE
  5
27E
330
1F
100
AcDbEntity
  8
0-3_仕上げ
  6
Continuous
 62
     7
370
     9
100
AcDbLine
 10
1058.215028033753
 20
-3139.281679457828
 30
0.0
 11
2360.215770353218
 21
-3139.281679457828
 31
0.0
  0
LINE
  5
27F
330
1F
100
AcDbEntity
  8
0-3_仕上げ
  6
Continuous
 62
     7
370
     9
100
AcDbLine
 10
2360.215770353218
 20
-3151.282015975988
 30
0.0
 11
1058.215028033753
 21
-3151.282015975988
 31
0.0
  0
LINE
  5
280
330
1F
100
AcDbEntity
  8
0-3_仕上げ
  6
Continuous
 62
     7
370
     9
100
AcDbLine
 10
2360.215770353218
 20
-3175.281946692835
 30
0.0
 11
1058.215028033753
 21
-3175.281946692835
 31
0.0
  0
LINE
  5
281
330
1F
100
AcDbEntity
  8
0-3_仕上げ
  6
Continuous
 62
    40
370
    15
100
AcDbLine
 10
1058.215028033753
 20
-3187.281540891528
 30
0.0
 11
2360.215770353218
 21
-3187.281540891528
 31
0.0
  0
LINE
  5
282
330
1F
100
AcDbEntity
  8
0-B_寸法
  6
Continuous
 62
   120
370
     5
100
AcDbLine
 10
2360.215028033751
 20
-3001.281748740979
 30
0.0
 11
2720.21502803375
 21
-3001.281748740979
 31
0.0
  0
LWPOLYLINE
  5
283
330
1F
100
AcDbEntity
  8
0-B_寸法
  6
Continuous
 62
     7
370
     9
100
AcDbPolyline
 90
        4
 70
     1
 43
3.0
 10
2721.71502803375
 20
-3001.281748740979
 42
0.4142135623731
 10
2720.21502803375
 20
-2999.78174874098
 42
0.4142135623731
 10
2718.715028033751
 20
-3001.281748740979
 42
0.4142135623731
 10
2720.21502803375
 20
-3002.781748740979
 42
0.4142135623731
  0
LWPOLYLINE
  5
284
330
1F
100
AcDbEntity
  8
0-B_寸法
  6
Continuous
 62
     7
370
     9
100
AcDbPolyline
 90
        4
 70
     1
 43
3.0
 10
2721.71502803375
 20
-3025.281748740979
 42
0.4142135623731
 10
2720.21502803375
 20
-3023.781748740979
 42
0.4142135623731
 10
2718.715028033751
 20
-3025.281748740979
 42
0.4142135623731
 10
2720.21502803375
 20
-3026.781748740979
 42
0.4142135623731
  0
LINE
  5
285
330
1F
100
AcDbEntity
  8
0-B_寸法
  6
Continuous
 62
   120
370
     5
100
AcDbLine
 10
2360.215028033751
 20
-3025.281748740979
 30
0.0
 11
2900.21502803375
 21
-3025.281748740979
 31
0.0
  0
LWPOLYLINE
  5
286
330
1F
100
AcDbEntity
  8
0-B_寸法
  6
Continuous
 62
     7
370
     9
100
AcDbPolyline
 90
        4
 70
     1
 43
3.0
 10
2901.71502803375
 20
-3025.281748740979
 42
0.4142135623731
 10
2900.21502803375
 20
-3023.781748740979
 42
0.4142135623731
 10
2898.715028033751
 20
-3025.281748740979
 42
0.4142135623731
 10
2900.21502803375
 20
-3026.781748740979
 42
0.4142135623731
  0
LWPOLYLINE
  5
287
330
1F
100
AcDbEntity
  8
0-B_寸法
  6
Continuous
 62
     7
370
     9
100
AcDbPolyline
 90
        4
 70
     1
 43
3.0
 10
2901.71502803375
 20
-3025.28151119875
 42
0.4142135623731
 10
2900.21502803375
 20
-3023.78151119875
 42
0.4142135623731
 10
2898.715028033751
 20
-3025.28151119875
 42
0.4142135623731
 10
2900.21502803375
 20
-3026.78151119875
 42
0.4142135623731
  0
LINE
  5
288
330
1F
100
AcDbEntity
  8
0-B_寸法
  6
Continuous
 62
   120
370
     5
100
AcDbLine
 10
2720.21502803375
 20
-3115.281748740979
 30
0.0
 11
3080.21502803375
 21
-3115.281748740979
 31
0.0
  0
LWPOLYLINE
  5
289
330
1F
100
AcDbEntity
  8
0-B_寸法
  6
Continuous
 62
     7
370
     9
100
AcDbPolyline
 90
        4
 70
     1
 43
3.0
 10
3081.71502803375
 20
-3115.281748740979
 42
0.4142135623731
 10
3080.21502803375
 20
-3113.781748740979
 42
0.4142135623731
 10
3078.715028033751
 20
-3115.281748740979
 42
0.4142135623731
 10
3080.21502803375
 20
-3116.781748740979
 42
0.4142135623731
  0
LINE
  5
28A
330
1F
100
AcDbEntity
  8
0-0_補助線
  6
Continuous
 62
    92
370
    13
100
AcDbLine
 10
1913.37315773414
 20
-3025.281748740979
 30
0.0
 11
2003.37315773414
 21
-3115.281748740979
 31
0.0
  0
LINE
  5
28B
330
1F
100
AcDbEntity
  8
0-0_補助線
  6
Continuous
 62
     7
370
     9
100
AcDbLine
 10
1631.215028033752
 20
-3085.281748740979
 30
0.0
 11
1925.215028033752
 21
-3085.281748740979
 31
0.0
  0
LINE
  5
28C
330
1F
100
AcDbEntity
  8
0-0_補助線
  6
Continuous
 62
     7
370
     9
100
AcDbLine
 10
1925.215028033752
 20
-3085.281748740979
 30
0.0
 11
1925.215028033752
 21
-3115.281748740979
 31
0.0
  0
LINE
  5
28D
330
1F
100
AcDbEntity
  8
0-0_補助線
  6
Continuous
 62
     7
370
     9
100
AcDbLine
 10
1631.215028033752
 20
-3085.281748740979
 30
0.0
 11
1631.215028033752
 21
-3115.281748740979
 31
0.0
  0
ARC
  5
28E
330
1F
100
AcDbEntity
  8
0-0_補助線
  6
Continuous
 62
    92
370
    13
100
AcDbCircle
 10
1565.215028033752
 20
-3037.281748740979
 30
0.0
 40
12.0
100
AcDbArc
 50
89.99999999999999
 51
180.0
  0
LINE
  5
28F
330
1F
100
AcDbEntity
  8
0-0_補助線
  6
Continuous
 62
    92
370
    13
100
AcDbLine
 10
1553.215028033751
 20
-3037.281748740979
 30
0.0
 11
1553.215028033751
 21
-3115.281748740979
 31
0.0
  0
LINE
  5
290
330
1F
100
AcDbEntity
  8
0-0_補助線
  6
Continuous
 62
    92
370
    13
100
AcDbLine
 10
2003.215028033751
 20
-3037.281748740979
 30
0.0
 11
2003.215028033751
 21
-3115.281748740979
 31
0.0
  0
ARC
  5
291
330
1F
100
AcDbEntity
  8
0-0_補助線
  6
Continuous
 62
    92
370
    13
100
AcDbCircle
 10
1991.215028033752
 20
-3037.281748740979
 30
0.0
 40
12.0
100
AcDbArc
 50
0.0
 51
90.0
  0
LINE
  5
292
330
1F
100
AcDbEntity
  8
0-0_補助線
  6
Continuous
 62
    92
370
    13
100
AcDbLine
 10
1565.215028033752
 20
-3025.281748740979
 30
0.0
 11
1991.215028033752
 21
-3025.281748740979
 31
0.0
  0
LINE
  5
293
330
1F
100
AcDbEntity
  8
0-0_補助線
  6
Continuous
 62
    92
370
    13
100
AcDbLine
 10
1553.215028033751
 20
-3089.387687752519
 30
0.0
 11
1579.109089022211
 21
-3115.281748740979
 31
0.0
  0
LINE
  5
294
330
1F
100
AcDbEntity
  8
0-0_補助線
  6
Continuous
 62
    92
370
    13
100
AcDbLine
 10
1828.520343991753
 20
-3025.281748740979
 30
0.0
 11
1888.520343991753
 21
-3085.281748740979
 31
0.0
  0
LINE
  5
295
330
1F
100
AcDbEntity
  8
0-0_補助線
  6
Continuous
 62
    92
370
    13
100
AcDbLine
 10
1743.667530249367
 20
-3025.281748740979
 30
0.0
 11
1803.667530249367
 21
-3085.281748740979
 31
0.0
  0
LINE
  5
296
330
1F
100
AcDbEntity
  8
0-0_補助線
  6
Continuous
 62
    92
370
    13
100
AcDbLine
 10
1658.814716506984
 20
-3025.281748740979
 30
0.0
 11
1718.814716506984
 21
-3085.281748740979
 31
0.0
  0
LINE
  5
297
330
1F
100
AcDbEntity
  8
0-0_補助線
  6
Continuous
 62
    92
370
    13
100
AcDbLine
 10
1573.961902764598
 20
-3025.281748740979
 30
0.0
 11
1633.961902764598
 21
-3085.281748740979
 31
0.0
  0
LINE
  5
298
330
1F
100
AcDbEntity
  8
0-0_補助線
  6
Continuous
 62
     7
370
     9
100
AcDbLine
 10
1925.215028033752
 20
-3097.23023527419
 30
0.0
 11
1907.163514566964
 21
-3115.281748740979
 31
0.0
  0
LINE
  5
299
330
1F
100
AcDbEntity
  8
0-0_補助線
  6
Continuous
 62
     7
370
     9
100
AcDbLine
 10
1640.178666468615
 20
-3085.281748740979
 30
0.0
 11
1631.215028033752
 21
-3094.245387175843
 31
0.0
  0
LINE
  5
29A
330
1F
100
AcDbEntity
  8
0-0_補助線
  6
Continuous
 62
     7
370
     9
100
AcDbLine
 10
1682.605073339807
 20
-3085.281748740979
 30
0.0
 11
1652.605073339807
 21
-3115.281748740979
 31
0.0
  0
LINE
  5
29B
330
1F
100
AcDbEntity
  8
0-0_補助線
  6
Continuous
 62
     7
370
     9
100
AcDbLine
 10
1725.031480211
 20
-3085.281748740979
 30
0.0
 11
1695.031480211
 21
-3115.281748740979
 31
0.0
  0
LINE
  5
29C
330
1F
100
AcDbEntity
  8
0-0_補助線
  6
Continuous
 62
     7
370
     9
100
AcDbLine
 10
1767.457887082193
 20
-3085.281748740979
 30
0.0
 11
1737.457887082193
 21
-3115.281748740979
 31
0.0
  0
LINE
  5
29D
330
1F
100
AcDbEntity
  8
0-0_補助線
  6
Continuous
 62
     7
370
     9
100
AcDbLine
 10
1809.884293953384
 20
-3085.281748740979
 30
0.0
 11
1779.884293953384
 21
-3115.281748740979
 31
0.0
  0
LINE
  5
29E
330
1F
100
AcDbEntity
  8
0-0_補助線
  6
Continuous
 62
     7
370
     9
100
AcDbLine
 10
1852.310700824578
 20
-3085.281748740979
 30
0.0
 11
1822.310700824578
 21
-3115.281748740979
 31
0.0
  0
LINE
  5
29F
330
1F
100
AcDbEntity
  8
0-0_補助線
  6
Continuous
 62
     7
370
     9
100
AcDbLine
 10
1894.737107695771
 20
-3085.281748740979
 30
0.0
 11
1864.737107695771
 21
-3115.281748740979
 31
0.0
  0
LINE
  5
2A0
330
1F
100
AcDbEntity
  8
0-4_枠
  6
Continuous
 62
    92
370
    13
100
AcDbLine
 10
2003.215028033751
 20
-3115.281748740979
 30
0.0
 11
1553.215028033751
 21
-3115.281748740979
 31
0.0
  0
LINE
  5
2A1
330
1F
100
AcDbEntity
  8
0-B_寸法
  6
Continuous
 62
   120
370
     5
100
AcDbLine
 10
1553.222548690328
 20
-2965.77802282526
 30
0.0
 11
1553.222548690328
 21
-2850.953078251779
 31
0.0
  0
LWPOLYLINE
  5
2A2
330
1F
100
AcDbEntity
  8
0-B_寸法
  6
Continuous
 62
     7
370
     9
100
AcDbPolyline
 90
        4
 70
     1
 43
3.0
 10
1554.722548690328
 20
-2850.953078251779
 42
0.4142135623731
 10
1553.222548690328
 20
-2849.453078251779
 42
0.4142135623731
 10
1551.722548690328
 20
-2850.953078251779
 42
0.4142135623731
 10
1553.222548690328
 20
-2852.453078251779
 42
0.4142135623731
  0
LINE
  5
2A3
330
1F
100
AcDbEntity
  8
0-B_寸法
  6
Continuous
 62
   120
370
     5
100
AcDbLine
 10
2003.215028033751
 20
-2850.953078251779
 30
0.0
 11
1553.222548690328
 21
-2850.953078251779
 31
0.0
  0
LWPOLYLINE
  5
2A4
330
1F
100
AcDbEntity
  8
0-B_寸法
  6
Continuous
 62
     7
370
     9
100
AcDbPolyline
 90
        4
 70
     1
 43
3.0
 10
2004.715028033751
 20
-2850.953078251779
 42
0.4142135623731
 10
2003.215028033751
 20
-2849.453078251779
 42
0.4142135623731
 10
2001.715028033751
 20
-2850.953078251779
 42
0.4142135623731
 10
2003.215028033751
 20
-2852.453078251779
 42
0.4142135623731
  0
LINE
  5
2A5
330
1F
100
AcDbEntity
  8
0-B_寸法
  6
Continuous
 62
   120
370
     5
100
AcDbLine
 10
2003.215028033751
 20
-2965.77802282526
 30
0.0
 11
2003.215028033751
 21
-2850.953078251779
 31
0.0
  0
LINE
  5
2A6
330
1F
100
AcDbEntity
  8
0-B_寸法
  6
Continuous
 62
   120
370
     5
100
AcDbLine
 10
2360.215028033751
 20
-661.2815403324125
 30
0.0
 11
2720.21502803375
 21
-661.2815403324125
 31
0.0
  0
LINE
  5
2A7
330
1F
100
AcDbEntity
  8
0-B_寸法
  6
Continuous
 62
   120
370
     5
100
AcDbLine
 10
2720.21502803375
 20
-643.2814067149086
 30
0.0
 11
2360.215028033751
 21
-643.2814067149086
 31
0.0
  0
LWPOLYLINE
  5
2A8
330
1F
100
AcDbEntity
  8
0-B_寸法
  6
Continuous
 62
     7
370
     9
100
AcDbPolyline
 90
        4
 70
     1
 43
3.0
 10
2721.71502803375
 20
-661.2815403324125
 42
0.4142135623731
 10
2720.21502803375
 20
-659.7815403324125
 42
0.4142135623731
 10
2718.715028033751
 20
-661.2815403324125
 42
0.4142135623731
 10
2720.21502803375
 20
-662.7815403324125
 42
0.4142135623731
  0
LWPOLYLINE
  5
2A9
330
1F
100
AcDbEntity
  8
0-B_寸法
  6
Continuous
 62
     7
370
     9
100
AcDbPolyline
 90
        4
 70
     1
 43
3.0
 10
2721.71502803375
 20
-643.2814067149086
 42
0.4142135623731
 10
2720.21502803375
 20
-641.7814067149086
 42
0.4142135623731
 10
2718.715028033751
 20
-643.2814067149086
 42
0.4142135623731
 10
2720.21502803375
 20
-644.7814067149087
 42
0.4142135623731
  0
LWPOLYLINE
  5
2AA
330
1F
100
AcDbEntity
  8
0-B_寸法
  6
Continuous
 62
     7
370
     9
100
AcDbPolyline
 90
        4
 70
     1
 43
3.0
 10
2901.71502803375
 20
-463.2815551788024
 42
0.4142135623731
 10
2900.21502803375
 20
-461.7815551788024
 42
0.4142135623731
 10
2898.715028033751
 20
-463.2815551788024
 42
0.4142135623731
 10
2900.21502803375
 20
-464.7815551788024
 42
0.4142135623731
  0
LINE
  5
2AB
330
1F
100
AcDbEntity
  8
0-B_寸法
  6
Continuous
 62
   120
370
     5
100
AcDbLine
 10
2360.215028033751
 20
-463.2815551788024
 30
0.0
 11
3080.21502803375
 21
-463.2815551788024
 31
0.0
  0
LINE
  5
2AC
330
1F
100
AcDbEntity
  8
0-B_寸法
  6
Continuous
 62
   120
370
     5
100
AcDbLine
 10
3080.21502803375
 20
-463.2808128593336
 30
0.0
 11
2624.215305166352
 21
-463.2808128593336
 31
0.0
  0
LINE
  5
2AD
330
1F
100
AcDbEntity
  8
0-B_寸法
  6
Continuous
 62
   120
370
     5
100
AcDbLine
 10
3080.21502803375
 20
-3187.281540891528
 30
0.0
 11
3080.21502803375
 21
-463.2815551788024
 31
0.0
  0
LWPOLYLINE
  5
2AE
330
1F
100
AcDbEntity
  8
0-B_寸法
  6
Continuous
 62
     7
370
     9
100
AcDbPolyline
 90
        4
 70
     1
 43
3.0
 10
3081.71502803375
 20
-463.2815551788024
 42
0.4142135623731
 10
3080.21502803375
 20
-461.7815551788024
 42
0.4142135623731
 10
3078.715028033751
 20
-463.2815551788024
 42
0.4142135623731
 10
3080.21502803375
 20
-464.7815551788024
 42
0.4142135623731
  0
LWPOLYLINE
  5
2AF
330
1F
100
AcDbEntity
  8
0-B_寸法
  6
Continuous
 62
     7
370
     9
100
AcDbPolyline
 90
        4
 70
     1
 43
3.0
 10
3081.71502803375
 20
-463.2808128593336
 42
0.4142135623731
 10
3080.21502803375
 20
-461.7808128593335
 42
0.4142135623731
 10
3078.715028033751
 20
-463.2808128593336
 42
0.4142135623731
 10
3080.21502803375
 20
-464.7808128593336
 42
0.4142135623731
  0
LINE
  5
2B0
330
1F
100
AcDbEntity
  8
0-B_寸法
  6
Continuous
 62
   120
370
     5
100
AcDbLine
 10
1418.215028033751
 20
-826.0419443521555
 30
0.0
 11
1418.215028033751
 21
-978.2671706771125
 31
0.0
  0
LINE
  5
2B1
330
1F
100
AcDbEntity
  8
0-B_寸法
  6
Continuous
 62
   120
370
     5
100
AcDbLine
 10
2000.215028033754
 20
-978.2671706771125
 30
0.0
 11
1418.215028033751
 21
-978.2671706771125
 31
0.0
  0
LWPOLYLINE
  5
2B2
330
1F
100
AcDbEntity
  8
0-B_寸法
  6
Continuous
 62
     7
370
     9
100
AcDbPolyline
 90
        4
 70
     1
 43
3.0
 10
1419.715028033751
 20
-978.2671706771125
 42
0.4142135623731
 10
1418.215028033751
 20
-976.7671706771126
 42
0.4142135623731
 10
1416.715028033751
 20
-978.2671706771125
 42
0.4142135623731
 10
1418.215028033751
 20
-979.7671706771124
 42
0.4142135623731
  0
LINE
  5
2B3
330
1F
100
AcDbEntity
  8
0-4_枠
  6
Continuous
 62
    92
370
    13
100
AcDbLine
 10
2000.215770353218
 20
-463.2815551788024
 30
0.0
 11
1418.215028033751
 21
-463.2815551788024
 31
0.0
  0
LINE
  5
2B4
330
1F
100
AcDbEntity
  8
0-4_枠
  6
Continuous
 62
    92
370
    13
100
AcDbLine
 10
2000.215770353218
 20
-463.2815551788024
 30
0.0
 11
2000.215770353218
 21
-643.2817778746427
 31
0.0
  0
LINE
  5
2B5
330
1F
100
AcDbEntity
  8
0-4_枠
  6
Continuous
 62
    92
370
    13
100
AcDbLine
 10
1418.215028033751
 20
-463.2815551788024
 30
0.0
 11
1418.215028033751
 21
-643.2817778746427
 31
0.0
  0
LINE
  5
2B6
330
1F
100
AcDbEntity
  8
0-4_枠
  6
Continuous
 62
    92
370
    13
100
AcDbLine
 10
1418.215028033751
 20
-643.2817778746427
 30
0.0
 11
2000.215770353218
 21
-643.2817778746427
 31
0.0
  0
LINE
  5
2B7
330
1F
100
AcDbEntity
  8
0-B_寸法
  6
Continuous
 62
   120
370
     5
100
AcDbLine
 10
2000.215028033754
 20
-826.0419443521555
 30
0.0
 11
2000.215028033754
 21
-978.2671706771125
 31
0.0
  0
LWPOLYLINE
  5
2B8
330
1F
100
AcDbEntity
  8
0-B_寸法
  6
Continuous
 62
     7
370
     9
100
AcDbPolyline
 90
        4
 70
     1
 43
3.0
 10
2001.715028033754
 20
-978.2671706771125
 42
0.4142135623731
 10
2000.215028033754
 20
-976.7671706771126
 42
0.4142135623731
 10
1998.715028033754
 20
-978.2671706771125
 42
0.4142135623731
 10
2000.215028033754
 20
-979.7671706771124
 42
0.4142135623731
  0
LINE
  5
2B9
330
1F
100
AcDbEntity
  8
0-C_ハッチ
  6
Continuous
 62
   120
370
     5
100
AcDbLine
 10
1688.640624621349
 20
-643.2817778746447
 30
0.0
 11
1508.640401925505
 21
-463.2815551787986
 31
0.0
  0
LINE
  5
2BA
330
1F
100
AcDbEntity
  8
0-C_ハッチ
  6
Continuous
 62
   120
370
     5
100
AcDbLine
 10
1748.037594241037
 20
-643.2817778746311
 30
0.0
 11
1568.037371545193
 21
-463.2815551787849
 31
0.0
  0
LINE
  5
2BB
330
1F
100
AcDbEntity
  8
0-C_ハッチ
  6
Continuous
 62
   120
370
     5
100
AcDbLine
 10
1807.434563860698
 20
-643.2817778746427
 30
0.0
 11
1627.43434116485
 21
-463.2815551787973
 31
0.0
  0
LINE
  5
2BC
330
1F
100
AcDbEntity
  8
0-C_ハッチ
  6
Continuous
 62
   120
370
     5
100
AcDbLine
 10
1866.831533480405
 20
-643.2817778746495
 30
0.0
 11
1686.831310784564
 21
-463.2815551788092
 31
0.0
  0
LINE
  5
2BD
330
1F
100
AcDbEntity
  8
0-C_ハッチ
  6
Continuous
 62
   120
370
     5
100
AcDbLine
 10
1926.228503100044
 20
-643.2817778746413
 30
0.0
 11
1746.228280404198
 21
-463.2815551787956
 31
0.0
  0
LINE
  5
2BE
330
1F
100
AcDbEntity
  8
0-C_ハッチ
  6
Continuous
 62
   120
370
     5
100
AcDbLine
 10
1985.625472719689
 20
-643.2817778746396
 30
0.0
 11
1805.62525002385
 21
-463.2815551787986
 31
0.0
  0
LINE
  5
2BF
330
1F
100
AcDbEntity
  8
0-C_ハッチ
  6
Continuous
 62
   120
370
     5
100
AcDbLine
 10
2000.215770353221
 20
-598.4751058884708
 30
0.0
 11
1865.022219643545
 21
-463.2815551787956
 31
0.0
  0
LINE
  5
2C0
330
1F
100
AcDbEntity
  8
0-C_ハッチ
  6
Continuous
 62
   120
370
     5
100
AcDbLine
 10
2000.215770353211
 20
-539.0781362688124
 30
0.0
 11
1924.419189263204
 21
-463.2815551788075
 31
0.0
  0
LINE
  5
2C1
330
1F
100
AcDbEntity
  8
0-C_ハッチ
  6
Continuous
 62
   120
370
     5
100
AcDbLine
 10
2000.215770353225
 20
-479.6811666491259
 30
0.0
 11
1983.816158882893
 21
-463.2815551787939
 31
0.0
  0
LINE
  5
2C2
330
1F
100
AcDbEntity
  8
0-C_ハッチ
  6
Continuous
 62
   120
370
     5
100
AcDbLine
 10
1510.44971576234
 20
-643.2817778746337
 30
0.0
 11
1418.215028033751
 21
-551.0470901460455
 31
0.0
  0
LINE
  5
2C3
330
1F
100
AcDbEntity
  8
0-C_ハッチ
  6
Continuous
 62
   120
370
     5
100
AcDbLine
 10
1569.846685382
 20
-643.2817778746439
 30
0.0
 11
1418.215028033751
 21
-491.6501205263966
 31
0.0
  0
LINE
  5
2C4
330
1F
100
AcDbEntity
  8
0-C_ハッチ
  6
Continuous
 62
   120
370
     5
100
AcDbLine
 10
1629.243655001689
 20
-643.2817778746328
 30
0.0
 11
1449.243432305857
 21
-463.2815551788024
 31
0.0
  0
LINE
  5
2C5
330
1F
100
AcDbEntity
  8
0-C_ハッチ
  6
Continuous
 62
   120
370
     5
100
AcDbLine
 10
1451.052746142683
 20
-643.2817778746337
 30
0.0
 11
1418.215028033751
 21
-610.4440597657014
 31
0.0
  0
LINE
  5
2C6
330
1F
100
AcDbEntity
  8
0-C_ハッチ
  6
JWW_DASHED1
 62
   120
370
     5
100
AcDbLine
 10
1899.189663802333
 20
-463.2815551788024
 30
0.0
 11
1877.216265232864
 21
-441.3081566093336
 31
0.0
  0
LINE
  5
2C7
330
1F
100
AcDbEntity
  8
0-C_ハッチ
  6
JWW_DASHED1
 62
   120
370
     5
100
AcDbLine
 10
1941.616190670999
 20
-463.2815551788024
 30
0.0
 11
1877.216265232864
 21
-398.8816297406675
 31
0.0
  0
LINE
  5
2C8
330
1F
100
AcDbEntity
  8
0-C_ハッチ
  6
JWW_DASHED1
 62
   120
370
     5
100
AcDbLine
 10
1952.215770353219
 20
-431.454607992357
 30
0.0
 11
1877.216265232864
 21
-356.4551028720023
 31
0.0
  0
LINE
  5
2C9
330
1F
100
AcDbEntity
  8
0-C_ハッチ
  6
JWW_DASHED1
 62
   120
370
     5
100
AcDbLine
 10
1952.215770353219
 20
-389.0291946028938
 30
0.0
 11
1877.216265232864
 21
-314.0296894825399
 31
0.0
  0
LINE
  5
2CA
330
1F
100
AcDbEntity
  8
0-C_ハッチ
  6
JWW_DASHED1
 62
   120
370
     5
100
AcDbLine
 10
1952.215770353219
 20
-346.6026677342281
 30
0.0
 11
1877.216265232864
 21
-271.6031626138738
 31
0.0
  0
LINE
  5
2CB
330
1F
100
AcDbEntity
  8
0-C_ハッチ
  6
JWW_DASHED1
 62
   120
370
     5
100
AcDbLine
 10
1952.215770353219
 20
-304.1761408655625
 30
0.0
 11
1877.216265232864
 21
-229.176635745207
 31
0.0
  0
LINE
  5
2CC
330
1F
100
AcDbEntity
  8
0-C_ハッチ
  6
JWW_DASHED1
 62
   120
370
     5
100
AcDbLine
 10
1952.215770353219
 20
-261.7499851566313
 30
0.0
 11
1877.216265232864
 21
-186.7504800362757
 31
0.0
  0
LINE
  5
2CD
330
1F
100
AcDbEntity
  8
0-B_寸法
  6
Continuous
 62
   120
370
     5
100
AcDbLine
 10
2720.21502803375
 20
-3025.281748740979
 30
0.0
 11
2720.21502803375
 21
-643.2814067149086
 31
0.0
  0
LINE
  5
2CE
330
1F
100
AcDbEntity
  8
0-B_寸法
  6
Continuous
 62
   120
370
     5
100
AcDbLine
 10
2720.21502803375
 20
-643.2814067149086
 30
0.0
 11
2900.21502803375
 21
-643.2814067149086
 31
0.0
  0
LWPOLYLINE
  5
2CF
330
1F
100
AcDbEntity
  8
0-B_寸法
  6
Continuous
 62
     7
370
     9
100
AcDbPolyline
 90
        4
 70
     1
 43
3.0
 10
2901.71502803375
 20
-643.2814067149086
 42
0.4142135623731
 10
2900.21502803375
 20
-641.7814067149086
 42
0.4142135623731
 10
2898.715028033751
 20
-643.2814067149086
 42
0.4142135623731
 10
2900.21502803375
 20
-644.7814067149087
 42
0.4142135623731
  0
LINE
  5
2D0
330
1F
100
AcDbEntity
  8
0-0_補助線
  6
JWW_HOJO
 62
   120
370
     5
100
AcDbLine
 10
698.2142857142843
 20
-139.2815405149173
 30
0.0
 11
698.2142857142843
 21
-3187.281541010996
 31
0.0
  0
LINE
  5
2D1
330
1F
100
AcDbEntity
  8
0-C_ハッチ
  6
JWW_DASHED1
 62
   120
370
     5
100
AcDbLine
 10
1952.215770353219
 20
-176.8969314193
 30
0.0
 11
1914.600379448837
 21
-139.2815405149173
 31
0.0
  0
LINE
  5
2D2
330
1F
100
AcDbEntity
  8
0-3_仕上げ
  6
Continuous
 62
    40
370
    15
100
AcDbLine
 10
1952.215770353219
 20
-463.2815551788024
 30
0.0
 11
1952.215770353219
 21
-139.2815405149173
 31
0.0
  0
LINE
  5
2D3
330
1F
100
AcDbEntity
  8
0-3_仕上げ
  6
Continuous
 62
    40
370
    15
100
AcDbLine
 10
1877.216265232864
 20
-463.2815551788024
 30
0.0
 11
1877.216265232864
 21
-139.2815405149173
 31
0.0
  0
LINE
  5
2D4
330
1F
100
AcDbEntity
  8
0-0_補助線
  6
JWW_HOJO
 62
   120
370
     5
100
AcDbLine
 10
2720.21502803375
 20
-139.2815405149173
 30
0.0
 11
2720.21502803375
 21
-3187.281541010996
 31
0.0
  0
LINE
  5
2D5
330
1F
100
AcDbEntity
  8
0-0_補助線
  6
JWW_HOJO
 62
   120
370
     5
100
AcDbLine
 10
1058.215028033753
 20
-139.2815405149173
 30
0.0
 11
1058.215028033753
 21
-3187.281541010996
 31
0.0
  0
LINE
  5
2D6
330
1F
100
AcDbEntity
  8
0-0_補助線
  6
JWW_HOJO
 62
   120
370
     5
100
AcDbLine
 10
2360.215770353218
 20
-139.2815405149173
 30
0.0
 11
2360.215770353218
 21
-3187.281541010996
 31
0.0
  0
LINE
  5
2D7
330
1F
100
AcDbEntity
  8
0-1_通り芯
  6
JWW_CENTER1
 62
   120
370
     5
100
AcDbLine
 10
1709.215028033751
 20
-3268.775612243934
 30
0.0
 11
1709.215028033751
 21
-139.2815405149173
 31
0.0
  0
LINE
  5
2D8
330
1F
100
AcDbEntity
  8
0-0_補助線
  6
JWW_HOJO
 62
   120
370
     5
100
AcDbLine
 10
698.2142857142843
 20
-139.2815405149173
 30
0.0
 11
2720.21502803375
 21
-139.2815405149173
 31
0.0
  0
LINE
  5
2D9
330
1F
100
AcDbEntity
  8
0-C_ハッチ
  6
JWW_DASHED1
 62
   120
370
     5
100
AcDbLine
 10
1952.215770353219
 20
-219.3234582879657
 30
0.0
 11
1877.216265232864
 21
-144.3239531676101
 31
0.0
  0
LINE
  5
2DA
330
1F
100
AcDbEntity
  8
0-0_補助線
  6
JWW_HOJO
 62
   120
370
     5
100
AcDbLine
 10
2093.214983494584
 20
-1861.281644536695
 30
0.0
 11
1715.214894416248
 21
-1861.281644536695
 31
0.0
  0
LINE
  5
2DB
330
1F
100
AcDbEntity
  8
0-0_補助線
  6
JWW_HOJO
 62
   120
370
     5
100
AcDbLine
 10
2093.214983494584
 20
-1981.281644536695
 30
0.0
 11
1715.214894416248
 21
-1981.281644536695
 31
0.0
  0
LINE
  5
2DC
330
1F
100
AcDbEntity
  8
0-B_寸法
  6
Continuous
 62
   120
370
     5
100
AcDbLine
 10
1841.214938955415
 20
-1387.790532409613
 30
0.0
 11
1841.214938955415
 21
-1453.281667465568
 31
0.0
  0
LWPOLYLINE
  5
2DD
330
1F
100
AcDbEntity
  8
0-B_寸法
  6
Continuous
 62
     7
370
     9
100
AcDbPolyline
 90
        4
 70
     1
 43
3.0
 10
1842.714938955415
 20
-1453.281667465568
 42
0.4142135623731
 10
1841.214938955415
 20
-1451.781667465568
 42
0.4142135623731
 10
1839.714938955416
 20
-1453.281667465568
 42
0.4142135623731
 10
1841.214938955415
 20
-1454.781667465568
 42
0.4142135623731
  0
LINE
  5
2DE
330
1F
100
AcDbEntity
  8
0-6_扉
  6
Continuous
 62
   200
370
    20
100
AcDbLine
 10
1841.214938955415
 20
-1861.281644536695
 30
0.0
 11
1841.214938955415
 21
-661.2815403324125
 31
0.0
  0
LINE
  5
2DF
330
1F
100
AcDbEntity
  8
0-6_扉
  6
Continuous
 62
   200
370
    20
100
AcDbLine
 10
1841.214938955415
 20
-3001.281748740979
 30
0.0
 11
1841.214938955415
 21
-1981.281644536695
 31
0.0
  0
MTEXT
  5
2E0
330
1F
100
AcDbEntity
  8
0-B_寸法
  6
Continuous
 62
     7
370
     0
100
AcDbMText
 10
2885.214978545786
 20
-631.2248739406789
 30
0.0
 40
97.15499999999999
 41
127.5
 46
0.0
 71
     7
 72
     1
  1
{\fＭＳ ゴシック|b0|i0|c128|p49;30}
 11
6.123031769111886E-17
 21
1.0
 31
0.0
 73
     1
 44
1.0
  0
MTEXT
  5
2E1
330
1F
100
AcDbEntity
  8
0-B_寸法
  6
Continuous
 62
     7
370
     0
100
AcDbMText
 10
1660.465639210111
 20
-974.689621189148
 30
0.0
 40
97.15499999999999
 41
127.5
 46
0.0
 71
     7
 72
     1
  1
{\fＭＳ ゴシック|b0|i0|c128|p49;97}
 73
     1
 44
1.0
  0
MTEXT
  5
2E2
330
1F
100
AcDbEntity
  8
0-B_寸法
  6
Continuous
 62
     7
370
     0
100
AcDbMText
 10
1714.472177530596
 20
-2847.374786444348
 30
0.0
 40
97.15499999999999
 41
127.5
 46
0.0
 71
     7
 72
     1
  1
{\fＭＳ ゴシック|b0|i0|c128|p49;75}
 73
     1
 44
1.0
  0
LINE
  5
2E3
330
1F
100
AcDbEntity
  8
0-B_寸法
  6
Continuous
 62
   120
370
     5
100
AcDbLine
 10
2900.21502803375
 20
-3115.281748740979
 30
0.0
 11
2900.21502803375
 21
-463.2815551788024
 31
0.0
  0
MTEXT
  5
2E4
330
1F
100
AcDbEntity
  8
0-B_寸法
  6
Continuous
 62
     7
370
     0
100
AcDbMText
 10
2705.214978545786
 20
-2413.182457270745
 30
0.0
 40
102.1976470588235
 41
1140.0
 46
0.0
 71
     7
 72
     1
  1
{\fＭＳ ゴシック|b0|i0|c128|p49;ＤＨ＝1,135 (780)}
 11
6.123031769111886E-17
 21
1.0
 31
0.0
 73
     1
 44
1.0
  0
MTEXT
  5
2E5
330
1F
100
AcDbEntity
  8
0-B_寸法
  6
Continuous
 62
     7
370
     0
100
AcDbMText
 10
2885.214978545786
 20
-2413.182457270745
 30
0.0
 40
102.1976470588235
 41
1140.0
 46
0.0
 71
     7
 72
     1
  1
{\fＭＳ ゴシック|b0|i0|c128|p49;枠内＝1,142 (787)}
 11
6.123031769111886E-17
 21
1.0
 31
0.0
 73
     1
 44
1.0
  0
MTEXT
  5
2E6
330
1F
100
AcDbEntity
  8
0-B_寸法
  6
Continuous
 62
     7
370
     0
100
AcDbMText
 10
3065.214978545785
 20
-2413.182457270745
 30
0.0
 40
102.1976470588235
 41
1140.0
 46
0.0
 71
     7
 72
     1
  1
{\fＭＳ ゴシック|b0|i0|c128|p49;枠外＝1,187 (832)}
 11
6.123031769111886E-17
 21
1.0
 31
0.0
 73
     1
 44
1.0
  0
LINE
  5
2E7
330
1F
100
AcDbEntity
  8
0-4_枠
  6
Continuous
 62
    92
370
    13
100
AcDbLine
 10
-2145.835387115366
 20
-643.2815551788016
 30
0.0
 11
-645.8353871153697
 21
-643.2815551788016
 31
0.0
  0
LINE
  5
2E8
330
1F
100
AcDbEntity
  8
0-4_枠
  6
Continuous
 62
    92
370
    13
100
AcDbLine
 10
-2145.835387115366
 20
-463.2815551788016
 30
0.0
 11
-645.8353871153697
 21
-463.2815551788016
 31
0.0
  0
LINE
  5
2E9
330
1F
100
AcDbEntity
  8
0-4_枠
  6
Continuous
 62
    92
370
    13
100
AcDbLine
 10
-2145.835387115364
 20
-2494.310873187587
 30
0.0
 11
-2145.835387115366
 21
-463.2815551788016
 31
0.0
  0
LINE
  5
2EA
330
1F
100
AcDbEntity
  8
0-4_枠
  6
Continuous
 62
    92
370
    13
100
AcDbLine
 10
-645.835387115368
 20
-2494.310873187587
 30
0.0
 11
-2145.835387115364
 21
-2494.310873187587
 31
0.0
  0
LINE
  5
2EB
330
1F
100
AcDbEntity
  8
0-4_枠
  6
Continuous
 62
    92
370
    13
100
AcDbLine
 10
-645.835387115368
 20
-2494.310873187587
 30
0.0
 11
-645.8353871153697
 21
-463.2815551788016
 31
0.0
  0
LINE
  5
2EC
330
1F
100
AcDbEntity
  8
0-4_枠
  6
Continuous
 62
   120
370
     5
100
AcDbLine
 10
-1703.729208038303
 20
-943.2095613114773
 30
0.0
 11
-1073.729208038305
 21
-943.2095613114773
 31
0.0
  0
LWPOLYLINE
  5
2ED
330
1F
100
AcDbEntity
  8
0-4_枠
  6
Continuous
 62
     7
370
     9
100
AcDbPolyline
 90
        4
 70
     1
 43
3.0
 10
-1702.229208038303
 20
-943.2095613114773
 42
0.4142135623731
 10
-1703.729208038303
 20
-941.7095613114773
 42
0.4142135623731
 10
-1705.229208038303
 20
-943.2095613114773
 42
0.4142135623731
 10
-1703.729208038303
 20
-944.7095613114774
 42
0.4142135623731
  0
LWPOLYLINE
  5
2EE
330
1F
100
AcDbEntity
  8
0-4_枠
  6
Continuous
 62
     7
370
     9
100
AcDbPolyline
 90
        4
 70
     1
 43
3.0
 10
-1072.229208038305
 20
-943.2095613114773
 42
0.4142135623731
 10
-1073.729208038305
 20
-941.7095613114773
 42
0.4142135623731
 10
-1075.229208038305
 20
-943.2095613114773
 42
0.4142135623731
 10
-1073.729208038305
 20
-944.7095613114774
 42
0.4142135623731
  0
LINE
  5
2EF
330
1F
100
AcDbEntity
  8
0-4_枠
  6
Continuous
 62
   120
370
     5
100
AcDbLine
 10
-1703.729208038303
 20
-943.2095613114773
 30
0.0
 11
-1703.729208038303
 21
-1106.00892537821
 31
0.0
  0
LINE
  5
2F0
330
1F
100
AcDbEntity
  8
0-4_枠
  6
Continuous
 62
   120
370
     5
100
AcDbLine
 10
-1073.729208038305
 20
-943.2095613114773
 30
0.0
 11
-1073.729208038305
 21
-1106.00892537821
 31
0.0
  0
MTEXT
  5
2F1
330
1F
100
AcDbEntity
  8
0-4_枠
  6
Continuous
 62
     7
370
   211
100
AcDbMText
 10
-1482.865995820686
 20
-938.6795613114773
 30
0.0
 40
99.06
 41
195.0
 46
0.0
 71
     7
 72
     1
  1
{\fＭＳ ゴシック|b0|i0|c128|p49;105}
 73
     1
 44
1.0
  0
MTEXT
  5
2F2
330
1F
100
AcDbEntity
  8
0-4_枠
  6
Continuous
 62
     7
370
     0
100
AcDbMText
 10
-1838.335387115366
 20
-627.5615551788015
 30
0.0
 40
91.44
 41
840.0
 46
0.0
 71
     7
 72
     1
  1
{\fＭＳ ゴシック|b0|i0|c128|p49;竪枠下端形状図}
 73
     1
 44
1.0
  0
LINE
  5
2F3
330
1F
100
AcDbEntity
  8
0-4_枠
  6
Continuous
 62
    92
370
    13
100
AcDbLine
 10
-1190.729208038304
 20
-1898.928853614484
 30
0.0
 11
-1190.729208038304
 21
-1933.128853614485
 31
0.0
  0
LINE
  5
2F4
330
1F
100
AcDbEntity
  8
0-4_枠
  6
Continuous
 62
    92
370
    13
100
AcDbLine
 10
-1484.729208038305
 20
-1898.928853614484
 30
0.0
 11
-1484.729208038305
 21
-1933.128853614485
 31
0.0
  0
LINE
  5
2F5
330
1F
100
AcDbEntity
  8
0-4_枠
  6
Continuous
 62
    92
370
    13
100
AcDbLine
 10
-1703.729208038303
 20
-1933.128853614485
 30
0.0
 11
-1484.729208038305
 21
-1933.128853614485
 31
0.0
  0
LINE
  5
2F6
330
1F
100
AcDbEntity
  8
0-4_枠
  6
Continuous
 62
    92
370
    13
100
AcDbLine
 10
-1484.729208038305
 20
-1898.928853614484
 30
0.0
 11
-1190.729208038304
 21
-1898.928853614484
 31
0.0
  0
LINE
  5
2F7
330
1F
100
AcDbEntity
  8
0-4_枠
  6
Continuous
 62
    92
370
    13
100
AcDbLine
 10
-1190.729208038304
 20
-1933.128853614485
 30
0.0
 11
-1073.729208038303
 21
-1933.128853614485
 31
0.0
  0
LINE
  5
2F8
330
1F
100
AcDbEntity
  8
0-4_枠
  6
Continuous
 62
    92
370
    13
100
AcDbLine
 10
-1073.729208038303
 20
-1198.933301358
 30
0.0
 11
-1073.729208038303
 21
-1933.128853614485
 31
0.0
  0
LINE
  5
2F9
330
1F
100
AcDbEntity
  8
0-4_枠
  6
Continuous
 62
    92
370
    13
100
AcDbLine
 10
-1703.729208038303
 20
-1198.933301358001
 30
0.0
 11
-1703.729208038303
 21
-1933.128853614485
 31
0.0
  0
LWPOLYLINE
  5
2FA
330
1F
100
AcDbEntity
  8
0-4_枠
  6
Continuous
 62
     7
370
     9
100
AcDbPolyline
 90
        4
 70
     1
 43
3.0
 10
-1072.229208038303
 20
-2310.226952125749
 42
0.4142135623731
 10
-1073.729208038303
 20
-2308.726952125749
 42
0.4142135623731
 10
-1075.229208038303
 20
-2310.226952125749
 42
0.4142135623731
 10
-1073.729208038303
 20
-2311.726952125748
 42
0.4142135623731
  0
LWPOLYLINE
  5
2FB
330
1F
100
AcDbEntity
  8
0-4_枠
  6
Continuous
 62
     7
370
     9
100
AcDbPolyline
 90
        4
 70
     1
 43
3.0
 10
-1189.229208038304
 20
-2310.226952125749
 42
0.4142135623731
 10
-1190.729208038304
 20
-2308.726952125749
 42
0.4142135623731
 10
-1192.229208038304
 20
-2310.226952125749
 42
0.4142135623731
 10
-1190.729208038304
 20
-2311.726952125748
 42
0.4142135623731
  0
LINE
  5
2FC
330
1F
100
AcDbEntity
  8
0-4_枠
  6
Continuous
 62
   120
370
     5
100
AcDbLine
 10
-1073.729208038303
 20
-2310.226952125749
 30
0.0
 11
-1073.729208038303
 21
-2083.674430435205
 31
0.0
  0
LINE
  5
2FD
330
1F
100
AcDbEntity
  8
0-4_枠
  6
Continuous
 62
   120
370
     5
100
AcDbLine
 10
-1190.729208038304
 20
-2310.226952125749
 30
0.0
 11
-1190.729208038304
 21
-2083.674430435205
 31
0.0
  0
LINE
  5
2FE
330
1F
100
AcDbEntity
  8
0-4_枠
  6
Continuous
 62
   120
370
     5
100
AcDbLine
 10
-1190.729208038304
 20
-2310.226952125749
 30
0.0
 11
-1484.729208038305
 21
-2310.226952125749
 31
0.0
  0
LWPOLYLINE
  5
2FF
330
1F
100
AcDbEntity
  8
0-4_枠
  6
Continuous
 62
     7
370
     9
100
AcDbPolyline
 90
        4
 70
     1
 43
3.0
 10
-1483.229208038305
 20
-2310.226952125749
 42
0.4142135623731
 10
-1484.729208038305
 20
-2308.726952125749
 42
0.4142135623731
 10
-1486.229208038304
 20
-2310.226952125749
 42
0.4142135623731
 10
-1484.729208038305
 20
-2311.726952125748
 42
0.4142135623731
  0
LINE
  5
300
330
1F
100
AcDbEntity
  8
0-4_枠
  6
Continuous
 62
   120
370
     5
100
AcDbLine
 10
-1484.729208038305
 20
-2310.226952125749
 30
0.0
 11
-1484.729208038305
 21
-2083.674430435205
 31
0.0
  0
LWPOLYLINE
  5
301
330
1F
100
AcDbEntity
  8
0-4_枠
  6
Continuous
 62
     7
370
     9
100
AcDbPolyline
 90
        4
 70
     1
 43
3.0
 10
-1702.229208038303
 20
-2310.226952125749
 42
0.4142135623731
 10
-1703.729208038303
 20
-2308.726952125749
 42
0.4142135623731
 10
-1705.229208038303
 20
-2310.226952125749
 42
0.4142135623731
 10
-1703.729208038303
 20
-2311.726952125748
 42
0.4142135623731
  0
LINE
  5
302
330
1F
100
AcDbEntity
  8
0-4_枠
  6
Continuous
 62
   120
370
     5
100
AcDbLine
 10
-1703.729208038303
 20
-2310.226952125749
 30
0.0
 11
-1703.729208038303
 21
-2083.674430435205
 31
0.0
  0
MTEXT
  5
303
330
1F
100
AcDbEntity
  8
0-4_枠
  6
Continuous
 62
     7
370
   211
100
AcDbMText
 10
-1416.479208038304
 20
-2306.649452125749
 30
0.0
 40
97.15499999999999
 41
127.5
 46
0.0
 71
     7
 72
     1
  1
{\fＭＳ ゴシック|b0|i0|c128|p49;49}
 73
     1
 44
1.0
  0
MTEXT
  5
304
330
1F
100
AcDbEntity
  8
0-4_枠
  6
Continuous
 62
     7
370
   211
100
AcDbMText
 10
-1991.35155613345
 20
-2305.220702125749
 30
0.0
 40
100.0124999999993
 41
262.4999999999983
 46
0.0
 71
     7
 72
     1
  1
{\fＭＳ ゴシック|b0|i0|c128|p49;36.5}
 73
     1
 44
1.0
  0
LINE
  5
305
330
1F
100
AcDbEntity
  8
0-4_枠
  6
Continuous
 62
   120
370
     5
100
AcDbLine
 10
-768.2003890211673
 20
-2310.226952125749
 30
0.0
 11
-1190.729208038304
 21
-2310.226952125749
 31
0.0
  0
LINE
  5
306
330
1F
100
AcDbEntity
  8
0-4_枠
  6
Continuous
 62
   120
370
     5
100
AcDbLine
 10
-1484.729208038305
 20
-2310.226952125749
 30
0.0
 11
-2083.334683631962
 21
-2310.226952125749
 31
0.0
  0
MTEXT
  5
307
330
1F
100
AcDbEntity
  8
0-4_枠
  6
Continuous
 62
     7
370
   211
100
AcDbMText
 10
-1041.801948585435
 20
-2305.220702125749
 30
0.0
 40
100.0125
 41
262.5
 46
0.0
 71
     7
 72
     1
  1
{\fＭＳ ゴシック|b0|i0|c128|p49;19.5}
 73
     1
 44
1.0
  0
LINE
  5
308
330
1F
100
AcDbEntity
  8
0-4_枠
  6
Continuous
 62
    92
370
    13
100
AcDbLine
 10
3662.215300217539
 20
-643.2815551788016
 30
0.0
 11
5162.215300217536
 21
-643.2815551788016
 31
0.0
  0
LINE
  5
309
330
1F
100
AcDbEntity
  8
0-4_枠
  6
Continuous
 62
    92
370
    13
100
AcDbLine
 10
3662.215300217539
 20
-463.2815551788016
 30
0.0
 11
5162.215300217536
 21
-463.2815551788016
 31
0.0
  0
LINE
  5
30A
330
1F
100
AcDbEntity
  8
0-4_枠
  6
Continuous
 62
    92
370
    13
100
AcDbLine
 10
3662.215300217541
 20
-2494.310873187587
 30
0.0
 11
3662.215300217539
 21
-463.2815551788016
 31
0.0
  0
LINE
  5
30B
330
1F
100
AcDbEntity
  8
0-4_枠
  6
Continuous
 62
    92
370
    13
100
AcDbLine
 10
5162.215300217537
 20
-2494.310873187587
 30
0.0
 11
3662.215300217541
 21
-2494.310873187587
 31
0.0
  0
LINE
  5
30C
330
1F
100
AcDbEntity
  8
0-4_枠
  6
Continuous
 62
    92
370
    13
100
AcDbLine
 10
5162.215300217537
 20
-2494.310873187587
 30
0.0
 11
5162.215300217536
 21
-463.2815551788016
 31
0.0
  0
LINE
  5
30D
330
1F
100
AcDbEntity
  8
0-4_枠
  6
Continuous
 62
   120
370
     5
100
AcDbLine
 10
4104.321479294602
 20
-943.2095613114773
 30
0.0
 11
4734.3214792946
 21
-943.2095613114773
 31
0.0
  0
LWPOLYLINE
  5
30E
330
1F
100
AcDbEntity
  8
0-4_枠
  6
Continuous
 62
     7
370
     9
100
AcDbPolyline
 90
        4
 70
     1
 43
3.0
 10
4105.821479294602
 20
-943.2095613114773
 42
0.4142135623731
 10
4104.321479294602
 20
-941.7095613114773
 42
0.4142135623731
 10
4102.821479294602
 20
-943.2095613114773
 42
0.4142135623731
 10
4104.321479294602
 20
-944.7095613114774
 42
0.4142135623731
  0
LWPOLYLINE
  5
30F
330
1F
100
AcDbEntity
  8
0-4_枠
  6
Continuous
 62
     7
370
     9
100
AcDbPolyline
 90
        4
 70
     1
 43
3.0
 10
4735.821479294601
 20
-943.2095613114773
 42
0.4142135623731
 10
4734.3214792946
 20
-941.7095613114773
 42
0.4142135623731
 10
4732.8214792946
 20
-943.2095613114773
 42
0.4142135623731
 10
4734.3214792946
 20
-944.7095613114774
 42
0.4142135623731
  0
LINE
  5
310
330
1F
100
AcDbEntity
  8
0-4_枠
  6
Continuous
 62
   120
370
     5
100
AcDbLine
 10
4104.321479294602
 20
-943.2095613114773
 30
0.0
 11
4104.321479294602
 21
-1106.00892537821
 31
0.0
  0
LINE
  5
311
330
1F
100
AcDbEntity
  8
0-4_枠
  6
Continuous
 62
   120
370
     5
100
AcDbLine
 10
4734.3214792946
 20
-943.2095613114773
 30
0.0
 11
4734.3214792946
 21
-1106.00892537821
 31
0.0
  0
MTEXT
  5
312
330
1F
100
AcDbEntity
  8
0-4_枠
  6
Continuous
 62
     7
370
   211
100
AcDbMText
 10
4325.18469151222
 20
-938.6795613114773
 30
0.0
 40
99.06
 41
195.0
 46
0.0
 71
     7
 72
     1
  1
{\fＭＳ ゴシック|b0|i0|c128|p49;105}
 73
     1
 44
1.0
  0
MTEXT
  5
313
330
1F
100
AcDbEntity
  8
0-4_枠
  6
Continuous
 62
     7
370
     0
100
AcDbMText
 10
3969.715300217539
 20
-627.5615551788015
 30
0.0
 40
91.44
 41
840.0
 46
0.0
 71
     7
 72
     1
  1
{\fＭＳ ゴシック|b0|i0|c128|p49;竪枠下端形状図}
 73
     1
 44
1.0
  0
LINE
  5
314
330
1F
100
AcDbEntity
  8
0-4_枠
  6
Continuous
 62
    92
370
    13
100
AcDbLine
 10
4617.321479294601
 20
-1898.928853614484
 30
0.0
 11
4617.321479294601
 21
-1933.128853614485
 31
0.0
  0
LINE
  5
315
330
1F
100
AcDbEntity
  8
0-4_枠
  6
Continuous
 62
    92
370
    13
100
AcDbLine
 10
4323.321479294601
 20
-1898.928853614484
 30
0.0
 11
4323.321479294601
 21
-1933.128853614485
 31
0.0
  0
LINE
  5
316
330
1F
100
AcDbEntity
  8
0-4_枠
  6
Continuous
 62
    92
370
    13
100
AcDbLine
 10
4104.321479294602
 20
-1933.128853614485
 30
0.0
 11
4323.321479294601
 21
-1933.128853614485
 31
0.0
  0
LINE
  5
317
330
1F
100
AcDbEntity
  8
0-4_枠
  6
Continuous
 62
    92
370
    13
100
AcDbLine
 10
4323.321479294601
 20
-1898.928853614484
 30
0.0
 11
4617.321479294601
 21
-1898.928853614484
 31
0.0
  0
LINE
  5
318
330
1F
100
AcDbEntity
  8
0-4_枠
  6
Continuous
 62
    92
370
    13
100
AcDbLine
 10
4617.321479294601
 20
-1933.128853614485
 30
0.0
 11
4734.321479294602
 21
-1933.128853614485
 31
0.0
  0
LINE
  5
319
330
1F
100
AcDbEntity
  8
0-4_枠
  6
Continuous
 62
    92
370
    13
100
AcDbLine
 10
4734.321479294602
 20
-1198.933301358
 30
0.0
 11
4734.321479294602
 21
-1933.128853614485
 31
0.0
  0
LINE
  5
31A
330
1F
100
AcDbEntity
  8
0-4_枠
  6
Continuous
 62
    92
370
    13
100
AcDbLine
 10
4104.321479294602
 20
-1198.933301358001
 30
0.0
 11
4104.321479294602
 21
-1933.128853614485
 31
0.0
  0
LWPOLYLINE
  5
31B
330
1F
100
AcDbEntity
  8
0-4_枠
  6
Continuous
 62
     7
370
     9
100
AcDbPolyline
 90
        4
 70
     1
 43
3.0
 10
4735.821479294602
 20
-2310.226952125749
 42
0.4142135623731
 10
4734.321479294602
 20
-2308.726952125749
 42
0.4142135623731
 10
4732.821479294602
 20
-2310.226952125749
 42
0.4142135623731
 10
4734.321479294602
 20
-2311.726952125748
 42
0.4142135623731
  0
LWPOLYLINE
  5
31C
330
1F
100
AcDbEntity
  8
0-4_枠
  6
Continuous
 62
     7
370
     9
100
AcDbPolyline
 90
        4
 70
     1
 43
3.0
 10
4618.821479294601
 20
-2310.226952125749
 42
0.4142135623731
 10
4617.321479294601
 20
-2308.726952125749
 42
0.4142135623731
 10
4615.821479294601
 20
-2310.226952125749
 42
0.4142135623731
 10
4617.321479294601
 20
-2311.726952125748
 42
0.4142135623731
  0
LINE
  5
31D
330
1F
100
AcDbEntity
  8
0-4_枠
  6
Continuous
 62
   120
370
     5
100
AcDbLine
 10
4734.321479294602
 20
-2310.226952125749
 30
0.0
 11
4734.321479294602
 21
-2083.674430435205
 31
0.0
  0
LINE
  5
31E
330
1F
100
AcDbEntity
  8
0-4_枠
  6
Continuous
 62
   120
370
     5
100
AcDbLine
 10
4617.321479294601
 20
-2310.226952125749
 30
0.0
 11
4617.321479294601
 21
-2083.674430435205
 31
0.0
  0
LINE
  5
31F
330
1F
100
AcDbEntity
  8
0-4_枠
  6
Continuous
 62
   120
370
     5
100
AcDbLine
 10
4617.321479294601
 20
-2310.226952125749
 30
0.0
 11
4323.321479294601
 21
-2310.226952125749
 31
0.0
  0
LWPOLYLINE
  5
320
330
1F
100
AcDbEntity
  8
0-4_枠
  6
Continuous
 62
     7
370
     9
100
AcDbPolyline
 90
        4
 70
     1
 43
3.0
 10
4324.821479294601
 20
-2310.226952125749
 42
0.4142135623731
 10
4323.321479294601
 20
-2308.726952125749
 42
0.4142135623731
 10
4321.8214792946
 20
-2310.226952125749
 42
0.4142135623731
 10
4323.321479294601
 20
-2311.726952125748
 42
0.4142135623731
  0
LINE
  5
321
330
1F
100
AcDbEntity
  8
0-4_枠
  6
Continuous
 62
   120
370
     5
100
AcDbLine
 10
4323.321479294601
 20
-2310.226952125749
 30
0.0
 11
4323.321479294601
 21
-2083.674430435205
 31
0.0
  0
LWPOLYLINE
  5
322
330
1F
100
AcDbEntity
  8
0-4_枠
  6
Continuous
 62
     7
370
     9
100
AcDbPolyline
 90
        4
 70
     1
 43
3.0
 10
4105.821479294602
 20
-2310.226952125749
 42
0.4142135623731
 10
4104.321479294602
 20
-2308.726952125749
 42
0.4142135623731
 10
4102.821479294602
 20
-2310.226952125749
 42
0.4142135623731
 10
4104.321479294602
 20
-2311.726952125748
 42
0.4142135623731
  0
LINE
  5
323
330
1F
100
AcDbEntity
  8
0-4_枠
  6
Continuous
 62
   120
370
     5
100
AcDbLine
 10
4104.321479294602
 20
-2310.226952125749
 30
0.0
 11
4104.321479294602
 21
-2083.674430435205
 31
0.0
  0
MTEXT
  5
324
330
1F
100
AcDbEntity
  8
0-4_枠
  6
Continuous
 62
     7
370
   211
100
AcDbMText
 10
4391.571479294602
 20
-2306.649452125749
 30
0.0
 40
97.15499999999999
 41
127.5
 46
0.0
 71
     7
 72
     1
  1
{\fＭＳ ゴシック|b0|i0|c128|p49;49}
 73
     1
 44
1.0
  0
MTEXT
  5
325
330
1F
100
AcDbEntity
  8
0-4_枠
  6
Continuous
 62
     7
370
   211
100
AcDbMText
 10
3816.699131199455
 20
-2305.220702125749
 30
0.0
 40
100.0124999999992
 41
262.4999999999978
 46
0.0
 71
     7
 72
     1
  1
{\fＭＳ ゴシック|b0|i0|c128|p49;36.5}
 73
     1
 44
1.0
  0
LINE
  5
326
330
1F
100
AcDbEntity
  8
0-4_枠
  6
Continuous
 62
   120
370
     5
100
AcDbLine
 10
5039.850298311738
 20
-2310.226952125749
 30
0.0
 11
4617.321479294601
 21
-2310.226952125749
 31
0.0
  0
LINE
  5
327
330
1F
100
AcDbEntity
  8
0-4_枠
  6
Continuous
 62
   120
370
     5
100
AcDbLine
 10
4323.321479294601
 20
-2310.226952125749
 30
0.0
 11
3724.716003700943
 21
-2310.226952125749
 31
0.0
  0
MTEXT
  5
328
330
1F
100
AcDbEntity
  8
0-4_枠
  6
Continuous
 62
     7
370
   211
100
AcDbMText
 10
4766.24873874747
 20
-2305.220702125749
 30
0.0
 40
100.0125
 41
262.5
 46
0.0
 71
     7
 72
     1
  1
{\fＭＳ ゴシック|b0|i0|c128|p49;19.5}
 73
     1
 44
1.0
  0
LINE
  5
329
330
1F
100
AcDbEntity
  8
0-A_文字
  6
Continuous
 62
    92
370
    13
100
AcDbLine
 10
-5679.83630264269
 20
4030.000577359586
 30
0.0
 11
-5679.83630264269
 21
3760.000577359586
 31
0.0
  0
MTEXT
  5
32A
330
1F
100
AcDbEntity
  8
0-A_文字
  6
Continuous
 62
     7
370
     9
100
AcDbMText
 10
-5121.622115904333
 20
-70.63298372940383
 30
0.0
 40
91.43999999999998
 41
2160.0
 46
0.0
 71
     7
 72
     1
  1
{\fＭＳ ゴシック|b0|i0|c128|p49;■縦断面図　Ｈ＝８尺　(７尺)　<６尺>}
 73
     1
 44
1.0
  0
MTEXT
  5
32B
330
1F
100
AcDbEntity
  8
0-A_文字
  6
Continuous
 62
     7
370
     9
100
AcDbMText
 10
694.9999999999998
 20
-87.03922648870727
 30
0.0
 40
91.43999999999998
 41
1680.0
 46
0.0
 71
     7
 72
     1
  1
{\fＭＳ ゴシック|b0|i0|c128|p49;■縦断面図　Ｈ＝４尺　(３尺)}
 73
     1
 44
1.0
  0
MTEXT
  5
32C
330
1F
100
AcDbEntity
  8
0-B_寸法
  6
Continuous
 62
     7
370
     0
100
AcDbMText
 10
-2564.285714285715
 20
-3218.029642857143
 30
0.0
 40
97.15499999999999
 41
127.5
 46
0.0
 71
     7
 72
     1
  1
{\fＭＳ ゴシック|b0|i0|c128|p49;12}
 11
6.123031769111886E-17
 21
1.0
 31
0.0
 73
     1
 44
1.0
  0
MTEXT
  5
32D
330
1F
100
AcDbEntity
  8
0-B_寸法
  6
Continuous
 62
     7
370
     0
100
AcDbMText
 10
3243.764973047189
 20
-3218.029642857143
 30
0.0
 40
97.15499999999999
 41
127.5
 46
0.0
 71
     7
 72
     1
  1
{\fＭＳ ゴシック|b0|i0|c128|p49;12}
 11
6.123031769111886E-17
 21
1.0
 31
0.0
 73
     1
 44
1.0
  0
MTEXT
  5
32E
330
1F
100
AcDbEntity
  8
0-B_寸法
  6
Continuous
 62
     7
370
     0
100
AcDbMText
 10
-3478.571428571428
 20
-701.422857142857
 30
0.0
 40
91.44000000000064
 41
60.00000000000043
 46
0.0
 71
     7
 72
     1
  1
{\fＭＳ ゴシック|b0|i0|c128|p49;3}
 11
6.123031769111886E-17
 21
1.0
 31
0.0
 73
     1
 44
1.0
  0
MTEXT
  5
32F
330
1F
100
AcDbEntity
  8
0-B_寸法
  6
Continuous
 62
     7
370
     0
100
AcDbMText
 10
2329.479258761476
 20
-701.4228571428578
 30
0.0
 40
91.44
 41
60.0
 46
0.0
 71
     7
 72
     1
  1
{\fＭＳ ゴシック|b0|i0|c128|p49;3}
 11
6.123031769111886E-17
 21
1.0
 31
0.0
 73
     1
 44
1.0
  0
MTEXT
  5
330
330
1F
100
AcDbEntity
  8
0-B_寸法
  6
Continuous
 62
     7
370
     0
100
AcDbMText
 10
-3478.571428571428
 20
-479.9942857142858
 30
0.0
 40
91.44
 41
60.0
 46
0.0
 71
     7
 72
     1
  1
{\fＭＳ ゴシック|b0|i0|c128|p49;8}
 11
6.123031769111886E-17
 21
1.0
 31
0.0
 73
     1
 44
1.0
  0
MTEXT
  5
331
330
1F
100
AcDbEntity
  8
0-B_寸法
  6
Continuous
 62
     7
370
     0
100
AcDbMText
 10
-3471.428571428572
 20
-3065.708571428571
 30
0.0
 40
91.44
 41
60.0
 46
0.0
 71
     7
 72
     1
  1
{\fＭＳ ゴシック|b0|i0|c128|p49;4}
 11
6.123031769111886E-17
 21
1.0
 31
0.0
 73
     1
 44
1.0
  0
MTEXT
  5
332
330
1F
100
AcDbEntity
  8
0-B_寸法
  6
Continuous
 62
     7
370
     0
100
AcDbMText
 10
2336.622115904333
 20
-3065.708571428572
 30
0.0
 40
91.44
 41
60.0
 46
0.0
 71
     7
 72
     1
  1
{\fＭＳ ゴシック|b0|i0|c128|p49;4}
 11
6.123031769111886E-17
 21
1.0
 31
0.0
 73
     1
 44
1.0
  0
MTEXT
  5
333
330
1F
100
AcDbEntity
  8
0-B_寸法
  6
Continuous
 62
     7
370
     0
100
AcDbMText
 10
-2935.714285714286
 20
-3153.743928571429
 30
0.0
 40
97.15499999999999
 41
127.5
 46
0.0
 71
     7
 72
     1
  1
{\fＭＳ ゴシック|b0|i0|c128|p49;15}
 11
6.123031769111886E-17
 21
1.0
 31
0.0
 73
     1
 44
1.0
  0
MTEXT
  5
334
330
1F
100
AcDbEntity
  8
0-B_寸法
  6
Continuous
 62
     7
370
     0
100
AcDbMText
 10
2872.336401618618
 20
-3153.743928571429
 30
0.0
 40
97.15499999999967
 41
127.4999999999996
 46
0.0
 71
     7
 72
     1
  1
{\fＭＳ ゴシック|b0|i0|c128|p49;15}
 11
6.123031769111886E-17
 21
1.0
 31
0.0
 73
     1
 44
1.0
  0
MTEXT
  5
335
330
1F
100
AcDbEntity
  8
0-A_文字
  6
Continuous
 62
     7
370
     0
100
AcDbMText
 10
-2221.124954446062
 20
743.4411009475225
 30
0.0
 40
79.248
 41
1560.0
 46
0.0
 71
     7
 72
     1
  1
{\fＭＳ ゴシック|b0|i0|c128|p49;※扉厚 [  ] 内はからっ戸の場合}
 73
     1
 44
1.0
  0
MTEXT
  5
336
330
1F
100
AcDbEntity
  8
0-A_文字
  6
Continuous
 62
     7
370
     0
100
AcDbMText
 10
-4092.995399052477
 20
-3534.394478256343
 30
0.0
 40
79.248
 41
1560.0
 46
0.0
 71
     7
 72
     1
  1
{\fＭＳ ゴシック|b0|i0|c128|p49;※扉厚 [  ] 内はからっ戸の場合}
 73
     1
 44
1.0
  0
MTEXT
  5
337
330
1F
100
AcDbEntity
  8
0-A_文字
  6
Continuous
 62
     7
370
     0
100
AcDbMText
 10
2302.539682539684
 20
716.846222222223
 30
0.0
 40
79.248
 41
1560.0
 46
0.0
 71
     7
 72
     1
  1
{\fＭＳ ゴシック|b0|i0|c128|p49;※扉厚 [  ] 内はからっ戸の場合}
 73
     1
 44
1.0
  0
MTEXT
  5
338
330
1F
100
AcDbEntity
  8
0-A_文字
  6
Continuous
 62
     7
370
     0
100
AcDbMText
 10
716.4285714285722
 20
-3597.439492063492
 30
0.0
 40
79.248
 41
1560.0
 46
0.0
 71
     7
 72
     1
  1
{\fＭＳ ゴシック|b0|i0|c128|p49;※扉厚 [  ] 内はからっ戸の場合}
 73
     1
 44
1.0
  0
MTEXT
  5
339
330
1F
100
AcDbEntity
  8
0-A_文字
  6
Continuous
 62
    92
370
    13
100
AcDbMText
 10
-5593.586302642691
 20
3788.887363073872
 30
0.0
 40
147.7735714285714
 41
2715.0
 46
0.0
 71
     7
 72
     1
  1
{\fＭＳ ゴシック|b0|i0|c128|p49;収納両開き戸　固定枠　４方枠}
 73
     1
 44
1.0
  0
LINE
  5
33A
330
1F
100
AcDbEntity
  8
0-A_文字
  6
Continuous
 62
    92
370
    13
100
AcDbLine
 10
-2778.571428571428
 20
4030.000577359586
 30
0.0
 11
-2778.571428571428
 21
3760.000577359586
 31
0.0
  0
LINE
  5
33B
330
1F
100
AcDbEntity
  8
0-A_文字
  6
Continuous
 62
    92
370
    13
100
AcDbLine
 10
-5679.83630264269
 20
3760.000577359586
 30
0.0
 11
-2778.571428571428
 21
3760.000577359586
 31
0.0
  0
LINE
  5
33C
330
1F
100
AcDbEntity
  8
0-A_文字
  6
Continuous
 62
    92
370
    13
100
AcDbLine
 10
-5679.83630264269
 20
4030.000577359586
 30
0.0
 11
-2778.571428571428
 21
4030.000577359586
 31
0.0
  0
MTEXT
  5
33D
330
1F
100
AcDbEntity
  8
F-A_文字
  6
Continuous
 62
     7
370
     0
100
AcDbMText
 10
-5087.628710189611
 20
-4045.11399857839
 30
0.0
 40
79.77187499999998
 41
2512.5
 46
0.0
 71
     7
 72
     1
  1
{\fＭＳ ゴシック|b0|i0|c128|p49;ドレタス　収納両開き戸　固定枠　４方枠　枠外W734}
 73
     1
 44
1.0
  0
LINE
  5
33E
330
1F
100
AcDbEntity
  8
0-6_扉
  6
Continuous
 62
   200
370
    20
100
AcDbLine
 10
-2871.836079946853
 20
2080.500190873771
 30
0.0
 11
-867.8360799468534
 21
2080.500190873771
 31
0.0
  0
LINE
  5
33F
330
1F
100
AcDbEntity
  8
0-6_扉
  6
Continuous
 62
   200
370
    20
100
AcDbLine
 10
-4887.836079946852
 20
2080.500190873771
 30
0.0
 11
-2883.836079946853
 21
2080.500190873771
 31
0.0
  0
LINE
  5
340
330
1F
100
AcDbEntity
  8
0-6_扉
  6
Continuous
 62
   200
370
    20
100
AcDbLine
 10
-2883.836079946853
 20
2200.500190873771
 30
0.0
 11
-2883.836079946853
 21
2080.500190873771
 31
0.0
  0
LINE
  5
341
330
1F
100
AcDbEntity
  8
0-6_扉
  6
Continuous
 62
   200
370
    20
100
AcDbLine
 10
-2871.836079946853
 20
2200.500190873771
 30
0.0
 11
-2871.836079946853
 21
2080.500190873771
 31
0.0
  0
LINE
  5
342
330
1F
100
AcDbEntity
  8
0-6_扉
  6
Continuous
 62
   200
370
    20
100
AcDbLine
 10
-4887.836079946852
 20
2200.500190873771
 30
0.0
 11
-4887.836079946852
 21
2080.500190873771
 31
0.0
  0
LINE
  5
343
330
1F
100
AcDbEntity
  8
0-6_扉
  6
Continuous
 62
   200
370
    20
100
AcDbLine
 10
-867.8360799468534
 20
2200.500190873771
 30
0.0
 11
-867.8360799468534
 21
2080.500190873771
 31
0.0
  0
MTEXT
  5
344
330
1F
100
AcDbEntity
  8
0-A_文字
  6
Continuous
 62
     7
370
     0
100
AcDbMText
 10
-4036.8362328558
 20
2006.640723998971
 30
0.0
 40
91.44
 41
240.0
 46
0.0
 71
     7
 72
     1
  1
{\fＭＳ ゴシック|b0|i0|c128|p49;[24]}
 11
6.123031769111886E-17
 21
1.0
 31
0.0
 73
     1
 44
1.0
  0
LINE
  5
345
330
1F
100
AcDbEntity
  8
0-B_寸法
  6
Continuous
 62
   120
370
     5
100
AcDbLine
 10
-4296.62375684385
 20
2080.500190873771
 30
0.0
 11
-4225.2623594357
 21
2080.500190873771
 31
0.0
  0
LWPOLYLINE
  5
346
330
1F
100
AcDbEntity
  8
0-B_寸法
  6
Continuous
 62
     7
370
     9
100
AcDbPolyline
 90
        4
 70
     1
 43
3.0
 10
-4223.7623594357
 20
2080.500190873771
 42
0.4142135623731
 10
-4225.2623594357
 20
2082.000190873771
 42
0.4142135623731
 10
-4226.762359435701
 20
2080.500190873771
 42
0.4142135623731
 10
-4225.2623594357
 20
2079.000190873771
 42
0.4142135623731
  0
LINE
  5
347
330
1F
100
AcDbEntity
  8
0-B_寸法
  6
Continuous
 62
   120
370
     5
100
AcDbLine
 10
-4225.2623594357
 20
2200.500190873771
 30
0.0
 11
-4225.2623594357
 21
2080.500190873771
 31
0.0
  0
MTEXT
  5
348
330
1F
100
AcDbEntity
  8
0-B_寸法
  6
Continuous
 62
     7
370
     0
100
AcDbMText
 10
-4240.262408923664
 20
2068.326621933736
 30
0.0
 40
97.15499999999999
 41
127.5
 46
0.0
 71
     7
 72
     1
  1
{\fＭＳ ゴシック|b0|i0|c128|p49;20}
 11
6.123031769111886E-17
 21
1.0
 31
0.0
 73
     1
 44
1.0
  0
LINE
  5
349
330
1F
100
AcDbEntity
  8
0-6_扉
  6
Continuous
 62
   200
370
    20
100
AcDbLine
 10
2906.214508410122
 20
2080.500190873771
 30
0.0
 11
4910.214508410122
 21
2080.500190873771
 31
0.0
  0
LINE
  5
34A
330
1F
100
AcDbEntity
  8
0-6_扉
  6
Continuous
 62
   200
370
    20
100
AcDbLine
 10
890.2145084101226
 20
2080.500190873771
 30
0.0
 11
2894.214508410122
 21
2080.500190873771
 31
0.0
  0
LINE
  5
34B
330
1F
100
AcDbEntity
  8
0-6_扉
  6
Continuous
 62
   200
370
    20
100
AcDbLine
 10
2894.214508410122
 20
2200.500190873771
 30
0.0
 11
2894.214508410122
 21
2080.500190873771
 31
0.0
  0
LINE
  5
34C
330
1F
100
AcDbEntity
  8
0-6_扉
  6
Continuous
 62
   200
370
    20
100
AcDbLine
 10
2906.214508410122
 20
2200.500190873771
 30
0.0
 11
2906.214508410122
 21
2080.500190873771
 31
0.0
  0
LINE
  5
34D
330
1F
100
AcDbEntity
  8
0-6_扉
  6
Continuous
 62
   200
370
    20
100
AcDbLine
 10
890.2145084101226
 20
2200.500190873771
 30
0.0
 11
890.2145084101226
 21
2080.500190873771
 31
0.0
  0
LINE
  5
34E
330
1F
100
AcDbEntity
  8
0-6_扉
  6
Continuous
 62
   200
370
    20
100
AcDbLine
 10
4910.214508410122
 20
2200.500190873771
 30
0.0
 11
4910.214508410122
 21
2080.500190873771
 31
0.0
  0
MTEXT
  5
34F
330
1F
100
AcDbEntity
  8
0-A_文字
  6
Continuous
 62
     7
370
     0
100
AcDbMText
 10
1819.555127274255
 20
2006.640723998971
 30
0.0
 40
91.44
 41
240.0
 46
0.0
 71
     7
 72
     1
  1
{\fＭＳ ゴシック|b0|i0|c128|p49;[24]}
 11
6.123031769111886E-17
 21
1.0
 31
0.0
 73
     1
 44
1.0
  0
LINE
  5
350
330
1F
100
AcDbEntity
  8
0-B_寸法
  6
Continuous
 62
   120
370
     5
100
AcDbLine
 10
1481.426831513124
 20
2080.500190873771
 30
0.0
 11
1552.788228921274
 21
2080.500190873771
 31
0.0
  0
LWPOLYLINE
  5
351
330
1F
100
AcDbEntity
  8
0-B_寸法
  6
Continuous
 62
     7
370
     9
100
AcDbPolyline
 90
        4
 70
     1
 43
3.0
 10
1554.288228921274
 20
2080.500190873771
 42
0.4142135623731
 10
1552.788228921274
 20
2082.000190873771
 42
0.4142135623731
 10
1551.288228921274
 20
2080.500190873771
 42
0.4142135623731
 10
1552.788228921274
 20
2079.000190873771
 42
0.4142135623731
  0
LINE
  5
352
330
1F
100
AcDbEntity
  8
0-B_寸法
  6
Continuous
 62
   120
370
     5
100
AcDbLine
 10
1552.788228921274
 20
2200.500190873771
 30
0.0
 11
1552.788228921274
 21
2080.500190873771
 31
0.0
  0
MTEXT
  5
353
330
1F
100
AcDbEntity
  8
0-B_寸法
  6
Continuous
 62
     7
370
     0
100
AcDbMText
 10
1537.78817943331
 20
2065.327690873771
 30
0.0
 40
97.15499999999999
 41
127.5
 46
0.0
 71
     7
 72
     1
  1
{\fＭＳ ゴシック|b0|i0|c128|p49;20}
 11
6.123031769111886E-17
 21
1.0
 31
0.0
 73
     1
 44
1.0
  0
LINE
  5
354
330
1F
100
AcDbEntity
  8
0-6_扉
  6
Continuous
 62
   200
370
    20
100
AcDbLine
 10
-3966.835748377489
 20
-3001.281748740979
 30
0.0
 11
-3846.835748377489
 21
-3001.281748740979
 31
0.0
  0
LINE
  5
355
330
1F
100
AcDbEntity
  8
0-6_扉
  6
Continuous
 62
   200
370
    20
100
AcDbLine
 10
-3846.835748377489
 20
-661.2815403324116
 30
0.0
 11
-3966.835748377489
 21
-661.2815403324116
 31
0.0
  0
LINE
  5
356
330
1F
100
AcDbEntity
  8
0-B_寸法
  6
Continuous
 62
   120
370
     5
100
AcDbLine
 10
-3846.835748377489
 20
-1387.790532409612
 30
0.0
 11
-3846.835748377489
 21
-1453.281667465567
 31
0.0
  0
LWPOLYLINE
  5
357
330
1F
100
AcDbEntity
  8
0-B_寸法
  6
Continuous
 62
     7
370
     9
100
AcDbPolyline
 90
        4
 70
     1
 43
3.0
 10
-3845.335748377488
 20
-1453.281667465567
 42
0.4142135623731
 10
-3846.835748377489
 20
-1451.781667465568
 42
0.4142135623731
 10
-3848.335748377489
 20
-1453.281667465567
 42
0.4142135623731
 10
-3846.835748377489
 20
-1454.781667465567
 42
0.4142135623731
  0
LINE
  5
358
330
1F
100
AcDbEntity
  8
0-B_寸法
  6
Continuous
 62
   120
370
     5
100
AcDbLine
 10
-3846.835748377489
 20
-1453.281667465567
 30
0.0
 11
-3966.835748377489
 21
-1453.281667465567
 31
0.0
  0
LINE
  5
359
330
1F
100
AcDbEntity
  8
0-6_扉
  6
Continuous
 62
   200
370
    20
100
AcDbLine
 10
-3846.835748377489
 20
-1861.281644536695
 30
0.0
 11
-3846.835748377489
 21
-661.2815403324116
 31
0.0
  0
LINE
  5
35A
330
1F
100
AcDbEntity
  8
0-6_扉
  6
Continuous
 62
   200
370
    20
100
AcDbLine
 10
-3846.835748377489
 20
-3001.281748740979
 30
0.0
 11
-3846.835748377489
 21
-1981.281644536695
 31
0.0
  0
MTEXT
  5
35B
330
1F
100
AcDbEntity
  8
0-B_寸法
  6
Continuous
 62
     7
370
     0
100
AcDbMText
 10
-3969.835691466328
 20
-1449.704117977602
 30
0.0
 40
97.15499999999999
 41
127.5
 46
0.0
 71
     7
 72
     1
  1
{\fＭＳ ゴシック|b0|i0|c128|p49;20}
 73
     1
 44
1.0
  0
MTEXT
  5
35C
330
1F
100
AcDbEntity
  8
0-A_文字
  6
Continuous
 62
     7
370
     0
100
AcDbMText
 10
-4026.835748377489
 20
-1638.075209300263
 30
0.0
 40
91.44
 41
240.0
 46
0.0
 71
     7
 72
     1
  1
{\fＭＳ ゴシック|b0|i0|c128|p49;[24]}
 73
     1
 44
1.0
  0
LINE
  5
35D
330
1F
100
AcDbEntity
  8
0-6_扉
  6
Continuous
 62
   200
370
    20
100
AcDbLine
 10
1841.214938955415
 20
-3001.281748740979
 30
0.0
 11
1961.214938955415
 21
-3001.281748740979
 31
0.0
  0
LINE
  5
35E
330
1F
100
AcDbEntity
  8
0-6_扉
  6
Continuous
 62
   200
370
    20
100
AcDbLine
 10
1961.214938955415
 20
-661.2815403324125
 30
0.0
 11
1841.214938955415
 21
-661.2815403324125
 31
0.0
  0
LINE
  5
35F
330
1F
100
AcDbEntity
  8
0-B_寸法
  6
Continuous
 62
   120
370
     5
100
AcDbLine
 10
1961.214938955415
 20
-1387.790532409613
 30
0.0
 11
1961.214938955415
 21
-1453.281667465568
 31
0.0
  0
LWPOLYLINE
  5
360
330
1F
100
AcDbEntity
  8
0-B_寸法
  6
Continuous
 62
     7
370
     9
100
AcDbPolyline
 90
        4
 70
     1
 43
3.0
 10
1962.714938955415
 20
-1453.281667465568
 42
0.4142135623731
 10
1961.214938955415
 20
-1451.781667465568
 42
0.4142135623731
 10
1959.714938955416
 20
-1453.281667465568
 42
0.4142135623731
 10
1961.214938955415
 20
-1454.781667465568
 42
0.4142135623731
  0
LINE
  5
361
330
1F
100
AcDbEntity
  8
0-B_寸法
  6
Continuous
 62
   120
370
     5
100
AcDbLine
 10
1961.214938955415
 20
-1453.281667465568
 30
0.0
 11
1841.214938955415
 21
-1453.281667465568
 31
0.0
  0
LINE
  5
362
330
1F
100
AcDbEntity
  8
0-6_扉
  6
Continuous
 62
   200
370
    20
100
AcDbLine
 10
1961.214938955415
 20
-1861.281644536695
 30
0.0
 11
1961.214938955415
 21
-661.2815403324125
 31
0.0
  0
LINE
  5
363
330
1F
100
AcDbEntity
  8
0-6_扉
  6
Continuous
 62
   200
370
    20
100
AcDbLine
 10
1961.214938955415
 20
-3001.281748740979
 30
0.0
 11
1961.214938955415
 21
-1981.281644536695
 31
0.0
  0
MTEXT
  5
364
330
1F
100
AcDbEntity
  8
0-B_寸法
  6
Continuous
 62
     7
370
     0
100
AcDbMText
 10
1838.214995866576
 20
-1449.704117977603
 30
0.0
 40
97.15499999999999
 41
127.5
 46
0.0
 71
     7
 72
     1
  1
{\fＭＳ ゴシック|b0|i0|c128|p49;20}
 73
     1
 44
1.0
  0
MTEXT
  5
365
330
1F
100
AcDbEntity
  8
0-A_文字
  6
Continuous
 62
     7
370
     0
100
AcDbMText
 10
1781.214938955415
 20
-1638.075209300263
 30
0.0
 40
91.44
 41
240.0
 46
0.0
 71
     7
 72
     1
  1
{\fＭＳ ゴシック|b0|i0|c128|p49;[24]}
 73
     1
 44
1.0
  0
MTEXT
  5
366
330
1F
100
AcDbEntity
  8
F-A_文字
  6
Continuous
 62
     7
370
     0
100
AcDbMText
 10
4938.667793092893
 20
-3938.071010139965
 30
0.0
 40
78.86699999999999
 41
517.5
 46
0.0
 71
     7
 72
     1
  1
{\fＭＳ ゴシック|b0|i0|c128|p49;2024.04.01}
 73
     1
 44
1.0
  0
ENDSEC
  0
SECTION
  2
OBJECTS
  0
DICTIONARY
  5
C
330
0
100
AcDbDictionary
281
     1
  3
ACAD_GROUP
350
D
  3
ACAD_LAYOUT
350
1A
  3
ACAD_MATERIAL
350
3B
  3
ACAD_MLEADERSTYLE
350
368
  3
ACAD_MLINESTYLE
350
17
  3
ACAD_PLOTSETTINGS
350
19
  3
ACAD_PLOTSTYLENAME
350
E
  3
ACAD_TABLESTYLE
350
367
  3
ACAD_VISUALSTYLE
350
2A
  0
DICTIONARY
  5
D
102
{ACAD_REACTORS
330
C
102
}
330
C
100
AcDbDictionary
281
     1
  0
DICTIONARY
  5
1A
102
{ACAD_REACTORS
330
C
102
}
330
C
100
AcDbDictionary
281
     1
  3
Layout1
350
1E
  3
Layout2
350
26
  3
Model
350
22
  0
DICTIONARY
  5
3B
102
{ACAD_REACTORS
330
C
102
}
330
C
100
AcDbDictionary
281
     1
  3
ByBlock
350
3D
  3
ByLayer
350
3C
  3
Global
350
3E
  0
DICTIONARY
  5
368
102
{ACAD_REACTORS
330
C
102
}
330
C
100
AcDbDictionary
281
     1
  0
DICTIONARY
  5
17
102
{ACAD_REACTORS
330
C
102
}
330
C
100
AcDbDictionary
281
     1
  3
Standard
350
18
  0
DICTIONARY
  5
19
102
{ACAD_REACTORS
330
C
102
}
330
C
100
AcDbDictionary
281
     1
  0
ACDBDICTIONARYWDFLT
  5
E
102
{ACAD_REACTORS
330
C
102
}
330
C
100
AcDbDictionary
281
     1
  3
Normal
350
F
100
AcDbDictionaryWithDefault
340
F
  0
DICTIONARY
  5
367
102
{ACAD_REACTORS
330
C
102
}
330
C
100
AcDbDictionary
281
     1
  0
DICTIONARY
  5
2A
102
{ACAD_REACTORS
330
C
102
}
330
C
100
AcDbDictionary
281
     1
  3
2dWireframe
350
2F
  3
3D Hidden
350
31
  3
3dWireframe
350
30
  3
Basic
350
32
  3
Brighten
350
36
  3
ColorChange
350
3A
  3
Conceptual
350
34
  3
Dim
350
35
  3
Facepattern
350
39
  3
Flat
350
2B
  3
FlatWithEdges
350
2C
  3
Gouraud
350
2D
  3
GouraudWithEdges
350
2E
  3
Linepattern
350
38
  3
Realistic
350
33
  3
Thicken
350
37
  0
LAYOUT
  5
1E
102
{ACAD_REACTORS
330
1A
102
}
330
1A
100
AcDbPlotSettings
  1

  2
none_device
  4

  6

 40
0.0
 41
0.0
 42
0.0
 43
0.0
 44
0.0
 45
0.0
 46
0.0
 47
0.0
 48
0.0
 49
0.0
140
0.0
141
0.0
142
1.0
143
1.0
 70
   688
 72
     0
 73
     0
 74
     5
  7

 75
    16
 76
     0
 77
     5
 78
   300
147
1.0
148
0.0
149
0.0
100
AcDbLayout
  1
Layout1
 70
     1
 71
     1
 10
0.0
 20
0.0
 11
420.0
 21
297.0
 12
0.0
 22
0.0
 32
0.0
 14
1.000000000000000E+20
 24
1.000000000000000E+20
 34
1.000000000000000E+20
 15
-1.000000000000000E+20
 25
-1.000000000000000E+20
 35
-1.000000000000000E+20
146
0.0
 13
0.0
 23
0.0
 33
0.0
 16
1.0
 26
0.0
 36
0.0
 17
0.0
 27
1.0
 37
0.0
 76
     0
330
1B
  0
LAYOUT
  5
26
102
{ACAD_REACTORS
330
1A
102
}
330
1A
100
AcDbPlotSettings
  1

  2
none_device
  4

  6

 40
0.0
 41
0.0
 42
0.0
 43
0.0
 44
0.0
 45
0.0
 46
0.0
 47
0.0
 48
0.0
 49
0.0
140
0.0
141
0.0
142
1.0
143
1.0
 70
   688
 72
     0
 73
     0
 74
     5
  7

 75
    16
 76
     0
 77
     5
 78
   300
147
1.0
148
0.0
149
0.0
100
AcDbLayout
  1
Layout2
 70
     1
 71
     2
 10
0.0
 20
0.0
 11
0.0
 21
0.0
 12
0.0
 22
0.0
 32
0.0
 14
0.0
 24
0.0
 34
0.0
 15
0.0
 25
0.0
 35
0.0
146
0.0
 13
0.0
 23
0.0
 33
0.0
 16
1.0
 26
0.0
 36
0.0
 17
0.0
 27
1.0
 37
0.0
 76
     0
330
23
  0
LAYOUT
  5
22
102
{ACAD_REACTORS
330
1A
102
}
330
1A
100
AcDbPlotSettings
  1

  2
none_device
  4

  6

 40
0.0
 41
0.0
 42
0.0
 43
0.0
 44
0.0
 45
0.0
 46
0.0
 47
0.0
 48
0.0
 49
0.0
140
0.0
141
0.0
142
1.0
143
1.0
 70
  1712
 72
     0
 73
     0
 74
     0
  7

 75
     0
 76
     0
 77
     5
 78
   300
147
1.0
148
0.0
149
0.0
100
AcDbLayout
  1
Model
 70
     1
 71
     0
 10
-6300.0
 20
-4455.0
 11
6300.0
 21
4455.0
 12
0.0
 22
0.0
 32
0.0
 14
-6300.0
 24
-4455.0
 34
0.0
 15
6300.0
 25
4455.0
 35
0.0
146
0.0
 13
0.0
 23
0.0
 33
0.0
 16
1.0
 26
0.0
 36
0.0
 17
0.0
 27
1.0
 37
0.0
 76
     0
330
1F
331
29
  0
MATERIAL
  5
3D
102
{ACAD_REACTORS
330
3B
102
}
330
3B
100
AcDbMaterial
  1
ByBlock
 72
     1
 94
      127
  0
MATERIAL
  5
3C
102
{ACAD_REACTORS
330
3B
102
}
330
3B
100
AcDbMaterial
  1
ByLayer
 72
     1
 94
      127
  0
MATERIAL
  5
3E
102
{ACAD_REACTORS
330
3B
102
}
330
3B
100
AcDbMaterial
  1
Global
 72
     1
 94
      127
  0
MLINESTYLE
  5
18
102
{ACAD_REACTORS
330
17
102
}
330
17
100
AcDbMlineStyle
  2
Standard
 70
     0
  3

 62
   256
 51
90.0
 52
90.0
 71
     2
 49
0.5
 62
   256
  6
BYLAYER
 49
-0.5
 62
   256
  6
BYLAYER
  0
ACDBPLACEHOLDER
  5
F
102
{ACAD_REACTORS
330
E
102
}
330
E
  0
VISUALSTYLE
  5
2F
102
{ACAD_REACTORS
330
2A
102
}
330
2A
100
AcDbVisualStyle
  2
2dWireframe
 70
     4
177
     2
291
     0
 71
     0
176
     1
 72
     2
176
     1
 73
     0
176
     1
 90
        0
176
     1
 40
-0.6
176
     1
 41
-30.0
176
     1
 62
     5
 63
     7
421
 16777215
176
     1
 74
     1
176
     1
 91
        4
176
     1
 64
     7
176
     1
 65
   257
176
     1
 75
     1
176
     1
175
     1
176
     1
 42
1.0
176
     1
 92
        0
176
     1
 66
   257
176
     1
 43
1.0
176
     1
 76
     1
176
     1
 77
     6
176
     1
 78
     2
176
     1
 67
     7
176
     1
 79
     5
176
     1
170
     0
176
     1
171
     0
176
     1
290
     0
176
     1
 93
        1
176
     1
 44
0.0
176
     1
173
     0
176
     1
  0
VISUALSTYLE
  5
31
102
{ACAD_REACTORS
330
2A
102
}
330
2A
100
AcDbVisualStyle
  2
3D Hidden
 70
     6
177
     2
291
     0
 71
     1
176
     1
 72
     2
176
     1
 73
     2
176
     1
 90
        0
176
     1
 40
-0.6
176
     1
 41
-30.0
176
     1
 62
     5
 63
     7
421
 16777215
176
     1
 74
     2
176
     1
 91
        2
176
     1
 64
     7
176
     1
 65
   257
176
     1
 75
     2
176
     1
175
     1
176
     1
 42
40.0
176
     1
 92
        0
176
     1
 66
   257
176
     1
 43
1.0
176
     1
 76
     1
176
     1
 77
     6
176
     1
 78
     2
176
     1
 67
     7
176
     1
 79
     3
176
     1
170
     0
176
     1
171
     0
176
     1
290
     0
176
     1
 93
        1
176
     1
 44
0.0
176
     1
173
     0
176
     1
  0
VISUALSTYLE
  5
30
102
{ACAD_REACTORS
330
2A
102
}
330
2A
100
AcDbVisualStyle
  2
3dWireframe
 70
     5
177
     2
291
     0
 71
     0
176
     1
 72
     2
176
     1
 73
     0
176
     1
 90
        0
176
     1
 40
-0.6
176
     1
 41
-30.0
176
     1
 62
     5
 63
     7
421
 16777215
176
     1
 74
     1
176
     1
 91
        4
176
     1
 64
     7
176
     1
 65
   257
176
     1
 75
     1
176
     1
175
     1
176
     1
 42
1.0
176
     1
 92
        0
176
     1
 66
   257
176
     1
 43
1.0
176
     1
 76
     1
176
     1
 77
     6
176
     1
 78
     2
176
     1
 67
     7
176
     1
 79
     5
176
     1
170
     0
176
     1
171
     0
176
     1
290
     0
176
     1
 93
        1
176
     1
 44
0.0
176
     1
173
     0
176
     1
  0
VISUALSTYLE
  5
32
102
{ACAD_REACTORS
330
2A
102
}
330
2A
100
AcDbVisualStyle
  2
Basic
 70
     7
177
     2
291
     1
 71
     1
176
     1
 72
     0
176
     1
 73
     1
176
     1
 90
        0
176
     1
 40
-0.6
176
     1
 41
-30.0
176
     1
 62
     5
 63
     7
421
 16777215
176
     1
 74
     0
176
     1
 91
        4
176
     1
 64
     7
176
     1
 65
   257
176
     1
 75
     1
176
     1
175
     1
176
     1
 42
1.0
176
     1
 92
        8
176
     1
 66
     7
176
     1
 43
1.0
176
     1
 76
     1
176
     1
 77
     6
176
     1
 78
     2
176
     1
 67
     7
176
     1
 79
     5
176
     1
170
     0
176
     1
171
     0
176
     1
290
     0
176
     1
 93
        1
176
     1
 44
0.0
176
     1
173
     0
176
     1
  0
VISUALSTYLE
  5
36
102
{ACAD_REACTORS
330
2A
102
}
330
2A
100
AcDbVisualStyle
  2
Brighten
 70
    12
177
     2
291
     1
 71
     2
176
     1
 72
     2
176
     1
 73
     0
176
     1
 90
        0
176
     1
 40
-0.6
176
     1
 41
-30.0
176
     1
 62
     5
 63
     7
421
 16777215
176
     1
 74
     1
176
     1
 91
        4
176
     1
 64
     7
176
     1
 65
   257
176
     1
 75
     1
176
     1
175
     1
176
     1
 42
1.0
176
     1
 92
        8
176
     1
 66
     7
176
     1
 43
1.0
176
     1
 76
     1
176
     1
 77
     6
176
     1
 78
     2
176
     1
 67
     7
176
     1
 79
     5
176
     1
170
     0
176
     1
171
     0
176
     1
290
     0
176
     1
 93
        1
176
     1
 44
50.0
176
     1
173
     0
176
     1
  0
VISUALSTYLE
  5
3A
102
{ACAD_REACTORS
330
2A
102
}
330
2A
100
AcDbVisualStyle
  2
ColorChange
 70
    16
177
     2
291
     1
 71
     2
176
     1
 72
     2
176
     1
 73
     3
176
     1
 90
        0
176
     1
 40
-0.6
176
     1
 41
-30.0
176
     1
 62
     5
 63
     8
421
  8421504
176
     1
 74
     1
176
     1
 91
        4
176
     1
 64
     7
176
     1
 65
   257
176
     1
 75
     1
176
     1
175
     1
176
     1
 42
1.0
176
     1
 92
        8
176
     1
 66
     8
424
  8421504
176
     1
 43
1.0
176
     1
 76
     1
176
     1
 77
     6
176
     1
 78
     2
176
     1
 67
     7
176
     1
 79
     5
176
     1
170
     0
176
     1
171
     0
176
     1
290
     0
176
     1
 93
        1
176
     1
 44
0.0
176
     1
173
     0
176
     1
  0
VISUALSTYLE
  5
34
102
{ACAD_REACTORS
330
2A
102
}
330
2A
100
AcDbVisualStyle
  2
Conceptual
 70
     9
177
     2
291
     0
 71
     3
176
     1
 72
     2
176
     1
 73
     0
176
     1
 90
        0
176
     1
 40
-0.6
176
     1
 41
-30.0
176
     1
 62
     5
 63
     7
421
 16777215
176
     1
 74
     2
176
     1
 91
        2
176
     1
 64
     7
176
     1
 65
   257
176
     1
 75
     1
176
     1
175
     1
176
     1
 42
40.0
176
     1
 92
        8
176
     1
 66
     7
176
     1
 43
1.0
176
     1
 76
     1
176
     1
 77
     6
176
     1
 78
     2
176
     1
 67
     7
176
     1
 79
     3
176
     1
170
     0
176
     1
171
     0
176
     1
290
     0
176
     1
 93
        1
176
     1
 44
0.0
176
     1
173
     0
176
     1
  0
VISUALSTYLE
  5
35
102
{ACAD_REACTORS
330
2A
102
}
330
2A
100
AcDbVisualStyle
  2
Dim
 70
    11
177
     2
291
     1
 71
     2
176
     1
 72
     2
176
     1
 73
     0
176
     1
 90
        0
176
     1
 40
-0.6
176
     1
 41
-30.0
176
     1
 62
     5
 63
     7
421
 16777215
176
     1
 74
     1
176
     1
 91
        4
176
     1
 64
     7
176
     1
 65
   257
176
     1
 75
     1
176
     1
175
     1
176
     1
 42
1.0
176
     1
 92
        8
176
     1
 66
     7
176
     1
 43
1.0
176
     1
 76
     1
176
     1
 77
     6
176
     1
 78
     2
176
     1
 67
     7
176
     1
 79
     5
176
     1
170
     0
176
     1
171
     0
176
     1
290
     0
176
     1
 93
        1
176
     1
 44
-50.0
176
     1
173
     0
176
     1
  0
VISUALSTYLE
  5
39
102
{ACAD_REACTORS
330
2A
102
}
330
2A
100
AcDbVisualStyle
  2
Facepattern
 70
    15
177
     2
291
     1
 71
     2
176
     1
 72
     2
176
     1
 73
     0
176
     1
 90
        0
176
     1
 40
-0.6
176
     1
 41
-30.0
176
     1
 62
     5
 63
     7
421
 16777215
176
     1
 74
     1
176
     1
 91
        4
176
     1
 64
     7
176
     1
 65
   257
176
     1
 75
     1
176
     1
175
     1
176
     1
 42
1.0
176
     1
 92
        8
176
     1
 66
     7
176
     1
 43
1.0
176
     1
 76
     1
176
     1
 77
     6
176
     1
 78
     2
176
     1
 67
     7
176
     1
 79
     5
176
     1
170
     0
176
     1
171
     0
176
     1
290
     0
176
     1
 93
        1
176
     1
 44
0.0
176
     1
173
     0
176
     1
  0
VISUALSTYLE
  5
2B
102
{ACAD_REACTORS
330
2A
102
}
330
2A
100
AcDbVisualStyle
  2
Flat
 70
     0
177
     2
291
     1
 71
     2
176
     1
 72
     1
176
     1
 73
     1
176
     1
 90
        2
176
     1
 40
-0.6
176
     1
 41
30.0
176
     1
 62
     5
 63
     7
421
 16777215
176
     1
 74
     0
176
     1
 91
        4
176
     1
 64
     7
176
     1
 65
   257
176
     1
 75
     1
176
     1
175
     1
176
     1
 42
1.0
176
     1
 92
        8
176
     1
 66
     7
176
     1
 43
1.0
176
     1
 76
     1
176
     1
 77
     6
176
     1
 78
     2
176
     1
 67
     7
176
     1
 79
     5
176
     1
170
     0
176
     1
171
     0
176
     1
290
     0
176
     1
 93
       13
176
     1
 44
0.0
176
     1
173
     0
176
     1
  0
VISUALSTYLE
  5
2C
102
{ACAD_REACTORS
330
2A
102
}
330
2A
100
AcDbVisualStyle
  2
FlatWithEdges
 70
     1
177
     2
291
     1
 71
     2
176
     1
 72
     1
176
     1
 73
     1
176
     1
 90
        2
176
     1
 40
-0.6
176
     1
 41
30.0
176
     1
 62
     5
 63
     7
421
 16777215
176
     1
 74
     1
176
     1
 91
        4
176
     1
 64
     7
176
     1
 65
   257
176
     1
 75
     1
176
     1
175
     1
176
     1
 42
1.0
176
     1
 92
        0
176
     1
 66
   257
176
     1
 43
1.0
176
     1
 76
     1
176
     1
 77
     6
176
     1
 78
     2
176
     1
 67
     7
176
     1
 79
     5
176
     1
170
     0
176
     1
171
     0
176
     1
290
     0
176
     1
 93
       13
176
     1
 44
0.0
176
     1
173
     0
176
     1
  0
VISUALSTYLE
  5
2D
102
{ACAD_REACTORS
330
2A
102
}
330
2A
100
AcDbVisualStyle
  2
Gouraud
 70
     2
177
     2
291
     1
 71
     2
176
     1
 72
     2
176
     1
 73
     1
176
     1
 90
        2
176
     1
 40
-0.6
176
     1
 41
30.0
176
     1
 62
     5
 63
     7
421
 16777215
176
     1
 74
     0
176
     1
 91
        4
176
     1
 64
     7
176
     1
 65
   257
176
     1
 75
     1
176
     1
175
     1
176
     1
 42
1.0
176
     1
 92
        0
176
     1
 66
     7
176
     1
 43
1.0
176
     1
 76
     1
176
     1
 77
     6
176
     1
 78
     2
176
     1
 67
     7
176
     1
 79
     5
176
     1
170
     0
176
     1
171
     0
176
     1
290
     0
176
     1
 93
       13
176
     1
 44
0.0
176
     1
173
     0
176
     1
  0
VISUALSTYLE
  5
2E
102
{ACAD_REACTORS
330
2A
102
}
330
2A
100
AcDbVisualStyle
  2
GouraudWithEdges
 70
     3
177
     2
291
     1
 71
     2
176
     1
 72
     2
176
     1
 73
     1
176
     1
 90
        2
176
     1
 40
-0.6
176
     1
 41
30.0
176
     1
 62
     5
 63
     7
421
 16777215
176
     1
 74
     1
176
     1
 91
        4
176
     1
 64
     7
176
     1
 65
   257
176
     1
 75
     1
176
     1
175
     1
176
     1
 42
1.0
176
     1
 92
        0
176
     1
 66
   257
176
     1
 43
1.0
176
     1
 76
     1
176
     1
 77
     6
176
     1
 78
     2
176
     1
 67
     7
176
     1
 79
     5
176
     1
170
     0
176
     1
171
     0
176
     1
290
     0
176
     1
 93
       13
176
     1
 44
0.0
176
     1
173
     0
176
     1
  0
VISUALSTYLE
  5
38
102
{ACAD_REACTORS
330
2A
102
}
330
2A
100
AcDbVisualStyle
  2
Linepattern
 70
    14
177
     2
291
     1
 71
     2
176
     1
 72
     2
176
     1
 73
     0
176
     1
 90
        0
176
     1
 40
-0.6
176
     1
 41
-30.0
176
     1
 62
     5
 63
     7
421
 16777215
176
     1
 74
     1
176
     1
 91
        4
176
     1
 64
     7
176
     1
 65
   257
176
     1
 75
     7
176
     1
175
     7
176
     1
 42
1.0
176
     1
 92
        8
176
     1
 66
     7
176
     1
 43
1.0
176
     1
 76
     1
176
     1
 77
     6
176
     1
 78
     2
176
     1
 67
     7
176
     1
 79
     5
176
     1
170
     0
176
     1
171
     0
176
     1
290
     0
176
     1
 93
        1
176
     1
 44
0.0
176
     1
173
     0
176
     1
  0
VISUALSTYLE
  5
33
102
{ACAD_REACTORS
330
2A
102
}
330
2A
100
AcDbVisualStyle
  2
Realistic
 70
     8
177
     2
291
     0
 71
     2
176
     1
 72
     2
176
     1
 73
     0
176
     1
 90
        0
176
     1
 40
-0.6
176
     1
 41
-30.0
176
     1
 62
     5
 63
     7
421
 16777215
176
     1
 74
     1
176
     1
 91
        0
176
     1
 64
     7
176
     1
 65
   257
176
     1
 75
     1
176
     1
175
     1
176
     1
 42
1.0
176
     1
 92
        8
176
     1
 66
     8
424
  7895160
176
     1
 43
1.0
176
     1
 76
     1
176
     1
 77
     6
176
     1
 78
     2
176
     1
 67
     7
176
     1
 79
     5
176
     1
170
     0
176
     1
171
     0
176
     1
290
     0
176
     1
 93
       13
176
     1
 44
0.0
176
     1
173
     0
176
     1
  0
VISUALSTYLE
  5
37
102
{ACAD_REACTORS
330
2A
102
}
330
2A
100
AcDbVisualStyle
  2
Thicken
 70
    13
177
     2
291
     1
 71
     2
176
     1
 72
     2
176
     1
 73
     0
176
     1
 90
        0
176
     1
 40
-0.6
176
     1
 41
-30.0
176
     1
 62
     5
 63
     7
421
 16777215
176
     1
 74
     1
176
     1
 91
        4
176
     1
 64
     7
176
     1
 65
   257
176
     1
 75
     1
176
     1
175
     1
176
     1
 42
1.0
176
     1
 92
       12
176
     1
 66
     7
176
     1
 43
1.0
176
     1
 76
     1
176
     1
 77
     6
176
     1
 78
     2
176
     1
 67
     7
176
     1
 79
     5
176
     1
170
     0
176
     1
171
     0
176
     1
290
     0
176
     1
 93
        1
176
     1
 44
0.0
176
     1
173
     0
176
     1
  0
ENDSEC
  0
EOF
