  0
SECTION
  2
HEADER
  9
$ACADVER
  1
AC1024
  9
$ACADMAINTVER
 70
     6
  9
$DWGCODEPAGE
  3
ANSI_932
  9
$INSBASE
 10
0.0
 20
0.0
 30
0.0
  9
$EXTMIN
 10
-4455.0
 20
-3150.0
 30
0.0
  9
$EXTMAX
 10
4455.0
 20
3150.0
 30
0.0
  9
$LIMMIN
 10
-4455.0
 20
-3150.0
  9
$LIMMAX
 10
4455.0
 20
3150.0
  9
$ORTHOMODE
 70
     0
  9
$REGENMODE
 70
     1
  9
$FILLMODE
 70
     1
  9
$QTEXTMODE
 70
     0
  9
$MIRRTEXT
 70
     1
  9
$LTSCALE
 40
30.0
  9
$ATTMODE
 70
     1
  9
$TEXTSIZE
 40
2.5
  9
$TRACEWID
 40
1.0
  9
$TEXTSTYLE
  7
Standard
  9
$CLAYER
  8
0
  9
$CELTYPE
  6
ByLayer
  9
$CECOLOR
 62
   256
  9
$CELTSCALE
 40
1.0
  9
$DISPSILH
 70
     0
  9
$DIMSCALE
 40
1.0
  9
$DIMASZ
 40
2.5
  9
$DIMEXO
 40
0.625
  9
$DIMDLI
 40
3.75
  9
$DIMRND
 40
0.0
  9
$DIMDLE
 40
0.0
  9
$DIMEXE
 40
1.25
  9
$DIMTP
 40
0.0
  9
$DIMTM
 40
0.0
  9
$DIMTXT
 40
2.5
  9
$DIMCEN
 40
2.5
  9
$DIMTSZ
 40
0.0
  9
$DIMTOL
 70
     0
  9
$DIMLIM
 70
     0
  9
$DIMTIH
 70
     0
  9
$DIMTOH
 70
     0
  9
$DIMSE1
 70
     0
  9
$DIMSE2
 70
     0
  9
$DIMTAD
 70
     1
  9
$DIMZIN
 70
     8
  9
$DIMBLK
  1

  9
$DIMASO
 70
     1
  9
$DIMSHO
 70
     1
  9
$DIMPOST
  1

  9
$DIMAPOST
  1

  9
$DIMALT
 70
     0
  9
$DIMALTD
 70
     3
  9
$DIMALTF
 40
0.03937007874016
  9
$DIMLFAC
 40
1.0
  9
$DIMTOFL
 70
     1
  9
$DIMTVP
 40
0.0
  9
$DIMTIX
 70
     0
  9
$DIMSOXD
 70
     0
  9
$DIMSAH
 70
     0
  9
$DIMBLK1
  1

  9
$DIMBLK2
  1

  9
$DIMSTYLE
  2
ISO-25
  9
$DIMCLRD
 70
     0
  9
$DIMCLRE
 70
     0
  9
$DIMCLRT
 70
     0
  9
$DIMTFAC
 40
1.0
  9
$DIMGAP
 40
0.625
  9
$DIMJUST
 70
     0
  9
$DIMSD1
 70
     0
  9
$DIMSD2
 70
     0
  9
$DIMTOLJ
 70
     0
  9
$DIMTZIN
 70
     8
  9
$DIMALTZ
 70
     0
  9
$DIMALTTZ
 70
     0
  9
$DIMUPT
 70
     0
  9
$DIMDEC
 70
     2
  9
$DIMTDEC
 70
     2
  9
$DIMALTU
 70
     2
  9
$DIMALTTD
 70
     3
  9
$DIMTXSTY
  7
Standard
  9
$DIMAUNIT
 70
     0
  9
$DIMADEC
 70
     0
  9
$DIMALTRND
 40
0.0
  9
$DIMAZIN
 70
     0
  9
$DIMDSEP
 70
    44
  9
$DIMATFIT
 70
     3
  9
$DIMFRAC
 70
     0
  9
$DIMLDRBLK
  1

  9
$DIMLUNIT
 70
     2
  9
$DIMLWD
 70
    -2
  9
$DIMLWE
 70
    -2
  9
$DIMTMOVE
 70
     0
  9
$DIMFXL
 40
1.0
  9
$DIMFXLON
 70
     0
  9
$DIMJOGANG
 40
0.7853981633974483
  9
$DIMTFILL
 70
     0
  9
$DIMTFILLCLR
 70
     0
  9
$DIMARCSYM
 70
     0
  9
$DIMLTYPE
  6

  9
$DIMLTEX1
  6

  9
$DIMLTEX2
  6

  9
$DIMTXTDIRECTION
 70
     0
  9
$LUNITS
 70
     2
  9
$LUPREC
 70
     4
  9
$SKETCHINC
 40
1.0
  9
$FILLETRAD
 40
10.0
  9
$AUNITS
 70
     0
  9
$AUPREC
 70
     0
  9
$MENU
  1
.
  9
$ELEVATION
 40
0.0
  9
$PELEVATION
 40
0.0
  9
$THICKNESS
 40
0.0
  9
$LIMCHECK
 70
     0
  9
$CHAMFERA
 40
10.0
  9
$CHAMFERB
 40
10.0
  9
$CHAMFERC
 40
20.0
  9
$CHAMFERD
 40
0.0
  9
$SKPOLY
 70
     0
  9
$TDCREATE
 40
2460066.444848021
  9
$TDUCREATE
 40
2460066.069848021
  9
$TDUPDATE
 40
2460066.444848032
  9
$TDUUPDATE
 40
2460066.069848032
  9
$TDINDWG
 40
0.0000000116
  9
$TDUSRTIMER
 40
0.0000000116
  9
$USRTIMER
 70
     1
  9
$ANGBASE
 50
0.0
  9
$ANGDIR
 70
     0
  9
$PDMODE
 70
     0
  9
$PDSIZE
 40
0.0
  9
$PLINEWID
 40
0.0
  9
$SPLFRAME
 70
     0
  9
$SPLINETYPE
 70
     6
  9
$SPLINESEGS
 70
     8
  9
$HANDSEED
  5
17B
  9
$SURFTAB1
 70
     6
  9
$SURFTAB2
 70
     6
  9
$SURFTYPE
 70
     6
  9
$SURFU
 70
     6
  9
$SURFV
 70
     6
  9
$UCSBASE
  2

  9
$UCSNAME
  2

  9
$UCSORG
 10
0.0
 20
0.0
 30
0.0
  9
$UCSXDIR
 10
1.0
 20
0.0
 30
0.0
  9
$UCSYDIR
 10
0.0
 20
1.0
 30
0.0
  9
$UCSORTHOREF
  2

  9
$UCSORTHOVIEW
 70
     0
  9
$UCSORGTOP
 10
0.0
 20
0.0
 30
0.0
  9
$UCSORGBOTTOM
 10
0.0
 20
0.0
 30
0.0
  9
$UCSORGLEFT
 10
0.0
 20
0.0
 30
0.0
  9
$UCSORGRIGHT
 10
0.0
 20
0.0
 30
0.0
  9
$UCSORGFRONT
 10
0.0
 20
0.0
 30
0.0
  9
$UCSORGBACK
 10
0.0
 20
0.0
 30
0.0
  9
$PUCSBASE
  2

  9
$PUCSNAME
  2

  9
$PUCSORG
 10
0.0
 20
0.0
 30
0.0
  9
$PUCSXDIR
 10
1.0
 20
0.0
 30
0.0
  9
$PUCSYDIR
 10
0.0
 20
1.0
 30
0.0
  9
$PUCSORTHOREF
  2

  9
$PUCSORTHOVIEW
 70
     0
  9
$PUCSORGTOP
 10
0.0
 20
0.0
 30
0.0
  9
$PUCSORGBOTTOM
 10
0.0
 20
0.0
 30
0.0
  9
$PUCSORGLEFT
 10
0.0
 20
0.0
 30
0.0
  9
$PUCSORGRIGHT
 10
0.0
 20
0.0
 30
0.0
  9
$PUCSORGFRONT
 10
0.0
 20
0.0
 30
0.0
  9
$PUCSORGBACK
 10
0.0
 20
0.0
 30
0.0
  9
$USERI1
 70
     0
  9
$USERI2
 70
     0
  9
$USERI3
 70
     0
  9
$USERI4
 70
     0
  9
$USERI5
 70
     0
  9
$USERR1
 40
0.0
  9
$USERR2
 40
0.0
  9
$USERR3
 40
0.0
  9
$USERR4
 40
0.0
  9
$USERR5
 40
0.0
  9
$WORLDVIEW
 70
     1
  9
$SHADEDGE
 70
     3
  9
$SHADEDIF
 70
    70
  9
$TILEMODE
 70
     1
  9
$MAXACTVP
 70
    64
  9
$PINSBASE
 10
0.0
 20
0.0
 30
0.0
  9
$PLIMCHECK
 70
     0
  9
$PEXTMIN
 10
1.000000000000000E+20
 20
1.000000000000000E+20
 30
1.000000000000000E+20
  9
$PEXTMAX
 10
-1.000000000000000E+20
 20
-1.000000000000000E+20
 30
-1.000000000000000E+20
  9
$PLIMMIN
 10
0.0
 20
0.0
  9
$PLIMMAX
 10
420.0
 20
297.0
  9
$UNITMODE
 70
     0
  9
$VISRETAIN
 70
     1
  9
$PLINEGEN
 70
     0
  9
$PSLTSCALE
 70
     1
  9
$TREEDEPTH
 70
  3020
  9
$CMLSTYLE
  2
Standard
  9
$CMLJUST
 70
     0
  9
$CMLSCALE
 40
20.0
  9
$PROXYGRAPHICS
 70
     1
  9
$MEASUREMENT
 70
     1
  9
$CELWEIGHT
370
    -1
  9
$ENDCAPS
280
     0
  9
$JOINSTYLE
280
     0
  9
$LWDISPLAY
290
     0
  9
$INSUNITS
 70
     4
  9
$HYPERLINKBASE
  1

  9
$STYLESHEET
  1

  9
$XEDIT
290
     1
  9
$CEPSNTYPE
380
     0
  9
$PSTYLEMODE
290
     1
  9
$FINGERPRINTGUID
  2
{BC27CB37-3276-453C-BA6D-CB88BCF47982}
  9
$VERSIONGUID
  2
{FAEB1C32-E019-11D5-929B-00C0DF256EC4}
  9
$EXTNAMES
290
     1
  9
$PSVPSCALE
 40
0.0
  9
$OLESTARTUP
290
     0
  9
$SORTENTS
280
   127
  9
$INDEXCTL
280
     0
  9
$HIDETEXT
280
     1
  9
$XCLIPFRAME
280
     2
  9
$HALOGAP
280
     0
  9
$OBSCOLOR
 70
   257
  9
$OBSLTYPE
280
     0
  9
$INTERSECTIONDISPLAY
280
     0
  9
$INTERSECTIONCOLOR
 70
   257
  9
$DIMASSOC
280
     2
  9
$PROJECTNAME
  1

  9
$CAMERADISPLAY
290
     0
  9
$LENSLENGTH
 40
50.0
  9
$CAMERAHEIGHT
 40
0.0
  9
$STEPSPERSEC
 40
2.0
  9
$STEPSIZE
 40
6.0
  9
$3DDWFPREC
 40
2.0
  9
$PSOLWIDTH
 40
5.0
  9
$PSOLHEIGHT
 40
80.0
  9
$LOFTANG1
 40
1.570796326794897
  9
$LOFTANG2
 40
1.570796326794897
  9
$LOFTMAG1
 40
0.0
  9
$LOFTMAG2
 40
0.0
  9
$LOFTPARAM
 70
     7
  9
$LOFTNORMALS
280
     1
  9
$LATITUDE
 40
37.795
  9
$LONGITUDE
 40
-122.394
  9
$NORTHDIRECTION
 40
0.0
  9
$TIMEZONE
 70
 -8000
  9
$LIGHTGLYPHDISPLAY
280
     1
  9
$TILEMODELIGHTSYNCH
280
     1
  9
$SOLIDHIST
280
     1
  9
$SHOWHIST
280
     1
  9
$DWFFRAME
280
     2
  9
$DGNFRAME
280
     2
  9
$REALWORLDSCALE
290
     1
  9
$INTERFERECOLOR
 62
   256
  9
$CSHADOW
280
     0
  9
$SHADOWPLANELOCATION
 40
0.0
  0
ENDSEC
  0
SECTION
  2
CLASSES
  0
CLASS
  1
ACDBDICTIONARYWDFLT
  2
AcDbDictionaryWithDefault
  3
ObjectDBX Classes
 90
        0
 91
        4
280
     0
281
     0
  0
CLASS
  1
VISUALSTYLE
  2
AcDbVisualStyle
  3
ObjectDBX Classes
 90
     4095
 91
        4
280
     0
281
     0
  0
CLASS
  1
MATERIAL
  2
AcDbMaterial
  3
ObjectDBX Classes
 90
     1153
 91
        4
280
     0
281
     0
  0
ENDSEC
  0
SECTION
  2
TABLES
  0
TABLE
  2
VPORT
  5
8
330
0
100
AcDbSymbolTable
 70
     1
  0
VPORT
  5
29
330
8
100
AcDbSymbolTableRecord
100
AcDbViewportTableRecord
  2
*Active
 70
     0
 10
0.0
 20
0.0
 11
1.0
 21
1.0
 12
0.0
 22
0.0
 13
0.0
 23
0.0
 14
10.0
 24
10.0
 15
10.0
 25
10.0
 16
0.0
 26
0.0
 36
1.0
 17
0.0
 27
0.0
 37
0.0
 40
6930.000000000001
 41
1.414285714285714
 42
50.0
 43
0.0
 44
0.0
 50
0.0
 51
0.0
 71
     0
 72
 10000
 73
     1
 74
     3
 75
     0
 76
     0
 77
     0
 78
     0
281
     0
 65
     1
110
0.0
120
0.0
130
0.0
111
1.0
121
0.0
131
0.0
112
0.0
122
1.0
132
0.0
 79
     0
146
0.0
 60
     3
 61
     5
292
     1
282
     1
141
0.0
142
0.0
 63
   250
  0
ENDTAB
  0
TABLE
  2
LTYPE
  5
5
330
0
100
AcDbSymbolTable
 70
     2
  0
LTYPE
  5
14
330
5
100
AcDbSymbolTableRecord
100
AcDbLinetypeTableRecord
  2
ByBlock
 70
     0
  3

 72
    65
 73
     0
 40
0.0
  0
LTYPE
  5
15
330
5
100
AcDbSymbolTableRecord
100
AcDbLinetypeTableRecord
  2
ByLayer
 70
     0
  3

 72
    65
 73
     0
 40
0.0
  0
LTYPE
  5
16
330
5
100
AcDbSymbolTableRecord
100
AcDbLinetypeTableRecord
  2
Continuous
 70
     0
  3
Solid line
 72
    65
 73
     0
 40
0.0
  0
LTYPE
  5
3F
330
5
100
AcDbSymbolTableRecord
100
AcDbLinetypeTableRecord
  2
JWW_CENTER1
 70
     0
  3
-----  --  ----------  --  -----
 72
    65
 73
     4
 40
6.773333333333333
 49
4.233333333333333
 74
     0
 49
-0.8466666666666667
 74
     0
 49
0.8466666666666667
 74
     0
 49
-0.8466666666666667
 74
     0
  0
ENDTAB
  0
TABLE
  2
LAYER
  5
2
330
0
100
AcDbSymbolTable
 70
     3
  0
LAYER
  5
10
330
2
100
AcDbSymbolTableRecord
100
AcDbLayerTableRecord
  2
0
 70
     0
 62
     7
  6
Continuous
370
    -3
390
F
347
3E
  0
LAYER
  5
40
330
2
100
AcDbSymbolTableRecord
100
AcDbLayerTableRecord
  2
0-1
 70
     0
 62
     7
  6
Continuous
370
    -3
390
F
347
3E
  0
LAYER
  5
41
330
2
100
AcDbSymbolTableRecord
100
AcDbLayerTableRecord
  2
文字
 70
     0
 62
     7
  6
Continuous
370
    -3
390
F
347
3E
  0
ENDTAB
  0
TABLE
  2
STYLE
  5
3
330
0
100
AcDbSymbolTable
 70
     1
  0
STYLE
  5
11
330
3
100
AcDbSymbolTableRecord
100
AcDbTextStyleTableRecord
  2
Standard
 70
     0
 40
0.0
 41
1.0
 50
0.0
 71
     0
 42
2.5
  3
txt
  4

  0
ENDTAB
  0
TABLE
  2
VIEW
  5
6
330
0
100
AcDbSymbolTable
 70
     0
  0
ENDTAB
  0
TABLE
  2
UCS
  5
7
330
0
100
AcDbSymbolTable
 70
     0
  0
ENDTAB
  0
TABLE
  2
APPID
  5
9
330
0
100
AcDbSymbolTable
 70
     1
  0
APPID
  5
12
330
9
100
AcDbSymbolTableRecord
100
AcDbRegAppTableRecord
  2
ACAD
 70
     0
  0
ENDTAB
  0
TABLE
  2
DIMSTYLE
  5
A
330
0
100
AcDbSymbolTable
 70
     1
100
AcDbDimStyleTable
  0
DIMSTYLE
105
27
330
A
100
AcDbSymbolTableRecord
100
AcDbDimStyleTableRecord
  2
ISO-25
 70
     0
 41
2.5
 42
0.625
 43
3.75
 44
1.25
 73
     0
 74
     0
 77
     1
 78
     8
140
2.5
141
2.5
143
0.03937007874016
147
0.625
171
     3
172
     1
178
     0
271
     2
272
     2
274
     3
278
    44
283
     0
284
     8
340
11
  0
ENDTAB
  0
TABLE
  2
BLOCK_RECORD
  5
1
330
0
100
AcDbSymbolTable
 70
     1
  0
BLOCK_RECORD
  5
1F
330
1
100
AcDbSymbolTableRecord
100
AcDbBlockTableRecord
  2
*Model_Space
340
22
 70
     0
280
     1
281
     0
  0
BLOCK_RECORD
  5
1B
330
1
100
AcDbSymbolTableRecord
100
AcDbBlockTableRecord
  2
*Paper_Space
340
1E
 70
     0
280
     1
281
     0
  0
BLOCK_RECORD
  5
23
330
1
100
AcDbSymbolTableRecord
100
AcDbBlockTableRecord
  2
*Paper_Space0
340
26
 70
     0
280
     1
281
     0
  0
ENDTAB
  0
ENDSEC
  0
SECTION
  2
BLOCKS
  0
BLOCK
  5
20
330
1F
100
AcDbEntity
  8
0
100
AcDbBlockBegin
  2
*Model_Space
 70
     0
 10
0.0
 20
0.0
 30
0.0
  3
*Model_Space
  1

  0
ENDBLK
  5
21
330
1F
100
AcDbEntity
  8
0
100
AcDbBlockEnd
  0
BLOCK
  5
1C
330
1B
100
AcDbEntity
 67
     1
  8
0
100
AcDbBlockBegin
  2
*Paper_Space
 70
     0
 10
0.0
 20
0.0
 30
0.0
  3
*Paper_Space
  1

  0
ENDBLK
  5
1D
330
1B
100
AcDbEntity
 67
     1
  8
0
100
AcDbBlockEnd
  0
BLOCK
  5
24
330
23
100
AcDbEntity
  8
0
100
AcDbBlockBegin
  2
*Paper_Space0
 70
     0
 10
0.0
 20
0.0
 30
0.0
  3
*Paper_Space0
  1

  0
ENDBLK
  5
25
330
23
100
AcDbEntity
  8
0
100
AcDbBlockEnd
  0
ENDSEC
  0
SECTION
  2
ENTITIES
  0
LWPOLYLINE
  5
42
330
1F
100
AcDbEntity
  8
0-1
  6
Continuous
 62
     7
370
     9
100
AcDbPolyline
 90
        4
 70
     1
 43
3.0
 10
-2474.040770064898
 20
1613.41105957138
 42
0.4142135623731
 10
-2475.540770064898
 20
1614.91105957138
 42
0.4142135623731
 10
-2477.040770064898
 20
1613.41105957138
 42
0.4142135623731
 10
-2475.540770064898
 20
1611.91105957138
 42
0.4142135623731
  0
LINE
  5
43
330
1F
100
AcDbEntity
  8
0-1
  6
Continuous
 62
   120
370
     5
100
AcDbLine
 10
-2475.540770064898
 20
1613.41105957138
 30
0.0
 11
-2475.540770064898
 21
1463.41105957138
 31
0.0
  0
LINE
  5
44
330
1F
100
AcDbEntity
  8
0-1
  6
Continuous
 62
   120
370
     5
100
AcDbLine
 10
-2475.540770064898
 20
1613.41105957138
 30
0.0
 11
-1884.540770064897
 21
1613.41105957138
 31
0.0
  0
LWPOLYLINE
  5
45
330
1F
100
AcDbEntity
  8
0-1
  6
Continuous
 62
     7
370
     9
100
AcDbPolyline
 90
        4
 70
     1
 43
3.0
 10
-1883.040770064897
 20
1613.41105957138
 42
0.4142135623731
 10
-1884.540770064897
 20
1614.91105957138
 42
0.4142135623731
 10
-1886.040770064897
 20
1613.41105957138
 42
0.4142135623731
 10
-1884.540770064897
 20
1611.91105957138
 42
0.4142135623731
  0
LINE
  5
46
330
1F
100
AcDbEntity
  8
0-1
  6
Continuous
 62
   120
370
     5
100
AcDbLine
 10
-1884.540770064897
 20
1613.41105957138
 30
0.0
 11
-1884.540770064897
 21
1463.41105957138
 31
0.0
  0
MTEXT
  5
47
330
1F
100
AcDbEntity
  8
0-1
  6
Continuous
 62
     7
370
   211
100
AcDbMText
 10
-2382.540770064898
 20
1617.70105957138
 30
0.0
 40
68.58
 41
405.0
 46
0.0
 71
     7
 72
     1
  1
{\fＭＳ ゴシック|b0|i0|c128|p49;ＤＷ＝394}
 73
     1
 44
1.0
  0
MTEXT
  5
48
330
1F
100
AcDbEntity
  8
0-1
  6
Continuous
 62
     7
370
   211
100
AcDbMText
 10
-2718.540770064899
 20
-496.5489404286197
 30
0.0
 40
68.58
 41
495.0
 46
0.0
 71
     7
 72
     1
  1
{\fＭＳ ゴシック|b0|i0|c128|p49;ＤＨ＝2,163}
 11
6.123031769111886E-17
 21
1.0
 31
0.0
 73
     1
 44
1.0
  0
LINE
  5
49
330
1F
100
AcDbEntity
  8
0-1
  6
Continuous
 62
   120
370
     5
100
AcDbLine
 10
-2703.540770064899
 20
-1860.58894042862
 30
0.0
 11
-2703.540770064899
 21
-1856.088959892413
 31
0.0
  0
LWPOLYLINE
  5
4A
330
1F
100
AcDbEntity
  8
0-1
  6
Continuous
 62
     7
370
     9
100
AcDbPolyline
 90
        4
 70
     1
 43
3.0
 10
-2702.040770064899
 20
-1860.58894042862
 42
0.4142135623731
 10
-2703.540770064899
 20
-1859.088940428621
 42
0.4142135623731
 10
-2705.040770064899
 20
-1860.58894042862
 42
0.4142135623731
 10
-2703.540770064899
 20
-1862.08894042862
 42
0.4142135623731
  0
LINE
  5
4B
330
1F
100
AcDbEntity
  8
0-1
  6
Continuous
 62
   120
370
     5
100
AcDbLine
 10
-2703.540770064899
 20
-1860.58894042862
 30
0.0
 11
-2553.540770064899
 21
-1860.58894042862
 31
0.0
  0
LINE
  5
4C
330
1F
100
AcDbEntity
  8
0-1
  6
Continuous
 62
   120
370
     5
100
AcDbLine
 10
-2703.540770064899
 20
1379.411059571385
 30
0.0
 11
-2703.540770064899
 21
1383.911059571382
 31
0.0
  0
LWPOLYLINE
  5
4D
330
1F
100
AcDbEntity
  8
0-1
  6
Continuous
 62
     7
370
     9
100
AcDbPolyline
 90
        4
 70
     1
 43
3.0
 10
-2702.040770064899
 20
1383.911059571382
 42
0.4142135623731
 10
-2703.540770064899
 20
1385.411059571382
 42
0.4142135623731
 10
-2705.040770064899
 20
1383.911059571382
 42
0.4142135623731
 10
-2703.540770064899
 20
1382.411059571382
 42
0.4142135623731
  0
LINE
  5
4E
330
1F
100
AcDbEntity
  8
0-1
  6
Continuous
 62
   120
370
     5
100
AcDbLine
 10
-2703.540770064899
 20
1383.911059571382
 30
0.0
 11
-2553.540770064899
 21
1383.911059571382
 31
0.0
  0
LINE
  5
4F
330
1F
100
AcDbEntity
  8
0-1
  6
Continuous
 62
   120
370
     5
100
AcDbLine
 10
-2703.540770064899
 20
-1856.088959892413
 30
0.0
 11
-2703.540770064899
 21
1379.411059571385
 31
0.0
  0
LINE
  5
50
330
1F
100
AcDbEntity
  8
0-1
  6
Continuous
 62
    92
370
    13
100
AcDbLine
 10
-2475.540770064898
 20
1383.911059571382
 30
0.0
 11
-1884.540770064897
 21
1383.911059571382
 31
0.0
  0
LINE
  5
51
330
1F
100
AcDbEntity
  8
0-1
  6
Continuous
 62
    92
370
    13
100
AcDbLine
 10
-2475.540770064898
 20
-1860.58894042862
 30
0.0
 11
-1884.540770064897
 21
-1860.58894042862
 31
0.0
  0
LINE
  5
52
330
1F
100
AcDbEntity
  8
0-1
  6
Continuous
 62
    92
370
    13
100
AcDbLine
 10
-2475.540770064898
 20
1383.911059571382
 30
0.0
 11
-2475.540770064898
 21
-1860.58894042862
 31
0.0
  0
LINE
  5
53
330
1F
100
AcDbEntity
  8
0-1
  6
JWW_CENTER1
 62
     7
370
     9
100
AcDbLine
 10
-1884.540770344132
 20
1383.911059571381
 30
0.0
 11
-2475.540770344133
 21
-238.3389404286208
 31
0.0
  0
LINE
  5
54
330
1F
100
AcDbEntity
  8
0-1
  6
JWW_CENTER1
 62
     7
370
     9
100
AcDbLine
 10
-2475.540770344133
 20
-238.3389404286208
 30
0.0
 11
-1884.540770344132
 21
-1860.58894042862
 31
0.0
  0
LWPOLYLINE
  5
55
330
1F
100
AcDbEntity
  8
0-1
  6
Continuous
 62
     7
370
     9
100
AcDbPolyline
 90
        4
 70
     1
 43
3.0
 10
-1142.040770064898
 20
1613.411059571377
 42
0.4142135623731
 10
-1143.540770064898
 20
1614.911059571377
 42
0.4142135623731
 10
-1145.040770064897
 20
1613.411059571377
 42
0.4142135623731
 10
-1143.540770064898
 20
1611.911059571377
 42
0.4142135623731
  0
LINE
  5
56
330
1F
100
AcDbEntity
  8
0-1
  6
Continuous
 62
   120
370
     5
100
AcDbLine
 10
-1143.540770064898
 20
1613.411059571377
 30
0.0
 11
-1143.540770064898
 21
1463.411059571377
 31
0.0
  0
LINE
  5
57
330
1F
100
AcDbEntity
  8
0-1
  6
Continuous
 62
   120
370
     5
100
AcDbLine
 10
-1143.540770064898
 20
1613.411059571377
 30
0.0
 11
-1734.540770064899
 21
1613.411059571377
 31
0.0
  0
LWPOLYLINE
  5
58
330
1F
100
AcDbEntity
  8
0-1
  6
Continuous
 62
     7
370
     9
100
AcDbPolyline
 90
        4
 70
     1
 43
3.0
 10
-1733.040770064899
 20
1613.411059571377
 42
0.4142135623731
 10
-1734.540770064899
 20
1614.911059571377
 42
0.4142135623731
 10
-1736.040770064899
 20
1613.411059571377
 42
0.4142135623731
 10
-1734.540770064899
 20
1611.911059571377
 42
0.4142135623731
  0
LINE
  5
59
330
1F
100
AcDbEntity
  8
0-1
  6
Continuous
 62
   120
370
     5
100
AcDbLine
 10
-1734.540770064899
 20
1613.411059571377
 30
0.0
 11
-1734.540770064899
 21
1463.411059571377
 31
0.0
  0
MTEXT
  5
5A
330
1F
100
AcDbEntity
  8
0-1
  6
Continuous
 62
     7
370
   211
100
AcDbMText
 10
-1641.540770064898
 20
1617.701059571377
 30
0.0
 40
68.58
 41
405.0
 46
0.0
 71
     7
 72
     1
  1
{\fＭＳ ゴシック|b0|i0|c128|p49;ＤＷ＝394}
 73
     1
 44
1.0
  0
LINE
  5
5B
330
1F
100
AcDbEntity
  8
0-1
  6
JWW_CENTER1
 62
     7
370
     9
100
AcDbLine
 10
-1143.540770064899
 20
-238.3389404286242
 30
0.0
 11
-1734.540770064899
 21
-1860.588940428624
 31
0.0
  0
LINE
  5
5C
330
1F
100
AcDbEntity
  8
0-1
  6
JWW_CENTER1
 62
     7
370
     9
100
AcDbLine
 10
-1734.540770064899
 20
1383.911059571377
 30
0.0
 11
-1143.540770064899
 21
-238.3389404286242
 31
0.0
  0
LINE
  5
5D
330
1F
100
AcDbEntity
  8
0-1
  6
Continuous
 62
    92
370
    13
100
AcDbLine
 10
-1734.540770064899
 20
1383.911059571379
 30
0.0
 11
-1143.540770064901
 21
1383.911059571379
 31
0.0
  0
LINE
  5
5E
330
1F
100
AcDbEntity
  8
0-1
  6
Continuous
 62
    92
370
    13
100
AcDbLine
 10
-1734.540770064899
 20
-1860.588940428624
 30
0.0
 11
-1143.540770064901
 21
-1860.588940428624
 31
0.0
  0
LINE
  5
5F
330
1F
100
AcDbEntity
  8
0-1
  6
Continuous
 62
    92
370
    13
100
AcDbLine
 10
-1143.540770064901
 20
1383.911059571379
 30
0.0
 11
-1143.540770064901
 21
-1860.588940428624
 31
0.0
  0
LINE
  5
60
330
1F
100
AcDbEntity
  8
0-1
  6
Continuous
 62
   120
370
     5
100
AcDbLine
 10
-24.54077006489882
 20
-498.5891566733516
 30
0.0
 11
-24.54077006489882
 21
-648.5891566733516
 31
0.0
  0
MTEXT
  5
61
330
1F
100
AcDbEntity
  8
0-1
  6
Continuous
 62
     7
370
   211
100
AcDbMText
 10
-522.5407700648962
 20
-494.2991566733516
 30
0.0
 40
68.58
 41
405.0
 46
0.0
 71
     7
 72
     1
  1
{\fＭＳ ゴシック|b0|i0|c128|p49;ＤＷ＝394}
 73
     1
 44
1.0
  0
LWPOLYLINE
  5
62
330
1F
100
AcDbEntity
  8
0-1
  6
Continuous
 62
     7
370
     9
100
AcDbPolyline
 90
        4
 70
     1
 43
3.0
 10
-23.04077006489882
 20
-498.5891566733516
 42
0.4142135623731
 10
-24.54077006489882
 20
-497.0891566733516
 42
0.4142135623731
 10
-26.04077006489882
 20
-498.5891566733516
 42
0.4142135623731
 10
-24.54077006489882
 20
-500.0891566733516
 42
0.4142135623731
  0
LINE
  5
63
330
1F
100
AcDbEntity
  8
0-1
  6
Continuous
 62
   120
370
     5
100
AcDbLine
 10
-615.5407700648968
 20
-498.5891566733516
 30
0.0
 11
-24.54077006489882
 21
-498.5891566733516
 31
0.0
  0
LINE
  5
64
330
1F
100
AcDbEntity
  8
0-1
  6
Continuous
 62
   120
370
     5
100
AcDbLine
 10
-615.5407700648968
 20
-498.5891566733516
 30
0.0
 11
-615.5407700648968
 21
-648.5891566733516
 31
0.0
  0
LWPOLYLINE
  5
65
330
1F
100
AcDbEntity
  8
0-1
  6
Continuous
 62
     7
370
     9
100
AcDbPolyline
 90
        4
 70
     1
 43
3.0
 10
-614.0407700648967
 20
-498.5891566733516
 42
0.4142135623731
 10
-615.5407700648968
 20
-497.0891566733516
 42
0.4142135623731
 10
-617.0407700648968
 20
-498.5891566733516
 42
0.4142135623731
 10
-615.5407700648968
 20
-500.0891566733516
 42
0.4142135623731
  0
LINE
  5
66
330
1F
100
AcDbEntity
  8
0-1
  6
Continuous
 62
   120
370
     5
100
AcDbLine
 10
-843.5407700648975
 20
-1860.58894042862
 30
0.0
 11
-693.5407700648975
 21
-1860.58894042862
 31
0.0
  0
LINE
  5
67
330
1F
100
AcDbEntity
  8
0-1
  6
Continuous
 62
   120
370
     5
100
AcDbLine
 10
-843.5407700648975
 20
-1860.58894042862
 30
0.0
 11
-843.5407700648975
 21
-728.0889404286204
 31
0.0
  0
LWPOLYLINE
  5
68
330
1F
100
AcDbEntity
  8
0-1
  6
Continuous
 62
     7
370
     9
100
AcDbPolyline
 90
        4
 70
     1
 43
3.0
 10
-842.0407700648974
 20
-1860.58894042862
 42
0.4142135623731
 10
-843.5407700648975
 20
-1859.088940428621
 42
0.4142135623731
 10
-845.0407700648975
 20
-1860.58894042862
 42
0.4142135623731
 10
-843.5407700648975
 20
-1862.08894042862
 42
0.4142135623731
  0
MTEXT
  5
69
330
1F
100
AcDbEntity
  8
0-1
  6
Continuous
 62
     7
370
   211
100
AcDbMText
 10
-858.5407700648957
 20
-1507.548970121398
 30
0.0
 40
68.58
 41
405.0
 46
0.0
 71
     7
 72
     1
  1
{\fＭＳ ゴシック|b0|i0|c128|p49;ＤＨ＝755}
 11
6.123031769111886E-17
 21
1.0
 31
0.0
 73
     1
 44
1.0
  0
LWPOLYLINE
  5
6A
330
1F
100
AcDbEntity
  8
0-1
  6
Continuous
 62
     7
370
     9
100
AcDbPolyline
 90
        4
 70
     1
 43
3.0
 10
-842.0407700648974
 20
-728.0889404286204
 42
0.4142135623731
 10
-843.5407700648975
 20
-726.5889404286204
 42
0.4142135623731
 10
-845.0407700648975
 20
-728.0889404286204
 42
0.4142135623731
 10
-843.5407700648975
 20
-729.5889404286205
 42
0.4142135623731
  0
LINE
  5
6B
330
1F
100
AcDbEntity
  8
0-1
  6
Continuous
 62
   120
370
     5
100
AcDbLine
 10
-843.5407700648975
 20
-728.0889404286204
 30
0.0
 11
-693.5407700648975
 21
-728.0889404286204
 31
0.0
  0
MTEXT
  5
6C
330
1F
100
AcDbEntity
  8
0-1
  6
Continuous
 62
     7
370
   211
100
AcDbMText
 10
-522.5407700648962
 20
1617.701059571382
 30
0.0
 40
68.58
 41
405.0
 46
0.0
 71
     7
 72
     1
  1
{\fＭＳ ゴシック|b0|i0|c128|p49;ＤＷ＝394}
 73
     1
 44
1.0
  0
LINE
  5
6D
330
1F
100
AcDbEntity
  8
0-1
  6
Continuous
 62
   120
370
     5
100
AcDbLine
 10
-24.54077006489882
 20
1613.411059571382
 30
0.0
 11
-24.54077006489882
 21
1463.411059571383
 31
0.0
  0
LWPOLYLINE
  5
6E
330
1F
100
AcDbEntity
  8
0-1
  6
Continuous
 62
     7
370
     9
100
AcDbPolyline
 90
        4
 70
     1
 43
3.0
 10
-23.04077006489882
 20
1613.411059571382
 42
0.4142135623731
 10
-24.54077006489882
 20
1614.911059571381
 42
0.4142135623731
 10
-26.04077006489882
 20
1613.411059571382
 42
0.4142135623731
 10
-24.54077006489882
 20
1611.911059571382
 42
0.4142135623731
  0
LINE
  5
6F
330
1F
100
AcDbEntity
  8
0-1
  6
Continuous
 62
   120
370
     5
100
AcDbLine
 10
-615.5407700648968
 20
1613.411059571382
 30
0.0
 11
-24.54077006489882
 21
1613.411059571382
 31
0.0
  0
LINE
  5
70
330
1F
100
AcDbEntity
  8
0-1
  6
Continuous
 62
   120
370
     5
100
AcDbLine
 10
-615.5407700648968
 20
1613.411059571382
 30
0.0
 11
-615.5407700648968
 21
1463.411059571383
 31
0.0
  0
LWPOLYLINE
  5
71
330
1F
100
AcDbEntity
  8
0-1
  6
Continuous
 62
     7
370
     9
100
AcDbPolyline
 90
        4
 70
     1
 43
3.0
 10
-614.0407700648967
 20
1613.411059571382
 42
0.4142135623731
 10
-615.5407700648968
 20
1614.911059571381
 42
0.4142135623731
 10
-617.0407700648968
 20
1613.411059571382
 42
0.4142135623731
 10
-615.5407700648968
 20
1611.911059571382
 42
0.4142135623731
  0
LINE
  5
72
330
1F
100
AcDbEntity
  8
0-1
  6
Continuous
 62
   120
370
     5
100
AcDbLine
 10
-843.5407700648975
 20
539.411059571383
 30
0.0
 11
-693.5407700648975
 21
539.411059571383
 31
0.0
  0
LWPOLYLINE
  5
73
330
1F
100
AcDbEntity
  8
0-1
  6
Continuous
 62
     7
370
     9
100
AcDbPolyline
 90
        4
 70
     1
 43
3.0
 10
-842.0407700648974
 20
539.411059571383
 42
0.4142135623731
 10
-843.5407700648975
 20
540.911059571383
 42
0.4142135623731
 10
-845.0407700648975
 20
539.411059571383
 42
0.4142135623731
 10
-843.5407700648975
 20
537.9110595713829
 42
0.4142135623731
  0
LINE
  5
74
330
1F
100
AcDbEntity
  8
0-1
  6
Continuous
 62
   120
370
     5
100
AcDbLine
 10
-843.5407700648975
 20
539.411059571383
 30
0.0
 11
-843.5407700648975
 21
543.9110401075892
 31
0.0
  0
MTEXT
  5
75
330
1F
100
AcDbEntity
  8
0-1
  6
Continuous
 62
     7
370
   211
100
AcDbMText
 10
-858.5407700648991
 20
748.4510595713826
 30
0.0
 40
68.58
 41
405.0
 46
0.0
 71
     7
 72
     1
  1
{\fＭＳ ゴシック|b0|i0|c128|p49;ＤＨ＝563}
 11
6.123031769111886E-17
 21
1.0
 31
0.0
 73
     1
 44
1.0
  0
LINE
  5
76
330
1F
100
AcDbEntity
  8
0-1
  6
Continuous
 62
   120
370
     5
100
AcDbLine
 10
-843.5407700648975
 20
539.411059571383
 30
0.0
 11
-843.5407700648975
 21
1383.911059571382
 31
0.0
  0
LWPOLYLINE
  5
77
330
1F
100
AcDbEntity
  8
0-1
  6
Continuous
 62
     7
370
     9
100
AcDbPolyline
 90
        4
 70
     1
 43
3.0
 10
-842.0407700648974
 20
539.411059571383
 42
0.4142135623731
 10
-843.5407700648975
 20
540.911059571383
 42
0.4142135623731
 10
-845.0407700648975
 20
539.411059571383
 42
0.4142135623731
 10
-843.5407700648975
 20
537.9110595713829
 42
0.4142135623731
  0
LINE
  5
78
330
1F
100
AcDbEntity
  8
0-1
  6
Continuous
 62
   120
370
     5
100
AcDbLine
 10
-843.5407700648975
 20
1383.911059571382
 30
0.0
 11
-693.5407700648975
 21
1383.911059571382
 31
0.0
  0
LWPOLYLINE
  5
79
330
1F
100
AcDbEntity
  8
0-1
  6
Continuous
 62
     7
370
     9
100
AcDbPolyline
 90
        4
 70
     1
 43
3.0
 10
-842.0407700648974
 20
1383.911059571382
 42
0.4142135623731
 10
-843.5407700648975
 20
1385.411059571382
 42
0.4142135623731
 10
-845.0407700648975
 20
1383.911059571382
 42
0.4142135623731
 10
-843.5407700648975
 20
1382.411059571382
 42
0.4142135623731
  0
LINE
  5
7A
330
1F
100
AcDbEntity
  8
0-1
  6
Continuous
 62
    92
370
    13
100
AcDbLine
 10
-615.5407700648968
 20
1383.911059571384
 30
0.0
 11
-615.5407700648968
 21
539.4110595713838
 31
0.0
  0
LINE
  5
7B
330
1F
100
AcDbEntity
  8
0-1
  6
Continuous
 62
    92
370
    13
100
AcDbLine
 10
-24.54077006489882
 20
539.4110595713838
 30
0.0
 11
-615.5407700648968
 21
539.4110595713838
 31
0.0
  0
LINE
  5
7C
330
1F
100
AcDbEntity
  8
0-1
  6
Continuous
 62
    92
370
    13
100
AcDbLine
 10
-24.54077006489882
 20
1383.911059571384
 30
0.0
 11
-615.5407700648968
 21
1383.911059571384
 31
0.0
  0
LINE
  5
7D
330
1F
100
AcDbEntity
  8
0-1
  6
Continuous
 62
    92
370
    13
100
AcDbLine
 10
-24.54077006489882
 20
1383.911059571384
 30
0.0
 11
-24.54077006489882
 21
539.4110595713838
 31
0.0
  0
LINE
  5
7E
330
1F
100
AcDbEntity
  8
0-1
  6
JWW_CENTER1
 62
     7
370
     9
100
AcDbLine
 10
-24.54077006489882
 20
1383.911059571384
 30
0.0
 11
-615.5407700648968
 21
961.6610595713844
 31
0.0
  0
LINE
  5
7F
330
1F
100
AcDbEntity
  8
0-1
  6
JWW_CENTER1
 62
     7
370
     9
100
AcDbLine
 10
-615.5407700648968
 20
961.6610595713844
 30
0.0
 11
-24.54077006489882
 21
539.4110595713838
 31
0.0
  0
LINE
  5
80
330
1F
100
AcDbEntity
  8
0-1
  6
Continuous
 62
   120
370
     5
100
AcDbLine
 10
125.4592299351046
 20
-498.589156673355
 30
0.0
 11
125.4592299351046
 21
-648.589156673355
 31
0.0
  0
MTEXT
  5
81
330
1F
100
AcDbEntity
  8
0-1
  6
Continuous
 62
     7
370
   211
100
AcDbMText
 10
218.4592299351027
 20
-494.299156673355
 30
0.0
 40
68.58
 41
405.0
 46
0.0
 71
     7
 72
     1
  1
{\fＭＳ ゴシック|b0|i0|c128|p49;ＤＷ＝394}
 73
     1
 44
1.0
  0
LWPOLYLINE
  5
82
330
1F
100
AcDbEntity
  8
0-1
  6
Continuous
 62
     7
370
     9
100
AcDbPolyline
 90
        4
 70
     1
 43
3.0
 10
126.9592299351046
 20
-498.589156673355
 42
0.4142135623731
 10
125.4592299351046
 20
-497.089156673355
 42
0.4142135623731
 10
123.9592299351046
 20
-498.589156673355
 42
0.4142135623731
 10
125.4592299351046
 20
-500.089156673355
 42
0.4142135623731
  0
LINE
  5
83
330
1F
100
AcDbEntity
  8
0-1
  6
Continuous
 62
   120
370
     5
100
AcDbLine
 10
716.4592299351064
 20
-498.589156673355
 30
0.0
 11
125.4592299351046
 21
-498.589156673355
 31
0.0
  0
LINE
  5
84
330
1F
100
AcDbEntity
  8
0-1
  6
Continuous
 62
   120
370
     5
100
AcDbLine
 10
716.4592299351064
 20
-498.589156673355
 30
0.0
 11
716.4592299351064
 21
-648.589156673355
 31
0.0
  0
LWPOLYLINE
  5
85
330
1F
100
AcDbEntity
  8
0-1
  6
Continuous
 62
     7
370
     9
100
AcDbPolyline
 90
        4
 70
     1
 43
3.0
 10
717.9592299351064
 20
-498.589156673355
 42
0.4142135623731
 10
716.4592299351064
 20
-497.089156673355
 42
0.4142135623731
 10
714.9592299351064
 20
-498.589156673355
 42
0.4142135623731
 10
716.4592299351064
 20
-500.089156673355
 42
0.4142135623731
  0
MTEXT
  5
86
330
1F
100
AcDbEntity
  8
0-1
  6
Continuous
 62
     7
370
   211
100
AcDbMText
 10
218.4592299351027
 20
1617.701059571378
 30
0.0
 40
68.58
 41
405.0
 46
0.0
 71
     7
 72
     1
  1
{\fＭＳ ゴシック|b0|i0|c128|p49;ＤＷ＝394}
 73
     1
 44
1.0
  0
LINE
  5
87
330
1F
100
AcDbEntity
  8
0-1
  6
Continuous
 62
   120
370
     5
100
AcDbLine
 10
716.4592299351064
 20
1613.411059571378
 30
0.0
 11
716.4592299351064
 21
1463.411059571379
 31
0.0
  0
LWPOLYLINE
  5
88
330
1F
100
AcDbEntity
  8
0-1
  6
Continuous
 62
     7
370
     9
100
AcDbPolyline
 90
        4
 70
     1
 43
3.0
 10
717.9592299351064
 20
1613.411059571378
 42
0.4142135623731
 10
716.4592299351064
 20
1614.911059571378
 42
0.4142135623731
 10
714.9592299351064
 20
1613.411059571378
 42
0.4142135623731
 10
716.4592299351064
 20
1611.911059571378
 42
0.4142135623731
  0
LINE
  5
89
330
1F
100
AcDbEntity
  8
0-1
  6
Continuous
 62
   120
370
     5
100
AcDbLine
 10
125.4592299351046
 20
1613.411059571378
 30
0.0
 11
716.4592299351064
 21
1613.411059571378
 31
0.0
  0
LINE
  5
8A
330
1F
100
AcDbEntity
  8
0-1
  6
Continuous
 62
   120
370
     5
100
AcDbLine
 10
125.4592299351046
 20
1613.411059571378
 30
0.0
 11
125.4592299351046
 21
1463.411059571379
 31
0.0
  0
LWPOLYLINE
  5
8B
330
1F
100
AcDbEntity
  8
0-1
  6
Continuous
 62
     7
370
     9
100
AcDbPolyline
 90
        4
 70
     1
 43
3.0
 10
126.9592299351046
 20
1613.411059571378
 42
0.4142135623731
 10
125.4592299351046
 20
1614.911059571378
 42
0.4142135623731
 10
123.9592299351046
 20
1613.411059571378
 42
0.4142135623731
 10
125.4592299351046
 20
1611.911059571378
 42
0.4142135623731
  0
LINE
  5
8C
330
1F
100
AcDbEntity
  8
0-1
  6
Continuous
 62
    92
370
    13
100
AcDbLine
 10
716.4592299351064
 20
539.4110595713804
 30
0.0
 11
716.4592299351064
 21
1383.911059571381
 31
0.0
  0
LINE
  5
8D
330
1F
100
AcDbEntity
  8
0-1
  6
Continuous
 62
    92
370
    13
100
AcDbLine
 10
125.4592299351046
 20
1383.911059571381
 30
0.0
 11
716.4592299351064
 21
1383.911059571381
 31
0.0
  0
LINE
  5
8E
330
1F
100
AcDbEntity
  8
0-1
  6
Continuous
 62
    92
370
    13
100
AcDbLine
 10
125.4592299351046
 20
539.4110595713804
 30
0.0
 11
716.4592299351064
 21
539.4110595713804
 31
0.0
  0
LINE
  5
8F
330
1F
100
AcDbEntity
  8
0-1
  6
Continuous
 62
    92
370
    13
100
AcDbLine
 10
125.4592299351046
 20
1383.911059571381
 30
0.0
 11
125.4592299351046
 21
539.4110595713804
 31
0.0
  0
LINE
  5
90
330
1F
100
AcDbEntity
  8
0-1
  6
JWW_CENTER1
 62
     7
370
     9
100
AcDbLine
 10
125.4592299351046
 20
1383.911059571381
 30
0.0
 11
716.4592299351025
 21
961.661059571381
 31
0.0
  0
LINE
  5
91
330
1F
100
AcDbEntity
  8
0-1
  6
JWW_CENTER1
 62
     7
370
     9
100
AcDbLine
 10
716.4592299351025
 20
961.661059571381
 30
0.0
 11
125.4592299351046
 21
539.4110595713804
 31
0.0
  0
LINE
  5
92
330
1F
100
AcDbEntity
  8
0-1
  6
Continuous
 62
     7
370
     9
100
AcDbLine
 10
1533.209229935106
 20
-780.3548899644874
 30
0.0
 11
1090.709229935106
 21
-1222.854889964487
 31
0.0
  0
LINE
  5
93
330
1F
100
AcDbEntity
  8
0-1
  6
Continuous
 62
     7
370
     9
100
AcDbLine
 10
1533.209229935106
 20
-859.5634773281315
 30
0.0
 11
1090.709229935106
 21
-1302.063477328132
 31
0.0
  0
LINE
  5
94
330
1F
100
AcDbEntity
  8
0-1
  6
Continuous
 62
     7
370
     9
100
AcDbLine
 10
1533.209229935106
 20
-877.8423821043565
 30
0.0
 11
1090.709229935106
 21
-1320.342382104357
 31
0.0
  0
LINE
  5
95
330
1F
100
AcDbEntity
  8
0-1
  6
Continuous
 62
     7
370
     9
100
AcDbLine
 10
1533.209229935106
 20
822.6258316886357
 30
0.0
 11
1090.709229935106
 21
380.1258316886356
 31
0.0
  0
LINE
  5
96
330
1F
100
AcDbEntity
  8
0-1
  6
Continuous
 62
     7
370
     9
100
AcDbLine
 10
1533.209229935106
 20
784.8373280861979
 30
0.0
 11
1090.709229935106
 21
342.3373280861974
 31
0.0
  0
LINE
  5
97
330
1F
100
AcDbEntity
  8
0-1
  6
Continuous
 62
     7
370
     9
100
AcDbLine
 10
1533.209229935106
 20
696.4892883344409
 30
0.0
 11
1090.709229935106
 21
253.9892883344408
 31
0.0
  0
LINE
  5
98
330
1F
100
AcDbEntity
  8
0-1
  6
Continuous
 62
     7
370
     9
100
AcDbLine
 10
2274.209229935106
 20
822.6258316886357
 30
0.0
 11
1831.709229935106
 21
380.1258316886356
 31
0.0
  0
LINE
  5
99
330
1F
100
AcDbEntity
  8
0-1
  6
Continuous
 62
     7
370
     9
100
AcDbLine
 10
2274.209229935106
 20
784.8373280861979
 30
0.0
 11
1831.709229935106
 21
342.3373280861974
 31
0.0
  0
LINE
  5
9A
330
1F
100
AcDbEntity
  8
0-1
  6
Continuous
 62
     7
370
     9
100
AcDbLine
 10
2274.209229935106
 20
696.4892883344409
 30
0.0
 11
1831.709229935106
 21
253.9892883344408
 31
0.0
  0
LINE
  5
9B
330
1F
100
AcDbEntity
  8
0-1
  6
Continuous
 62
     7
370
     9
100
AcDbLine
 10
2274.209229935106
 20
-780.3548899644874
 30
0.0
 11
1831.709229935106
 21
-1222.854889964487
 31
0.0
  0
LINE
  5
9C
330
1F
100
AcDbEntity
  8
0-1
  6
Continuous
 62
     7
370
     9
100
AcDbLine
 10
2274.209229935106
 20
-859.5634773281315
 30
0.0
 11
1831.709229935106
 21
-1302.063477328132
 31
0.0
  0
LINE
  5
9D
330
1F
100
AcDbEntity
  8
0-1
  6
Continuous
 62
     7
370
     9
100
AcDbLine
 10
2274.209229935106
 20
-877.8423821043565
 30
0.0
 11
1831.709229935106
 21
-1320.342382104357
 31
0.0
  0
LINE
  5
9E
330
1F
100
AcDbEntity
  8
0-1
  6
JWW_CENTER1
 62
     7
370
     9
100
AcDbLine
 10
1607.459229655873
 20
1383.911059571381
 30
0.0
 11
1016.459229655871
 21
-238.3389404286208
 31
0.0
  0
LINE
  5
9F
330
1F
100
AcDbEntity
  8
0-1
  6
JWW_CENTER1
 62
     7
370
     9
100
AcDbLine
 10
1757.459229935108
 20
1383.911059571377
 30
0.0
 11
2348.459229935107
 21
-238.3389404286242
 31
0.0
  0
LINE
  5
A0
330
1F
100
AcDbEntity
  8
0-1
  6
JWW_CENTER1
 62
     7
370
     9
100
AcDbLine
 10
2348.459229935107
 20
-238.3389404286242
 30
0.0
 11
1757.459229935108
 21
-1860.588940428624
 31
0.0
  0
LINE
  5
A1
330
1F
100
AcDbEntity
  8
0-1
  6
JWW_CENTER1
 62
     7
370
     9
100
AcDbLine
 10
1016.459229655871
 20
-238.3389404286208
 30
0.0
 11
1607.459229655873
 21
-1860.58894042862
 31
0.0
  0
LWPOLYLINE
  5
A2
330
1F
100
AcDbEntity
  8
0-1
  6
Continuous
 62
     7
370
     9
100
AcDbPolyline
 90
        4
 70
     1
 43
3.0
 10
1017.959229935106
 20
1613.41105957138
 42
0.4142135623731
 10
1016.459229935106
 20
1614.91105957138
 42
0.4142135623731
 10
1014.959229935106
 20
1613.41105957138
 42
0.4142135623731
 10
1016.459229935106
 20
1611.91105957138
 42
0.4142135623731
  0
LINE
  5
A3
330
1F
100
AcDbEntity
  8
0-1
  6
Continuous
 62
   120
370
     5
100
AcDbLine
 10
1016.459229935106
 20
1613.41105957138
 30
0.0
 11
1016.459229935106
 21
1463.41105957138
 31
0.0
  0
LINE
  5
A4
330
1F
100
AcDbEntity
  8
0-1
  6
Continuous
 62
   120
370
     5
100
AcDbLine
 10
1016.459229935106
 20
1613.41105957138
 30
0.0
 11
1607.459229935108
 21
1613.41105957138
 31
0.0
  0
LWPOLYLINE
  5
A5
330
1F
100
AcDbEntity
  8
0-1
  6
Continuous
 62
     7
370
     9
100
AcDbPolyline
 90
        4
 70
     1
 43
3.0
 10
1608.959229935108
 20
1613.41105957138
 42
0.4142135623731
 10
1607.459229935108
 20
1614.91105957138
 42
0.4142135623731
 10
1605.959229935108
 20
1613.41105957138
 42
0.4142135623731
 10
1607.459229935108
 20
1611.91105957138
 42
0.4142135623731
  0
LINE
  5
A6
330
1F
100
AcDbEntity
  8
0-1
  6
Continuous
 62
   120
370
     5
100
AcDbLine
 10
1607.459229935108
 20
1613.41105957138
 30
0.0
 11
1607.459229935108
 21
1463.41105957138
 31
0.0
  0
MTEXT
  5
A7
330
1F
100
AcDbEntity
  8
0-1
  6
Continuous
 62
     7
370
   211
100
AcDbMText
 10
1109.459229935107
 20
1617.70105957138
 30
0.0
 40
68.58
 41
405.0
 46
0.0
 71
     7
 72
     1
  1
{\fＭＳ ゴシック|b0|i0|c128|p49;ＤＷ＝394}
 73
     1
 44
1.0
  0
LWPOLYLINE
  5
A8
330
1F
100
AcDbEntity
  8
0-1
  6
Continuous
 62
     7
370
     9
100
AcDbPolyline
 90
        4
 70
     1
 43
3.0
 10
2349.95922993511
 20
1613.411059571377
 42
0.4142135623731
 10
2348.45922993511
 20
1614.911059571377
 42
0.4142135623731
 10
2346.959229935111
 20
1613.411059571377
 42
0.4142135623731
 10
2348.45922993511
 20
1611.911059571377
 42
0.4142135623731
  0
LINE
  5
A9
330
1F
100
AcDbEntity
  8
0-1
  6
Continuous
 62
   120
370
     5
100
AcDbLine
 10
2348.45922993511
 20
1613.411059571377
 30
0.0
 11
2348.45922993511
 21
1463.411059571377
 31
0.0
  0
LINE
  5
AA
330
1F
100
AcDbEntity
  8
0-1
  6
Continuous
 62
   120
370
     5
100
AcDbLine
 10
2348.45922993511
 20
1613.411059571377
 30
0.0
 11
1757.459229935109
 21
1613.411059571377
 31
0.0
  0
LWPOLYLINE
  5
AB
330
1F
100
AcDbEntity
  8
0-1
  6
Continuous
 62
     7
370
     9
100
AcDbPolyline
 90
        4
 70
     1
 43
3.0
 10
1758.959229935109
 20
1613.411059571377
 42
0.4142135623731
 10
1757.459229935109
 20
1614.911059571377
 42
0.4142135623731
 10
1755.959229935109
 20
1613.411059571377
 42
0.4142135623731
 10
1757.459229935109
 20
1611.911059571377
 42
0.4142135623731
  0
LINE
  5
AC
330
1F
100
AcDbEntity
  8
0-1
  6
Continuous
 62
   120
370
     5
100
AcDbLine
 10
1757.459229935109
 20
1613.411059571377
 30
0.0
 11
1757.459229935109
 21
1463.411059571377
 31
0.0
  0
MTEXT
  5
AD
330
1F
100
AcDbEntity
  8
0-1
  6
Continuous
 62
     7
370
   211
100
AcDbMText
 10
1850.45922993511
 20
1617.701059571377
 30
0.0
 40
68.58
 41
405.0
 46
0.0
 71
     7
 72
     1
  1
{\fＭＳ ゴシック|b0|i0|c128|p49;ＤＷ＝394}
 73
     1
 44
1.0
  0
LINE
  5
AE
330
1F
100
AcDbEntity
  8
0-1
  6
Continuous
 62
    92
370
    13
100
AcDbLine
 10
-1884.540770064897
 20
1383.911059571382
 30
0.0
 11
-1884.540770064897
 21
-1860.58894042862
 31
0.0
  0
LINE
  5
AF
330
1F
100
AcDbEntity
  8
0-1
  6
Continuous
 62
    92
370
    13
100
AcDbLine
 10
-2469.540770064899
 20
1383.911059571381
 30
0.0
 11
-2469.540770064899
 21
-1860.58894042862
 31
0.0
  0
LINE
  5
B0
330
1F
100
AcDbEntity
  8
0-1
  6
Continuous
 62
    92
370
    13
100
AcDbLine
 10
-1734.540770064899
 20
1383.911059571379
 30
0.0
 11
-1734.540770064899
 21
-1860.588940428624
 31
0.0
  0
LINE
  5
B1
330
1F
100
AcDbEntity
  8
0-1
  6
Continuous
 62
    92
370
    13
100
AcDbLine
 10
-1734.540770064899
 20
-668.088940428623
 30
0.0
 11
-1734.540770064899
 21
-670.3389404286235
 31
0.0
  0
LINE
  5
B2
330
1F
100
AcDbEntity
  8
0-1
  6
Continuous
 62
    92
370
    13
100
AcDbLine
 10
-1704.540770064899
 20
-675.588940428623
 30
0.0
 11
-1734.540770064899
 21
-675.588940428623
 31
0.0
  0
LINE
  5
B3
330
1F
100
AcDbEntity
  8
0-1
  6
Continuous
 62
    92
370
    13
100
AcDbLine
 10
-1700.0407700649
 20
-671.0889404286228
 30
0.0
 11
-1700.0407700649
 21
-245.0889404286232
 31
0.0
  0
ARC
  5
B4
330
1F
100
AcDbEntity
  8
0-1
  6
Continuous
 62
    92
370
    13
100
AcDbCircle
 10
-1704.540770064899
 20
-671.0889404286228
 30
0.0
 40
4.500000000000001
100
AcDbArc
 50
270.0
 51
0.0
  0
LINE
  5
B5
330
1F
100
AcDbEntity
  8
0-1
  6
Continuous
 62
    92
370
    13
100
AcDbLine
 10
-1734.540770064899
 20
-248.088940428623
 30
0.0
 11
-1734.540770064899
 21
-245.8389404286231
 31
0.0
  0
LINE
  5
B6
330
1F
100
AcDbEntity
  8
0-1
  6
Continuous
 62
    92
370
    13
100
AcDbLine
 10
-1704.540770064899
 20
-240.588940428623
 30
0.0
 11
-1734.540770064899
 21
-240.588940428623
 31
0.0
  0
ARC
  5
B7
330
1F
100
AcDbEntity
  8
0-1
  6
Continuous
 62
    92
370
    13
100
AcDbCircle
 10
-1704.540770064899
 20
-245.0889404286232
 30
0.0
 40
4.500000000000001
100
AcDbArc
 50
0.0
 51
90.0
  0
LINE
  5
B8
330
1F
100
AcDbEntity
  8
0-1
  6
Continuous
 62
    92
370
    13
100
AcDbLine
 10
-1734.540770064899
 20
-248.088940428623
 30
0.0
 11
-1734.540770064899
 21
-245.8389404286231
 31
0.0
  0
ARC
  5
B9
330
1F
100
AcDbEntity
  8
0-1
  6
Continuous
 62
    92
370
    13
100
AcDbCircle
 10
-1709.040770064898
 20
-257.0889404286231
 30
0.0
 40
4.500000000000001
100
AcDbArc
 50
0.0
 51
90.0
  0
LINE
  5
BA
330
1F
100
AcDbEntity
  8
0-1
  6
Continuous
 62
    92
370
    13
100
AcDbLine
 10
-1709.040770064898
 20
-252.5889404286232
 30
0.0
 11
-1730.0407700649
 21
-252.5889404286232
 31
0.0
  0
ARC
  5
BB
330
1F
100
AcDbEntity
  8
0-1
  6
Continuous
 62
    92
370
    13
100
AcDbCircle
 10
-1730.0407700649
 20
-248.088940428623
 30
0.0
 40
4.500000000000001
100
AcDbArc
 50
180.0
 51
270.0
  0
LINE
  5
BC
330
1F
100
AcDbEntity
  8
0-1
  6
Continuous
 62
    92
370
    13
100
AcDbLine
 10
-1729.591410961816
 20
-240.588940428623
 30
0.0
 11
-1729.591410961816
 21
-248.088940428623
 31
0.0
  0
LINE
  5
BD
330
1F
100
AcDbEntity
  8
0-1
  6
Continuous
 62
    92
370
    13
100
AcDbLine
 10
-1709.040770064898
 20
-663.5889404286228
 30
0.0
 11
-1730.0407700649
 21
-663.5889404286228
 31
0.0
  0
LINE
  5
BE
330
1F
100
AcDbEntity
  8
0-1
  6
Continuous
 62
    92
370
    13
100
AcDbLine
 10
-1734.540770064899
 20
-668.088940428623
 30
0.0
 11
-1734.540770064899
 21
-670.3389404286235
 31
0.0
  0
LINE
  5
BF
330
1F
100
AcDbEntity
  8
0-1
  6
Continuous
 62
    92
370
    13
100
AcDbLine
 10
-1734.540770064899
 20
-668.088940428623
 30
0.0
 11
-1734.540770064899
 21
-670.3389404286235
 31
0.0
  0
ARC
  5
C0
330
1F
100
AcDbEntity
  8
0-1
  6
Continuous
 62
    92
370
    13
100
AcDbCircle
 10
-1709.040770064898
 20
-659.0889404286235
 30
0.0
 40
4.500000000000001
100
AcDbArc
 50
270.0
 51
0.0
  0
ARC
  5
C1
330
1F
100
AcDbEntity
  8
0-1
  6
Continuous
 62
    92
370
    13
100
AcDbCircle
 10
-1730.0407700649
 20
-668.088940428623
 30
0.0
 40
4.500000000000001
100
AcDbArc
 50
90.0
 51
180.0
  0
LINE
  5
C2
330
1F
100
AcDbEntity
  8
0-1
  6
Continuous
 62
    92
370
    13
100
AcDbLine
 10
-1729.591410961816
 20
-675.588940428623
 30
0.0
 11
-1729.591410961816
 21
-668.088940428623
 31
0.0
  0
LINE
  5
C3
330
1F
100
AcDbEntity
  8
0-1
  6
Continuous
 62
    92
370
    13
100
AcDbLine
 10
-1704.540770064899
 20
-257.0889404286231
 30
0.0
 11
-1704.540770064899
 21
-659.0889404286235
 31
0.0
  0
LINE
  5
C4
330
1F
100
AcDbEntity
  8
0-1
  6
Continuous
 62
    92
370
    13
100
AcDbLine
 10
-1151.040770064901
 20
1383.911059571378
 30
0.0
 11
-1151.040770064901
 21
-1860.588940428623
 31
0.0
  0
LINE
  5
C5
330
1F
100
AcDbEntity
  8
0-1
  6
Continuous
 62
    92
370
    13
100
AcDbLine
 10
-1728.540770064899
 20
-1860.588940428622
 30
0.0
 11
-1728.540770064899
 21
-675.588940428623
 31
0.0
  0
LINE
  5
C6
330
1F
100
AcDbEntity
  8
0-1
  6
Continuous
 62
    92
370
    13
100
AcDbLine
 10
-1728.540770064899
 20
-240.588940428623
 30
0.0
 11
-1728.540770064899
 21
1383.911059571378
 31
0.0
  0
LINE
  5
C7
330
1F
100
AcDbEntity
  8
0-1
  6
Continuous
 62
    92
370
    13
100
AcDbLine
 10
-24.54077006489882
 20
-728.0891566733611
 30
0.0
 11
-615.5407700648968
 21
-728.0891566733611
 31
0.0
  0
LINE
  5
C8
330
1F
100
AcDbEntity
  8
0-1
  6
Continuous
 62
    92
370
    13
100
AcDbLine
 10
-24.54077006489882
 20
-728.0891566733611
 30
0.0
 11
-24.54077006489882
 21
-1860.588940428631
 31
0.0
  0
LINE
  5
C9
330
1F
100
AcDbEntity
  8
0-1
  6
Continuous
 62
    92
370
    13
100
AcDbLine
 10
-615.5407700648968
 20
-728.0891566733611
 30
0.0
 11
-615.5407700648968
 21
-1860.588940428631
 31
0.0
  0
LINE
  5
CA
330
1F
100
AcDbEntity
  8
0-1
  6
Continuous
 62
    92
370
    13
100
AcDbLine
 10
-24.54077006489882
 20
-1860.588940428631
 30
0.0
 11
-615.5407700648968
 21
-1860.588940428631
 31
0.0
  0
LINE
  5
CB
330
1F
100
AcDbEntity
  8
0-1
  6
JWW_CENTER1
 62
    92
370
    13
100
AcDbLine
 10
-24.54077006489882
 20
-728.0889107358495
 30
0.0
 11
-615.5407700648968
 21
-1294.338925582238
 31
0.0
  0
LINE
  5
CC
330
1F
100
AcDbEntity
  8
0-1
  6
JWW_CENTER1
 62
    92
370
    13
100
AcDbLine
 10
-615.5407700648968
 20
-1294.338925582238
 30
0.0
 11
-24.54077006489882
 21
-1860.588940428627
 31
0.0
  0
LINE
  5
CD
330
1F
100
AcDbEntity
  8
0-1
  6
Continuous
 62
    92
370
    13
100
AcDbLine
 10
-609.5407700648989
 20
-728.0886647983378
 30
0.0
 11
-609.5407700648989
 21
-1860.588664798338
 31
0.0
  0
LINE
  5
CE
330
1F
100
AcDbEntity
  8
0-1
  6
Continuous
 62
    92
370
    13
100
AcDbLine
 10
-609.5407700648955
 20
1383.91105957138
 30
0.0
 11
-609.5407700648955
 21
539.4110595713796
 31
0.0
  0
LINE
  5
CF
330
1F
100
AcDbEntity
  8
0-1
  6
Continuous
 62
    92
370
    13
100
AcDbLine
 10
125.4592299351046
 20
-728.0891566733645
 30
0.0
 11
716.4592299351064
 21
-728.0891566733645
 31
0.0
  0
LINE
  5
D0
330
1F
100
AcDbEntity
  8
0-1
  6
Continuous
 62
    92
370
    13
100
AcDbLine
 10
125.4592299351046
 20
-728.0891566733645
 30
0.0
 11
125.4592299351046
 21
-1860.588940428634
 31
0.0
  0
LINE
  5
D1
330
1F
100
AcDbEntity
  8
0-1
  6
Continuous
 62
    92
370
    13
100
AcDbLine
 10
716.4592299351064
 20
-728.0891566733645
 30
0.0
 11
716.4592299351064
 21
-1860.588940428634
 31
0.0
  0
LINE
  5
D2
330
1F
100
AcDbEntity
  8
0-1
  6
Continuous
 62
    92
370
    13
100
AcDbLine
 10
125.4592299351046
 20
-1860.588940428634
 30
0.0
 11
716.4592299351064
 21
-1860.588940428634
 31
0.0
  0
LINE
  5
D3
330
1F
100
AcDbEntity
  8
0-1
  6
JWW_CENTER1
 62
    92
370
    13
100
AcDbLine
 10
125.4592299351012
 20
-728.0889107358529
 30
0.0
 11
716.4592299351025
 21
-1294.338925582241
 31
0.0
  0
LINE
  5
D4
330
1F
100
AcDbEntity
  8
0-1
  6
JWW_CENTER1
 62
    92
370
    13
100
AcDbLine
 10
716.4592299351025
 20
-1294.338925582241
 30
0.0
 11
125.4592299351012
 21
-1860.588940428631
 31
0.0
  0
LINE
  5
D5
330
1F
100
AcDbEntity
  8
0-1
  6
Continuous
 62
    92
370
    13
100
AcDbLine
 10
125.4592299351012
 20
-1215.588910735853
 30
0.0
 11
125.4592299351012
 21
-1217.838910735853
 31
0.0
  0
LINE
  5
D6
330
1F
100
AcDbEntity
  8
0-1
  6
Continuous
 62
    92
370
    13
100
AcDbLine
 10
155.4592299351012
 20
-1223.088910735853
 30
0.0
 11
125.4592299351012
 21
-1223.088910735853
 31
0.0
  0
LINE
  5
D7
330
1F
100
AcDbEntity
  8
0-1
  6
Continuous
 62
    92
370
    13
100
AcDbLine
 10
159.9592299351005
 20
-1218.588910735853
 30
0.0
 11
159.9592299351005
 21
-792.5889107358531
 31
0.0
  0
ARC
  5
D8
330
1F
100
AcDbEntity
  8
0-1
  6
Continuous
 62
    92
370
    13
100
AcDbCircle
 10
155.4592299351012
 20
-1218.588910735853
 30
0.0
 40
4.500000000000001
100
AcDbArc
 50
270.0
 51
0.0
  0
LINE
  5
D9
330
1F
100
AcDbEntity
  8
0-1
  6
Continuous
 62
    92
370
    13
100
AcDbLine
 10
125.4592299351012
 20
-795.5889107358529
 30
0.0
 11
125.4592299351012
 21
-793.3389107358532
 31
0.0
  0
LINE
  5
DA
330
1F
100
AcDbEntity
  8
0-1
  6
Continuous
 62
    92
370
    13
100
AcDbLine
 10
155.4592299351012
 20
-788.0889107358529
 30
0.0
 11
125.4592299351012
 21
-788.0889107358529
 31
0.0
  0
ARC
  5
DB
330
1F
100
AcDbEntity
  8
0-1
  6
Continuous
 62
    92
370
    13
100
AcDbCircle
 10
155.4592299351012
 20
-792.5889107358531
 30
0.0
 40
4.500000000000001
100
AcDbArc
 50
0.0
 51
90.0
  0
LINE
  5
DC
330
1F
100
AcDbEntity
  8
0-1
  6
Continuous
 62
    92
370
    13
100
AcDbLine
 10
125.4592299351012
 20
-795.5889107358529
 30
0.0
 11
125.4592299351012
 21
-793.3389107358532
 31
0.0
  0
ARC
  5
DD
330
1F
100
AcDbEntity
  8
0-1
  6
Continuous
 62
    92
370
    13
100
AcDbCircle
 10
150.9592299351019
 20
-804.5889107358532
 30
0.0
 40
4.500000000000001
100
AcDbArc
 50
0.0
 51
90.0
  0
LINE
  5
DE
330
1F
100
AcDbEntity
  8
0-1
  6
Continuous
 62
    92
370
    13
100
AcDbLine
 10
150.9592299351019
 20
-800.0889107358531
 30
0.0
 11
129.9592299351005
 21
-800.0889107358531
 31
0.0
  0
ARC
  5
DF
330
1F
100
AcDbEntity
  8
0-1
  6
Continuous
 62
    92
370
    13
100
AcDbCircle
 10
129.9592299351005
 20
-795.5889107358529
 30
0.0
 40
4.500000000000001
100
AcDbArc
 50
180.0
 51
270.0
  0
LINE
  5
E0
330
1F
100
AcDbEntity
  8
0-1
  6
Continuous
 62
    92
370
    13
100
AcDbLine
 10
130.4085890381842
 20
-788.0889107358529
 30
0.0
 11
130.4085890381842
 21
-795.5889107358529
 31
0.0
  0
LINE
  5
E1
330
1F
100
AcDbEntity
  8
0-1
  6
Continuous
 62
    92
370
    13
100
AcDbLine
 10
150.9592299351019
 20
-1211.088910735853
 30
0.0
 11
129.9592299351005
 21
-1211.088910735853
 31
0.0
  0
LINE
  5
E2
330
1F
100
AcDbEntity
  8
0-1
  6
Continuous
 62
    92
370
    13
100
AcDbLine
 10
125.4592299351012
 20
-1215.588910735853
 30
0.0
 11
125.4592299351012
 21
-1217.838910735853
 31
0.0
  0
LINE
  5
E3
330
1F
100
AcDbEntity
  8
0-1
  6
Continuous
 62
    92
370
    13
100
AcDbLine
 10
125.4592299351012
 20
-1215.588910735853
 30
0.0
 11
125.4592299351012
 21
-1217.838910735853
 31
0.0
  0
ARC
  5
E4
330
1F
100
AcDbEntity
  8
0-1
  6
Continuous
 62
    92
370
    13
100
AcDbCircle
 10
150.9592299351019
 20
-1206.588910735853
 30
0.0
 40
4.500000000000001
100
AcDbArc
 50
270.0
 51
0.0
  0
ARC
  5
E5
330
1F
100
AcDbEntity
  8
0-1
  6
Continuous
 62
    92
370
    13
100
AcDbCircle
 10
129.9592299351005
 20
-1215.588910735853
 30
0.0
 40
4.500000000000001
100
AcDbArc
 50
90.0
 51
180.0
  0
LINE
  5
E6
330
1F
100
AcDbEntity
  8
0-1
  6
Continuous
 62
    92
370
    13
100
AcDbLine
 10
130.4085890381842
 20
-1223.088910735853
 30
0.0
 11
130.4085890381842
 21
-1215.588910735853
 31
0.0
  0
LINE
  5
E7
330
1F
100
AcDbEntity
  8
0-1
  6
Continuous
 62
    92
370
    13
100
AcDbLine
 10
155.4592299351012
 20
-804.5889107358532
 30
0.0
 11
155.4592299351012
 21
-1206.588910735853
 31
0.0
  0
LINE
  5
E8
330
1F
100
AcDbEntity
  8
0-1
  6
Continuous
 62
    92
370
    13
100
AcDbLine
 10
131.4592299351025
 20
-788.0889107358529
 30
0.0
 11
131.4592299351025
 21
-728.0889107358529
 31
0.0
  0
LINE
  5
E9
330
1F
100
AcDbEntity
  8
0-1
  6
Continuous
 62
    92
370
    13
100
AcDbLine
 10
131.4592299351025
 20
-1860.588910735853
 30
0.0
 11
131.4592299351025
 21
-1223.088910735853
 31
0.0
  0
LINE
  5
EA
330
1F
100
AcDbEntity
  8
0-1
  6
Continuous
 62
    92
370
    13
100
AcDbLine
 10
125.4592299351046
 20
606.9110595713765
 30
0.0
 11
125.4592299351046
 21
604.6610595713765
 31
0.0
  0
LINE
  5
EB
330
1F
100
AcDbEntity
  8
0-1
  6
Continuous
 62
    92
370
    13
100
AcDbLine
 10
155.4592299351046
 20
599.4110595713762
 30
0.0
 11
125.4592299351046
 21
599.4110595713762
 31
0.0
  0
LINE
  5
EC
330
1F
100
AcDbEntity
  8
0-1
  6
Continuous
 62
    92
370
    13
100
AcDbLine
 10
159.9592299351039
 20
603.9110595713763
 30
0.0
 11
159.9592299351039
 21
1029.911059571376
 31
0.0
  0
ARC
  5
ED
330
1F
100
AcDbEntity
  8
0-1
  6
Continuous
 62
    92
370
    13
100
AcDbCircle
 10
155.4592299351046
 20
603.9110595713763
 30
0.0
 40
4.500000000000001
100
AcDbArc
 50
270.0
 51
0.0
  0
LINE
  5
EE
330
1F
100
AcDbEntity
  8
0-1
  6
Continuous
 62
    92
370
    13
100
AcDbLine
 10
125.4592299351046
 20
1026.911059571376
 30
0.0
 11
125.4592299351046
 21
1029.161059571376
 31
0.0
  0
LINE
  5
EF
330
1F
100
AcDbEntity
  8
0-1
  6
Continuous
 62
    92
370
    13
100
AcDbLine
 10
155.4592299351046
 20
1034.411059571376
 30
0.0
 11
125.4592299351046
 21
1034.411059571376
 31
0.0
  0
ARC
  5
F0
330
1F
100
AcDbEntity
  8
0-1
  6
Continuous
 62
    92
370
    13
100
AcDbCircle
 10
155.4592299351046
 20
1029.911059571376
 30
0.0
 40
4.500000000000001
100
AcDbArc
 50
0.0
 51
90.0
  0
LINE
  5
F1
330
1F
100
AcDbEntity
  8
0-1
  6
Continuous
 62
    92
370
    13
100
AcDbLine
 10
125.4592299351046
 20
1026.911059571376
 30
0.0
 11
125.4592299351046
 21
1029.161059571376
 31
0.0
  0
ARC
  5
F2
330
1F
100
AcDbEntity
  8
0-1
  6
Continuous
 62
    92
370
    13
100
AcDbCircle
 10
150.9592299351053
 20
1017.911059571376
 30
0.0
 40
4.500000000000001
100
AcDbArc
 50
0.0
 51
90.0
  0
LINE
  5
F3
330
1F
100
AcDbEntity
  8
0-1
  6
Continuous
 62
    92
370
    13
100
AcDbLine
 10
150.9592299351053
 20
1022.411059571376
 30
0.0
 11
129.9592299351039
 21
1022.411059571376
 31
0.0
  0
ARC
  5
F4
330
1F
100
AcDbEntity
  8
0-1
  6
Continuous
 62
    92
370
    13
100
AcDbCircle
 10
129.9592299351039
 20
1026.911059571376
 30
0.0
 40
4.500000000000001
100
AcDbArc
 50
180.0
 51
270.0
  0
LINE
  5
F5
330
1F
100
AcDbEntity
  8
0-1
  6
Continuous
 62
    92
370
    13
100
AcDbLine
 10
130.4085890381876
 20
1034.411059571376
 30
0.0
 11
130.4085890381876
 21
1026.911059571376
 31
0.0
  0
LINE
  5
F6
330
1F
100
AcDbEntity
  8
0-1
  6
Continuous
 62
    92
370
    13
100
AcDbLine
 10
150.9592299351053
 20
611.4110595713763
 30
0.0
 11
129.9592299351039
 21
611.4110595713763
 31
0.0
  0
LINE
  5
F7
330
1F
100
AcDbEntity
  8
0-1
  6
Continuous
 62
    92
370
    13
100
AcDbLine
 10
125.4592299351046
 20
606.9110595713762
 30
0.0
 11
125.4592299351046
 21
604.6610595713765
 31
0.0
  0
LINE
  5
F8
330
1F
100
AcDbEntity
  8
0-1
  6
Continuous
 62
    92
370
    13
100
AcDbLine
 10
125.4592299351046
 20
606.9110595713762
 30
0.0
 11
125.4592299351046
 21
604.6610595713765
 31
0.0
  0
ARC
  5
F9
330
1F
100
AcDbEntity
  8
0-1
  6
Continuous
 62
    92
370
    13
100
AcDbCircle
 10
150.9592299351053
 20
615.9110595713765
 30
0.0
 40
4.500000000000001
100
AcDbArc
 50
270.0
 51
0.0
  0
ARC
  5
FA
330
1F
100
AcDbEntity
  8
0-1
  6
Continuous
 62
    92
370
    13
100
AcDbCircle
 10
129.9592299351039
 20
606.9110595713762
 30
0.0
 40
4.500000000000001
100
AcDbArc
 50
90.0
 51
180.0
  0
LINE
  5
FB
330
1F
100
AcDbEntity
  8
0-1
  6
Continuous
 62
    92
370
    13
100
AcDbLine
 10
130.4085890381876
 20
599.4110595713762
 30
0.0
 11
130.4085890381876
 21
606.9110595713762
 31
0.0
  0
LINE
  5
FC
330
1F
100
AcDbEntity
  8
0-1
  6
Continuous
 62
    92
370
    13
100
AcDbLine
 10
155.4592299351046
 20
1017.911059571376
 30
0.0
 11
155.4592299351046
 21
615.9110595713765
 31
0.0
  0
LINE
  5
FD
330
1F
100
AcDbEntity
  8
0-1
  6
Continuous
 62
    92
370
    13
100
AcDbLine
 10
131.459229935106
 20
1034.411059571376
 30
0.0
 11
131.459229935106
 21
1383.911059571376
 31
0.0
  0
LINE
  5
FE
330
1F
100
AcDbEntity
  8
0-1
  6
Continuous
 62
    92
370
    13
100
AcDbLine
 10
131.459229935106
 20
539.4110595713762
 30
0.0
 11
131.459229935106
 21
599.4110595713762
 31
0.0
  0
LINE
  5
FF
330
1F
100
AcDbEntity
  8
0-1
  6
Continuous
 62
    92
370
    13
100
AcDbLine
 10
708.9592299351025
 20
1383.911059571376
 30
0.0
 11
708.9592299351025
 21
539.4110595713762
 31
0.0
  0
LINE
  5
100
330
1F
100
AcDbEntity
  8
0-1
  6
Continuous
 62
    92
370
    13
100
AcDbLine
 10
708.9592299351025
 20
-728.0889107358529
 30
0.0
 11
708.9592299351025
 21
-1860.58894042862
 31
0.0
  0
LINE
  5
101
330
1F
100
AcDbEntity
  8
0-1
  6
Continuous
 62
    92
370
    13
100
AcDbLine
 10
1016.459229935106
 20
-1860.58894042862
 30
0.0
 11
1016.459229935106
 21
1383.91105957138
 31
0.0
  0
LINE
  5
102
330
1F
100
AcDbEntity
  8
0-1
  6
Continuous
 62
    92
370
    13
100
AcDbLine
 10
2348.459229935107
 20
-1860.58894042862
 30
0.0
 11
2348.459229935107
 21
1383.91105957138
 31
0.0
  0
LINE
  5
103
330
1F
100
AcDbEntity
  8
0-1
  6
Continuous
 62
    92
370
    13
100
AcDbLine
 10
1607.459229935107
 20
-1860.58894042862
 30
0.0
 11
1607.459229935107
 21
1383.91105957138
 31
0.0
  0
LINE
  5
104
330
1F
100
AcDbEntity
  8
0-1
  6
Continuous
 62
    92
370
    13
100
AcDbLine
 10
1016.459229935106
 20
-1860.58894042862
 30
0.0
 11
1607.459229935107
 21
-1860.58894042862
 31
0.0
  0
LINE
  5
105
330
1F
100
AcDbEntity
  8
0-1
  6
Continuous
 62
    92
370
    13
100
AcDbLine
 10
1757.459229935107
 20
-1860.58894042862
 30
0.0
 11
1757.459229935107
 21
1383.91105957138
 31
0.0
  0
LINE
  5
106
330
1F
100
AcDbEntity
  8
0-1
  6
Continuous
 62
    92
370
    13
100
AcDbLine
 10
1607.459229935107
 20
-668.0889404286213
 30
0.0
 11
1607.459229935107
 21
-670.3389404286214
 31
0.0
  0
LINE
  5
107
330
1F
100
AcDbEntity
  8
0-1
  6
Continuous
 62
    92
370
    13
100
AcDbLine
 10
1577.459229935107
 20
-675.5889404286213
 30
0.0
 11
1607.459229935107
 21
-675.5889404286213
 31
0.0
  0
ARC
  5
108
330
1F
100
AcDbEntity
  8
0-1
  6
Continuous
 62
    92
370
    13
100
AcDbCircle
 10
1577.459229935107
 20
-671.0889404286211
 30
0.0
 40
4.500000000000001
100
AcDbArc
 50
180.0
 51
270.0
  0
LINE
  5
109
330
1F
100
AcDbEntity
  8
0-1
  6
Continuous
 62
    92
370
    13
100
AcDbLine
 10
1607.459229935107
 20
-248.0889404286211
 30
0.0
 11
1607.459229935107
 21
-245.8389404286216
 31
0.0
  0
LINE
  5
10A
330
1F
100
AcDbEntity
  8
0-1
  6
Continuous
 62
    92
370
    13
100
AcDbLine
 10
1577.459229935107
 20
-240.5889404286211
 30
0.0
 11
1607.459229935107
 21
-240.5889404286211
 31
0.0
  0
ARC
  5
10B
330
1F
100
AcDbEntity
  8
0-1
  6
Continuous
 62
    92
370
    13
100
AcDbCircle
 10
1577.459229935107
 20
-245.0889404286215
 30
0.0
 40
4.500000000000001
100
AcDbArc
 50
90.0
 51
180.0
  0
LINE
  5
10C
330
1F
100
AcDbEntity
  8
0-1
  6
Continuous
 62
    92
370
    13
100
AcDbLine
 10
1607.459229935107
 20
-248.0889404286211
 30
0.0
 11
1607.459229935107
 21
-245.8389404286216
 31
0.0
  0
ARC
  5
10D
330
1F
100
AcDbEntity
  8
0-1
  6
Continuous
 62
    92
370
    13
100
AcDbCircle
 10
1581.959229935107
 20
-257.0889404286216
 30
0.0
 40
4.500000000000001
100
AcDbArc
 50
90.0
 51
180.0
  0
LINE
  5
10E
330
1F
100
AcDbEntity
  8
0-1
  6
Continuous
 62
    92
370
    13
100
AcDbLine
 10
1581.959229935107
 20
-252.5889404286215
 30
0.0
 11
1602.959229935107
 21
-252.5889404286215
 31
0.0
  0
ARC
  5
10F
330
1F
100
AcDbEntity
  8
0-1
  6
Continuous
 62
    92
370
    13
100
AcDbCircle
 10
1602.959229935107
 20
-248.0889404286211
 30
0.0
 40
4.500000000000001
100
AcDbArc
 50
270.0
 51
0.0
  0
LINE
  5
110
330
1F
100
AcDbEntity
  8
0-1
  6
Continuous
 62
    92
370
    13
100
AcDbLine
 10
1602.509870832023
 20
-240.5889404286211
 30
0.0
 11
1602.509870832023
 21
-248.0889404286211
 31
0.0
  0
LINE
  5
111
330
1F
100
AcDbEntity
  8
0-1
  6
Continuous
 62
    92
370
    13
100
AcDbLine
 10
1581.959229935107
 20
-663.5889404286211
 30
0.0
 11
1602.959229935107
 21
-663.5889404286211
 31
0.0
  0
LINE
  5
112
330
1F
100
AcDbEntity
  8
0-1
  6
Continuous
 62
    92
370
    13
100
AcDbLine
 10
1607.459229935107
 20
-668.0889404286213
 30
0.0
 11
1607.459229935107
 21
-670.3389404286214
 31
0.0
  0
LINE
  5
113
330
1F
100
AcDbEntity
  8
0-1
  6
Continuous
 62
    92
370
    13
100
AcDbLine
 10
1607.459229935107
 20
-668.0889404286213
 30
0.0
 11
1607.459229935107
 21
-670.3389404286214
 31
0.0
  0
ARC
  5
114
330
1F
100
AcDbEntity
  8
0-1
  6
Continuous
 62
    92
370
    13
100
AcDbCircle
 10
1581.959229935107
 20
-659.0889404286214
 30
0.0
 40
4.500000000000001
100
AcDbArc
 50
180.0
 51
270.0
  0
ARC
  5
115
330
1F
100
AcDbEntity
  8
0-1
  6
Continuous
 62
    92
370
    13
100
AcDbCircle
 10
1602.959229935107
 20
-668.0889404286213
 30
0.0
 40
4.500000000000001
100
AcDbArc
 50
0.0
 51
90.0
  0
LINE
  5
116
330
1F
100
AcDbEntity
  8
0-1
  6
Continuous
 62
    92
370
    13
100
AcDbLine
 10
1602.509870832023
 20
-675.5889404286213
 30
0.0
 11
1602.509870832023
 21
-668.0889404286213
 31
0.0
  0
LINE
  5
117
330
1F
100
AcDbEntity
  8
0-1
  6
Continuous
 62
    92
370
    13
100
AcDbLine
 10
1577.459229935107
 20
-257.0889404286216
 30
0.0
 11
1577.459229935107
 21
-659.0889404286214
 31
0.0
  0
LINE
  5
118
330
1F
100
AcDbEntity
  8
0-1
  6
Continuous
 62
    92
370
    13
100
AcDbLine
 10
1572.959229935107
 20
-245.0889404286215
 30
0.0
 11
1572.959229935107
 21
-671.0889404286211
 31
0.0
  0
LINE
  5
119
330
1F
100
AcDbEntity
  8
0-1
  6
Continuous
 62
    92
370
    13
100
AcDbLine
 10
1757.459229935107
 20
-668.0889404286213
 30
0.0
 11
1757.459229935107
 21
-670.3389404286214
 31
0.0
  0
LINE
  5
11A
330
1F
100
AcDbEntity
  8
0-1
  6
Continuous
 62
    92
370
    13
100
AcDbLine
 10
1787.459229935107
 20
-675.5889404286213
 30
0.0
 11
1757.459229935107
 21
-675.5889404286213
 31
0.0
  0
LINE
  5
11B
330
1F
100
AcDbEntity
  8
0-1
  6
Continuous
 62
    92
370
    13
100
AcDbLine
 10
1791.959229935107
 20
-671.0889404286211
 30
0.0
 11
1791.959229935107
 21
-245.0889404286215
 31
0.0
  0
ARC
  5
11C
330
1F
100
AcDbEntity
  8
0-1
  6
Continuous
 62
    92
370
    13
100
AcDbCircle
 10
1787.459229935107
 20
-671.0889404286211
 30
0.0
 40
4.500000000000001
100
AcDbArc
 50
270.0
 51
0.0
  0
LINE
  5
11D
330
1F
100
AcDbEntity
  8
0-1
  6
Continuous
 62
    92
370
    13
100
AcDbLine
 10
1757.459229935107
 20
-248.0889404286211
 30
0.0
 11
1757.459229935107
 21
-245.8389404286216
 31
0.0
  0
LINE
  5
11E
330
1F
100
AcDbEntity
  8
0-1
  6
Continuous
 62
    92
370
    13
100
AcDbLine
 10
1787.459229935107
 20
-240.5889404286211
 30
0.0
 11
1757.459229935107
 21
-240.5889404286211
 31
0.0
  0
ARC
  5
11F
330
1F
100
AcDbEntity
  8
0-1
  6
Continuous
 62
    92
370
    13
100
AcDbCircle
 10
1787.459229935107
 20
-245.0889404286215
 30
0.0
 40
4.500000000000001
100
AcDbArc
 50
0.0
 51
90.0
  0
LINE
  5
120
330
1F
100
AcDbEntity
  8
0-1
  6
Continuous
 62
    92
370
    13
100
AcDbLine
 10
1757.459229935107
 20
-248.0889404286211
 30
0.0
 11
1757.459229935107
 21
-245.8389404286216
 31
0.0
  0
ARC
  5
121
330
1F
100
AcDbEntity
  8
0-1
  6
Continuous
 62
    92
370
    13
100
AcDbCircle
 10
1782.959229935107
 20
-257.0889404286216
 30
0.0
 40
4.500000000000001
100
AcDbArc
 50
0.0
 51
90.0
  0
LINE
  5
122
330
1F
100
AcDbEntity
  8
0-1
  6
Continuous
 62
    92
370
    13
100
AcDbLine
 10
1782.959229935107
 20
-252.5889404286215
 30
0.0
 11
1761.959229935107
 21
-252.5889404286215
 31
0.0
  0
ARC
  5
123
330
1F
100
AcDbEntity
  8
0-1
  6
Continuous
 62
    92
370
    13
100
AcDbCircle
 10
1761.959229935107
 20
-248.0889404286211
 30
0.0
 40
4.500000000000001
100
AcDbArc
 50
180.0
 51
270.0
  0
LINE
  5
124
330
1F
100
AcDbEntity
  8
0-1
  6
Continuous
 62
    92
370
    13
100
AcDbLine
 10
1762.40858903819
 20
-240.5889404286211
 30
0.0
 11
1762.40858903819
 21
-248.0889404286211
 31
0.0
  0
LINE
  5
125
330
1F
100
AcDbEntity
  8
0-1
  6
Continuous
 62
    92
370
    13
100
AcDbLine
 10
1782.959229935107
 20
-663.5889404286211
 30
0.0
 11
1761.959229935107
 21
-663.5889404286211
 31
0.0
  0
LINE
  5
126
330
1F
100
AcDbEntity
  8
0-1
  6
Continuous
 62
    92
370
    13
100
AcDbLine
 10
1757.459229935107
 20
-668.0889404286213
 30
0.0
 11
1757.459229935107
 21
-670.3389404286214
 31
0.0
  0
LINE
  5
127
330
1F
100
AcDbEntity
  8
0-1
  6
Continuous
 62
    92
370
    13
100
AcDbLine
 10
1757.459229935107
 20
-668.0889404286213
 30
0.0
 11
1757.459229935107
 21
-670.3389404286214
 31
0.0
  0
ARC
  5
128
330
1F
100
AcDbEntity
  8
0-1
  6
Continuous
 62
    92
370
    13
100
AcDbCircle
 10
1782.959229935107
 20
-659.0889404286214
 30
0.0
 40
4.500000000000001
100
AcDbArc
 50
270.0
 51
0.0
  0
ARC
  5
129
330
1F
100
AcDbEntity
  8
0-1
  6
Continuous
 62
    92
370
    13
100
AcDbCircle
 10
1761.959229935107
 20
-668.0889404286213
 30
0.0
 40
4.500000000000001
100
AcDbArc
 50
90.0
 51
180.0
  0
LINE
  5
12A
330
1F
100
AcDbEntity
  8
0-1
  6
Continuous
 62
    92
370
    13
100
AcDbLine
 10
1762.40858903819
 20
-675.5889404286213
 30
0.0
 11
1762.40858903819
 21
-668.0889404286213
 31
0.0
  0
LINE
  5
12B
330
1F
100
AcDbEntity
  8
0-1
  6
Continuous
 62
    92
370
    13
100
AcDbLine
 10
1787.459229935107
 20
-257.0889404286216
 30
0.0
 11
1787.459229935107
 21
-659.0889404286214
 31
0.0
  0
LINE
  5
12C
330
1F
100
AcDbEntity
  8
0-1
  6
Continuous
 62
    92
370
    13
100
AcDbLine
 10
1601.459229935107
 20
-240.5889404286211
 30
0.0
 11
1601.459229935107
 21
1383.91105957138
 31
0.0
  0
LINE
  5
12D
330
1F
100
AcDbEntity
  8
0-1
  6
Continuous
 62
    92
370
    13
100
AcDbLine
 10
1763.459229935106
 20
-240.5889404286211
 30
0.0
 11
1763.459229935106
 21
1383.91105957138
 31
0.0
  0
LINE
  5
12E
330
1F
100
AcDbEntity
  8
0-1
  6
Continuous
 62
    92
370
    13
100
AcDbLine
 10
1601.459229935107
 20
-1860.58894042862
 30
0.0
 11
1601.459229935107
 21
-675.5889404286213
 31
0.0
  0
LINE
  5
12F
330
1F
100
AcDbEntity
  8
0-1
  6
Continuous
 62
    92
370
    13
100
AcDbLine
 10
1763.459229935106
 20
-1860.58894042862
 30
0.0
 11
1763.459229935106
 21
-675.5889404286213
 31
0.0
  0
LINE
  5
130
330
1F
100
AcDbEntity
  8
0-1
  6
Continuous
 62
    92
370
    13
100
AcDbLine
 10
1023.959229935107
 20
1383.91105957138
 30
0.0
 11
1023.959229935107
 21
-1860.588940428621
 31
0.0
  0
LINE
  5
131
330
1F
100
AcDbEntity
  8
0-1
  6
Continuous
 62
    92
370
    13
100
AcDbLine
 10
2340.959229935107
 20
1383.91105957138
 30
0.0
 11
2340.959229935107
 21
-1860.588940428621
 31
0.0
  0
LINE
  5
132
330
1F
100
AcDbEntity
  8
0-1
  6
Continuous
 62
    92
370
    13
100
AcDbLine
 10
1533.209229935106
 20
-1860.58894042862
 30
0.0
 11
1533.209229935106
 21
1383.91105957138
 31
0.0
  0
LINE
  5
133
330
1F
100
AcDbEntity
  8
0-1
  6
Continuous
 62
    92
370
    13
100
AcDbLine
 10
1831.709229935106
 20
-1860.58894042862
 30
0.0
 11
1831.709229935106
 21
1383.91105957138
 31
0.0
  0
LINE
  5
134
330
1F
100
AcDbEntity
  8
0-1
  6
Continuous
 62
    92
370
    13
100
AcDbLine
 10
2274.209229935106
 20
-1860.58894042862
 30
0.0
 11
2274.209229935106
 21
1383.91105957138
 31
0.0
  0
LINE
  5
135
330
1F
100
AcDbEntity
  8
0-1
  6
Continuous
 62
    92
370
    13
100
AcDbLine
 10
2348.459229935107
 20
-1860.58894042862
 30
0.0
 11
1757.459229935107
 21
-1860.58894042862
 31
0.0
  0
LINE
  5
136
330
1F
100
AcDbEntity
  8
0-1
  6
Continuous
 62
    92
370
    13
100
AcDbLine
 10
1090.709229935106
 20
-1860.58894042862
 30
0.0
 11
1090.709229935106
 21
1383.91105957138
 31
0.0
  0
LINE
  5
137
330
1F
100
AcDbEntity
  8
0-1
  6
Continuous
 62
    92
370
    13
100
AcDbLine
 10
1016.459229935106
 20
1383.91105957138
 30
0.0
 11
1607.459229935107
 21
1383.91105957138
 31
0.0
  0
LINE
  5
138
330
1F
100
AcDbEntity
  8
0-1
  6
Continuous
 62
    92
370
    13
100
AcDbLine
 10
2348.459229935107
 20
1383.91105957138
 30
0.0
 11
1757.459229935107
 21
1383.91105957138
 31
0.0
  0
LINE
  5
139
330
1F
100
AcDbEntity
  8
0-1
  6
Continuous
 62
    92
370
    13
100
AcDbLine
 10
-1884.540770064899
 20
-668.08894042862
 30
0.0
 11
-1884.540770064899
 21
-670.3389404286203
 31
0.0
  0
LINE
  5
13A
330
1F
100
AcDbEntity
  8
0-1
  6
Continuous
 62
    92
370
    13
100
AcDbLine
 10
-1914.540770064899
 20
-675.58894042862
 30
0.0
 11
-1884.540770064899
 21
-675.58894042862
 31
0.0
  0
ARC
  5
13B
330
1F
100
AcDbEntity
  8
0-1
  6
Continuous
 62
    92
370
    13
100
AcDbCircle
 10
-1914.540770064899
 20
-671.0889404286196
 30
0.0
 40
4.500000000000001
100
AcDbArc
 50
180.0
 51
270.0
  0
LINE
  5
13C
330
1F
100
AcDbEntity
  8
0-1
  6
Continuous
 62
    92
370
    13
100
AcDbLine
 10
-1884.540770064899
 20
-248.08894042862
 30
0.0
 11
-1884.540770064899
 21
-245.8389404286203
 31
0.0
  0
LINE
  5
13D
330
1F
100
AcDbEntity
  8
0-1
  6
Continuous
 62
    92
370
    13
100
AcDbLine
 10
-1914.540770064899
 20
-240.58894042862
 30
0.0
 11
-1884.540770064899
 21
-240.58894042862
 31
0.0
  0
ARC
  5
13E
330
1F
100
AcDbEntity
  8
0-1
  6
Continuous
 62
    92
370
    13
100
AcDbCircle
 10
-1914.540770064899
 20
-245.08894042862
 30
0.0
 40
4.500000000000001
100
AcDbArc
 50
90.0
 51
180.0
  0
LINE
  5
13F
330
1F
100
AcDbEntity
  8
0-1
  6
Continuous
 62
    92
370
    13
100
AcDbLine
 10
-1884.540770064899
 20
-248.08894042862
 30
0.0
 11
-1884.540770064899
 21
-245.8389404286203
 31
0.0
  0
ARC
  5
140
330
1F
100
AcDbEntity
  8
0-1
  6
Continuous
 62
    92
370
    13
100
AcDbCircle
 10
-1910.040770064898
 20
-257.0889404286203
 30
0.0
 40
4.500000000000001
100
AcDbArc
 50
90.0
 51
180.0
  0
LINE
  5
141
330
1F
100
AcDbEntity
  8
0-1
  6
Continuous
 62
    92
370
    13
100
AcDbLine
 10
-1910.040770064898
 20
-252.58894042862
 30
0.0
 11
-1889.040770064899
 21
-252.58894042862
 31
0.0
  0
ARC
  5
142
330
1F
100
AcDbEntity
  8
0-1
  6
Continuous
 62
    92
370
    13
100
AcDbCircle
 10
-1889.040770064899
 20
-248.08894042862
 30
0.0
 40
4.500000000000001
100
AcDbArc
 50
270.0
 51
0.0
  0
LINE
  5
143
330
1F
100
AcDbEntity
  8
0-1
  6
Continuous
 62
    92
370
    13
100
AcDbLine
 10
-1889.490129167982
 20
-240.58894042862
 30
0.0
 11
-1889.490129167982
 21
-248.08894042862
 31
0.0
  0
LINE
  5
144
330
1F
100
AcDbEntity
  8
0-1
  6
Continuous
 62
    92
370
    13
100
AcDbLine
 10
-1910.040770064898
 20
-663.5889404286196
 30
0.0
 11
-1889.040770064899
 21
-663.5889404286196
 31
0.0
  0
LINE
  5
145
330
1F
100
AcDbEntity
  8
0-1
  6
Continuous
 62
    92
370
    13
100
AcDbLine
 10
-1884.540770064899
 20
-668.08894042862
 30
0.0
 11
-1884.540770064899
 21
-670.3389404286203
 31
0.0
  0
LINE
  5
146
330
1F
100
AcDbEntity
  8
0-1
  6
Continuous
 62
    92
370
    13
100
AcDbLine
 10
-1884.540770064899
 20
-668.08894042862
 30
0.0
 11
-1884.540770064899
 21
-670.3389404286203
 31
0.0
  0
ARC
  5
147
330
1F
100
AcDbEntity
  8
0-1
  6
Continuous
 62
    92
370
    13
100
AcDbCircle
 10
-1910.040770064898
 20
-659.0889404286203
 30
0.0
 40
4.500000000000001
100
AcDbArc
 50
180.0
 51
270.0
  0
ARC
  5
148
330
1F
100
AcDbEntity
  8
0-1
  6
Continuous
 62
    92
370
    13
100
AcDbCircle
 10
-1889.040770064899
 20
-668.08894042862
 30
0.0
 40
4.500000000000001
100
AcDbArc
 50
0.0
 51
90.0
  0
LINE
  5
149
330
1F
100
AcDbEntity
  8
0-1
  6
Continuous
 62
    92
370
    13
100
AcDbLine
 10
-1889.490129167982
 20
-675.58894042862
 30
0.0
 11
-1889.490129167982
 21
-668.08894042862
 31
0.0
  0
LINE
  5
14A
330
1F
100
AcDbEntity
  8
0-1
  6
Continuous
 62
    92
370
    13
100
AcDbLine
 10
-1914.540770064899
 20
-257.0889404286203
 30
0.0
 11
-1914.540770064899
 21
-659.0889404286203
 31
0.0
  0
LINE
  5
14B
330
1F
100
AcDbEntity
  8
0-1
  6
Continuous
 62
    92
370
    13
100
AcDbLine
 10
-1919.040770064899
 20
-245.08894042862
 30
0.0
 11
-1919.040770064899
 21
-671.0889404286196
 31
0.0
  0
LINE
  5
14C
330
1F
100
AcDbEntity
  8
0-1
  6
Continuous
 62
    92
370
    13
100
AcDbLine
 10
-1890.540770064899
 20
-240.58894042862
 30
0.0
 11
-1890.540770064899
 21
1383.911059571381
 31
0.0
  0
LINE
  5
14D
330
1F
100
AcDbEntity
  8
0-1
  6
Continuous
 62
    92
370
    13
100
AcDbLine
 10
-1890.540770064899
 20
-1860.588940428619
 30
0.0
 11
-1890.540770064899
 21
-675.58894042862
 31
0.0
  0
LINE
  5
14E
330
1F
100
AcDbEntity
  8
0-1
  6
Continuous
 62
    92
370
    13
100
AcDbLine
 10
-24.54077006490087
 20
-1215.588664798338
 30
0.0
 11
-24.54077006490087
 21
-1217.838664798338
 31
0.0
  0
LINE
  5
14F
330
1F
100
AcDbEntity
  8
0-1
  6
Continuous
 62
    92
370
    13
100
AcDbLine
 10
-54.54077006490087
 20
-1223.088664798338
 30
0.0
 11
-24.54077006490087
 21
-1223.088664798338
 31
0.0
  0
ARC
  5
150
330
1F
100
AcDbEntity
  8
0-1
  6
Continuous
 62
    92
370
    13
100
AcDbCircle
 10
-54.54077006490087
 20
-1218.588664798338
 30
0.0
 40
4.500000000000001
100
AcDbArc
 50
180.0
 51
270.0
  0
LINE
  5
151
330
1F
100
AcDbEntity
  8
0-1
  6
Continuous
 62
    92
370
    13
100
AcDbLine
 10
-24.54077006490087
 20
-795.5886647983378
 30
0.0
 11
-24.54077006490087
 21
-793.3386647983382
 31
0.0
  0
LINE
  5
152
330
1F
100
AcDbEntity
  8
0-1
  6
Continuous
 62
    92
370
    13
100
AcDbLine
 10
-54.54077006490087
 20
-788.0886647983378
 30
0.0
 11
-24.54077006490087
 21
-788.0886647983378
 31
0.0
  0
ARC
  5
153
330
1F
100
AcDbEntity
  8
0-1
  6
Continuous
 62
    92
370
    13
100
AcDbCircle
 10
-54.54077006490087
 20
-792.5886647983381
 30
0.0
 40
4.500000000000001
100
AcDbArc
 50
90.0
 51
180.0
  0
LINE
  5
154
330
1F
100
AcDbEntity
  8
0-1
  6
Continuous
 62
    92
370
    13
100
AcDbLine
 10
-24.54077006490087
 20
-795.5886647983378
 30
0.0
 11
-24.54077006490087
 21
-793.3386647983382
 31
0.0
  0
ARC
  5
155
330
1F
100
AcDbEntity
  8
0-1
  6
Continuous
 62
    92
370
    13
100
AcDbCircle
 10
-50.04077006489814
 20
-804.5886647983382
 30
0.0
 40
4.500000000000001
100
AcDbArc
 50
90.0
 51
180.0
  0
LINE
  5
156
330
1F
100
AcDbEntity
  8
0-1
  6
Continuous
 62
    92
370
    13
100
AcDbLine
 10
-50.04077006489814
 20
-800.0886647983381
 30
0.0
 11
-29.04077006490019
 21
-800.0886647983381
 31
0.0
  0
ARC
  5
157
330
1F
100
AcDbEntity
  8
0-1
  6
Continuous
 62
    92
370
    13
100
AcDbCircle
 10
-29.04077006490019
 20
-795.5886647983378
 30
0.0
 40
4.500000000000001
100
AcDbArc
 50
270.0
 51
0.0
  0
LINE
  5
158
330
1F
100
AcDbEntity
  8
0-1
  6
Continuous
 62
    92
370
    13
100
AcDbLine
 10
-29.49012916798387
 20
-788.0886647983378
 30
0.0
 11
-29.49012916798387
 21
-795.5886647983378
 31
0.0
  0
LINE
  5
159
330
1F
100
AcDbEntity
  8
0-1
  6
Continuous
 62
    92
370
    13
100
AcDbLine
 10
-50.04077006489814
 20
-1211.088664798338
 30
0.0
 11
-29.04077006490019
 21
-1211.088664798338
 31
0.0
  0
LINE
  5
15A
330
1F
100
AcDbEntity
  8
0-1
  6
Continuous
 62
    92
370
    13
100
AcDbLine
 10
-24.54077006490087
 20
-1215.588664798338
 30
0.0
 11
-24.54077006490087
 21
-1217.838664798338
 31
0.0
  0
LINE
  5
15B
330
1F
100
AcDbEntity
  8
0-1
  6
Continuous
 62
    92
370
    13
100
AcDbLine
 10
-24.54077006490087
 20
-1215.588664798338
 30
0.0
 11
-24.54077006490087
 21
-1217.838664798338
 31
0.0
  0
ARC
  5
15C
330
1F
100
AcDbEntity
  8
0-1
  6
Continuous
 62
    92
370
    13
100
AcDbCircle
 10
-50.04077006489814
 20
-1206.588664798338
 30
0.0
 40
4.500000000000001
100
AcDbArc
 50
180.0
 51
270.0
  0
ARC
  5
15D
330
1F
100
AcDbEntity
  8
0-1
  6
Continuous
 62
    92
370
    13
100
AcDbCircle
 10
-29.04077006490019
 20
-1215.588664798338
 30
0.0
 40
4.500000000000001
100
AcDbArc
 50
0.0
 51
90.0
  0
LINE
  5
15E
330
1F
100
AcDbEntity
  8
0-1
  6
Continuous
 62
    92
370
    13
100
AcDbLine
 10
-29.49012916798387
 20
-1223.088664798338
 30
0.0
 11
-29.49012916798387
 21
-1215.588664798338
 31
0.0
  0
LINE
  5
15F
330
1F
100
AcDbEntity
  8
0-1
  6
Continuous
 62
    92
370
    13
100
AcDbLine
 10
-54.54077006490087
 20
-804.5886647983382
 30
0.0
 11
-54.54077006490087
 21
-1206.588664798338
 31
0.0
  0
LINE
  5
160
330
1F
100
AcDbEntity
  8
0-1
  6
Continuous
 62
    92
370
    13
100
AcDbLine
 10
-59.04077006490019
 20
-792.5886647983381
 30
0.0
 11
-59.04077006490019
 21
-1218.588664798338
 31
0.0
  0
LINE
  5
161
330
1F
100
AcDbEntity
  8
0-1
  6
Continuous
 62
    92
370
    13
100
AcDbLine
 10
-30.54077006489882
 20
-788.0886647983378
 30
0.0
 11
-30.54077006489882
 21
-728.0886647983378
 31
0.0
  0
LINE
  5
162
330
1F
100
AcDbEntity
  8
0-1
  6
Continuous
 62
    92
370
    13
100
AcDbLine
 10
-30.54077006489882
 20
-1860.588664798338
 30
0.0
 11
-30.54077006489882
 21
-1223.088664798338
 31
0.0
  0
LINE
  5
163
330
1F
100
AcDbEntity
  8
0-1
  6
Continuous
 62
    92
370
    13
100
AcDbLine
 10
-24.54077006489746
 20
606.9110595713796
 30
0.0
 11
-24.54077006489746
 21
604.66105957138
 31
0.0
  0
LINE
  5
164
330
1F
100
AcDbEntity
  8
0-1
  6
Continuous
 62
    92
370
    13
100
AcDbLine
 10
-54.54077006489746
 20
599.4110595713796
 30
0.0
 11
-24.54077006489746
 21
599.4110595713796
 31
0.0
  0
ARC
  5
165
330
1F
100
AcDbEntity
  8
0-1
  6
Continuous
 62
    92
370
    13
100
AcDbCircle
 10
-54.54077006489746
 20
603.9110595713797
 30
0.0
 40
4.500000000000001
100
AcDbArc
 50
180.0
 51
270.0
  0
LINE
  5
166
330
1F
100
AcDbEntity
  8
0-1
  6
Continuous
 62
    92
370
    13
100
AcDbLine
 10
-24.54077006489746
 20
1026.91105957138
 30
0.0
 11
-24.54077006489746
 21
1029.161059571381
 31
0.0
  0
LINE
  5
167
330
1F
100
AcDbEntity
  8
0-1
  6
Continuous
 62
    92
370
    13
100
AcDbLine
 10
-54.54077006489746
 20
1034.41105957138
 30
0.0
 11
-24.54077006489746
 21
1034.41105957138
 31
0.0
  0
ARC
  5
168
330
1F
100
AcDbEntity
  8
0-1
  6
Continuous
 62
    92
370
    13
100
AcDbCircle
 10
-54.54077006489746
 20
1029.91105957138
 30
0.0
 40
4.500000000000001
100
AcDbArc
 50
90.0
 51
180.0
  0
LINE
  5
169
330
1F
100
AcDbEntity
  8
0-1
  6
Continuous
 62
    92
370
    13
100
AcDbLine
 10
-24.54077006489746
 20
1026.91105957138
 30
0.0
 11
-24.54077006489746
 21
1029.161059571381
 31
0.0
  0
ARC
  5
16A
330
1F
100
AcDbEntity
  8
0-1
  6
Continuous
 62
    92
370
    13
100
AcDbCircle
 10
-50.04077006489814
 20
1017.911059571381
 30
0.0
 40
4.500000000000001
100
AcDbArc
 50
90.0
 51
180.0
  0
LINE
  5
16B
330
1F
100
AcDbEntity
  8
0-1
  6
Continuous
 62
    92
370
    13
100
AcDbLine
 10
-50.04077006489814
 20
1022.41105957138
 30
0.0
 11
-29.04077006489678
 21
1022.41105957138
 31
0.0
  0
ARC
  5
16C
330
1F
100
AcDbEntity
  8
0-1
  6
Continuous
 62
    92
370
    13
100
AcDbCircle
 10
-29.04077006489678
 20
1026.91105957138
 30
0.0
 40
4.500000000000001
100
AcDbArc
 50
270.0
 51
0.0
  0
LINE
  5
16D
330
1F
100
AcDbEntity
  8
0-1
  6
Continuous
 62
    92
370
    13
100
AcDbLine
 10
-29.49012916798046
 20
1034.41105957138
 30
0.0
 11
-29.49012916798046
 21
1026.91105957138
 31
0.0
  0
LINE
  5
16E
330
1F
100
AcDbEntity
  8
0-1
  6
Continuous
 62
    92
370
    13
100
AcDbLine
 10
-50.04077006489814
 20
611.4110595713797
 30
0.0
 11
-29.04077006489678
 21
611.4110595713797
 31
0.0
  0
LINE
  5
16F
330
1F
100
AcDbEntity
  8
0-1
  6
Continuous
 62
    92
370
    13
100
AcDbLine
 10
-24.54077006489746
 20
606.9110595713796
 30
0.0
 11
-24.54077006489746
 21
604.66105957138
 31
0.0
  0
LINE
  5
170
330
1F
100
AcDbEntity
  8
0-1
  6
Continuous
 62
    92
370
    13
100
AcDbLine
 10
-24.54077006489746
 20
606.9110595713796
 30
0.0
 11
-24.54077006489746
 21
604.66105957138
 31
0.0
  0
ARC
  5
171
330
1F
100
AcDbEntity
  8
0-1
  6
Continuous
 62
    92
370
    13
100
AcDbCircle
 10
-50.04077006489814
 20
615.91105957138
 30
0.0
 40
4.500000000000001
100
AcDbArc
 50
180.0
 51
270.0
  0
ARC
  5
172
330
1F
100
AcDbEntity
  8
0-1
  6
Continuous
 62
    92
370
    13
100
AcDbCircle
 10
-29.04077006489678
 20
606.9110595713796
 30
0.0
 40
4.500000000000001
100
AcDbArc
 50
0.0
 51
90.0
  0
LINE
  5
173
330
1F
100
AcDbEntity
  8
0-1
  6
Continuous
 62
    92
370
    13
100
AcDbLine
 10
-29.49012916798046
 20
599.4110595713796
 30
0.0
 11
-29.49012916798046
 21
606.9110595713796
 31
0.0
  0
LINE
  5
174
330
1F
100
AcDbEntity
  8
0-1
  6
Continuous
 62
    92
370
    13
100
AcDbLine
 10
-54.54077006489746
 20
1017.911059571381
 30
0.0
 11
-54.54077006489746
 21
615.91105957138
 31
0.0
  0
LINE
  5
175
330
1F
100
AcDbEntity
  8
0-1
  6
Continuous
 62
    92
370
    13
100
AcDbLine
 10
-59.04077006489678
 20
1029.91105957138
 30
0.0
 11
-59.04077006489678
 21
603.9110595713797
 31
0.0
  0
LINE
  5
176
330
1F
100
AcDbEntity
  8
0-1
  6
Continuous
 62
    92
370
    13
100
AcDbLine
 10
-30.54077006489541
 20
1034.41105957138
 30
0.0
 11
-30.54077006489541
 21
1383.91105957138
 31
0.0
  0
LINE
  5
177
330
1F
100
AcDbEntity
  8
0-1
  6
Continuous
 62
    92
370
    13
100
AcDbLine
 10
-30.54077006489541
 20
539.4110595713796
 30
0.0
 11
-30.54077006489541
 21
599.4110595713796
 31
0.0
  0
MTEXT
  5
178
330
1F
100
AcDbEntity
  8
文字
  6
Continuous
 62
     7
370
     9
100
AcDbMText
 10
-2707.34693877551
 20
-2211.169897959183
 30
0.0
 40
57.15000000000003
 41
1500.0
 46
0.0
 71
     7
 72
     1
  1
{\fＭＳ ゴシック|b0|i0|c128|p49;ドレタス　スマートタイプ（掘り込み取手）}
 73
     1
 44
1.0
  0
ENDSEC
  0
SECTION
  2
OBJECTS
  0
DICTIONARY
  5
C
330
0
100
AcDbDictionary
281
     1
  3
ACAD_GROUP
350
D
  3
ACAD_LAYOUT
350
1A
  3
ACAD_MATERIAL
350
3B
  3
ACAD_MLEADERSTYLE
350
17A
  3
ACAD_MLINESTYLE
350
17
  3
ACAD_PLOTSETTINGS
350
19
  3
ACAD_PLOTSTYLENAME
350
E
  3
ACAD_TABLESTYLE
350
179
  3
ACAD_VISUALSTYLE
350
2A
  0
DICTIONARY
  5
D
102
{ACAD_REACTORS
330
C
102
}
330
C
100
AcDbDictionary
281
     1
  0
DICTIONARY
  5
1A
102
{ACAD_REACTORS
330
C
102
}
330
C
100
AcDbDictionary
281
     1
  3
Layout1
350
1E
  3
Layout2
350
26
  3
Model
350
22
  0
DICTIONARY
  5
3B
102
{ACAD_REACTORS
330
C
102
}
330
C
100
AcDbDictionary
281
     1
  3
ByBlock
350
3D
  3
ByLayer
350
3C
  3
Global
350
3E
  0
DICTIONARY
  5
17A
102
{ACAD_REACTORS
330
C
102
}
330
C
100
AcDbDictionary
281
     1
  0
DICTIONARY
  5
17
102
{ACAD_REACTORS
330
C
102
}
330
C
100
AcDbDictionary
281
     1
  3
Standard
350
18
  0
DICTIONARY
  5
19
102
{ACAD_REACTORS
330
C
102
}
330
C
100
AcDbDictionary
281
     1
  0
ACDBDICTIONARYWDFLT
  5
E
102
{ACAD_REACTORS
330
C
102
}
330
C
100
AcDbDictionary
281
     1
  3
Normal
350
F
100
AcDbDictionaryWithDefault
340
F
  0
DICTIONARY
  5
179
102
{ACAD_REACTORS
330
C
102
}
330
C
100
AcDbDictionary
281
     1
  0
DICTIONARY
  5
2A
102
{ACAD_REACTORS
330
C
102
}
330
C
100
AcDbDictionary
281
     1
  3
2dWireframe
350
2F
  3
3D Hidden
350
31
  3
3dWireframe
350
30
  3
Basic
350
32
  3
Brighten
350
36
  3
ColorChange
350
3A
  3
Conceptual
350
34
  3
Dim
350
35
  3
Facepattern
350
39
  3
Flat
350
2B
  3
FlatWithEdges
350
2C
  3
Gouraud
350
2D
  3
GouraudWithEdges
350
2E
  3
Linepattern
350
38
  3
Realistic
350
33
  3
Thicken
350
37
  0
LAYOUT
  5
1E
102
{ACAD_REACTORS
330
1A
102
}
330
1A
100
AcDbPlotSettings
  1

  2
none_device
  4

  6

 40
0.0
 41
0.0
 42
0.0
 43
0.0
 44
0.0
 45
0.0
 46
0.0
 47
0.0
 48
0.0
 49
0.0
140
0.0
141
0.0
142
1.0
143
1.0
 70
   688
 72
     0
 73
     0
 74
     5
  7

 75
    16
 76
     0
 77
     5
 78
   300
147
1.0
148
0.0
149
0.0
100
AcDbLayout
  1
Layout1
 70
     1
 71
     1
 10
0.0
 20
0.0
 11
420.0
 21
297.0
 12
0.0
 22
0.0
 32
0.0
 14
1.000000000000000E+20
 24
1.000000000000000E+20
 34
1.000000000000000E+20
 15
-1.000000000000000E+20
 25
-1.000000000000000E+20
 35
-1.000000000000000E+20
146
0.0
 13
0.0
 23
0.0
 33
0.0
 16
1.0
 26
0.0
 36
0.0
 17
0.0
 27
1.0
 37
0.0
 76
     0
330
1B
  0
LAYOUT
  5
26
102
{ACAD_REACTORS
330
1A
102
}
330
1A
100
AcDbPlotSettings
  1

  2
none_device
  4

  6

 40
0.0
 41
0.0
 42
0.0
 43
0.0
 44
0.0
 45
0.0
 46
0.0
 47
0.0
 48
0.0
 49
0.0
140
0.0
141
0.0
142
1.0
143
1.0
 70
   688
 72
     0
 73
     0
 74
     5
  7

 75
    16
 76
     0
 77
     5
 78
   300
147
1.0
148
0.0
149
0.0
100
AcDbLayout
  1
Layout2
 70
     1
 71
     2
 10
0.0
 20
0.0
 11
0.0
 21
0.0
 12
0.0
 22
0.0
 32
0.0
 14
0.0
 24
0.0
 34
0.0
 15
0.0
 25
0.0
 35
0.0
146
0.0
 13
0.0
 23
0.0
 33
0.0
 16
1.0
 26
0.0
 36
0.0
 17
0.0
 27
1.0
 37
0.0
 76
     0
330
23
  0
LAYOUT
  5
22
102
{ACAD_REACTORS
330
1A
102
}
330
1A
100
AcDbPlotSettings
  1

  2
none_device
  4

  6

 40
0.0
 41
0.0
 42
0.0
 43
0.0
 44
0.0
 45
0.0
 46
0.0
 47
0.0
 48
0.0
 49
0.0
140
0.0
141
0.0
142
1.0
143
1.0
 70
  1712
 72
     0
 73
     0
 74
     0
  7

 75
     0
 76
     0
 77
     5
 78
   300
147
1.0
148
0.0
149
0.0
100
AcDbLayout
  1
Model
 70
     1
 71
     0
 10
-4455.0
 20
-3150.0
 11
4455.0
 21
3150.0
 12
0.0
 22
0.0
 32
0.0
 14
-4455.0
 24
-3150.0
 34
0.0
 15
4455.0
 25
3150.0
 35
0.0
146
0.0
 13
0.0
 23
0.0
 33
0.0
 16
1.0
 26
0.0
 36
0.0
 17
0.0
 27
1.0
 37
0.0
 76
     0
330
1F
331
29
  0
MATERIAL
  5
3D
102
{ACAD_REACTORS
330
3B
102
}
330
3B
100
AcDbMaterial
  1
ByBlock
 72
     1
 94
      127
  0
MATERIAL
  5
3C
102
{ACAD_REACTORS
330
3B
102
}
330
3B
100
AcDbMaterial
  1
ByLayer
 72
     1
 94
      127
  0
MATERIAL
  5
3E
102
{ACAD_REACTORS
330
3B
102
}
330
3B
100
AcDbMaterial
  1
Global
 72
     1
 94
      127
  0
MLINESTYLE
  5
18
102
{ACAD_REACTORS
330
17
102
}
330
17
100
AcDbMlineStyle
  2
Standard
 70
     0
  3

 62
   256
 51
90.0
 52
90.0
 71
     2
 49
0.5
 62
   256
  6
BYLAYER
 49
-0.5
 62
   256
  6
BYLAYER
  0
ACDBPLACEHOLDER
  5
F
102
{ACAD_REACTORS
330
E
102
}
330
E
  0
VISUALSTYLE
  5
2F
102
{ACAD_REACTORS
330
2A
102
}
330
2A
100
AcDbVisualStyle
  2
2dWireframe
 70
     4
177
     2
291
     0
 71
     0
176
     1
 72
     2
176
     1
 73
     0
176
     1
 90
        0
176
     1
 40
-0.6
176
     1
 41
-30.0
176
     1
 62
     5
 63
     7
421
 16777215
176
     1
 74
     1
176
     1
 91
        4
176
     1
 64
     7
176
     1
 65
   257
176
     1
 75
     1
176
     1
175
     1
176
     1
 42
1.0
176
     1
 92
        0
176
     1
 66
   257
176
     1
 43
1.0
176
     1
 76
     1
176
     1
 77
     6
176
     1
 78
     2
176
     1
 67
     7
176
     1
 79
     5
176
     1
170
     0
176
     1
171
     0
176
     1
290
     0
176
     1
 93
        1
176
     1
 44
0.0
176
     1
173
     0
176
     1
  0
VISUALSTYLE
  5
31
102
{ACAD_REACTORS
330
2A
102
}
330
2A
100
AcDbVisualStyle
  2
3D Hidden
 70
     6
177
     2
291
     0
 71
     1
176
     1
 72
     2
176
     1
 73
     2
176
     1
 90
        0
176
     1
 40
-0.6
176
     1
 41
-30.0
176
     1
 62
     5
 63
     7
421
 16777215
176
     1
 74
     2
176
     1
 91
        2
176
     1
 64
     7
176
     1
 65
   257
176
     1
 75
     2
176
     1
175
     1
176
     1
 42
40.0
176
     1
 92
        0
176
     1
 66
   257
176
     1
 43
1.0
176
     1
 76
     1
176
     1
 77
     6
176
     1
 78
     2
176
     1
 67
     7
176
     1
 79
     3
176
     1
170
     0
176
     1
171
     0
176
     1
290
     0
176
     1
 93
        1
176
     1
 44
0.0
176
     1
173
     0
176
     1
  0
VISUALSTYLE
  5
30
102
{ACAD_REACTORS
330
2A
102
}
330
2A
100
AcDbVisualStyle
  2
3dWireframe
 70
     5
177
     2
291
     0
 71
     0
176
     1
 72
     2
176
     1
 73
     0
176
     1
 90
        0
176
     1
 40
-0.6
176
     1
 41
-30.0
176
     1
 62
     5
 63
     7
421
 16777215
176
     1
 74
     1
176
     1
 91
        4
176
     1
 64
     7
176
     1
 65
   257
176
     1
 75
     1
176
     1
175
     1
176
     1
 42
1.0
176
     1
 92
        0
176
     1
 66
   257
176
     1
 43
1.0
176
     1
 76
     1
176
     1
 77
     6
176
     1
 78
     2
176
     1
 67
     7
176
     1
 79
     5
176
     1
170
     0
176
     1
171
     0
176
     1
290
     0
176
     1
 93
        1
176
     1
 44
0.0
176
     1
173
     0
176
     1
  0
VISUALSTYLE
  5
32
102
{ACAD_REACTORS
330
2A
102
}
330
2A
100
AcDbVisualStyle
  2
Basic
 70
     7
177
     2
291
     1
 71
     1
176
     1
 72
     0
176
     1
 73
     1
176
     1
 90
        0
176
     1
 40
-0.6
176
     1
 41
-30.0
176
     1
 62
     5
 63
     7
421
 16777215
176
     1
 74
     0
176
     1
 91
        4
176
     1
 64
     7
176
     1
 65
   257
176
     1
 75
     1
176
     1
175
     1
176
     1
 42
1.0
176
     1
 92
        8
176
     1
 66
     7
176
     1
 43
1.0
176
     1
 76
     1
176
     1
 77
     6
176
     1
 78
     2
176
     1
 67
     7
176
     1
 79
     5
176
     1
170
     0
176
     1
171
     0
176
     1
290
     0
176
     1
 93
        1
176
     1
 44
0.0
176
     1
173
     0
176
     1
  0
VISUALSTYLE
  5
36
102
{ACAD_REACTORS
330
2A
102
}
330
2A
100
AcDbVisualStyle
  2
Brighten
 70
    12
177
     2
291
     1
 71
     2
176
     1
 72
     2
176
     1
 73
     0
176
     1
 90
        0
176
     1
 40
-0.6
176
     1
 41
-30.0
176
     1
 62
     5
 63
     7
421
 16777215
176
     1
 74
     1
176
     1
 91
        4
176
     1
 64
     7
176
     1
 65
   257
176
     1
 75
     1
176
     1
175
     1
176
     1
 42
1.0
176
     1
 92
        8
176
     1
 66
     7
176
     1
 43
1.0
176
     1
 76
     1
176
     1
 77
     6
176
     1
 78
     2
176
     1
 67
     7
176
     1
 79
     5
176
     1
170
     0
176
     1
171
     0
176
     1
290
     0
176
     1
 93
        1
176
     1
 44
50.0
176
     1
173
     0
176
     1
  0
VISUALSTYLE
  5
3A
102
{ACAD_REACTORS
330
2A
102
}
330
2A
100
AcDbVisualStyle
  2
ColorChange
 70
    16
177
     2
291
     1
 71
     2
176
     1
 72
     2
176
     1
 73
     3
176
     1
 90
        0
176
     1
 40
-0.6
176
     1
 41
-30.0
176
     1
 62
     5
 63
     8
421
  8421504
176
     1
 74
     1
176
     1
 91
        4
176
     1
 64
     7
176
     1
 65
   257
176
     1
 75
     1
176
     1
175
     1
176
     1
 42
1.0
176
     1
 92
        8
176
     1
 66
     8
424
  8421504
176
     1
 43
1.0
176
     1
 76
     1
176
     1
 77
     6
176
     1
 78
     2
176
     1
 67
     7
176
     1
 79
     5
176
     1
170
     0
176
     1
171
     0
176
     1
290
     0
176
     1
 93
        1
176
     1
 44
0.0
176
     1
173
     0
176
     1
  0
VISUALSTYLE
  5
34
102
{ACAD_REACTORS
330
2A
102
}
330
2A
100
AcDbVisualStyle
  2
Conceptual
 70
     9
177
     2
291
     0
 71
     3
176
     1
 72
     2
176
     1
 73
     0
176
     1
 90
        0
176
     1
 40
-0.6
176
     1
 41
-30.0
176
     1
 62
     5
 63
     7
421
 16777215
176
     1
 74
     2
176
     1
 91
        2
176
     1
 64
     7
176
     1
 65
   257
176
     1
 75
     1
176
     1
175
     1
176
     1
 42
40.0
176
     1
 92
        8
176
     1
 66
     7
176
     1
 43
1.0
176
     1
 76
     1
176
     1
 77
     6
176
     1
 78
     2
176
     1
 67
     7
176
     1
 79
     3
176
     1
170
     0
176
     1
171
     0
176
     1
290
     0
176
     1
 93
        1
176
     1
 44
0.0
176
     1
173
     0
176
     1
  0
VISUALSTYLE
  5
35
102
{ACAD_REACTORS
330
2A
102
}
330
2A
100
AcDbVisualStyle
  2
Dim
 70
    11
177
     2
291
     1
 71
     2
176
     1
 72
     2
176
     1
 73
     0
176
     1
 90
        0
176
     1
 40
-0.6
176
     1
 41
-30.0
176
     1
 62
     5
 63
     7
421
 16777215
176
     1
 74
     1
176
     1
 91
        4
176
     1
 64
     7
176
     1
 65
   257
176
     1
 75
     1
176
     1
175
     1
176
     1
 42
1.0
176
     1
 92
        8
176
     1
 66
     7
176
     1
 43
1.0
176
     1
 76
     1
176
     1
 77
     6
176
     1
 78
     2
176
     1
 67
     7
176
     1
 79
     5
176
     1
170
     0
176
     1
171
     0
176
     1
290
     0
176
     1
 93
        1
176
     1
 44
-50.0
176
     1
173
     0
176
     1
  0
VISUALSTYLE
  5
39
102
{ACAD_REACTORS
330
2A
102
}
330
2A
100
AcDbVisualStyle
  2
Facepattern
 70
    15
177
     2
291
     1
 71
     2
176
     1
 72
     2
176
     1
 73
     0
176
     1
 90
        0
176
     1
 40
-0.6
176
     1
 41
-30.0
176
     1
 62
     5
 63
     7
421
 16777215
176
     1
 74
     1
176
     1
 91
        4
176
     1
 64
     7
176
     1
 65
   257
176
     1
 75
     1
176
     1
175
     1
176
     1
 42
1.0
176
     1
 92
        8
176
     1
 66
     7
176
     1
 43
1.0
176
     1
 76
     1
176
     1
 77
     6
176
     1
 78
     2
176
     1
 67
     7
176
     1
 79
     5
176
     1
170
     0
176
     1
171
     0
176
     1
290
     0
176
     1
 93
        1
176
     1
 44
0.0
176
     1
173
     0
176
     1
  0
VISUALSTYLE
  5
2B
102
{ACAD_REACTORS
330
2A
102
}
330
2A
100
AcDbVisualStyle
  2
Flat
 70
     0
177
     2
291
     1
 71
     2
176
     1
 72
     1
176
     1
 73
     1
176
     1
 90
        2
176
     1
 40
-0.6
176
     1
 41
30.0
176
     1
 62
     5
 63
     7
421
 16777215
176
     1
 74
     0
176
     1
 91
        4
176
     1
 64
     7
176
     1
 65
   257
176
     1
 75
     1
176
     1
175
     1
176
     1
 42
1.0
176
     1
 92
        8
176
     1
 66
     7
176
     1
 43
1.0
176
     1
 76
     1
176
     1
 77
     6
176
     1
 78
     2
176
     1
 67
     7
176
     1
 79
     5
176
     1
170
     0
176
     1
171
     0
176
     1
290
     0
176
     1
 93
       13
176
     1
 44
0.0
176
     1
173
     0
176
     1
  0
VISUALSTYLE
  5
2C
102
{ACAD_REACTORS
330
2A
102
}
330
2A
100
AcDbVisualStyle
  2
FlatWithEdges
 70
     1
177
     2
291
     1
 71
     2
176
     1
 72
     1
176
     1
 73
     1
176
     1
 90
        2
176
     1
 40
-0.6
176
     1
 41
30.0
176
     1
 62
     5
 63
     7
421
 16777215
176
     1
 74
     1
176
     1
 91
        4
176
     1
 64
     7
176
     1
 65
   257
176
     1
 75
     1
176
     1
175
     1
176
     1
 42
1.0
176
     1
 92
        0
176
     1
 66
   257
176
     1
 43
1.0
176
     1
 76
     1
176
     1
 77
     6
176
     1
 78
     2
176
     1
 67
     7
176
     1
 79
     5
176
     1
170
     0
176
     1
171
     0
176
     1
290
     0
176
     1
 93
       13
176
     1
 44
0.0
176
     1
173
     0
176
     1
  0
VISUALSTYLE
  5
2D
102
{ACAD_REACTORS
330
2A
102
}
330
2A
100
AcDbVisualStyle
  2
Gouraud
 70
     2
177
     2
291
     1
 71
     2
176
     1
 72
     2
176
     1
 73
     1
176
     1
 90
        2
176
     1
 40
-0.6
176
     1
 41
30.0
176
     1
 62
     5
 63
     7
421
 16777215
176
     1
 74
     0
176
     1
 91
        4
176
     1
 64
     7
176
     1
 65
   257
176
     1
 75
     1
176
     1
175
     1
176
     1
 42
1.0
176
     1
 92
        0
176
     1
 66
     7
176
     1
 43
1.0
176
     1
 76
     1
176
     1
 77
     6
176
     1
 78
     2
176
     1
 67
     7
176
     1
 79
     5
176
     1
170
     0
176
     1
171
     0
176
     1
290
     0
176
     1
 93
       13
176
     1
 44
0.0
176
     1
173
     0
176
     1
  0
VISUALSTYLE
  5
2E
102
{ACAD_REACTORS
330
2A
102
}
330
2A
100
AcDbVisualStyle
  2
GouraudWithEdges
 70
     3
177
     2
291
     1
 71
     2
176
     1
 72
     2
176
     1
 73
     1
176
     1
 90
        2
176
     1
 40
-0.6
176
     1
 41
30.0
176
     1
 62
     5
 63
     7
421
 16777215
176
     1
 74
     1
176
     1
 91
        4
176
     1
 64
     7
176
     1
 65
   257
176
     1
 75
     1
176
     1
175
     1
176
     1
 42
1.0
176
     1
 92
        0
176
     1
 66
   257
176
     1
 43
1.0
176
     1
 76
     1
176
     1
 77
     6
176
     1
 78
     2
176
     1
 67
     7
176
     1
 79
     5
176
     1
170
     0
176
     1
171
     0
176
     1
290
     0
176
     1
 93
       13
176
     1
 44
0.0
176
     1
173
     0
176
     1
  0
VISUALSTYLE
  5
38
102
{ACAD_REACTORS
330
2A
102
}
330
2A
100
AcDbVisualStyle
  2
Linepattern
 70
    14
177
     2
291
     1
 71
     2
176
     1
 72
     2
176
     1
 73
     0
176
     1
 90
        0
176
     1
 40
-0.6
176
     1
 41
-30.0
176
     1
 62
     5
 63
     7
421
 16777215
176
     1
 74
     1
176
     1
 91
        4
176
     1
 64
     7
176
     1
 65
   257
176
     1
 75
     7
176
     1
175
     7
176
     1
 42
1.0
176
     1
 92
        8
176
     1
 66
     7
176
     1
 43
1.0
176
     1
 76
     1
176
     1
 77
     6
176
     1
 78
     2
176
     1
 67
     7
176
     1
 79
     5
176
     1
170
     0
176
     1
171
     0
176
     1
290
     0
176
     1
 93
        1
176
     1
 44
0.0
176
     1
173
     0
176
     1
  0
VISUALSTYLE
  5
33
102
{ACAD_REACTORS
330
2A
102
}
330
2A
100
AcDbVisualStyle
  2
Realistic
 70
     8
177
     2
291
     0
 71
     2
176
     1
 72
     2
176
     1
 73
     0
176
     1
 90
        0
176
     1
 40
-0.6
176
     1
 41
-30.0
176
     1
 62
     5
 63
     7
421
 16777215
176
     1
 74
     1
176
     1
 91
        0
176
     1
 64
     7
176
     1
 65
   257
176
     1
 75
     1
176
     1
175
     1
176
     1
 42
1.0
176
     1
 92
        8
176
     1
 66
     8
424
  7895160
176
     1
 43
1.0
176
     1
 76
     1
176
     1
 77
     6
176
     1
 78
     2
176
     1
 67
     7
176
     1
 79
     5
176
     1
170
     0
176
     1
171
     0
176
     1
290
     0
176
     1
 93
       13
176
     1
 44
0.0
176
     1
173
     0
176
     1
  0
VISUALSTYLE
  5
37
102
{ACAD_REACTORS
330
2A
102
}
330
2A
100
AcDbVisualStyle
  2
Thicken
 70
    13
177
     2
291
     1
 71
     2
176
     1
 72
     2
176
     1
 73
     0
176
     1
 90
        0
176
     1
 40
-0.6
176
     1
 41
-30.0
176
     1
 62
     5
 63
     7
421
 16777215
176
     1
 74
     1
176
     1
 91
        4
176
     1
 64
     7
176
     1
 65
   257
176
     1
 75
     1
176
     1
175
     1
176
     1
 42
1.0
176
     1
 92
       12
176
     1
 66
     7
176
     1
 43
1.0
176
     1
 76
     1
176
     1
 77
     6
176
     1
 78
     2
176
     1
 67
     7
176
     1
 79
     5
176
     1
170
     0
176
     1
171
     0
176
     1
290
     0
176
     1
 93
        1
176
     1
 44
0.0
176
     1
173
     0
176
     1
  0
ENDSEC
  0
EOF
