  0
SECTION
  2
HEADER
  9
$ACADVER
  1
AC1024
  9
$ACADMAINTVER
 70
     6
  9
$DWGCODEPAGE
  3
ANSI_932
  9
$INSBASE
 10
0.0
 20
0.0
 30
0.0
  9
$EXTMIN
 10
-8910.0
 20
-6300.0
 30
0.0
  9
$EXTMAX
 10
8910.0
 20
6300.0
 30
0.0
  9
$LIMMIN
 10
-8910.0
 20
-6300.0
  9
$LIMMAX
 10
8910.0
 20
6300.0
  9
$ORTHOMODE
 70
     0
  9
$REGENMODE
 70
     1
  9
$FILLMODE
 70
     1
  9
$QTEXTMODE
 70
     0
  9
$MIRRTEXT
 70
     1
  9
$LTSCALE
 40
30.0
  9
$ATTMODE
 70
     1
  9
$TEXTSIZE
 40
2.5
  9
$TRACEWID
 40
1.0
  9
$TEXTSTYLE
  7
Standard
  9
$CLAYER
  8
0
  9
$CELTYPE
  6
ByLayer
  9
$CECOLOR
 62
   256
  9
$CELTSCALE
 40
1.0
  9
$DISPSILH
 70
     0
  9
$DIMSCALE
 40
1.0
  9
$DIMASZ
 40
2.5
  9
$DIMEXO
 40
0.625
  9
$DIMDLI
 40
3.75
  9
$DIMRND
 40
0.0
  9
$DIMDLE
 40
0.0
  9
$DIMEXE
 40
1.25
  9
$DIMTP
 40
0.0
  9
$DIMTM
 40
0.0
  9
$DIMTXT
 40
2.5
  9
$DIMCEN
 40
2.5
  9
$DIMTSZ
 40
0.0
  9
$DIMTOL
 70
     0
  9
$DIMLIM
 70
     0
  9
$DIMTIH
 70
     0
  9
$DIMTOH
 70
     0
  9
$DIMSE1
 70
     0
  9
$DIMSE2
 70
     0
  9
$DIMTAD
 70
     1
  9
$DIMZIN
 70
     8
  9
$DIMBLK
  1

  9
$DIMASO
 70
     1
  9
$DIMSHO
 70
     1
  9
$DIMPOST
  1

  9
$DIMAPOST
  1

  9
$DIMALT
 70
     0
  9
$DIMALTD
 70
     3
  9
$DIMALTF
 40
0.03937007874016
  9
$DIMLFAC
 40
1.0
  9
$DIMTOFL
 70
     1
  9
$DIMTVP
 40
0.0
  9
$DIMTIX
 70
     0
  9
$DIMSOXD
 70
     0
  9
$DIMSAH
 70
     0
  9
$DIMBLK1
  1

  9
$DIMBLK2
  1

  9
$DIMSTYLE
  2
ISO-25
  9
$DIMCLRD
 70
     0
  9
$DIMCLRE
 70
     0
  9
$DIMCLRT
 70
     0
  9
$DIMTFAC
 40
1.0
  9
$DIMGAP
 40
0.625
  9
$DIMJUST
 70
     0
  9
$DIMSD1
 70
     0
  9
$DIMSD2
 70
     0
  9
$DIMTOLJ
 70
     0
  9
$DIMTZIN
 70
     8
  9
$DIMALTZ
 70
     0
  9
$DIMALTTZ
 70
     0
  9
$DIMUPT
 70
     0
  9
$DIMDEC
 70
     2
  9
$DIMTDEC
 70
     2
  9
$DIMALTU
 70
     2
  9
$DIMALTTD
 70
     3
  9
$DIMTXSTY
  7
Standard
  9
$DIMAUNIT
 70
     0
  9
$DIMADEC
 70
     0
  9
$DIMALTRND
 40
0.0
  9
$DIMAZIN
 70
     0
  9
$DIMDSEP
 70
    44
  9
$DIMATFIT
 70
     3
  9
$DIMFRAC
 70
     0
  9
$DIMLDRBLK
  1

  9
$DIMLUNIT
 70
     2
  9
$DIMLWD
 70
    -2
  9
$DIMLWE
 70
    -2
  9
$DIMTMOVE
 70
     0
  9
$DIMFXL
 40
1.0
  9
$DIMFXLON
 70
     0
  9
$DIMJOGANG
 40
0.7853981633974483
  9
$DIMTFILL
 70
     0
  9
$DIMTFILLCLR
 70
     0
  9
$DIMARCSYM
 70
     0
  9
$DIMLTYPE
  6

  9
$DIMLTEX1
  6

  9
$DIMLTEX2
  6

  9
$DIMTXTDIRECTION
 70
     0
  9
$LUNITS
 70
     2
  9
$LUPREC
 70
     4
  9
$SKETCHINC
 40
1.0
  9
$FILLETRAD
 40
10.0
  9
$AUNITS
 70
     0
  9
$AUPREC
 70
     0
  9
$MENU
  1
.
  9
$ELEVATION
 40
0.0
  9
$PELEVATION
 40
0.0
  9
$THICKNESS
 40
0.0
  9
$LIMCHECK
 70
     0
  9
$CHAMFERA
 40
10.0
  9
$CHAMFERB
 40
10.0
  9
$CHAMFERC
 40
20.0
  9
$CHAMFERD
 40
0.0
  9
$SKPOLY
 70
     0
  9
$TDCREATE
 40
2459681.731061215
  9
$TDUCREATE
 40
2459681.356061215
  9
$TDUPDATE
 40
2459681.731061227
  9
$TDUUPDATE
 40
2459681.356061227
  9
$TDINDWG
 40
0.0000000116
  9
$TDUSRTIMER
 40
0.0000000116
  9
$USRTIMER
 70
     1
  9
$ANGBASE
 50
0.0
  9
$ANGDIR
 70
     0
  9
$PDMODE
 70
     0
  9
$PDSIZE
 40
0.0
  9
$PLINEWID
 40
0.0
  9
$SPLFRAME
 70
     0
  9
$SPLINETYPE
 70
     6
  9
$SPLINESEGS
 70
     8
  9
$HANDSEED
  5
3E1
  9
$SURFTAB1
 70
     6
  9
$SURFTAB2
 70
     6
  9
$SURFTYPE
 70
     6
  9
$SURFU
 70
     6
  9
$SURFV
 70
     6
  9
$UCSBASE
  2

  9
$UCSNAME
  2

  9
$UCSORG
 10
0.0
 20
0.0
 30
0.0
  9
$UCSXDIR
 10
1.0
 20
0.0
 30
0.0
  9
$UCSYDIR
 10
0.0
 20
1.0
 30
0.0
  9
$UCSORTHOREF
  2

  9
$UCSORTHOVIEW
 70
     0
  9
$UCSORGTOP
 10
0.0
 20
0.0
 30
0.0
  9
$UCSORGBOTTOM
 10
0.0
 20
0.0
 30
0.0
  9
$UCSORGLEFT
 10
0.0
 20
0.0
 30
0.0
  9
$UCSORGRIGHT
 10
0.0
 20
0.0
 30
0.0
  9
$UCSORGFRONT
 10
0.0
 20
0.0
 30
0.0
  9
$UCSORGBACK
 10
0.0
 20
0.0
 30
0.0
  9
$PUCSBASE
  2

  9
$PUCSNAME
  2

  9
$PUCSORG
 10
0.0
 20
0.0
 30
0.0
  9
$PUCSXDIR
 10
1.0
 20
0.0
 30
0.0
  9
$PUCSYDIR
 10
0.0
 20
1.0
 30
0.0
  9
$PUCSORTHOREF
  2

  9
$PUCSORTHOVIEW
 70
     0
  9
$PUCSORGTOP
 10
0.0
 20
0.0
 30
0.0
  9
$PUCSORGBOTTOM
 10
0.0
 20
0.0
 30
0.0
  9
$PUCSORGLEFT
 10
0.0
 20
0.0
 30
0.0
  9
$PUCSORGRIGHT
 10
0.0
 20
0.0
 30
0.0
  9
$PUCSORGFRONT
 10
0.0
 20
0.0
 30
0.0
  9
$PUCSORGBACK
 10
0.0
 20
0.0
 30
0.0
  9
$USERI1
 70
     0
  9
$USERI2
 70
     0
  9
$USERI3
 70
     0
  9
$USERI4
 70
     0
  9
$USERI5
 70
     0
  9
$USERR1
 40
0.0
  9
$USERR2
 40
0.0
  9
$USERR3
 40
0.0
  9
$USERR4
 40
0.0
  9
$USERR5
 40
0.0
  9
$WORLDVIEW
 70
     1
  9
$SHADEDGE
 70
     3
  9
$SHADEDIF
 70
    70
  9
$TILEMODE
 70
     1
  9
$MAXACTVP
 70
    64
  9
$PINSBASE
 10
0.0
 20
0.0
 30
0.0
  9
$PLIMCHECK
 70
     0
  9
$PEXTMIN
 10
1.000000000000000E+20
 20
1.000000000000000E+20
 30
1.000000000000000E+20
  9
$PEXTMAX
 10
-1.000000000000000E+20
 20
-1.000000000000000E+20
 30
-1.000000000000000E+20
  9
$PLIMMIN
 10
0.0
 20
0.0
  9
$PLIMMAX
 10
420.0
 20
297.0
  9
$UNITMODE
 70
     0
  9
$VISRETAIN
 70
     1
  9
$PLINEGEN
 70
     0
  9
$PSLTSCALE
 70
     1
  9
$TREEDEPTH
 70
  3020
  9
$CMLSTYLE
  2
Standard
  9
$CMLJUST
 70
     0
  9
$CMLSCALE
 40
20.0
  9
$PROXYGRAPHICS
 70
     1
  9
$MEASUREMENT
 70
     1
  9
$CELWEIGHT
370
    -1
  9
$ENDCAPS
280
     0
  9
$JOINSTYLE
280
     0
  9
$LWDISPLAY
290
     0
  9
$INSUNITS
 70
     4
  9
$HYPERLINKBASE
  1

  9
$STYLESHEET
  1

  9
$XEDIT
290
     1
  9
$CEPSNTYPE
380
     0
  9
$PSTYLEMODE
290
     1
  9
$FINGERPRINTGUID
  2
{C9C2B9F8-E2F8-4071-A3B4-9DA2E682E07C}
  9
$VERSIONGUID
  2
{FAEB1C32-E019-11D5-929B-00C0DF256EC4}
  9
$EXTNAMES
290
     1
  9
$PSVPSCALE
 40
0.0
  9
$OLESTARTUP
290
     0
  9
$SORTENTS
280
   127
  9
$INDEXCTL
280
     0
  9
$HIDETEXT
280
     1
  9
$XCLIPFRAME
280
     2
  9
$HALOGAP
280
     0
  9
$OBSCOLOR
 70
   257
  9
$OBSLTYPE
280
     0
  9
$INTERSECTIONDISPLAY
280
     0
  9
$INTERSECTIONCOLOR
 70
   257
  9
$DIMASSOC
280
     2
  9
$PROJECTNAME
  1

  9
$CAMERADISPLAY
290
     0
  9
$LENSLENGTH
 40
50.0
  9
$CAMERAHEIGHT
 40
0.0
  9
$STEPSPERSEC
 40
2.0
  9
$STEPSIZE
 40
6.0
  9
$3DDWFPREC
 40
2.0
  9
$PSOLWIDTH
 40
5.0
  9
$PSOLHEIGHT
 40
80.0
  9
$LOFTANG1
 40
1.570796326794897
  9
$LOFTANG2
 40
1.570796326794897
  9
$LOFTMAG1
 40
0.0
  9
$LOFTMAG2
 40
0.0
  9
$LOFTPARAM
 70
     7
  9
$LOFTNORMALS
280
     1
  9
$LATITUDE
 40
37.795
  9
$LONGITUDE
 40
-122.394
  9
$NORTHDIRECTION
 40
0.0
  9
$TIMEZONE
 70
 -8000
  9
$LIGHTGLYPHDISPLAY
280
     1
  9
$TILEMODELIGHTSYNCH
280
     1
  9
$SOLIDHIST
280
     1
  9
$SHOWHIST
280
     1
  9
$DWFFRAME
280
     2
  9
$DGNFRAME
280
     2
  9
$REALWORLDSCALE
290
     1
  9
$INTERFERECOLOR
 62
   256
  9
$CSHADOW
280
     0
  9
$SHADOWPLANELOCATION
 40
0.0
  0
ENDSEC
  0
SECTION
  2
CLASSES
  0
CLASS
  1
ACDBDICTIONARYWDFLT
  2
AcDbDictionaryWithDefault
  3
ObjectDBX Classes
 90
        0
 91
        4
280
     0
281
     0
  0
CLASS
  1
VISUALSTYLE
  2
AcDbVisualStyle
  3
ObjectDBX Classes
 90
     4095
 91
        4
280
     0
281
     0
  0
CLASS
  1
MATERIAL
  2
AcDbMaterial
  3
ObjectDBX Classes
 90
     1153
 91
        4
280
     0
281
     0
  0
ENDSEC
  0
SECTION
  2
TABLES
  0
TABLE
  2
VPORT
  5
8
330
0
100
AcDbSymbolTable
 70
     1
  0
VPORT
  5
29
330
8
100
AcDbSymbolTableRecord
100
AcDbViewportTableRecord
  2
*Active
 70
     0
 10
0.0
 20
0.0
 11
1.0
 21
1.0
 12
0.0
 22
0.0
 13
0.0
 23
0.0
 14
10.0
 24
10.0
 15
10.0
 25
10.0
 16
0.0
 26
0.0
 36
1.0
 17
0.0
 27
0.0
 37
0.0
 40
13860.0
 41
1.414285714285714
 42
50.0
 43
0.0
 44
0.0
 50
0.0
 51
0.0
 71
     0
 72
 10000
 73
     1
 74
     3
 75
     0
 76
     0
 77
     0
 78
     0
281
     0
 65
     1
110
0.0
120
0.0
130
0.0
111
1.0
121
0.0
131
0.0
112
0.0
122
1.0
132
0.0
 79
     0
146
0.0
 60
     3
 61
     5
292
     1
282
     1
141
0.0
142
0.0
 63
   250
  0
ENDTAB
  0
TABLE
  2
LTYPE
  5
5
330
0
100
AcDbSymbolTable
 70
     5
  0
LTYPE
  5
14
330
5
100
AcDbSymbolTableRecord
100
AcDbLinetypeTableRecord
  2
ByBlock
 70
     0
  3

 72
    65
 73
     0
 40
0.0
  0
LTYPE
  5
15
330
5
100
AcDbSymbolTableRecord
100
AcDbLinetypeTableRecord
  2
ByLayer
 70
     0
  3

 72
    65
 73
     0
 40
0.0
  0
LTYPE
  5
16
330
5
100
AcDbSymbolTableRecord
100
AcDbLinetypeTableRecord
  2
Continuous
 70
     0
  3
Solid line
 72
    65
 73
     0
 40
0.0
  0
LTYPE
  5
3F
330
5
100
AcDbSymbolTableRecord
100
AcDbLinetypeTableRecord
  2
JWW_HOJO
 70
     0
  3
  -   -   -   -   -   -   -   - 
 72
    65
 73
     2
 40
1.693333333333333
 49
-1.27
 74
     0
 49
0.4233333333333333
 74
     0
  0
LTYPE
  5
40
330
5
100
AcDbSymbolTableRecord
100
AcDbLinetypeTableRecord
  2
JWW_DASHED1
 70
     0
  3
-  --  --  --  --  --  --  --  -
 72
    65
 73
     2
 40
1.693333333333333
 49
0.8466666666666667
 74
     0
 49
-0.8466666666666667
 74
     0
  0
LTYPE
  5
41
330
5
100
AcDbSymbolTableRecord
100
AcDbLinetypeTableRecord
  2
JWW_CENTER1
 70
     0
  3
-----  --  ----------  --  -----
 72
    65
 73
     4
 40
6.773333333333333
 49
4.233333333333333
 74
     0
 49
-0.8466666666666667
 74
     0
 49
0.8466666666666667
 74
     0
 49
-0.8466666666666667
 74
     0
  0
LTYPE
  5
42
330
5
100
AcDbSymbolTableRecord
100
AcDbLinetypeTableRecord
  2
JWW_DASHED2
 70
     0
  3
--    ----    ----    ----    --
 72
    65
 73
     2
 40
3.386666666666667
 49
1.693333333333333
 74
     0
 49
-1.693333333333333
 74
     0
  0
ENDTAB
  0
TABLE
  2
LAYER
  5
2
330
0
100
AcDbSymbolTable
 70
    18
  0
LAYER
  5
10
330
2
100
AcDbSymbolTableRecord
100
AcDbLayerTableRecord
  2
0
 70
     0
 62
     7
  6
Continuous
370
    -3
390
F
347
3E
  0
LAYER
  5
43
330
2
100
AcDbSymbolTableRecord
100
AcDbLayerTableRecord
  2
F-0_補助線
 70
     0
 62
     7
  6
Continuous
370
    -3
390
F
347
3E
  0
LAYER
  5
44
330
2
100
AcDbSymbolTableRecord
100
AcDbLayerTableRecord
  2
F-1_枠
 70
     0
 62
     7
  6
Continuous
370
    -3
390
F
347
3E
  0
LAYER
  5
45
330
2
100
AcDbSymbolTableRecord
100
AcDbLayerTableRecord
  2
F-A_文字
 70
     0
 62
     7
  6
Continuous
370
    -3
390
F
347
3E
  0
LAYER
  5
46
330
2
100
AcDbSymbolTableRecord
100
AcDbLayerTableRecord
  2
0-A_文字
 70
     0
 62
     7
  6
Continuous
370
    -3
390
F
347
3E
  0
LAYER
  5
47
330
2
100
AcDbSymbolTableRecord
100
AcDbLayerTableRecord
  2
0-3_仕上げ
 70
     0
 62
     7
  6
Continuous
370
    -3
390
F
347
3E
  0
LAYER
  5
48
330
2
100
AcDbSymbolTableRecord
100
AcDbLayerTableRecord
  2
0-2_柱
 70
     0
 62
     7
  6
Continuous
370
    -3
390
F
347
3E
  0
LAYER
  5
49
330
2
100
AcDbSymbolTableRecord
100
AcDbLayerTableRecord
  2
0-C_ハッチ
 70
     0
 62
     7
  6
Continuous
370
    -3
390
F
347
3E
  0
LAYER
  5
4A
330
2
100
AcDbSymbolTableRecord
100
AcDbLayerTableRecord
  2
0-B_寸法
 70
     0
 62
     7
  6
Continuous
370
    -3
390
F
347
3E
  0
LAYER
  5
4B
330
2
100
AcDbSymbolTableRecord
100
AcDbLayerTableRecord
  2
0-0_補助線
 70
     0
 62
     7
  6
Continuous
370
    -3
390
F
347
3E
  0
LAYER
  5
4C
330
2
100
AcDbSymbolTableRecord
100
AcDbLayerTableRecord
  2
0-4_枠
 70
     0
 62
     7
  6
Continuous
370
    -3
390
F
347
3E
  0
LAYER
  5
4D
330
2
100
AcDbSymbolTableRecord
100
AcDbLayerTableRecord
  2
0-7_金物
 70
     0
 62
     7
  6
Continuous
370
    -3
390
F
347
3E
  0
LAYER
  5
4E
330
2
100
AcDbSymbolTableRecord
100
AcDbLayerTableRecord
  2
0-6_扉
 70
     0
 62
     7
  6
Continuous
370
    -3
390
F
347
3E
  0
LAYER
  5
4F
330
2
100
AcDbSymbolTableRecord
100
AcDbLayerTableRecord
  2
戸当り
 70
     0
 62
     7
  6
Continuous
370
    -3
390
F
347
3E
  0
LAYER
  5
50
330
2
100
AcDbSymbolTableRecord
100
AcDbLayerTableRecord
  2
0-1_通り芯
 70
     0
 62
     7
  6
Continuous
370
    -3
390
F
347
3E
  0
LAYER
  5
51
330
2
100
AcDbSymbolTableRecord
100
AcDbLayerTableRecord
  2
1-4_枠
 70
     0
 62
     7
  6
Continuous
370
    -3
390
F
347
3E
  0
LAYER
  5
52
330
2
100
AcDbSymbolTableRecord
100
AcDbLayerTableRecord
  2
1-0_補助線
 70
     0
 62
     7
  6
Continuous
370
    -3
390
F
347
3E
  0
LAYER
  5
53
330
2
100
AcDbSymbolTableRecord
100
AcDbLayerTableRecord
  2
1-B_寸法
 70
     0
 62
     7
  6
Continuous
370
    -3
390
F
347
3E
  0
ENDTAB
  0
TABLE
  2
STYLE
  5
3
330
0
100
AcDbSymbolTable
 70
     1
  0
STYLE
  5
11
330
3
100
AcDbSymbolTableRecord
100
AcDbTextStyleTableRecord
  2
Standard
 70
     0
 40
0.0
 41
1.0
 50
0.0
 71
     0
 42
2.5
  3
txt
  4

  0
ENDTAB
  0
TABLE
  2
VIEW
  5
6
330
0
100
AcDbSymbolTable
 70
     0
  0
ENDTAB
  0
TABLE
  2
UCS
  5
7
330
0
100
AcDbSymbolTable
 70
     0
  0
ENDTAB
  0
TABLE
  2
APPID
  5
9
330
0
100
AcDbSymbolTable
 70
     1
  0
APPID
  5
12
330
9
100
AcDbSymbolTableRecord
100
AcDbRegAppTableRecord
  2
ACAD
 70
     0
  0
ENDTAB
  0
TABLE
  2
DIMSTYLE
  5
A
330
0
100
AcDbSymbolTable
 70
     1
100
AcDbDimStyleTable
  0
DIMSTYLE
105
27
330
A
100
AcDbSymbolTableRecord
100
AcDbDimStyleTableRecord
  2
ISO-25
 70
     0
 41
2.5
 42
0.625
 43
3.75
 44
1.25
 73
     0
 74
     0
 77
     1
 78
     8
140
2.5
141
2.5
143
0.03937007874016
147
0.625
171
     3
172
     1
178
     0
271
     2
272
     2
274
     3
278
    44
283
     0
284
     8
340
11
  0
ENDTAB
  0
TABLE
  2
BLOCK_RECORD
  5
1
330
0
100
AcDbSymbolTable
 70
     2
  0
BLOCK_RECORD
  5
1F
330
1
100
AcDbSymbolTableRecord
100
AcDbBlockTableRecord
  2
*Model_Space
340
22
 70
     0
280
     1
281
     0
  0
BLOCK_RECORD
  5
1B
330
1
100
AcDbSymbolTableRecord
100
AcDbBlockTableRecord
  2
*Paper_Space
340
1E
 70
     0
280
     1
281
     0
  0
BLOCK_RECORD
  5
23
330
1
100
AcDbSymbolTableRecord
100
AcDbBlockTableRecord
  2
*Paper_Space0
340
26
 70
     0
280
     1
281
     0
  0
BLOCK_RECORD
  5
54
330
1
100
AcDbSymbolTableRecord
100
AcDbBlockTableRecord
  2
01@@SfigorgFlag@@4
340
0
102
{BLKREFS
331
1E7
102
}
 70
     0
280
     1
281
     0
  0
ENDTAB
  0
ENDSEC
  0
SECTION
  2
BLOCKS
  0
BLOCK
  5
20
330
1F
100
AcDbEntity
  8
0
100
AcDbBlockBegin
  2
*Model_Space
 70
     0
 10
0.0
 20
0.0
 30
0.0
  3
*Model_Space
  1

  0
ENDBLK
  5
21
330
1F
100
AcDbEntity
  8
0
100
AcDbBlockEnd
  0
BLOCK
  5
1C
330
1B
100
AcDbEntity
 67
     1
  8
0
100
AcDbBlockBegin
  2
*Paper_Space
 70
     0
 10
0.0
 20
0.0
 30
0.0
  3
*Paper_Space
  1

  0
ENDBLK
  5
1D
330
1B
100
AcDbEntity
 67
     1
  8
0
100
AcDbBlockEnd
  0
BLOCK
  5
24
330
23
100
AcDbEntity
  8
0
100
AcDbBlockBegin
  2
*Paper_Space0
 70
     0
 10
0.0
 20
0.0
 30
0.0
  3
*Paper_Space0
  1

  0
ENDBLK
  5
25
330
23
100
AcDbEntity
  8
0
100
AcDbBlockEnd
  0
BLOCK
  5
55
330
54
100
AcDbEntity
  8
0
100
AcDbBlockBegin
  2
01@@SfigorgFlag@@4
 70
     0
 10
0.0
 20
0.0
 30
0.0
  3
01@@SfigorgFlag@@4
  1

  0
ARC
  5
3A0
330
54
100
AcDbEntity
  8
0-0_補助線
  6
Continuous
 62
     7
370
     9
100
AcDbCircle
 10
0.2870178584643241
 20
2.75234064120913
 30
0.0
 40
0.06
100
AcDbArc
 50
0.0
 51
106.7900255983358
  0
LINE
  5
3A1
330
54
100
AcDbEntity
  8
0-0_補助線
  6
Continuous
 62
     7
370
     9
100
AcDbLine
 10
0.2696859502743365
 20
2.809782829176655
 30
0.0
 11
-0.0739024091715521
 21
2.715148139615124
 31
0.0
  0
LINE
  5
3A2
330
54
100
AcDbEntity
  8
0-0_補助線
  6
Continuous
 62
     7
370
     9
100
AcDbLine
 10
0.3470178584643264
 20
2.75234064120913
 30
0.0
 11
0.3470178584643264
 21
2.702340641209176
 31
0.0
  0
ARC
  5
3A3
330
54
100
AcDbEntity
  8
0-0_補助線
  6
Continuous
 62
     7
370
     9
100
AcDbCircle
 10
0.4070178584643287
 20
2.762340641209178
 30
0.0
 40
0.06
100
AcDbArc
 50
180.0
 51
311.3477772196935
  0
LINE
  5
3A4
330
54
100
AcDbEntity
  8
0-0_補助線
  6
Continuous
 62
     7
370
     9
100
AcDbLine
 10
0.3470178584643264
 20
2.762340641209178
 30
0.0
 11
0.3470178584643264
 21
2.812340641209133
 31
0.0
  0
LINE
  5
3A5
330
54
100
AcDbEntity
  8
0-0_補助線
  6
Continuous
 62
     7
370
     9
100
AcDbLine
 10
-0.0529821415356508
 20
-1.777743500340691
 30
0.0
 11
-0.0529821415356508
 21
-1.787659358790833
 31
0.0
  0
LINE
  5
3A6
330
54
100
AcDbEntity
  8
0-0_補助線
  6
Continuous
 62
     7
370
     9
100
AcDbLine
 10
0.3470178584643406
 20
-1.947659358790858
 30
0.0
 11
0.106338373590475
 21
-1.697238367056102
 31
0.0
  0
ARC
  5
3A7
330
54
100
AcDbEntity
  8
0-0_補助線
  6
Continuous
 62
     7
370
     9
100
AcDbCircle
 10
0.0470178584643435
 20
-1.777743500340691
 30
0.0
 40
0.1
100
AcDbArc
 50
53.61521310602235
 51
180.0
  0
LINE
  5
3A8
330
54
100
AcDbEntity
  8
0-0_補助線
  6
Continuous
 62
     7
370
     9
100
AcDbLine
 10
0.5670178584643537
 20
-2.387659358790856
 30
0.0
 11
0.5670178584643537
 21
-1.887659358790856
 31
0.0
  0
LINE
  5
3A9
330
54
100
AcDbEntity
  8
0-0_補助線
  6
Continuous
 62
     7
370
     9
100
AcDbLine
 10
0.7070178584643401
 20
-2.087659358790845
 30
0.0
 11
0.7070178584643401
 21
-1.887659358790856
 31
0.0
  0
LINE
  5
3AA
330
54
100
AcDbEntity
  8
0-0_補助線
  6
Continuous
 62
     7
370
     9
100
AcDbLine
 10
0.7070178584643401
 20
-1.887659358790856
 30
0.0
 11
0.5470178584643435
 21
-1.887659358790856
 31
0.0
  0
LINE
  5
3AB
330
54
100
AcDbEntity
  8
0-0_補助線
  6
Continuous
 62
     7
370
     9
100
AcDbLine
 10
0.5470178584643435
 20
-1.887659358790856
 30
0.0
 11
0.5470178584643435
 21
-1.667659358790829
 31
0.0
  0
LINE
  5
3AC
330
54
100
AcDbEntity
  8
0-0_補助線
  6
Continuous
 62
     7
370
     9
100
AcDbLine
 10
0.5470178584643435
 20
-1.667659358790829
 30
0.0
 11
0.0795929895708269
 21
-1.667659358790829
 31
0.0
  0
ARC
  5
3AD
330
54
100
AcDbEntity
  8
0-0_補助線
  6
Continuous
 62
     7
370
     9
100
AcDbCircle
 10
0.0795929895708269
 20
-1.827659358790854
 30
0.0
 40
0.16
100
AcDbArc
 50
90.0
 51
131.40962210927
  0
LINE
  5
3AE
330
54
100
AcDbEntity
  8
0-0_補助線
  6
Continuous
 62
     7
370
     9
100
AcDbLine
 10
-0.2564713849342724
 20
-1.756764767016634
 30
0.0
 11
-0.7546842001848546
 21
-1.601304180255838
 31
0.0
  0
ARC
  5
3AF
330
54
100
AcDbEntity
  8
0-0_補助線
  6
Continuous
 62
     7
370
     9
100
AcDbCircle
 10
-0.7129821415356474
 20
-1.46765935879084
 30
0.0
 40
0.14
100
AcDbArc
 50
72.6701702617455
 51
252.6701720818837
  0
LINE
  5
3B0
330
54
100
AcDbEntity
  8
0-0_補助線
  6
Continuous
 62
     7
370
     9
100
AcDbLine
 10
-0.1467436778993232
 20
-1.497689045087427
 30
0.0
 11
-0.6712800743953693
 21
-1.334014539975314
 31
0.0
  0
ARC
  5
3B1
330
54
100
AcDbEntity
  8
0-0_補助線
  6
Continuous
 62
     7
370
     9
100
AcDbCircle
 10
0.0550178584643533
 20
-1.627659358790865
 30
0.0
 40
0.24
100
AcDbArc
 50
90.0
 51
147.2112623503457
  0
LINE
  5
3B2
330
54
100
AcDbEntity
  8
0-0_補助線
  6
Continuous
 62
     7
370
     9
100
AcDbLine
 10
0.5470178584643435
 20
-1.28765935879089
 30
0.0
 11
0.5470178584643435
 21
2.362340641209201
 31
0.0
  0
LINE
  5
3B3
330
54
100
AcDbEntity
  8
0-0_補助線
  6
Continuous
 62
     7
370
     9
100
AcDbLine
 10
0.4470178584643492
 20
-1.387659358790856
 30
0.0
 11
0.0550178584643533
 21
-1.387659358790856
 31
0.0
  0
ARC
  5
3B4
330
54
100
AcDbEntity
  8
0-0_補助線
  6
Continuous
 62
     7
370
     9
100
AcDbCircle
 10
0.4470178584643492
 20
-1.28765935879089
 30
0.0
 40
0.1
100
AcDbArc
 50
270.0
 51
0.0
  0
ARC
  5
3B5
330
54
100
AcDbEntity
  8
0-0_補助線
  6
Continuous
 62
     7
370
     9
100
AcDbCircle
 10
0.4470178584643492
 20
2.362340641209201
 30
0.0
 40
0.1
100
AcDbArc
 50
0.0
 51
90.0
  0
LINE
  5
3B6
330
54
100
AcDbEntity
  8
0-0_補助線
  6
Continuous
 62
     7
370
     9
100
AcDbLine
 10
0.4470178584643492
 20
2.462340641209167
 30
0.0
 11
0.3470178584643264
 21
2.462340641209167
 31
0.0
  0
ARC
  5
3B7
330
54
100
AcDbEntity
  8
0-0_補助線
  6
Continuous
 62
     7
370
     9
100
AcDbCircle
 10
0.3470178584643264
 20
2.662340641209155
 30
0.0
 40
0.1999999999999886
100
AcDbArc
 50
213.4773790501727
 51
270.0
  0
LINE
  5
3B8
330
54
100
AcDbEntity
  8
0-0_補助線
  6
Continuous
 62
     7
370
     9
100
AcDbLine
 10
0.1801971249959848
 20
2.552019098049712
 30
0.0
 11
0.0079381256832392
 21
2.489533142651979
 31
0.0
  0
ARC
  5
3B9
330
54
100
AcDbEntity
  8
0-0_補助線
  6
Continuous
 62
     7
370
     9
100
AcDbCircle
 10
-0.032982141535669
 20
2.602340641209153
 30
0.0
 40
0.12
100
AcDbArc
 50
180.0
 51
293.3376526889709
  0
ARC
  5
3BA
330
54
100
AcDbEntity
  8
0-0_補助線
  6
Continuous
 62
     7
370
     9
100
AcDbCircle
 10
-0.032982141535669
 20
2.602340641209153
 30
0.0
 40
0.12
100
AcDbArc
 50
106.7900255983375
 51
180.0
  0
LINE
  5
3BB
330
54
100
AcDbEntity
  8
0-0_補助線
  6
Continuous
 62
     7
370
     9
100
AcDbLine
 10
0.2487753640858017
 20
-2.584505785220856
 30
0.0
 11
-0.7409357385895845
 21
-2.087659358790845
 31
0.0
  0
ARC
  5
3BC
330
54
100
AcDbEntity
  8
0-0_補助線
  6
Continuous
 62
     7
370
     9
100
AcDbCircle
 10
0.3470178584643406
 20
-2.387659358790856
 30
0.0
 40
0.22
100
AcDbArc
 50
243.4248464959396
 51
359.9999999999999
  0
ARC
  5
3BD
330
54
100
AcDbEntity
  8
0-0_補助線
  6
Continuous
 62
     7
370
     9
100
AcDbCircle
 10
0.3470178584643406
 20
-2.387659358790856
 30
0.0
 40
0.36
100
AcDbArc
 50
243.4248464959396
 51
359.9999999999999
  0
LINE
  5
3BE
330
54
100
AcDbEntity
  8
0-0_補助線
  6
Continuous
 62
     7
370
     9
100
AcDbLine
 10
-1.152982141535674
 20
2.912340641209155
 30
0.0
 11
-1.152982141535659
 21
-1.987659358790879
 31
0.0
  0
LINE
  5
3BF
330
54
100
AcDbEntity
  8
0-0_補助線
  6
Continuous
 62
     7
370
     9
100
AcDbLine
 10
-1.052982141535651
 20
-2.087659358790845
 30
0.0
 11
0.3470178584643406
 21
-2.087659358790845
 31
0.0
  0
LINE
  5
3C0
330
54
100
AcDbEntity
  8
0-0_補助線
  6
Continuous
 62
     7
370
     9
100
AcDbLine
 10
-0.8529821415356622
 20
-1.787659358790833
 30
0.0
 11
-0.8529821415356622
 21
2.812340641209133
 31
0.0
  0
LINE
  5
3C1
330
54
100
AcDbEntity
  8
0-0_補助線
  6
Continuous
 62
     7
370
     9
100
AcDbLine
 10
0.3470178584643406
 20
-2.087659358790845
 30
0.0
 11
0.3470178584643406
 21
-1.947659358790858
 31
0.0
  0
ARC
  5
3C2
330
54
100
AcDbEntity
  8
0-0_補助線
  6
Continuous
 62
     7
370
     9
100
AcDbCircle
 10
-1.052982141535651
 20
-1.987659358790879
 30
0.0
 40
0.1
100
AcDbArc
 50
180.0
 51
270.0
  0
LINE
  5
3C3
330
54
100
AcDbEntity
  8
0-0_補助線
  6
Continuous
 62
     7
370
     9
100
AcDbLine
 10
0.7070178584643401
 20
-2.387659358790856
 30
0.0
 11
0.7070178584643401
 21
-2.087659358790845
 31
0.0
  0
LINE
  5
3C4
330
54
100
AcDbEntity
  8
0-0_補助線
  6
Continuous
 62
     7
370
     9
100
AcDbLine
 10
0.1859641930069103
 20
-2.709624755755655
 30
0.0
 11
-1.052982141535651
 21
-2.087659358790845
 31
0.0
  0
ARC
  5
3C5
330
54
100
AcDbEntity
  8
0-0_補助線
  6
Continuous
 62
     7
370
     9
100
AcDbCircle
 10
-0.9529821415356565
 20
2.912340641209155
 30
0.0
 40
0.2
100
AcDbArc
 50
90.0
 51
180.0
  0
LINE
  5
3C6
330
54
100
AcDbEntity
  8
0-0_補助線
  6
Continuous
 62
     7
370
     9
100
AcDbLine
 10
-0.1929821415356656
 20
2.812340641209133
 30
0.0
 11
0.3470178584643264
 21
2.812340641209133
 31
0.0
  0
LINE
  5
3C7
330
54
100
AcDbEntity
  8
0-0_補助線
  6
Continuous
 62
     7
370
     9
100
AcDbLine
 10
-0.1929821415356656
 20
2.412340641209155
 30
0.0
 11
-0.1929821415356656
 21
2.812340641209133
 31
0.0
  0
LINE
  5
3C8
330
54
100
AcDbEntity
  8
0-0_補助線
  6
Continuous
 62
     7
370
     9
100
AcDbLine
 10
-0.4329821415356747
 20
2.412340641209155
 30
0.0
 11
-0.1929821415356656
 21
2.412340641209155
 31
0.0
  0
LINE
  5
3C9
330
54
100
AcDbEntity
  8
0-0_補助線
  6
Continuous
 62
     7
370
     9
100
AcDbLine
 10
-0.4329821415356747
 20
2.812340641209133
 30
0.0
 11
-0.4329821415356747
 21
2.412340641209155
 31
0.0
  0
LINE
  5
3CA
330
54
100
AcDbEntity
  8
0-0_補助線
  6
Continuous
 62
     7
370
     9
100
AcDbLine
 10
-0.8529821415356622
 20
2.812340641209133
 30
0.0
 11
-0.4329821415356747
 21
2.812340641209133
 31
0.0
  0
LINE
  5
3CB
330
54
100
AcDbEntity
  8
0-0_補助線
  6
Continuous
 62
     7
370
     9
100
AcDbLine
 10
-0.8529821415356622
 20
-1.787659358790833
 30
0.0
 11
-0.0529821415356508
 21
-1.787659358790833
 31
0.0
  0
ARC
  5
3CC
330
54
100
AcDbEntity
  8
0-0_補助線
  6
Continuous
 62
     7
370
     9
100
AcDbCircle
 10
-0.1849821415356558
 20
-1.527659358790842
 30
0.0
 40
0.24
100
AcDbArc
 50
252.6701739020166
 51
311.4096221092722
  0
LINE
  5
3CD
330
54
100
AcDbEntity
  8
0-0_補助線
  6
Continuous
 62
     7
370
     9
100
AcDbLine
 10
0.7070178584643401
 20
-2.087659358790845
 30
0.0
 11
1.747017858464361
 21
-2.087659358790845
 31
0.0
  0
LINE
  5
3CE
330
54
100
AcDbEntity
  8
0-0_補助線
  6
Continuous
 62
     7
370
     9
100
AcDbLine
 10
1.747017858464361
 20
-1.787659358790833
 30
0.0
 11
0.8470178584643406
 21
-1.787659358790833
 31
0.0
  0
LINE
  5
3CF
330
54
100
AcDbEntity
  8
0-0_補助線
  6
Continuous
 62
     7
370
     9
100
AcDbLine
 10
0.8470178584643406
 20
-1.787659358790833
 30
0.0
 11
0.8470178584643264
 21
2.352340641209153
 31
0.0
  0
LINE
  5
3D0
330
54
100
AcDbEntity
  8
0-0_補助線
  6
Continuous
 62
     7
370
     9
100
AcDbLine
 10
1.747017858464361
 20
-1.637659358790856
 30
0.0
 11
1.747017858464361
 21
-1.787659358790833
 31
0.0
  0
LINE
  5
3D1
330
54
100
AcDbEntity
  8
0-0_補助線
  6
Continuous
 62
     7
370
     9
100
AcDbLine
 10
1.747017858464361
 20
-1.637659358790856
 30
0.0
 11
2.347017858464341
 21
-1.937659358790867
 31
0.0
  0
LINE
  5
3D2
330
54
100
AcDbEntity
  8
0-0_補助線
  6
Continuous
 62
     7
370
     9
100
AcDbLine
 10
2.347017858464341
 20
-1.937659358790867
 30
0.0
 11
1.747017858464361
 21
-2.317659358790863
 31
0.0
  0
LINE
  5
3D3
330
54
100
AcDbEntity
  8
0-0_補助線
  6
Continuous
 62
     7
370
     9
100
AcDbLine
 10
1.747017858464361
 20
-2.087659358790845
 30
0.0
 11
1.747017858464361
 21
-2.317659358790863
 31
0.0
  0
LINE
  5
3D4
330
54
100
AcDbEntity
  8
0-0_補助線
  6
Continuous
 62
     7
370
     9
100
AcDbLine
 10
-0.9529821415356565
 20
3.112340641209144
 30
0.0
 11
0.7870178584643241
 21
3.112340641209144
 31
0.0
  0
ARC
  5
3D5
330
54
100
AcDbEntity
  8
0-0_補助線
  6
Continuous
 62
     7
370
     9
100
AcDbCircle
 10
0.7870178584643241
 20
3.052340641209142
 30
0.0
 40
0.06
100
AcDbArc
 50
311.3477772196927
 51
90.0
  0
LINE
  5
3D6
330
54
100
AcDbEntity
  8
0-0_補助線
  6
Continuous
 62
     7
370
     9
100
AcDbLine
 10
0.8266555321578579
 20
3.007297830193821
 30
0.0
 11
0.4466555321578625
 21
2.7172978301938
 31
0.0
  0
LINE
  5
3D7
330
54
100
AcDbEntity
  8
0-0_補助線
  6
Continuous
 62
     7
370
     9
100
AcDbLine
 10
0.8470178584643264
 20
2.702340641209176
 30
0.0
 11
0.3470178584643264
 21
2.702340641209176
 31
0.0
  0
LINE
  5
3D8
330
54
100
AcDbEntity
  8
0-0_補助線
  6
Continuous
 62
     7
370
     9
100
AcDbLine
 10
0.8470178584643264
 20
2.652340641209165
 30
0.0
 11
0.8470178584643264
 21
2.702340641209176
 31
0.0
  0
LINE
  5
3D9
330
54
100
AcDbEntity
  8
0-0_補助線
  6
Continuous
 62
     7
370
     9
100
AcDbLine
 10
0.8470178584643264
 20
2.652340641209165
 30
0.0
 11
1.747017858464318
 21
2.652340641209165
 31
0.0
  0
LINE
  5
3DA
330
54
100
AcDbEntity
  8
0-0_補助線
  6
Continuous
 62
     7
370
     9
100
AcDbLine
 10
1.747017858464318
 20
2.652340641209165
 30
0.0
 11
1.747017858464318
 21
2.882340641209183
 31
0.0
  0
LINE
  5
3DB
330
54
100
AcDbEntity
  8
0-0_補助線
  6
Continuous
 62
     7
370
     9
100
AcDbLine
 10
2.347017858464326
 20
2.502340641209187
 30
0.0
 11
1.747017858464318
 21
2.882340641209183
 31
0.0
  0
LINE
  5
3DC
330
54
100
AcDbEntity
  8
0-0_補助線
  6
Continuous
 62
     7
370
     9
100
AcDbLine
 10
1.747017858464318
 20
2.202340641209176
 30
0.0
 11
2.347017858464326
 21
2.502340641209187
 31
0.0
  0
LINE
  5
3DD
330
54
100
AcDbEntity
  8
0-0_補助線
  6
Continuous
 62
     7
370
     9
100
AcDbLine
 10
1.747017858464318
 20
2.352340641209153
 30
0.0
 11
0.8470178584643264
 21
2.352340641209153
 31
0.0
  0
LINE
  5
3DE
330
54
100
AcDbEntity
  8
0-0_補助線
  6
Continuous
 62
     7
370
     9
100
AcDbLine
 10
1.747017858464318
 20
2.202340641209176
 30
0.0
 11
1.747017858464318
 21
2.352340641209153
 31
0.0
  0
ENDBLK
  5
56
330
54
100
AcDbEntity
  8
0
100
AcDbBlockEnd
  0
ENDSEC
  0
SECTION
  2
ENTITIES
  0
LINE
  5
57
330
1F
100
AcDbEntity
  8
F-0_補助線
  6
JWW_HOJO
 62
   120
370
     5
100
AcDbLine
 10
-6140.081333436773
 20
-4455.0
 30
0.0
 11
-6140.081333436773
 21
4424.999604096284
 31
0.0
  0
LINE
  5
58
330
1F
100
AcDbEntity
  8
F-0_補助線
  6
JWW_HOJO
 62
   120
370
     5
100
AcDbLine
 10
-6140.081333436773
 20
4424.999604096284
 30
0.0
 11
6159.917676803936
 21
4424.999604096284
 31
0.0
  0
LINE
  5
59
330
1F
100
AcDbEntity
  8
F-0_補助線
  6
JWW_HOJO
 62
   120
370
     5
100
AcDbLine
 10
6159.917676803936
 20
4424.999604096284
 30
0.0
 11
6159.917676803936
 21
-4455.0
 31
0.0
  0
LINE
  5
5A
330
1F
100
AcDbEntity
  8
F-0_補助線
  6
JWW_HOJO
 62
   120
370
     5
100
AcDbLine
 10
6159.917676803936
 20
-4455.0
 30
0.0
 11
-6140.081333436773
 21
-4455.0
 31
0.0
  0
LINE
  5
5B
330
1F
100
AcDbEntity
  8
F-0_補助線
  6
JWW_HOJO
 62
     7
370
     9
100
AcDbLine
 10
509.9185840832865
 20
-3795.000003092998
 30
0.0
 11
509.9185840832865
 21
-4195.000008247994
 31
0.0
  0
LINE
  5
5C
330
1F
100
AcDbEntity
  8
F-1_枠
  6
Continuous
 62
   200
370
    20
100
AcDbLine
 10
5859.917429364114
 20
4174.999769056166
 30
0.0
 11
5859.917429364114
 21
-4205.000164959882
 31
0.0
  0
LINE
  5
5D
330
1F
100
AcDbEntity
  8
F-1_枠
  6
Continuous
 62
   200
370
    20
100
AcDbLine
 10
-5840.081317971782
 20
4174.999769056166
 30
0.0
 11
-5840.081317971782
 21
-4205.000164959882
 31
0.0
  0
LINE
  5
5E
330
1F
100
AcDbEntity
  8
F-1_枠
  6
Continuous
 62
   200
370
    20
100
AcDbLine
 10
5859.917429364114
 20
-4205.000002577498
 30
0.0
 11
-5840.081085996952
 21
-4205.000002577498
 31
0.0
  0
LINE
  5
5F
330
1F
100
AcDbEntity
  8
F-1_枠
  6
Continuous
 62
   200
370
    20
100
AcDbLine
 10
-5830.081323642279
 20
4174.999769056166
 30
0.0
 11
-5830.081323642279
 21
-4205.000164959882
 31
0.0
  0
LINE
  5
60
330
1F
100
AcDbEntity
  8
F-1_枠
  6
Continuous
 62
   200
370
    20
100
AcDbLine
 10
-5835.081309208291
 20
4174.999769056166
 30
0.0
 11
-5835.081309208291
 21
-4205.000164959882
 31
0.0
  0
LINE
  5
61
330
1F
100
AcDbEntity
  8
F-1_枠
  6
Continuous
 62
   200
370
    20
100
AcDbLine
 10
5854.917165428304
 20
4174.999769056166
 30
0.0
 11
5854.917165428304
 21
-4205.000164959882
 31
0.0
  0
LINE
  5
62
330
1F
100
AcDbEntity
  8
F-1_枠
  6
Continuous
 62
   200
370
    20
100
AcDbLine
 10
5849.917643811961
 20
4174.999769056166
 30
0.0
 11
5849.917643811961
 21
-4205.000164959882
 31
0.0
  0
LINE
  5
63
330
1F
100
AcDbEntity
  8
F-1_枠
  6
Continuous
 62
   200
370
    20
100
AcDbLine
 10
5859.917429364114
 20
-4199.999993814004
 30
0.0
 11
-5840.081085996952
 21
-4199.999993814004
 31
0.0
  0
LINE
  5
64
330
1F
100
AcDbEntity
  8
F-1_枠
  6
Continuous
 62
   200
370
    20
100
AcDbLine
 10
5859.917429364114
 20
-4195.000008247994
 30
0.0
 11
-5840.081085996952
 21
-4195.000008247994
 31
0.0
  0
LINE
  5
65
330
1F
100
AcDbEntity
  8
F-1_枠
  6
Continuous
 62
   200
370
    20
100
AcDbLine
 10
4349.917891251784
 20
-3795.000003092998
 30
0.0
 11
4349.917891251784
 21
-4195.000008247994
 31
0.0
  0
LINE
  5
66
330
1F
100
AcDbEntity
  8
F-1_枠
  6
Continuous
 62
   200
370
    20
100
AcDbLine
 10
2849.917396372139
 20
-3795.000003092998
 30
0.0
 11
2849.917396372139
 21
-4195.000008247994
 31
0.0
  0
LINE
  5
67
330
1F
100
AcDbEntity
  8
F-1_枠
  6
Continuous
 62
   200
370
    20
100
AcDbLine
 10
9.918542843316231
 20
-3795.000003092998
 30
0.0
 11
9.918542843316231
 21
-4195.000008247994
 31
0.0
  0
LINE
  5
68
330
1F
100
AcDbEntity
  8
F-1_枠
  6
Continuous
 62
   200
370
    20
100
AcDbLine
 10
9.918542843316231
 20
-3994.999936078046
 30
0.0
 11
5849.917643811961
 21
-3995.005364289155
 31
0.0
  0
LINE
  5
69
330
1F
100
AcDbEntity
  8
F-1_枠
  6
Continuous
 62
   200
370
    20
100
AcDbLine
 10
-5840.081085996952
 20
4174.999769056166
 30
0.0
 11
5859.917429364114
 21
4174.999769056166
 31
0.0
  0
LINE
  5
6A
330
1F
100
AcDbEntity
  8
F-1_枠
  6
Continuous
 62
   200
370
    20
100
AcDbLine
 10
-5840.081085996952
 20
4164.999983504013
 30
0.0
 11
5859.917429364114
 21
4164.999983504013
 31
0.0
  0
LINE
  5
6B
330
1F
100
AcDbEntity
  8
F-1_枠
  6
Continuous
 62
   200
370
    20
100
AcDbLine
 10
-5840.081085996952
 20
4169.999505120355
 30
0.0
 11
5859.917429364114
 21
4169.999505120355
 31
0.0
  0
LINE
  5
6C
330
1F
100
AcDbEntity
  8
F-0_補助線
  6
JWW_HOJO
 62
     7
370
     9
100
AcDbLine
 10
-5830.081323642279
 20
-3994.99993607839
 30
0.0
 11
9.918542843316231
 21
-3994.99993607839
 31
0.0
  0
LINE
  5
6D
330
1F
100
AcDbEntity
  8
F-0_補助線
  6
JWW_HOJO
 62
     7
370
     9
100
AcDbLine
 10
-5830.081323642279
 20
-3904.99993607839
 30
0.0
 11
9.918542843316231
 21
-3904.99993607839
 31
0.0
  0
LINE
  5
6E
330
1F
100
AcDbEntity
  8
F-0_補助線
  6
JWW_HOJO
 62
     7
370
     9
100
AcDbLine
 10
-5830.081323642279
 20
-4084.99993607839
 30
0.0
 11
9.918542843316231
 21
-4084.99993607839
 31
0.0
  0
LINE
  5
6F
330
1F
100
AcDbEntity
  8
F-0_補助線
  6
JWW_HOJO
 62
     7
370
     9
100
AcDbLine
 10
9.918408067688347
 20
-4139.999739777983
 30
0.0
 11
5849.917509036332
 21
-4140.005167989091
 31
0.0
  0
LINE
  5
70
330
1F
100
AcDbEntity
  8
F-0_補助線
  6
JWW_HOJO
 62
     7
370
     9
100
AcDbLine
 10
9.918491721639953
 20
-4049.999739778022
 30
0.0
 11
5849.917592690284
 21
-4050.005167989131
 31
0.0
  0
LINE
  5
71
330
1F
100
AcDbEntity
  8
F-0_補助線
  6
JWW_HOJO
 62
     7
370
     9
100
AcDbLine
 10
9.918593965360003
 20
-3939.99973721807
 30
0.0
 11
5849.917694934004
 21
-3940.005165429179
 31
0.0
  0
LINE
  5
72
330
1F
100
AcDbEntity
  8
F-0_補助線
  6
JWW_HOJO
 62
     7
370
     9
100
AcDbLine
 10
9.918677619311609
 20
-3849.999737218109
 30
0.0
 11
5849.917778587956
 21
-3850.005165429218
 31
0.0
  0
LINE
  5
73
330
1F
100
AcDbEntity
  8
F-0_補助線
  6
JWW_HOJO
 62
     7
370
     9
100
AcDbLine
 10
2939.917396372139
 20
-3795.000003092998
 30
0.0
 11
2939.917396372139
 21
-4195.000008247994
 31
0.0
  0
LINE
  5
74
330
1F
100
AcDbEntity
  8
F-0_補助線
  6
JWW_HOJO
 62
     7
370
     9
100
AcDbLine
 10
99.91854284331623
 20
-3795.000003092998
 30
0.0
 11
99.91854284331623
 21
-4195.000008247994
 31
0.0
  0
LINE
  5
75
330
1F
100
AcDbEntity
  8
F-0_補助線
  6
JWW_HOJO
 62
     7
370
     9
100
AcDbLine
 10
4439.917891251784
 20
-3795.000003092998
 30
0.0
 11
4439.917891251784
 21
-4195.000008247994
 31
0.0
  0
MTEXT
  5
76
330
1F
100
AcDbEntity
  8
F-A_文字
  6
Continuous
 62
     7
370
     0
100
AcDbMText
 10
99.91854284331623
 20
-3887.139820871936
 30
0.0
 40
45.72
 41
180.0
 46
0.0
 71
     7
 72
     1
  1
{\fＭＳ ゴシック|b0|i0|c128|p49;図面名}
 73
     1
 44
1.0
  0
MTEXT
  5
77
330
1F
100
AcDbEntity
  8
F-A_文字
  6
Continuous
 62
     7
370
     0
100
AcDbMText
 10
2939.917396372139
 20
-3887.142460617774
 30
0.0
 40
45.72
 41
300.0
 46
0.0
 71
     7
 72
     1
  1
{\fＭＳ ゴシック|b0|i0|c128|p49;ＳＣＡＬＥ}
 73
     1
 44
1.0
  0
MTEXT
  5
78
330
1F
100
AcDbEntity
  8
F-A_文字
  6
Continuous
 62
     7
370
     0
100
AcDbMText
 10
4439.917891251784
 20
-3887.143854850754
 30
0.0
 40
45.72
 41
240.0
 46
0.0
 71
     7
 72
     1
  1
{\fＭＳ ゴシック|b0|i0|c128|p49;ＤＡＴＥ}
 73
     1
 44
1.0
  0
LINE
  5
79
330
1F
100
AcDbEntity
  8
F-1_枠
  6
Continuous
 62
   200
370
    20
100
AcDbLine
 10
5859.917429364114
 20
-3795.000003092998
 30
0.0
 11
-5840.081085996952
 21
-3795.000003092998
 31
0.0
  0
LINE
  5
7A
330
1F
100
AcDbEntity
  8
F-1_枠
  6
Continuous
 62
   200
370
    20
100
AcDbLine
 10
5859.917429364114
 20
-3790.000017526987
 30
0.0
 11
-5840.081085996952
 21
-3790.000017526987
 31
0.0
  0
LINE
  5
7B
330
1F
100
AcDbEntity
  8
F-0_補助線
  6
JWW_HOJO
 62
     7
370
     9
100
AcDbLine
 10
-5087.628710189611
 20
-3795.000003092999
 30
0.0
 11
-5087.628710189611
 21
-4205.000164959882
 31
0.0
  0
MTEXT
  5
7C
330
1F
100
AcDbEntity
  8
F-A_文字
  6
Continuous
 62
     7
370
     0
100
AcDbMText
 10
2939.917396372139
 20
-4087.14246317786
 30
0.0
 40
45.72
 41
240.0
 46
0.0
 71
     7
 72
     1
  1
{\fＭＳ ゴシック|b0|i0|c128|p49;ＦＩＬＥ}
 73
     1
 44
1.0
  0
LINE
  5
7D
330
1F
100
AcDbEntity
  8
F-0_補助線
  6
JWW_HOJO
 62
     7
370
     9
100
AcDbLine
 10
-50.08145715668377
 20
-3795.000003092998
 30
0.0
 11
-50.08145715668377
 21
-4195.000008247994
 31
0.0
  0
MTEXT
  5
7E
330
1F
100
AcDbEntity
  8
F-A_文字
  6
Continuous
 62
     7
370
     0
100
AcDbMText
 10
4439.917891251784
 20
-4087.143857410839
 30
0.0
 40
45.72
 41
180.0
 46
0.0
 71
     7
 72
     1
  1
{\fＭＳ ゴシック|b0|i0|c128|p49;ＮＯ．}
 73
     1
 44
1.0
  0
MTEXT
  5
7F
330
1F
100
AcDbEntity
  8
F-A_文字
  6
Continuous
 62
     7
370
     0
100
AcDbMText
 10
1394.917396372138
 20
-4096.140669266149
 30
0.0
 40
45.72
 41
120.0
 46
0.0
 71
     7
 72
     1
  1
{\fＭＳ ゴシック|b0|i0|c128|p49;株式}
 73
     1
 44
1.0
  0
MTEXT
  5
80
330
1F
100
AcDbEntity
  8
F-A_文字
  6
Continuous
 62
     7
370
     0
100
AcDbMText
 10
1604.917396372138
 20
-4164.281754523929
 30
0.0
 40
101.44125
 41
1065.0
 46
0.0
 71
     7
 72
     1
  1
{\fＭＳ ゴシック|b0|i0|c128|p49;ウッドワン・・・}
 73
     1
 44
1.0
  0
MTEXT
  5
81
330
1F
100
AcDbEntity
  8
F-A_文字
  6
Continuous
 62
     7
370
     0
100
AcDbMText
 10
1394.917396372138
 20
-4168.140669266187
 30
0.0
 40
45.72
 41
120.0
 46
0.0
 71
     7
 72
     1
  1
{\fＭＳ ゴシック|b0|i0|c128|p49;会社}
 73
     1
 44
1.0
  0
MTEXT
  5
82
330
1F
100
AcDbEntity
  8
F-A_文字
  6
Continuous
 62
     7
370
     0
100
AcDbMText
 10
5768.321977672939
 20
-4314.841419020919
 30
0.0
 40
68.58
 41
90.0
 46
0.0
 71
     7
 72
     1
  1
{\fＭＳ ゴシック|b0|i0|c128|p49;）}
 73
     1
 44
1.0
  0
MTEXT
  5
83
330
1F
100
AcDbEntity
  8
F-A_文字
  6
Continuous
 62
     7
370
     0
100
AcDbMText
 10
5350.114617405298
 20
-4316.235443869856
 30
0.0
 40
68.58
 41
45.0
 46
0.0
 71
     7
 72
     1
  1
{\fＭＳ ゴシック|b0|i0|c128|p49;,}
 73
     1
 44
1.0
  0
MTEXT
  5
84
330
1F
100
AcDbEntity
  8
F-A_文字
  6
Continuous
 62
     7
370
     0
100
AcDbMText
 10
5083.855928478601
 20
-4314.771967288282
 30
0.0
 40
74.295
 41
97.5
 46
0.0
 71
     7
 72
     1
  1
{\fＭＳ ゴシック|b0|i0|c128|p49;$y}
 73
     1
 44
1.0
  0
MTEXT
  5
85
330
1F
100
AcDbEntity
  8
F-A_文字
  6
Continuous
 62
     7
370
     0
100
AcDbMText
 10
5238.592649517422
 20
-4314.771967288282
 30
0.0
 40
74.295
 41
97.5
 46
0.0
 71
     7
 72
     1
  1
{\fＭＳ ゴシック|b0|i0|c128|p49;$m}
 73
     1
 44
1.0
  0
MTEXT
  5
86
330
1F
100
AcDbEntity
  8
F-A_文字
  6
Continuous
 62
     7
370
     0
100
AcDbMText
 10
5393.32938200033
 20
-4314.771967288282
 30
0.0
 40
74.295
 41
97.5
 46
0.0
 71
     7
 72
     1
  1
{\fＭＳ ゴシック|b0|i0|c128|p49;$d}
 73
     1
 44
1.0
  0
MTEXT
  5
87
330
1F
100
AcDbEntity
  8
F-A_文字
  6
Continuous
 62
     7
370
     0
100
AcDbMText
 10
5548.066114483239
 20
-4314.771967288282
 30
0.0
 40
74.295
 41
195.0
 46
0.0
 71
     7
 72
     1
  1
{\fＭＳ ゴシック|b0|i0|c128|p49;印刷}
 73
     1
 44
1.0
  0
MTEXT
  5
88
330
1F
100
AcDbEntity
  8
F-A_文字
  6
Continuous
 62
     7
370
     0
100
AcDbMText
 10
4943.952040816226
 20
-4319.023493567732
 30
0.0
 40
68.58
 41
90.0
 46
0.0
 71
     7
 72
     1
  1
{\fＭＳ ゴシック|b0|i0|c128|p49;（}
 73
     1
 44
1.0
  0
MTEXT
  5
89
330
1F
100
AcDbEntity
  8
F-A_文字
  6
Continuous
 62
     7
370
     0
100
AcDbMText
 10
5191.195810375571
 20
-4319.023493567732
 30
0.0
 40
68.58
 41
45.0
 46
0.0
 71
     7
 72
     1
  1
{\fＭＳ ゴシック|b0|i0|c128|p49;,}
 73
     1
 44
1.0
  0
LINE
  5
8A
330
1F
100
AcDbEntity
  8
0-A_文字
  6
Continuous
 62
    92
370
    13
100
AcDbLine
 10
-5659.999495325861
 20
4000.00018145587
 30
0.0
 11
-5659.999495325861
 21
3730.00018145587
 31
0.0
  0
MTEXT
  5
8B
330
1F
100
AcDbEntity
  8
F-A_文字
  6
Continuous
 62
     7
370
     9
100
AcDbMText
 10
5096.167700144058
 20
-4147.857012699985
 30
0.0
 40
74.295
 41
97.5
 46
0.0
 71
     7
 72
     1
  1
{\fＭＳ ゴシック|b0|i0|c128|p49;01}
 73
     1
 44
1.0
  0
MTEXT
  5
8C
330
1F
100
AcDbEntity
  8
F-A_文字
  6
Continuous
 62
     7
370
     0
100
AcDbMText
 10
3569.917643811961
 20
-3946.903115907308
 30
0.0
 40
76.19999999999999
 41
150.0
 46
0.0
 71
     7
 72
     1
  1
{\fＭＳ ゴシック|b0|i0|c128|p49;1/5}
 73
     1
 44
1.0
  0
LINE
  5
8D
330
1F
100
AcDbEntity
  8
F-0_補助線
  6
JWW_HOJO
 62
   120
370
     5
100
AcDbLine
 10
-5659.999495325861
 20
4424.999604096284
 30
0.0
 11
-5659.999495325861
 21
-4455.0
 31
0.0
  0
LINE
  5
8E
330
1F
100
AcDbEntity
  8
F-0_補助線
  6
JWW_HOJO
 62
   120
370
     5
100
AcDbLine
 10
-6140.081333436773
 20
194.9998020481422
 30
0.0
 11
6159.917676803936
 21
194.9998020481422
 31
0.0
  0
LINE
  5
8F
330
1F
100
AcDbEntity
  8
F-0_補助線
  6
JWW_HOJO
 62
   120
370
     5
100
AcDbLine
 10
9.918171683581818
 20
-4455.0
 30
0.0
 11
9.918171683581818
 21
4424.999604096284
 31
0.0
  0
LINE
  5
90
330
1F
100
AcDbEntity
  8
F-0_補助線
  6
JWW_HOJO
 62
   120
370
     5
100
AcDbLine
 10
-200.0818283164182
 20
-3159.000197951857
 30
0.0
 11
-200.0818283164182
 21
194.9998020481422
 31
0.0
  0
LINE
  5
91
330
1F
100
AcDbEntity
  8
F-0_補助線
  6
JWW_HOJO
 62
   120
370
     5
100
AcDbLine
 10
219.9181716835818
 20
-3159.000197951857
 30
0.0
 11
219.9181716835818
 21
194.9998020481422
 31
0.0
  0
LINE
  5
92
330
1F
100
AcDbEntity
  8
F-0_補助線
  6
JWW_HOJO
 62
   120
370
     5
100
AcDbLine
 10
5679.835838693025
 20
4000.000181455871
 30
0.0
 11
5679.835838693025
 21
-4455.0
 31
0.0
  0
LINE
  5
93
330
1F
100
AcDbEntity
  8
F-0_補助線
  6
JWW_HOJO
 62
   120
370
     5
100
AcDbLine
 10
-6140.081333436773
 20
-3159.000197951857
 30
0.0
 11
6159.917676803936
 21
-3159.000197951857
 31
0.0
  0
LINE
  5
94
330
1F
100
AcDbEntity
  8
F-0_補助線
  6
JWW_HOJO
 62
   120
370
     5
100
AcDbLine
 10
-6140.081333436773
 20
2438.999683277028
 30
0.0
 11
6159.917676803936
 21
2438.999683277028
 31
0.0
  0
LINE
  5
95
330
1F
100
AcDbEntity
  8
F-0_補助線
  6
JWW_HOJO
 62
   120
370
     5
100
AcDbLine
 10
-6140.081333436773
 20
3730.000181455871
 30
0.0
 11
6159.917676803936
 21
3730.000181455871
 31
0.0
  0
LINE
  5
96
330
1F
100
AcDbEntity
  8
F-0_補助線
  6
JWW_HOJO
 62
   120
370
     5
100
AcDbLine
 10
-6140.081333436773
 20
4000.000181455871
 30
0.0
 11
6159.917676803936
 21
4000.000181455871
 31
0.0
  0
MTEXT
  5
97
330
1F
100
AcDbEntity
  8
0-A_文字
  6
Continuous
 62
     7
370
     9
100
AcDbMText
 10
1644.263367265546
 20
378.8987823280377
 30
0.0
 40
68.58000000000001
 41
720.0
 46
0.0
 71
     7
 72
     1
  1
{\fＭＳ ゴシック|b0|i0|c128|p49;※図示：右吊り元}
 73
     1
 44
1.0
  0
MTEXT
  5
98
330
1F
100
AcDbEntity
  8
0-A_文字
  6
Continuous
 62
     7
370
     9
100
AcDbMText
 10
-2522.701717325959
 20
1828.220164946102
 30
0.0
 40
100.9649999999996
 41
794.9999999999966
 46
0.0
 71
     7
 72
     1
  1
{\fＭＳ ゴシック|b0|i0|c128|p49;（ラッチ側）}
 73
     1
 44
1.0
  0
MTEXT
  5
99
330
1F
100
AcDbEntity
  8
0-A_文字
  6
Continuous
 62
     7
370
     9
100
AcDbMText
 10
1981.129399059382
 20
1828.029664946102
 30
0.0
 40
100.584
 41
660.0
 46
0.0
 71
     7
 72
     1
  1
{\fＭＳ ゴシック|b0|i0|c128|p49;（丁番側）}
 73
     1
 44
1.0
  0
LINE
  5
9A
330
1F
100
AcDbEntity
  8
0-3_仕上げ
  6
Continuous
 62
    40
370
    15
100
AcDbLine
 10
2475.038803205695
 20
1999.105832373961
 30
0.0
 11
2145.038803012594
 21
1999.105832373961
 31
0.0
  0
LINE
  5
9B
330
1F
100
AcDbEntity
  8
0-3_仕上げ
  6
Continuous
 62
    40
370
    15
100
AcDbLine
 10
2475.038803205695
 20
2074.105832373961
 30
0.0
 11
2145.038803012594
 21
2074.105832373961
 31
0.0
  0
LINE
  5
9C
330
1F
100
AcDbEntity
  8
0-3_仕上げ
  6
Continuous
 62
    40
370
    15
100
AcDbLine
 10
2475.038803205695
 20
2704.105832373961
 30
0.0
 11
2145.038803012594
 21
2704.105832373961
 31
0.0
  0
LINE
  5
9D
330
1F
100
AcDbEntity
  8
0-3_仕上げ
  6
Continuous
 62
    40
370
    15
100
AcDbLine
 10
2145.038803012594
 20
1999.105832373961
 30
0.0
 11
2145.038803012594
 21
2074.105832373961
 31
0.0
  0
LINE
  5
9E
330
1F
100
AcDbEntity
  8
0-3_仕上げ
  6
Continuous
 62
    40
370
    15
100
AcDbLine
 10
2145.038803012594
 20
2704.105832373961
 30
0.0
 11
2145.03880301259
 21
2777.999683277026
 31
0.0
  0
LINE
  5
9F
330
1F
100
AcDbEntity
  8
0-2_柱
  6
Continuous
 62
    92
370
    13
100
AcDbLine
 10
2355.038803012594
 20
2704.105832373961
 30
0.0
 11
2175.038803012594
 21
2704.105832373961
 31
0.0
  0
LINE
  5
A0
330
1F
100
AcDbEntity
  8
0-2_柱
  6
Continuous
 62
    92
370
    13
100
AcDbLine
 10
2175.038803012594
 20
2704.105832373961
 30
0.0
 11
2175.038803012594
 21
2074.105832373961
 31
0.0
  0
LINE
  5
A1
330
1F
100
AcDbEntity
  8
0-2_柱
  6
Continuous
 62
    92
370
    13
100
AcDbLine
 10
2175.038803012594
 20
2074.105832373961
 30
0.0
 11
2355.038803012594
 21
2074.105832373961
 31
0.0
  0
LINE
  5
A2
330
1F
100
AcDbEntity
  8
0-2_柱
  6
Continuous
 62
    92
370
    13
100
AcDbLine
 10
2355.038803012594
 20
2074.105832373961
 30
0.0
 11
2355.038803012594
 21
2704.105832373961
 31
0.0
  0
LINE
  5
A3
330
1F
100
AcDbEntity
  8
0-C_ハッチ
  6
JWW_DASHED1
 62
   120
370
     5
100
AcDbLine
 10
2467.599059800367
 20
1999.105832373969
 30
0.0
 11
2475.038803120933
 21
2006.545575694535
 31
0.0
  0
LINE
  5
A4
330
1F
100
AcDbEntity
  8
0-C_ハッチ
  6
JWW_DASHED1
 62
   120
370
     5
100
AcDbLine
 10
2425.172652929155
 20
1999.105832373958
 30
0.0
 11
2475.03880312095
 21
2048.971982565752
 31
0.0
  0
LINE
  5
A5
330
1F
100
AcDbEntity
  8
0-C_ハッチ
  6
JWW_DASHED1
 62
   120
370
     5
100
AcDbLine
 10
2382.746246057961
 20
1999.105832373963
 30
0.0
 11
2457.746246057954
 21
2074.105832373956
 31
0.0
  0
LINE
  5
A6
330
1F
100
AcDbEntity
  8
0-C_ハッチ
  6
JWW_DASHED1
 62
   120
370
     5
100
AcDbLine
 10
2340.319839186759
 20
1999.105832373962
 30
0.0
 11
2415.319839186756
 21
2074.105832373959
 31
0.0
  0
LINE
  5
A7
330
1F
100
AcDbEntity
  8
0-C_ハッチ
  6
JWW_DASHED1
 62
   120
370
     5
100
AcDbLine
 10
2297.893432315622
 20
1999.105832373969
 30
0.0
 11
2372.893432315618
 21
2074.105832373966
 31
0.0
  0
LINE
  5
A8
330
1F
100
AcDbEntity
  8
0-C_ハッチ
  6
JWW_DASHED1
 62
   120
370
     5
100
AcDbLine
 10
2255.467025444424
 20
1999.105832373973
 30
0.0
 11
2330.46702544442
 21
2074.105832373969
 31
0.0
  0
LINE
  5
A9
330
1F
100
AcDbEntity
  8
0-C_ハッチ
  6
JWW_DASHED1
 62
   120
370
     5
100
AcDbLine
 10
2213.040618573212
 20
1999.10583237396
 30
0.0
 11
2288.040618573224
 21
2074.105832373972
 31
0.0
  0
LINE
  5
AA
330
1F
100
AcDbEntity
  8
0-C_ハッチ
  6
JWW_DASHED1
 62
   120
370
     5
100
AcDbLine
 10
2170.614211702015
 20
1999.105832373962
 30
0.0
 11
2245.614211702027
 21
2074.105832373974
 31
0.0
  0
LINE
  5
AB
330
1F
100
AcDbEntity
  8
0-C_ハッチ
  6
JWW_DASHED1
 62
   120
370
     5
100
AcDbLine
 10
2145.038803012587
 20
2015.956830555735
 30
0.0
 11
2203.187804830827
 21
2074.105832373975
 31
0.0
  0
LINE
  5
AC
330
1F
100
AcDbEntity
  8
0-C_ハッチ
  6
JWW_DASHED1
 62
   120
370
     5
100
AcDbLine
 10
2145.03880301259
 20
2058.383237426937
 30
0.0
 11
2160.761397959617
 21
2074.105832373964
 31
0.0
  0
LINE
  5
AD
330
1F
100
AcDbEntity
  8
0-C_ハッチ
  6
JWW_DASHED1
 62
   120
370
     5
100
AcDbLine
 10
2451.350142990065
 20
2704.105832373958
 30
0.0
 11
2475.038803120947
 21
2727.79449250484
 31
0.0
  0
LINE
  5
AE
330
1F
100
AcDbEntity
  8
0-C_ハッチ
  6
JWW_DASHED1
 62
   120
370
     5
100
AcDbLine
 10
2408.923736118867
 20
2704.105832373961
 30
0.0
 11
2475.038803120946
 21
2770.220899376039
 31
0.0
  0
LINE
  5
AF
330
1F
100
AcDbEntity
  8
0-C_ハッチ
  6
JWW_DASHED1
 62
   120
370
     5
100
AcDbLine
 10
2366.497329247729
 20
2704.105832373967
 30
0.0
 11
2441.497329247726
 21
2779.105832373964
 31
0.0
  0
LINE
  5
B0
330
1F
100
AcDbEntity
  8
0-C_ハッチ
  6
JWW_DASHED1
 62
   120
370
     5
100
AcDbLine
 10
2324.070922376531
 20
2704.105832373971
 30
0.0
 11
2399.070922376528
 21
2779.105832373967
 31
0.0
  0
LINE
  5
B1
330
1F
100
AcDbEntity
  8
0-C_ハッチ
  6
JWW_DASHED1
 62
   120
370
     5
100
AcDbLine
 10
2281.644515505334
 20
2704.105832373973
 30
0.0
 11
2356.644515505331
 21
2779.10583237397
 31
0.0
  0
LINE
  5
B2
330
1F
100
AcDbEntity
  8
0-C_ハッチ
  6
JWW_DASHED1
 62
   120
370
     5
100
AcDbLine
 10
2239.218108634122
 20
2704.105832373961
 30
0.0
 11
2314.218108634134
 21
2779.105832373973
 31
0.0
  0
LINE
  5
B3
330
1F
100
AcDbEntity
  8
0-C_ハッチ
  6
JWW_DASHED1
 62
   120
370
     5
100
AcDbLine
 10
2196.791701762922
 20
2704.105832373961
 30
0.0
 11
2271.791701762931
 21
2779.10583237397
 31
0.0
  0
LINE
  5
B4
330
1F
100
AcDbEntity
  8
0-C_ハッチ
  6
JWW_DASHED1
 62
   120
370
     5
100
AcDbLine
 10
2154.365294891727
 20
2704.105832373966
 30
0.0
 11
2229.365294891736
 21
2779.105832373975
 31
0.0
  0
LINE
  5
B5
330
1F
100
AcDbEntity
  8
0-C_ハッチ
  6
JWW_DASHED1
 62
   120
370
     5
100
AcDbLine
 10
2145.038803012587
 20
2737.205747366026
 30
0.0
 11
2186.938888020526
 21
2779.105832373964
 31
0.0
  0
LINE
  5
B6
330
1F
100
AcDbEntity
  8
0-3_仕上げ
  6
Continuous
 62
    40
370
    15
100
AcDbLine
 10
-2125.201717325961
 20
1999.105832373961
 30
0.0
 11
-2125.201717325961
 21
2074.105832373961
 31
0.0
  0
LINE
  5
B7
330
1F
100
AcDbEntity
  8
0-3_仕上げ
  6
Continuous
 62
    40
370
    15
100
AcDbLine
 10
-2125.201717325961
 20
1999.105832373961
 30
0.0
 11
-2455.201717519063
 21
1999.105832373961
 31
0.0
  0
LINE
  5
B8
330
1F
100
AcDbEntity
  8
0-3_仕上げ
  6
Continuous
 62
    40
370
    15
100
AcDbLine
 10
-2125.201717325961
 20
2074.105832373961
 30
0.0
 11
-2455.201717519063
 21
2074.105832373961
 31
0.0
  0
LINE
  5
B9
330
1F
100
AcDbEntity
  8
0-3_仕上げ
  6
Continuous
 62
    40
370
    15
100
AcDbLine
 10
-2125.201717325961
 20
2704.105832373961
 30
0.0
 11
-2455.201717519063
 21
2704.105832373961
 31
0.0
  0
LINE
  5
BA
330
1F
100
AcDbEntity
  8
0-2_柱
  6
Continuous
 62
    92
370
    13
100
AcDbLine
 10
-2155.201717325961
 20
2704.105832373961
 30
0.0
 11
-2335.201717325961
 21
2704.105832373961
 31
0.0
  0
LINE
  5
BB
330
1F
100
AcDbEntity
  8
0-2_柱
  6
Continuous
 62
    92
370
    13
100
AcDbLine
 10
-2335.201717325961
 20
2704.105832373961
 30
0.0
 11
-2335.201717325961
 21
2074.105832373961
 31
0.0
  0
LINE
  5
BC
330
1F
100
AcDbEntity
  8
0-2_柱
  6
Continuous
 62
    92
370
    13
100
AcDbLine
 10
-2335.201717325961
 20
2074.105832373961
 30
0.0
 11
-2155.201717325961
 21
2074.105832373961
 31
0.0
  0
LINE
  5
BD
330
1F
100
AcDbEntity
  8
0-2_柱
  6
Continuous
 62
    92
370
    13
100
AcDbLine
 10
-2155.201717325961
 20
2074.105832373961
 30
0.0
 11
-2155.201717325961
 21
2704.105832373961
 31
0.0
  0
LINE
  5
BE
330
1F
100
AcDbEntity
  8
0-C_ハッチ
  6
JWW_DASHED1
 62
   120
370
     5
100
AcDbLine
 10
-2125.203965478202
 20
1999.105832373948
 30
0.0
 11
-2125.201717325947
 21
1999.108080526202
 31
0.0
  0
LINE
  5
BF
330
1F
100
AcDbEntity
  8
0-C_ハッチ
  6
JWW_DASHED1
 62
   120
370
     5
100
AcDbLine
 10
-2167.630372349397
 20
1999.105832373952
 30
0.0
 11
-2125.201717325949
 21
2041.534487397401
 31
0.0
  0
LINE
  5
C0
330
1F
100
AcDbEntity
  8
0-C_ハッチ
  6
JWW_DASHED1
 62
   120
370
     5
100
AcDbLine
 10
-2210.056779220594
 20
1999.105832373957
 30
0.0
 11
-2135.056779220599
 21
2074.105832373951
 31
0.0
  0
LINE
  5
C1
330
1F
100
AcDbEntity
  8
0-C_ハッチ
  6
JWW_DASHED1
 62
   120
370
     5
100
AcDbLine
 10
-2252.483186091788
 20
1999.105832373962
 30
0.0
 11
-2177.483186091794
 21
2074.105832373956
 31
0.0
  0
LINE
  5
C2
330
1F
100
AcDbEntity
  8
0-C_ハッチ
  6
JWW_DASHED1
 62
   120
370
     5
100
AcDbLine
 10
-2294.909592962926
 20
1999.105832373971
 30
0.0
 11
-2219.909592962931
 21
2074.105832373965
 31
0.0
  0
LINE
  5
C3
330
1F
100
AcDbEntity
  8
0-C_ハッチ
  6
JWW_DASHED1
 62
   120
370
     5
100
AcDbLine
 10
-2337.335999834126
 20
1999.105832373969
 30
0.0
 11
-2262.335999834136
 21
2074.10583237396
 31
0.0
  0
LINE
  5
C4
330
1F
100
AcDbEntity
  8
0-C_ハッチ
  6
JWW_DASHED1
 62
   120
370
     5
100
AcDbLine
 10
-2379.762406705332
 20
1999.105832373964
 30
0.0
 11
-2304.762406705339
 21
2074.105832373958
 31
0.0
  0
LINE
  5
C5
330
1F
100
AcDbEntity
  8
0-C_ハッチ
  6
JWW_DASHED1
 62
   120
370
     5
100
AcDbLine
 10
-2422.188813576543
 20
1999.105832373952
 30
0.0
 11
-2347.188813576532
 21
2074.105832373962
 31
0.0
  0
LINE
  5
C6
330
1F
100
AcDbEntity
  8
0-C_ハッチ
  6
JWW_DASHED1
 62
   120
370
     5
100
AcDbLine
 10
-2455.201717519059
 20
2008.519335302636
 30
0.0
 11
-2389.615220447729
 21
2074.105832373967
 31
0.0
  0
LINE
  5
C7
330
1F
100
AcDbEntity
  8
0-C_ハッチ
  6
JWW_DASHED1
 62
   120
370
     5
100
AcDbLine
 10
-2455.201717519058
 20
2050.945742173837
 30
0.0
 11
-2432.041627318939
 21
2074.105832373955
 31
0.0
  0
LINE
  5
C8
330
1F
100
AcDbEntity
  8
0-C_ハッチ
  6
JWW_DASHED1
 62
   120
370
     5
100
AcDbLine
 10
-2141.452882288488
 20
2704.105832373953
 30
0.0
 11
-2125.201717325954
 21
2720.356997336487
 31
0.0
  0
LINE
  5
C9
330
1F
100
AcDbEntity
  8
0-C_ハッチ
  6
JWW_DASHED1
 62
   120
370
     5
100
AcDbLine
 10
-2183.879289159683
 20
2704.105832373958
 30
0.0
 11
-2125.201717325953
 21
2762.783404207689
 31
0.0
  0
LINE
  5
CA
330
1F
100
AcDbEntity
  8
0-C_ハッチ
  6
JWW_DASHED1
 62
   120
370
     5
100
AcDbLine
 10
-2226.30569603085
 20
2704.105832373964
 30
0.0
 11
-2151.305696030856
 21
2779.105832373958
 31
0.0
  0
LINE
  5
CB
330
1F
100
AcDbEntity
  8
0-C_ハッチ
  6
JWW_DASHED1
 62
   120
370
     5
100
AcDbLine
 10
-2268.732102902025
 20
2704.105832373962
 30
0.0
 11
-2193.732102902034
 21
2779.105832373952
 31
0.0
  0
LINE
  5
CC
330
1F
100
AcDbEntity
  8
0-C_ハッチ
  6
JWW_DASHED1
 62
   120
370
     5
100
AcDbLine
 10
-2311.158509773227
 20
2704.10583237396
 30
0.0
 11
-2236.158509773234
 21
2779.105832373953
 31
0.0
  0
LINE
  5
CD
330
1F
100
AcDbEntity
  8
0-C_ハッチ
  6
JWW_DASHED1
 62
   120
370
     5
100
AcDbLine
 10
-2353.584916644423
 20
2704.105832373964
 30
0.0
 11
-2278.584916644429
 21
2779.105832373958
 31
0.0
  0
LINE
  5
CE
330
1F
100
AcDbEntity
  8
0-C_ハッチ
  6
JWW_DASHED1
 62
   120
370
     5
100
AcDbLine
 10
-2396.011323515634
 20
2704.105832373953
 30
0.0
 11
-2321.011323515623
 21
2779.105832373962
 31
0.0
  0
LINE
  5
CF
330
1F
100
AcDbEntity
  8
0-C_ハッチ
  6
JWW_DASHED1
 62
   120
370
     5
100
AcDbLine
 10
-2438.437730386829
 20
2704.105832373958
 30
0.0
 11
-2363.43773038682
 21
2779.105832373967
 31
0.0
  0
LINE
  5
D0
330
1F
100
AcDbEntity
  8
0-C_ハッチ
  6
JWW_DASHED1
 62
   120
370
     5
100
AcDbLine
 10
-2455.201717519061
 20
2729.768252112925
 30
0.0
 11
-2405.86413725803
 21
2779.105832373956
 31
0.0
  0
LINE
  5
D1
330
1F
100
AcDbEntity
  8
0-C_ハッチ
  6
JWW_DASHED1
 62
   120
370
     5
100
AcDbLine
 10
-2455.201717519063
 20
2772.194658984125
 30
0.0
 11
-2448.290544129227
 21
2779.10583237396
 31
0.0
  0
LINE
  5
D2
330
1F
100
AcDbEntity
  8
0-A_文字
  6
Continuous
 62
     7
370
     9
100
AcDbLine
 10
2065.116829518581
 20
2981.889375272914
 30
0.0
 11
2025.556196685103
 21
2981.889375272914
 31
0.0
  0
MTEXT
  5
D3
330
1F
100
AcDbEntity
  8
0-A_文字
  6
Continuous
 62
     7
370
     0
100
AcDbMText
 10
2055.556196685103
 20
2907.609375272913
 30
0.0
 40
91.43999999999984
 41
239.9999999999996
 46
0.0
 71
     7
 72
     1
  1
{\fＭＳ ゴシック|b0|i0|c128|p49;畳寄}
 73
     1
 44
1.0
  0
LINE
  5
D4
330
1F
100
AcDbEntity
  8
0-A_文字
  6
Continuous
 62
     7
370
     9
100
AcDbLine
 10
1965.778059006715
 20
2839.55959704901
 30
0.0
 11
2025.556196685103
 21
2981.889375272914
 31
0.0
  0
LINE
  5
D5
330
1F
100
AcDbEntity
  8
0-A_文字
  6
Continuous
 62
     7
370
     9
100
AcDbLine
 10
-281.0814571566817
 20
3223.662513080516
 30
0.0
 11
-281.0814571566817
 21
2983.662513080516
 31
0.0
  0
MTEXT
  5
D6
330
1F
100
AcDbEntity
  8
0-A_文字
  6
Continuous
 62
     7
370
     9
100
AcDbMText
 10
-221.0814571566815
 20
3029.382513080515
 30
0.0
 40
91.43999999999994
 41
479.9999999999998
 46
0.0
 71
     7
 72
     1
  1
{\fＭＳ ゴシック|b0|i0|c128|p49;和室側・}
 73
     1
 44
1.0
  0
LINE
  5
D7
330
1F
100
AcDbEntity
  8
0-A_文字
  6
Continuous
 62
     7
370
     9
100
AcDbLine
 10
318.9185428433183
 20
3223.662513080516
 30
0.0
 11
-281.0814571566817
 21
3223.662513080516
 31
0.0
  0
LINE
  5
D8
330
1F
100
AcDbEntity
  8
0-A_文字
  6
Continuous
 62
     7
370
     9
100
AcDbLine
 10
-281.0814571566817
 20
2983.662513080516
 30
0.0
 11
318.9185428433183
 21
2983.662513080516
 31
0.0
  0
LINE
  5
D9
330
1F
100
AcDbEntity
  8
0-A_文字
  6
Continuous
 62
     7
370
     9
100
AcDbLine
 10
318.9185428433183
 20
2983.662513080516
 30
0.0
 11
318.9185428433183
 21
3223.662513080516
 31
0.0
  0
MTEXT
  5
DA
330
1F
100
AcDbEntity
  8
0-B_寸法
  6
Continuous
 62
     7
370
     0
100
AcDbMText
 10
-2186.217360957189
 20
3079.746229144581
 30
0.0
 40
91.44
 41
60.0
 46
0.0
 71
     7
 72
     1
  1
{\fＭＳ ゴシック|b0|i0|c128|p49;5}
 73
     1
 44
1.0
  0
MTEXT
  5
DB
330
1F
100
AcDbEntity
  8
0-B_寸法
  6
Continuous
 62
     7
370
     0
100
AcDbMText
 10
-1989.297615306134
 20
3083.786650917153
 30
0.0
 40
97.15499999999999
 41
127.5
 46
0.0
 71
     7
 72
     1
  1
{\fＭＳ ゴシック|b0|i0|c128|p49;10}
 73
     1
 44
1.0
  0
MTEXT
  5
DC
330
1F
100
AcDbEntity
  8
0-B_寸法
  6
Continuous
 62
     7
370
     0
100
AcDbMText
 10
-2097.498228014474
 20
3082.112072689721
 30
0.0
 40
91.44
 41
60.0
 46
0.0
 71
     7
 72
     1
  1
{\fＭＳ ゴシック|b0|i0|c128|p49;9}
 73
     1
 44
1.0
  0
MTEXT
  5
DD
330
1F
100
AcDbEntity
  8
0-B_寸法
  6
Continuous
 62
     7
370
     0
100
AcDbMText
 10
-2117.814225299508
 20
3226.312302431773
 30
0.0
 40
97.15499999999999
 41
127.5
 46
0.0
 71
     7
 72
     1
  1
{\fＭＳ ゴシック|b0|i0|c128|p49;24}
 73
     1
 44
1.0
  0
MTEXT
  5
DE
330
1F
100
AcDbEntity
  8
0-A_文字
  6
Continuous
 62
     7
370
     9
100
AcDbMText
 10
-2455.201717519063
 20
3413.460289963092
 30
0.0
 40
100.584
 41
660.0
 46
0.0
 71
     7
 72
     1
  1
{\fＭＳ ゴシック|b0|i0|c128|p49;■横断面図}
 73
     1
 44
1.0
  0
LINE
  5
DF
330
1F
100
AcDbEntity
  8
0-B_寸法
  6
Continuous
 62
   120
370
     5
100
AcDbLine
 10
-2125.201717325961
 20
3093.104688301089
 30
0.0
 11
-1981.201717325957
 21
3093.104688301089
 31
0.0
  0
LINE
  5
E0
330
1F
100
AcDbEntity
  8
0-B_寸法
  6
Continuous
 62
   120
370
     5
100
AcDbLine
 10
-2125.201717325961
 20
3234.247082663614
 30
0.0
 11
-2125.201717325961
 21
2939.999683282197
 31
0.0
  0
LINE
  5
E1
330
1F
100
AcDbEntity
  8
0-B_寸法
  6
Continuous
 62
   120
370
     5
100
AcDbLine
 10
-2095.201573810864
 20
3093.104688301089
 30
0.0
 11
-2095.201573810864
 21
2939.999683282197
 31
0.0
  0
LINE
  5
E2
330
1F
100
AcDbEntity
  8
0-B_寸法
  6
Continuous
 62
   120
370
     5
100
AcDbLine
 10
-2041.201544118082
 20
3093.104688301089
 30
0.0
 11
-2041.201544118082
 21
2939.999683282197
 31
0.0
  0
LINE
  5
E3
330
1F
100
AcDbEntity
  8
0-B_寸法
  6
Continuous
 62
   120
370
     5
100
AcDbLine
 10
-1981.201717325957
 20
3234.247082663614
 30
0.0
 11
-1981.201717325957
 21
2939.999683282197
 31
0.0
  0
LINE
  5
E4
330
1F
100
AcDbEntity
  8
0-B_寸法
  6
Continuous
 62
   120
370
     5
100
AcDbLine
 10
-2125.201717325961
 20
3234.247082663614
 30
0.0
 11
-1981.201717325957
 21
3234.247082663614
 31
0.0
  0
LWPOLYLINE
  5
E5
330
1F
100
AcDbEntity
  8
0-B_寸法
  6
Continuous
 62
     7
370
     9
100
AcDbPolyline
 90
        4
 70
     1
 43
3.0
 10
-2123.701717325961
 20
3093.104688301089
 42
0.4142135623731
 10
-2125.201717325961
 20
3094.604688301089
 42
0.4142135623731
 10
-2126.701717325961
 20
3093.104688301089
 42
0.4142135623731
 10
-2125.201717325961
 20
3091.604688301089
 42
0.4142135623731
  0
LWPOLYLINE
  5
E6
330
1F
100
AcDbEntity
  8
0-B_寸法
  6
Continuous
 62
     7
370
     9
100
AcDbPolyline
 90
        4
 70
     1
 43
3.0
 10
-2093.701573810864
 20
3093.104688301089
 42
0.4142135623731
 10
-2095.201573810864
 20
3094.604688301089
 42
0.4142135623731
 10
-2096.701573810864
 20
3093.104688301089
 42
0.4142135623731
 10
-2095.201573810864
 20
3091.604688301089
 42
0.4142135623731
  0
LWPOLYLINE
  5
E7
330
1F
100
AcDbEntity
  8
0-B_寸法
  6
Continuous
 62
     7
370
     9
100
AcDbPolyline
 90
        4
 70
     1
 43
3.0
 10
-2039.701544118082
 20
3093.104688301089
 42
0.4142135623731
 10
-2041.201544118082
 20
3094.604688301089
 42
0.4142135623731
 10
-2042.701544118082
 20
3093.104688301089
 42
0.4142135623731
 10
-2041.201544118082
 20
3091.604688301089
 42
0.4142135623731
  0
LWPOLYLINE
  5
E8
330
1F
100
AcDbEntity
  8
0-B_寸法
  6
Continuous
 62
     7
370
     9
100
AcDbPolyline
 90
        4
 70
     1
 43
3.0
 10
-1979.701717325957
 20
3093.104688301089
 42
0.4142135623731
 10
-1981.201717325957
 20
3094.604688301089
 42
0.4142135623731
 10
-1982.701717325957
 20
3093.104688301089
 42
0.4142135623731
 10
-1981.201717325957
 20
3091.604688301089
 42
0.4142135623731
  0
LWPOLYLINE
  5
E9
330
1F
100
AcDbEntity
  8
0-B_寸法
  6
Continuous
 62
     7
370
     9
100
AcDbPolyline
 90
        4
 70
     1
 43
3.0
 10
-2123.701717325961
 20
3234.247082663614
 42
0.4142135623731
 10
-2125.201717325961
 20
3235.747082663614
 42
0.4142135623731
 10
-2126.701717325961
 20
3234.247082663614
 42
0.4142135623731
 10
-2125.201717325961
 20
3232.747082663614
 42
0.4142135623731
  0
LWPOLYLINE
  5
EA
330
1F
100
AcDbEntity
  8
0-B_寸法
  6
Continuous
 62
     7
370
     9
100
AcDbPolyline
 90
        4
 70
     1
 43
3.0
 10
-1979.701717325957
 20
3234.247082663614
 42
0.4142135623731
 10
-1981.201717325957
 20
3235.747082663614
 42
0.4142135623731
 10
-1982.701717325957
 20
3234.247082663614
 42
0.4142135623731
 10
-1981.201717325957
 20
3232.747082663614
 42
0.4142135623731
  0
LINE
  5
EB
330
1F
100
AcDbEntity
  8
0-0_補助線
  6
JWW_HOJO
 62
   120
370
     5
100
AcDbLine
 10
2475.038803120942
 20
2939.999683277028
 30
0.0
 11
-2455.201717519063
 21
2939.999683277028
 31
0.0
  0
MTEXT
  5
EC
330
1F
100
AcDbEntity
  8
0-B_寸法
  6
Continuous
 62
     7
370
     0
100
AcDbMText
 10
-1677.048964253538
 20
2344.667076243677
 30
0.0
 40
99.06
 41
195.0
 46
0.0
 71
     7
 72
     1
  1
{\fＭＳ ゴシック|b0|i0|c128|p49;113}
 11
6.123031769111886E-17
 21
1.0
 31
0.0
 73
     1
 44
1.0
  0
LINE
  5
ED
330
1F
100
AcDbEntity
  8
0-4_枠
  6
Continuous
 62
    92
370
    13
100
AcDbLine
 10
2061.038803012593
 20
2774.999683277028
 30
0.0
 11
2004.038803012594
 21
2774.999683277028
 31
0.0
  0
LINE
  5
EE
330
1F
100
AcDbEntity
  8
0-4_枠
  6
Continuous
 62
    92
370
    13
100
AcDbLine
 10
2061.038803012593
 20
2777.999683277028
 30
0.0
 11
2001.038803012593
 21
2777.999683277028
 31
0.0
  0
LINE
  5
EF
330
1F
100
AcDbEntity
  8
0-4_枠
  6
Continuous
 62
    92
370
    13
100
AcDbLine
 10
2061.038803012593
 20
2102.999683277028
 30
0.0
 11
2004.038803012594
 21
2102.999683277028
 31
0.0
  0
LINE
  5
F0
330
1F
100
AcDbEntity
  8
0-4_枠
  6
Continuous
 62
    92
370
    13
100
AcDbLine
 10
2061.038803012593
 20
2099.999683277028
 30
0.0
 11
2001.038803012593
 21
2099.999683277028
 31
0.0
  0
LINE
  5
F1
330
1F
100
AcDbEntity
  8
0-7_金物
  6
Continuous
 62
     7
370
     9
100
AcDbLine
 10
2160.038382364897
 20
2528.999980204815
 30
0.0
 11
2160.038382364897
 21
2349.000128668708
 31
0.0
  0
LINE
  5
F2
330
1F
100
AcDbEntity
  8
0-7_金物
  6
Continuous
 62
     7
370
     9
100
AcDbLine
 10
2175.038803012594
 20
2528.999980204815
 30
0.0
 11
2175.038803012594
 21
2349.000128668708
 31
0.0
  0
LINE
  5
F3
330
1F
100
AcDbEntity
  8
0-7_金物
  6
Continuous
 62
     7
370
     9
100
AcDbLine
 10
2160.038382364897
 20
2498.999881228885
 30
0.0
 11
2148.038417006472
 21
2498.999881228885
 31
0.0
  0
LINE
  5
F4
330
1F
100
AcDbEntity
  8
0-7_金物
  6
Continuous
 62
     7
370
     9
100
AcDbLine
 10
2160.038382364897
 20
2379.000227644638
 30
0.0
 11
2148.038417006472
 21
2379.000227644638
 31
0.0
  0
LINE
  5
F5
330
1F
100
AcDbEntity
  8
0-7_金物
  6
Continuous
 62
     7
370
     9
100
AcDbLine
 10
2148.038417006472
 20
2498.999881228885
 30
0.0
 11
2148.038417006472
 21
2379.000227644638
 31
0.0
  0
LINE
  5
F6
330
1F
100
AcDbEntity
  8
0-7_金物
  6
Continuous
 62
     7
370
     9
100
AcDbLine
 10
2175.038803012594
 20
2528.999980204815
 30
0.0
 11
2160.038382364897
 21
2528.999980204815
 31
0.0
  0
LINE
  5
F7
330
1F
100
AcDbEntity
  8
0-7_金物
  6
Continuous
 62
     7
370
     9
100
AcDbLine
 10
2175.038803012594
 20
2349.000128668708
 30
0.0
 11
2160.038382364897
 21
2349.000128668708
 31
0.0
  0
LINE
  5
F8
330
1F
100
AcDbEntity
  8
0-7_金物
  6
Continuous
 62
     7
370
     9
100
AcDbLine
 10
2148.038417006472
 20
2492.999712969806
 30
0.0
 11
2145.038803012594
 21
2492.999712969806
 31
0.0
  0
LINE
  5
F9
330
1F
100
AcDbEntity
  8
0-7_金物
  6
Continuous
 62
     7
370
     9
100
AcDbLine
 10
2148.038417006472
 20
2384.999653584248
 30
0.0
 11
2145.038803012594
 21
2384.999653584248
 31
0.0
  0
LINE
  5
FA
330
1F
100
AcDbEntity
  8
0-6_扉
  6
Continuous
 62
   200
370
    20
100
AcDbLine
 10
1989.038803012594
 20
2345.999683277028
 30
0.0
 11
1989.038803012594
 21
2129.999683277028
 31
0.0
  0
LINE
  5
FB
330
1F
100
AcDbEntity
  8
0-4_枠
  6
Continuous
 62
    92
370
    13
100
AcDbLine
 10
2061.038803012593
 20
2777.999683277028
 30
0.0
 11
2061.038803012593
 21
2717.999683277028
 31
0.0
  0
LINE
  5
FC
330
1F
100
AcDbEntity
  8
0-4_枠
  6
Continuous
 62
    92
370
    13
100
AcDbLine
 10
2115.038803012594
 20
2717.999683277028
 30
0.0
 11
2061.038803012593
 21
2717.999683277028
 31
0.0
  0
LINE
  5
FD
330
1F
100
AcDbEntity
  8
0-4_枠
  6
Continuous
 62
    92
370
    13
100
AcDbLine
 10
2115.038803012594
 20
2717.999683277028
 30
0.0
 11
2115.038803012594
 21
2777.999683277028
 31
0.0
  0
LINE
  5
FE
330
1F
100
AcDbEntity
  8
0-4_枠
  6
Continuous
 62
    92
370
    13
100
AcDbLine
 10
2145.038803012594
 20
2777.999683277028
 30
0.0
 11
2115.038803012594
 21
2777.999683277028
 31
0.0
  0
LINE
  5
FF
330
1F
100
AcDbEntity
  8
0-4_枠
  6
Continuous
 62
    92
370
    13
100
AcDbLine
 10
2145.038803012594
 20
2777.999683277028
 30
0.0
 11
2145.038803012594
 21
2099.999683277028
 31
0.0
  0
LINE
  5
100
330
1F
100
AcDbEntity
  8
0-4_枠
  6
Continuous
 62
    92
370
    13
100
AcDbLine
 10
2145.038803012594
 20
2099.999683277028
 30
0.0
 11
2115.038803012594
 21
2099.999683277028
 31
0.0
  0
LINE
  5
101
330
1F
100
AcDbEntity
  8
0-4_枠
  6
Continuous
 62
    92
370
    13
100
AcDbLine
 10
2115.038803012594
 20
2099.999683277028
 30
0.0
 11
2115.038803012594
 21
2159.999683277028
 31
0.0
  0
LINE
  5
102
330
1F
100
AcDbEntity
  8
0-4_枠
  6
Continuous
 62
    92
370
    13
100
AcDbLine
 10
2061.038803012593
 20
2099.999683277028
 30
0.0
 11
2061.038803012593
 21
2159.999683277028
 31
0.0
  0
LINE
  5
103
330
1F
100
AcDbEntity
  8
0-4_枠
  6
Continuous
 62
    92
370
    13
100
AcDbLine
 10
2115.038803012594
 20
2159.999683277028
 30
0.0
 11
2061.038803012593
 21
2159.999683277028
 31
0.0
  0
LINE
  5
104
330
1F
100
AcDbEntity
  8
0-C_ハッチ
  6
Continuous
 62
   120
370
     5
100
AcDbLine
 10
2121.511617925919
 20
2099.999683277026
 30
0.0
 11
2145.038803012589
 21
2123.526868363697
 31
0.0
  0
LINE
  5
105
330
1F
100
AcDbEntity
  8
0-C_ハッチ
  6
Continuous
 62
   120
370
     5
100
AcDbLine
 10
2115.038803012583
 20
2152.923837983392
 30
0.0
 11
2145.038803012589
 21
2182.923837983399
 31
0.0
  0
LINE
  5
106
330
1F
100
AcDbEntity
  8
0-C_ハッチ
  6
Continuous
 62
   120
370
     5
100
AcDbLine
 10
2005.717678686578
 20
2102.999683277035
 30
0.0
 11
2061.038803012586
 21
2158.320807603043
 31
0.0
  0
LINE
  5
107
330
1F
100
AcDbEntity
  8
0-C_ハッチ
  6
Continuous
 62
   120
370
     5
100
AcDbLine
 10
2062.717678686577
 20
2159.999683277036
 30
0.0
 11
2145.038803012599
 21
2242.320807603057
 31
0.0
  0
LINE
  5
108
330
1F
100
AcDbEntity
  8
0-C_ハッチ
  6
Continuous
 62
   120
370
     5
100
AcDbLine
 10
2004.038803012602
 20
2160.717777222704
 30
0.0
 11
2145.038803012597
 21
2301.7177772227
 31
0.0
  0
LINE
  5
109
330
1F
100
AcDbEntity
  8
0-C_ハッチ
  6
Continuous
 62
   120
370
     5
100
AcDbLine
 10
2004.038803012596
 20
2220.114746842401
 30
0.0
 11
2145.038803012597
 21
2361.114746842402
 31
0.0
  0
LINE
  5
10A
330
1F
100
AcDbEntity
  8
0-C_ハッチ
  6
Continuous
 62
   120
370
     5
100
AcDbLine
 10
2004.038803012602
 20
2279.511716462055
 30
0.0
 11
2145.03880301259
 21
2420.511716462045
 31
0.0
  0
LINE
  5
10B
330
1F
100
AcDbEntity
  8
0-C_ハッチ
  6
Continuous
 62
   120
370
     5
100
AcDbLine
 10
2001.038803012586
 20
2395.305655701389
 30
0.0
 11
2145.038803012601
 21
2539.305655701403
 31
0.0
  0
LINE
  5
10C
330
1F
100
AcDbEntity
  8
0-C_ハッチ
  6
Continuous
 62
   120
370
     5
100
AcDbLine
 10
2004.038803012591
 20
2517.099594940742
 30
0.0
 11
2145.038803012597
 21
2658.099594940747
 31
0.0
  0
LINE
  5
10D
330
1F
100
AcDbEntity
  8
0-C_ハッチ
  6
Continuous
 62
   120
370
     5
100
AcDbLine
 10
2004.038803012602
 20
2576.4965645604
 30
0.0
 11
2145.038803012592
 21
2717.496564560391
 31
0.0
  0
LINE
  5
10E
330
1F
100
AcDbEntity
  8
0-C_ハッチ
  6
Continuous
 62
   120
370
     5
100
AcDbLine
 10
2004.038803012592
 20
2635.893534180093
 30
0.0
 11
2086.144952109532
 21
2717.999683277034
 31
0.0
  0
LINE
  5
10F
330
1F
100
AcDbEntity
  8
0-C_ハッチ
  6
Continuous
 62
   120
370
     5
100
AcDbLine
 10
2115.038803012583
 20
2746.893534180085
 30
0.0
 11
2145.03880301259
 21
2776.893534180093
 31
0.0
  0
LINE
  5
110
330
1F
100
AcDbEntity
  8
0-C_ハッチ
  6
Continuous
 62
   120
370
     5
100
AcDbLine
 10
2004.038803012596
 20
2695.290503799745
 30
0.0
 11
2061.038803012585
 21
2752.290503799734
 31
0.0
  0
LINE
  5
111
330
1F
100
AcDbEntity
  8
0-C_ハッチ
  6
Continuous
 62
   120
370
     5
100
AcDbLine
 10
2004.038803012594
 20
2754.687473419444
 30
0.0
 11
2024.351012870174
 21
2774.999683277024
 31
0.0
  0
LINE
  5
112
330
1F
100
AcDbEntity
  8
0-6_扉
  6
Continuous
 62
   200
370
    20
100
AcDbLine
 10
1989.038803012594
 20
2129.999683277028
 30
0.0
 11
78.91854284331828
 21
2129.999683277028
 31
0.0
  0
LINE
  5
113
330
1F
100
AcDbEntity
  8
0-6_扉
  6
Continuous
 62
   200
370
    20
100
AcDbLine
 10
1989.038803012594
 20
2345.999683277028
 30
0.0
 11
78.91854284331828
 21
2345.999683277028
 31
0.0
  0
LINE
  5
114
330
1F
100
AcDbEntity
  8
0-4_枠
  6
Continuous
 62
    92
370
    13
100
AcDbLine
 10
2052.038700015766
 20
2360.999683277028
 30
0.0
 11
2052.038700015766
 21
2383.199683277028
 31
0.0
  0
LINE
  5
115
330
1F
100
AcDbEntity
  8
0-4_枠
  6
Continuous
 62
    92
370
    13
100
AcDbLine
 10
2001.038803012593
 20
2383.199683277028
 30
0.0
 11
2001.038803012593
 21
2494.799683277027
 31
0.0
  0
LINE
  5
116
330
1F
100
AcDbEntity
  8
0-4_枠
  6
Continuous
 62
    92
370
    13
100
AcDbLine
 10
2052.038700015766
 20
2360.999683277028
 30
0.0
 11
2001.038700015768
 21
2360.999683277028
 31
0.0
  0
LINE
  5
117
330
1F
100
AcDbEntity
  8
0-4_枠
  6
Continuous
 62
    92
370
    13
100
AcDbLine
 10
2001.038803012593
 20
2383.199683277028
 30
0.0
 11
2052.038700015766
 21
2383.199683277028
 31
0.0
  0
LINE
  5
118
330
1F
100
AcDbEntity
  8
0-4_枠
  6
Continuous
 62
    92
370
    13
100
AcDbLine
 10
2001.038803012593
 20
2494.799683277027
 30
0.0
 11
2052.038803012593
 21
2494.799683277027
 31
0.0
  0
LINE
  5
119
330
1F
100
AcDbEntity
  8
0-4_枠
  6
Continuous
 62
    92
370
    13
100
AcDbLine
 10
2052.038803012593
 20
2494.799683277027
 30
0.0
 11
2052.038803012593
 21
2516.999683277027
 31
0.0
  0
LINE
  5
11A
330
1F
100
AcDbEntity
  8
0-4_枠
  6
Continuous
 62
    92
370
    13
100
AcDbLine
 10
2052.038803012593
 20
2516.999683277027
 30
0.0
 11
2001.038700015768
 21
2516.999683277027
 31
0.0
  0
LINE
  5
11B
330
1F
100
AcDbEntity
  8
0-4_枠
  6
Continuous
 62
    92
370
    13
100
AcDbLine
 10
2001.038803012593
 20
2516.999683277027
 30
0.0
 11
2001.038803012593
 21
2777.999683277028
 31
0.0
  0
LINE
  5
11C
330
1F
100
AcDbEntity
  8
0-4_枠
  6
Continuous
 62
    92
370
    13
100
AcDbLine
 10
2004.038803012594
 20
2516.999683277027
 30
0.0
 11
2004.038803012594
 21
2774.999683277028
 31
0.0
  0
LINE
  5
11D
330
1F
100
AcDbEntity
  8
0-C_ハッチ
  6
Continuous
 62
   120
370
     5
100
AcDbLine
 10
2001.038803012585
 20
2454.70262532109
 30
0.0
 11
2041.135860968524
 21
2494.799683277027
 31
0.0
  0
LINE
  5
11E
330
1F
100
AcDbEntity
  8
0-C_ハッチ
  6
Continuous
 62
   120
370
     5
100
AcDbLine
 10
2052.038803012593
 20
2505.702625321099
 30
0.0
 11
2145.038803012585
 21
2598.702625321089
 31
0.0
  0
LINE
  5
11F
330
1F
100
AcDbEntity
  8
0-C_ハッチ
  6
Continuous
 62
   120
370
     5
100
AcDbLine
 10
2048.329800207874
 20
2383.199683277028
 30
0.0
 11
2145.03880301259
 21
2479.908686081744
 31
0.0
  0
LINE
  5
120
330
1F
100
AcDbEntity
  8
0-C_ハッチ
  6
Continuous
 62
   120
370
     5
100
AcDbLine
 10
2004.038803012589
 20
2338.908686081745
 30
0.0
 11
2026.129800207872
 21
2360.999683277028
 31
0.0
  0
LINE
  5
121
330
1F
100
AcDbEntity
  8
0-4_枠
  6
Continuous
 62
    92
370
    13
100
AcDbLine
 10
2004.038803012594
 20
2360.999683277028
 30
0.0
 11
2004.038803012594
 21
2102.999683277028
 31
0.0
  0
LINE
  5
122
330
1F
100
AcDbEntity
  8
0-4_枠
  6
Continuous
 62
    92
370
    13
100
AcDbLine
 10
2001.038803012593
 20
2360.999683277028
 30
0.0
 11
2001.038803012593
 21
2099.999683277028
 31
0.0
  0
LINE
  5
123
330
1F
100
AcDbEntity
  8
0-7_金物
  6
Continuous
 62
     7
370
     9
100
AcDbLine
 10
-2155.201717325961
 20
2349.000128668708
 30
0.0
 11
-2140.201296678263
 21
2349.000128668708
 31
0.0
  0
LINE
  5
124
330
1F
100
AcDbEntity
  8
0-7_金物
  6
Continuous
 62
     7
370
     9
100
AcDbLine
 10
-2155.201717325961
 20
2528.999980204815
 30
0.0
 11
-2140.201296678263
 21
2528.999980204815
 31
0.0
  0
LINE
  5
125
330
1F
100
AcDbEntity
  8
0-7_金物
  6
Continuous
 62
     7
370
     9
100
AcDbLine
 10
-2128.201331319838
 20
2498.999881228885
 30
0.0
 11
-2128.201331319838
 21
2379.000227644638
 31
0.0
  0
LINE
  5
126
330
1F
100
AcDbEntity
  8
0-7_金物
  6
Continuous
 62
     7
370
     9
100
AcDbLine
 10
-2140.201296678263
 20
2379.000227644638
 30
0.0
 11
-2128.201331319838
 21
2379.000227644638
 31
0.0
  0
LINE
  5
127
330
1F
100
AcDbEntity
  8
0-7_金物
  6
Continuous
 62
     7
370
     9
100
AcDbLine
 10
-2140.201296678263
 20
2498.999881228885
 30
0.0
 11
-2128.201331319838
 21
2498.999881228885
 31
0.0
  0
LINE
  5
128
330
1F
100
AcDbEntity
  8
0-7_金物
  6
Continuous
 62
     7
370
     9
100
AcDbLine
 10
-2155.201717325961
 20
2528.999980204815
 30
0.0
 11
-2155.201717325961
 21
2349.000128668708
 31
0.0
  0
LINE
  5
129
330
1F
100
AcDbEntity
  8
0-7_金物
  6
Continuous
 62
     7
370
     9
100
AcDbLine
 10
-2140.201296678263
 20
2528.999980204815
 30
0.0
 11
-2140.201296678263
 21
2349.000128668708
 31
0.0
  0
LINE
  5
12A
330
1F
100
AcDbEntity
  8
0-7_金物
  6
Continuous
 62
     7
370
     9
100
AcDbLine
 10
-2128.201331319838
 20
2492.999712969806
 30
0.0
 11
-2125.201717325961
 21
2492.999712969806
 31
0.0
  0
LINE
  5
12B
330
1F
100
AcDbEntity
  8
0-7_金物
  6
Continuous
 62
     7
370
     9
100
AcDbLine
 10
-2128.201331319838
 20
2384.999653584248
 30
0.0
 11
-2125.201717325961
 21
2384.999653584248
 31
0.0
  0
LINE
  5
12C
330
1F
100
AcDbEntity
  8
0-6_扉
  6
Continuous
 62
   200
370
    20
100
AcDbLine
 10
-1951.201717325957
 20
2345.999683277028
 30
0.0
 11
-1951.201717325957
 21
2129.999683277028
 31
0.0
  0
LINE
  5
12D
330
1F
100
AcDbEntity
  8
0-B_寸法
  6
Continuous
 62
   120
370
     5
100
AcDbLine
 10
-1850.042404020958
 20
2099.999683277028
 30
0.0
 11
-1658.582995699057
 21
2099.999683277028
 31
0.0
  0
LWPOLYLINE
  5
12E
330
1F
100
AcDbEntity
  8
0-B_寸法
  6
Continuous
 62
     7
370
     9
100
AcDbPolyline
 90
        4
 70
     1
 43
3.0
 10
-1657.082995699057
 20
2099.999683277028
 42
0.4142135623731
 10
-1658.582995699057
 20
2101.499683277028
 42
0.4142135623731
 10
-1660.082995699057
 20
2099.999683277028
 42
0.4142135623731
 10
-1658.582995699057
 20
2098.499683277028
 42
0.4142135623731
  0
LINE
  5
12F
330
1F
100
AcDbEntity
  8
0-4_枠
  6
Continuous
 62
    92
370
    13
100
AcDbLine
 10
-2125.201717325961
 20
2777.999683277028
 30
0.0
 11
-2095.201573810864
 21
2777.999683277028
 31
0.0
  0
LINE
  5
130
330
1F
100
AcDbEntity
  8
0-B_寸法
  6
Continuous
 62
   120
370
     5
100
AcDbLine
 10
-1850.042404020958
 20
2777.999683277028
 30
0.0
 11
-1658.582995699057
 21
2777.999683277028
 31
0.0
  0
LWPOLYLINE
  5
131
330
1F
100
AcDbEntity
  8
0-B_寸法
  6
Continuous
 62
     7
370
     9
100
AcDbPolyline
 90
        4
 70
     1
 43
3.0
 10
-1657.082995699057
 20
2777.999683277028
 42
0.4142135623731
 10
-1658.582995699057
 20
2779.499683277028
 42
0.4142135623731
 10
-1660.082995699057
 20
2777.999683277028
 42
0.4142135623731
 10
-1658.582995699057
 20
2776.499683277028
 42
0.4142135623731
  0
LINE
  5
132
330
1F
100
AcDbEntity
  8
0-B_寸法
  6
Continuous
 62
   120
370
     5
100
AcDbLine
 10
-1658.582995699057
 20
2099.999683277028
 30
0.0
 11
-1658.582995699057
 21
2777.999683277028
 31
0.0
  0
LINE
  5
133
330
1F
100
AcDbEntity
  8
0-4_枠
  6
Continuous
 62
    92
370
    13
100
AcDbLine
 10
-2125.201717325961
 20
2777.999683277028
 30
0.0
 11
-2125.201717325961
 21
2099.999683277028
 31
0.0
  0
LINE
  5
134
330
1F
100
AcDbEntity
  8
0-4_枠
  6
Continuous
 62
    92
370
    13
100
AcDbLine
 10
-2095.201717325961
 20
2777.999683277028
 30
0.0
 11
-2095.201717325961
 21
2717.999683277028
 31
0.0
  0
LINE
  5
135
330
1F
100
AcDbEntity
  8
0-4_枠
  6
Continuous
 62
    92
370
    13
100
AcDbLine
 10
-2095.201717325961
 20
2717.999683277028
 30
0.0
 11
-2041.201717325957
 21
2717.999683277028
 31
0.0
  0
LINE
  5
136
330
1F
100
AcDbEntity
  8
0-4_枠
  6
Continuous
 62
    92
370
    13
100
AcDbLine
 10
-2041.201717325957
 20
2777.999683277028
 30
0.0
 11
-2041.201717325957
 21
2717.999683277028
 31
0.0
  0
LINE
  5
137
330
1F
100
AcDbEntity
  8
0-4_枠
  6
Continuous
 62
    92
370
    13
100
AcDbLine
 10
-2125.201717325961
 20
2099.999683277028
 30
0.0
 11
-2095.201717325961
 21
2099.999683277028
 31
0.0
  0
LINE
  5
138
330
1F
100
AcDbEntity
  8
0-4_枠
  6
Continuous
 62
    92
370
    13
100
AcDbLine
 10
-2095.201717325961
 20
2159.999683277028
 30
0.0
 11
-2095.201717325961
 21
2099.999683277028
 31
0.0
  0
LINE
  5
139
330
1F
100
AcDbEntity
  8
0-4_枠
  6
Continuous
 62
    92
370
    13
100
AcDbLine
 10
-2095.201717325961
 20
2159.999683277028
 30
0.0
 11
-2041.201717325957
 21
2159.999683277028
 31
0.0
  0
LINE
  5
13A
330
1F
100
AcDbEntity
  8
0-4_枠
  6
Continuous
 62
    92
370
    13
100
AcDbLine
 10
-2041.201717325957
 20
2159.999683277028
 30
0.0
 11
-2041.201717325957
 21
2099.999683277028
 31
0.0
  0
LINE
  5
13B
330
1F
100
AcDbEntity
  8
0-4_枠
  6
Continuous
 62
    92
370
    13
100
AcDbLine
 10
-2041.201717325957
 20
2099.999683277028
 30
0.0
 11
-1981.201717325957
 21
2099.999683277028
 31
0.0
  0
LINE
  5
13C
330
1F
100
AcDbEntity
  8
0-4_枠
  6
Continuous
 62
    92
370
    13
100
AcDbLine
 10
-2041.201717325957
 20
2102.999683277028
 30
0.0
 11
-1984.20171732596
 21
2102.999683277028
 31
0.0
  0
LINE
  5
13D
330
1F
100
AcDbEntity
  8
0-4_枠
  6
Continuous
 62
    92
370
    13
100
AcDbLine
 10
-2041.201717325957
 20
2777.999683277028
 30
0.0
 11
-1981.201717325957
 21
2777.999683277028
 31
0.0
  0
LINE
  5
13E
330
1F
100
AcDbEntity
  8
0-4_枠
  6
Continuous
 62
    92
370
    13
100
AcDbLine
 10
-2041.201717325957
 20
2774.999683277028
 30
0.0
 11
-1984.20171732596
 21
2774.999683277028
 31
0.0
  0
LINE
  5
13F
330
1F
100
AcDbEntity
  8
0-C_ハッチ
  6
Continuous
 62
   120
370
     5
100
AcDbLine
 10
-1993.115650395294
 20
2102.999683277019
 30
0.0
 11
-1984.201717325948
 21
2111.913616346362
 31
0.0
  0
LINE
  5
140
330
1F
100
AcDbEntity
  8
0-C_ハッチ
  6
Continuous
 62
   120
370
     5
100
AcDbLine
 10
-2041.201717325964
 20
2114.310585966047
 30
0.0
 11
-1984.201717325953
 21
2171.310585966061
 31
0.0
  0
LINE
  5
141
330
1F
100
AcDbEntity
  8
0-C_ハッチ
  6
Continuous
 62
   120
370
     5
100
AcDbLine
 10
-2114.909589634628
 20
2099.999683277031
 30
0.0
 11
-2095.20171732597
 21
2119.707555585692
 31
0.0
  0
LINE
  5
142
330
1F
100
AcDbEntity
  8
0-C_ハッチ
  6
Continuous
 62
   120
370
     5
100
AcDbLine
 10
-2054.909589634628
 20
2159.999683277031
 30
0.0
 11
-1984.20171732596
 21
2230.707555585703
 31
0.0
  0
LINE
  5
143
330
1F
100
AcDbEntity
  8
0-C_ハッチ
  6
Continuous
 62
   120
370
     5
100
AcDbLine
 10
-2125.201717325968
 20
2149.104525205343
 30
0.0
 11
-1984.201717325955
 21
2290.104525205354
 31
0.0
  0
LINE
  5
144
330
1F
100
AcDbEntity
  8
0-C_ハッチ
  6
Continuous
 62
   120
370
     5
100
AcDbLine
 10
-2125.201717325968
 20
2208.501494825045
 30
0.0
 11
-1984.201717325968
 21
2349.501494825042
 31
0.0
  0
LINE
  5
145
330
1F
100
AcDbEntity
  8
0-C_ハッチ
  6
Continuous
 62
   120
370
     5
100
AcDbLine
 10
-2125.201717325961
 20
2327.295434064399
 30
0.0
 11
-1981.201717325971
 21
2471.295434064389
 31
0.0
  0
LINE
  5
146
330
1F
100
AcDbEntity
  8
0-C_ハッチ
  6
Continuous
 62
   120
370
     5
100
AcDbLine
 10
-2125.201717325961
 20
2446.089373303748
 30
0.0
 11
-1984.201717325955
 21
2587.089373303754
 31
0.0
  0
LINE
  5
147
330
1F
100
AcDbEntity
  8
0-C_ハッチ
  6
Continuous
 62
   120
370
     5
100
AcDbLine
 10
-2125.201717325963
 20
2505.486342923391
 30
0.0
 11
-1984.201717325961
 21
2646.486342923393
 31
0.0
  0
LINE
  5
148
330
1F
100
AcDbEntity
  8
0-C_ハッチ
  6
Continuous
 62
   120
370
     5
100
AcDbLine
 10
-2125.20171732597
 20
2564.883312543034
 30
0.0
 11
-1984.201717325953
 21
2705.883312543051
 31
0.0
  0
LINE
  5
149
330
1F
100
AcDbEntity
  8
0-C_ハッチ
  6
Continuous
 62
   120
370
     5
100
AcDbLine
 10
-2125.201717325968
 20
2624.28028216274
 30
0.0
 11
-1984.201717325968
 21
2765.280282162737
 31
0.0
  0
LINE
  5
14A
330
1F
100
AcDbEntity
  8
0-C_ハッチ
  6
Continuous
 62
   120
370
     5
100
AcDbLine
 10
-2125.201717325961
 20
2683.677251782394
 30
0.0
 11
-2090.879285831315
 21
2717.999683277035
 31
0.0
  0
LINE
  5
14B
330
1F
100
AcDbEntity
  8
0-C_ハッチ
  6
Continuous
 62
   120
370
     5
100
AcDbLine
 10
-2041.201717325957
 20
2767.677251782392
 30
0.0
 11
-2030.879285831327
 21
2777.999683277028
 31
0.0
  0
LINE
  5
14C
330
1F
100
AcDbEntity
  8
0-C_ハッチ
  6
Continuous
 62
   120
370
     5
100
AcDbLine
 10
-2125.201717325975
 20
2743.07422140208
 30
0.0
 11
-2095.201717325968
 21
2773.074221402087
 31
0.0
  0
LINE
  5
14D
330
1F
100
AcDbEntity
  8
0-6_扉
  6
Continuous
 62
   200
370
    20
100
AcDbLine
 10
-41.08145715668172
 20
2129.999683277028
 30
0.0
 11
-1951.201717325957
 21
2129.999683277028
 31
0.0
  0
LINE
  5
14E
330
1F
100
AcDbEntity
  8
0-6_扉
  6
Continuous
 62
   200
370
    20
100
AcDbLine
 10
-41.08145715668172
 20
2345.999683277028
 30
0.0
 11
-1951.201717325957
 21
2345.999683277028
 31
0.0
  0
LINE
  5
14F
330
1F
100
AcDbEntity
  8
0-4_枠
  6
Continuous
 62
    92
370
    13
100
AcDbLine
 10
-2032.201614329146
 20
2360.875556847925
 30
0.0
 11
-2032.201614329146
 21
2383.075556847925
 31
0.0
  0
LINE
  5
150
330
1F
100
AcDbEntity
  8
0-4_枠
  6
Continuous
 62
    92
370
    13
100
AcDbLine
 10
-1981.201717325971
 20
2383.075556847925
 30
0.0
 11
-1981.201717325971
 21
2494.675556847926
 31
0.0
  0
LINE
  5
151
330
1F
100
AcDbEntity
  8
0-4_枠
  6
Continuous
 62
    92
370
    13
100
AcDbLine
 10
-2032.201614329146
 20
2360.875556847925
 30
0.0
 11
-1981.201614329146
 21
2360.875556847925
 31
0.0
  0
LINE
  5
152
330
1F
100
AcDbEntity
  8
0-4_枠
  6
Continuous
 62
    92
370
    13
100
AcDbLine
 10
-1981.201717325971
 20
2383.075556847925
 30
0.0
 11
-2032.201614329146
 21
2383.075556847925
 31
0.0
  0
LINE
  5
153
330
1F
100
AcDbEntity
  8
0-4_枠
  6
Continuous
 62
    92
370
    13
100
AcDbLine
 10
-1981.201717325971
 20
2494.675556847926
 30
0.0
 11
-2032.201717325972
 21
2494.675556847926
 31
0.0
  0
LINE
  5
154
330
1F
100
AcDbEntity
  8
0-4_枠
  6
Continuous
 62
    92
370
    13
100
AcDbLine
 10
-2032.201717325972
 20
2494.675556847926
 30
0.0
 11
-2032.201717325972
 21
2516.875556847925
 31
0.0
  0
LINE
  5
155
330
1F
100
AcDbEntity
  8
0-4_枠
  6
Continuous
 62
    92
370
    13
100
AcDbLine
 10
-2032.201717325972
 20
2516.875556847925
 30
0.0
 11
-1981.201614329146
 21
2516.875556847925
 31
0.0
  0
ARC
  5
156
330
1F
100
AcDbEntity
  8
戸当り
  6
Continuous
 62
     7
370
     9
100
AcDbCircle
 10
-1950.241717325973
 20
2384.575556847924
 30
0.0
 40
7.199999999999999
100
AcDbArc
 50
228.5903778907278
 51
287.3298260979834
  0
LINE
  5
157
330
1F
100
AcDbEntity
  8
戸当り
  6
Continuous
 62
     7
370
     9
100
AcDbLine
 10
-1930.201717325973
 20
2376.775556847925
 30
0.0
 11
-1954.201717325973
 21
2376.775556847925
 31
0.0
  0
LINE
  5
158
330
1F
100
AcDbEntity
  8
戸当り
  6
Continuous
 62
     7
370
     9
100
AcDbLine
 10
-1930.201717325973
 20
2514.775556847924
 30
0.0
 11
-1942.801717325972
 21
2514.775556847924
 31
0.0
  0
LINE
  5
159
330
1F
100
AcDbEntity
  8
戸当り
  6
Continuous
 62
     7
370
     9
100
AcDbLine
 10
-1942.801717325972
 20
2514.775556847924
 30
0.0
 11
-1942.801717325972
 21
2502.775556847925
 31
0.0
  0
LINE
  5
15A
330
1F
100
AcDbEntity
  8
戸当り
  6
Continuous
 62
     7
370
     9
100
AcDbLine
 10
-1942.801717325972
 20
2502.775556847925
 30
0.0
 11
-1950.001717325972
 21
2502.775556847925
 31
0.0
  0
LINE
  5
15B
330
1F
100
AcDbEntity
  8
戸当り
  6
Continuous
 62
     7
370
     9
100
AcDbLine
 10
-1950.001717325972
 20
2502.775556847925
 30
0.0
 11
-1950.001717325972
 21
2514.775556847924
 31
0.0
  0
LINE
  5
15C
330
1F
100
AcDbEntity
  8
戸当り
  6
Continuous
 62
     7
370
     9
100
AcDbLine
 10
-1950.001717325972
 20
2514.775556847924
 30
0.0
 11
-1966.201717325971
 21
2514.775556847924
 31
0.0
  0
ARC
  5
15D
330
1F
100
AcDbEntity
  8
戸当り
  6
Continuous
 62
     7
370
     9
100
AcDbCircle
 10
-1979.401717325973
 20
2521.975556847924
 30
0.0
 40
1.8
100
AcDbArc
 50
90.0
 51
228.6522227803073
  0
LINE
  5
15E
330
1F
100
AcDbEntity
  8
戸当り
  6
Continuous
 62
     7
370
     9
100
AcDbLine
 10
-1927.201717325972
 20
2523.775556847925
 30
0.0
 11
-1979.401717325973
 21
2523.775556847925
 31
0.0
  0
ARC
  5
15F
330
1F
100
AcDbEntity
  8
戸当り
  6
Continuous
 62
     7
370
     9
100
AcDbCircle
 10
-1927.201717325972
 20
2517.775556847925
 30
0.0
 40
6.0
100
AcDbArc
 50
0.0
 51
90.0
  0
LINE
  5
160
330
1F
100
AcDbEntity
  8
戸当り
  6
Continuous
 62
     7
370
     9
100
AcDbLine
 10
-1961.37010736225
 20
2349.11659493898
 30
0.0
 11
-1924.201717325973
 21
2367.775556847925
 31
0.0
  0
LINE
  5
161
330
1F
100
AcDbEntity
  8
戸当り
  6
Continuous
 62
     7
370
     9
100
AcDbLine
 10
-1977.001717325973
 20
2358.775556847925
 30
0.0
 11
-1977.001717325973
 21
2367.775556847925
 31
0.0
  0
ARC
  5
162
330
1F
100
AcDbEntity
  8
戸当り
  6
Continuous
 62
     7
370
     9
100
AcDbCircle
 10
-1924.201717325973
 20
2370.775556847923
 30
0.0
 40
3.0
100
AcDbArc
 50
270.0
 51
0.0
  0
LINE
  5
163
330
1F
100
AcDbEntity
  8
戸当り
  6
Continuous
 62
     7
370
     9
100
AcDbLine
 10
-1966.201717325971
 20
2367.775556847925
 30
0.0
 11
-1966.201717325971
 21
2371.975556847924
 31
0.0
  0
LINE
  5
164
330
1F
100
AcDbEntity
  8
戸当り
  6
Continuous
 62
     7
370
     9
100
AcDbLine
 10
-1930.201717325973
 20
2376.775556847925
 30
0.0
 11
-1930.201717325973
 21
2514.775556847924
 31
0.0
  0
LINE
  5
165
330
1F
100
AcDbEntity
  8
戸当り
  6
Continuous
 62
     7
370
     9
100
AcDbLine
 10
-1924.201717325973
 20
2367.775556847925
 30
0.0
 11
-1966.201717325971
 21
2367.775556847925
 31
0.0
  0
LINE
  5
166
330
1F
100
AcDbEntity
  8
戸当り
  6
Continuous
 62
     7
370
     9
100
AcDbLine
 10
-1921.201717325971
 20
2517.775556847925
 30
0.0
 11
-1921.201717325971
 21
2370.775556847923
 31
0.0
  0
ARC
  5
167
330
1F
100
AcDbEntity
  8
戸当り
  6
Continuous
 62
     7
370
     9
100
AcDbCircle
 10
-1966.201717325971
 20
2358.775556847925
 30
0.0
 40
10.8
100
AcDbArc
 50
180.0
 51
296.5751535040603
  0
ARC
  5
168
330
1F
100
AcDbEntity
  8
戸当り
  6
Continuous
 62
     7
370
     9
100
AcDbCircle
 10
-1966.201717325971
 20
2358.775556847925
 30
0.0
 40
6.6
100
AcDbArc
 50
180.0
 51
296.5751535040603
  0
LINE
  5
169
330
1F
100
AcDbEntity
  8
戸当り
  6
Continuous
 62
     7
370
     9
100
AcDbLine
 10
-1963.254442494616
 20
2352.870164055025
 30
0.0
 11
-1933.563109414354
 21
2367.775556847925
 31
0.0
  0
LINE
  5
16A
330
1F
100
AcDbEntity
  8
戸当り
  6
Continuous
 62
     7
370
     9
100
AcDbLine
 10
-1981.201717325971
 20
2509.975556847925
 30
0.0
 11
-1981.201717325971
 21
2511.475556847925
 31
0.0
  0
LINE
  5
16B
330
1F
100
AcDbEntity
  8
戸当り
  6
Continuous
 62
     7
370
     9
100
AcDbLine
 10
-1981.201717325971
 20
2511.475556847925
 30
0.0
 11
-1966.201717325971
 21
2511.475556847925
 31
0.0
  0
LINE
  5
16C
330
1F
100
AcDbEntity
  8
戸当り
  6
Continuous
 62
     7
370
     9
100
AcDbLine
 10
-1981.201717325971
 20
2509.975556847925
 30
0.0
 11
-2008.201717325972
 21
2509.975556847925
 31
0.0
  0
ARC
  5
16D
330
1F
100
AcDbEntity
  8
戸当り
  6
Continuous
 62
     7
370
     9
100
AcDbCircle
 10
-1954.801717325973
 20
2508.475556847925
 30
0.0
 40
3.600000000000001
100
AcDbArc
 50
0.0
 51
73.20997440166256
  0
ARC
  5
16E
330
1F
100
AcDbEntity
  8
戸当り
  6
Continuous
 62
     7
370
     9
100
AcDbCircle
 10
-1954.801717325973
 20
2508.475556847925
 30
0.0
 40
3.600000000000001
100
AcDbArc
 50
246.662347311029
 51
0.0000000000000127
  0
LINE
  5
16F
330
1F
100
AcDbEntity
  8
戸当り
  6
Continuous
 62
     7
370
     9
100
AcDbLine
 10
-1961.197095321922
 20
2506.965910553142
 30
0.0
 11
-1956.029325342538
 21
2505.09133189121
 31
0.0
  0
ARC
  5
170
330
1F
100
AcDbEntity
  8
戸当り
  6
Continuous
 62
     7
370
     9
100
AcDbCircle
 10
-1966.201717325971
 20
2510.275556847925
 30
0.0
 40
5.999999999999659
100
AcDbArc
 50
270.0
 51
326.5226209498273
  0
LINE
  5
171
330
1F
100
AcDbEntity
  8
戸当り
  6
Continuous
 62
     7
370
     9
100
AcDbLine
 10
-2008.201717325972
 20
2509.975556847925
 30
0.0
 11
-2008.201717325972
 21
2516.875556847926
 31
0.0
  0
LINE
  5
172
330
1F
100
AcDbEntity
  8
戸当り
  6
Continuous
 62
     7
370
     9
100
AcDbLine
 10
-2008.201717325972
 20
2496.475556847925
 30
0.0
 11
-2008.201717325972
 21
2500.975556847925
 31
0.0
  0
LINE
  5
173
330
1F
100
AcDbEntity
  8
戸当り
  6
Continuous
 62
     7
370
     9
100
AcDbLine
 10
-2008.201717325972
 20
2500.975556847925
 30
0.0
 11
-1981.201717325971
 21
2500.975556847925
 31
0.0
  0
LINE
  5
174
330
1F
100
AcDbEntity
  8
戸当り
  6
Continuous
 62
     7
370
     9
100
AcDbLine
 10
-2008.201717325972
 20
2496.475556847925
 30
0.0
 11
-2026.201717325971
 21
2505.475556847925
 31
0.0
  0
LINE
  5
175
330
1F
100
AcDbEntity
  8
戸当り
  6
Continuous
 62
     7
370
     9
100
AcDbLine
 10
-2026.201717325971
 20
2505.475556847925
 30
0.0
 11
-2008.201717325972
 21
2516.875556847926
 31
0.0
  0
LINE
  5
176
330
1F
100
AcDbEntity
  8
戸当り
  6
Continuous
 62
     7
370
     9
100
AcDbLine
 10
-1969.201717325973
 20
2504.275556847925
 30
0.0
 11
-1966.201717325971
 21
2504.275556847925
 31
0.0
  0
ARC
  5
177
330
1F
100
AcDbEntity
  8
戸当り
  6
Continuous
 62
     7
370
     9
100
AcDbCircle
 10
-1969.201717325973
 20
2501.275556847927
 30
0.0
 40
3.0
100
AcDbArc
 50
90.0
 51
180.0
  0
ARC
  5
178
330
1F
100
AcDbEntity
  8
戸当り
  6
Continuous
 62
     7
370
     9
100
AcDbCircle
 10
-1969.201717325973
 20
2391.775556847924
 30
0.0
 40
3.0
100
AcDbArc
 50
180.0
 51
270.0
  0
LINE
  5
179
330
1F
100
AcDbEntity
  8
戸当り
  6
Continuous
 62
     7
370
     9
100
AcDbLine
 10
-1969.201717325973
 20
2388.775556847925
 30
0.0
 11
-1957.441717325974
 21
2388.775556847925
 31
0.0
  0
LINE
  5
17A
330
1F
100
AcDbEntity
  8
戸当り
  6
Continuous
 62
     7
370
     9
100
AcDbLine
 10
-1972.201717325972
 20
2391.775556847924
 30
0.0
 11
-1972.201717325972
 21
2501.275556847927
 31
0.0
  0
ARC
  5
17B
330
1F
100
AcDbEntity
  8
戸当り
  6
Continuous
 62
     7
370
     9
100
AcDbCircle
 10
-1957.441717325974
 20
2381.575556847924
 30
0.0
 40
7.199999999999999
100
AcDbArc
 50
32.78873764965429
 51
90.0
  0
LINE
  5
17C
330
1F
100
AcDbEntity
  8
戸当り
  6
Continuous
 62
     7
370
     9
100
AcDbLine
 10
-1951.388871235063
 20
2385.474666259027
 30
0.0
 11
-1935.65277934018
 21
2390.38490141239
 31
0.0
  0
ARC
  5
17D
330
1F
100
AcDbEntity
  8
戸当り
  6
Continuous
 62
     7
370
     9
100
AcDbCircle
 10
-1934.401717325973
 20
2386.375556847925
 30
0.0
 40
4.2
100
AcDbArc
 50
287.3298279181163
 51
107.3298297382545
  0
LINE
  5
17E
330
1F
100
AcDbEntity
  8
戸当り
  6
Continuous
 62
     7
370
     9
100
AcDbLine
 10
-1948.097040024013
 20
2377.702394601151
 30
0.0
 11
-1933.150655566496
 21
2382.366212203975
 31
0.0
  0
ARC
  5
17F
330
1F
100
AcDbEntity
  8
戸当り
  6
Continuous
 62
     7
370
     9
100
AcDbCircle
 10
-1958.178971259168
 20
2375.575556847925
 30
0.0
 40
4.800000000000001
100
AcDbArc
 50
48.59037789072997
 51
90.0
  0
LINE
  5
180
330
1F
100
AcDbEntity
  8
戸当り
  6
Continuous
 62
     7
370
     9
100
AcDbLine
 10
-1972.201717325972
 20
2380.375556847925
 30
0.0
 11
-1958.178971259168
 21
2380.375556847925
 31
0.0
  0
LINE
  5
181
330
1F
100
AcDbEntity
  8
戸当り
  6
Continuous
 62
     7
370
     9
100
AcDbLine
 10
-1972.201717325972
 20
2373.775556847925
 30
0.0
 11
-1972.201717325972
 21
2380.375556847925
 31
0.0
  0
LINE
  5
182
330
1F
100
AcDbEntity
  8
戸当り
  6
Continuous
 62
     7
370
     9
100
AcDbLine
 10
-1977.001717325973
 20
2373.775556847925
 30
0.0
 11
-1972.201717325972
 21
2373.775556847925
 31
0.0
  0
LINE
  5
183
330
1F
100
AcDbEntity
  8
戸当り
  6
Continuous
 62
     7
370
     9
100
AcDbLine
 10
-1977.001717325973
 20
2367.775556847925
 30
0.0
 11
-1977.001717325973
 21
2373.775556847925
 31
0.0
  0
LINE
  5
184
330
1F
100
AcDbEntity
  8
戸当り
  6
Continuous
 62
     7
370
     9
100
AcDbLine
 10
-1977.001717325973
 20
2367.775556847925
 30
0.0
 11
-2008.201717325974
 21
2367.775556847925
 31
0.0
  0
LINE
  5
185
330
1F
100
AcDbEntity
  8
戸当り
  6
Continuous
 62
     7
370
     9
100
AcDbLine
 10
-1981.201717325971
 20
2376.775556847925
 30
0.0
 11
-1981.201717325971
 21
2500.975556847925
 31
0.0
  0
LINE
  5
186
330
1F
100
AcDbEntity
  8
戸当り
  6
Continuous
 62
     7
370
     9
100
AcDbLine
 10
-2026.201717325971
 20
2372.275556847924
 30
0.0
 11
-2008.201717325974
 21
2360.875556847925
 31
0.0
  0
LINE
  5
187
330
1F
100
AcDbEntity
  8
戸当り
  6
Continuous
 62
     7
370
     9
100
AcDbLine
 10
-2008.201717325974
 20
2381.275556847925
 30
0.0
 11
-2026.201717325971
 21
2372.275556847924
 31
0.0
  0
LINE
  5
188
330
1F
100
AcDbEntity
  8
戸当り
  6
Continuous
 62
     7
370
     9
100
AcDbLine
 10
-2008.201717325974
 20
2376.775556847925
 30
0.0
 11
-1981.201717325971
 21
2376.775556847925
 31
0.0
  0
LINE
  5
189
330
1F
100
AcDbEntity
  8
戸当り
  6
Continuous
 62
     7
370
     9
100
AcDbLine
 10
-2008.201717325974
 20
2381.275556847925
 30
0.0
 11
-2008.201717325974
 21
2376.775556847925
 31
0.0
  0
LINE
  5
18A
330
1F
100
AcDbEntity
  8
戸当り
  6
Continuous
 62
     7
370
     9
100
AcDbLine
 10
-2008.201717325974
 20
2367.775556847925
 30
0.0
 11
-2008.201717325974
 21
2360.875556847925
 31
0.0
  0
LINE
  5
18B
330
1F
100
AcDbEntity
  8
戸当り
  6
Continuous
 62
     7
370
     9
100
AcDbLine
 10
-1972.801717325972
 20
2358.775556847925
 30
0.0
 11
-1972.801717325972
 21
2373.775556847925
 31
0.0
  0
ARC
  5
18C
330
1F
100
AcDbEntity
  8
戸当り
  6
Continuous
 62
     7
370
     9
100
AcDbCircle
 10
-1957.201717325972
 20
2377.073032601429
 30
0.0
 40
3.0
100
AcDbArc
 50
0.0
 51
126.3847868939777
  0
LINE
  5
18D
330
1F
100
AcDbEntity
  8
戸当り
  6
Continuous
 62
     7
370
     9
100
AcDbLine
 10
-1966.201717325971
 20
2371.975556847924
 30
0.0
 11
-1958.981332779757
 21
2379.488186599968
 31
0.0
  0
LINE
  5
18E
330
1F
100
AcDbEntity
  8
戸当り
  6
Continuous
 62
     7
370
     9
100
AcDbLine
 10
-1954.201717325973
 20
2377.073032601429
 30
0.0
 11
-1954.201717325973
 21
2376.775556847925
 31
0.0
  0
LINE
  5
18F
330
1F
100
AcDbEntity
  8
戸当り
  6
Continuous
 62
     7
370
     9
100
AcDbLine
 10
-1966.201717325971
 20
2513.275556847925
 30
0.0
 11
-1966.201717325971
 21
2514.775556847924
 31
0.0
  0
ARC
  5
190
330
1F
100
AcDbEntity
  8
戸当り
  6
Continuous
 62
     7
370
     9
100
AcDbCircle
 10
-1968.001717325973
 20
2513.275556847925
 30
0.0
 40
1.8
100
AcDbArc
 50
228.6522227803065
 51
0.0
  0
LINE
  5
191
330
1F
100
AcDbEntity
  8
戸当り
  6
Continuous
 62
     7
370
     9
100
AcDbLine
 10
-1980.590847536778
 20
2520.624272517464
 30
0.0
 11
-1969.190847536778
 21
2511.924272517464
 31
0.0
  0
LINE
  5
192
330
1F
100
AcDbEntity
  8
戸当り
  6
Continuous
 62
     7
370
     9
100
AcDbLine
 10
-1966.201717325971
 20
2512.975556847924
 30
0.0
 11
-1966.201717325971
 21
2511.475556847925
 31
0.0
  0
LINE
  5
193
330
1F
100
AcDbEntity
  8
戸当り
  6
Continuous
 62
     7
370
     9
100
AcDbLine
 10
-1963.881760080271
 20
2514.69882248695
 30
0.0
 11
-1953.574109296894
 21
2511.859781800104
 31
0.0
  0
ARC
  5
194
330
1F
100
AcDbEntity
  8
戸当り
  6
Continuous
 62
     7
370
     9
100
AcDbCircle
 10
-1964.401717325973
 20
2512.975556847924
 30
0.0
 40
1.8
100
AcDbArc
 50
73.20997440166418
 51
180.0
  0
LINE
  5
195
330
1F
100
AcDbEntity
  8
0-C_ハッチ
  6
Continuous
 62
   120
370
     5
100
AcDbLine
 10
-1995.018564162083
 20
2516.875556847925
 30
0.0
 11
-1984.20171732596
 21
2527.692403684048
 31
0.0
  0
LINE
  5
196
330
1F
100
AcDbEntity
  8
0-C_ハッチ
  6
Continuous
 62
   120
370
     5
100
AcDbLine
 10
-2125.201717325961
 20
2386.692403684048
 30
0.0
 11
-2017.218564162084
 21
2494.675556847926
 31
0.0
  0
LINE
  5
197
330
1F
100
AcDbEntity
  8
0-C_ハッチ
  6
Continuous
 62
   120
370
     5
100
AcDbLine
 10
-2125.201717325956
 20
2267.898464444704
 30
0.0
 11
-2032.201614329146
 21
2360.898567441513
 31
0.0
  0
LINE
  5
198
330
1F
100
AcDbEntity
  8
0-4_枠
  6
Continuous
 62
    92
370
    13
100
AcDbLine
 10
-1984.20171732596
 20
2360.875556847925
 30
0.0
 11
-1984.20171732596
 21
2102.999683277028
 31
0.0
  0
LINE
  5
199
330
1F
100
AcDbEntity
  8
0-4_枠
  6
Continuous
 62
    92
370
    13
100
AcDbLine
 10
-1981.201717325957
 20
2360.875556847925
 30
0.0
 11
-1981.201717325957
 21
2099.999683277028
 31
0.0
  0
LINE
  5
19A
330
1F
100
AcDbEntity
  8
0-C_ハッチ
  6
Continuous
 62
   120
370
     5
100
AcDbLine
 10
-2010.024624922734
 20
2383.075556847925
 30
0.0
 11
-1981.201717325969
 21
2411.898464444689
 31
0.0
  0
LINE
  5
19B
330
1F
100
AcDbEntity
  8
0-4_枠
  6
Continuous
 62
    92
370
    13
100
AcDbLine
 10
-1981.201717325957
 20
2516.875556847925
 30
0.0
 11
-1981.201717325957
 21
2777.999683277028
 31
0.0
  0
LINE
  5
19C
330
1F
100
AcDbEntity
  8
0-4_枠
  6
Continuous
 62
    92
370
    13
100
AcDbLine
 10
-1984.20171732596
 20
2516.875556847925
 30
0.0
 11
-1984.20171732596
 21
2774.999683277028
 31
0.0
  0
LINE
  5
19D
330
1F
100
AcDbEntity
  8
0-1_通り芯
  6
JWW_CENTER1
 62
   120
370
     5
100
AcDbLine
 10
2475.038803120942
 20
2438.999683277028
 30
0.0
 11
-2455.201717519063
 21
2438.999683277028
 31
0.0
  0
CIRCLE
  5
19E
330
1F
100
AcDbEntity
  8
0-7_金物
  6
Continuous
 62
     7
370
     9
100
AcDbCircle
 10
1983.330104162264
 20
2003.739458097261
 30
0.0
 40
21.00000000000001
  0
CIRCLE
  5
19F
330
1F
100
AcDbEntity
  8
0-7_金物
  6
Continuous
 62
     7
370
     9
100
AcDbCircle
 10
1983.330104162264
 20
2003.739458097261
 30
0.0
 40
30.0
  0
LINE
  5
1A0
330
1F
100
AcDbEntity
  8
0-6_扉
  6
JWW_DASHED2
 62
   200
370
    20
100
AcDbLine
 10
1641.069878982496
 20
2009.44815694759
 30
0.0
 11
1857.069878982496
 21
2009.44815694759
 31
0.0
  0
LINE
  5
1A1
330
1F
100
AcDbEntity
  8
0-6_扉
  6
JWW_DASHED2
 62
   200
370
    20
100
AcDbLine
 10
1857.069878982496
 20
2009.44815694759
 30
0.0
 11
1857.069878982496
 21
1759.105832373962
 31
0.0
  0
LINE
  5
1A2
330
1F
100
AcDbEntity
  8
0-6_扉
  6
JWW_DASHED2
 62
   200
370
    20
100
AcDbLine
 10
1641.069878982496
 20
2009.44815694759
 30
0.0
 11
1641.069878982496
 21
1759.105832373962
 31
0.0
  0
MTEXT
  5
1A3
330
1F
100
AcDbEntity
  8
0-B_寸法
  6
Continuous
 62
     7
370
   211
100
AcDbMText
 10
2065.611888347432
 20
769.8258323739623
 30
0.0
 40
91.44
 41
60.0
 46
0.0
 71
     7
 72
     1
  1
{\fＭＳ ゴシック|b0|i0|c128|p49;5}
 73
     1
 44
1.0
  0
MTEXT
  5
1A4
330
1F
100
AcDbEntity
  8
0-B_寸法
  6
Continuous
 62
     7
370
   211
100
AcDbMText
 10
-2113.427740600116
 20
769.8258323739623
 30
0.0
 40
91.44
 41
60.0
 46
0.0
 71
     7
 72
     1
  1
{\fＭＳ ゴシック|b0|i0|c128|p49;5}
 73
     1
 44
1.0
  0
LINE
  5
1A5
330
1F
100
AcDbEntity
  8
0-0_補助線
  6
JWW_HOJO
 62
   120
370
     5
100
AcDbLine
 10
2475.038803120942
 20
559.1058323739622
 30
0.0
 11
2475.038803120942
 21
2939.999683277028
 31
0.0
  0
LINE
  5
1A6
330
1F
100
AcDbEntity
  8
0-0_補助線
  6
JWW_HOJO
 62
   120
370
     5
100
AcDbLine
 10
-2455.201717519063
 20
559.1058323739622
 30
0.0
 11
-2455.201717519063
 21
2939.999683277028
 31
0.0
  0
MTEXT
  5
1A7
330
1F
100
AcDbEntity
  8
0-B_寸法
  6
Continuous
 62
     7
370
   211
100
AcDbMText
 10
2009.288803012593
 20
982.6833323739622
 30
0.0
 40
97.15499999999999
 41
127.5
 46
0.0
 71
     7
 72
     1
  1
{\fＭＳ ゴシック|b0|i0|c128|p49;24}
 73
     1
 44
1.0
  0
MTEXT
  5
1A8
330
1F
100
AcDbEntity
  8
0-B_寸法
  6
Continuous
 62
     7
370
   211
100
AcDbMText
 10
-2116.951717325962
 20
982.6833323739622
 30
0.0
 40
97.15499999999999
 41
127.5
 46
0.0
 71
     7
 72
     1
  1
{\fＭＳ ゴシック|b0|i0|c128|p49;24}
 73
     1
 44
1.0
  0
MTEXT
  5
1A9
330
1F
100
AcDbEntity
  8
0-B_寸法
  6
Continuous
 62
     7
370
     0
100
AcDbMText
 10
1924.538803012595
 20
1186.825832373962
 30
0.0
 40
91.44
 41
60.0
 46
0.0
 71
     7
 72
     1
  1
{\fＭＳ ゴシック|b0|i0|c128|p49;2}
 73
     1
 44
1.0
  0
MTEXT
  5
1AA
330
1F
100
AcDbEntity
  8
0-B_寸法
  6
Continuous
 62
     7
370
     0
100
AcDbMText
 10
-1946.70171732596
 20
1186.825832373962
 30
0.0
 40
91.44
 41
60.0
 46
0.0
 71
     7
 72
     1
  1
{\fＭＳ ゴシック|b0|i0|c128|p49;5}
 73
     1
 44
1.0
  0
LINE
  5
1AB
330
1F
100
AcDbEntity
  8
0-0_補助線
  6
JWW_HOJO
 62
   120
370
     5
100
AcDbLine
 10
2475.038803120942
 20
559.1058323739622
 30
0.0
 11
-2455.201717519063
 21
559.1058323739622
 31
0.0
  0
LWPOLYLINE
  5
1AC
330
1F
100
AcDbEntity
  8
0-B_寸法
  6
Continuous
 62
     7
370
     9
100
AcDbPolyline
 90
        4
 70
     1
 43
3.0
 10
2002.538803012593
 20
1189.105832373962
 42
0.4142135623731
 10
2001.038803012593
 20
1190.605832373962
 42
0.4142135623731
 10
1999.538803012593
 20
1189.105832373962
 42
0.4142135623731
 10
2001.038803012593
 20
1187.605832373962
 42
0.4142135623731
  0
LWPOLYLINE
  5
1AD
330
1F
100
AcDbEntity
  8
0-B_寸法
  6
Continuous
 62
     7
370
     9
100
AcDbPolyline
 90
        4
 70
     1
 43
3.0
 10
1990.538803012594
 20
1189.105832373962
 42
0.4142135623731
 10
1989.038803012594
 20
1190.605832373962
 42
0.4142135623731
 10
1987.538803012594
 20
1189.105832373962
 42
0.4142135623731
 10
1989.038803012594
 20
1187.605832373962
 42
0.4142135623731
  0
LWPOLYLINE
  5
1AE
330
1F
100
AcDbEntity
  8
0-B_寸法
  6
Continuous
 62
     7
370
     9
100
AcDbPolyline
 90
        4
 70
     1
 43
3.0
 10
-1979.701717325957
 20
1189.105832373962
 42
0.4142135623731
 10
-1981.201717325957
 20
1190.605832373962
 42
0.4142135623731
 10
-1982.701717325957
 20
1189.105832373962
 42
0.4142135623731
 10
-1981.201717325957
 20
1187.605832373962
 42
0.4142135623731
  0
LWPOLYLINE
  5
1AF
330
1F
100
AcDbEntity
  8
0-B_寸法
  6
Continuous
 62
     7
370
     9
100
AcDbPolyline
 90
        4
 70
     1
 43
3.0
 10
-1949.701717325957
 20
1189.105832373962
 42
0.4142135623731
 10
-1951.201717325957
 20
1190.605832373962
 42
0.4142135623731
 10
-1952.701717325957
 20
1189.105832373962
 42
0.4142135623731
 10
-1951.201717325957
 20
1187.605832373962
 42
0.4142135623731
  0
LINE
  5
1B0
330
1F
100
AcDbEntity
  8
0-B_寸法
  6
Continuous
 62
   120
370
     5
100
AcDbLine
 10
-1981.201717325957
 20
1189.105832373962
 30
0.0
 11
2001.038803012593
 21
1189.105832373962
 31
0.0
  0
LINE
  5
1B1
330
1F
100
AcDbEntity
  8
0-B_寸法
  6
Continuous
 62
   120
370
     5
100
AcDbLine
 10
1989.038803012594
 20
1189.105832373962
 30
0.0
 11
1989.038803012594
 21
1759.105832373962
 31
0.0
  0
LINE
  5
1B2
330
1F
100
AcDbEntity
  8
0-B_寸法
  6
Continuous
 62
   120
370
     5
100
AcDbLine
 10
-1951.201717325957
 20
1189.105832373962
 30
0.0
 11
-1951.201717325957
 21
1759.105832373962
 31
0.0
  0
LWPOLYLINE
  5
1B3
330
1F
100
AcDbEntity
  8
0-B_寸法
  6
Continuous
 62
     7
370
     9
100
AcDbPolyline
 90
        4
 70
     1
 43
3.0
 10
2002.538803012593
 20
979.1058323739622
 42
0.4142135623731
 10
2001.038803012593
 20
980.6058323739621
 42
0.4142135623731
 10
1999.538803012593
 20
979.1058323739622
 42
0.4142135623731
 10
2001.038803012593
 20
977.6058323739624
 42
0.4142135623731
  0
LWPOLYLINE
  5
1B4
330
1F
100
AcDbEntity
  8
0-B_寸法
  6
Continuous
 62
     7
370
     9
100
AcDbPolyline
 90
        4
 70
     1
 43
3.0
 10
2146.538803012594
 20
979.1058323739622
 42
0.4142135623731
 10
2145.038803012594
 20
980.6058323739621
 42
0.4142135623731
 10
2143.538803012594
 20
979.1058323739622
 42
0.4142135623731
 10
2145.038803012594
 20
977.6058323739624
 42
0.4142135623731
  0
LWPOLYLINE
  5
1B5
330
1F
100
AcDbEntity
  8
0-B_寸法
  6
Continuous
 62
     7
370
     9
100
AcDbPolyline
 90
        4
 70
     1
 43
3.0
 10
-2123.701717325961
 20
979.1058323739622
 42
0.4142135623731
 10
-2125.201717325961
 20
980.6058323739621
 42
0.4142135623731
 10
-2126.701717325961
 20
979.1058323739622
 42
0.4142135623731
 10
-2125.201717325961
 20
977.6058323739624
 42
0.4142135623731
  0
LWPOLYLINE
  5
1B6
330
1F
100
AcDbEntity
  8
0-B_寸法
  6
Continuous
 62
     7
370
     9
100
AcDbPolyline
 90
        4
 70
     1
 43
3.0
 10
-1979.701717325957
 20
979.1058323739622
 42
0.4142135623731
 10
-1981.201717325957
 20
980.6058323739621
 42
0.4142135623731
 10
-1982.701717325957
 20
979.1058323739622
 42
0.4142135623731
 10
-1981.201717325957
 20
977.6058323739624
 42
0.4142135623731
  0
LINE
  5
1B7
330
1F
100
AcDbEntity
  8
0-B_寸法
  6
Continuous
 62
   120
370
     5
100
AcDbLine
 10
-2125.201717325961
 20
979.1058323739622
 30
0.0
 11
2145.038803012594
 21
979.1058323739622
 31
0.0
  0
LINE
  5
1B8
330
1F
100
AcDbEntity
  8
0-B_寸法
  6
Continuous
 62
   120
370
     5
100
AcDbLine
 10
2001.038803012593
 20
979.1058323739622
 30
0.0
 11
2001.038803012593
 21
1759.105832373962
 31
0.0
  0
LINE
  5
1B9
330
1F
100
AcDbEntity
  8
0-B_寸法
  6
Continuous
 62
   120
370
     5
100
AcDbLine
 10
-1981.201717325957
 20
979.1058323739622
 30
0.0
 11
-1981.201717325957
 21
1759.105832373962
 31
0.0
  0
LWPOLYLINE
  5
1BA
330
1F
100
AcDbEntity
  8
0-B_寸法
  6
Continuous
 62
     7
370
     9
100
AcDbPolyline
 90
        4
 70
     1
 43
3.0
 10
2146.538803012594
 20
769.1058323739622
 42
0.4142135623731
 10
2145.038803012594
 20
770.6058323739622
 42
0.4142135623731
 10
2143.538803012594
 20
769.1058323739622
 42
0.4142135623731
 10
2145.038803012594
 20
767.6058323739622
 42
0.4142135623731
  0
LWPOLYLINE
  5
1BB
330
1F
100
AcDbEntity
  8
0-B_寸法
  6
Continuous
 62
     7
370
     9
100
AcDbPolyline
 90
        4
 70
     1
 43
3.0
 10
2176.538803012594
 20
769.1058323739622
 42
0.4142135623731
 10
2175.038803012594
 20
770.6058323739622
 42
0.4142135623731
 10
2173.538803012594
 20
769.1058323739622
 42
0.4142135623731
 10
2175.038803012594
 20
767.6058323739622
 42
0.4142135623731
  0
LWPOLYLINE
  5
1BC
330
1F
100
AcDbEntity
  8
0-B_寸法
  6
Continuous
 62
     7
370
     9
100
AcDbPolyline
 90
        4
 70
     1
 43
3.0
 10
-2123.701717325961
 20
769.1058323739622
 42
0.4142135623731
 10
-2125.201717325961
 20
770.6058323739622
 42
0.4142135623731
 10
-2126.701717325961
 20
769.1058323739622
 42
0.4142135623731
 10
-2125.201717325961
 20
767.6058323739622
 42
0.4142135623731
  0
LWPOLYLINE
  5
1BD
330
1F
100
AcDbEntity
  8
0-B_寸法
  6
Continuous
 62
     7
370
     9
100
AcDbPolyline
 90
        4
 70
     1
 43
3.0
 10
-2153.701717325961
 20
769.1058323739622
 42
0.4142135623731
 10
-2155.201717325961
 20
770.6058323739622
 42
0.4142135623731
 10
-2156.701717325961
 20
769.1058323739622
 42
0.4142135623731
 10
-2155.201717325961
 20
767.6058323739622
 42
0.4142135623731
  0
LINE
  5
1BE
330
1F
100
AcDbEntity
  8
0-B_寸法
  6
Continuous
 62
   120
370
     5
100
AcDbLine
 10
-2155.201717325961
 20
769.1058323739622
 30
0.0
 11
2175.038803012594
 21
769.1058323739622
 31
0.0
  0
LINE
  5
1BF
330
1F
100
AcDbEntity
  8
0-B_寸法
  6
Continuous
 62
   120
370
     5
100
AcDbLine
 10
2145.038803012594
 20
769.1058323739622
 30
0.0
 11
2145.038803012594
 21
1759.105832373962
 31
0.0
  0
LINE
  5
1C0
330
1F
100
AcDbEntity
  8
0-B_寸法
  6
Continuous
 62
   120
370
     5
100
AcDbLine
 10
-2125.201717325961
 20
769.1058323739622
 30
0.0
 11
-2125.201717325961
 21
1759.105832373962
 31
0.0
  0
LWPOLYLINE
  5
1C1
330
1F
100
AcDbEntity
  8
0-B_寸法
  6
Continuous
 62
     7
370
     9
100
AcDbPolyline
 90
        4
 70
     1
 43
3.0
 10
2176.538803012594
 20
559.1058323739622
 42
0.4142135623731
 10
2175.038803012594
 20
560.6058323739622
 42
0.4142135623731
 10
2173.538803012594
 20
559.1058323739622
 42
0.4142135623731
 10
2175.038803012594
 20
557.6058323739622
 42
0.4142135623731
  0
LWPOLYLINE
  5
1C2
330
1F
100
AcDbEntity
  8
0-B_寸法
  6
Continuous
 62
     7
370
     9
100
AcDbPolyline
 90
        4
 70
     1
 43
3.0
 10
-2153.701717325961
 20
559.1058323739622
 42
0.4142135623731
 10
-2155.201717325961
 20
560.6058323739622
 42
0.4142135623731
 10
-2156.701717325961
 20
559.1058323739622
 42
0.4142135623731
 10
-2155.201717325961
 20
557.6058323739622
 42
0.4142135623731
  0
LINE
  5
1C3
330
1F
100
AcDbEntity
  8
0-B_寸法
  6
Continuous
 62
   120
370
     5
100
AcDbLine
 10
2175.038803012594
 20
559.1058323739622
 30
0.0
 11
-2155.201717325961
 21
559.1058323739622
 31
0.0
  0
LINE
  5
1C4
330
1F
100
AcDbEntity
  8
0-B_寸法
  6
Continuous
 62
   120
370
     5
100
AcDbLine
 10
2175.038803012594
 20
559.1058323739622
 30
0.0
 11
2175.038803012594
 21
1759.105832373962
 31
0.0
  0
LINE
  5
1C5
330
1F
100
AcDbEntity
  8
0-B_寸法
  6
Continuous
 62
   120
370
     5
100
AcDbLine
 10
-2155.201717325961
 20
559.1058323739622
 30
0.0
 11
-2155.201717325961
 21
1759.105832373962
 31
0.0
  0
LINE
  5
1C6
330
1F
100
AcDbEntity
  8
0-0_補助線
  6
JWW_HOJO
 62
   120
370
     5
100
AcDbLine
 10
2475.038803120942
 20
769.1058323739622
 30
0.0
 11
-2455.201717519063
 21
769.1058323739622
 31
0.0
  0
LINE
  5
1C7
330
1F
100
AcDbEntity
  8
0-0_補助線
  6
JWW_HOJO
 62
   120
370
     5
100
AcDbLine
 10
2475.038803120942
 20
979.1058323739622
 30
0.0
 11
-2455.201717519063
 21
979.1058323739622
 31
0.0
  0
LINE
  5
1C8
330
1F
100
AcDbEntity
  8
0-0_補助線
  6
JWW_HOJO
 62
   120
370
     5
100
AcDbLine
 10
2475.038803120942
 20
1189.105832373962
 30
0.0
 11
-2455.201717519063
 21
1189.105832373962
 31
0.0
  0
LINE
  5
1C9
330
1F
100
AcDbEntity
  8
0-0_補助線
  6
JWW_HOJO
 62
   120
370
     5
100
AcDbLine
 10
2475.038803120942
 20
1399.105832373962
 30
0.0
 11
-2455.201717519063
 21
1399.105832373962
 31
0.0
  0
LWPOLYLINE
  5
1CA
330
1F
100
AcDbEntity
  8
0-B_寸法
  6
Continuous
 62
     7
370
     9
100
AcDbPolyline
 90
        4
 70
     1
 43
3.0
 10
-1919.701717325971
 20
1399.105832373962
 42
0.4142135623731
 10
-1921.201717325971
 20
1400.605832373962
 42
0.4142135623731
 10
-1922.701717325971
 20
1399.105832373962
 42
0.4142135623731
 10
-1921.201717325971
 20
1397.605832373962
 42
0.4142135623731
  0
LINE
  5
1CB
330
1F
100
AcDbEntity
  8
0-B_寸法
  6
Continuous
 62
   120
370
     5
100
AcDbLine
 10
-1921.201717325971
 20
1399.105832373962
 30
0.0
 11
-1921.201717325971
 21
1759.105832373962
 31
0.0
  0
LINE
  5
1CC
330
1F
100
AcDbEntity
  8
0-B_寸法
  6
Continuous
 62
   120
370
     5
100
AcDbLine
 10
-1921.201717325971
 20
1399.105832373962
 30
0.0
 11
1641.069878982496
 21
1399.105832373962
 31
0.0
  0
LWPOLYLINE
  5
1CD
330
1F
100
AcDbEntity
  8
0-B_寸法
  6
Continuous
 62
     7
370
     9
100
AcDbPolyline
 90
        4
 70
     1
 43
3.0
 10
1642.569878982496
 20
1399.105832373962
 42
0.4142135623731
 10
1641.069878982496
 20
1400.605832373962
 42
0.4142135623731
 10
1639.569878982496
 20
1399.105832373962
 42
0.4142135623731
 10
1641.069878982496
 20
1397.605832373962
 42
0.4142135623731
  0
LINE
  5
1CE
330
1F
100
AcDbEntity
  8
0-B_寸法
  6
Continuous
 62
   120
370
     5
100
AcDbLine
 10
1641.069878982496
 20
1399.105832373962
 30
0.0
 11
1641.069878982496
 21
1759.105832373962
 31
0.0
  0
LINE
  5
1CF
330
1F
100
AcDbEntity
  8
0-0_補助線
  6
JWW_HOJO
 62
   120
370
     5
100
AcDbLine
 10
2475.038803120942
 20
1759.105832373962
 30
0.0
 11
-2455.201717519063
 21
1759.105832373962
 31
0.0
  0
LINE
  5
1D0
330
1F
100
AcDbEntity
  8
0-1_通り芯
  6
JWW_CENTER1
 62
   120
370
     5
100
AcDbLine
 10
2175.038803012594
 20
2777.999683277028
 30
0.0
 11
2175.038803012594
 21
979.1058323739622
 31
0.0
  0
LINE
  5
1D1
330
1F
100
AcDbEntity
  8
0-1_通り芯
  6
JWW_CENTER1
 62
   120
370
     5
100
AcDbLine
 10
-2155.201717325961
 20
2777.999683277028
 30
0.0
 11
-2155.201717325961
 21
979.1058323739622
 31
0.0
  0
MTEXT
  5
1D2
330
1F
100
AcDbEntity
  8
0-A_文字
  6
Continuous
 62
     7
370
     9
100
AcDbMText
 10
-221.0814571566815
 20
1791.166866068561
 30
0.0
 40
91.43999999999994
 41
479.9999999999998
 46
0.0
 71
     7
 72
     1
  1
{\fＭＳ ゴシック|b0|i0|c128|p49;洋室側・}
 73
     1
 44
1.0
  0
MTEXT
  5
1D3
330
1F
100
AcDbEntity
  8
0-B_寸法
  6
Continuous
 62
     7
370
   211
100
AcDbMText
 10
-1323.475282970536
 20
2162.827183277026
 30
0.0
 40
97.15499999999999
 41
127.5
 46
0.0
 71
     7
 72
     1
  1
{\fＭＳ ゴシック|b0|i0|c128|p49;36}
 11
6.123031769111886E-17
 21
1.0
 31
0.0
 73
     1
 44
1.0
  0
LWPOLYLINE
  5
1D4
330
1F
100
AcDbEntity
  8
0-B_寸法
  6
Continuous
 62
     7
370
     9
100
AcDbPolyline
 90
        4
 70
     1
 43
3.0
 10
-1306.975282970536
 20
2129.999683277028
 42
0.4142135623731
 10
-1308.475282970536
 20
2131.499683277028
 42
0.4142135623731
 10
-1309.975282970536
 20
2129.999683277028
 42
0.4142135623731
 10
-1308.475282970536
 20
2128.499683277028
 42
0.4142135623731
  0
LWPOLYLINE
  5
1D5
330
1F
100
AcDbEntity
  8
0-B_寸法
  6
Continuous
 62
     7
370
     9
100
AcDbPolyline
 90
        4
 70
     1
 43
3.0
 10
-1306.975282970536
 20
2345.999683277027
 42
0.4142135623731
 10
-1308.475282970536
 20
2347.499683277027
 42
0.4142135623731
 10
-1309.975282970536
 20
2345.999683277027
 42
0.4142135623731
 10
-1308.475282970536
 20
2344.499683277027
 42
0.4142135623731
  0
LINE
  5
1D6
330
1F
100
AcDbEntity
  8
0-B_寸法
  6
Continuous
 62
   120
370
     5
100
AcDbLine
 10
-1308.475282970536
 20
2345.999683277027
 30
0.0
 11
-1308.475282970536
 21
2129.999683277028
 31
0.0
  0
LINE
  5
1D7
330
1F
100
AcDbEntity
  8
0-A_文字
  6
Continuous
 62
     7
370
     9
100
AcDbLine
 10
318.9185428433183
 20
1985.446866069251
 30
0.0
 11
-281.0814571566817
 21
1985.446866069251
 31
0.0
  0
LINE
  5
1D8
330
1F
100
AcDbEntity
  8
0-A_文字
  6
Continuous
 62
     7
370
     9
100
AcDbLine
 10
-281.0814571566817
 20
1985.446866069251
 30
0.0
 11
-281.0814571566817
 21
1745.446866069251
 31
0.0
  0
LINE
  5
1D9
330
1F
100
AcDbEntity
  8
0-A_文字
  6
Continuous
 62
     7
370
     9
100
AcDbLine
 10
-281.0814571566817
 20
1745.446866069251
 30
0.0
 11
318.9185428433183
 21
1745.446866069251
 31
0.0
  0
LINE
  5
1DA
330
1F
100
AcDbEntity
  8
0-A_文字
  6
Continuous
 62
     7
370
     9
100
AcDbLine
 10
318.9185428433183
 20
1745.446866069251
 30
0.0
 11
318.9185428433183
 21
1985.446866069251
 31
0.0
  0
LINE
  5
1DB
330
1F
100
AcDbEntity
  8
0-0_補助線
  6
JWW_HOJO
 62
   120
370
     5
100
AcDbLine
 10
-41.08145715668172
 20
1888.105317693961
 30
0.0
 11
-41.08145715668172
 21
2939.999683277028
 31
0.0
  0
LINE
  5
1DC
330
1F
100
AcDbEntity
  8
0-0_補助線
  6
JWW_HOJO
 62
   120
370
     5
100
AcDbLine
 10
78.91854284331828
 20
1888.105317693961
 30
0.0
 11
78.91854284331828
 21
2939.999683277028
 31
0.0
  0
LINE
  5
1DD
330
1F
100
AcDbEntity
  8
0-3_仕上げ
  6
Continuous
 62
    40
370
    15
100
AcDbLine
 10
-2455.201717325961
 20
2867.999683277028
 30
0.0
 11
-41.08145715668172
 21
2867.999683277028
 31
0.0
  0
LINE
  5
1DE
330
1F
100
AcDbEntity
  8
0-3_仕上げ
  6
Continuous
 62
    40
370
    15
100
AcDbLine
 10
78.91854284331828
 20
2867.999683277028
 30
0.0
 11
2475.038803120942
 21
2867.999683277028
 31
0.0
  0
LINE
  5
1DF
330
1F
100
AcDbEntity
  8
0-3_仕上げ
  6
Continuous
 62
    40
370
    15
100
AcDbLine
 10
2000.593475553033
 20
2777.999683277028
 30
0.0
 11
2475.038803120942
 21
2777.999683277028
 31
0.0
  0
LINE
  5
1E0
330
1F
100
AcDbEntity
  8
0-3_仕上げ
  6
Continuous
 62
    40
370
    15
100
AcDbLine
 10
-2455.201717325961
 20
2777.999683277028
 30
0.0
 11
-1981.166664038808
 21
2777.999683277028
 31
0.0
  0
LINE
  5
1E1
330
1F
100
AcDbEntity
  8
0-4_枠
  6
Continuous
 62
   120
370
     5
100
AcDbLine
 10
-1981.166664038808
 20
2777.999683277028
 30
0.0
 11
-41.08145715668172
 21
2777.999683277028
 31
0.0
  0
LINE
  5
1E2
330
1F
100
AcDbEntity
  8
0-4_枠
  6
Continuous
 62
   120
370
     5
100
AcDbLine
 10
78.91854284331828
 20
2777.999683277028
 30
0.0
 11
2000.593475553033
 21
2777.999683277028
 31
0.0
  0
LINE
  5
1E3
330
1F
100
AcDbEntity
  8
0-4_枠
  6
Continuous
 62
   120
370
     5
100
AcDbLine
 10
-1981.166664038808
 20
2099.999683277028
 30
0.0
 11
-41.08145715668172
 21
2099.999683277028
 31
0.0
  0
LINE
  5
1E4
330
1F
100
AcDbEntity
  8
0-4_枠
  6
Continuous
 62
   120
370
     5
100
AcDbLine
 10
78.91854284331828
 20
2099.999683277028
 30
0.0
 11
2000.593475553033
 21
2099.999683277028
 31
0.0
  0
LINE
  5
1E5
330
1F
100
AcDbEntity
  8
0-2_柱
  6
Continuous
 62
     7
370
     9
100
AcDbLine
 10
2175.038803012594
 20
2074.105832373961
 30
0.0
 11
2355.038803012594
 21
2704.105832373961
 31
0.0
  0
LINE
  5
1E6
330
1F
100
AcDbEntity
  8
0-2_柱
  6
Continuous
 62
     7
370
     9
100
AcDbLine
 10
-2335.201717325961
 20
2074.105832373961
 30
0.0
 11
-2155.201717325961
 21
2704.105832373961
 31
0.0
  0
INSERT
  5
1E7
330
1F
100
AcDbEntity
  8
0-0_補助線
  6
Continuous
 62
     7
370
     9
100
AcDbBlockReference
  2
01@@SfigorgFlag@@4
 10
1975.628267258664
 20
2430.529464040752
 30
0.0
 41
30.0
 42
30.0
  0
MTEXT
  5
1E8
330
1F
100
AcDbEntity
  8
0-B_寸法
  6
Continuous
 62
     7
370
   211
100
AcDbMText
 10
-1197.581457156684
 20
1405.223332373962
 30
0.0
 40
102.235
 41
2415.0
 46
0.0
 71
     7
 72
     1
  1
{\fＭＳ ゴシック|b0|i0|c128|p49;有効開口寸法＝730（660）<640>［617］}
 73
     1
 44
1.0
  0
MTEXT
  5
1E9
330
1F
100
AcDbEntity
  8
0-B_寸法
  6
Continuous
 62
     7
370
     0
100
AcDbMText
 10
-927.5814571566842
 20
1199.047749713574
 30
0.0
 40
102.0535714285714
 41
1875.0
 46
0.0
 71
     7
 72
     1
  1
{\fＭＳ ゴシック|b0|i0|c128|p49;ＤＷ＝793（723）<703>［680］}
 73
     1
 44
1.0
  0
MTEXT
  5
1EA
330
1F
100
AcDbEntity
  8
0-B_寸法
  6
Continuous
 62
     7
370
   211
100
AcDbMText
 10
-927.5814571566842
 20
985.1326180882479
 30
0.0
 40
102.0535714285714
 41
1875.0
 46
0.0
 71
     7
 72
     1
  1
{\fＭＳ ゴシック|b0|i0|c128|p49;枠内＝800（730）<710>［687］}
 73
     1
 44
1.0
  0
MTEXT
  5
1EB
330
1F
100
AcDbEntity
  8
0-B_寸法
  6
Continuous
 62
     7
370
     0
100
AcDbMText
 10
-927.5814571566842
 20
767.9711647497455
 30
0.0
 40
102.0535714285714
 41
1875.0
 46
0.0
 71
     7
 72
     1
  1
{\fＭＳ ゴシック|b0|i0|c128|p49;枠外＝848（778）<758>［735］}
 73
     1
 44
1.0
  0
MTEXT
  5
1EC
330
1F
100
AcDbEntity
  8
0-B_寸法
  6
Continuous
 62
     7
370
   211
100
AcDbMText
 10
-995.0814571566842
 20
565.1598323739622
 30
0.0
 40
102.108
 41
2010.0
 46
0.0
 71
     7
 72
     1
  1
{\fＭＳ ゴシック|b0|i0|c128|p49;ＲＯＷ＝858（788）<768>［745］}
 73
     1
 44
1.0
  0
ELLIPSE
  5
1ED
330
1F
100
AcDbEntity
  8
戸当り
  6
Continuous
 62
    92
370
    13
100
AcDbEllipse
 10
4540.105034654816
 20
2921.05378825337
 30
0.0
 11
11.36181697857171
 21
42.40287823032828
 31
0.0
210
0.0
220
0.0
230
0.9999999999999999
 40
0.6
 41
1.570796326794897
 42
4.71238898038469
  0
LINE
  5
1EE
330
1F
100
AcDbEntity
  8
戸当り
  6
Continuous
 62
    92
370
    13
100
AcDbLine
 10
4565.546761593012
 20
2914.236698066227
 30
0.0
 11
4514.663307716621
 21
2927.870878440512
 31
0.0
  0
LINE
  5
1EF
330
1F
100
AcDbEntity
  8
戸当り
  6
Continuous
 62
    92
370
    13
100
AcDbLine
 10
4568.807881561306
 20
2926.407363477469
 30
0.0
 11
4517.924427684912
 21
2940.041543851755
 31
0.0
  0
ELLIPSE
  5
1F0
330
1F
100
AcDbEntity
  8
戸当り
  6
Continuous
 62
    92
370
    13
100
AcDbEllipse
 10
4564.278427952497
 20
3011.270120231655
 30
0.0
 11
21.86569797210526
 21
81.6038957748525
 31
0.0
210
0.0
220
0.0
230
1.0
 40
0.5
 41
4.340591432030095
 42
8.225779182329084
  0
ELLIPSE
  5
1F1
330
1F
100
AcDbEntity
  8
戸当り
  6
Continuous
 62
    92
370
    13
100
AcDbEllipse
 10
4563.652805079393
 20
3008.935263882863
 30
0.0
 11
26.49533313827761
 21
98.88192943551533
 31
0.0
210
0.0
220
0.0
230
0.9999999999999999
 40
0.4
 41
3.840308517104466
 42
4.432552034522944
  0
ELLIPSE
  5
1F2
330
1F
100
AcDbEntity
  8
戸当り
  6
Continuous
 62
    92
370
    13
100
AcDbEllipse
 10
4563.652805079393
 20
3008.935263882863
 30
0.0
 11
26.49533313827761
 21
98.88192943551533
 31
0.0
210
0.0
220
0.0
230
0.9999999999999999
 40
0.4
 41
1.850633272656679
 42
2.442876790075129
  0
ELLIPSE
  5
1F3
330
1F
100
AcDbEntity
  8
戸当り
  6
Continuous
 62
    92
370
    13
100
AcDbEllipse
 10
4424.990824908116
 20
2883.285044889069
 30
0.0
 11
-7.622927487939132
 21
43.23177007461331
 31
0.0
210
0.0
220
0.0
230
1.0
 40
0.6000000000000001
 41
1.570796326794897
 42
4.71238898038469
  0
LINE
  5
1F4
330
1F
100
AcDbEntity
  8
戸当り
  6
Continuous
 62
    92
370
    13
100
AcDbLine
 10
4450.929886952883
 20
2887.858801381833
 30
0.0
 11
4399.051762863348
 21
2878.711288396305
 31
0.0
  0
LINE
  5
1F5
330
1F
100
AcDbEntity
  8
戸当り
  6
Continuous
 62
    92
370
    13
100
AcDbLine
 10
4448.741919914281
 20
2900.267379069786
 30
0.0
 11
4396.863795824745
 21
2891.119866084259
 31
0.0
  0
ELLIPSE
  5
1F6
330
1F
100
AcDbEntity
  8
戸当り
  6
Continuous
 62
    92
370
    13
100
AcDbEllipse
 10
4408.772290091615
 20
2975.264926534712
 30
0.0
 11
-14.67024424252691
 21
83.19908946199426
 31
0.0
210
0.0
220
0.0
230
1.0
 40
0.5
 41
4.340591432030095
 42
8.225779182329084
  0
ELLIPSE
  5
1F7
330
1F
100
AcDbEntity
  8
戸当り
  6
Continuous
 62
    92
370
    13
100
AcDbEllipse
 10
4409.192036141518
 20
2972.884428393056
 30
0.0
 11
-17.7763823922528
 21
100.8148742797557
 31
0.0
210
0.0
220
0.0
230
1.0
 40
0.4000000000000001
 41
3.840308517104466
 42
4.432552034522944
  0
ELLIPSE
  5
1F8
330
1F
100
AcDbEntity
  8
戸当り
  6
Continuous
 62
    92
370
    13
100
AcDbEllipse
 10
4409.192036141518
 20
2972.884428393056
 30
0.0
 11
-17.7763823922528
 21
100.8148742797557
 31
0.0
210
0.0
220
0.0
230
1.0
 40
0.4000000000000001
 41
1.850633272656679
 42
2.442876790075129
  0
LINE
  5
1F9
330
1F
100
AcDbEntity
  8
0-0_補助線
  6
JWW_HOJO
 62
   120
370
     5
100
AcDbLine
 10
4482.835838693029
 20
3730.000181455871
 30
0.0
 11
4482.835838693029
 21
2764.000181455871
 31
0.0
  0
LINE
  5
1FA
330
1F
100
AcDbEntity
  8
0-0_補助線
  6
JWW_HOJO
 62
   120
370
     5
100
AcDbLine
 10
5280.835838693027
 20
3730.000181455871
 30
0.0
 11
5280.835838693027
 21
2764.000181455871
 31
0.0
  0
ELLIPSE
  5
1FB
330
1F
100
AcDbEntity
  8
戸当り
  6
Continuous
 62
    92
370
    13
100
AcDbEllipse
 10
5338.10503465482
 20
2921.05378825337
 30
0.0
 11
11.36181697857171
 21
42.40287823032828
 31
0.0
210
0.0
220
0.0
230
0.9999999999999999
 40
0.6
 41
1.570796326794897
 42
4.71238898038469
  0
LINE
  5
1FC
330
1F
100
AcDbEntity
  8
戸当り
  6
Continuous
 62
    92
370
    13
100
AcDbLine
 10
5363.546761593016
 20
2914.236698066227
 30
0.0
 11
5312.663307716619
 21
2927.870878440512
 31
0.0
  0
LINE
  5
1FD
330
1F
100
AcDbEntity
  8
戸当り
  6
Continuous
 62
    92
370
    13
100
AcDbLine
 10
5366.807881561303
 20
2926.407363477469
 30
0.0
 11
5315.924427684913
 21
2940.041543851755
 31
0.0
  0
ELLIPSE
  5
1FE
330
1F
100
AcDbEntity
  8
戸当り
  6
Continuous
 62
    92
370
    13
100
AcDbEllipse
 10
5362.278427952498
 20
3011.270120231655
 30
0.0
 11
21.86569797210526
 21
81.6038957748525
 31
0.0
210
0.0
220
0.0
230
1.0
 40
0.5
 41
4.340591432030095
 42
8.225779182329084
  0
ELLIPSE
  5
1FF
330
1F
100
AcDbEntity
  8
戸当り
  6
Continuous
 62
    92
370
    13
100
AcDbEllipse
 10
5361.652805079394
 20
3008.935263882863
 30
0.0
 11
26.49533313827761
 21
98.88192943551533
 31
0.0
210
0.0
220
0.0
230
0.9999999999999999
 40
0.4
 41
3.840308517104466
 42
4.432552034522944
  0
ELLIPSE
  5
200
330
1F
100
AcDbEntity
  8
戸当り
  6
Continuous
 62
    92
370
    13
100
AcDbEllipse
 10
5361.652805079394
 20
3008.935263882863
 30
0.0
 11
26.49533313827761
 21
98.88192943551533
 31
0.0
210
0.0
220
0.0
230
0.9999999999999999
 40
0.4
 41
1.850633272656679
 42
2.442876790075129
  0
ELLIPSE
  5
201
330
1F
100
AcDbEntity
  8
戸当り
  6
Continuous
 62
    92
370
    13
100
AcDbEllipse
 10
5222.990824908113
 20
2883.285044889069
 30
0.0
 11
-7.622927487939132
 21
43.23177007461331
 31
0.0
210
0.0
220
0.0
230
1.0
 40
0.6000000000000001
 41
1.570796326794897
 42
4.71238898038469
  0
LINE
  5
202
330
1F
100
AcDbEntity
  8
戸当り
  6
Continuous
 62
    92
370
    13
100
AcDbLine
 10
5248.929886952884
 20
2887.858801381833
 30
0.0
 11
5197.051762863346
 21
2878.711288396305
 31
0.0
  0
LINE
  5
203
330
1F
100
AcDbEntity
  8
戸当り
  6
Continuous
 62
    92
370
    13
100
AcDbLine
 10
5246.741919914281
 20
2900.267379069786
 30
0.0
 11
5194.863795824742
 21
2891.119866084259
 31
0.0
  0
ELLIPSE
  5
204
330
1F
100
AcDbEntity
  8
戸当り
  6
Continuous
 62
    92
370
    13
100
AcDbEllipse
 10
5206.77229009162
 20
2975.264926534712
 30
0.0
 11
-14.67024424252691
 21
83.19908946199426
 31
0.0
210
0.0
220
0.0
230
1.0
 40
0.5
 41
4.340591432030095
 42
8.225779182329084
  0
ELLIPSE
  5
205
330
1F
100
AcDbEntity
  8
戸当り
  6
Continuous
 62
    92
370
    13
100
AcDbEllipse
 10
5207.192036141519
 20
2972.884428393056
 30
0.0
 11
-17.7763823922528
 21
100.8148742797557
 31
0.0
210
0.0
220
0.0
230
1.0
 40
0.4000000000000001
 41
3.840308517104466
 42
4.432552034522944
  0
ELLIPSE
  5
206
330
1F
100
AcDbEntity
  8
戸当り
  6
Continuous
 62
    92
370
    13
100
AcDbEllipse
 10
5207.192036141519
 20
2972.884428393056
 30
0.0
 11
-17.7763823922528
 21
100.8148742797557
 31
0.0
210
0.0
220
0.0
230
1.0
 40
0.4000000000000001
 41
1.850633272656679
 42
2.442876790075129
  0
ARC
  5
207
330
1F
100
AcDbEntity
  8
戸当り
  6
Continuous
 62
    40
370
    15
100
AcDbCircle
 10
5125.435838693024
 20
3444.04627338033
 30
0.0
 40
310.8
100
AcDbArc
 50
270.0
 51
0.0
  0
LINE
  5
208
330
1F
100
AcDbEntity
  8
戸当り
  6
Continuous
 62
    40
370
    15
100
AcDbLine
 10
5125.435838693024
 20
3481.846273380329
 30
0.0
 11
5125.435838693024
 21
3133.246273380329
 31
0.0
  0
LINE
  5
209
330
1F
100
AcDbEntity
  8
戸当り
  6
Continuous
 62
    40
370
    15
100
AcDbLine
 10
5658.835838693023
 20
3444.04627338033
 30
0.0
 11
4902.835838693029
 21
3444.04627338033
 31
0.0
  0
ARC
  5
20A
330
1F
100
AcDbEntity
  8
戸当り
  6
Continuous
 62
    40
370
    15
100
AcDbCircle
 10
4638.235838693025
 20
3444.04627338033
 30
0.0
 40
310.8
100
AcDbArc
 50
180.0
 51
270.0
  0
LINE
  5
20B
330
1F
100
AcDbEntity
  8
戸当り
  6
Continuous
 62
    40
370
    15
100
AcDbLine
 10
4638.235838693025
 20
3481.846273380329
 30
0.0
 11
4638.235838693025
 21
3133.246273380329
 31
0.0
  0
LINE
  5
20C
330
1F
100
AcDbEntity
  8
戸当り
  6
Continuous
 62
    40
370
    15
100
AcDbLine
 10
4104.835838693025
 20
3444.04627338033
 30
0.0
 11
4860.835838693027
 21
3444.04627338033
 31
0.0
  0
LINE
  5
20D
330
1F
100
AcDbEntity
  8
0-0_補助線
  6
JWW_HOJO
 62
   120
370
     5
100
AcDbLine
 10
4104.835838693025
 20
3730.000181455871
 30
0.0
 11
4104.835838693025
 21
2764.000181455871
 31
0.0
  0
LINE
  5
20E
330
1F
100
AcDbEntity
  8
0-0_補助線
  6
JWW_HOJO
 62
   120
370
     5
100
AcDbLine
 10
4860.835838693027
 20
3730.000181455871
 30
0.0
 11
4860.835838693027
 21
2764.000181455871
 31
0.0
  0
LINE
  5
20F
330
1F
100
AcDbEntity
  8
戸当り
  6
Continuous
 62
    40
370
    15
100
AcDbLine
 10
4327.435838693027
 20
3481.846273380329
 30
0.0
 11
4104.835838693025
 21
3481.846273380329
 31
0.0
  0
LINE
  5
210
330
1F
100
AcDbEntity
  8
戸当り
  6
Continuous
 62
    40
370
    15
100
AcDbLine
 10
4327.435838693027
 20
3481.846273380329
 30
0.0
 11
4327.435838693027
 21
3444.04627338033
 31
0.0
  0
LINE
  5
211
330
1F
100
AcDbEntity
  8
戸当り
  6
Continuous
 62
    40
370
    15
100
AcDbLine
 10
4638.235838693025
 20
3481.846273380329
 30
0.0
 11
4860.835838693027
 21
3481.846273380329
 31
0.0
  0
LINE
  5
212
330
1F
100
AcDbEntity
  8
戸当り
  6
Continuous
 62
    40
370
    15
100
AcDbLine
 10
5125.435838693024
 20
3481.846273380329
 30
0.0
 11
4902.835838693029
 21
3481.846273380329
 31
0.0
  0
LINE
  5
213
330
1F
100
AcDbEntity
  8
戸当り
  6
Continuous
 62
    40
370
    15
100
AcDbLine
 10
5436.235838693025
 20
3481.846273380329
 30
0.0
 11
5436.235838693025
 21
3444.04627338033
 31
0.0
  0
LINE
  5
214
330
1F
100
AcDbEntity
  8
戸当り
  6
Continuous
 62
    40
370
    15
100
AcDbLine
 10
5436.235838693025
 20
3481.846273380329
 30
0.0
 11
5658.835838693023
 21
3481.846273380329
 31
0.0
  0
LINE
  5
215
330
1F
100
AcDbEntity
  8
0-0_補助線
  6
JWW_HOJO
 62
   120
370
     5
100
AcDbLine
 10
4902.835838693029
 20
3730.000181455871
 30
0.0
 11
4902.835838693029
 21
2764.000181455871
 31
0.0
  0
LINE
  5
216
330
1F
100
AcDbEntity
  8
0-0_補助線
  6
JWW_HOJO
 62
   120
370
     5
100
AcDbLine
 10
5658.835838693023
 20
3730.000181455871
 30
0.0
 11
5658.835838693023
 21
2764.000181455871
 31
0.0
  0
LINE
  5
217
330
1F
100
AcDbEntity
  8
0-A_文字
  6
Continuous
 62
    92
370
    13
100
AcDbLine
 10
4881.835838693024
 20
3730.000181455871
 30
0.0
 11
4881.835838693024
 21
2764.000181455871
 31
0.0
  0
LINE
  5
218
330
1F
100
AcDbEntity
  8
0-A_文字
  6
Continuous
 62
    92
370
    13
100
AcDbLine
 10
5679.835838693025
 20
2764.000181455871
 30
0.0
 11
4083.835838693024
 21
2764.000181455871
 31
0.0
  0
LINE
  5
219
330
1F
100
AcDbEntity
  8
0-A_文字
  6
Continuous
 62
    92
370
    13
100
AcDbLine
 10
5679.835838693025
 20
3730.000181455871
 30
0.0
 11
5679.835838693025
 21
2764.000181455871
 31
0.0
  0
LINE
  5
21A
330
1F
100
AcDbEntity
  8
0-A_文字
  6
Continuous
 62
    92
370
    13
100
AcDbLine
 10
5679.835838693025
 20
3730.000181455871
 30
0.0
 11
4083.835838693024
 21
3730.000181455871
 31
0.0
  0
LINE
  5
21B
330
1F
100
AcDbEntity
  8
0-A_文字
  6
Continuous
 62
    92
370
    13
100
AcDbLine
 10
4083.835838693024
 20
3604.000181455871
 30
0.0
 11
5679.835838693025
 21
3604.000181455871
 31
0.0
  0
LINE
  5
21C
330
1F
100
AcDbEntity
  8
0-A_文字
  6
Continuous
 62
    92
370
    13
100
AcDbLine
 10
4083.835838693024
 20
3730.000181455871
 30
0.0
 11
4083.835838693024
 21
2764.000181455871
 31
0.0
  0
MTEXT
  5
21D
330
1F
100
AcDbEntity
  8
0-A_文字
  6
Continuous
 62
     7
370
     9
100
AcDbMText
 10
4083.835838693027
 20
3750.482681455871
 30
0.0
 40
100.965
 41
795.0
 46
0.0
 71
     7
 72
     1
  1
{\fＭＳ ゴシック|b0|i0|c128|p49;■吊り手方向}
 73
     1
 44
1.0
  0
MTEXT
  5
21E
330
1F
100
AcDbEntity
  8
0-A_文字
  6
Continuous
 62
     7
370
     9
100
AcDbMText
 10
4332.835838693029
 20
3615.100181455872
 30
0.0
 40
76.19999999999999
 41
300.0
 46
0.0
 71
     7
 72
     1
  1
{\fＭＳ ゴシック|b0|i0|c128|p49;右吊元}
 73
     1
 44
1.0
  0
MTEXT
  5
21F
330
1F
100
AcDbEntity
  8
0-A_文字
  6
Continuous
 62
     7
370
     9
100
AcDbMText
 10
5130.835838693027
 20
3615.100181455872
 30
0.0
 40
76.19999999999999
 41
300.0
 46
0.0
 71
     7
 72
     1
  1
{\fＭＳ ゴシック|b0|i0|c128|p49;左吊元}
 73
     1
 44
1.0
  0
LINE
  5
220
330
1F
100
AcDbEntity
  8
0-2_柱
  6
Continuous
 62
     7
370
     9
100
AcDbLine
 10
-1529.862206938526
 20
-110.9999919582046
 30
0.0
 11
-2159.862206938526
 21
-290.9999919582046
 31
0.0
  0
LINE
  5
221
330
1F
100
AcDbEntity
  8
0-2_柱
  6
Continuous
 62
    92
370
    13
100
AcDbLine
 10
-1529.862206938526
 20
-110.9999919582046
 30
0.0
 11
-2159.862206938526
 21
-110.9999919582046
 31
0.0
  0
LINE
  5
222
330
1F
100
AcDbEntity
  8
0-2_柱
  6
Continuous
 62
    92
370
    13
100
AcDbLine
 10
-1529.862206938526
 20
-290.9999919582046
 30
0.0
 11
-1529.862206938526
 21
-110.9999919582046
 31
0.0
  0
LINE
  5
223
330
1F
100
AcDbEntity
  8
0-2_柱
  6
Continuous
 62
    92
370
    13
100
AcDbLine
 10
-2159.862206938526
 20
-290.9999919582046
 30
0.0
 11
-1529.862206938526
 21
-290.9999919582046
 31
0.0
  0
LINE
  5
224
330
1F
100
AcDbEntity
  8
0-2_柱
  6
Continuous
 62
    92
370
    13
100
AcDbLine
 10
-2159.862206938526
 20
-110.9999919582046
 30
0.0
 11
-2159.862206938526
 21
-290.9999919582046
 31
0.0
  0
LINE
  5
225
330
1F
100
AcDbEntity
  8
0-3_仕上げ
  6
Continuous
 62
    40
370
    15
100
AcDbLine
 10
-2234.862206938526
 20
9.000008041797543
 30
0.0
 11
-2234.862206938526
 21
-338.999991958204
 31
0.0
  0
LINE
  5
226
330
1F
100
AcDbEntity
  8
0-3_仕上げ
  6
Continuous
 62
    40
370
    15
100
AcDbLine
 10
-2159.862206938526
 20
-338.999991958204
 30
0.0
 11
-2234.862206938526
 21
-338.999991958204
 31
0.0
  0
LINE
  5
227
330
1F
100
AcDbEntity
  8
0-3_仕上げ
  6
Continuous
 62
    40
370
    15
100
AcDbLine
 10
-2159.862206938526
 20
9.000008041797543
 30
0.0
 11
-2159.862206938526
 21
-338.9999919582032
 31
0.0
  0
LINE
  5
228
330
1F
100
AcDbEntity
  8
0-3_仕上げ
  6
Continuous
 62
    40
370
    15
100
AcDbLine
 10
-1529.862206938526
 20
9.000008041797543
 30
0.0
 11
-1529.862206938526
 21
-338.9999919582032
 31
0.0
  0
LINE
  5
229
330
1F
100
AcDbEntity
  8
0-3_仕上げ
  6
Continuous
 62
    40
370
    15
100
AcDbLine
 10
-1454.862206938526
 20
9.000008041797543
 30
0.0
 11
-1454.862206938526
 21
-338.9999919582032
 31
0.0
  0
LINE
  5
22A
330
1F
100
AcDbEntity
  8
0-3_仕上げ
  6
Continuous
 62
    40
370
    15
100
AcDbLine
 10
-1454.862206938526
 20
-338.9999919582032
 30
0.0
 11
-1529.862206938526
 21
-338.9999919582032
 31
0.0
  0
LINE
  5
22B
330
1F
100
AcDbEntity
  8
0-C_ハッチ
  6
JWW_DASHED1
 62
   120
370
     5
100
AcDbLine
 10
-2234.862206938526
 20
-101.2925489128359
 30
0.0
 11
-2159.862206938533
 21
-26.29254891284276
 31
0.0
  0
LINE
  5
22C
330
1F
100
AcDbEntity
  8
0-C_ハッチ
  6
JWW_DASHED1
 62
   120
370
     5
100
AcDbLine
 10
-2234.862206938526
 20
-143.7189557840368
 30
0.0
 11
-2159.86220693853
 21
-68.71895578404022
 31
0.0
  0
LINE
  5
22D
330
1F
100
AcDbEntity
  8
0-C_ハッチ
  6
JWW_DASHED1
 62
   120
370
     5
100
AcDbLine
 10
-2234.86220693852
 20
-186.1453626551754
 30
0.0
 11
-2159.862206938523
 21
-111.1453626551788
 31
0.0
  0
LINE
  5
22E
330
1F
100
AcDbEntity
  8
0-C_ハッチ
  6
JWW_DASHED1
 62
   120
370
     5
100
AcDbLine
 10
-2234.862206938516
 20
-228.571769526372
 30
0.0
 11
-2159.86220693852
 21
-153.5717695263754
 31
0.0
  0
LINE
  5
22F
330
1F
100
AcDbEntity
  8
0-C_ハッチ
  6
JWW_DASHED1
 62
   120
370
     5
100
AcDbLine
 10
-2234.86220693853
 20
-270.9981763975849
 30
0.0
 11
-2159.862206938516
 21
-195.9981763975725
 31
0.0
  0
LINE
  5
230
330
1F
100
AcDbEntity
  8
0-C_ハッチ
  6
JWW_DASHED1
 62
   120
370
     5
100
AcDbLine
 10
-2234.862206938526
 20
-313.4245832687823
 30
0.0
 11
-2159.862206938513
 21
-238.4245832687687
 31
0.0
  0
LINE
  5
231
330
1F
100
AcDbEntity
  8
0-C_ハッチ
  6
JWW_DASHED1
 62
   120
370
     5
100
AcDbLine
 10
-2218.011208756755
 20
-338.99999195821
 30
0.0
 11
-2159.862206938513
 21
-280.8509901399686
 31
0.0
  0
LINE
  5
232
330
1F
100
AcDbEntity
  8
0-C_ハッチ
  6
JWW_DASHED1
 62
   120
370
     5
100
AcDbLine
 10
-2175.584801885552
 20
-338.9999919582074
 30
0.0
 11
-2159.862206938523
 21
-323.2773970111802
 31
0.0
  0
LINE
  5
233
330
1F
100
AcDbEntity
  8
0-C_ハッチ
  6
JWW_DASHED1
 62
   120
370
     5
100
AcDbLine
 10
-1529.862206938521
 20
-117.5414657230665
 30
0.0
 11
-1454.862206938525
 21
-42.54146572307036
 31
0.0
  0
LINE
  5
234
330
1F
100
AcDbEntity
  8
0-C_ハッチ
  6
JWW_DASHED1
 62
   120
370
     5
100
AcDbLine
 10
-1529.862206938518
 20
-159.9678725942644
 30
0.0
 11
-1454.862206938521
 21
-84.96787259426782
 31
0.0
  0
LINE
  5
235
330
1F
100
AcDbEntity
  8
0-C_ハッチ
  6
JWW_DASHED1
 62
   120
370
     5
100
AcDbLine
 10
-1529.862206938516
 20
-202.3942794654623
 30
0.0
 11
-1454.86220693852
 21
-127.3942794654657
 31
0.0
  0
LINE
  5
236
330
1F
100
AcDbEntity
  8
0-C_ハッチ
  6
JWW_DASHED1
 62
   120
370
     5
100
AcDbLine
 10
-1529.862206938528
 20
-244.8206863366747
 30
0.0
 11
-1454.862206938516
 21
-169.8206863366623
 31
0.0
  0
LINE
  5
237
330
1F
100
AcDbEntity
  8
0-C_ハッチ
  6
JWW_DASHED1
 62
   120
370
     5
100
AcDbLine
 10
-1529.862206938526
 20
-287.2470932078734
 30
0.0
 11
-1454.86220693852
 21
-212.2470932078657
 31
0.0
  0
LINE
  5
238
330
1F
100
AcDbEntity
  8
0-C_ハッチ
  6
JWW_DASHED1
 62
   120
370
     5
100
AcDbLine
 10
-1529.862206938523
 20
-329.6735000790692
 30
0.0
 11
-1454.862206938513
 21
-254.6735000790598
 31
0.0
  0
LINE
  5
239
330
1F
100
AcDbEntity
  8
0-C_ハッチ
  6
JWW_DASHED1
 62
   120
370
     5
100
AcDbLine
 10
-1496.762291946464
 20
-338.99999195821
 30
0.0
 11
-1454.862206938525
 21
-297.0999069502713
 31
0.0
  0
LINE
  5
23A
330
1F
100
AcDbEntity
  8
0-C_ハッチ
  6
JWW_DASHED1
 62
   120
370
     5
100
AcDbLine
 10
-2234.86220693852
 20
-16.43973517042994
 30
0.0
 11
-2209.422463726295
 21
9.000008041797543
 31
0.0
  0
LINE
  5
23B
330
1F
100
AcDbEntity
  8
0-C_ハッチ
  6
JWW_DASHED1
 62
   120
370
     5
100
AcDbLine
 10
-2234.86220693853
 20
-58.86614204164061
 30
0.0
 11
-2166.996056855093
 21
9.000008041797543
 31
0.0
  0
LINE
  5
23C
330
1F
100
AcDbEntity
  8
0-C_ハッチ
  6
JWW_DASHED1
 62
   120
370
     5
100
AcDbLine
 10
-1529.86220693853
 20
-32.68865198073129
 30
0.0
 11
-1488.173546916002
 21
9.000008041797543
 31
0.0
  0
LINE
  5
23D
330
1F
100
AcDbEntity
  8
0-C_ハッチ
  6
JWW_DASHED1
 62
   120
370
     5
100
AcDbLine
 10
-1529.862206938528
 20
-75.11505885192918
 30
0.0
 11
-1454.862206938526
 21
-0.1150588519278983
 31
0.0
  0
LINE
  5
23E
330
1F
100
AcDbEntity
  8
0-4_枠
  6
Continuous
 62
   120
370
     5
100
AcDbLine
 10
-2233.756057841593
 20
-1839.000197951857
 30
0.0
 11
-2233.756057841593
 21
-3072.000197951856
 31
0.0
  0
LINE
  5
23F
330
1F
100
AcDbEntity
  8
0-4_枠
  6
Continuous
 62
   120
370
     5
100
AcDbLine
 10
-1555.756057841596
 20
-1839.000197951857
 30
0.0
 11
-1555.756057841596
 21
-3073.242838638976
 31
0.0
  0
LINE
  5
240
330
1F
100
AcDbEntity
  8
0-4_枠
  6
Continuous
 62
    92
370
    13
100
AcDbLine
 10
-2233.756057841593
 20
-3073.242838638976
 30
0.0
 11
-2229.513417154474
 21
-3069.000197951857
 31
0.0
  0
LINE
  5
241
330
1F
100
AcDbEntity
  8
0-4_枠
  6
Continuous
 62
    92
370
    13
100
AcDbLine
 10
-2229.513417154474
 20
-3069.000197951857
 30
0.0
 11
-1559.998698528713
 21
-3069.000197951857
 31
0.0
  0
LINE
  5
242
330
1F
100
AcDbEntity
  8
0-4_枠
  6
Continuous
 62
    92
370
    13
100
AcDbLine
 10
-2233.756057841593
 20
-3073.242838638976
 30
0.0
 11
-2233.756057841593
 21
-3159.000197951857
 31
0.0
  0
LINE
  5
243
330
1F
100
AcDbEntity
  8
0-4_枠
  6
Continuous
 62
    92
370
    13
100
AcDbLine
 10
-1555.756057841592
 20
-3073.242838638976
 30
0.0
 11
-1559.998698528713
 21
-3069.000197951857
 31
0.0
  0
LINE
  5
244
330
1F
100
AcDbEntity
  8
0-4_枠
  6
Continuous
 62
    92
370
    13
100
AcDbLine
 10
-1555.756057841592
 20
-3073.242838638976
 30
0.0
 11
-1555.756057841592
 21
-3159.000197951857
 31
0.0
  0
LINE
  5
245
330
1F
100
AcDbEntity
  8
0-4_枠
  6
Continuous
 62
    92
370
    13
100
AcDbLine
 10
-2230.756057841592
 20
-3072.000197951856
 30
0.0
 11
-1558.756057841593
 21
-3072.000197951856
 31
0.0
  0
LINE
  5
246
330
1F
100
AcDbEntity
  8
0-4_枠
  6
Continuous
 62
    92
370
    13
100
AcDbLine
 10
-1558.756057841593
 20
-3072.000197951856
 30
0.0
 11
-1558.756057841593
 21
-3159.000197951857
 31
0.0
  0
LINE
  5
247
330
1F
100
AcDbEntity
  8
0-4_枠
  6
Continuous
 62
    92
370
    13
100
AcDbLine
 10
-2230.756057841592
 20
-3072.000197951856
 30
0.0
 11
-2230.756057841592
 21
-3159.000197951857
 31
0.0
  0
LINE
  5
248
330
1F
100
AcDbEntity
  8
0-4_枠
  6
Continuous
 62
    92
370
    13
100
AcDbLine
 10
-1555.756057841592
 20
-3159.000197951857
 30
0.0
 11
-2233.756057841593
 21
-3159.000197951857
 31
0.0
  0
LWPOLYLINE
  5
249
330
1F
100
AcDbEntity
  8
0-B_寸法
  6
Continuous
 62
     7
370
     9
100
AcDbPolyline
 90
        4
 70
     1
 43
3.0
 10
-1584.256057841596
 20
-1051.14666123487
 42
0.4142135623731
 10
-1585.756057841596
 20
-1049.64666123487
 42
0.4142135623731
 10
-1587.256057841596
 20
-1051.14666123487
 42
0.4142135623731
 10
-1585.756057841596
 20
-1052.64666123487
 42
0.4142135623731
  0
LWPOLYLINE
  5
24A
330
1F
100
AcDbEntity
  8
0-B_寸法
  6
Continuous
 62
     7
370
     9
100
AcDbPolyline
 90
        4
 70
     1
 43
3.0
 10
-1800.256057841597
 20
-1051.14666123487
 42
0.4142135623731
 10
-1801.756057841597
 20
-1049.64666123487
 42
0.4142135623731
 10
-1803.256057841597
 20
-1051.14666123487
 42
0.4142135623731
 10
-1801.756057841597
 20
-1052.64666123487
 42
0.4142135623731
  0
LINE
  5
24B
330
1F
100
AcDbEntity
  8
0-B_寸法
  6
Continuous
 62
   120
370
     5
100
AcDbLine
 10
-1801.756057841597
 20
-1051.14666123487
 30
0.0
 11
-1585.756057841596
 21
-1051.14666123487
 31
0.0
  0
LINE
  5
24C
330
1F
100
AcDbEntity
  8
0-6_扉
  6
Continuous
 62
   200
370
    20
100
AcDbLine
 10
-1801.756057841597
 20
-500.9999919582046
 30
0.0
 11
-1801.756057841597
 21
-1719.000197951857
 31
0.0
  0
LINE
  5
24D
330
1F
100
AcDbEntity
  8
0-6_扉
  6
Continuous
 62
   200
370
    20
100
AcDbLine
 10
-1585.756057841596
 20
-500.9999919582046
 30
0.0
 11
-1585.756057841596
 21
-1719.000197951857
 31
0.0
  0
LINE
  5
24E
330
1F
100
AcDbEntity
  8
0-6_扉
  6
Continuous
 62
   200
370
    20
100
AcDbLine
 10
-1585.756057841596
 20
-1839.000197951857
 30
0.0
 11
-1585.756057841596
 21
-3009.000197951855
 31
0.0
  0
LINE
  5
24F
330
1F
100
AcDbEntity
  8
0-6_扉
  6
Continuous
 62
   200
370
    20
100
AcDbLine
 10
-1585.756057841596
 20
-3009.000197951855
 30
0.0
 11
-1801.756057841597
 21
-3009.000197951855
 31
0.0
  0
LINE
  5
250
330
1F
100
AcDbEntity
  8
0-0_補助線
  6
JWW_HOJO
 62
   120
370
     5
100
AcDbLine
 10
-2494.756057841594
 20
-1839.000197951857
 30
0.0
 11
-1328.173132796315
 21
-1839.000197951857
 31
0.0
  0
LINE
  5
251
330
1F
100
AcDbEntity
  8
0-0_補助線
  6
JWW_HOJO
 62
   120
370
     5
100
AcDbLine
 10
-2494.756057841594
 20
-1719.000197951857
 30
0.0
 11
-1328.173132796315
 21
-1719.000197951857
 31
0.0
  0
LWPOLYLINE
  5
252
330
1F
100
AcDbEntity
  8
0-B_寸法
  6
Continuous
 62
     7
370
     9
100
AcDbPolyline
 90
        4
 70
     1
 43
3.0
 10
-618.5818283164182
 20
-3069.000197951857
 42
0.4142135623731
 10
-620.0818283164182
 20
-3067.500197951857
 42
0.4142135623731
 10
-621.5818283164182
 20
-3069.000197951857
 42
0.4142135623731
 10
-620.0818283164182
 20
-3070.500197951857
 42
0.4142135623731
  0
LWPOLYLINE
  5
253
330
1F
100
AcDbEntity
  8
0-B_寸法
  6
Continuous
 62
     7
370
     9
100
AcDbPolyline
 90
        4
 70
     1
 43
3.0
 10
-618.5818283164182
 20
-3009.000197951856
 42
0.4142135623731
 10
-620.0818283164182
 20
-3007.500197951856
 42
0.4142135623731
 10
-621.5818283164182
 20
-3009.000197951856
 42
0.4142135623731
 10
-620.0818283164182
 20
-3010.500197951856
 42
0.4142135623731
  0
LWPOLYLINE
  5
254
330
1F
100
AcDbEntity
  8
0-B_寸法
  6
Continuous
 62
     7
370
     9
100
AcDbPolyline
 90
        4
 70
     1
 43
3.0
 10
-408.5818283164182
 20
-3087.000197951855
 42
0.4142135623731
 10
-410.0818283164182
 20
-3085.500197951855
 42
0.4142135623731
 10
-411.5818283164182
 20
-3087.000197951855
 42
0.4142135623731
 10
-410.0818283164182
 20
-3088.500197951854
 42
0.4142135623731
  0
LWPOLYLINE
  5
255
330
1F
100
AcDbEntity
  8
0-B_寸法
  6
Continuous
 62
     7
370
     9
100
AcDbPolyline
 90
        4
 70
     1
 43
3.0
 10
-408.5818283164182
 20
-3069.000197951857
 42
0.4142135623731
 10
-410.0818283164182
 20
-3067.500197951857
 42
0.4142135623731
 10
-411.5818283164182
 20
-3069.000197951857
 42
0.4142135623731
 10
-410.0818283164182
 20
-3070.500197951857
 42
0.4142135623731
  0
LWPOLYLINE
  5
256
330
1F
100
AcDbEntity
  8
0-B_寸法
  6
Continuous
 62
     7
370
     9
100
AcDbPolyline
 90
        4
 70
     1
 43
3.0
 10
-198.5818283164182
 20
-3159.000197951857
 42
0.4142135623731
 10
-200.0818283164182
 20
-3157.500197951857
 42
0.4142135623731
 10
-201.5818283164182
 20
-3159.000197951857
 42
0.4142135623731
 10
-200.0818283164182
 20
-3160.500197951857
 42
0.4142135623731
  0
LWPOLYLINE
  5
257
330
1F
100
AcDbEntity
  8
0-B_寸法
  6
Continuous
 62
     7
370
     9
100
AcDbPolyline
 90
        4
 70
     1
 43
3.0
 10
-618.5818283164182
 20
-500.9999919582046
 42
0.4142135623731
 10
-620.0818283164182
 20
-499.4999919582046
 42
0.4142135623731
 10
-621.5818283164182
 20
-500.9999919582046
 42
0.4142135623731
 10
-620.0818283164182
 20
-502.4999919582046
 42
0.4142135623731
  0
LWPOLYLINE
  5
258
330
1F
100
AcDbEntity
  8
0-B_寸法
  6
Continuous
 62
     7
370
     9
100
AcDbPolyline
 90
        4
 70
     1
 43
3.0
 10
-408.5818283164182
 20
-338.9999919582032
 42
0.4142135623731
 10
-410.0818283164182
 20
-337.4999919582031
 42
0.4142135623731
 10
-411.5818283164182
 20
-338.9999919582032
 42
0.4142135623731
 10
-410.0818283164182
 20
-340.4999919582032
 42
0.4142135623731
  0
LINE
  5
259
330
1F
100
AcDbEntity
  8
0-0_補助線
  6
JWW_HOJO
 62
    92
370
    13
100
AcDbLine
 10
-200.0818283164182
 20
-392.9999919582039
 30
0.0
 11
-200.0818283164182
 21
-446.9999919582039
 31
0.0
  0
LWPOLYLINE
  5
25A
330
1F
100
AcDbEntity
  8
0-B_寸法
  6
Continuous
 62
     7
370
     9
100
AcDbPolyline
 90
        4
 70
     1
 43
3.0
 10
-198.5818283164182
 20
-338.9999919582032
 42
0.4142135623731
 10
-200.0818283164182
 20
-337.4999919582031
 42
0.4142135623731
 10
-201.5818283164182
 20
-338.9999919582032
 42
0.4142135623731
 10
-200.0818283164182
 20
-340.4999919582032
 42
0.4142135623731
  0
LWPOLYLINE
  5
25B
330
1F
100
AcDbEntity
  8
0-B_寸法
  6
Continuous
 62
     7
370
     9
100
AcDbPolyline
 90
        4
 70
     1
 43
3.0
 10
-3008.725074870403
 20
-290.9999919582046
 42
0.4142135623731
 10
-3010.225074870403
 20
-289.4999919582046
 42
0.4142135623731
 10
-3011.725074870403
 20
-290.9999919582046
 42
0.4142135623731
 10
-3010.225074870403
 20
-292.4999919582046
 42
0.4142135623731
  0
LINE
  5
25C
330
1F
100
AcDbEntity
  8
0-B_寸法
  6
Continuous
 62
   120
370
     5
100
AcDbLine
 10
-3010.225074870403
 20
-290.9999919582046
 30
0.0
 11
-3010.225074870403
 21
-3159.000197951857
 31
0.0
  0
LINE
  5
25D
330
1F
100
AcDbEntity
  8
0-B_寸法
  6
Continuous
 62
   120
370
     5
100
AcDbLine
 10
-3010.225074870403
 20
-290.9999919582046
 30
0.0
 11
-2650.225074628413
 21
-290.9999919582046
 31
0.0
  0
LWPOLYLINE
  5
25E
330
1F
100
AcDbEntity
  8
0-B_寸法
  6
Continuous
 62
     7
370
     9
100
AcDbPolyline
 90
        4
 70
     1
 43
3.0
 10
-3008.725074870403
 20
-3159.000197951857
 42
0.4142135623731
 10
-3010.225074870403
 20
-3157.500197951857
 42
0.4142135623731
 10
-3011.725074870403
 20
-3159.000197951857
 42
0.4142135623731
 10
-3010.225074870403
 20
-3160.500197951857
 42
0.4142135623731
  0
LINE
  5
25F
330
1F
100
AcDbEntity
  8
0-B_寸法
  6
Continuous
 62
   120
370
     5
100
AcDbLine
 10
-3010.225074870403
 20
-3159.000197951857
 30
0.0
 11
-2650.225074628413
 21
-3159.000197951857
 31
0.0
  0
MTEXT
  5
260
330
1F
100
AcDbEntity
  8
0-A_文字
  6
Continuous
 62
     7
370
     9
100
AcDbMText
 10
-2836.593172604183
 20
-1841.280197951857
 30
0.0
 40
91.44
 41
480.0
 46
0.0
 71
     7
 72
     1
  1
{\fＭＳ ゴシック|b0|i0|c128|p49;和室側・}
 73
     1
 44
1.0
  0
LINE
  5
261
330
1F
100
AcDbEntity
  8
0-C_ハッチ
  6
Continuous
 62
   120
370
     5
100
AcDbLine
 10
-2174.078560825751
 20
-3072.000197951859
 30
0.0
 11
-2230.756057841592
 21
-3128.677694967701
 31
0.0
  0
LINE
  5
262
330
1F
100
AcDbEntity
  8
0-C_ハッチ
  6
Continuous
 62
   120
370
     5
100
AcDbLine
 10
-2114.681591206093
 20
-3072.000197951848
 30
0.0
 11
-2201.681591206102
 21
-3159.000197951858
 31
0.0
  0
LINE
  5
263
330
1F
100
AcDbEntity
  8
0-C_ハッチ
  6
Continuous
 62
   120
370
     5
100
AcDbLine
 10
-2055.284621586388
 20
-3072.000197951845
 30
0.0
 11
-2142.284621586401
 21
-3159.000197951857
 31
0.0
  0
LINE
  5
264
330
1F
100
AcDbEntity
  8
0-C_ハッチ
  6
Continuous
 62
   120
370
     5
100
AcDbLine
 10
-1995.887651966751
 20
-3072.000197951855
 30
0.0
 11
-2082.88765196676
 21
-3159.000197951865
 31
0.0
  0
LINE
  5
265
330
1F
100
AcDbEntity
  8
0-C_ハッチ
  6
Continuous
 62
   120
370
     5
100
AcDbLine
 10
-1936.490682347093
 20
-3072.000197951844
 30
0.0
 11
-2023.490682347103
 21
-3159.000197951855
 31
0.0
  0
LINE
  5
266
330
1F
100
AcDbEntity
  8
0-C_ハッチ
  6
Continuous
 62
   120
370
     5
100
AcDbLine
 10
-1877.093712727408
 20
-3072.000197951862
 30
0.0
 11
-1964.093712727418
 21
-3159.000197951871
 31
0.0
  0
LINE
  5
267
330
1F
100
AcDbEntity
  8
0-C_ハッチ
  6
Continuous
 62
   120
370
     5
100
AcDbLine
 10
-1817.696743107751
 20
-3072.000197951851
 30
0.0
 11
-1904.696743107761
 21
-3159.000197951861
 31
0.0
  0
LINE
  5
268
330
1F
100
AcDbEntity
  8
0-C_ハッチ
  6
Continuous
 62
   120
370
     5
100
AcDbLine
 10
-1758.299773488054
 20
-3072.000197951856
 30
0.0
 11
-1845.299773488052
 21
-3159.000197951853
 31
0.0
  0
LINE
  5
269
330
1F
100
AcDbEntity
  8
0-C_ハッチ
  6
Continuous
 62
   120
370
     5
100
AcDbLine
 10
-1698.902803868409
 20
-3072.000197951857
 30
0.0
 11
-1785.902803868418
 21
-3159.000197951867
 31
0.0
  0
LINE
  5
26A
330
1F
100
AcDbEntity
  8
0-C_ハッチ
  6
Continuous
 62
   120
370
     5
100
AcDbLine
 10
-1639.50583424872
 20
-3072.000197951845
 30
0.0
 11
-1726.50583424873
 21
-3159.000197951855
 31
0.0
  0
LINE
  5
26B
330
1F
100
AcDbEntity
  8
0-C_ハッチ
  6
Continuous
 62
   120
370
     5
100
AcDbLine
 10
-1580.108864629066
 20
-3072.000197951864
 30
0.0
 11
-1667.108864629076
 21
-3159.000197951873
 31
0.0
  0
LINE
  5
26C
330
1F
100
AcDbEntity
  8
0-C_ハッチ
  6
Continuous
 62
   120
370
     5
100
AcDbLine
 10
-1558.756057841591
 20
-3110.044360784037
 30
0.0
 11
-1607.711895009418
 21
-3159.000197951863
 31
0.0
  0
LINE
  5
26D
330
1F
100
AcDbEntity
  8
0-B_寸法
  6
Continuous
 62
   120
370
     5
100
AcDbLine
 10
-200.0818283164182
 20
-3159.000197951857
 30
0.0
 11
-1010.081828316418
 21
-3159.000197951857
 31
0.0
  0
LINE
  5
26E
330
1F
100
AcDbEntity
  8
0-B_寸法
  6
Continuous
 62
   120
370
     5
100
AcDbLine
 10
-620.0818283164182
 20
-3009.000197951856
 30
0.0
 11
-1010.081828316418
 21
-3009.000197951856
 31
0.0
  0
LINE
  5
26F
330
1F
100
AcDbEntity
  8
0-B_寸法
  6
Continuous
 62
   120
370
     5
100
AcDbLine
 10
-410.0818283164182
 20
-3069.000197951857
 30
0.0
 11
-1010.081828316418
 21
-3069.000197951857
 31
0.0
  0
LINE
  5
270
330
1F
100
AcDbEntity
  8
0-B_寸法
  6
Continuous
 62
   120
370
     5
100
AcDbLine
 10
-620.0818283164182
 20
-500.9999919582046
 30
0.0
 11
-1010.081828316418
 21
-500.9999919582046
 31
0.0
  0
LINE
  5
271
330
1F
100
AcDbEntity
  8
0-B_寸法
  6
Continuous
 62
   120
370
     5
100
AcDbLine
 10
-200.0818283164182
 20
-338.9999919582032
 30
0.0
 11
-1010.081828316418
 21
-338.9999919582032
 31
0.0
  0
MTEXT
  5
272
330
1F
100
AcDbEntity
  8
0-A_文字
  6
Continuous
 62
     7
370
     9
100
AcDbMText
 10
-1407.521549327191
 20
-1841.280197951857
 30
0.0
 40
91.44
 41
480.0
 46
0.0
 71
     7
 72
     1
  1
{\fＭＳ ゴシック|b0|i0|c128|p49;洋室側・}
 73
     1
 44
1.0
  0
LINE
  5
273
330
1F
100
AcDbEntity
  8
0-A_文字
  6
Continuous
 62
     7
370
     9
100
AcDbLine
 10
-867.5215493271907
 20
-1647.000197951857
 30
0.0
 11
-867.5215493271907
 21
-1887.000197951857
 31
0.0
  0
LINE
  5
274
330
1F
100
AcDbEntity
  8
0-A_文字
  6
Continuous
 62
     7
370
     9
100
AcDbLine
 10
-1467.521549327191
 20
-1887.000197951857
 30
0.0
 11
-1467.521549327191
 21
-1647.000197951857
 31
0.0
  0
LINE
  5
275
330
1F
100
AcDbEntity
  8
0-A_文字
  6
Continuous
 62
     7
370
     9
100
AcDbLine
 10
-867.5215493271907
 20
-1887.000197951857
 30
0.0
 11
-1467.521549327191
 21
-1887.000197951857
 31
0.0
  0
LINE
  5
276
330
1F
100
AcDbEntity
  8
0-A_文字
  6
Continuous
 62
     7
370
     9
100
AcDbLine
 10
-1467.521549327191
 20
-1647.000197951857
 30
0.0
 11
-867.5215493271907
 21
-1647.000197951857
 31
0.0
  0
LINE
  5
277
330
1F
100
AcDbEntity
  8
0-A_文字
  6
Continuous
 62
     7
370
     9
100
AcDbLine
 10
-2296.593172604182
 20
-1647.000197951857
 30
0.0
 11
-2296.593172604182
 21
-1887.000197951857
 31
0.0
  0
LINE
  5
278
330
1F
100
AcDbEntity
  8
0-A_文字
  6
Continuous
 62
     7
370
     9
100
AcDbLine
 10
-2896.593172604182
 20
-1887.000197951857
 30
0.0
 11
-2896.593172604182
 21
-1647.000197951857
 31
0.0
  0
LINE
  5
279
330
1F
100
AcDbEntity
  8
0-A_文字
  6
Continuous
 62
     7
370
     9
100
AcDbLine
 10
-2296.593172604182
 20
-1887.000197951857
 30
0.0
 11
-2896.593172604182
 21
-1887.000197951857
 31
0.0
  0
LINE
  5
27A
330
1F
100
AcDbEntity
  8
0-A_文字
  6
Continuous
 62
     7
370
     9
100
AcDbLine
 10
-2896.593172604182
 20
-1647.000197951857
 30
0.0
 11
-2296.593172604182
 21
-1647.000197951857
 31
0.0
  0
LINE
  5
27B
330
1F
100
AcDbEntity
  8
0-3_仕上げ
  6
Continuous
 62
    40
370
    15
100
AcDbLine
 10
-1555.756057841592
 20
-3087.000197951856
 30
0.0
 11
-1555.756057841592
 21
-3159.000197951857
 31
0.0
  0
LINE
  5
27C
330
1F
100
AcDbEntity
  8
0-3_仕上げ
  6
Continuous
 62
    40
370
    15
100
AcDbLine
 10
-1555.756057841592
 20
-3087.000197951856
 30
0.0
 11
-1010.081828316418
 21
-3087.000197951856
 31
0.0
  0
LINE
  5
27D
330
1F
100
AcDbEntity
  8
0-3_仕上げ
  6
Continuous
 62
    40
370
    15
100
AcDbLine
 10
-1555.756057841592
 20
-3159.000197951857
 30
0.0
 11
-1010.081828316418
 21
-3159.000197951857
 31
0.0
  0
LINE
  5
27E
330
1F
100
AcDbEntity
  8
0-3_仕上げ
  6
Continuous
 62
     7
370
     9
100
AcDbLine
 10
-1555.756057841592
 20
-3141.000197951856
 30
0.0
 11
-1010.081828316418
 21
-3141.000197951856
 31
0.0
  0
LINE
  5
27F
330
1F
100
AcDbEntity
  8
0-3_仕上げ
  6
Continuous
 62
     7
370
     9
100
AcDbLine
 10
-1555.756057841592
 20
-3132.000197951856
 30
0.0
 11
-1010.081828316418
 21
-3132.000197951856
 31
0.0
  0
LINE
  5
280
330
1F
100
AcDbEntity
  8
0-3_仕上げ
  6
Continuous
 62
     7
370
     9
100
AcDbLine
 10
-1555.756057841592
 20
-3123.000197951856
 30
0.0
 11
-1010.081828316418
 21
-3123.000197951856
 31
0.0
  0
LINE
  5
281
330
1F
100
AcDbEntity
  8
0-3_仕上げ
  6
Continuous
 62
     7
370
     9
100
AcDbLine
 10
-1555.756057841592
 20
-3114.000197951857
 30
0.0
 11
-1010.081828316418
 21
-3114.000197951857
 31
0.0
  0
LINE
  5
282
330
1F
100
AcDbEntity
  8
0-3_仕上げ
  6
Continuous
 62
     7
370
     9
100
AcDbLine
 10
-1555.756057841592
 20
-3105.000197951856
 30
0.0
 11
-1010.081828316418
 21
-3105.000197951856
 31
0.0
  0
LINE
  5
283
330
1F
100
AcDbEntity
  8
0-3_仕上げ
  6
Continuous
 62
     7
370
     9
100
AcDbLine
 10
-1555.756057841592
 20
-3150.000197951855
 30
0.0
 11
-1010.081828316418
 21
-3150.000197951855
 31
0.0
  0
LINE
  5
284
330
1F
100
AcDbEntity
  8
0-3_仕上げ
  6
Continuous
 62
     7
370
     9
100
AcDbLine
 10
-1555.756057841592
 20
-3096.000197951856
 30
0.0
 11
-1010.081828316418
 21
-3096.000197951856
 31
0.0
  0
LINE
  5
285
330
1F
100
AcDbEntity
  8
0-3_仕上げ
  6
Continuous
 62
    40
370
    15
100
AcDbLine
 10
-2233.756057841593
 20
-3087.000197951856
 30
0.0
 11
-2233.756057841593
 21
-3159.000197951857
 31
0.0
  0
LINE
  5
286
330
1F
100
AcDbEntity
  8
0-3_仕上げ
  6
Continuous
 62
    40
370
    15
100
AcDbLine
 10
-2323.756057841593
 20
-3087.000197951856
 30
0.0
 11
-2233.756057841593
 21
-3087.000197951856
 31
0.0
  0
LINE
  5
287
330
1F
100
AcDbEntity
  8
0-3_仕上げ
  6
Continuous
 62
    40
370
    15
100
AcDbLine
 10
-2323.756057841593
 20
-3159.000197951857
 30
0.0
 11
-2323.756057841593
 21
-3087.000197951856
 31
0.0
  0
LINE
  5
288
330
1F
100
AcDbEntity
  8
0-3_仕上げ
  6
Continuous
 62
    40
370
    15
100
AcDbLine
 10
-2233.756057841593
 20
-3159.000197951857
 30
0.0
 11
-2323.756057841593
 21
-3159.000197951857
 31
0.0
  0
LINE
  5
289
330
1F
100
AcDbEntity
  8
0-C_ハッチ
  6
Continuous
 62
   120
370
     5
100
AcDbLine
 10
-2233.756057841595
 20
-3111.500934911755
 30
0.0
 11
-2258.2567948015
 21
-3087.000197951848
 31
0.0
  0
LINE
  5
28A
330
1F
100
AcDbEntity
  8
0-C_ハッチ
  6
Continuous
 62
   120
370
     5
100
AcDbLine
 10
-2245.653764421199
 20
-3159.000197951852
 30
0.0
 11
-2317.653764421194
 21
-3087.000197951858
 31
0.0
  0
LINE
  5
28B
330
1F
100
AcDbEntity
  8
0-C_ハッチ
  6
Continuous
 62
   120
370
     5
100
AcDbLine
 10
-2305.050734040835
 20
-3159.000197951865
 30
0.0
 11
-2323.756057841596
 21
-3140.294874151102
 31
0.0
  0
LINE
  5
28C
330
1F
100
AcDbEntity
  8
0-A_文字
  6
Continuous
 62
     7
370
     9
100
AcDbLine
 10
-2288.495313835715
 20
-3115.440284179874
 30
0.0
 11
-2348.273451514104
 21
-2973.11050595597
 31
0.0
  0
LINE
  5
28D
330
1F
100
AcDbEntity
  8
0-A_文字
  6
Continuous
 62
     7
370
     9
100
AcDbLine
 10
-2387.834084347582
 20
-2973.11050595597
 30
0.0
 11
-2348.273451514104
 21
-2973.11050595597
 31
0.0
  0
MTEXT
  5
28E
330
1F
100
AcDbEntity
  8
0-A_文字
  6
Continuous
 62
     7
370
     0
100
AcDbMText
 10
-2618.273451514104
 20
-3047.39050595597
 30
0.0
 40
91.44
 41
240.0
 46
0.0
 71
     7
 72
     1
  1
{\fＭＳ ゴシック|b0|i0|c128|p49;畳寄}
 73
     1
 44
1.0
  0
LINE
  5
28F
330
1F
100
AcDbEntity
  8
0-B_寸法
  6
Continuous
 62
   120
370
     5
100
AcDbLine
 10
-200.0818283164182
 20
-3159.000197951857
 30
0.0
 11
-200.0818283164182
 21
-290.9999919582046
 31
0.0
  0
LINE
  5
290
330
1F
100
AcDbEntity
  8
0-1_通り芯
  6
JWW_CENTER1
 62
   120
370
     5
100
AcDbLine
 10
-95.68182831641818
 20
-290.9999919582046
 30
0.0
 11
-3114.607702944966
 21
-290.9999919582046
 31
0.0
  0
LINE
  5
291
330
1F
100
AcDbEntity
  8
0-1_通り芯
  6
JWW_CENTER1
 62
   120
370
     5
100
AcDbLine
 10
-3114.607702944966
 20
-3159.000197951857
 30
0.0
 11
-95.68182831641806
 21
-3159.000197951857
 31
0.0
  0
LWPOLYLINE
  5
292
330
1F
100
AcDbEntity
  8
0-B_寸法
  6
Continuous
 62
     7
370
     9
100
AcDbPolyline
 90
        4
 70
     1
 43
3.0
 10
-198.5818283164182
 20
-290.9999919582046
 42
0.4142135623731
 10
-200.0818283164182
 20
-289.4999919582046
 42
0.4142135623731
 10
-201.5818283164182
 20
-290.9999919582046
 42
0.4142135623731
 10
-200.0818283164182
 20
-292.4999919582046
 42
0.4142135623731
  0
LINE
  5
293
330
1F
100
AcDbEntity
  8
0-B_寸法
  6
Continuous
 62
   120
370
     5
100
AcDbLine
 10
-200.0818283164182
 20
-290.9999919582046
 30
0.0
 11
-1010.081828316418
 21
-290.9999919582046
 31
0.0
  0
LINE
  5
294
330
1F
100
AcDbEntity
  8
0-0_補助線
  6
JWW_HOJO
 62
   120
370
     5
100
AcDbLine
 10
-2830.225074870403
 20
9.000008041797543
 30
0.0
 11
-200.0818283164182
 21
9.000008041797543
 31
0.0
  0
MTEXT
  5
295
330
1F
100
AcDbEntity
  8
0-B_寸法
  6
Continuous
 62
     7
370
   211
100
AcDbMText
 10
-1757.506057841593
 20
-1047.56916123487
 30
0.0
 40
97.15499999999999
 41
127.5
 46
0.0
 71
     7
 72
     1
  1
{\fＭＳ ゴシック|b0|i0|c128|p49;36}
 73
     1
 44
1.0
  0
LINE
  5
296
330
1F
100
AcDbEntity
  8
0-B_寸法
  6
Continuous
 62
   120
370
     5
100
AcDbLine
 10
-2233.756057841593
 20
-3399.000197951857
 30
0.0
 11
-1555.756057841592
 21
-3399.000197951857
 31
0.0
  0
LWPOLYLINE
  5
297
330
1F
100
AcDbEntity
  8
0-B_寸法
  6
Continuous
 62
     7
370
     9
100
AcDbPolyline
 90
        4
 70
     1
 43
3.0
 10
-2232.256057841593
 20
-3399.000197951857
 42
0.4142135623731
 10
-2233.756057841593
 20
-3397.500197951857
 42
0.4142135623731
 10
-2235.256057841593
 20
-3399.000197951857
 42
0.4142135623731
 10
-2233.756057841593
 20
-3400.500197951857
 42
0.4142135623731
  0
LWPOLYLINE
  5
298
330
1F
100
AcDbEntity
  8
0-B_寸法
  6
Continuous
 62
     7
370
     9
100
AcDbPolyline
 90
        4
 70
     1
 43
3.0
 10
-1554.256057841592
 20
-3399.000197951857
 42
0.4142135623731
 10
-1555.756057841592
 20
-3397.500197951857
 42
0.4142135623731
 10
-1557.256057841592
 20
-3399.000197951857
 42
0.4142135623731
 10
-1555.756057841592
 20
-3400.500197951857
 42
0.4142135623731
  0
LINE
  5
299
330
1F
100
AcDbEntity
  8
0-B_寸法
  6
Continuous
 62
   120
370
     5
100
AcDbLine
 10
-2233.756057841593
 20
-3399.000197951857
 30
0.0
 11
-2233.756057841593
 21
-3219.000197951857
 31
0.0
  0
LINE
  5
29A
330
1F
100
AcDbEntity
  8
0-B_寸法
  6
Continuous
 62
   120
370
     5
100
AcDbLine
 10
-1555.756057841592
 20
-3399.000197951857
 30
0.0
 11
-1555.756057841592
 21
-3219.000197951857
 31
0.0
  0
LINE
  5
29B
330
1F
100
AcDbEntity
  8
0-6_扉
  6
Continuous
 62
   200
370
    20
100
AcDbLine
 10
-1801.756057841597
 20
-1839.000197951857
 30
0.0
 11
-1801.756057841597
 21
-3009.000197951855
 31
0.0
  0
MTEXT
  5
29C
330
1F
100
AcDbEntity
  8
0-B_寸法
  6
Continuous
 62
     7
370
     0
100
AcDbMText
 10
-635.0818283164182
 20
-3020.422697951856
 30
0.0
 40
97.15499999999999
 41
127.5
 46
0.0
 71
     7
 72
     1
  1
{\fＭＳ ゴシック|b0|i0|c128|p49;10}
 11
6.123031769111886E-17
 21
1.0
 31
0.0
 73
     1
 44
1.0
  0
LINE
  5
29D
330
1F
100
AcDbEntity
  8
0-0_補助線
  6
JWW_HOJO
 62
   120
370
     5
100
AcDbLine
 10
-2830.225074870403
 20
9.000008041797543
 30
0.0
 11
-2830.225074870403
 21
-3159.000197951857
 31
0.0
  0
LINE
  5
29E
330
1F
100
AcDbEntity
  8
0-0_補助線
  6
JWW_HOJO
 62
   120
370
     5
100
AcDbLine
 10
-2650.225074870403
 20
9.000008041797543
 30
0.0
 11
-2650.225074870403
 21
-3159.000197951857
 31
0.0
  0
LINE
  5
29F
330
1F
100
AcDbEntity
  8
0-0_補助線
  6
JWW_HOJO
 62
   120
370
     5
100
AcDbLine
 10
-2095.756057841589
 20
9.000008041797543
 30
0.0
 11
-2095.756057841589
 21
-3159.000197951857
 31
0.0
  0
LINE
  5
2A0
330
1F
100
AcDbEntity
  8
0-0_補助線
  6
JWW_HOJO
 62
   120
370
     5
100
AcDbLine
 10
-1010.081828316418
 20
9.000008041797543
 30
0.0
 11
-1010.081828316418
 21
-3159.000197951857
 31
0.0
  0
LINE
  5
2A1
330
1F
100
AcDbEntity
  8
0-0_補助線
  6
JWW_HOJO
 62
   120
370
     5
100
AcDbLine
 10
-830.0818283164182
 20
9.000008041797543
 30
0.0
 11
-830.0818283164182
 21
-3159.000197951857
 31
0.0
  0
LINE
  5
2A2
330
1F
100
AcDbEntity
  8
0-0_補助線
  6
JWW_HOJO
 62
   120
370
     5
100
AcDbLine
 10
-410.0818283164182
 20
9.000008041797543
 30
0.0
 11
-410.0818283164182
 21
-3159.000197951857
 31
0.0
  0
LINE
  5
2A3
330
1F
100
AcDbEntity
  8
0-0_補助線
  6
JWW_HOJO
 62
   120
370
     5
100
AcDbLine
 10
-620.0818283164182
 20
9.000008041797543
 30
0.0
 11
-620.0818283164182
 21
-3159.000197951857
 31
0.0
  0
MTEXT
  5
2A4
330
1F
100
AcDbEntity
  8
0-B_寸法
  6
Continuous
 62
     7
370
   211
100
AcDbMText
 10
-425.0818283164182
 20
-3075.780197951855
 30
0.0
 40
91.4400000000052
 41
60.00000000000341
 46
0.0
 71
     7
 72
     1
  1
{\fＭＳ ゴシック|b0|i0|c128|p49;3}
 11
6.123031769111886E-17
 21
1.0
 31
0.0
 73
     1
 44
1.0
  0
MTEXT
  5
2A5
330
1F
100
AcDbEntity
  8
0-B_寸法
  6
Continuous
 62
     7
370
   211
100
AcDbMText
 10
-1992.256057841593
 20
-3394.470197951856
 30
0.0
 40
99.06
 41
195.0
 46
0.0
 71
     7
 72
     1
  1
{\fＭＳ ゴシック|b0|i0|c128|p49;113}
 73
     1
 44
1.0
  0
LINE
  5
2A6
330
1F
100
AcDbEntity
  8
0-0_補助線
  6
JWW_HOJO
 62
   120
370
     5
100
AcDbLine
 10
-200.0818283164182
 20
-3159.000197951857
 30
0.0
 11
-200.0818283164182
 21
-3219.000197951857
 31
0.0
  0
LINE
  5
2A7
330
1F
100
AcDbEntity
  8
0-B_寸法
  6
Continuous
 62
   120
370
     5
100
AcDbLine
 10
-200.0818283164182
 20
-3087.000197951855
 30
0.0
 11
-1010.081828316418
 21
-3087.000197951855
 31
0.0
  0
LINE
  5
2A8
330
1F
100
AcDbEntity
  8
0-B_寸法
  6
Continuous
 62
   120
370
     5
100
AcDbLine
 10
-410.0818283164182
 20
-338.9999919582032
 30
0.0
 11
-410.0818283164182
 21
-3087.000197951855
 31
0.0
  0
LWPOLYLINE
  5
2A9
330
1F
100
AcDbEntity
  8
0-B_寸法
  6
Continuous
 62
     7
370
     9
100
AcDbPolyline
 90
        4
 70
     1
 43
3.0
 10
-198.5818283164182
 20
-3087.000197951855
 42
0.4142135623731
 10
-200.0818283164182
 20
-3085.500197951855
 42
0.4142135623731
 10
-201.5818283164182
 20
-3087.000197951855
 42
0.4142135623731
 10
-200.0818283164182
 20
-3088.500197951854
 42
0.4142135623731
  0
MTEXT
  5
2AA
330
1F
100
AcDbEntity
  8
0-B_寸法
  6
Continuous
 62
     7
370
     0
100
AcDbMText
 10
-3038.070378737807
 20
-2429.100947951857
 30
0.0
 40
102.2985
 41
1342.5
 46
0.0
 71
     7
 72
     1
  1
{\fＭＳ ゴシック|b0|i0|c128|p49;ＲＯＨ＝2,055(2,255)}
 11
6.123031769111886E-17
 21
1.0
 31
0.0
 73
     1
 44
1.0
  0
MTEXT
  5
2AB
330
1F
100
AcDbEntity
  8
0-B_寸法
  6
Continuous
 62
     7
370
     0
100
AcDbMText
 10
-632.3057817863994
 20
-2270.280046317638
 30
0.0
 40
91.43999999999996
 41
1080.0
 46
0.0
 71
     7
 72
     1
  1
{\fＭＳ ゴシック|b0|i0|c128|p49;ＤＨ＝1,995(2,195)}
 11
6.123031769111886E-17
 21
1.0
 31
0.0
 73
     1
 44
1.0
  0
MTEXT
  5
2AC
330
1F
100
AcDbEntity
  8
0-B_寸法
  6
Continuous
 62
     7
370
     0
100
AcDbMText
 10
-208.1396115684245
 20
-2270.280046317638
 30
0.0
 40
91.43999999999996
 41
1080.0
 46
0.0
 71
     7
 72
     1
  1
{\fＭＳ ゴシック|b0|i0|c128|p49;枠外＝2,035(2,235)}
 11
6.123031769111886E-17
 21
1.0
 31
0.0
 73
     1
 44
1.0
  0
MTEXT
  5
2AD
330
1F
100
AcDbEntity
  8
0-A_文字
  6
Continuous
 62
     7
370
     9
100
AcDbMText
 10
-3039.433343810117
 20
87.82821798363639
 30
0.0
 40
100.584
 41
660.0
 46
0.0
 71
     7
 72
     1
  1
{\fＭＳ ゴシック|b0|i0|c128|p49;■縦断面図}
 73
     1
 44
1.0
  0
LINE
  5
2AE
330
1F
100
AcDbEntity
  8
0-A_文字
  6
Continuous
 62
    92
370
    13
100
AcDbLine
 10
1719.918171683582
 20
-290.9999919582046
 30
0.0
 11
1719.918171683582
 21
-3159.000197951857
 31
0.0
  0
LINE
  5
2AF
330
1F
100
AcDbEntity
  8
0-A_文字
  6
Continuous
 62
    92
370
    13
100
AcDbLine
 10
1719.918171683582
 20
-2190.154206598206
 30
0.0
 11
4119.918171683581
 21
-2190.154206598206
 31
0.0
  0
LINE
  5
2B0
330
1F
100
AcDbEntity
  8
0-A_文字
  6
Continuous
 62
    92
370
    13
100
AcDbLine
 10
4119.918171683581
 20
-290.9999919582046
 30
0.0
 11
4119.918171683581
 21
-3159.000197951857
 31
0.0
  0
LINE
  5
2B1
330
1F
100
AcDbEntity
  8
0-A_文字
  6
Continuous
 62
    92
370
    13
100
AcDbLine
 10
4119.918171683581
 20
-3159.000197951857
 30
0.0
 11
1719.918171683582
 21
-3159.000197951857
 31
0.0
  0
LINE
  5
2B2
330
1F
100
AcDbEntity
  8
1-4_枠
  6
Continuous
 62
    92
370
    13
100
AcDbLine
 10
2177.41817168358
 20
-2670.183689547371
 30
0.0
 11
2188.024773401378
 21
-2659.577087829572
 31
0.0
  0
LINE
  5
2B3
330
1F
100
AcDbEntity
  8
1-4_枠
  6
Continuous
 62
    92
370
    13
100
AcDbLine
 10
2188.024773401378
 20
-2659.577087829572
 30
0.0
 11
3861.811569965783
 21
-2659.577087829572
 31
0.0
  0
LINE
  5
2B4
330
1F
100
AcDbEntity
  8
1-4_枠
  6
Continuous
 62
    92
370
    13
100
AcDbLine
 10
2177.41817168358
 20
-2670.183689547371
 30
0.0
 11
2177.41817168358
 21
-2884.577087829572
 31
0.0
  0
LINE
  5
2B5
330
1F
100
AcDbEntity
  8
1-4_枠
  6
Continuous
 62
    92
370
    13
100
AcDbLine
 10
3872.418171683583
 20
-2670.183689547371
 30
0.0
 11
3861.811569965783
 21
-2659.577087829572
 31
0.0
  0
LINE
  5
2B6
330
1F
100
AcDbEntity
  8
1-4_枠
  6
Continuous
 62
    92
370
    13
100
AcDbLine
 10
3872.418171683583
 20
-2670.183689547371
 30
0.0
 11
3872.418171683583
 21
-2884.577087829572
 31
0.0
  0
LINE
  5
2B7
330
1F
100
AcDbEntity
  8
1-4_枠
  6
Continuous
 62
    92
370
    13
100
AcDbLine
 10
2184.918171683584
 20
-2667.077087829572
 30
0.0
 11
3864.918171683583
 21
-2667.077087829572
 31
0.0
  0
LINE
  5
2B8
330
1F
100
AcDbEntity
  8
1-4_枠
  6
Continuous
 62
    92
370
    13
100
AcDbLine
 10
3864.918171683583
 20
-2667.077087829572
 30
0.0
 11
3864.918171683583
 21
-2884.577087829572
 31
0.0
  0
LINE
  5
2B9
330
1F
100
AcDbEntity
  8
1-4_枠
  6
Continuous
 62
    92
370
    13
100
AcDbLine
 10
2184.918171683584
 20
-2667.077087829572
 30
0.0
 11
2184.918171683584
 21
-2884.577087829572
 31
0.0
  0
LINE
  5
2BA
330
1F
100
AcDbEntity
  8
1-4_枠
  6
Continuous
 62
    92
370
    13
100
AcDbLine
 10
3872.418171683583
 20
-2884.577087829572
 30
0.0
 11
2177.41817168358
 21
-2884.577087829572
 31
0.0
  0
LINE
  5
2BB
330
1F
100
AcDbEntity
  8
1-0_補助線
  6
JWW_HOJO
 62
   120
370
     5
100
AcDbLine
 10
1967.41817168358
 20
-2659.577087829572
 30
0.0
 11
1967.41817168358
 21
-2884.577087829572
 31
0.0
  0
LINE
  5
2BC
330
1F
100
AcDbEntity
  8
1-B_寸法
  6
Continuous
 62
   120
370
     5
100
AcDbLine
 10
1967.41817168358
 20
-2884.577087829572
 30
0.0
 11
1967.41817168358
 21
-2659.577087829572
 31
0.0
  0
LWPOLYLINE
  5
2BD
330
1F
100
AcDbEntity
  8
1-B_寸法
  6
Continuous
 62
     7
370
     9
100
AcDbPolyline
 90
        4
 70
     1
 43
3.0
 10
1968.91817168358
 20
-2884.577087829572
 42
0.4142135623731
 10
1967.41817168358
 20
-2883.077087829572
 42
0.4142135623731
 10
1965.91817168358
 20
-2884.577087829572
 42
0.4142135623731
 10
1967.41817168358
 20
-2886.077087829572
 42
0.4142135623731
  0
LWPOLYLINE
  5
2BE
330
1F
100
AcDbEntity
  8
1-B_寸法
  6
Continuous
 62
     7
370
     9
100
AcDbPolyline
 90
        4
 70
     1
 43
3.0
 10
1968.91817168358
 20
-2659.577087829572
 42
0.4142135623731
 10
1967.41817168358
 20
-2658.077087829572
 42
0.4142135623731
 10
1965.91817168358
 20
-2659.577087829572
 42
0.4142135623731
 10
1967.41817168358
 20
-2661.077087829572
 42
0.4142135623731
  0
LINE
  5
2BF
330
1F
100
AcDbEntity
  8
1-B_寸法
  6
Continuous
 62
   120
370
     5
100
AcDbLine
 10
1967.41817168358
 20
-2884.577087829572
 30
0.0
 11
2072.41817168358
 21
-2884.577087829572
 31
0.0
  0
LINE
  5
2C0
330
1F
100
AcDbEntity
  8
1-B_寸法
  6
Continuous
 62
   120
370
     5
100
AcDbLine
 10
1967.41817168358
 20
-2659.577087829572
 30
0.0
 11
2072.41817168358
 21
-2659.577087829572
 31
0.0
  0
LINE
  5
2C1
330
1F
100
AcDbEntity
  8
1-B_寸法
  6
Continuous
 62
   120
370
     5
100
AcDbLine
 10
3872.418171683583
 20
-2464.57731672049
 30
0.0
 11
2177.41817168358
 21
-2464.57731672049
 31
0.0
  0
LWPOLYLINE
  5
2C2
330
1F
100
AcDbEntity
  8
1-B_寸法
  6
Continuous
 62
     7
370
     9
100
AcDbPolyline
 90
        4
 70
     1
 43
3.0
 10
3873.918171683583
 20
-2464.57731672049
 42
0.4142135623731
 10
3872.418171683583
 20
-2463.07731672049
 42
0.4142135623731
 10
3870.918171683582
 20
-2464.57731672049
 42
0.4142135623731
 10
3872.418171683583
 20
-2466.07731672049
 42
0.4142135623731
  0
LWPOLYLINE
  5
2C3
330
1F
100
AcDbEntity
  8
1-B_寸法
  6
Continuous
 62
     7
370
     9
100
AcDbPolyline
 90
        4
 70
     1
 43
3.0
 10
2178.91817168358
 20
-2464.57731672049
 42
0.4142135623731
 10
2177.41817168358
 20
-2463.07731672049
 42
0.4142135623731
 10
2175.91817168358
 20
-2464.57731672049
 42
0.4142135623731
 10
2177.41817168358
 20
-2466.07731672049
 42
0.4142135623731
  0
LINE
  5
2C4
330
1F
100
AcDbEntity
  8
1-B_寸法
  6
Continuous
 62
   120
370
     5
100
AcDbLine
 10
3872.418171683583
 20
-2464.57731672049
 30
0.0
 11
3872.418171683583
 21
-2569.575814674359
 31
0.0
  0
LINE
  5
2C5
330
1F
100
AcDbEntity
  8
1-B_寸法
  6
Continuous
 62
   120
370
     5
100
AcDbLine
 10
2177.41817168358
 20
-2464.57731672049
 30
0.0
 11
2177.41817168358
 21
-2569.575814674359
 31
0.0
  0
MTEXT
  5
2C6
330
1F
100
AcDbEntity
  8
0-A_文字
  6
Continuous
 62
     7
370
     0
100
AcDbMText
 10
2297.418150225154
 20
-455.2799919582044
 30
0.0
 40
91.44000000000024
 41
1200.000000000003
 46
0.0
 71
     7
 72
     1
  1
{\fＭＳ ゴシック|b0|i0|c128|p49;フロアー貼り込み位置}
 73
     1
 44
1.0
  0
MTEXT
  5
2C7
330
1F
100
AcDbEntity
  8
0-A_文字
  6
Continuous
 62
     7
370
     9
100
AcDbMText
 10
2409.918171683581
 20
-2174.377877717999
 30
0.0
 40
91.43999999999997
 41
1080.0
 46
0.0
 71
     7
 72
     1
  1
{\fＭＳ ゴシック|b0|i0|c128|p49;下枠詳細図 (S=1/2)}
 73
     1
 44
1.0
  0
MTEXT
  5
2C8
330
1F
100
AcDbEntity
  8
1-B_寸法
  6
Continuous
 62
     7
370
   211
100
AcDbMText
 10
2927.418171683581
 20
-2460.04731672049
 30
0.0
 40
99.06
 41
195.0
 46
0.0
 71
     7
 72
     1
  1
{\fＭＳ ゴシック|b0|i0|c128|p49;113}
 73
     1
 44
1.0
  0
MTEXT
  5
2C9
330
1F
100
AcDbEntity
  8
1-B_寸法
  6
Continuous
 62
     7
370
   211
100
AcDbMText
 10
1952.41817168358
 20
-2847.249587829572
 30
0.0
 40
97.15499999999999
 41
127.5
 46
0.0
 71
     7
 72
     1
  1
{\fＭＳ ゴシック|b0|i0|c128|p49;15}
 11
6.123031769111886E-17
 21
1.0
 31
0.0
 73
     1
 44
1.0
  0
LINE
  5
2CA
330
1F
100
AcDbEntity
  8
0-A_文字
  6
Continuous
 62
     7
370
     9
100
AcDbLine
 10
2305.37235989898
 20
-1708.950958680703
 30
0.0
 11
2364.440893457819
 21
-1708.950958680703
 31
0.0
  0
LINE
  5
2CB
330
1F
100
AcDbEntity
  8
0-B_寸法
  6
Continuous
 62
   120
370
     5
100
AcDbLine
 10
2529.918171683582
 20
-1270.520770398
 30
0.0
 11
3207.918171683583
 21
-1270.520770398
 31
0.0
  0
LWPOLYLINE
  5
2CC
330
1F
100
AcDbEntity
  8
0-B_寸法
  6
Continuous
 62
     7
370
     9
100
AcDbPolyline
 90
        4
 70
     1
 43
3.0
 10
2531.418171683582
 20
-1270.520770398
 42
0.4142135623731
 10
2529.918171683582
 20
-1269.020770398
 42
0.4142135623731
 10
2528.418171683582
 20
-1270.520770398
 42
0.4142135623731
 10
2529.918171683582
 20
-1272.020770398
 42
0.4142135623731
  0
LWPOLYLINE
  5
2CD
330
1F
100
AcDbEntity
  8
0-B_寸法
  6
Continuous
 62
     7
370
     9
100
AcDbPolyline
 90
        4
 70
     1
 43
3.0
 10
3209.418171683583
 20
-1270.520770398
 42
0.4142135623731
 10
3207.918171683583
 20
-1269.020770398
 42
0.4142135623731
 10
3206.418171683583
 20
-1270.520770398
 42
0.4142135623731
 10
3207.918171683583
 20
-1272.020770398
 42
0.4142135623731
  0
LINE
  5
2CE
330
1F
100
AcDbEntity
  8
0-B_寸法
  6
Continuous
 62
   120
370
     5
100
AcDbLine
 10
2529.918171683582
 20
-1458.828623809784
 30
0.0
 11
3207.918171683583
 21
-1458.828623809784
 31
0.0
  0
LWPOLYLINE
  5
2CF
330
1F
100
AcDbEntity
  8
0-B_寸法
  6
Continuous
 62
     7
370
     9
100
AcDbPolyline
 90
        4
 70
     1
 43
3.0
 10
2531.418171683582
 20
-1458.828623809784
 42
0.4142135623731
 10
2529.918171683582
 20
-1457.328623809784
 42
0.4142135623731
 10
2528.418171683582
 20
-1458.828623809784
 42
0.4142135623731
 10
2529.918171683582
 20
-1460.328623809784
 42
0.4142135623731
  0
LWPOLYLINE
  5
2D0
330
1F
100
AcDbEntity
  8
0-B_寸法
  6
Continuous
 62
     7
370
     9
100
AcDbPolyline
 90
        4
 70
     1
 43
3.0
 10
3209.418171683583
 20
-1458.828623809784
 42
0.4142135623731
 10
3207.918171683583
 20
-1457.328623809784
 42
0.4142135623731
 10
3206.418171683583
 20
-1458.828623809784
 42
0.4142135623731
 10
3207.918171683583
 20
-1460.328623809784
 42
0.4142135623731
  0
LINE
  5
2D1
330
1F
100
AcDbEntity
  8
0-4_枠
  6
Continuous
 62
    92
370
    13
100
AcDbLine
 10
3207.918171683583
 20
-770.9999919582046
 30
0.0
 11
3207.918171683583
 21
-1830.041548837791
 31
0.0
  0
LINE
  5
2D2
330
1F
100
AcDbEntity
  8
0-4_枠
  6
Continuous
 62
    92
370
    13
100
AcDbLine
 10
2529.918171683582
 20
-770.9999919582046
 30
0.0
 11
2529.918171683582
 21
-1830.041548837791
 31
0.0
  0
MTEXT
  5
2D3
330
1F
100
AcDbEntity
  8
0-A_文字
  6
Continuous
 62
     7
370
     0
100
AcDbMText
 10
2499.918171683588
 20
-698.8284640340769
 30
0.0
 40
91.44
 41
840.0
 46
0.0
 71
     7
 72
     1
  1
{\fＭＳ ゴシック|b0|i0|c128|p49;壁(枠)センター}
 73
     1
 44
1.0
  0
MTEXT
  5
2D4
330
1F
100
AcDbEntity
  8
0-A_文字
  6
Continuous
 62
     7
370
     9
100
AcDbMText
 10
3290.449186879086
 20
-937.6485992048637
 30
0.0
 40
91.44000000000045
 41
600.000000000003
 46
0.0
 71
     7
 72
     1
  1
{\fＭＳ ゴシック|b0|i0|c128|p49;（洋室側）}
 73
     1
 44
1.0
  0
MTEXT
  5
2D5
330
1F
100
AcDbEntity
  8
0-A_文字
  6
Continuous
 62
     7
370
     0
100
AcDbMText
 10
2044.808329891952
 20
-1785.878372437463
 30
0.0
 40
91.44
 41
240.0
 46
0.0
 71
     7
 72
     1
  1
{\fＭＳ ゴシック|b0|i0|c128|p49;畳寄}
 73
     1
 44
1.0
  0
MTEXT
  5
2D6
330
1F
100
AcDbEntity
  8
0-B_寸法
  6
Continuous
 62
     7
370
   211
100
AcDbMText
 10
2771.418171683581
 20
-1454.298623809784
 30
0.0
 40
99.06
 41
195.0
 46
0.0
 71
     7
 72
     1
  1
{\fＭＳ ゴシック|b0|i0|c128|p49;113}
 73
     1
 44
1.0
  0
LINE
  5
2D7
330
1F
100
AcDbEntity
  8
0-1_通り芯
  6
JWW_CENTER1
 62
   120
370
     5
100
AcDbLine
 10
2868.918171683582
 20
-710.9999919582046
 30
0.0
 11
2868.918171683582
 21
-1890.041548837792
 31
0.0
  0
LWPOLYLINE
  5
2D8
330
1F
100
AcDbEntity
  8
0-B_寸法
  6
Continuous
 62
     7
370
     9
100
AcDbPolyline
 90
        4
 70
     1
 43
3.0
 10
2870.418171683582
 20
-1270.520770398
 42
0.4142135623731
 10
2868.918171683582
 20
-1269.020770398
 42
0.4142135623731
 10
2867.418171683582
 20
-1270.520770398
 42
0.4142135623731
 10
2868.918171683582
 20
-1272.020770398
 42
0.4142135623731
  0
MTEXT
  5
2D9
330
1F
100
AcDbEntity
  8
0-B_寸法
  6
Continuous
 62
     7
370
   211
100
AcDbMText
 10
2568.168171683582
 20
-1265.514520398
 30
0.0
 40
100.0125
 41
262.5
 46
0.0
 71
     7
 72
     1
  1
{\fＭＳ ゴシック|b0|i0|c128|p49;56.5}
 73
     1
 44
1.0
  0
MTEXT
  5
2DA
330
1F
100
AcDbEntity
  8
0-B_寸法
  6
Continuous
 62
     7
370
   211
100
AcDbMText
 10
2907.168171683583
 20
-1265.514520398
 30
0.0
 40
100.0125
 41
262.5
 46
0.0
 71
     7
 72
     1
  1
{\fＭＳ ゴシック|b0|i0|c128|p49;56.5}
 73
     1
 44
1.0
  0
LINE
  5
2DB
330
1F
100
AcDbEntity
  8
0-3_仕上げ
  6
Continuous
 62
   120
370
     5
100
AcDbLine
 10
3207.918171683583
 20
-1770.041548837791
 30
0.0
 11
3879.918171683582
 21
-1770.041548837791
 31
0.0
  0
LINE
  5
2DC
330
1F
100
AcDbEntity
  8
0-3_仕上げ
  6
Continuous
 62
   120
370
     5
100
AcDbLine
 10
3207.918171683583
 20
-1570.233237461875
 30
0.0
 11
3879.918171683582
 21
-1570.233237461875
 31
0.0
  0
LINE
  5
2DD
330
1F
100
AcDbEntity
  8
0-3_仕上げ
  6
Continuous
 62
   120
370
     5
100
AcDbLine
 10
3207.918171683583
 20
-1370.424926085958
 30
0.0
 11
3879.918171683582
 21
-1370.424926085958
 31
0.0
  0
LINE
  5
2DE
330
1F
100
AcDbEntity
  8
0-3_仕上げ
  6
Continuous
 62
   120
370
     5
100
AcDbLine
 10
3207.918171683583
 20
-1170.616614710039
 30
0.0
 11
3879.918171683582
 21
-1170.616614710039
 31
0.0
  0
LINE
  5
2DF
330
1F
100
AcDbEntity
  8
0-3_仕上げ
  6
Continuous
 62
   120
370
     5
100
AcDbLine
 10
3207.918171683583
 20
-970.808303334121
 30
0.0
 11
3879.918171683582
 21
-970.808303334121
 31
0.0
  0
MTEXT
  5
2E0
330
1F
100
AcDbEntity
  8
0-A_文字
  6
Continuous
 62
     7
370
     0
100
AcDbMText
 10
3446.565313133517
 20
-1544.609081773916
 30
0.0
 40
91.44
 41
120.0
 46
0.0
 71
     7
 72
     1
  1
{\fＭＳ ゴシック|b0|i0|c128|p49;床}
 73
     1
 44
1.0
  0
LINE
  5
2E1
330
1F
100
AcDbEntity
  8
0-3_仕上げ
  6
Continuous
 62
    40
370
    15
100
AcDbLine
 10
2439.918171683582
 20
-770.9999919582046
 30
0.0
 11
2439.918171683582
 21
-1830.041548837791
 31
0.0
  0
MTEXT
  5
2E2
330
1F
100
AcDbEntity
  8
0-A_文字
  6
Continuous
 62
     7
370
     9
100
AcDbMText
 10
1856.479086336092
 20
-954.4624318291981
 30
0.0
 40
91.44
 41
600.0
 46
0.0
 71
     7
 72
     1
  1
{\fＭＳ ゴシック|b0|i0|c128|p49;（和室側）}
 73
     1
 44
1.0
  0
LINE
  5
2E3
330
1F
100
AcDbEntity
  8
0-A_文字
  6
Continuous
 62
     7
370
     9
100
AcDbLine
 10
2490.918171683583
 20
-1614.093000011381
 30
0.0
 11
2364.440893457819
 21
-1708.950958680703
 31
0.0
  0
LINE
  5
2E4
330
1F
100
AcDbEntity
  8
0-4_枠
  6
Continuous
 62
    92
370
    13
100
AcDbLine
 10
219.9181716835818
 20
-290.9999919582046
 30
0.0
 11
219.9181716835818
 21
-2010.041548837792
 31
0.0
  0
LINE
  5
2E5
330
1F
100
AcDbEntity
  8
0-4_枠
  6
Continuous
 62
    92
370
    13
100
AcDbLine
 10
1719.918171683582
 20
-290.9999919582046
 30
0.0
 11
219.9181716835818
 21
-290.9999919582046
 31
0.0
  0
LINE
  5
2E6
330
1F
100
AcDbEntity
  8
0-4_枠
  6
Continuous
 62
    92
370
    13
100
AcDbLine
 10
1719.918171683582
 20
-2010.041548837791
 30
0.0
 11
219.9181716835818
 21
-2010.041548837791
 31
0.0
  0
LINE
  5
2E7
330
1F
100
AcDbEntity
  8
0-4_枠
  6
Continuous
 62
    92
370
    13
100
AcDbLine
 10
1719.918171683582
 20
-470.9999919582046
 30
0.0
 11
219.9181716835818
 21
-470.9999919582046
 31
0.0
  0
LINE
  5
2E8
330
1F
100
AcDbEntity
  8
0-4_枠
  6
Continuous
 62
    92
370
    13
100
AcDbLine
 10
1719.918171683582
 20
-290.9999919582046
 30
0.0
 11
1719.918171683582
 21
-2010.041548837791
 31
0.0
  0
MTEXT
  5
2E9
330
1F
100
AcDbEntity
  8
0-4_枠
  6
Continuous
 62
     7
370
     9
100
AcDbMText
 10
549.9181716835818
 20
-455.2799919582046
 30
0.0
 40
91.44
 41
840.0
 46
0.0
 71
     7
 72
     1
  1
{\fＭＳ ゴシック|b0|i0|c128|p49;竪枠下端形状図}
 73
     1
 44
1.0
  0
LINE
  5
2EA
330
1F
100
AcDbEntity
  8
0-A_文字
  6
Continuous
 62
    92
370
    13
100
AcDbLine
 10
1719.918171683582
 20
-290.9999919582046
 30
0.0
 11
4119.918171683581
 21
-290.9999919582046
 31
0.0
  0
LINE
  5
2EB
330
1F
100
AcDbEntity
  8
0-A_文字
  6
Continuous
 62
    92
370
    13
100
AcDbLine
 10
1719.918171683582
 20
-470.9999919582046
 30
0.0
 11
4119.918171683581
 21
-470.9999919582046
 31
0.0
  0
LINE
  5
2EC
330
1F
100
AcDbEntity
  8
0-A_文字
  6
Continuous
 62
    92
370
    13
100
AcDbLine
 10
1719.918171683582
 20
-2010.041548837791
 30
0.0
 11
4119.918171683581
 21
-2010.041548837791
 31
0.0
  0
MTEXT
  5
2ED
330
1F
100
AcDbEntity
  8
0-A_文字
  6
Continuous
 62
    92
370
    13
100
AcDbMText
 10
-5512.118561710398
 20
3758.914181455871
 30
0.0
 40
147.828
 41
2910.0
 46
0.0
 71
     7
 72
     1
  1
{\fＭＳ ゴシック|b0|i0|c128|p49;シングルドア　調整枠　幅広下枠}
 73
     1
 44
1.0
  0
LINE
  5
2EE
330
1F
100
AcDbEntity
  8
0-A_文字
  6
Continuous
 62
    92
370
    13
100
AcDbLine
 10
-5659.999495325861
 20
4000.00018145587
 30
0.0
 11
-2454.761904761905
 21
4000.00018145587
 31
0.0
  0
LINE
  5
2EF
330
1F
100
AcDbEntity
  8
0-A_文字
  6
Continuous
 62
    92
370
    13
100
AcDbLine
 10
-5659.999495325861
 20
3730.00018145587
 30
0.0
 11
-2454.761904761905
 21
3730.00018145587
 31
0.0
  0
LINE
  5
2F0
330
1F
100
AcDbEntity
  8
0-A_文字
  6
Continuous
 62
    92
370
    13
100
AcDbLine
 10
-2454.761904761905
 20
4000.00018145587
 30
0.0
 11
-2454.761904761905
 21
3730.00018145587
 31
0.0
  0
LINE
  5
2F1
330
1F
100
AcDbEntity
  8
F-0_補助線
  6
JWW_HOJO
 62
   120
370
     5
100
AcDbLine
 10
-2604.761904761905
 20
4000.00018145587
 30
0.0
 11
-2604.761904761905
 21
3730.00018145587
 31
0.0
  0
LINE
  5
2F2
330
1F
100
AcDbEntity
  8
F-0_補助線
  6
JWW_HOJO
 62
   120
370
     5
100
AcDbLine
 10
-5509.999495325861
 20
4000.000181455871
 30
0.0
 11
-5509.999495325861
 21
3730.00018145587
 31
0.0
  0
MTEXT
  5
2F3
330
1F
100
AcDbEntity
  8
0-B_寸法
  6
Continuous
 62
     7
370
     0
100
AcDbMText
 10
-212.9251700680272
 20
-290.7004729510851
 30
0.0
 40
91.44
 41
60.0
 46
0.0
 71
     7
 72
     1
  1
{\fＭＳ ゴシック|b0|i0|c128|p49;8}
 11
6.123031769111886E-17
 21
1.0
 31
0.0
 73
     1
 44
1.0
  0
MTEXT
  5
2F4
330
1F
100
AcDbEntity
  8
0-B_寸法
  6
Continuous
 62
     7
370
   211
100
AcDbMText
 10
-212.4188484181966
 20
-3322.451411564626
 30
0.0
 40
97.15499999999999
 41
127.5
 46
0.0
 71
     7
 72
     1
  1
{\fＭＳ ゴシック|b0|i0|c128|p49;12}
 11
6.123031769111886E-17
 21
1.0
 31
0.0
 73
     1
 44
1.0
  0
MTEXT
  5
2F5
330
1F
100
AcDbEntity
  8
0-A_文字
  6
Continuous
 62
     7
370
     0
100
AcDbMText
 10
-2324.365079365079
 20
-3633.294016865043
 30
0.0
 40
78.97090909090909
 41
1140.0
 46
0.0
 71
     7
 72
     1
  1
{\fＭＳ ゴシック|b0|i0|c128|p49;※(　)内寸法はハイドア}
 73
     1
 44
1.0
  0
MTEXT
  5
2F6
330
1F
100
AcDbEntity
  8
F-A_文字
  6
Continuous
 62
     7
370
     0
100
AcDbMText
 10
-5087.628710189611
 20
-4045.24341433926
 30
0.0
 40
79.51304347826087
 41
2400.0
 46
0.0
 71
     7
 72
     1
  1
{\fＭＳ ゴシック|b0|i0|c128|p49;ドレタス　シングルドア　調整枠　通気　幅広下枠}
 73
     1
 44
1.0
  0
LINE
  5
2F7
330
1F
100
AcDbEntity
  8
F-0_補助線
  6
JWW_HOJO
 62
     7
370
     9
100
AcDbLine
 10
1109.918584083287
 20
-3795.000003092998
 30
0.0
 11
1109.918584083287
 21
-4195.000008247994
 31
0.0
  0
LINE
  5
2F8
330
1F
100
AcDbEntity
  8
F-0_補助線
  6
JWW_HOJO
 62
     7
370
     9
100
AcDbLine
 10
4889.917891251784
 20
-3795.000003092998
 30
0.0
 11
4889.917891251784
 21
-4195.000008247994
 31
0.0
  0
MTEXT
  5
2F9
330
1F
100
AcDbEntity
  8
F-0_補助線
  6
Continuous
 62
     7
370
     0
100
AcDbMText
 10
1109.918584083287
 20
-3945.948259655243
 30
0.0
 40
78.105
 41
615.0
 46
0.0
 71
     7
 72
     1
  1
{\fＭＳ ゴシック|b0|i0|c128|p49;建具納まり図}
 73
     1
 44
1.0
  0
MTEXT
  5
2FA
330
1F
100
AcDbEntity
  8
F-0_補助線
  6
Continuous
 62
     7
370
     0
100
AcDbMText
 10
509.9185840832865
 20
-3945.709576962234
 30
0.0
 40
78.58125
 41
412.5
 46
0.0
 71
     7
 72
     1
  1
{\fＭＳ ゴシック|b0|i0|c128|p49;DOORETUS}
 73
     1
 44
1.0
  0
MTEXT
  5
2FB
330
1F
100
AcDbEntity
  8
0-0_補助線
  6
Continuous
 62
     7
370
   211
100
AcDbMText
 10
-1992.256057841593
 20
-836.9395903627526
 30
0.0
 40
99.06
 41
195.0
 46
0.0
 71
     7
 72
     1
  1
{\fＭＳ ゴシック|b0|i0|c128|p49;115}
 73
     1
 44
1.0
  0
MTEXT
  5
2FC
330
1F
100
AcDbEntity
  8
0-B_寸法
  6
Continuous
 62
     7
370
   211
100
AcDbMText
 10
-2485.225074870403
 20
-357.5031418221119
 30
0.0
 40
91.44000000000001
 41
60.0
 46
0.0
 71
     7
 72
     1
  1
{\fＭＳ ゴシック|b0|i0|c128|p49;5}
 11
6.123031769111886E-17
 21
1.0
 31
0.0
 73
     1
 44
1.0
  0
LINE
  5
2FD
330
1F
100
AcDbEntity
  8
0-B_寸法
  6
Continuous
 62
   120
370
     5
100
AcDbLine
 10
-2650.225074870403
 20
-338.9999919582027
 30
0.0
 11
-2290.225074870403
 21
-338.9999919582027
 31
0.0
  0
LINE
  5
2FE
330
1F
100
AcDbEntity
  8
0-B_寸法
  6
Continuous
 62
   120
370
     5
100
AcDbLine
 10
-2470.225074870403
 20
-369.0000320125259
 30
0.0
 11
-2290.225074870403
 21
-369.0000320125259
 31
0.0
  0
LINE
  5
2FF
330
1F
100
AcDbEntity
  8
0-B_寸法
  6
Continuous
 62
   120
370
     5
100
AcDbLine
 10
-2470.225074870403
 20
-422.9999919582031
 30
0.0
 11
-2290.225074870403
 21
-422.9999919582031
 31
0.0
  0
LWPOLYLINE
  5
300
330
1F
100
AcDbEntity
  8
0-B_寸法
  6
Continuous
 62
     7
370
     9
100
AcDbPolyline
 90
        4
 70
     1
 43
3.0
 10
-2468.725074870403
 20
-338.9999919582027
 42
0.4142135623731
 10
-2470.225074870403
 20
-337.4999919582027
 42
0.4142135623731
 10
-2471.725074870403
 20
-338.9999919582027
 42
0.4142135623731
 10
-2470.225074870403
 20
-340.4999919582027
 42
0.4142135623731
  0
LWPOLYLINE
  5
301
330
1F
100
AcDbEntity
  8
0-B_寸法
  6
Continuous
 62
     7
370
     9
100
AcDbPolyline
 90
        4
 70
     1
 43
3.0
 10
-2468.725074870403
 20
-369.0000320125259
 42
0.4142135623731
 10
-2470.225074870403
 20
-367.5000320125259
 42
0.4142135623731
 10
-2471.725074870403
 20
-369.0000320125259
 42
0.4142135623731
 10
-2470.225074870403
 20
-370.5000320125259
 42
0.4142135623731
  0
LWPOLYLINE
  5
302
330
1F
100
AcDbEntity
  8
0-B_寸法
  6
Continuous
 62
     7
370
     9
100
AcDbPolyline
 90
        4
 70
     1
 43
3.0
 10
-2468.725074870403
 20
-422.9999919582031
 42
0.4142135623731
 10
-2470.225074870403
 20
-421.4999919582031
 42
0.4142135623731
 10
-2471.725074870403
 20
-422.9999919582031
 42
0.4142135623731
 10
-2470.225074870403
 20
-424.4999919582031
 42
0.4142135623731
  0
LWPOLYLINE
  5
303
330
1F
100
AcDbEntity
  8
0-B_寸法
  6
Continuous
 62
     7
370
     9
100
AcDbPolyline
 90
        4
 70
     1
 43
3.0
 10
-2648.725074870403
 20
-338.9999919582027
 42
0.4142135623731
 10
-2650.225074870403
 20
-337.4999919582027
 42
0.4142135623731
 10
-2651.725074870403
 20
-338.9999919582027
 42
0.4142135623731
 10
-2650.225074870403
 20
-340.4999919582027
 42
0.4142135623731
  0
LINE
  5
304
330
1F
100
AcDbEntity
  8
0-7_金物
  6
Continuous
 62
     7
370
     9
100
AcDbLine
 10
-1984.756361110024
 20
-303.0003295589114
 30
0.0
 11
-1804.756498439131
 21
-303.0003295589114
 31
0.0
  0
LINE
  5
305
330
1F
100
AcDbEntity
  8
0-7_金物
  6
Continuous
 62
     7
370
     9
100
AcDbLine
 10
-1804.756498439131
 20
-290.9999919582046
 30
0.0
 11
-1804.756498439131
 21
-303.0003295589114
 31
0.0
  0
LINE
  5
306
330
1F
100
AcDbEntity
  8
0-7_金物
  6
Continuous
 62
     7
370
     9
100
AcDbLine
 10
-1984.756361110024
 20
-290.9999919582046
 30
0.0
 11
-1984.756361110024
 21
-303.0003295589114
 31
0.0
  0
LINE
  5
307
330
1F
100
AcDbEntity
  8
0-7_金物
  6
Continuous
 62
     7
370
     9
100
AcDbLine
 10
-1984.756361110024
 20
-290.9999919582046
 30
0.0
 11
-1804.756498439131
 21
-290.9999919582046
 31
0.0
  0
LINE
  5
308
330
1F
100
AcDbEntity
  8
0-7_金物
  6
Continuous
 62
     7
370
     9
100
AcDbLine
 10
-1954.756258113201
 20
-303.0003295589114
 30
0.0
 11
-1954.756258113201
 21
-314.9999232936531
 31
0.0
  0
LINE
  5
309
330
1F
100
AcDbEntity
  8
0-7_金物
  6
Continuous
 62
     7
370
     9
100
AcDbLine
 10
-1834.756601435955
 20
-303.0003295589114
 30
0.0
 11
-1834.756601435955
 21
-314.9999232936531
 31
0.0
  0
LINE
  5
30A
330
1F
100
AcDbEntity
  8
0-7_金物
  6
Continuous
 62
     7
370
     9
100
AcDbLine
 10
-1954.756258113201
 20
-314.9999232936531
 30
0.0
 11
-1834.756601435955
 21
-314.9999232936531
 31
0.0
  0
LINE
  5
30B
330
1F
100
AcDbEntity
  8
0-7_金物
  6
Continuous
 62
     7
370
     9
100
AcDbLine
 10
-1948.75609217387
 20
-314.9999232936531
 30
0.0
 11
-1948.75609217387
 21
-338.9999919582027
 31
0.0
  0
LINE
  5
30C
330
1F
100
AcDbEntity
  8
0-7_金物
  6
Continuous
 62
     7
370
     9
100
AcDbLine
 10
-1840.756023509319
 20
-338.9999919582027
 30
0.0
 11
-1840.756023509319
 21
-314.9999232936531
 31
0.0
  0
LINE
  5
30D
330
1F
100
AcDbEntity
  8
0-B_寸法
  6
Continuous
 62
   120
370
     5
100
AcDbLine
 10
-2650.225074870403
 20
-464.9999919582039
 30
0.0
 11
-2290.225074870403
 21
-464.9999919582039
 31
0.0
  0
LWPOLYLINE
  5
30E
330
1F
100
AcDbEntity
  8
0-B_寸法
  6
Continuous
 62
     7
370
     9
100
AcDbPolyline
 90
        4
 70
     1
 43
3.0
 10
-2468.725074870403
 20
-464.9999919582039
 42
0.4142135623731
 10
-2470.225074870403
 20
-463.4999919582039
 42
0.4142135623731
 10
-2471.725074870403
 20
-464.9999919582039
 42
0.4142135623731
 10
-2470.225074870403
 20
-466.499991958204
 42
0.4142135623731
  0
LWPOLYLINE
  5
30F
330
1F
100
AcDbEntity
  8
0-B_寸法
  6
Continuous
 62
     7
370
     9
100
AcDbPolyline
 90
        4
 70
     1
 43
3.0
 10
-2648.725074870403
 20
-464.9999919582039
 42
0.4142135623731
 10
-2650.225074870403
 20
-463.4999919582039
 42
0.4142135623731
 10
-2651.725074870403
 20
-464.9999919582039
 42
0.4142135623731
 10
-2650.225074870403
 20
-466.499991958204
 42
0.4142135623731
  0
MTEXT
  5
310
330
1F
100
AcDbEntity
  8
0-B_寸法
  6
Continuous
 62
     7
370
   211
100
AcDbMText
 10
-2485.225074870403
 20
-440.2800119853641
 30
0.0
 40
91.44000000000001
 41
60.0
 46
0.0
 71
     7
 72
     1
  1
{\fＭＳ ゴシック|b0|i0|c128|p49;9}
 11
6.123031769111886E-17
 21
1.0
 31
0.0
 73
     1
 44
1.0
  0
MTEXT
  5
311
330
1F
100
AcDbEntity
  8
0-B_寸法
  6
Continuous
 62
     7
370
   211
100
AcDbMText
 10
-2665.225074870403
 20
-477.2009870752052
 30
0.0
 40
97.155
 41
127.5
 46
0.0
 71
     7
 72
     1
  1
{\fＭＳ ゴシック|b0|i0|c128|p49;21}
 11
6.123031769111886E-17
 21
1.0
 31
0.0
 73
     1
 44
1.0
  0
LINE
  5
312
330
1F
100
AcDbEntity
  8
0-B_寸法
  6
Continuous
 62
   120
370
     5
100
AcDbLine
 10
-2650.225074870403
 20
-338.9999919582027
 30
0.0
 11
-2650.225074870403
 21
-464.9999919582039
 31
0.0
  0
LINE
  5
313
330
1F
100
AcDbEntity
  8
0-B_寸法
  6
Continuous
 62
   120
370
     5
100
AcDbLine
 10
-2470.225074870403
 20
-338.9999919582027
 30
0.0
 11
-2470.225074870403
 21
-597.9004720150713
 31
0.0
  0
LINE
  5
314
330
1F
100
AcDbEntity
  8
0-0_補助線
  6
Continuous
 62
   120
370
     5
100
AcDbLine
 10
-1649.906213222826
 20
-462.0004268336911
 30
0.0
 11
-1610.905778347339
 21
-422.9999919582013
 31
0.0
  0
LINE
  5
315
330
1F
100
AcDbEntity
  8
0-0_補助線
  6
Continuous
 62
   200
370
    20
100
AcDbLine
 10
-1801.756057841594
 20
-500.9999919582029
 30
0.0
 11
-1585.756057841592
 21
-500.9999919582029
 31
0.0
  0
LINE
  5
316
330
1F
100
AcDbEntity
  8
0-0_補助線
  6
Continuous
 62
   120
370
     5
100
AcDbLine
 10
-1816.631931412492
 20
-450.5352361643611
 30
0.0
 11
-1705.09668720634
 21
-338.9999919582095
 31
0.0
  0
LINE
  5
317
330
1F
100
AcDbEntity
  8
0-0_補助線
  6
Continuous
 62
    92
370
    13
100
AcDbLine
 10
-1816.631931412492
 20
-414.0000949550302
 30
0.0
 11
-1838.831931412492
 21
-414.0000949550302
 31
0.0
  0
LINE
  5
318
330
1F
100
AcDbEntity
  8
0-0_補助線
  6
Continuous
 62
    92
370
    13
100
AcDbLine
 10
-1838.831931412492
 20
-464.999991958203
 30
0.0
 11
-1950.431931412491
 21
-464.999991958203
 31
0.0
  0
LINE
  5
319
330
1F
100
AcDbEntity
  8
0-0_補助線
  6
Continuous
 62
    92
370
    13
100
AcDbLine
 10
-1816.631931412492
 20
-414.0000949550302
 30
0.0
 11
-1816.631931412492
 21
-465.000094955029
 31
0.0
  0
LINE
  5
31A
330
1F
100
AcDbEntity
  8
0-0_補助線
  6
Continuous
 62
    92
370
    13
100
AcDbLine
 10
-1838.831931412492
 20
-464.999991958203
 30
0.0
 11
-1838.831931412492
 21
-414.0000949550302
 31
0.0
  0
LINE
  5
31B
330
1F
100
AcDbEntity
  8
0-0_補助線
  6
Continuous
 62
    92
370
    13
100
AcDbLine
 10
-1950.431931412491
 20
-464.999991958203
 30
0.0
 11
-1950.431931412491
 21
-413.9999919582033
 31
0.0
  0
LINE
  5
31C
330
1F
100
AcDbEntity
  8
0-0_補助線
  6
Continuous
 62
    92
370
    13
100
AcDbLine
 10
-1950.431931412491
 20
-413.9999919582033
 30
0.0
 11
-1972.631931412491
 21
-413.9999919582033
 31
0.0
  0
LINE
  5
31D
330
1F
100
AcDbEntity
  8
0-0_補助線
  6
Continuous
 62
    92
370
    13
100
AcDbLine
 10
-1972.631931412491
 20
-413.9999919582033
 30
0.0
 11
-1972.631931412491
 21
-465.000094955029
 31
0.0
  0
ARC
  5
31E
330
1F
100
AcDbEntity
  8
0-0_補助線
  6
Continuous
 62
     7
370
     9
100
AcDbCircle
 10
-1840.331931412492
 20
-495.9599919582025
 30
0.0
 40
7.199999999999999
100
AcDbArc
 50
342.6701739020166
 51
41.40962210927217
  0
LINE
  5
31F
330
1F
100
AcDbEntity
  8
0-0_補助線
  6
Continuous
 62
     7
370
     9
100
AcDbLine
 10
-1832.531931412493
 20
-515.9999919582023
 30
0.0
 11
-1832.531931412493
 21
-491.9999919582015
 31
0.0
  0
LINE
  5
320
330
1F
100
AcDbEntity
  8
0-0_補助線
  6
Continuous
 62
     7
370
     9
100
AcDbLine
 10
-1970.53193141249
 20
-515.9999919582023
 30
0.0
 11
-1970.53193141249
 21
-503.399991958203
 31
0.0
  0
LINE
  5
321
330
1F
100
AcDbEntity
  8
0-0_補助線
  6
Continuous
 62
     7
370
     9
100
AcDbLine
 10
-1970.53193141249
 20
-503.399991958203
 30
0.0
 11
-1958.53193141249
 21
-503.399991958203
 31
0.0
  0
LINE
  5
322
330
1F
100
AcDbEntity
  8
0-0_補助線
  6
Continuous
 62
     7
370
     9
100
AcDbLine
 10
-1958.53193141249
 20
-503.399991958203
 30
0.0
 11
-1958.53193141249
 21
-496.1999919582028
 31
0.0
  0
LINE
  5
323
330
1F
100
AcDbEntity
  8
0-0_補助線
  6
Continuous
 62
     7
370
     9
100
AcDbLine
 10
-1958.53193141249
 20
-496.1999919582028
 30
0.0
 11
-1970.53193141249
 21
-496.1999919582028
 31
0.0
  0
LINE
  5
324
330
1F
100
AcDbEntity
  8
0-0_補助線
  6
Continuous
 62
     7
370
     9
100
AcDbLine
 10
-1970.53193141249
 20
-496.1999919582028
 30
0.0
 11
-1970.53193141249
 21
-479.999991958203
 31
0.0
  0
ARC
  5
325
330
1F
100
AcDbEntity
  8
0-0_補助線
  6
Continuous
 62
     7
370
     9
100
AcDbCircle
 10
-1977.73193141249
 20
-466.7999919582031
 30
0.0
 40
1.8
100
AcDbArc
 50
41.34777721969273
 51
180.0
  0
LINE
  5
326
330
1F
100
AcDbEntity
  8
0-0_補助線
  6
Continuous
 62
     7
370
     9
100
AcDbLine
 10
-1979.531931412492
 20
-518.9999919582025
 30
0.0
 11
-1979.531931412492
 21
-466.7999919582031
 31
0.0
  0
ARC
  5
327
330
1F
100
AcDbEntity
  8
0-0_補助線
  6
Continuous
 62
     7
370
     9
100
AcDbCircle
 10
-1973.531931412492
 20
-518.9999919582025
 30
0.0
 40
6.0
100
AcDbArc
 50
180.0
 51
270.0
  0
LINE
  5
328
330
1F
100
AcDbEntity
  8
0-0_補助線
  6
Continuous
 62
     7
370
     9
100
AcDbLine
 10
-1804.872969503546
 20
-484.8316019219246
 30
0.0
 11
-1823.531931412492
 21
-521.9999919582015
 31
0.0
  0
LINE
  5
329
330
1F
100
AcDbEntity
  8
0-0_補助線
  6
Continuous
 62
     7
370
     9
100
AcDbLine
 10
-1814.531931412492
 20
-469.1999919582017
 30
0.0
 11
-1823.531931412492
 21
-469.1999919582017
 31
0.0
  0
ARC
  5
32A
330
1F
100
AcDbEntity
  8
0-0_補助線
  6
Continuous
 62
     7
370
     9
100
AcDbCircle
 10
-1826.531931412491
 20
-521.9999919582015
 30
0.0
 40
3.0
100
AcDbArc
 50
270.0
 51
0.0
  0
LINE
  5
32B
330
1F
100
AcDbEntity
  8
0-0_補助線
  6
Continuous
 62
     7
370
     9
100
AcDbLine
 10
-1823.531931412492
 20
-479.9999919582013
 30
0.0
 11
-1827.73193141249
 21
-479.9999919582013
 31
0.0
  0
LINE
  5
32C
330
1F
100
AcDbEntity
  8
0-0_補助線
  6
Continuous
 62
     7
370
     9
100
AcDbLine
 10
-1832.531931412493
 20
-515.9999919582023
 30
0.0
 11
-1970.53193141249
 21
-515.9999919582023
 31
0.0
  0
LINE
  5
32D
330
1F
100
AcDbEntity
  8
0-0_補助線
  6
Continuous
 62
     7
370
     9
100
AcDbLine
 10
-1823.531931412492
 20
-521.9999919582015
 30
0.0
 11
-1823.531931412492
 21
-479.9999919582013
 31
0.0
  0
LINE
  5
32E
330
1F
100
AcDbEntity
  8
0-0_補助線
  6
Continuous
 62
     7
370
     9
100
AcDbLine
 10
-1973.531931412492
 20
-524.999991958203
 30
0.0
 11
-1826.531931412491
 21
-524.9999919582017
 31
0.0
  0
ARC
  5
32F
330
1F
100
AcDbEntity
  8
0-0_補助線
  6
Continuous
 62
     7
370
     9
100
AcDbCircle
 10
-1814.531931412492
 20
-479.9999919582013
 30
0.0
 40
10.8
100
AcDbArc
 50
333.4248464959397
 51
89.99999999999994
  0
ARC
  5
330
330
1F
100
AcDbEntity
  8
0-0_補助線
  6
Continuous
 62
     7
370
     9
100
AcDbCircle
 10
-1814.531931412492
 20
-479.9999919582013
 30
0.0
 40
6.6
100
AcDbArc
 50
333.4248464959397
 51
89.99999999999994
  0
LINE
  5
331
330
1F
100
AcDbEntity
  8
0-0_補助線
  6
Continuous
 62
     7
370
     9
100
AcDbLine
 10
-1808.626538619592
 20
-482.9472667895587
 30
0.0
 11
-1823.531931412492
 21
-512.6385998698204
 31
0.0
  0
LINE
  5
332
330
1F
100
AcDbEntity
  8
0-0_補助線
  6
Continuous
 62
     7
370
     9
100
AcDbLine
 10
-1965.731931412491
 20
-464.999991958203
 30
0.0
 11
-1967.231931412493
 21
-464.999991958203
 31
0.0
  0
LINE
  5
333
330
1F
100
AcDbEntity
  8
0-0_補助線
  6
Continuous
 62
     7
370
     9
100
AcDbLine
 10
-1967.231931412493
 20
-464.999991958203
 30
0.0
 11
-1967.231931412493
 21
-479.999991958203
 31
0.0
  0
LINE
  5
334
330
1F
100
AcDbEntity
  8
0-0_補助線
  6
Continuous
 62
     7
370
     9
100
AcDbLine
 10
-1965.731931412491
 20
-464.999991958203
 30
0.0
 11
-1965.731931412491
 21
-437.9999919582028
 31
0.0
  0
ARC
  5
335
330
1F
100
AcDbEntity
  8
0-0_補助線
  6
Continuous
 62
     7
370
     9
100
AcDbCircle
 10
-1964.231931412492
 20
-491.399991958202
 30
0.0
 40
3.600000000000001
100
AcDbArc
 50
196.7900255983375
 51
270.0
  0
ARC
  5
336
330
1F
100
AcDbEntity
  8
0-0_補助線
  6
Continuous
 62
     7
370
     9
100
AcDbCircle
 10
-1964.231931412492
 20
-491.399991958202
 30
0.0
 40
3.600000000000001
100
AcDbArc
 50
270.0
 51
23.33765268897096
  0
LINE
  5
337
330
1F
100
AcDbEntity
  8
0-0_補助線
  6
Continuous
 62
     7
370
     9
100
AcDbLine
 10
-1962.722285117707
 20
-485.0046139622532
 30
0.0
 11
-1960.847706455775
 21
-490.1723839416343
 31
0.0
  0
ARC
  5
338
330
1F
100
AcDbEntity
  8
0-0_補助線
  6
Continuous
 62
     7
370
     9
100
AcDbCircle
 10
-1966.03193141249
 20
-479.999991958203
 30
0.0
 40
5.999999999999659
100
AcDbArc
 50
303.4773790501727
 51
0.0000000000000127
  0
LINE
  5
339
330
1F
100
AcDbEntity
  8
0-0_補助線
  6
Continuous
 62
     7
370
     9
100
AcDbLine
 10
-1965.731931412491
 20
-437.9999919582028
 30
0.0
 11
-1972.631931412491
 21
-437.9999919582028
 31
0.0
  0
LINE
  5
33A
330
1F
100
AcDbEntity
  8
0-0_補助線
  6
Continuous
 62
     7
370
     9
100
AcDbLine
 10
-1952.231931412493
 20
-437.9999919582028
 30
0.0
 11
-1956.731931412492
 21
-437.9999919582028
 31
0.0
  0
LINE
  5
33B
330
1F
100
AcDbEntity
  8
0-0_補助線
  6
Continuous
 62
     7
370
     9
100
AcDbLine
 10
-1956.731931412492
 20
-437.9999919582028
 30
0.0
 11
-1956.731931412492
 21
-464.999991958203
 31
0.0
  0
LINE
  5
33C
330
1F
100
AcDbEntity
  8
0-0_補助線
  6
Continuous
 62
     7
370
     9
100
AcDbLine
 10
-1952.231931412493
 20
-437.9999919582028
 30
0.0
 11
-1961.231931412492
 21
-419.999991958203
 31
0.0
  0
LINE
  5
33D
330
1F
100
AcDbEntity
  8
0-0_補助線
  6
Continuous
 62
     7
370
     9
100
AcDbLine
 10
-1961.231931412492
 20
-419.999991958203
 30
0.0
 11
-1972.631931412491
 21
-437.9999919582028
 31
0.0
  0
LINE
  5
33E
330
1F
100
AcDbEntity
  8
0-0_補助線
  6
Continuous
 62
     7
370
     9
100
AcDbLine
 10
-1960.031931412493
 20
-476.9999919582015
 30
0.0
 11
-1960.031931412493
 21
-479.999991958203
 31
0.0
  0
ARC
  5
33F
330
1F
100
AcDbEntity
  8
0-0_補助線
  6
Continuous
 62
     7
370
     9
100
AcDbCircle
 10
-1957.031931412492
 20
-476.9999919582015
 30
0.0
 40
3.0
100
AcDbArc
 50
90.0
 51
180.0
  0
ARC
  5
340
330
1F
100
AcDbEntity
  8
0-0_補助線
  6
Continuous
 62
     7
370
     9
100
AcDbCircle
 10
-1847.531931412491
 20
-476.9999919582015
 30
0.0
 40
3.0
100
AcDbArc
 50
0.0000000000000035
 51
90.0
  0
LINE
  5
341
330
1F
100
AcDbEntity
  8
0-0_補助線
  6
Continuous
 62
     7
370
     9
100
AcDbLine
 10
-1844.531931412492
 20
-476.9999919582015
 30
0.0
 11
-1844.531931412492
 21
-488.7599919582022
 31
0.0
  0
LINE
  5
342
330
1F
100
AcDbEntity
  8
0-0_補助線
  6
Continuous
 62
     7
370
     9
100
AcDbLine
 10
-1847.531931412491
 20
-473.9999919582025
 30
0.0
 11
-1957.031931412492
 21
-473.9999919582025
 31
0.0
  0
ARC
  5
343
330
1F
100
AcDbEntity
  8
0-0_補助線
  6
Continuous
 62
     7
370
     9
100
AcDbCircle
 10
-1837.331931412491
 20
-488.7599919582022
 30
0.0
 40
7.199999999999999
100
AcDbArc
 50
180.0
 51
237.2112623503457
  0
LINE
  5
344
330
1F
100
AcDbEntity
  8
0-0_補助線
  6
Continuous
 62
     7
370
     9
100
AcDbLine
 10
-1841.231040823595
 20
-494.8128380491116
 30
0.0
 11
-1846.141275976958
 21
-510.5489299439939
 31
0.0
  0
ARC
  5
345
330
1F
100
AcDbEntity
  8
0-0_補助線
  6
Continuous
 62
     7
370
     9
100
AcDbCircle
 10
-1842.131931412491
 20
-511.7999919582022
 30
0.0
 40
4.2
100
AcDbArc
 50
162.6701702617455
 51
342.6701720818837
  0
LINE
  5
346
330
1F
100
AcDbEntity
  8
0-0_補助線
  6
Continuous
 62
     7
370
     9
100
AcDbLine
 10
-1833.458769165718
 20
-498.104669260161
 30
0.0
 11
-1838.122586768543
 21
-513.0510537176784
 31
0.0
  0
ARC
  5
347
330
1F
100
AcDbEntity
  8
0-0_補助線
  6
Continuous
 62
     7
370
     9
100
AcDbCircle
 10
-1831.331931412492
 20
-488.0227380250071
 30
0.0
 40
4.800000000000001
100
AcDbArc
 50
180.0
 51
221.40962210927
  0
LINE
  5
348
330
1F
100
AcDbEntity
  8
0-0_補助線
  6
Continuous
 62
     7
370
     9
100
AcDbLine
 10
-1836.131931412493
 20
-473.9999919582025
 30
0.0
 11
-1836.131931412493
 21
-488.0227380250071
 31
0.0
  0
LINE
  5
349
330
1F
100
AcDbEntity
  8
0-0_補助線
  6
Continuous
 62
     7
370
     9
100
AcDbLine
 10
-1829.531931412492
 20
-473.9999919582025
 30
0.0
 11
-1836.131931412493
 21
-473.9999919582025
 31
0.0
  0
LINE
  5
34A
330
1F
100
AcDbEntity
  8
0-0_補助線
  6
Continuous
 62
     7
370
     9
100
AcDbLine
 10
-1829.531931412492
 20
-469.1999919582017
 30
0.0
 11
-1829.531931412492
 21
-473.9999919582025
 31
0.0
  0
LINE
  5
34B
330
1F
100
AcDbEntity
  8
0-0_補助線
  6
Continuous
 62
     7
370
     9
100
AcDbLine
 10
-1823.531931412492
 20
-469.1999919582017
 30
0.0
 11
-1829.531931412492
 21
-469.1999919582017
 31
0.0
  0
LINE
  5
34C
330
1F
100
AcDbEntity
  8
0-0_補助線
  6
Continuous
 62
     7
370
     9
100
AcDbLine
 10
-1823.531931412492
 20
-469.1999919582017
 30
0.0
 11
-1823.531931412492
 21
-437.999991958202
 31
0.0
  0
LINE
  5
34D
330
1F
100
AcDbEntity
  8
0-0_補助線
  6
Continuous
 62
     7
370
     9
100
AcDbLine
 10
-1832.531931412493
 20
-464.9999919582013
 30
0.0
 11
-1956.731931412492
 21
-464.999991958203
 31
0.0
  0
LINE
  5
34E
330
1F
100
AcDbEntity
  8
0-0_補助線
  6
Continuous
 62
     7
370
     9
100
AcDbLine
 10
-1828.03193141249
 20
-419.9999919582013
 30
0.0
 11
-1816.631931412492
 21
-437.999991958202
 31
0.0
  0
LINE
  5
34F
330
1F
100
AcDbEntity
  8
0-0_補助線
  6
Continuous
 62
     7
370
     9
100
AcDbLine
 10
-1837.031931412492
 20
-437.999991958202
 30
0.0
 11
-1828.03193141249
 21
-419.9999919582013
 31
0.0
  0
LINE
  5
350
330
1F
100
AcDbEntity
  8
0-0_補助線
  6
Continuous
 62
     7
370
     9
100
AcDbLine
 10
-1832.531931412493
 20
-437.999991958202
 30
0.0
 11
-1832.531931412493
 21
-464.9999919582013
 31
0.0
  0
LINE
  5
351
330
1F
100
AcDbEntity
  8
0-0_補助線
  6
Continuous
 62
     7
370
     9
100
AcDbLine
 10
-1837.031931412492
 20
-437.999991958202
 30
0.0
 11
-1832.531931412493
 21
-437.999991958202
 31
0.0
  0
LINE
  5
352
330
1F
100
AcDbEntity
  8
0-0_補助線
  6
Continuous
 62
     7
370
     9
100
AcDbLine
 10
-1823.531931412492
 20
-437.999991958202
 30
0.0
 11
-1816.631931412492
 21
-437.999991958202
 31
0.0
  0
LINE
  5
353
330
1F
100
AcDbEntity
  8
0-0_補助線
  6
Continuous
 62
     7
370
     9
100
AcDbLine
 10
-1814.531931412492
 20
-473.3999919582022
 30
0.0
 11
-1829.531931412492
 21
-473.3999919582022
 31
0.0
  0
ARC
  5
354
330
1F
100
AcDbEntity
  8
0-0_補助線
  6
Continuous
 62
     7
370
     9
100
AcDbCircle
 10
-1832.829407165995
 20
-488.9999919582025
 30
0.0
 40
3.0
100
AcDbArc
 50
143.6152131060223
 51
270.0
  0
LINE
  5
355
330
1F
100
AcDbEntity
  8
0-0_補助線
  6
Continuous
 62
     7
370
     9
100
AcDbLine
 10
-1827.73193141249
 20
-479.9999919582013
 30
0.0
 11
-1835.244561164534
 21
-487.2203765044185
 31
0.0
  0
LINE
  5
356
330
1F
100
AcDbEntity
  8
0-0_補助線
  6
Continuous
 62
     7
370
     9
100
AcDbLine
 10
-1832.829407165995
 20
-491.9999919582015
 30
0.0
 11
-1832.531931412493
 21
-491.9999919582015
 31
0.0
  0
LINE
  5
357
330
1F
100
AcDbEntity
  8
0-0_補助線
  6
Continuous
 62
     7
370
     9
100
AcDbLine
 10
-1969.031931412491
 20
-479.999991958203
 30
0.0
 11
-1970.53193141249
 21
-479.999991958203
 31
0.0
  0
ARC
  5
358
330
1F
100
AcDbEntity
  8
0-0_補助線
  6
Continuous
 62
     7
370
     9
100
AcDbCircle
 10
-1969.031931412491
 20
-478.1999919582029
 30
0.0
 40
1.8
100
AcDbArc
 50
270.0
 51
41.34777721969354
  0
LINE
  5
359
330
1F
100
AcDbEntity
  8
0-0_補助線
  6
Continuous
 62
     7
370
     9
100
AcDbLine
 10
-1976.380647082032
 20
-465.6108617473971
 30
0.0
 11
-1967.680647082032
 21
-477.0108617473969
 31
0.0
  0
LINE
  5
35A
330
1F
100
AcDbEntity
  8
0-0_補助線
  6
Continuous
 62
     7
370
     9
100
AcDbLine
 10
-1968.731931412492
 20
-479.999991958203
 30
0.0
 11
-1967.231931412493
 21
-479.999991958203
 31
0.0
  0
LINE
  5
35B
330
1F
100
AcDbEntity
  8
0-0_補助線
  6
Continuous
 62
     7
370
     9
100
AcDbLine
 10
-1970.455197051517
 20
-482.3199492039027
 30
0.0
 11
-1967.61615636467
 21
-492.6275999872781
 31
0.0
  0
ARC
  5
35C
330
1F
100
AcDbEntity
  8
0-0_補助線
  6
Continuous
 62
     7
370
     9
100
AcDbCircle
 10
-1968.731931412492
 20
-481.7999919582031
 30
0.0
 40
1.8
100
AcDbArc
 50
90.0
 51
196.7900255983358
  0
LINE
  5
35D
330
1F
100
AcDbEntity
  8
0-0_補助線
  6
Continuous
 62
   120
370
     5
100
AcDbLine
 10
-2184.478939799817
 20
-462.0004268336911
 30
0.0
 11
-2061.478504924323
 21
-338.9999919581984
 31
0.0
  0
LINE
  5
35E
330
1F
100
AcDbEntity
  8
0-0_補助線
  6
Continuous
 62
   120
370
     5
100
AcDbLine
 10
-2125.081970180168
 20
-462.0004268336911
 30
0.0
 11
-2002.081535304692
 21
-338.9999919582138
 31
0.0
  0
LINE
  5
35F
330
1F
100
AcDbEntity
  8
0-0_補助線
  6
Continuous
 62
   120
370
     5
100
AcDbLine
 10
-2065.68500056052
 20
-462.0004268336911
 30
0.0
 11
-1942.684565685035
 21
-338.9999919582027
 31
0.0
  0
LINE
  5
360
330
1F
100
AcDbEntity
  8
0-0_補助線
  6
Continuous
 62
   120
370
     5
100
AcDbLine
 10
-1946.891061321171
 20
-462.0004268336911
 30
0.0
 11
-1823.890626445686
 21
-338.999991958207
 31
0.0
  0
LINE
  5
361
330
1F
100
AcDbEntity
  8
0-0_補助線
  6
Continuous
 62
   120
370
     5
100
AcDbLine
 10
-1887.49409170147
 20
-462.0004268336911
 30
0.0
 11
-1764.49365682598
 21
-338.9999919582002
 31
0.0
  0
LINE
  5
362
330
1F
100
AcDbEntity
  8
0-0_補助線
  6
Continuous
 62
   120
370
     5
100
AcDbLine
 10
-1768.700152462121
 20
-462.0004268336911
 30
0.0
 11
-1645.699717586638
 21
-338.999991958207
 31
0.0
  0
LINE
  5
363
330
1F
100
AcDbEntity
  8
0-0_補助線
  6
Continuous
 62
   120
370
     5
100
AcDbLine
 10
-2006.28803094082
 20
-462.0004268336911
 30
0.0
 11
-1972.631931412491
 21
-428.3443273053628
 31
0.0
  0
LINE
  5
364
330
1F
100
AcDbEntity
  8
0-0_補助線
  6
Continuous
 62
   120
370
     5
100
AcDbLine
 10
-1958.287596065332
 20
-413.9999919582037
 30
0.0
 11
-1883.287596065323
 21
-338.999991958195
 31
0.0
  0
LINE
  5
365
330
1F
100
AcDbEntity
  8
0-0_補助線
  6
Continuous
 62
   120
370
     5
100
AcDbLine
 10
-2173.756057841593
 20
-391.8805752557639
 30
0.0
 11
-2120.875474544038
 21
-338.9999919582112
 31
0.0
  0
LINE
  5
366
330
1F
100
AcDbEntity
  8
0-0_補助線
  6
Continuous
 62
    92
370
    13
100
AcDbLine
 10
-2179.756057841592
 20
-422.9999919582013
 30
0.0
 11
-2239.756057841592
 21
-422.9999919582013
 31
0.0
  0
LINE
  5
367
330
1F
100
AcDbEntity
  8
0-0_補助線
  6
Continuous
 62
    92
370
    13
100
AcDbLine
 10
-2179.756057841592
 20
-368.9999919582027
 30
0.0
 11
-2179.756057841592
 21
-422.9999919582013
 31
0.0
  0
LINE
  5
368
330
1F
100
AcDbEntity
  8
0-0_補助線
  6
Continuous
 62
    92
370
    13
100
AcDbLine
 10
-2179.756057841592
 20
-368.9999919582027
 30
0.0
 11
-2239.756057841592
 21
-368.9999919582027
 31
0.0
  0
LINE
  5
369
330
1F
100
AcDbEntity
  8
0-0_補助線
  6
Continuous
 62
   120
370
     5
100
AcDbLine
 10
-2216.272444163746
 20
-368.9999919582025
 30
0.0
 11
-2186.272444163753
 21
-338.9999919582112
 31
0.0
  0
LINE
  5
36A
330
1F
100
AcDbEntity
  8
0-0_補助線
  6
Continuous
 62
   120
370
     5
100
AcDbLine
 10
-2236.756492717082
 20
-454.881010131253
 30
0.0
 11
-2204.87547454403
 21
-422.9999919582031
 31
0.0
  0
LINE
  5
36B
330
1F
100
AcDbEntity
  8
0-0_補助線
  6
Continuous
 62
    92
370
    13
100
AcDbLine
 10
-2236.756492717082
 20
-422.9999919582013
 30
0.0
 11
-2236.756492717082
 21
-462.0004268336911
 31
0.0
  0
LINE
  5
36C
330
1F
100
AcDbEntity
  8
0-0_補助線
  6
Continuous
 62
    92
370
    13
100
AcDbLine
 10
-2236.756492717082
 20
-462.0004268336911
 30
0.0
 11
-1972.631931412491
 21
-462.0004268336911
 31
0.0
  0
LINE
  5
36D
330
1F
100
AcDbEntity
  8
0-0_補助線
  6
Continuous
 62
    92
370
    13
100
AcDbLine
 10
-2239.756057841592
 20
-464.9999919582013
 30
0.0
 11
-1972.631931412491
 21
-464.9999919582013
 31
0.0
  0
LINE
  5
36E
330
1F
100
AcDbEntity
  8
0-0_補助線
  6
Continuous
 62
    92
370
    13
100
AcDbLine
 10
-2239.756057841592
 20
-422.9999919582013
 30
0.0
 11
-2239.756057841592
 21
-464.9999919582013
 31
0.0
  0
LINE
  5
36F
330
1F
100
AcDbEntity
  8
0-0_補助線
  6
Continuous
 62
    92
370
    13
100
AcDbLine
 10
-2239.756057841592
 20
-338.9999919582027
 30
0.0
 11
-2239.756057841592
 21
-368.9999919582027
 31
0.0
  0
LINE
  5
370
330
1F
100
AcDbEntity
  8
0-0_補助線
  6
Continuous
 62
    92
370
    13
100
AcDbLine
 10
-1609.75564585429
 20
-368.9999919582027
 30
0.0
 11
-1609.75564585429
 21
-422.9999919582013
 31
0.0
  0
LINE
  5
371
330
1F
100
AcDbEntity
  8
0-0_補助線
  6
Continuous
 62
    92
370
    13
100
AcDbLine
 10
-1549.756057841594
 20
-422.9999919582013
 30
0.0
 11
-1609.75564585429
 21
-422.9999919582013
 31
0.0
  0
LINE
  5
372
330
1F
100
AcDbEntity
  8
0-0_補助線
  6
Continuous
 62
    92
370
    13
100
AcDbLine
 10
-1609.75564585429
 20
-368.9999919582027
 30
0.0
 11
-1549.756057841594
 21
-368.9999919582027
 31
0.0
  0
LINE
  5
373
330
1F
100
AcDbEntity
  8
0-0_補助線
  6
Continuous
 62
    92
370
    13
100
AcDbLine
 10
-1552.756218058877
 20
-462.0004268336911
 30
0.0
 11
-1816.631931412492
 21
-462.0004268336911
 31
0.0
  0
LINE
  5
374
330
1F
100
AcDbEntity
  8
0-0_補助線
  6
Continuous
 62
    92
370
    13
100
AcDbLine
 10
-1552.756218058877
 20
-462.0004268336911
 30
0.0
 11
-1552.756218058877
 21
-422.9999919582013
 31
0.0
  0
LINE
  5
375
330
1F
100
AcDbEntity
  8
0-0_補助線
  6
Continuous
 62
    92
370
    13
100
AcDbLine
 10
-1549.756057841594
 20
-464.9999919582013
 30
0.0
 11
-1549.756057841594
 21
-422.9999919582013
 31
0.0
  0
LINE
  5
376
330
1F
100
AcDbEntity
  8
0-0_補助線
  6
Continuous
 62
    92
370
    13
100
AcDbLine
 10
-1549.756057841594
 20
-464.9999919582013
 30
0.0
 11
-1816.631931412492
 21
-464.9999919582013
 31
0.0
  0
LINE
  5
377
330
1F
100
AcDbEntity
  8
0-0_補助線
  6
Continuous
 62
    92
370
    13
100
AcDbLine
 10
-1549.756057841594
 20
-338.9999919582027
 30
0.0
 11
-2239.756057841592
 21
-338.9999919582027
 31
0.0
  0
LINE
  5
378
330
1F
100
AcDbEntity
  8
0-0_補助線
  6
Continuous
 62
    92
370
    13
100
AcDbLine
 10
-1549.756057841594
 20
-338.9999919582027
 30
0.0
 11
-1549.756057841594
 21
-368.9999919582027
 31
0.0
  0
LINE
  5
379
330
1F
100
AcDbEntity
  8
0-0_補助線
  6
Continuous
 62
   120
370
     5
100
AcDbLine
 10
-1709.303182842474
 20
-462.0004268336911
 30
0.0
 11
-1586.302747966988
 21
-338.9999919582027
 31
0.0
  0
LINE
  5
37A
330
1F
100
AcDbEntity
  8
0-0_補助線
  6
Continuous
 62
   120
370
     5
100
AcDbLine
 10
-1590.509243603124
 20
-462.0004268336911
 30
0.0
 11
-1552.756218058877
 21
-424.2474012894438
 31
0.0
  0
LINE
  5
37B
330
1F
100
AcDbEntity
  8
0-0_補助線
  6
Continuous
 62
   120
370
     5
100
AcDbLine
 10
-2239.756057841592
 20
-841.4695903627526
 30
0.0
 11
-1549.756057841594
 21
-841.4695903627526
 31
0.0
  0
LWPOLYLINE
  5
37C
330
1F
100
AcDbEntity
  8
0-0_補助線
  6
Continuous
 62
     7
370
     9
100
AcDbPolyline
 90
        4
 70
     1
 43
3.0
 10
-2238.256057841593
 20
-841.4695903627526
 42
0.4142135623731
 10
-2239.756057841592
 20
-839.9695903627526
 42
0.4142135623731
 10
-2241.256057841592
 20
-841.4695903627526
 42
0.4142135623731
 10
-2239.756057841592
 20
-842.9695903627526
 42
0.4142135623731
  0
LWPOLYLINE
  5
37D
330
1F
100
AcDbEntity
  8
0-0_補助線
  6
Continuous
 62
     7
370
     9
100
AcDbPolyline
 90
        4
 70
     1
 43
3.0
 10
-1548.256057841594
 20
-841.4695903627526
 42
0.4142135623731
 10
-1549.756057841594
 20
-839.9695903627526
 42
0.4142135623731
 10
-1551.256057841594
 20
-841.4695903627526
 42
0.4142135623731
 10
-1549.756057841594
 20
-842.9695903627526
 42
0.4142135623731
  0
LINE
  5
37E
330
1F
100
AcDbEntity
  8
0-0_補助線
  6
Continuous
 62
   120
370
     5
100
AcDbLine
 10
-2239.756057841592
 20
-841.4695903627526
 30
0.0
 11
-2239.756057841592
 21
-662.2973631731271
 31
0.0
  0
LINE
  5
37F
330
1F
100
AcDbEntity
  8
0-0_補助線
  6
Continuous
 62
   120
370
     5
100
AcDbLine
 10
-1549.756057841594
 20
-841.4695903627526
 30
0.0
 11
-1549.756057841594
 21
-662.2973631731271
 31
0.0
  0
MTEXT
  5
380
330
1F
100
AcDbEntity
  8
0-B_寸法
  6
Continuous
 62
     7
370
   211
100
AcDbMText
 10
-2485.225074870403
 20
-568.2989338359989
 30
0.0
 40
91.43999999999984
 41
59.99999999999989
 46
0.0
 71
     7
 72
     1
  1
{\fＭＳ ゴシック|b0|i0|c128|p49;7}
 11
6.123031769111886E-17
 21
1.0
 31
0.0
 73
     1
 44
1.0
  0
LINE
  5
381
330
1F
100
AcDbEntity
  8
0-3_仕上げ
  6
Continuous
 62
     7
370
     9
100
AcDbLine
 10
-2159.862206938526
 20
-290.9999919582046
 30
0.0
 11
-1529.862206938526
 21
-290.9999919582046
 31
0.0
  0
LINE
  5
382
330
1F
100
AcDbEntity
  8
0-4_枠
  6
Continuous
 62
   120
370
     5
100
AcDbLine
 10
-1555.756057841596
 20
-464.9999919582039
 30
0.0
 11
-1555.756057841596
 21
-1719.000197951857
 31
0.0
  0
LINE
  5
383
330
1F
100
AcDbEntity
  8
0-4_枠
  6
Continuous
 62
   120
370
     5
100
AcDbLine
 10
-2233.756057841593
 20
-464.9999919582039
 30
0.0
 11
-2233.756057841593
 21
-1719.000197951857
 31
0.0
  0
LWPOLYLINE
  5
384
330
1F
100
AcDbEntity
  8
0-B_寸法
  6
Continuous
 62
     7
370
     9
100
AcDbPolyline
 90
        4
 70
     1
 43
3.0
 10
-618.5818283164182
 20
-464.9999919582039
 42
0.4142135623731
 10
-620.0818283164182
 20
-463.4999919582039
 42
0.4142135623731
 10
-621.5818283164182
 20
-464.9999919582039
 42
0.4142135623731
 10
-620.0818283164182
 20
-466.499991958204
 42
0.4142135623731
  0
LINE
  5
385
330
1F
100
AcDbEntity
  8
0-B_寸法
  6
Continuous
 62
   120
370
     5
100
AcDbLine
 10
-620.0818283164182
 20
-464.9999919582039
 30
0.0
 11
-620.0818283164182
 21
-3069.000197951857
 31
0.0
  0
LWPOLYLINE
  5
386
330
1F
100
AcDbEntity
  8
0-B_寸法
  6
Continuous
 62
     7
370
     9
100
AcDbPolyline
 90
        4
 70
     1
 43
3.0
 10
-408.5818283164182
 20
-464.9999919582039
 42
0.4142135623731
 10
-410.0818283164182
 20
-463.4999919582039
 42
0.4142135623731
 10
-411.5818283164182
 20
-464.9999919582039
 42
0.4142135623731
 10
-410.0818283164182
 20
-466.499991958204
 42
0.4142135623731
  0
LINE
  5
387
330
1F
100
AcDbEntity
  8
0-B_寸法
  6
Continuous
 62
   120
370
     5
100
AcDbLine
 10
-410.0818283164182
 20
-464.9999919582039
 30
0.0
 11
-1010.081828316418
 21
-464.9999919582039
 31
0.0
  0
MTEXT
  5
388
330
1F
100
AcDbEntity
  8
0-B_寸法
  6
Continuous
 62
     7
370
     0
100
AcDbMText
 10
-628.9925494007126
 20
-586.9751733074181
 30
0.0
 40
91.44
 41
60.0
 46
0.0
 71
     7
 72
     1
  1
{\fＭＳ ゴシック|b0|i0|c128|p49;6}
 11
6.123031769111886E-17
 21
1.0
 31
0.0
 73
     1
 44
1.0
  0
MTEXT
  5
389
330
1F
100
AcDbEntity
  8
0-B_寸法
  6
Continuous
 62
     7
370
   211
100
AcDbMText
 10
-425.0818283164182
 20
-476.7189034498431
 30
0.0
 40
97.15499999999999
 41
127.5
 46
0.0
 71
     7
 72
     1
  1
{\fＭＳ ゴシック|b0|i0|c128|p49;21}
 11
6.123031769111886E-17
 21
1.0
 31
0.0
 73
     1
 44
1.0
  0
MTEXT
  5
38A
330
1F
100
AcDbEntity
  8
0-B_寸法
  6
Continuous
 62
     7
370
   211
100
AcDbMText
 10
-424.2249611417207
 20
-2270.280046317638
 30
0.0
 40
91.43999999999996
 41
1080.0
 46
0.0
 71
     7
 72
     1
  1
{\fＭＳ ゴシック|b0|i0|c128|p49;枠内＝2,011(2,211)}
 11
6.123031769111886E-17
 21
1.0
 31
0.0
 73
     1
 44
1.0
  0
LINE
  5
38B
330
1F
100
AcDbEntity
  8
0-B_寸法
  6
Continuous
 62
   120
370
     5
100
AcDbLine
 10
-1008.475282970536
 20
2237.999683277028
 30
0.0
 11
-1008.475282970536
 21
2438.999683277028
 31
0.0
  0
LWPOLYLINE
  5
38C
330
1F
100
AcDbEntity
  8
0-B_寸法
  6
Continuous
 62
     7
370
     9
100
AcDbPolyline
 90
        4
 70
     1
 43
3.0
 10
-1006.975282970536
 20
2237.999683277028
 42
0.4142135623731
 10
-1008.475282970536
 20
2239.499683277028
 42
0.4142135623731
 10
-1009.975282970536
 20
2237.999683277028
 42
0.4142135623731
 10
-1008.475282970536
 20
2236.499683277028
 42
0.4142135623731
  0
LWPOLYLINE
  5
38D
330
1F
100
AcDbEntity
  8
0-B_寸法
  6
Continuous
 62
     7
370
     9
100
AcDbPolyline
 90
        4
 70
     1
 43
3.0
 10
-1006.975282970536
 20
2438.999683277028
 42
0.4142135623731
 10
-1008.475282970536
 20
2440.499683277027
 42
0.4142135623731
 10
-1009.975282970536
 20
2438.999683277028
 42
0.4142135623731
 10
-1008.475282970536
 20
2437.499683277028
 42
0.4142135623731
  0
MTEXT
  5
38E
330
1F
100
AcDbEntity
  8
0-B_寸法
  6
Continuous
 62
     7
370
   211
100
AcDbMText
 10
-1023.475282970536
 20
2197.255933277027
 30
0.0
 40
100.0125
 41
262.5
 46
0.0
 71
     7
 72
     1
  1
{\fＭＳ ゴシック|b0|i0|c128|p49;33.5}
 11
6.123031769111886E-17
 21
1.0
 31
0.0
 73
     1
 44
1.0
  0
LINE
  5
38F
330
1F
100
AcDbEntity
  8
0-B_寸法
  6
Continuous
 62
   120
370
     5
100
AcDbLine
 10
-1894.756057841594
 20
-1351.14666123487
 30
0.0
 11
-1693.756057841596
 21
-1351.14666123487
 31
0.0
  0
LWPOLYLINE
  5
390
330
1F
100
AcDbEntity
  8
0-B_寸法
  6
Continuous
 62
     7
370
     9
100
AcDbPolyline
 90
        4
 70
     1
 43
3.0
 10
-1893.256057841594
 20
-1351.14666123487
 42
0.4142135623731
 10
-1894.756057841594
 20
-1349.64666123487
 42
0.4142135623731
 10
-1896.256057841594
 20
-1351.14666123487
 42
0.4142135623731
 10
-1894.756057841594
 20
-1352.64666123487
 42
0.4142135623731
  0
LWPOLYLINE
  5
391
330
1F
100
AcDbEntity
  8
0-B_寸法
  6
Continuous
 62
     7
370
     9
100
AcDbPolyline
 90
        4
 70
     1
 43
3.0
 10
-1692.256057841596
 20
-1351.14666123487
 42
0.4142135623731
 10
-1693.756057841596
 20
-1349.64666123487
 42
0.4142135623731
 10
-1695.256057841596
 20
-1351.14666123487
 42
0.4142135623731
 10
-1693.756057841596
 20
-1352.64666123487
 42
0.4142135623731
  0
MTEXT
  5
392
330
1F
100
AcDbEntity
  8
0-B_寸法
  6
Continuous
 62
     7
370
   211
100
AcDbMText
 10
-1925.506057841595
 20
-1346.14041123487
 30
0.0
 40
100.0125
 41
262.5
 46
0.0
 71
     7
 72
     1
  1
{\fＭＳ ゴシック|b0|i0|c128|p49;33.5}
 73
     1
 44
1.0
  0
MTEXT
  5
393
330
1F
100
AcDbEntity
  8
F-A_文字
  6
Continuous
 62
     7
370
     0
100
AcDbMText
 10
4889.917891251784
 20
-3945.570773120549
 30
0.0
 40
78.86699999999999
 41
517.5
 46
0.0
 71
     7
 72
     1
  1
{\fＭＳ ゴシック|b0|i0|c128|p49;2022.04.01}
 73
     1
 44
1.0
  0
LINE
  5
394
330
1F
100
AcDbEntity
  8
0-1_通り芯
  6
JWW_CENTER1
 62
   120
370
     5
100
AcDbLine
 10
2001.038803012593
 20
2237.999683277028
 30
0.0
 11
-1981.201717325957
 21
2237.999683277028
 31
0.0
  0
LINE
  5
395
330
1F
100
AcDbEntity
  8
0-1_通り芯
  6
JWW_CENTER1
 62
   120
370
     5
100
AcDbLine
 10
-1894.756057841594
 20
9.000008041797543
 30
0.0
 11
-1894.756057841594
 21
-3219.000197951857
 31
0.0
  0
LINE
  5
396
330
1F
100
AcDbEntity
  8
0-1_通り芯
  6
JWW_CENTER1
 62
   120
370
     5
100
AcDbLine
 10
-1693.756057841596
 20
-464.9999919582039
 30
0.0
 11
-1693.756057841596
 21
-3159.000197951857
 31
0.0
  0
LINE
  5
397
330
1F
100
AcDbEntity
  8
0-B_寸法
  6
Continuous
 62
   120
370
     5
100
AcDbLine
 10
637.1398227985264
 20
-770.9999919582046
 30
0.0
 11
1315.139822798525
 21
-770.9999919582046
 31
0.0
  0
LWPOLYLINE
  5
398
330
1F
100
AcDbEntity
  8
0-B_寸法
  6
Continuous
 62
     7
370
     9
100
AcDbPolyline
 90
        4
 70
     1
 43
3.0
 10
638.6398227985264
 20
-770.9999919582046
 42
0.4142135623731
 10
637.1398227985264
 20
-769.4999919582045
 42
0.4142135623731
 10
635.6398227985264
 20
-770.9999919582046
 42
0.4142135623731
 10
637.1398227985264
 20
-772.4999919582046
 42
0.4142135623731
  0
LWPOLYLINE
  5
399
330
1F
100
AcDbEntity
  8
0-B_寸法
  6
Continuous
 62
     7
370
     9
100
AcDbPolyline
 90
        4
 70
     1
 43
3.0
 10
1316.639822798524
 20
-770.9999919582046
 42
0.4142135623731
 10
1315.139822798525
 20
-769.4999919582045
 42
0.4142135623731
 10
1313.639822798525
 20
-770.9999919582046
 42
0.4142135623731
 10
1315.139822798525
 20
-772.4999919582046
 42
0.4142135623731
  0
LINE
  5
39A
330
1F
100
AcDbEntity
  8
0-B_寸法
  6
Continuous
 62
   120
370
     5
100
AcDbLine
 10
637.1398227985264
 20
-770.9999919582046
 30
0.0
 11
637.1398227985264
 21
-920.9999919582046
 31
0.0
  0
LINE
  5
39B
330
1F
100
AcDbEntity
  8
0-B_寸法
  6
Continuous
 62
   120
370
     5
100
AcDbLine
 10
1315.139822798525
 20
-770.9999919582046
 30
0.0
 11
1315.139822798525
 21
-920.9999919582046
 31
0.0
  0
MTEXT
  5
39C
330
1F
100
AcDbEntity
  8
0-B_寸法
  6
Continuous
 62
     7
370
   211
100
AcDbMText
 10
878.6398227985259
 20
-766.4699919582046
 30
0.0
 40
99.06000000000006
 41
195.0000000000001
 46
0.0
 71
     7
 72
     1
  1
{\fＭＳ ゴシック|b0|i0|c128|p49;113}
 73
     1
 44
1.0
  0
LINE
  5
39D
330
1F
100
AcDbEntity
  8
0-4_枠
  6
Continuous
 62
    92
370
    13
100
AcDbLine
 10
637.1398227985264
 20
-1710.041548837791
 30
0.0
 11
1315.139822798525
 21
-1710.041548837791
 31
0.0
  0
LINE
  5
39E
330
1F
100
AcDbEntity
  8
0-4_枠
  6
Continuous
 62
    92
370
    13
100
AcDbLine
 10
637.1398227985264
 20
-992.593171003793
 30
0.0
 11
637.1398227985264
 21
-1710.041548837791
 31
0.0
  0
LINE
  5
39F
330
1F
100
AcDbEntity
  8
0-4_枠
  6
Continuous
 62
    92
370
    13
100
AcDbLine
 10
1315.139822798525
 20
-992.593171003793
 30
0.0
 11
1315.139822798525
 21
-1710.041548837791
 31
0.0
  0
ENDSEC
  0
SECTION
  2
OBJECTS
  0
DICTIONARY
  5
C
330
0
100
AcDbDictionary
281
     1
  3
ACAD_GROUP
350
D
  3
ACAD_LAYOUT
350
1A
  3
ACAD_MATERIAL
350
3B
  3
ACAD_MLEADERSTYLE
350
3E0
  3
ACAD_MLINESTYLE
350
17
  3
ACAD_PLOTSETTINGS
350
19
  3
ACAD_PLOTSTYLENAME
350
E
  3
ACAD_TABLESTYLE
350
3DF
  3
ACAD_VISUALSTYLE
350
2A
  0
DICTIONARY
  5
D
102
{ACAD_REACTORS
330
C
102
}
330
C
100
AcDbDictionary
281
     1
  0
DICTIONARY
  5
1A
102
{ACAD_REACTORS
330
C
102
}
330
C
100
AcDbDictionary
281
     1
  3
Layout1
350
1E
  3
Layout2
350
26
  3
Model
350
22
  0
DICTIONARY
  5
3B
102
{ACAD_REACTORS
330
C
102
}
330
C
100
AcDbDictionary
281
     1
  3
ByBlock
350
3D
  3
ByLayer
350
3C
  3
Global
350
3E
  0
DICTIONARY
  5
3E0
102
{ACAD_REACTORS
330
C
102
}
330
C
100
AcDbDictionary
281
     1
  0
DICTIONARY
  5
17
102
{ACAD_REACTORS
330
C
102
}
330
C
100
AcDbDictionary
281
     1
  3
Standard
350
18
  0
DICTIONARY
  5
19
102
{ACAD_REACTORS
330
C
102
}
330
C
100
AcDbDictionary
281
     1
  0
ACDBDICTIONARYWDFLT
  5
E
102
{ACAD_REACTORS
330
C
102
}
330
C
100
AcDbDictionary
281
     1
  3
Normal
350
F
100
AcDbDictionaryWithDefault
340
F
  0
DICTIONARY
  5
3DF
102
{ACAD_REACTORS
330
C
102
}
330
C
100
AcDbDictionary
281
     1
  0
DICTIONARY
  5
2A
102
{ACAD_REACTORS
330
C
102
}
330
C
100
AcDbDictionary
281
     1
  3
2dWireframe
350
2F
  3
3D Hidden
350
31
  3
3dWireframe
350
30
  3
Basic
350
32
  3
Brighten
350
36
  3
ColorChange
350
3A
  3
Conceptual
350
34
  3
Dim
350
35
  3
Facepattern
350
39
  3
Flat
350
2B
  3
FlatWithEdges
350
2C
  3
Gouraud
350
2D
  3
GouraudWithEdges
350
2E
  3
Linepattern
350
38
  3
Realistic
350
33
  3
Thicken
350
37
  0
LAYOUT
  5
1E
102
{ACAD_REACTORS
330
1A
102
}
330
1A
100
AcDbPlotSettings
  1

  2
none_device
  4

  6

 40
0.0
 41
0.0
 42
0.0
 43
0.0
 44
0.0
 45
0.0
 46
0.0
 47
0.0
 48
0.0
 49
0.0
140
0.0
141
0.0
142
1.0
143
1.0
 70
   688
 72
     0
 73
     0
 74
     5
  7

 75
    16
 76
     0
 77
     5
 78
   300
147
1.0
148
0.0
149
0.0
100
AcDbLayout
  1
Layout1
 70
     1
 71
     1
 10
0.0
 20
0.0
 11
420.0
 21
297.0
 12
0.0
 22
0.0
 32
0.0
 14
1.000000000000000E+20
 24
1.000000000000000E+20
 34
1.000000000000000E+20
 15
-1.000000000000000E+20
 25
-1.000000000000000E+20
 35
-1.000000000000000E+20
146
0.0
 13
0.0
 23
0.0
 33
0.0
 16
1.0
 26
0.0
 36
0.0
 17
0.0
 27
1.0
 37
0.0
 76
     0
330
1B
  0
LAYOUT
  5
26
102
{ACAD_REACTORS
330
1A
102
}
330
1A
100
AcDbPlotSettings
  1

  2
none_device
  4

  6

 40
0.0
 41
0.0
 42
0.0
 43
0.0
 44
0.0
 45
0.0
 46
0.0
 47
0.0
 48
0.0
 49
0.0
140
0.0
141
0.0
142
1.0
143
1.0
 70
   688
 72
     0
 73
     0
 74
     5
  7

 75
    16
 76
     0
 77
     5
 78
   300
147
1.0
148
0.0
149
0.0
100
AcDbLayout
  1
Layout2
 70
     1
 71
     2
 10
0.0
 20
0.0
 11
0.0
 21
0.0
 12
0.0
 22
0.0
 32
0.0
 14
0.0
 24
0.0
 34
0.0
 15
0.0
 25
0.0
 35
0.0
146
0.0
 13
0.0
 23
0.0
 33
0.0
 16
1.0
 26
0.0
 36
0.0
 17
0.0
 27
1.0
 37
0.0
 76
     0
330
23
  0
LAYOUT
  5
22
102
{ACAD_REACTORS
330
1A
102
}
330
1A
100
AcDbPlotSettings
  1

  2
none_device
  4

  6

 40
0.0
 41
0.0
 42
0.0
 43
0.0
 44
0.0
 45
0.0
 46
0.0
 47
0.0
 48
0.0
 49
0.0
140
0.0
141
0.0
142
1.0
143
1.0
 70
  1712
 72
     0
 73
     0
 74
     0
  7

 75
     0
 76
     0
 77
     5
 78
   300
147
1.0
148
0.0
149
0.0
100
AcDbLayout
  1
Model
 70
     1
 71
     0
 10
-8910.0
 20
-6300.0
 11
8910.0
 21
6300.0
 12
0.0
 22
0.0
 32
0.0
 14
-8910.0
 24
-6300.0
 34
0.0
 15
8910.0
 25
6300.0
 35
0.0
146
0.0
 13
0.0
 23
0.0
 33
0.0
 16
1.0
 26
0.0
 36
0.0
 17
0.0
 27
1.0
 37
0.0
 76
     0
330
1F
331
29
  0
MATERIAL
  5
3D
102
{ACAD_REACTORS
330
3B
102
}
330
3B
100
AcDbMaterial
  1
ByBlock
 72
     1
 94
      127
  0
MATERIAL
  5
3C
102
{ACAD_REACTORS
330
3B
102
}
330
3B
100
AcDbMaterial
  1
ByLayer
 72
     1
 94
      127
  0
MATERIAL
  5
3E
102
{ACAD_REACTORS
330
3B
102
}
330
3B
100
AcDbMaterial
  1
Global
 72
     1
 94
      127
  0
MLINESTYLE
  5
18
102
{ACAD_REACTORS
330
17
102
}
330
17
100
AcDbMlineStyle
  2
Standard
 70
     0
  3

 62
   256
 51
90.0
 52
90.0
 71
     2
 49
0.5
 62
   256
  6
BYLAYER
 49
-0.5
 62
   256
  6
BYLAYER
  0
ACDBPLACEHOLDER
  5
F
102
{ACAD_REACTORS
330
E
102
}
330
E
  0
VISUALSTYLE
  5
2F
102
{ACAD_REACTORS
330
2A
102
}
330
2A
100
AcDbVisualStyle
  2
2dWireframe
 70
     4
177
     2
291
     0
 71
     0
176
     1
 72
     2
176
     1
 73
     0
176
     1
 90
        0
176
     1
 40
-0.6
176
     1
 41
-30.0
176
     1
 62
     5
 63
     7
421
 16777215
176
     1
 74
     1
176
     1
 91
        4
176
     1
 64
     7
176
     1
 65
   257
176
     1
 75
     1
176
     1
175
     1
176
     1
 42
1.0
176
     1
 92
        0
176
     1
 66
   257
176
     1
 43
1.0
176
     1
 76
     1
176
     1
 77
     6
176
     1
 78
     2
176
     1
 67
     7
176
     1
 79
     5
176
     1
170
     0
176
     1
171
     0
176
     1
290
     0
176
     1
 93
        1
176
     1
 44
0.0
176
     1
173
     0
176
     1
  0
VISUALSTYLE
  5
31
102
{ACAD_REACTORS
330
2A
102
}
330
2A
100
AcDbVisualStyle
  2
3D Hidden
 70
     6
177
     2
291
     0
 71
     1
176
     1
 72
     2
176
     1
 73
     2
176
     1
 90
        0
176
     1
 40
-0.6
176
     1
 41
-30.0
176
     1
 62
     5
 63
     7
421
 16777215
176
     1
 74
     2
176
     1
 91
        2
176
     1
 64
     7
176
     1
 65
   257
176
     1
 75
     2
176
     1
175
     1
176
     1
 42
40.0
176
     1
 92
        0
176
     1
 66
   257
176
     1
 43
1.0
176
     1
 76
     1
176
     1
 77
     6
176
     1
 78
     2
176
     1
 67
     7
176
     1
 79
     3
176
     1
170
     0
176
     1
171
     0
176
     1
290
     0
176
     1
 93
        1
176
     1
 44
0.0
176
     1
173
     0
176
     1
  0
VISUALSTYLE
  5
30
102
{ACAD_REACTORS
330
2A
102
}
330
2A
100
AcDbVisualStyle
  2
3dWireframe
 70
     5
177
     2
291
     0
 71
     0
176
     1
 72
     2
176
     1
 73
     0
176
     1
 90
        0
176
     1
 40
-0.6
176
     1
 41
-30.0
176
     1
 62
     5
 63
     7
421
 16777215
176
     1
 74
     1
176
     1
 91
        4
176
     1
 64
     7
176
     1
 65
   257
176
     1
 75
     1
176
     1
175
     1
176
     1
 42
1.0
176
     1
 92
        0
176
     1
 66
   257
176
     1
 43
1.0
176
     1
 76
     1
176
     1
 77
     6
176
     1
 78
     2
176
     1
 67
     7
176
     1
 79
     5
176
     1
170
     0
176
     1
171
     0
176
     1
290
     0
176
     1
 93
        1
176
     1
 44
0.0
176
     1
173
     0
176
     1
  0
VISUALSTYLE
  5
32
102
{ACAD_REACTORS
330
2A
102
}
330
2A
100
AcDbVisualStyle
  2
Basic
 70
     7
177
     2
291
     1
 71
     1
176
     1
 72
     0
176
     1
 73
     1
176
     1
 90
        0
176
     1
 40
-0.6
176
     1
 41
-30.0
176
     1
 62
     5
 63
     7
421
 16777215
176
     1
 74
     0
176
     1
 91
        4
176
     1
 64
     7
176
     1
 65
   257
176
     1
 75
     1
176
     1
175
     1
176
     1
 42
1.0
176
     1
 92
        8
176
     1
 66
     7
176
     1
 43
1.0
176
     1
 76
     1
176
     1
 77
     6
176
     1
 78
     2
176
     1
 67
     7
176
     1
 79
     5
176
     1
170
     0
176
     1
171
     0
176
     1
290
     0
176
     1
 93
        1
176
     1
 44
0.0
176
     1
173
     0
176
     1
  0
VISUALSTYLE
  5
36
102
{ACAD_REACTORS
330
2A
102
}
330
2A
100
AcDbVisualStyle
  2
Brighten
 70
    12
177
     2
291
     1
 71
     2
176
     1
 72
     2
176
     1
 73
     0
176
     1
 90
        0
176
     1
 40
-0.6
176
     1
 41
-30.0
176
     1
 62
     5
 63
     7
421
 16777215
176
     1
 74
     1
176
     1
 91
        4
176
     1
 64
     7
176
     1
 65
   257
176
     1
 75
     1
176
     1
175
     1
176
     1
 42
1.0
176
     1
 92
        8
176
     1
 66
     7
176
     1
 43
1.0
176
     1
 76
     1
176
     1
 77
     6
176
     1
 78
     2
176
     1
 67
     7
176
     1
 79
     5
176
     1
170
     0
176
     1
171
     0
176
     1
290
     0
176
     1
 93
        1
176
     1
 44
50.0
176
     1
173
     0
176
     1
  0
VISUALSTYLE
  5
3A
102
{ACAD_REACTORS
330
2A
102
}
330
2A
100
AcDbVisualStyle
  2
ColorChange
 70
    16
177
     2
291
     1
 71
     2
176
     1
 72
     2
176
     1
 73
     3
176
     1
 90
        0
176
     1
 40
-0.6
176
     1
 41
-30.0
176
     1
 62
     5
 63
     8
421
  8421504
176
     1
 74
     1
176
     1
 91
        4
176
     1
 64
     7
176
     1
 65
   257
176
     1
 75
     1
176
     1
175
     1
176
     1
 42
1.0
176
     1
 92
        8
176
     1
 66
     8
424
  8421504
176
     1
 43
1.0
176
     1
 76
     1
176
     1
 77
     6
176
     1
 78
     2
176
     1
 67
     7
176
     1
 79
     5
176
     1
170
     0
176
     1
171
     0
176
     1
290
     0
176
     1
 93
        1
176
     1
 44
0.0
176
     1
173
     0
176
     1
  0
VISUALSTYLE
  5
34
102
{ACAD_REACTORS
330
2A
102
}
330
2A
100
AcDbVisualStyle
  2
Conceptual
 70
     9
177
     2
291
     0
 71
     3
176
     1
 72
     2
176
     1
 73
     0
176
     1
 90
        0
176
     1
 40
-0.6
176
     1
 41
-30.0
176
     1
 62
     5
 63
     7
421
 16777215
176
     1
 74
     2
176
     1
 91
        2
176
     1
 64
     7
176
     1
 65
   257
176
     1
 75
     1
176
     1
175
     1
176
     1
 42
40.0
176
     1
 92
        8
176
     1
 66
     7
176
     1
 43
1.0
176
     1
 76
     1
176
     1
 77
     6
176
     1
 78
     2
176
     1
 67
     7
176
     1
 79
     3
176
     1
170
     0
176
     1
171
     0
176
     1
290
     0
176
     1
 93
        1
176
     1
 44
0.0
176
     1
173
     0
176
     1
  0
VISUALSTYLE
  5
35
102
{ACAD_REACTORS
330
2A
102
}
330
2A
100
AcDbVisualStyle
  2
Dim
 70
    11
177
     2
291
     1
 71
     2
176
     1
 72
     2
176
     1
 73
     0
176
     1
 90
        0
176
     1
 40
-0.6
176
     1
 41
-30.0
176
     1
 62
     5
 63
     7
421
 16777215
176
     1
 74
     1
176
     1
 91
        4
176
     1
 64
     7
176
     1
 65
   257
176
     1
 75
     1
176
     1
175
     1
176
     1
 42
1.0
176
     1
 92
        8
176
     1
 66
     7
176
     1
 43
1.0
176
     1
 76
     1
176
     1
 77
     6
176
     1
 78
     2
176
     1
 67
     7
176
     1
 79
     5
176
     1
170
     0
176
     1
171
     0
176
     1
290
     0
176
     1
 93
        1
176
     1
 44
-50.0
176
     1
173
     0
176
     1
  0
VISUALSTYLE
  5
39
102
{ACAD_REACTORS
330
2A
102
}
330
2A
100
AcDbVisualStyle
  2
Facepattern
 70
    15
177
     2
291
     1
 71
     2
176
     1
 72
     2
176
     1
 73
     0
176
     1
 90
        0
176
     1
 40
-0.6
176
     1
 41
-30.0
176
     1
 62
     5
 63
     7
421
 16777215
176
     1
 74
     1
176
     1
 91
        4
176
     1
 64
     7
176
     1
 65
   257
176
     1
 75
     1
176
     1
175
     1
176
     1
 42
1.0
176
     1
 92
        8
176
     1
 66
     7
176
     1
 43
1.0
176
     1
 76
     1
176
     1
 77
     6
176
     1
 78
     2
176
     1
 67
     7
176
     1
 79
     5
176
     1
170
     0
176
     1
171
     0
176
     1
290
     0
176
     1
 93
        1
176
     1
 44
0.0
176
     1
173
     0
176
     1
  0
VISUALSTYLE
  5
2B
102
{ACAD_REACTORS
330
2A
102
}
330
2A
100
AcDbVisualStyle
  2
Flat
 70
     0
177
     2
291
     1
 71
     2
176
     1
 72
     1
176
     1
 73
     1
176
     1
 90
        2
176
     1
 40
-0.6
176
     1
 41
30.0
176
     1
 62
     5
 63
     7
421
 16777215
176
     1
 74
     0
176
     1
 91
        4
176
     1
 64
     7
176
     1
 65
   257
176
     1
 75
     1
176
     1
175
     1
176
     1
 42
1.0
176
     1
 92
        8
176
     1
 66
     7
176
     1
 43
1.0
176
     1
 76
     1
176
     1
 77
     6
176
     1
 78
     2
176
     1
 67
     7
176
     1
 79
     5
176
     1
170
     0
176
     1
171
     0
176
     1
290
     0
176
     1
 93
       13
176
     1
 44
0.0
176
     1
173
     0
176
     1
  0
VISUALSTYLE
  5
2C
102
{ACAD_REACTORS
330
2A
102
}
330
2A
100
AcDbVisualStyle
  2
FlatWithEdges
 70
     1
177
     2
291
     1
 71
     2
176
     1
 72
     1
176
     1
 73
     1
176
     1
 90
        2
176
     1
 40
-0.6
176
     1
 41
30.0
176
     1
 62
     5
 63
     7
421
 16777215
176
     1
 74
     1
176
     1
 91
        4
176
     1
 64
     7
176
     1
 65
   257
176
     1
 75
     1
176
     1
175
     1
176
     1
 42
1.0
176
     1
 92
        0
176
     1
 66
   257
176
     1
 43
1.0
176
     1
 76
     1
176
     1
 77
     6
176
     1
 78
     2
176
     1
 67
     7
176
     1
 79
     5
176
     1
170
     0
176
     1
171
     0
176
     1
290
     0
176
     1
 93
       13
176
     1
 44
0.0
176
     1
173
     0
176
     1
  0
VISUALSTYLE
  5
2D
102
{ACAD_REACTORS
330
2A
102
}
330
2A
100
AcDbVisualStyle
  2
Gouraud
 70
     2
177
     2
291
     1
 71
     2
176
     1
 72
     2
176
     1
 73
     1
176
     1
 90
        2
176
     1
 40
-0.6
176
     1
 41
30.0
176
     1
 62
     5
 63
     7
421
 16777215
176
     1
 74
     0
176
     1
 91
        4
176
     1
 64
     7
176
     1
 65
   257
176
     1
 75
     1
176
     1
175
     1
176
     1
 42
1.0
176
     1
 92
        0
176
     1
 66
     7
176
     1
 43
1.0
176
     1
 76
     1
176
     1
 77
     6
176
     1
 78
     2
176
     1
 67
     7
176
     1
 79
     5
176
     1
170
     0
176
     1
171
     0
176
     1
290
     0
176
     1
 93
       13
176
     1
 44
0.0
176
     1
173
     0
176
     1
  0
VISUALSTYLE
  5
2E
102
{ACAD_REACTORS
330
2A
102
}
330
2A
100
AcDbVisualStyle
  2
GouraudWithEdges
 70
     3
177
     2
291
     1
 71
     2
176
     1
 72
     2
176
     1
 73
     1
176
     1
 90
        2
176
     1
 40
-0.6
176
     1
 41
30.0
176
     1
 62
     5
 63
     7
421
 16777215
176
     1
 74
     1
176
     1
 91
        4
176
     1
 64
     7
176
     1
 65
   257
176
     1
 75
     1
176
     1
175
     1
176
     1
 42
1.0
176
     1
 92
        0
176
     1
 66
   257
176
     1
 43
1.0
176
     1
 76
     1
176
     1
 77
     6
176
     1
 78
     2
176
     1
 67
     7
176
     1
 79
     5
176
     1
170
     0
176
     1
171
     0
176
     1
290
     0
176
     1
 93
       13
176
     1
 44
0.0
176
     1
173
     0
176
     1
  0
VISUALSTYLE
  5
38
102
{ACAD_REACTORS
330
2A
102
}
330
2A
100
AcDbVisualStyle
  2
Linepattern
 70
    14
177
     2
291
     1
 71
     2
176
     1
 72
     2
176
     1
 73
     0
176
     1
 90
        0
176
     1
 40
-0.6
176
     1
 41
-30.0
176
     1
 62
     5
 63
     7
421
 16777215
176
     1
 74
     1
176
     1
 91
        4
176
     1
 64
     7
176
     1
 65
   257
176
     1
 75
     7
176
     1
175
     7
176
     1
 42
1.0
176
     1
 92
        8
176
     1
 66
     7
176
     1
 43
1.0
176
     1
 76
     1
176
     1
 77
     6
176
     1
 78
     2
176
     1
 67
     7
176
     1
 79
     5
176
     1
170
     0
176
     1
171
     0
176
     1
290
     0
176
     1
 93
        1
176
     1
 44
0.0
176
     1
173
     0
176
     1
  0
VISUALSTYLE
  5
33
102
{ACAD_REACTORS
330
2A
102
}
330
2A
100
AcDbVisualStyle
  2
Realistic
 70
     8
177
     2
291
     0
 71
     2
176
     1
 72
     2
176
     1
 73
     0
176
     1
 90
        0
176
     1
 40
-0.6
176
     1
 41
-30.0
176
     1
 62
     5
 63
     7
421
 16777215
176
     1
 74
     1
176
     1
 91
        0
176
     1
 64
     7
176
     1
 65
   257
176
     1
 75
     1
176
     1
175
     1
176
     1
 42
1.0
176
     1
 92
        8
176
     1
 66
     8
424
  7895160
176
     1
 43
1.0
176
     1
 76
     1
176
     1
 77
     6
176
     1
 78
     2
176
     1
 67
     7
176
     1
 79
     5
176
     1
170
     0
176
     1
171
     0
176
     1
290
     0
176
     1
 93
       13
176
     1
 44
0.0
176
     1
173
     0
176
     1
  0
VISUALSTYLE
  5
37
102
{ACAD_REACTORS
330
2A
102
}
330
2A
100
AcDbVisualStyle
  2
Thicken
 70
    13
177
     2
291
     1
 71
     2
176
     1
 72
     2
176
     1
 73
     0
176
     1
 90
        0
176
     1
 40
-0.6
176
     1
 41
-30.0
176
     1
 62
     5
 63
     7
421
 16777215
176
     1
 74
     1
176
     1
 91
        4
176
     1
 64
     7
176
     1
 65
   257
176
     1
 75
     1
176
     1
175
     1
176
     1
 42
1.0
176
     1
 92
       12
176
     1
 66
     7
176
     1
 43
1.0
176
     1
 76
     1
176
     1
 77
     6
176
     1
 78
     2
176
     1
 67
     7
176
     1
 79
     5
176
     1
170
     0
176
     1
171
     0
176
     1
290
     0
176
     1
 93
        1
176
     1
 44
0.0
176
     1
173
     0
176
     1
  0
ENDSEC
  0
EOF
