  0
SECTION
  2
HEADER
  9
$ACADVER
  1
AC1024
  9
$ACADMAINTVER
 70
     6
  9
$DWGCODEPAGE
  3
ANSI_932
  9
$INSBASE
 10
0.0
 20
0.0
 30
0.0
  9
$EXTMIN
 10
-6300.0
 20
-4455.0
 30
0.0
  9
$EXTMAX
 10
6300.0
 20
4455.0
 30
0.0
  9
$LIMMIN
 10
-6300.0
 20
-4455.0
  9
$LIMMAX
 10
6300.0
 20
4455.0
  9
$ORTHOMODE
 70
     0
  9
$REGENMODE
 70
     1
  9
$FILLMODE
 70
     1
  9
$QTEXTMODE
 70
     0
  9
$MIRRTEXT
 70
     1
  9
$LTSCALE
 40
30.0
  9
$ATTMODE
 70
     1
  9
$TEXTSIZE
 40
2.5
  9
$TRACEWID
 40
1.0
  9
$TEXTSTYLE
  7
Standard
  9
$CLAYER
  8
0
  9
$CELTYPE
  6
ByLayer
  9
$CECOLOR
 62
   256
  9
$CELTSCALE
 40
1.0
  9
$DISPSILH
 70
     0
  9
$DIMSCALE
 40
1.0
  9
$DIMASZ
 40
2.5
  9
$DIMEXO
 40
0.625
  9
$DIMDLI
 40
3.75
  9
$DIMRND
 40
0.0
  9
$DIMDLE
 40
0.0
  9
$DIMEXE
 40
1.25
  9
$DIMTP
 40
0.0
  9
$DIMTM
 40
0.0
  9
$DIMTXT
 40
2.5
  9
$DIMCEN
 40
2.5
  9
$DIMTSZ
 40
0.0
  9
$DIMTOL
 70
     0
  9
$DIMLIM
 70
     0
  9
$DIMTIH
 70
     0
  9
$DIMTOH
 70
     0
  9
$DIMSE1
 70
     0
  9
$DIMSE2
 70
     0
  9
$DIMTAD
 70
     1
  9
$DIMZIN
 70
     8
  9
$DIMBLK
  1

  9
$DIMASO
 70
     1
  9
$DIMSHO
 70
     1
  9
$DIMPOST
  1

  9
$DIMAPOST
  1

  9
$DIMALT
 70
     0
  9
$DIMALTD
 70
     3
  9
$DIMALTF
 40
0.03937007874016
  9
$DIMLFAC
 40
1.0
  9
$DIMTOFL
 70
     1
  9
$DIMTVP
 40
0.0
  9
$DIMTIX
 70
     0
  9
$DIMSOXD
 70
     0
  9
$DIMSAH
 70
     0
  9
$DIMBLK1
  1

  9
$DIMBLK2
  1

  9
$DIMSTYLE
  2
ISO-25
  9
$DIMCLRD
 70
     0
  9
$DIMCLRE
 70
     0
  9
$DIMCLRT
 70
     0
  9
$DIMTFAC
 40
1.0
  9
$DIMGAP
 40
0.625
  9
$DIMJUST
 70
     0
  9
$DIMSD1
 70
     0
  9
$DIMSD2
 70
     0
  9
$DIMTOLJ
 70
     0
  9
$DIMTZIN
 70
     8
  9
$DIMALTZ
 70
     0
  9
$DIMALTTZ
 70
     0
  9
$DIMUPT
 70
     0
  9
$DIMDEC
 70
     2
  9
$DIMTDEC
 70
     2
  9
$DIMALTU
 70
     2
  9
$DIMALTTD
 70
     3
  9
$DIMTXSTY
  7
Standard
  9
$DIMAUNIT
 70
     0
  9
$DIMADEC
 70
     0
  9
$DIMALTRND
 40
0.0
  9
$DIMAZIN
 70
     0
  9
$DIMDSEP
 70
    44
  9
$DIMATFIT
 70
     3
  9
$DIMFRAC
 70
     0
  9
$DIMLDRBLK
  1

  9
$DIMLUNIT
 70
     2
  9
$DIMLWD
 70
    -2
  9
$DIMLWE
 70
    -2
  9
$DIMTMOVE
 70
     0
  9
$DIMFXL
 40
1.0
  9
$DIMFXLON
 70
     0
  9
$DIMJOGANG
 40
0.7853981633974483
  9
$DIMTFILL
 70
     0
  9
$DIMTFILLCLR
 70
     0
  9
$DIMARCSYM
 70
     0
  9
$DIMLTYPE
  6

  9
$DIMLTEX1
  6

  9
$DIMLTEX2
  6

  9
$DIMTXTDIRECTION
 70
     0
  9
$LUNITS
 70
     2
  9
$LUPREC
 70
     4
  9
$SKETCHINC
 40
1.0
  9
$FILLETRAD
 40
10.0
  9
$AUNITS
 70
     0
  9
$AUPREC
 70
     0
  9
$MENU
  1
.
  9
$ELEVATION
 40
0.0
  9
$PELEVATION
 40
0.0
  9
$THICKNESS
 40
0.0
  9
$LIMCHECK
 70
     0
  9
$CHAMFERA
 40
10.0
  9
$CHAMFERB
 40
10.0
  9
$CHAMFERC
 40
20.0
  9
$CHAMFERD
 40
0.0
  9
$SKPOLY
 70
     0
  9
$TDCREATE
 40
2459380.631467141
  9
$TDUCREATE
 40
2459380.256467141
  9
$TDUPDATE
 40
2459380.631467153
  9
$TDUUPDATE
 40
2459380.256467153
  9
$TDINDWG
 40
0.0000000116
  9
$TDUSRTIMER
 40
0.0000000116
  9
$USRTIMER
 70
     1
  9
$ANGBASE
 50
0.0
  9
$ANGDIR
 70
     0
  9
$PDMODE
 70
     0
  9
$PDSIZE
 40
0.0
  9
$PLINEWID
 40
0.0
  9
$SPLFRAME
 70
     0
  9
$SPLINETYPE
 70
     6
  9
$SPLINESEGS
 70
     8
  9
$HANDSEED
  5
32F
  9
$SURFTAB1
 70
     6
  9
$SURFTAB2
 70
     6
  9
$SURFTYPE
 70
     6
  9
$SURFU
 70
     6
  9
$SURFV
 70
     6
  9
$UCSBASE
  2

  9
$UCSNAME
  2

  9
$UCSORG
 10
0.0
 20
0.0
 30
0.0
  9
$UCSXDIR
 10
1.0
 20
0.0
 30
0.0
  9
$UCSYDIR
 10
0.0
 20
1.0
 30
0.0
  9
$UCSORTHOREF
  2

  9
$UCSORTHOVIEW
 70
     0
  9
$UCSORGTOP
 10
0.0
 20
0.0
 30
0.0
  9
$UCSORGBOTTOM
 10
0.0
 20
0.0
 30
0.0
  9
$UCSORGLEFT
 10
0.0
 20
0.0
 30
0.0
  9
$UCSORGRIGHT
 10
0.0
 20
0.0
 30
0.0
  9
$UCSORGFRONT
 10
0.0
 20
0.0
 30
0.0
  9
$UCSORGBACK
 10
0.0
 20
0.0
 30
0.0
  9
$PUCSBASE
  2

  9
$PUCSNAME
  2

  9
$PUCSORG
 10
0.0
 20
0.0
 30
0.0
  9
$PUCSXDIR
 10
1.0
 20
0.0
 30
0.0
  9
$PUCSYDIR
 10
0.0
 20
1.0
 30
0.0
  9
$PUCSORTHOREF
  2

  9
$PUCSORTHOVIEW
 70
     0
  9
$PUCSORGTOP
 10
0.0
 20
0.0
 30
0.0
  9
$PUCSORGBOTTOM
 10
0.0
 20
0.0
 30
0.0
  9
$PUCSORGLEFT
 10
0.0
 20
0.0
 30
0.0
  9
$PUCSORGRIGHT
 10
0.0
 20
0.0
 30
0.0
  9
$PUCSORGFRONT
 10
0.0
 20
0.0
 30
0.0
  9
$PUCSORGBACK
 10
0.0
 20
0.0
 30
0.0
  9
$USERI1
 70
     0
  9
$USERI2
 70
     0
  9
$USERI3
 70
     0
  9
$USERI4
 70
     0
  9
$USERI5
 70
     0
  9
$USERR1
 40
0.0
  9
$USERR2
 40
0.0
  9
$USERR3
 40
0.0
  9
$USERR4
 40
0.0
  9
$USERR5
 40
0.0
  9
$WORLDVIEW
 70
     1
  9
$SHADEDGE
 70
     3
  9
$SHADEDIF
 70
    70
  9
$TILEMODE
 70
     1
  9
$MAXACTVP
 70
    64
  9
$PINSBASE
 10
0.0
 20
0.0
 30
0.0
  9
$PLIMCHECK
 70
     0
  9
$PEXTMIN
 10
1.000000000000000E+20
 20
1.000000000000000E+20
 30
1.000000000000000E+20
  9
$PEXTMAX
 10
-1.000000000000000E+20
 20
-1.000000000000000E+20
 30
-1.000000000000000E+20
  9
$PLIMMIN
 10
0.0
 20
0.0
  9
$PLIMMAX
 10
420.0
 20
297.0
  9
$UNITMODE
 70
     0
  9
$VISRETAIN
 70
     1
  9
$PLINEGEN
 70
     0
  9
$PSLTSCALE
 70
     1
  9
$TREEDEPTH
 70
  3020
  9
$CMLSTYLE
  2
Standard
  9
$CMLJUST
 70
     0
  9
$CMLSCALE
 40
20.0
  9
$PROXYGRAPHICS
 70
     1
  9
$MEASUREMENT
 70
     1
  9
$CELWEIGHT
370
    -1
  9
$ENDCAPS
280
     0
  9
$JOINSTYLE
280
     0
  9
$LWDISPLAY
290
     0
  9
$INSUNITS
 70
     4
  9
$HYPERLINKBASE
  1

  9
$STYLESHEET
  1

  9
$XEDIT
290
     1
  9
$CEPSNTYPE
380
     0
  9
$PSTYLEMODE
290
     1
  9
$FINGERPRINTGUID
  2
{9E97120B-4C9A-467F-9288-B1122AA3BB56}
  9
$VERSIONGUID
  2
{FAEB1C32-E019-11D5-929B-00C0DF256EC4}
  9
$EXTNAMES
290
     1
  9
$PSVPSCALE
 40
0.0
  9
$OLESTARTUP
290
     0
  9
$SORTENTS
280
   127
  9
$INDEXCTL
280
     0
  9
$HIDETEXT
280
     1
  9
$XCLIPFRAME
280
     2
  9
$HALOGAP
280
     0
  9
$OBSCOLOR
 70
   257
  9
$OBSLTYPE
280
     0
  9
$INTERSECTIONDISPLAY
280
     0
  9
$INTERSECTIONCOLOR
 70
   257
  9
$DIMASSOC
280
     2
  9
$PROJECTNAME
  1

  9
$CAMERADISPLAY
290
     0
  9
$LENSLENGTH
 40
50.0
  9
$CAMERAHEIGHT
 40
0.0
  9
$STEPSPERSEC
 40
2.0
  9
$STEPSIZE
 40
6.0
  9
$3DDWFPREC
 40
2.0
  9
$PSOLWIDTH
 40
5.0
  9
$PSOLHEIGHT
 40
80.0
  9
$LOFTANG1
 40
1.570796326794897
  9
$LOFTANG2
 40
1.570796326794897
  9
$LOFTMAG1
 40
0.0
  9
$LOFTMAG2
 40
0.0
  9
$LOFTPARAM
 70
     7
  9
$LOFTNORMALS
280
     1
  9
$LATITUDE
 40
37.795
  9
$LONGITUDE
 40
-122.394
  9
$NORTHDIRECTION
 40
0.0
  9
$TIMEZONE
 70
 -8000
  9
$LIGHTGLYPHDISPLAY
280
     1
  9
$TILEMODELIGHTSYNCH
280
     1
  9
$SOLIDHIST
280
     1
  9
$SHOWHIST
280
     1
  9
$DWFFRAME
280
     2
  9
$DGNFRAME
280
     2
  9
$REALWORLDSCALE
290
     1
  9
$INTERFERECOLOR
 62
   256
  9
$CSHADOW
280
     0
  9
$SHADOWPLANELOCATION
 40
0.0
  0
ENDSEC
  0
SECTION
  2
CLASSES
  0
CLASS
  1
ACDBDICTIONARYWDFLT
  2
AcDbDictionaryWithDefault
  3
ObjectDBX Classes
 90
        0
 91
        4
280
     0
281
     0
  0
CLASS
  1
VISUALSTYLE
  2
AcDbVisualStyle
  3
ObjectDBX Classes
 90
     4095
 91
        4
280
     0
281
     0
  0
CLASS
  1
MATERIAL
  2
AcDbMaterial
  3
ObjectDBX Classes
 90
     1153
 91
        4
280
     0
281
     0
  0
ENDSEC
  0
SECTION
  2
TABLES
  0
TABLE
  2
VPORT
  5
8
330
0
100
AcDbSymbolTable
 70
     1
  0
VPORT
  5
29
330
8
100
AcDbSymbolTableRecord
100
AcDbViewportTableRecord
  2
*Active
 70
     0
 10
0.0
 20
0.0
 11
1.0
 21
1.0
 12
0.0
 22
0.0
 13
0.0
 23
0.0
 14
10.0
 24
10.0
 15
10.0
 25
10.0
 16
0.0
 26
0.0
 36
1.0
 17
0.0
 27
0.0
 37
0.0
 40
9801.0
 41
1.414141414141414
 42
50.0
 43
0.0
 44
0.0
 50
0.0
 51
0.0
 71
     0
 72
 10000
 73
     1
 74
     3
 75
     0
 76
     0
 77
     0
 78
     0
281
     0
 65
     1
110
0.0
120
0.0
130
0.0
111
1.0
121
0.0
131
0.0
112
0.0
122
1.0
132
0.0
 79
     0
146
0.0
 60
     3
 61
     5
292
     1
282
     1
141
0.0
142
0.0
 63
   250
  0
ENDTAB
  0
TABLE
  2
LTYPE
  5
5
330
0
100
AcDbSymbolTable
 70
     4
  0
LTYPE
  5
14
330
5
100
AcDbSymbolTableRecord
100
AcDbLinetypeTableRecord
  2
ByBlock
 70
     0
  3

 72
    65
 73
     0
 40
0.0
  0
LTYPE
  5
15
330
5
100
AcDbSymbolTableRecord
100
AcDbLinetypeTableRecord
  2
ByLayer
 70
     0
  3

 72
    65
 73
     0
 40
0.0
  0
LTYPE
  5
16
330
5
100
AcDbSymbolTableRecord
100
AcDbLinetypeTableRecord
  2
Continuous
 70
     0
  3
Solid line
 72
    65
 73
     0
 40
0.0
  0
LTYPE
  5
3F
330
5
100
AcDbSymbolTableRecord
100
AcDbLinetypeTableRecord
  2
JWW_HOJO
 70
     0
  3
  -   -   -   -   -   -   -   - 
 72
    65
 73
     2
 40
1.693333333333333
 49
-1.27
 74
     0
 49
0.4233333333333333
 74
     0
  0
LTYPE
  5
40
330
5
100
AcDbSymbolTableRecord
100
AcDbLinetypeTableRecord
  2
JWW_CENTER1
 70
     0
  3
-----  --  ----------  --  -----
 72
    65
 73
     4
 40
6.773333333333333
 49
4.233333333333333
 74
     0
 49
-0.8466666666666667
 74
     0
 49
0.8466666666666667
 74
     0
 49
-0.8466666666666667
 74
     0
  0
LTYPE
  5
41
330
5
100
AcDbSymbolTableRecord
100
AcDbLinetypeTableRecord
  2
JWW_CENTER2
 70
     0
  3
-------------  --  -------------
 72
    65
 73
     4
 40
13.54666666666667
 49
11.00666666666667
 74
     0
 49
-0.8466666666666667
 74
     0
 49
0.8466666666666667
 74
     0
 49
-0.8466666666666667
 74
     0
  0
ENDTAB
  0
TABLE
  2
LAYER
  5
2
330
0
100
AcDbSymbolTable
 70
    12
  0
LAYER
  5
10
330
2
100
AcDbSymbolTableRecord
100
AcDbLayerTableRecord
  2
0
 70
     0
 62
     7
  6
Continuous
370
    -3
390
F
347
3E
  0
LAYER
  5
42
330
2
100
AcDbSymbolTableRecord
100
AcDbLayerTableRecord
  2
F-1_枠
 70
     0
 62
     7
  6
Continuous
370
    -3
390
F
347
3E
  0
LAYER
  5
43
330
2
100
AcDbSymbolTableRecord
100
AcDbLayerTableRecord
  2
F-0_補助線
 70
     0
 62
     7
  6
Continuous
370
    -3
390
F
347
3E
  0
LAYER
  5
44
330
2
100
AcDbSymbolTableRecord
100
AcDbLayerTableRecord
  2
0-0_補助線
 70
     0
 62
     7
  6
Continuous
370
    -3
390
F
347
3E
  0
LAYER
  5
45
330
2
100
AcDbSymbolTableRecord
100
AcDbLayerTableRecord
  2
F-A_文字
 70
     0
 62
     7
  6
Continuous
370
    -3
390
F
347
3E
  0
LAYER
  5
46
330
2
100
AcDbSymbolTableRecord
100
AcDbLayerTableRecord
  2
0-4_枠
 70
     0
 62
     7
  6
Continuous
370
    -3
390
F
347
3E
  0
LAYER
  5
47
330
2
100
AcDbSymbolTableRecord
100
AcDbLayerTableRecord
  2
0-B_寸法
 70
     0
 62
     7
  6
Continuous
370
    -3
390
F
347
3E
  0
LAYER
  5
48
330
2
100
AcDbSymbolTableRecord
100
AcDbLayerTableRecord
  2
0-A_文字
 70
     0
 62
     7
  6
Continuous
370
    -3
390
F
347
3E
  0
LAYER
  5
49
330
2
100
AcDbSymbolTableRecord
100
AcDbLayerTableRecord
  2
0-2_扉
 70
     0
 62
     7
  6
Continuous
370
    -3
390
F
347
3E
  0
LAYER
  5
4A
330
2
100
AcDbSymbolTableRecord
100
AcDbLayerTableRecord
  2
レバー
 70
     0
 62
     7
  6
Continuous
370
    -3
390
F
347
3E
  0
LAYER
  5
4B
330
2
100
AcDbSymbolTableRecord
100
AcDbLayerTableRecord
  2
0-C_ハッチ
 70
     0
 62
     7
  6
Continuous
370
    -3
390
F
347
3E
  0
LAYER
  5
4C
330
2
100
AcDbSymbolTableRecord
100
AcDbLayerTableRecord
  2
0-7
 70
     0
 62
     7
  6
Continuous
370
    -3
390
F
347
3E
  0
ENDTAB
  0
TABLE
  2
STYLE
  5
3
330
0
100
AcDbSymbolTable
 70
     1
  0
STYLE
  5
11
330
3
100
AcDbSymbolTableRecord
100
AcDbTextStyleTableRecord
  2
Standard
 70
     0
 40
0.0
 41
1.0
 50
0.0
 71
     0
 42
2.5
  3
txt
  4

  0
ENDTAB
  0
TABLE
  2
VIEW
  5
6
330
0
100
AcDbSymbolTable
 70
     0
  0
ENDTAB
  0
TABLE
  2
UCS
  5
7
330
0
100
AcDbSymbolTable
 70
     0
  0
ENDTAB
  0
TABLE
  2
APPID
  5
9
330
0
100
AcDbSymbolTable
 70
     1
  0
APPID
  5
12
330
9
100
AcDbSymbolTableRecord
100
AcDbRegAppTableRecord
  2
ACAD
 70
     0
  0
ENDTAB
  0
TABLE
  2
DIMSTYLE
  5
A
330
0
100
AcDbSymbolTable
 70
     1
100
AcDbDimStyleTable
  0
DIMSTYLE
105
27
330
A
100
AcDbSymbolTableRecord
100
AcDbDimStyleTableRecord
  2
ISO-25
 70
     0
 41
2.5
 42
0.625
 43
3.75
 44
1.25
 73
     0
 74
     0
 77
     1
 78
     8
140
2.5
141
2.5
143
0.03937007874016
147
0.625
171
     3
172
     1
178
     0
271
     2
272
     2
274
     3
278
    44
283
     0
284
     8
340
11
  0
ENDTAB
  0
TABLE
  2
BLOCK_RECORD
  5
1
330
0
100
AcDbSymbolTable
 70
     1
  0
BLOCK_RECORD
  5
1F
330
1
100
AcDbSymbolTableRecord
100
AcDbBlockTableRecord
  2
*Model_Space
340
22
 70
     0
280
     1
281
     0
  0
BLOCK_RECORD
  5
1B
330
1
100
AcDbSymbolTableRecord
100
AcDbBlockTableRecord
  2
*Paper_Space
340
1E
 70
     0
280
     1
281
     0
  0
BLOCK_RECORD
  5
23
330
1
100
AcDbSymbolTableRecord
100
AcDbBlockTableRecord
  2
*Paper_Space0
340
26
 70
     0
280
     1
281
     0
  0
ENDTAB
  0
ENDSEC
  0
SECTION
  2
BLOCKS
  0
BLOCK
  5
20
330
1F
100
AcDbEntity
  8
0
100
AcDbBlockBegin
  2
*Model_Space
 70
     0
 10
0.0
 20
0.0
 30
0.0
  3
*Model_Space
  1

  0
ENDBLK
  5
21
330
1F
100
AcDbEntity
  8
0
100
AcDbBlockEnd
  0
BLOCK
  5
1C
330
1B
100
AcDbEntity
 67
     1
  8
0
100
AcDbBlockBegin
  2
*Paper_Space
 70
     0
 10
0.0
 20
0.0
 30
0.0
  3
*Paper_Space
  1

  0
ENDBLK
  5
1D
330
1B
100
AcDbEntity
 67
     1
  8
0
100
AcDbBlockEnd
  0
BLOCK
  5
24
330
23
100
AcDbEntity
  8
0
100
AcDbBlockBegin
  2
*Paper_Space0
 70
     0
 10
0.0
 20
0.0
 30
0.0
  3
*Paper_Space0
  1

  0
ENDBLK
  5
25
330
23
100
AcDbEntity
  8
0
100
AcDbBlockEnd
  0
ENDSEC
  0
SECTION
  2
ENTITIES
  0
LINE
  5
4D
330
1F
100
AcDbEntity
  8
F-1_枠
  6
Continuous
 62
   200
370
    20
100
AcDbLine
 10
-5490.000018557986
 20
4174.999769056166
 30
0.0
 11
-5490.000018557986
 21
-3790.000179909372
 31
0.0
  0
LINE
  5
4E
330
1F
100
AcDbEntity
  8
F-1_枠
  6
Continuous
 62
   200
370
    20
100
AcDbLine
 10
-5999.99998453501
 20
190.5001831054688
 30
0.0
 11
5699.998762800888
 21
190.5001831054688
 31
0.0
  0
LINE
  5
4F
330
1F
100
AcDbEntity
  8
F-1_枠
  6
Continuous
 62
   200
370
    20
100
AcDbLine
 10
-5999.99998453501
 20
184.5000148463899
 30
0.0
 11
5699.998762800888
 21
184.5000148463899
 31
0.0
  0
LINE
  5
50
330
1F
100
AcDbEntity
  8
F-1_枠
  6
Continuous
 62
   200
370
    20
100
AcDbLine
 10
-5999.99998453501
 20
187.5000989759289
 30
0.0
 11
5699.998762800888
 21
187.5000989759289
 31
0.0
  0
LINE
  5
51
330
1F
100
AcDbEntity
  8
F-1_枠
  6
Continuous
 62
   200
370
    20
100
AcDbLine
 10
-5999.999752560178
 20
4174.999769056166
 30
0.0
 11
5699.998762800888
 21
4174.999769056166
 31
0.0
  0
LINE
  5
52
330
1F
100
AcDbEntity
  8
F-0_補助線
  6
JWW_HOJO
 62
   120
370
     5
100
AcDbLine
 10
-6300.0
 20
-4455.0
 30
0.0
 11
-6300.0
 21
4424.999604096284
 31
0.0
  0
LINE
  5
53
330
1F
100
AcDbEntity
  8
F-0_補助線
  6
JWW_HOJO
 62
   120
370
     5
100
AcDbLine
 10
5999.999010240709
 20
4424.999604096284
 30
0.0
 11
5999.999010240709
 21
-4455.0
 31
0.0
  0
LINE
  5
54
330
1F
100
AcDbEntity
  8
F-0_補助線
  6
JWW_HOJO
 62
   120
370
     5
100
AcDbLine
 10
5999.999010240709
 20
-4455.0
 30
0.0
 11
-6300.0
 21
-4455.0
 31
0.0
  0
LINE
  5
55
330
1F
100
AcDbEntity
  8
F-1_枠
  6
Continuous
 62
   200
370
    20
100
AcDbLine
 10
-5999.999752560178
 20
4164.999983504013
 30
0.0
 11
5699.998762800888
 21
4164.999983504013
 31
0.0
  0
LINE
  5
56
330
1F
100
AcDbEntity
  8
F-1_枠
  6
Continuous
 62
   200
370
    20
100
AcDbLine
 10
-5999.999752560178
 20
4169.999505120355
 30
0.0
 11
5699.998762800888
 21
4169.999505120355
 31
0.0
  0
LINE
  5
57
330
1F
100
AcDbEntity
  8
F-1_枠
  6
Continuous
 62
   200
370
    20
100
AcDbLine
 10
5689.998977248734
 20
4174.999769056166
 30
0.0
 11
5689.998977248734
 21
-4205.000164959882
 31
0.0
  0
LINE
  5
58
330
1F
100
AcDbEntity
  8
F-1_枠
  6
Continuous
 62
   200
370
    20
100
AcDbLine
 10
5694.998498865077
 20
4174.999769056166
 30
0.0
 11
5694.998498865077
 21
-4205.000164959882
 31
0.0
  0
LINE
  5
59
330
1F
100
AcDbEntity
  8
F-1_枠
  6
Continuous
 62
   200
370
    20
100
AcDbLine
 10
5699.998762800888
 20
4174.999769056166
 30
0.0
 11
5699.998762800888
 21
-4205.000164959882
 31
0.0
  0
LINE
  5
5A
330
1F
100
AcDbEntity
  8
F-1_枠
  6
Continuous
 62
   200
370
    20
100
AcDbLine
 10
-5989.999990205507
 20
4174.999769056166
 30
0.0
 11
-5989.999990205507
 21
-4205.000164959882
 31
0.0
  0
LINE
  5
5B
330
1F
100
AcDbEntity
  8
F-1_枠
  6
Continuous
 62
   200
370
    20
100
AcDbLine
 10
-5994.999975771518
 20
4174.999769056166
 30
0.0
 11
-5994.999975771518
 21
-4205.000164959882
 31
0.0
  0
LINE
  5
5C
330
1F
100
AcDbEntity
  8
F-1_枠
  6
Continuous
 62
   200
370
    20
100
AcDbLine
 10
-5999.99998453501
 20
4174.999769056166
 30
0.0
 11
-5999.99998453501
 21
-4205.000164959882
 31
0.0
  0
LINE
  5
5D
330
1F
100
AcDbEntity
  8
F-0_補助線
  6
JWW_HOJO
 62
   120
370
     5
100
AcDbLine
 10
-6300.0
 20
4424.999604096284
 30
0.0
 11
5999.999010240709
 21
4424.999604096284
 31
0.0
  0
LINE
  5
5E
330
1F
100
AcDbEntity
  8
F-0_補助線
  6
JWW_HOJO
 62
     7
370
     9
100
AcDbLine
 10
849.9995876002961
 20
-3795.000003092998
 30
0.0
 11
849.9995876002961
 21
-4195.000008247994
 31
0.0
  0
LINE
  5
5F
330
1F
100
AcDbEntity
  8
F-0_補助線
  6
JWW_HOJO
 62
     7
370
     9
100
AcDbLine
 10
349.9999175200594
 20
-3795.000003092998
 30
0.0
 11
349.9999175200594
 21
-4195.000008247994
 31
0.0
  0
LINE
  5
60
330
1F
100
AcDbEntity
  8
F-1_枠
  6
Continuous
 62
   200
370
    20
100
AcDbLine
 10
5699.998762800888
 20
-4205.000002577498
 30
0.0
 11
-5999.999752560178
 21
-4205.000002577498
 31
0.0
  0
LINE
  5
61
330
1F
100
AcDbEntity
  8
F-1_枠
  6
Continuous
 62
   200
370
    20
100
AcDbLine
 10
5699.998762800888
 20
-4199.999993814004
 30
0.0
 11
-5999.999752560178
 21
-4199.999993814004
 31
0.0
  0
LINE
  5
62
330
1F
100
AcDbEntity
  8
F-1_枠
  6
Continuous
 62
   200
370
    20
100
AcDbLine
 10
5699.998762800888
 20
-4195.000008247994
 30
0.0
 11
-5999.999752560178
 21
-4195.000008247994
 31
0.0
  0
LINE
  5
63
330
1F
100
AcDbEntity
  8
F-1_枠
  6
Continuous
 62
   200
370
    20
100
AcDbLine
 10
4189.999224688556
 20
-3795.000003092998
 30
0.0
 11
4189.999224688556
 21
-4195.000008247994
 31
0.0
  0
LINE
  5
64
330
1F
100
AcDbEntity
  8
F-1_枠
  6
Continuous
 62
   200
370
    20
100
AcDbLine
 10
2689.998729808911
 20
-3795.000003092998
 30
0.0
 11
2689.998729808911
 21
-4195.000008247994
 31
0.0
  0
LINE
  5
65
330
1F
100
AcDbEntity
  8
F-1_枠
  6
Continuous
 62
   200
370
    20
100
AcDbLine
 10
-150.0001237199109
 20
-3795.000003092998
 30
0.0
 11
-150.0001237199109
 21
-4195.000008247994
 31
0.0
  0
LINE
  5
66
330
1F
100
AcDbEntity
  8
F-1_枠
  6
Continuous
 62
   200
370
    20
100
AcDbLine
 10
-150.0001237199109
 20
-3994.999936078046
 30
0.0
 11
5689.998977248734
 21
-3995.005364289155
 31
0.0
  0
LINE
  5
67
330
1F
100
AcDbEntity
  8
F-0_補助線
  6
JWW_HOJO
 62
     7
370
     9
100
AcDbLine
 10
-5989.999990205507
 20
-3994.99993607839
 30
0.0
 11
-150.0001237199109
 21
-3994.99993607839
 31
0.0
  0
LINE
  5
68
330
1F
100
AcDbEntity
  8
F-0_補助線
  6
JWW_HOJO
 62
     7
370
     9
100
AcDbLine
 10
-5989.999990205507
 20
-3904.99993607839
 30
0.0
 11
-150.0001237199109
 21
-3904.99993607839
 31
0.0
  0
LINE
  5
69
330
1F
100
AcDbEntity
  8
F-0_補助線
  6
JWW_HOJO
 62
     7
370
     9
100
AcDbLine
 10
-5989.999990205507
 20
-4084.99993607839
 30
0.0
 11
-150.0001237199109
 21
-4084.99993607839
 31
0.0
  0
LINE
  5
6A
330
1F
100
AcDbEntity
  8
F-0_補助線
  6
JWW_HOJO
 62
     7
370
     9
100
AcDbLine
 10
-150.0002584955388
 20
-4139.999739777983
 30
0.0
 11
5689.998842473105
 21
-4140.005167989091
 31
0.0
  0
LINE
  5
6B
330
1F
100
AcDbEntity
  8
F-0_補助線
  6
JWW_HOJO
 62
     7
370
     9
100
AcDbLine
 10
-150.0001748415872
 20
-4049.999739778022
 30
0.0
 11
5689.998926127057
 21
-4050.005167989131
 31
0.0
  0
LINE
  5
6C
330
1F
100
AcDbEntity
  8
F-0_補助線
  6
JWW_HOJO
 62
     7
370
     9
100
AcDbLine
 10
-150.0000725978671
 20
-3939.99973721807
 30
0.0
 11
5689.999028370777
 21
-3940.005165429179
 31
0.0
  0
LINE
  5
6D
330
1F
100
AcDbEntity
  8
F-0_補助線
  6
JWW_HOJO
 62
     7
370
     9
100
AcDbLine
 10
-149.9999889439155
 20
-3849.999737218109
 30
0.0
 11
5689.999112024728
 21
-3850.005165429218
 31
0.0
  0
LINE
  5
6E
330
1F
100
AcDbEntity
  8
F-0_補助線
  6
JWW_HOJO
 62
     7
370
     9
100
AcDbLine
 10
2779.998729808911
 20
-3795.000003092998
 30
0.0
 11
2779.998729808911
 21
-4195.000008247994
 31
0.0
  0
LINE
  5
6F
330
1F
100
AcDbEntity
  8
F-0_補助線
  6
JWW_HOJO
 62
     7
370
     9
100
AcDbLine
 10
-60.0001237199109
 20
-3795.000003092998
 30
0.0
 11
-60.0001237199109
 21
-4195.000008247994
 31
0.0
  0
LINE
  5
70
330
1F
100
AcDbEntity
  8
F-0_補助線
  6
JWW_HOJO
 62
     7
370
     9
100
AcDbLine
 10
4279.999224688556
 20
-3795.000003092998
 30
0.0
 11
4279.999224688556
 21
-4195.000008247994
 31
0.0
  0
LINE
  5
71
330
1F
100
AcDbEntity
  8
F-0_補助線
  6
JWW_HOJO
 62
     7
370
     9
100
AcDbLine
 10
-5247.547376752838
 20
-3795.000003092999
 30
0.0
 11
-5247.547376752838
 21
-4205.000164959882
 31
0.0
  0
LINE
  5
72
330
1F
100
AcDbEntity
  8
F-0_補助線
  6
JWW_HOJO
 62
     7
370
     9
100
AcDbLine
 10
-210.0001237199109
 20
-3795.000003092998
 30
0.0
 11
-210.0001237199109
 21
-4195.000008247994
 31
0.0
  0
LINE
  5
73
330
1F
100
AcDbEntity
  8
0-0_補助線
  6
JWW_HOJO
 62
     7
370
     9
100
AcDbLine
 10
-5490.000018557986
 20
3465.000148463894
 30
0.0
 11
5689.998977248734
 21
3465.000148463894
 31
0.0
  0
LINE
  5
74
330
1F
100
AcDbEntity
  8
0-0_補助線
  6
JWW_HOJO
 62
     7
370
     9
100
AcDbLine
 10
-5490.000018557986
 20
1418.000148463893
 30
0.0
 11
5689.998977248734
 21
1418.000148463893
 31
0.0
  0
LINE
  5
75
330
1F
100
AcDbEntity
  8
0-0_補助線
  6
JWW_HOJO
 62
   120
370
     5
100
AcDbLine
 10
-5490.000018557986
 20
1368.000148463894
 30
0.0
 11
5689.998977248734
 21
1368.000148463894
 31
0.0
  0
LINE
  5
76
330
1F
100
AcDbEntity
  8
0-0_補助線
  6
JWW_HOJO
 62
     7
370
     9
100
AcDbLine
 10
-5490.000018557986
 20
-2701.250083820241
 30
0.0
 11
5699.998762800888
 21
-2701.250083820241
 31
0.0
  0
LINE
  5
77
330
1F
100
AcDbEntity
  8
0-0_補助線
  6
JWW_HOJO
 62
   120
370
     5
100
AcDbLine
 10
-5490.000018557986
 20
-2751.250083820241
 30
0.0
 11
5699.998762800888
 21
-2751.250083820241
 31
0.0
  0
LINE
  5
78
330
1F
100
AcDbEntity
  8
0-0_補助線
  6
JWW_HOJO
 62
     7
370
     9
100
AcDbLine
 10
-5490.000018557986
 20
1168.000148463894
 30
0.0
 11
5689.998977248734
 21
1168.000148463894
 31
0.0
  0
LINE
  5
79
330
1F
100
AcDbEntity
  8
0-0_補助線
  6
JWW_HOJO
 62
     7
370
     9
100
AcDbLine
 10
-5490.000018557986
 20
-2951.250083820241
 30
0.0
 11
5699.998762800888
 21
-2951.250083820241
 31
0.0
  0
LINE
  5
7A
330
1F
100
AcDbEntity
  8
0-0_補助線
  6
JWW_HOJO
 62
     7
370
     9
100
AcDbLine
 10
-5490.000018557986
 20
-454.2500838202386
 30
0.0
 11
5699.998762800888
 21
-454.2500838202386
 31
0.0
  0
LINE
  5
7B
330
1F
100
AcDbEntity
  8
F-1_枠
  6
Continuous
 62
   200
370
    20
100
AcDbLine
 10
5699.998762800888
 20
-3795.000003092998
 30
0.0
 11
-5999.99998453501
 21
-3795.000003092998
 31
0.0
  0
LINE
  5
7C
330
1F
100
AcDbEntity
  8
F-1_枠
  6
Continuous
 62
   200
370
    20
100
AcDbLine
 10
-5999.99998453501
 20
3964.999818544131
 30
0.0
 11
5699.998762800888
 21
3964.999818544131
 31
0.0
  0
LINE
  5
7D
330
1F
100
AcDbEntity
  8
F-1_枠
  6
Continuous
 62
   200
370
    20
100
AcDbLine
 10
5699.998762800888
 20
-3790.000017526987
 30
0.0
 11
-5999.99998453501
 21
-3790.000017526987
 31
0.0
  0
LINE
  5
7E
330
1F
100
AcDbEntity
  8
F-1_枠
  6
Continuous
 62
   200
370
    20
100
AcDbLine
 10
-5999.99998453501
 20
-15.50015011349217
 30
0.0
 11
5699.998762800888
 21
-15.50015011349217
 31
0.0
  0
LINE
  5
7F
330
1F
100
AcDbEntity
  8
F-1_枠
  6
Continuous
 62
   200
370
    20
100
AcDbLine
 10
1204.8000851193
 20
4174.999769056166
 30
0.0
 11
1204.8000851193
 21
-3790.000179909372
 31
0.0
  0
LINE
  5
80
330
1F
100
AcDbEntity
  8
F-1_枠
  6
Continuous
 62
   200
370
    20
100
AcDbLine
 10
-1026.799671069995
 20
4174.999769056166
 30
0.0
 11
-1026.799671069995
 21
-3790.000179909372
 31
0.0
  0
LINE
  5
81
330
1F
100
AcDbEntity
  8
F-1_枠
  6
Continuous
 62
   200
370
    20
100
AcDbLine
 10
3436.400212468328
 20
4174.999769056166
 30
0.0
 11
3436.400212468328
 21
-3790.000179909372
 31
0.0
  0
LINE
  5
82
330
1F
100
AcDbEntity
  8
F-1_枠
  6
Continuous
 62
   200
370
    20
100
AcDbLine
 10
-3258.399798419025
 20
4174.999769056166
 30
0.0
 11
-3258.399798419025
 21
-3790.000179909372
 31
0.0
  0
LINE
  5
83
330
1F
100
AcDbEntity
  8
F-A_文字
  6
Continuous
 62
     7
370
     9
100
AcDbLine
 10
-1026.799671069995
 20
184.5000148463899
 30
0.0
 11
-3258.399798419025
 21
-3790.000017526987
 31
0.0
  0
LINE
  5
84
330
1F
100
AcDbEntity
  8
F-A_文字
  6
Continuous
 62
     7
370
     9
100
AcDbLine
 10
1204.800085119301
 20
184.5000148463899
 30
0.0
 11
-1026.79974162023
 21
-3790.000179909372
 31
0.0
  0
LINE
  5
85
330
1F
100
AcDbEntity
  8
F-A_文字
  6
Continuous
 62
     7
370
     9
100
AcDbLine
 10
1204.8000851193
 20
-3790.000017526987
 30
0.0
 11
3436.400212468328
 21
184.5000148463899
 31
0.0
  0
LINE
  5
86
330
1F
100
AcDbEntity
  8
F-A_文字
  6
Continuous
 62
     7
370
     9
100
AcDbLine
 10
3436.400212468328
 20
-3790.000017526987
 30
0.0
 11
5689.998977248734
 21
184.5000148463899
 31
0.0
  0
LINE
  5
87
330
1F
100
AcDbEntity
  8
F-A_文字
  6
Continuous
 62
     7
370
     9
100
AcDbLine
 10
-1026.799671069995
 20
4164.999983504013
 30
0.0
 11
-3258.399798419025
 21
190.499951130636
 31
0.0
  0
LINE
  5
88
330
1F
100
AcDbEntity
  8
F-A_文字
  6
Continuous
 62
     7
370
     9
100
AcDbLine
 10
1204.800085119301
 20
4164.999983504013
 30
0.0
 11
-1026.79974162023
 21
190.499788748252
 31
0.0
  0
LINE
  5
89
330
1F
100
AcDbEntity
  8
F-A_文字
  6
Continuous
 62
     7
370
     9
100
AcDbLine
 10
1204.8000851193
 20
190.499951130636
 30
0.0
 11
3436.400212468328
 21
4164.999983504013
 31
0.0
  0
LINE
  5
8A
330
1F
100
AcDbEntity
  8
F-A_文字
  6
Continuous
 62
     7
370
     9
100
AcDbLine
 10
3436.400212468328
 20
190.499951130636
 30
0.0
 11
5689.998977248734
 21
4164.999983504013
 31
0.0
  0
LINE
  5
8B
330
1F
100
AcDbEntity
  8
0-4_枠
  6
Continuous
 62
    92
370
    13
100
AcDbLine
 10
-4790.000018557988
 20
3465.000148463894
 30
0.0
 11
-4790.000018557988
 21
1418.000148463893
 31
0.0
  0
LINE
  5
8C
330
1F
100
AcDbEntity
  8
0-4_枠
  6
Continuous
 62
    92
370
    13
100
AcDbLine
 10
-3601.000018557988
 20
3465.000148463894
 30
0.0
 11
-3601.000018557988
 21
1418.000148463893
 31
0.0
  0
LINE
  5
8D
330
1F
100
AcDbEntity
  8
0-4_枠
  6
Continuous
 62
    92
370
    13
100
AcDbLine
 10
-4790.000018557988
 20
1418.000148463893
 30
0.0
 11
-3601.000018557988
 21
1418.000148463893
 31
0.0
  0
LINE
  5
8E
330
1F
100
AcDbEntity
  8
0-B_寸法
  6
Continuous
 62
   120
370
     5
100
AcDbLine
 10
-5090.000018557988
 20
3438.000148463894
 30
0.0
 11
-5090.000018557988
 21
1443.000148463894
 31
0.0
  0
LINE
  5
8F
330
1F
100
AcDbEntity
  8
0-B_寸法
  6
Continuous
 62
   120
370
     5
100
AcDbLine
 10
-5090.000018557988
 20
3438.000148463894
 30
0.0
 11
-4840.000018557987
 21
3438.000148463894
 31
0.0
  0
LINE
  5
90
330
1F
100
AcDbEntity
  8
0-B_寸法
  6
Continuous
 62
   120
370
     5
100
AcDbLine
 10
-5090.000018557988
 20
1443.000148463894
 30
0.0
 11
-4840.000018557987
 21
1443.000148463894
 31
0.0
  0
LWPOLYLINE
  5
91
330
1F
100
AcDbEntity
  8
0-B_寸法
  6
Continuous
 62
     7
370
     9
100
AcDbPolyline
 90
        4
 70
     1
 43
3.0
 10
-5088.500018557987
 20
3438.000148463894
 42
0.4142135623731
 10
-5090.000018557988
 20
3439.500148463894
 42
0.4142135623731
 10
-5091.500018557988
 20
3438.000148463894
 42
0.4142135623731
 10
-5090.000018557988
 20
3436.500148463895
 42
0.4142135623731
  0
LWPOLYLINE
  5
92
330
1F
100
AcDbEntity
  8
0-B_寸法
  6
Continuous
 62
     7
370
     9
100
AcDbPolyline
 90
        4
 70
     1
 43
3.0
 10
-5088.500018557987
 20
1443.000148463894
 42
0.4142135623731
 10
-5090.000018557988
 20
1444.500148463894
 42
0.4142135623731
 10
-5091.500018557988
 20
1443.000148463894
 42
0.4142135623731
 10
-5090.000018557988
 20
1441.500148463894
 42
0.4142135623731
  0
LINE
  5
93
330
1F
100
AcDbEntity
  8
0-4_枠
  6
Continuous
 62
    92
370
    13
100
AcDbLine
 10
-4766.000018557987
 20
1418.000148463893
 30
0.0
 11
-4766.000018557987
 21
3465.000148463894
 31
0.0
  0
LINE
  5
94
330
1F
100
AcDbEntity
  8
0-4_枠
  6
Continuous
 62
    92
370
    13
100
AcDbLine
 10
-3625.000018557987
 20
1418.000148463893
 30
0.0
 11
-3625.000018557987
 21
3465.000148463894
 31
0.0
  0
LINE
  5
95
330
1F
100
AcDbEntity
  8
0-4_枠
  6
Continuous
 62
    92
370
    13
100
AcDbLine
 10
-4766.000018557987
 20
3441.000148463893
 30
0.0
 11
-3625.000018557987
 21
3441.000148463893
 31
0.0
  0
LINE
  5
96
330
1F
100
AcDbEntity
  8
0-4_枠
  6
Continuous
 62
    92
370
    13
100
AcDbLine
 10
-4790.000018557988
 20
3465.000148463894
 30
0.0
 11
-3601.000018557988
 21
3465.000148463894
 31
0.0
  0
LINE
  5
97
330
1F
100
AcDbEntity
  8
0-0_補助線
  6
JWW_HOJO
 62
     7
370
     9
100
AcDbLine
 10
-4790.000018557988
 20
3964.999818544131
 30
0.0
 11
-4790.000018557988
 21
-3790.000179909372
 31
0.0
  0
LINE
  5
98
330
1F
100
AcDbEntity
  8
0-0_補助線
  6
JWW_HOJO
 62
   120
370
     5
100
AcDbLine
 10
-4840.000018557988
 20
3964.999818544131
 30
0.0
 11
-4840.000018557988
 21
-3790.000179909372
 31
0.0
  0
LINE
  5
99
330
1F
100
AcDbEntity
  8
0-B_寸法
  6
Continuous
 62
   120
370
     5
100
AcDbLine
 10
-4764.000018557988
 20
1168.000148463894
 30
0.0
 11
-4764.000018557988
 21
1368.000148463894
 31
0.0
  0
LINE
  5
9A
330
1F
100
AcDbEntity
  8
0-B_寸法
  6
Continuous
 62
   120
370
     5
100
AcDbLine
 10
-3627.000018557988
 20
1168.000148463894
 30
0.0
 11
-3627.000018557988
 21
1368.000148463894
 31
0.0
  0
LWPOLYLINE
  5
9B
330
1F
100
AcDbEntity
  8
0-B_寸法
  6
Continuous
 62
     7
370
     9
100
AcDbPolyline
 90
        4
 70
     1
 43
3.0
 10
-4762.500018557987
 20
1168.000148463894
 42
0.4142135623731
 10
-4764.000018557988
 20
1169.500148463894
 42
0.4142135623731
 10
-4765.500018557988
 20
1168.000148463894
 42
0.4142135623731
 10
-4764.000018557988
 20
1166.500148463894
 42
0.4142135623731
  0
LWPOLYLINE
  5
9C
330
1F
100
AcDbEntity
  8
0-B_寸法
  6
Continuous
 62
     7
370
     9
100
AcDbPolyline
 90
        4
 70
     1
 43
3.0
 10
-3625.500018557989
 20
1168.000148463894
 42
0.4142135623731
 10
-3627.000018557988
 20
1169.500148463894
 42
0.4142135623731
 10
-3628.500018557988
 20
1168.000148463894
 42
0.4142135623731
 10
-3627.000018557988
 20
1166.500148463894
 42
0.4142135623731
  0
LINE
  5
9D
330
1F
100
AcDbEntity
  8
0-B_寸法
  6
Continuous
 62
   120
370
     5
100
AcDbLine
 10
-4354.000018557984
 20
1168.000148463894
 30
0.0
 11
-4354.000018557984
 21
1368.000148463894
 31
0.0
  0
LINE
  5
9E
330
1F
100
AcDbEntity
  8
0-B_寸法
  6
Continuous
 62
   120
370
     5
100
AcDbLine
 10
-4764.000018557988
 20
1168.000148463894
 30
0.0
 11
-4354.000018557984
 21
1168.000148463894
 31
0.0
  0
LINE
  5
9F
330
1F
100
AcDbEntity
  8
0-B_寸法
  6
Continuous
 62
   120
370
     5
100
AcDbLine
 10
-4354.000018557984
 20
1168.000148463894
 30
0.0
 11
-4350.000018557987
 21
1168.000148463894
 31
0.0
  0
LINE
  5
A0
330
1F
100
AcDbEntity
  8
0-B_寸法
  6
Continuous
 62
   120
370
     5
100
AcDbLine
 10
-4350.000018557987
 20
1168.000148463894
 30
0.0
 11
-4350.000018557987
 21
1368.000148463894
 31
0.0
  0
LINE
  5
A1
330
1F
100
AcDbEntity
  8
0-B_寸法
  6
Continuous
 62
   120
370
     5
100
AcDbLine
 10
-4350.000018557987
 20
1168.000148463894
 30
0.0
 11
-3627.000018557988
 21
1168.000148463894
 31
0.0
  0
LWPOLYLINE
  5
A2
330
1F
100
AcDbEntity
  8
0-B_寸法
  6
Continuous
 62
     7
370
     9
100
AcDbPolyline
 90
        4
 70
     1
 43
3.0
 10
-4352.500018557984
 20
1168.000148463894
 42
0.4142135623731
 10
-4354.000018557984
 20
1169.500148463894
 42
0.4142135623731
 10
-4355.500018557985
 20
1168.000148463894
 42
0.4142135623731
 10
-4354.000018557984
 20
1166.500148463894
 42
0.4142135623731
  0
LWPOLYLINE
  5
A3
330
1F
100
AcDbEntity
  8
0-B_寸法
  6
Continuous
 62
     7
370
     9
100
AcDbPolyline
 90
        4
 70
     1
 43
3.0
 10
-4348.500018557987
 20
1168.000148463894
 42
0.4142135623731
 10
-4350.000018557987
 20
1169.500148463894
 42
0.4142135623731
 10
-4351.500018557988
 20
1168.000148463894
 42
0.4142135623731
 10
-4350.000018557987
 20
1166.500148463894
 42
0.4142135623731
  0
MTEXT
  5
A4
330
1F
100
AcDbEntity
  8
0-B_寸法
  6
Continuous
 62
     7
370
    70
100
AcDbMText
 10
-5105.000018557988
 20
2225.325148463894
 30
0.0
 40
57.14999999999999
 41
412.5
 46
0.0
 71
     7
 72
     1
  1
{\fＭＳ ゴシック|b0|i0|c128|p49;ＤＨ＝1,995}
 11
6.123031769111886E-17
 21
1.0
 31
0.0
 73
     1
 44
1.0
  0
MTEXT
  5
A5
330
1F
100
AcDbEntity
  8
0-B_寸法
  6
Continuous
 62
     7
370
    70
100
AcDbMText
 10
-4727.750018557987
 20
1174.075148463894
 30
0.0
 40
57.15
 41
337.5
 46
0.0
 71
     7
 72
     1
  1
{\fＭＳ ゴシック|b0|i0|c128|p49;ＤＷ＝410}
 73
     1
 44
1.0
  0
MTEXT
  5
A6
330
1F
100
AcDbEntity
  8
0-B_寸法
  6
Continuous
 62
     7
370
    70
100
AcDbMText
 10
-4157.250018557987
 20
1174.075148463894
 30
0.0
 40
57.15
 41
337.5
 46
0.0
 71
     7
 72
     1
  1
{\fＭＳ ゴシック|b0|i0|c128|p49;ＤＷ＝723}
 73
     1
 44
1.0
  0
MTEXT
  5
A7
330
1F
100
AcDbEntity
  8
F-A_文字
  6
Continuous
 62
     7
370
     9
100
AcDbMText
 10
-5890.000004381747
 20
4018.575148463894
 30
0.0
 40
57.15
 41
300.0
 46
0.0
 71
     7
 72
     1
  1
{\fＭＳ ゴシック|b0|i0|c128|p49;デザイン}
 73
     1
 44
1.0
  0
MTEXT
  5
A8
330
1F
100
AcDbEntity
  8
F-A_文字
  6
Continuous
 62
     7
370
     9
100
AcDbMText
 10
-5852.500004381747
 20
2031.325062684755
 30
0.0
 40
57.15
 41
225.0
 46
0.0
 71
     7
 72
     1
  1
{\fＭＳ ゴシック|b0|i0|c128|p49;姿　図}
 73
     1
 44
1.0
  0
MTEXT
  5
A9
330
1F
100
AcDbEntity
  8
F-A_文字
  6
Continuous
 62
     7
370
     9
100
AcDbMText
 10
-5890.000004381747
 20
38.07493236644844
 30
0.0
 40
57.15
 41
300.0
 46
0.0
 71
     7
 72
     1
  1
{\fＭＳ ゴシック|b0|i0|c128|p49;デザイン}
 73
     1
 44
1.0
  0
MTEXT
  5
AA
330
1F
100
AcDbEntity
  8
F-A_文字
  6
Continuous
 62
     7
370
     9
100
AcDbMText
 10
-5852.500004381747
 20
-1949.175091552734
 30
0.0
 40
57.15
 41
225.0
 46
0.0
 71
     7
 72
     1
  1
{\fＭＳ ゴシック|b0|i0|c128|p49;姿　図}
 73
     1
 44
1.0
  0
MTEXT
  5
AB
330
1F
100
AcDbEntity
  8
F-A_文字
  6
Continuous
 62
     7
370
     0
100
AcDbMText
 10
-60.0001237199109
 20
-3887.139820871936
 30
0.0
 40
45.72
 41
180.0
 46
0.0
 71
     7
 72
     1
  1
{\fＭＳ ゴシック|b0|i0|c128|p49;図面名}
 73
     1
 44
1.0
  0
MTEXT
  5
AC
330
1F
100
AcDbEntity
  8
F-A_文字
  6
Continuous
 62
     7
370
     0
100
AcDbMText
 10
2779.998729808911
 20
-3887.142460617774
 30
0.0
 40
45.72
 41
300.0
 46
0.0
 71
     7
 72
     1
  1
{\fＭＳ ゴシック|b0|i0|c128|p49;ＳＣＡＬＥ}
 73
     1
 44
1.0
  0
MTEXT
  5
AD
330
1F
100
AcDbEntity
  8
F-A_文字
  6
Continuous
 62
     7
370
     0
100
AcDbMText
 10
4279.999224688556
 20
-3887.143854850754
 30
0.0
 40
45.72
 41
240.0
 46
0.0
 71
     7
 72
     1
  1
{\fＭＳ ゴシック|b0|i0|c128|p49;ＤＡＴＥ}
 73
     1
 44
1.0
  0
MTEXT
  5
AE
330
1F
100
AcDbEntity
  8
F-A_文字
  6
Continuous
 62
     7
370
     0
100
AcDbMText
 10
1180.417701903719
 20
-3946.423911599839
 30
0.0
 40
77.15249999999999
 41
405.0
 46
0.0
 71
     7
 72
     1
  1
{\fＭＳ ゴシック|b0|i0|c128|p49;建具姿図}
 73
     1
 44
1.0
  0
MTEXT
  5
AF
330
1F
100
AcDbEntity
  8
F-A_文字
  6
Continuous
 62
     7
370
     0
100
AcDbMText
 10
349.9999175200594
 20
-3946.496666872502
 30
0.0
 40
78.58125
 41
412.5
 46
0.0
 71
     7
 72
     1
  1
{\fＭＳ ゴシック|b0|i0|c128|p49;DOORETUS}
 73
     1
 44
1.0
  0
MTEXT
  5
B0
330
1F
100
AcDbEntity
  8
F-A_文字
  6
Continuous
 62
     7
370
     0
100
AcDbMText
 10
2779.998729808911
 20
-4087.14246317786
 30
0.0
 40
45.72
 41
240.0
 46
0.0
 71
     7
 72
     1
  1
{\fＭＳ ゴシック|b0|i0|c128|p49;ＦＩＬＥ}
 73
     1
 44
1.0
  0
MTEXT
  5
B1
330
1F
100
AcDbEntity
  8
F-A_文字
  6
Continuous
 62
     7
370
     0
100
AcDbMText
 10
4279.999224688556
 20
-4087.143857410839
 30
0.0
 40
45.72
 41
180.0
 46
0.0
 71
     7
 72
     1
  1
{\fＭＳ ゴシック|b0|i0|c128|p49;ＮＯ．}
 73
     1
 44
1.0
  0
MTEXT
  5
B2
330
1F
100
AcDbEntity
  8
F-A_文字
  6
Continuous
 62
     7
370
     0
100
AcDbMText
 10
1234.998729808911
 20
-4096.140669266149
 30
0.0
 40
45.72
 41
120.0
 46
0.0
 71
     7
 72
     1
  1
{\fＭＳ ゴシック|b0|i0|c128|p49;株式}
 73
     1
 44
1.0
  0
MTEXT
  5
B3
330
1F
100
AcDbEntity
  8
F-A_文字
  6
Continuous
 62
     7
370
     9
100
AcDbMText
 10
4936.249033580831
 20
-4147.857012699985
 30
0.0
 40
74.295
 41
97.5
 46
0.0
 71
     7
 72
     1
  1
{\fＭＳ ゴシック|b0|i0|c128|p49;01}
 73
     1
 44
1.0
  0
MTEXT
  5
B4
330
1F
100
AcDbEntity
  8
F-A_文字
  6
Continuous
 62
     7
370
     0
100
AcDbMText
 10
1444.998729808911
 20
-4164.281754523929
 30
0.0
 40
101.44125
 41
1065.0
 46
0.0
 71
     7
 72
     1
  1
{\fＭＳ ゴシック|b0|i0|c128|p49;ウッドワン・・・}
 73
     1
 44
1.0
  0
MTEXT
  5
B5
330
1F
100
AcDbEntity
  8
F-A_文字
  6
Continuous
 62
     7
370
     0
100
AcDbMText
 10
1234.998729808911
 20
-4168.140669266187
 30
0.0
 40
45.72
 41
120.0
 46
0.0
 71
     7
 72
     1
  1
{\fＭＳ ゴシック|b0|i0|c128|p49;会社}
 73
     1
 44
1.0
  0
MTEXT
  5
B6
330
1F
100
AcDbEntity
  8
F-A_文字
  6
Continuous
 62
     7
370
     0
100
AcDbMText
 10
5608.403311109712
 20
-4314.841419020919
 30
0.0
 40
68.58
 41
90.0
 46
0.0
 71
     7
 72
     1
  1
{\fＭＳ ゴシック|b0|i0|c128|p49;）}
 73
     1
 44
1.0
  0
MTEXT
  5
B7
330
1F
100
AcDbEntity
  8
F-A_文字
  6
Continuous
 62
     7
370
     0
100
AcDbMText
 10
5190.195950842071
 20
-4316.235443869856
 30
0.0
 40
68.58
 41
45.0
 46
0.0
 71
     7
 72
     1
  1
{\fＭＳ ゴシック|b0|i0|c128|p49;,}
 73
     1
 44
1.0
  0
MTEXT
  5
B8
330
1F
100
AcDbEntity
  8
F-A_文字
  6
Continuous
 62
     7
370
     0
100
AcDbMText
 10
4923.937261915373
 20
-4314.771967288282
 30
0.0
 40
74.295
 41
97.5
 46
0.0
 71
     7
 72
     1
  1
{\fＭＳ ゴシック|b0|i0|c128|p49;$y}
 73
     1
 44
1.0
  0
MTEXT
  5
B9
330
1F
100
AcDbEntity
  8
F-A_文字
  6
Continuous
 62
     7
370
     0
100
AcDbMText
 10
5078.673982954195
 20
-4314.771967288282
 30
0.0
 40
74.295
 41
97.5
 46
0.0
 71
     7
 72
     1
  1
{\fＭＳ ゴシック|b0|i0|c128|p49;$m}
 73
     1
 44
1.0
  0
MTEXT
  5
BA
330
1F
100
AcDbEntity
  8
F-A_文字
  6
Continuous
 62
     7
370
     0
100
AcDbMText
 10
5233.410715437103
 20
-4314.771967288282
 30
0.0
 40
74.295
 41
97.5
 46
0.0
 71
     7
 72
     1
  1
{\fＭＳ ゴシック|b0|i0|c128|p49;$d}
 73
     1
 44
1.0
  0
MTEXT
  5
BB
330
1F
100
AcDbEntity
  8
F-A_文字
  6
Continuous
 62
     7
370
     0
100
AcDbMText
 10
5388.147447920011
 20
-4314.771967288282
 30
0.0
 40
74.295
 41
195.0
 46
0.0
 71
     7
 72
     1
  1
{\fＭＳ ゴシック|b0|i0|c128|p49;印刷}
 73
     1
 44
1.0
  0
MTEXT
  5
BC
330
1F
100
AcDbEntity
  8
F-A_文字
  6
Continuous
 62
     7
370
     0
100
AcDbMText
 10
4784.033374252999
 20
-4319.023493567732
 30
0.0
 40
68.58
 41
90.0
 46
0.0
 71
     7
 72
     1
  1
{\fＭＳ ゴシック|b0|i0|c128|p49;（}
 73
     1
 44
1.0
  0
MTEXT
  5
BD
330
1F
100
AcDbEntity
  8
F-A_文字
  6
Continuous
 62
     7
370
     0
100
AcDbMText
 10
5031.277143812345
 20
-4319.023493567732
 30
0.0
 40
68.58
 41
45.0
 46
0.0
 71
     7
 72
     1
  1
{\fＭＳ ゴシック|b0|i0|c128|p49;,}
 73
     1
 44
1.0
  0
LINE
  5
BE
330
1F
100
AcDbEntity
  8
0-0_補助線
  6
JWW_HOJO
 62
   120
370
     5
100
AcDbLine
 10
-5999.99998453501
 20
790.5001831054692
 30
0.0
 11
5699.998762800888
 21
790.5001831054692
 31
0.0
  0
LINE
  5
BF
330
1F
100
AcDbEntity
  8
0-0_補助線
  6
JWW_HOJO
 62
   120
370
     5
100
AcDbLine
 10
-5999.99998453501
 20
670.5001831054692
 30
0.0
 11
5699.998762800888
 21
670.5001831054692
 31
0.0
  0
LINE
  5
C0
330
1F
100
AcDbEntity
  8
0-0_補助線
  6
JWW_HOJO
 62
   120
370
     5
100
AcDbLine
 10
-5999.99998453501
 20
550.5001831054688
 30
0.0
 11
5699.998762800888
 21
550.5001831054688
 31
0.0
  0
LINE
  5
C1
330
1F
100
AcDbEntity
  8
0-0_補助線
  6
JWW_HOJO
 62
   120
370
     5
100
AcDbLine
 10
-5999.99998453501
 20
430.5001831054688
 30
0.0
 11
5699.998762800888
 21
430.5001831054688
 31
0.0
  0
LINE
  5
C2
330
1F
100
AcDbEntity
  8
0-0_補助線
  6
JWW_HOJO
 62
   120
370
     5
100
AcDbLine
 10
-5999.99998453501
 20
310.5001831054688
 30
0.0
 11
5699.998762800888
 21
310.5001831054688
 31
0.0
  0
LINE
  5
C3
330
1F
100
AcDbEntity
  8
0-0_補助線
  6
JWW_HOJO
 62
   120
370
     5
100
AcDbLine
 10
-906.7996710699953
 20
4174.999769056166
 30
0.0
 11
-906.7996710699953
 21
-3790.000179909371
 31
0.0
  0
LINE
  5
C4
330
1F
100
AcDbEntity
  8
0-0_補助線
  6
JWW_HOJO
 62
   120
370
     5
100
AcDbLine
 10
1324.8000851193
 20
4174.999769056166
 30
0.0
 11
1324.8000851193
 21
-3790.000179909371
 31
0.0
  0
LINE
  5
C5
330
1F
100
AcDbEntity
  8
0-0_補助線
  6
JWW_HOJO
 62
   120
370
     5
100
AcDbLine
 10
3556.400212468328
 20
4174.999769056166
 30
0.0
 11
3556.400212468328
 21
-3790.000179909371
 31
0.0
  0
LINE
  5
C6
330
1F
100
AcDbEntity
  8
0-0_補助線
  6
JWW_HOJO
 62
   120
370
     5
100
AcDbLine
 10
5699.998762800888
 20
-3310.000017526988
 30
0.0
 11
-5999.99998453501
 21
-3310.000017526988
 31
0.0
  0
LINE
  5
C7
330
1F
100
AcDbEntity
  8
0-0_補助線
  6
JWW_HOJO
 62
   120
370
     5
100
AcDbLine
 10
5699.998762800888
 20
-3430.000017526988
 30
0.0
 11
-5999.99998453501
 21
-3430.000017526988
 31
0.0
  0
LINE
  5
C8
330
1F
100
AcDbEntity
  8
0-0_補助線
  6
JWW_HOJO
 62
   120
370
     5
100
AcDbLine
 10
5699.998762800888
 20
-3550.000017526988
 30
0.0
 11
-5999.99998453501
 21
-3550.000017526988
 31
0.0
  0
LINE
  5
C9
330
1F
100
AcDbEntity
  8
0-0_補助線
  6
JWW_HOJO
 62
   120
370
     5
100
AcDbLine
 10
5699.998762800888
 20
-3670.000017526988
 30
0.0
 11
-5999.99998453501
 21
-3670.000017526988
 31
0.0
  0
LINE
  5
CA
330
1F
100
AcDbEntity
  8
0-0_補助線
  6
JWW_HOJO
 62
   120
370
     5
100
AcDbLine
 10
-3138.399798419025
 20
4174.999769056166
 30
0.0
 11
-3138.399798419025
 21
-3790.000179909371
 31
0.0
  0
LINE
  5
CB
330
1F
100
AcDbEntity
  8
0-0_補助線
  6
JWW_HOJO
 62
   120
370
     5
100
AcDbLine
 10
-5370.000018557986
 20
4174.999769056166
 30
0.0
 11
-5370.000018557986
 21
-3790.000179909371
 31
0.0
  0
MTEXT
  5
CC
330
1F
100
AcDbEntity
  8
0-A_文字
  6
Continuous
 62
     7
370
     9
100
AcDbMText
 10
-5370.000018557986
 20
661.5751831054693
 30
0.0
 40
57.15000000000003
 41
1050.0
 46
0.0
 71
     7
 72
     1
  1
{\fＭＳ ゴシック|b0|i0|c128|p49;枠外幅 1,189mm（DW=1,137mm）}
 73
     1
 44
1.0
  0
LINE
  5
CD
330
1F
100
AcDbEntity
  8
0-4_枠
  6
Continuous
 62
    92
370
    13
100
AcDbLine
 10
-4790.000018557988
 20
-2701.250083820241
 30
0.0
 11
-3601.000018557988
 21
-2701.250083820241
 31
0.0
  0
LINE
  5
CE
330
1F
100
AcDbEntity
  8
0-B_寸法
  6
Continuous
 62
   120
370
     5
100
AcDbLine
 10
-5090.000018557988
 20
-2676.250083820241
 30
0.0
 11
-4840.000018557987
 21
-2676.250083820241
 31
0.0
  0
LWPOLYLINE
  5
CF
330
1F
100
AcDbEntity
  8
0-B_寸法
  6
Continuous
 62
     7
370
     9
100
AcDbPolyline
 90
        4
 70
     1
 43
3.0
 10
-5088.500018557987
 20
-2676.250083820241
 42
0.4142135623731
 10
-5090.000018557988
 20
-2674.750083820241
 42
0.4142135623731
 10
-5091.500018557988
 20
-2676.250083820241
 42
0.4142135623731
 10
-5090.000018557988
 20
-2677.750083820241
 42
0.4142135623731
  0
LINE
  5
D0
330
1F
100
AcDbEntity
  8
0-B_寸法
  6
Continuous
 62
   120
370
     5
100
AcDbLine
 10
-4764.000018557988
 20
-2951.250083820241
 30
0.0
 11
-4764.000018557988
 21
-2751.250083820242
 31
0.0
  0
LINE
  5
D1
330
1F
100
AcDbEntity
  8
0-B_寸法
  6
Continuous
 62
   120
370
     5
100
AcDbLine
 10
-3627.000018557988
 20
-2951.250083820241
 30
0.0
 11
-3627.000018557988
 21
-2751.250083820242
 31
0.0
  0
LWPOLYLINE
  5
D2
330
1F
100
AcDbEntity
  8
0-B_寸法
  6
Continuous
 62
     7
370
     9
100
AcDbPolyline
 90
        4
 70
     1
 43
3.0
 10
-4762.500018557987
 20
-2951.250083820241
 42
0.4142135623731
 10
-4764.000018557988
 20
-2949.750083820241
 42
0.4142135623731
 10
-4765.500018557988
 20
-2951.250083820241
 42
0.4142135623731
 10
-4764.000018557988
 20
-2952.750083820241
 42
0.4142135623731
  0
LWPOLYLINE
  5
D3
330
1F
100
AcDbEntity
  8
0-B_寸法
  6
Continuous
 62
     7
370
     9
100
AcDbPolyline
 90
        4
 70
     1
 43
3.0
 10
-3625.500018557989
 20
-2951.250083820241
 42
0.4142135623731
 10
-3627.000018557988
 20
-2949.750083820241
 42
0.4142135623731
 10
-3628.500018557988
 20
-2951.250083820241
 42
0.4142135623731
 10
-3627.000018557988
 20
-2952.750083820241
 42
0.4142135623731
  0
LINE
  5
D4
330
1F
100
AcDbEntity
  8
0-B_寸法
  6
Continuous
 62
   120
370
     5
100
AcDbLine
 10
-4354.000018557984
 20
-2951.250083820241
 30
0.0
 11
-4354.000018557984
 21
-2751.250083820242
 31
0.0
  0
LINE
  5
D5
330
1F
100
AcDbEntity
  8
0-B_寸法
  6
Continuous
 62
   120
370
     5
100
AcDbLine
 10
-4764.000018557988
 20
-2951.250083820241
 30
0.0
 11
-4354.000018557984
 21
-2951.250083820241
 31
0.0
  0
LINE
  5
D6
330
1F
100
AcDbEntity
  8
0-B_寸法
  6
Continuous
 62
   120
370
     5
100
AcDbLine
 10
-4354.000018557984
 20
-2951.250083820241
 30
0.0
 11
-4350.000018557987
 21
-2951.250083820241
 31
0.0
  0
LINE
  5
D7
330
1F
100
AcDbEntity
  8
0-B_寸法
  6
Continuous
 62
   120
370
     5
100
AcDbLine
 10
-4350.000018557987
 20
-2951.250083820241
 30
0.0
 11
-4350.000018557987
 21
-2751.250083820242
 31
0.0
  0
LINE
  5
D8
330
1F
100
AcDbEntity
  8
0-B_寸法
  6
Continuous
 62
   120
370
     5
100
AcDbLine
 10
-4350.000018557987
 20
-2951.250083820241
 30
0.0
 11
-3627.000018557988
 21
-2951.250083820241
 31
0.0
  0
LWPOLYLINE
  5
D9
330
1F
100
AcDbEntity
  8
0-B_寸法
  6
Continuous
 62
     7
370
     9
100
AcDbPolyline
 90
        4
 70
     1
 43
3.0
 10
-4352.500018557984
 20
-2951.250083820241
 42
0.4142135623731
 10
-4354.000018557984
 20
-2949.750083820241
 42
0.4142135623731
 10
-4355.500018557985
 20
-2951.250083820241
 42
0.4142135623731
 10
-4354.000018557984
 20
-2952.750083820241
 42
0.4142135623731
  0
LWPOLYLINE
  5
DA
330
1F
100
AcDbEntity
  8
0-B_寸法
  6
Continuous
 62
     7
370
     9
100
AcDbPolyline
 90
        4
 70
     1
 43
3.0
 10
-4348.500018557987
 20
-2951.250083820241
 42
0.4142135623731
 10
-4350.000018557987
 20
-2949.750083820241
 42
0.4142135623731
 10
-4351.500018557988
 20
-2951.250083820241
 42
0.4142135623731
 10
-4350.000018557987
 20
-2952.750083820241
 42
0.4142135623731
  0
LINE
  5
DB
330
1F
100
AcDbEntity
  8
0-4_枠
  6
Continuous
 62
    92
370
    13
100
AcDbLine
 10
-4790.000018557988
 20
-454.2500838202412
 30
0.0
 11
-4790.000018557988
 21
-2701.250083820241
 31
0.0
  0
LINE
  5
DC
330
1F
100
AcDbEntity
  8
0-4_枠
  6
Continuous
 62
    92
370
    13
100
AcDbLine
 10
-3601.000018557988
 20
-454.2500838202412
 30
0.0
 11
-3601.000018557988
 21
-2701.250083820241
 31
0.0
  0
LINE
  5
DD
330
1F
100
AcDbEntity
  8
0-B_寸法
  6
Continuous
 62
   120
370
     5
100
AcDbLine
 10
-5090.000018557988
 20
-481.2500838202413
 30
0.0
 11
-5090.000018557988
 21
-2676.250083820241
 31
0.0
  0
LINE
  5
DE
330
1F
100
AcDbEntity
  8
0-B_寸法
  6
Continuous
 62
   120
370
     5
100
AcDbLine
 10
-5090.000018557988
 20
-481.2500838202413
 30
0.0
 11
-4840.000018557987
 21
-481.2500838202413
 31
0.0
  0
LWPOLYLINE
  5
DF
330
1F
100
AcDbEntity
  8
0-B_寸法
  6
Continuous
 62
     7
370
     9
100
AcDbPolyline
 90
        4
 70
     1
 43
3.0
 10
-5088.500018557987
 20
-481.2500838202413
 42
0.4142135623731
 10
-5090.000018557988
 20
-479.7500838202413
 42
0.4142135623731
 10
-5091.500018557988
 20
-481.2500838202413
 42
0.4142135623731
 10
-5090.000018557988
 20
-482.7500838202413
 42
0.4142135623731
  0
LINE
  5
E0
330
1F
100
AcDbEntity
  8
0-4_枠
  6
Continuous
 62
    92
370
    13
100
AcDbLine
 10
-4766.000018557987
 20
-2701.250083820241
 30
0.0
 11
-4766.000018557987
 21
-454.2500838202412
 31
0.0
  0
LINE
  5
E1
330
1F
100
AcDbEntity
  8
0-4_枠
  6
Continuous
 62
    92
370
    13
100
AcDbLine
 10
-3625.000018557987
 20
-2701.250083820241
 30
0.0
 11
-3625.000018557987
 21
-454.2500838202412
 31
0.0
  0
LINE
  5
E2
330
1F
100
AcDbEntity
  8
0-4_枠
  6
Continuous
 62
    92
370
    13
100
AcDbLine
 10
-4766.000018557987
 20
-478.2500838202407
 30
0.0
 11
-3625.000018557987
 21
-478.2500838202407
 31
0.0
  0
LINE
  5
E3
330
1F
100
AcDbEntity
  8
0-4_枠
  6
Continuous
 62
    92
370
    13
100
AcDbLine
 10
-4790.000018557988
 20
-454.2500838202412
 30
0.0
 11
-3601.000018557988
 21
-454.2500838202412
 31
0.0
  0
MTEXT
  5
E4
330
1F
100
AcDbEntity
  8
0-B_寸法
  6
Continuous
 62
     7
370
    70
100
AcDbMText
 10
-5105.000018557988
 20
-1793.925083820241
 30
0.0
 40
57.14999999999999
 41
412.5
 46
0.0
 71
     7
 72
     1
  1
{\fＭＳ ゴシック|b0|i0|c128|p49;ＤＨ＝2,195}
 11
6.123031769111886E-17
 21
1.0
 31
0.0
 73
     1
 44
1.0
  0
MTEXT
  5
E5
330
1F
100
AcDbEntity
  8
0-B_寸法
  6
Continuous
 62
     7
370
    70
100
AcDbMText
 10
-4727.750018557987
 20
-2945.175083820242
 30
0.0
 40
57.15
 41
337.5
 46
0.0
 71
     7
 72
     1
  1
{\fＭＳ ゴシック|b0|i0|c128|p49;ＤＷ＝410}
 73
     1
 44
1.0
  0
MTEXT
  5
E6
330
1F
100
AcDbEntity
  8
0-B_寸法
  6
Continuous
 62
     7
370
    70
100
AcDbMText
 10
-4157.250018557987
 20
-2945.175083820242
 30
0.0
 40
57.15
 41
337.5
 46
0.0
 71
     7
 72
     1
  1
{\fＭＳ ゴシック|b0|i0|c128|p49;ＤＷ＝723}
 73
     1
 44
1.0
  0
MTEXT
  5
E7
330
1F
100
AcDbEntity
  8
0-A_文字
  6
Continuous
 62
     7
370
     9
100
AcDbMText
 10
-5370.000018557986
 20
-3438.925017526988
 30
0.0
 40
57.15000000000003
 41
1050.0
 46
0.0
 71
     7
 72
     1
  1
{\fＭＳ ゴシック|b0|i0|c128|p49;枠外幅 1,189mm（DW=1,137mm）}
 73
     1
 44
1.0
  0
LINE
  5
E8
330
1F
100
AcDbEntity
  8
0-A_文字
  6
Continuous
 62
     7
370
     9
100
AcDbLine
 10
-5450.000018557986
 20
-55.50015011349217
 30
0.0
 11
-4915.67460317461
 21
-55.50015011349217
 31
0.0
  0
LINE
  5
E9
330
1F
100
AcDbEntity
  8
0-A_文字
  6
Continuous
 62
     7
370
     9
100
AcDbLine
 10
-4915.67460317461
 20
-55.50015011349217
 30
0.0
 11
-4915.67460317461
 21
-205.5001501134922
 31
0.0
  0
LINE
  5
EA
330
1F
100
AcDbEntity
  8
0-A_文字
  6
Continuous
 62
     7
370
     9
100
AcDbLine
 10
-5450.000018557986
 20
-205.5001501134922
 30
0.0
 11
-4915.67460317461
 21
-205.5001501134922
 31
0.0
  0
LINE
  5
EB
330
1F
100
AcDbEntity
  8
0-A_文字
  6
Continuous
 62
     7
370
     9
100
AcDbLine
 10
-5450.000018557986
 20
-55.50015011349217
 30
0.0
 11
-5450.000018557986
 21
-205.5001501134922
 31
0.0
  0
LINE
  5
EC
330
1F
100
AcDbEntity
  8
0-A_文字
  6
Continuous
 62
     7
370
     9
100
AcDbLine
 10
-5440.000018557986
 20
-65.50015011349215
 30
0.0
 11
-5440.000018557986
 21
-195.5001501134922
 31
0.0
  0
LINE
  5
ED
330
1F
100
AcDbEntity
  8
0-A_文字
  6
Continuous
 62
     7
370
     9
100
AcDbLine
 10
-5440.000018557986
 20
-195.5001501134922
 30
0.0
 11
-4925.67460317461
 21
-195.5001501134922
 31
0.0
  0
LINE
  5
EE
330
1F
100
AcDbEntity
  8
0-A_文字
  6
Continuous
 62
     7
370
     9
100
AcDbLine
 10
-4925.67460317461
 20
-65.50015011349215
 30
0.0
 11
-4925.67460317461
 21
-195.5001501134922
 31
0.0
  0
LINE
  5
EF
330
1F
100
AcDbEntity
  8
0-A_文字
  6
Continuous
 62
     7
370
     9
100
AcDbLine
 10
-5440.000018557986
 20
-65.50015011349215
 30
0.0
 11
-4925.67460317461
 21
-65.50015011349215
 31
0.0
  0
MTEXT
  5
F0
330
1F
100
AcDbEntity
  8
0-A_文字
  6
Continuous
 62
     7
370
     9
100
AcDbMText
 10
-5385.337310866298
 20
-181.9239001134922
 30
0.0
 40
77.15249999999999
 41
405.0
 46
0.0
 71
     7
 72
     1
  1
{\fＭＳ ゴシック|b0|i0|c128|p49;ハイドア}
 73
     1
 44
1.0
  0
MTEXT
  5
F1
330
1F
100
AcDbEntity
  8
F-A_文字
  6
Continuous
 62
     7
370
     0
100
AcDbMText
 10
3383.748977248734
 20
-3946.426865907308
 30
0.0
 40
77.15249999999999
 41
202.5
 46
0.0
 71
     7
 72
     1
  1
{\fＭＳ ゴシック|b0|i0|c128|p49;1/30}
 73
     1
 44
1.0
  0
MTEXT
  5
F2
330
1F
100
AcDbEntity
  8
F-A_文字
  6
Continuous
 62
     7
370
     0
100
AcDbMText
 10
4778.749126529666
 20
-3938.071010139966
 30
0.0
 40
78.86699999999999
 41
517.5
 46
0.0
 71
     7
 72
     1
  1
{\fＭＳ ゴシック|b0|i0|c128|p49;2021.04.01}
 73
     1
 44
1.0
  0
MTEXT
  5
F3
330
1F
100
AcDbEntity
  8
0-A_文字
  6
Continuous
 62
     7
370
     9
100
AcDbMText
 10
-4576.699908488504
 20
4013.576151024072
 30
0.0
 40
77.15249999999999
 41
405.0
 46
0.0
 71
     7
 72
     1
  1
{\fＭＳ ゴシック|b0|i0|c128|p49;Ｂ－ＤＫ}
 73
     1
 44
1.0
  0
MTEXT
  5
F4
330
1F
100
AcDbEntity
  8
0-A_文字
  6
Continuous
 62
     7
370
     9
100
AcDbMText
 10
-5370.000018557986
 20
541.5751831054688
 30
0.0
 40
57.15
 41
675.0
 46
0.0
 71
     7
 72
     1
  1
{\fＭＳ ゴシック|b0|i0|c128|p49;ミスト熱処理ガラス}
 73
     1
 44
1.0
  0
MTEXT
  5
F5
330
1F
100
AcDbEntity
  8
0-A_文字
  6
Continuous
 62
     7
370
     9
100
AcDbMText
 10
-4576.699908488504
 20
33.07618236644843
 30
0.0
 40
77.15249999999999
 41
405.0
 46
0.0
 71
     7
 72
     1
  1
{\fＭＳ ゴシック|b0|i0|c128|p49;Ｂ－ＤＫ}
 73
     1
 44
1.0
  0
MTEXT
  5
F6
330
1F
100
AcDbEntity
  8
0-A_文字
  6
Continuous
 62
     7
370
     9
100
AcDbMText
 10
-5370.000018557986
 20
-3558.925017526989
 30
0.0
 40
57.15
 41
675.0
 46
0.0
 71
     7
 72
     1
  1
{\fＭＳ ゴシック|b0|i0|c128|p49;ミスト熱処理ガラス}
 73
     1
 44
1.0
  0
MTEXT
  5
F7
330
1F
100
AcDbEntity
  8
F-A_文字
  6
Continuous
 62
     7
370
     0
100
AcDbMText
 10
-5247.547376752838
 20
-4045.403150364105
 30
0.0
 40
79.19357142857143
 41
1455.0
 46
0.0
 71
     7
 72
     1
  1
{\fＭＳ ゴシック|b0|i0|c128|p49;ドレタス　親子ドア　Ｂ－ＤＫ}
 73
     1
 44
1.0
  0
LINE
  5
F8
330
1F
100
AcDbEntity
  8
0-2_扉
  6
Continuous
 62
     7
370
     9
100
AcDbLine
 10
-4354.000018557984
 20
1443.000148463894
 30
0.0
 11
-4764.000018557984
 21
1443.000148463894
 31
0.0
  0
LINE
  5
F9
330
1F
100
AcDbEntity
  8
0-2_扉
  6
Continuous
 62
     7
370
     9
100
AcDbLine
 10
-4354.000018557984
 20
1443.000148463894
 30
0.0
 11
-4354.000018557984
 21
3438.000148463894
 31
0.0
  0
LINE
  5
FA
330
1F
100
AcDbEntity
  8
0-2_扉
  6
Continuous
 62
     7
370
     9
100
AcDbLine
 10
-4354.000018557984
 20
3438.000148463894
 30
0.0
 11
-4764.000018557984
 21
3438.000148463894
 31
0.0
  0
LINE
  5
FB
330
1F
100
AcDbEntity
  8
0-2_扉
  6
Continuous
 62
     7
370
     9
100
AcDbLine
 10
-4764.000018557984
 20
1443.000148463894
 30
0.0
 11
-4764.000018557984
 21
3438.000148463894
 31
0.0
  0
LINE
  5
FC
330
1F
100
AcDbEntity
  8
0-2_扉
  6
Continuous
 62
     7
370
     9
100
AcDbLine
 10
-4654.000018557984
 20
1443.000148463894
 30
0.0
 11
-4654.000018557984
 21
3438.000148463894
 31
0.0
  0
LINE
  5
FD
330
1F
100
AcDbEntity
  8
0-2_扉
  6
Continuous
 62
     7
370
     9
100
AcDbLine
 10
-4464.000018557984
 20
1443.000148463894
 30
0.0
 11
-4464.000018557984
 21
3438.000148463894
 31
0.0
  0
LINE
  5
FE
330
1F
100
AcDbEntity
  8
0-2_扉
  6
Continuous
 62
     7
370
     9
100
AcDbLine
 10
-4464.000018557984
 20
3302.999950512036
 30
0.0
 11
-4654.000018557984
 21
3302.999950512036
 31
0.0
  0
LINE
  5
FF
330
1F
100
AcDbEntity
  8
0-2_扉
  6
Continuous
 62
     7
370
     9
100
AcDbLine
 10
-4464.000018557984
 20
1592.999965358425
 30
0.0
 11
-4654.000018557984
 21
1592.999965358425
 31
0.0
  0
LINE
  5
100
330
1F
100
AcDbEntity
  8
0-2_扉
  6
Continuous
 62
     7
370
     9
100
AcDbLine
 10
-4350.000018557987
 20
1443.000247439824
 30
0.0
 11
-4350.000018557987
 21
3438.000148463894
 31
0.0
  0
LINE
  5
101
330
1F
100
AcDbEntity
  8
0-2_扉
  6
Continuous
 62
     7
370
     9
100
AcDbLine
 10
-3626.999909684466
 20
1443.000247439824
 30
0.0
 11
-3626.999909684466
 21
3438.000148463894
 31
0.0
  0
LINE
  5
102
330
1F
100
AcDbEntity
  8
0-2_扉
  6
Continuous
 62
     7
370
     9
100
AcDbLine
 10
-4350.000018557987
 20
3438.000148463894
 30
0.0
 11
-3626.999909684466
 21
3438.000148463894
 31
0.0
  0
LINE
  5
103
330
1F
100
AcDbEntity
  8
0-2_扉
  6
Continuous
 62
     7
370
     9
100
AcDbLine
 10
-4350.000018557987
 20
1443.000247439824
 30
0.0
 11
-3626.999909684466
 21
1443.000247439824
 31
0.0
  0
LINE
  5
104
330
1F
100
AcDbEntity
  8
0-2_扉
  6
Continuous
 62
     7
370
     9
100
AcDbLine
 10
-3736.99977771656
 20
1443.000247439824
 30
0.0
 11
-3736.99977771656
 21
3438.000395903718
 31
0.0
  0
LINE
  5
105
330
1F
100
AcDbEntity
  8
0-2_扉
  6
Continuous
 62
     7
370
     9
100
AcDbLine
 10
-4240.000026805982
 20
3303.000197951859
 30
0.0
 11
-3736.99977771656
 21
3303.000197951859
 31
0.0
  0
LINE
  5
106
330
1F
100
AcDbEntity
  8
0-2_扉
  6
Continuous
 62
     7
370
     9
100
AcDbLine
 10
-4240.000026805982
 20
1593.000212798248
 30
0.0
 11
-3736.99977771656
 21
1593.000212798248
 31
0.0
  0
LINE
  5
107
330
1F
100
AcDbEntity
  8
0-2_扉
  6
Continuous
 62
     7
370
     9
100
AcDbLine
 10
-4033.500117533917
 20
3303.000197951859
 30
0.0
 11
-4033.500117533917
 21
1593.000212798248
 31
0.0
  0
LINE
  5
108
330
1F
100
AcDbEntity
  8
0-2_扉
  6
Continuous
 62
     7
370
     9
100
AcDbLine
 10
-3943.500117533917
 20
3303.000197951859
 30
0.0
 11
-3943.500117533917
 21
1593.000212798248
 31
0.0
  0
LINE
  5
109
330
1F
100
AcDbEntity
  8
0-2_扉
  6
Continuous
 62
     7
370
     9
100
AcDbLine
 10
-4354.000018557984
 20
-481.2500838202413
 30
0.0
 11
-4764.000018557984
 21
-481.2500838202413
 31
0.0
  0
LINE
  5
10A
330
1F
100
AcDbEntity
  8
0-2_扉
  6
Continuous
 62
     7
370
     9
100
AcDbLine
 10
-4354.000018557984
 20
-2676.250083820241
 30
0.0
 11
-4764.000018557984
 21
-2676.250083820241
 31
0.0
  0
LINE
  5
10B
330
1F
100
AcDbEntity
  8
0-2_扉
  6
Continuous
 62
     7
370
     9
100
AcDbLine
 10
-4354.000018557984
 20
-2676.250083820241
 30
0.0
 11
-4354.000018557984
 21
-481.2500838202413
 31
0.0
  0
LINE
  5
10C
330
1F
100
AcDbEntity
  8
0-2_扉
  6
Continuous
 62
     7
370
     9
100
AcDbLine
 10
-4764.000018557984
 20
-2676.250083820241
 30
0.0
 11
-4764.000018557984
 21
-481.2500838202413
 31
0.0
  0
LINE
  5
10D
330
1F
100
AcDbEntity
  8
0-2_扉
  6
Continuous
 62
     7
370
     9
100
AcDbLine
 10
-4654.000018557984
 20
-2676.250083820241
 30
0.0
 11
-4654.000018557984
 21
-481.2500838202413
 31
0.0
  0
LINE
  5
10E
330
1F
100
AcDbEntity
  8
0-2_扉
  6
Continuous
 62
     7
370
     9
100
AcDbLine
 10
-4464.000018557984
 20
-2676.250083820241
 30
0.0
 11
-4464.000018557984
 21
-481.2500838202413
 31
0.0
  0
LINE
  5
10F
330
1F
100
AcDbEntity
  8
0-2_扉
  6
Continuous
 62
     7
370
     9
100
AcDbLine
 10
-4464.000018557984
 20
-631.2502817720997
 30
0.0
 11
-4654.000018557984
 21
-631.2502817720997
 31
0.0
  0
LINE
  5
110
330
1F
100
AcDbEntity
  8
0-2_扉
  6
Continuous
 62
     7
370
     9
100
AcDbLine
 10
-4464.000018557984
 20
-2451.250266925711
 30
0.0
 11
-4654.000018557984
 21
-2451.250266925711
 31
0.0
  0
LINE
  5
111
330
1F
100
AcDbEntity
  8
0-2_扉
  6
Continuous
 62
     7
370
     9
100
AcDbLine
 10
-4350.000018557987
 20
-481.2500838202413
 30
0.0
 11
-3626.999909684466
 21
-481.2500838202413
 31
0.0
  0
LINE
  5
112
330
1F
100
AcDbEntity
  8
0-2_扉
  6
Continuous
 62
     7
370
     9
100
AcDbLine
 10
-4350.000018557987
 20
-2676.249984844312
 30
0.0
 11
-3626.999909684466
 21
-2676.249984844312
 31
0.0
  0
LINE
  5
113
330
1F
100
AcDbEntity
  8
0-2_扉
  6
Continuous
 62
     7
370
     9
100
AcDbLine
 10
-4240.000026805982
 20
-2451.250019485888
 30
0.0
 11
-3736.99977771656
 21
-2451.250019485888
 31
0.0
  0
LINE
  5
114
330
1F
100
AcDbEntity
  8
0-2_扉
  6
Continuous
 62
     7
370
     9
100
AcDbLine
 10
-4240.000026805982
 20
-631.2500343322768
 30
0.0
 11
-3736.99977771656
 21
-631.2500343322768
 31
0.0
  0
LINE
  5
115
330
1F
100
AcDbEntity
  8
0-2_扉
  6
Continuous
 62
     7
370
     9
100
AcDbLine
 10
-4033.500117533917
 20
-631.2500343322768
 30
0.0
 11
-4033.500117533917
 21
-2451.250019485888
 31
0.0
  0
LINE
  5
116
330
1F
100
AcDbEntity
  8
0-2_扉
  6
Continuous
 62
     7
370
     9
100
AcDbLine
 10
-3943.500117533917
 20
-631.2500343322768
 30
0.0
 11
-3943.500117533917
 21
-2451.250019485888
 31
0.0
  0
LINE
  5
117
330
1F
100
AcDbEntity
  8
0-2_扉
  6
Continuous
 62
     7
370
     9
100
AcDbLine
 10
-4350.000018557987
 20
-2676.249984844312
 30
0.0
 11
-4350.000018557987
 21
-481.2500838202413
 31
0.0
  0
LINE
  5
118
330
1F
100
AcDbEntity
  8
0-2_扉
  6
Continuous
 62
     7
370
     9
100
AcDbLine
 10
-3626.999909684466
 20
-2676.249984844312
 30
0.0
 11
-3626.999909684466
 21
-481.2500838202413
 31
0.0
  0
LINE
  5
119
330
1F
100
AcDbEntity
  8
0-2_扉
  6
Continuous
 62
     7
370
     9
100
AcDbLine
 10
-3736.99977771656
 20
-2676.249984844312
 30
0.0
 11
-3736.99977771656
 21
-481.2498363804183
 31
0.0
  0
LINE
  5
11A
330
1F
100
AcDbEntity
  8
レバー
  6
JWW_CENTER1
 62
   120
370
     5
100
AcDbLine
 10
-4252.697840014949
 20
2400.500247439824
 30
0.0
 11
-4335.723791752801
 21
2400.500247439824
 31
0.0
  0
LINE
  5
11B
330
1F
100
AcDbEntity
  8
レバー
  6
JWW_CENTER1
 62
   120
370
     5
100
AcDbLine
 10
-4299.500018557987
 20
2456.957208033614
 30
0.0
 11
-4299.500018557987
 21
2357.11345474535
 31
0.0
  0
LINE
  5
11C
330
1F
100
AcDbEntity
  8
レバー
  6
Continuous
 62
     7
370
     0
100
AcDbLine
 10
-4184.000097414988
 20
2407.500234151723
 30
0.0
 11
-4193.075396320287
 21
2407.500114011124
 31
0.0
  0
LINE
  5
11D
330
1F
100
AcDbEntity
  8
レバー
  6
Continuous
 62
     7
370
     0
100
AcDbLine
 10
-4193.075396320287
 20
2407.500114011124
 30
0.0
 11
-4193.475842675687
 21
2407.500100041324
 31
0.0
  0
ARC
  5
11E
330
1F
100
AcDbEntity
  8
レバー
  6
Continuous
 62
     7
370
     0
100
AcDbCircle
 10
-4184.000018557987
 20
2395.000247177223
 30
0.0
 40
1.500000000000118
100
AcDbArc
 50
270.164192293
 51
0.000004253700026
  0
ARC
  5
11F
330
1F
100
AcDbEntity
  8
レバー
  6
Continuous
 62
     7
370
     0
100
AcDbCircle
 10
-4184.000018557987
 20
2406.000247750823
 30
0.0
 40
1.500000000000029
100
AcDbArc
 50
0.0084663275
 51
89.9162980715
  0
LINE
  5
120
330
1F
100
AcDbEntity
  8
レバー
  6
Continuous
 62
     7
370
     0
100
AcDbLine
 10
-4294.481640881388
 20
2393.514131380724
 30
0.0
 11
-4294.349339524787
 21
2393.507340642224
 31
0.0
  0
LINE
  5
121
330
1F
100
AcDbEntity
  8
レバー
  6
Continuous
 62
     7
370
     0
100
AcDbLine
 10
-4294.349339524787
 20
2393.507340642224
 30
0.0
 11
-4293.913598372188
 21
2393.505408147823
 31
0.0
  0
LINE
  5
122
330
1F
100
AcDbEntity
  8
レバー
  6
Continuous
 62
     7
370
     0
100
AcDbLine
 10
-4293.913598372188
 20
2393.505408147823
 30
0.0
 11
-4293.185404701588
 21
2393.505753202823
 31
0.0
  0
LINE
  5
123
330
1F
100
AcDbEntity
  8
レバー
  6
Continuous
 62
     7
370
     0
100
AcDbLine
 10
-4293.185404701588
 20
2393.505753202823
 30
0.0
 11
-4292.170618394887
 21
2393.507004900424
 31
0.0
  0
LINE
  5
124
330
1F
100
AcDbEntity
  8
レバー
  6
Continuous
 62
     7
370
     0
100
AcDbLine
 10
-4292.170618394887
 20
2393.507004900424
 30
0.0
 11
-4290.907090729587
 21
2393.508313408624
 31
0.0
  0
LINE
  5
125
330
1F
100
AcDbEntity
  8
レバー
  6
Continuous
 62
     7
370
     0
100
AcDbLine
 10
-4290.907090729587
 20
2393.508313408624
 30
0.0
 11
-4289.557560546787
 21
2393.508666845523
 31
0.0
  0
LINE
  5
126
330
1F
100
AcDbEntity
  8
レバー
  6
Continuous
 62
     7
370
     0
100
AcDbLine
 10
-4289.557560546787
 20
2393.508666845523
 30
0.0
 11
-4286.704043126188
 21
2393.506690113323
 31
0.0
  0
LINE
  5
127
330
1F
100
AcDbEntity
  8
レバー
  6
Continuous
 62
     7
370
     0
100
AcDbLine
 10
-4286.704043126188
 20
2393.506690113323
 30
0.0
 11
-4283.722207149987
 21
2393.502096364723
 31
0.0
  0
LINE
  5
128
330
1F
100
AcDbEntity
  8
レバー
  6
Continuous
 62
     7
370
     0
100
AcDbLine
 10
-4283.722207149987
 20
2393.502096364723
 30
0.0
 11
-4280.701484730987
 21
2393.499910085023
 31
0.0
  0
LINE
  5
129
330
1F
100
AcDbEntity
  8
レバー
  6
Continuous
 62
     7
370
     0
100
AcDbLine
 10
-4280.701484730987
 20
2393.499910085023
 30
0.0
 11
-4277.658896720487
 21
2393.500047455124
 31
0.0
  0
LINE
  5
12A
330
1F
100
AcDbEntity
  8
レバー
  6
Continuous
 62
     7
370
     0
100
AcDbLine
 10
-4277.658896720487
 20
2393.500047455124
 30
0.0
 11
-4274.594614481987
 21
2393.500493558623
 31
0.0
  0
LINE
  5
12B
330
1F
100
AcDbEntity
  8
レバー
  6
Continuous
 62
     7
370
     0
100
AcDbLine
 10
-4274.594614481987
 20
2393.500493558623
 30
0.0
 11
-4271.508809378887
 21
2393.500884714124
 31
0.0
  0
LINE
  5
12C
330
1F
100
AcDbEntity
  8
レバー
  6
Continuous
 62
     7
370
     0
100
AcDbLine
 10
-4271.508809378887
 20
2393.500884714124
 30
0.0
 11
-4267.511718174887
 21
2393.501308931524
 31
0.0
  0
LINE
  5
12D
330
1F
100
AcDbEntity
  8
レバー
  6
Continuous
 62
     7
370
     0
100
AcDbLine
 10
-4267.511718174887
 20
2393.501308931524
 30
0.0
 11
-4263.102732798587
 21
2393.501676338324
 31
0.0
  0
LINE
  5
12E
330
1F
100
AcDbEntity
  8
レバー
  6
Continuous
 62
     7
370
     0
100
AcDbLine
 10
-4263.102732798587
 20
2393.501676338324
 30
0.0
 11
-4258.132972022988
 21
2393.501975758524
 31
0.0
  0
LINE
  5
12F
330
1F
100
AcDbEntity
  8
レバー
  6
Continuous
 62
     7
370
     0
100
AcDbLine
 10
-4258.132972022988
 20
2393.501975758524
 30
0.0
 11
-4252.602432122887
 21
2393.502179718124
 31
0.0
  0
LINE
  5
130
330
1F
100
AcDbEntity
  8
レバー
  6
Continuous
 62
     7
370
     0
100
AcDbLine
 10
-4252.602432122887
 20
2393.502179718124
 30
0.0
 11
-4246.511116823687
 21
2393.502267728124
 31
0.0
  0
LINE
  5
131
330
1F
100
AcDbEntity
  8
レバー
  6
Continuous
 62
     7
370
     0
100
AcDbLine
 10
-4246.511116823687
 20
2393.502267728124
 30
0.0
 11
-4239.859022399887
 21
2393.502225352924
 31
0.0
  0
LINE
  5
132
330
1F
100
AcDbEntity
  8
レバー
  6
Continuous
 62
     7
370
     0
100
AcDbLine
 10
-4239.859022399887
 20
2393.502225352924
 30
0.0
 11
-4232.646145126288
 21
2393.502050264323
 31
0.0
  0
LINE
  5
133
330
1F
100
AcDbEntity
  8
レバー
  6
Continuous
 62
     7
370
     0
100
AcDbLine
 10
-4232.646145126288
 20
2393.502050264323
 30
0.0
 11
-4224.064275822187
 21
2393.501719179123
 31
0.0
  0
LINE
  5
134
330
1F
100
AcDbEntity
  8
レバー
  6
Continuous
 62
     7
370
     0
100
AcDbLine
 10
-4224.064275822187
 20
2393.501719179123
 30
0.0
 11
-4214.803844890087
 21
2393.501281457524
 31
0.0
  0
LINE
  5
135
330
1F
100
AcDbEntity
  8
レバー
  6
Continuous
 62
     7
370
     0
100
AcDbLine
 10
-4214.803844890087
 20
2393.501281457524
 30
0.0
 11
-4204.864859780788
 21
2393.500809276924
 31
0.0
  0
LINE
  5
136
330
1F
100
AcDbEntity
  8
レバー
  6
Continuous
 62
     7
370
     0
100
AcDbLine
 10
-4204.864859780788
 20
2393.500809276924
 30
0.0
 11
-4194.247305592988
 21
2393.500412999223
 31
0.0
  0
LINE
  5
137
330
1F
100
AcDbEntity
  8
レバー
  6
Continuous
 62
     7
370
     0
100
AcDbLine
 10
-4194.247305592988
 20
2393.500412999223
 30
0.0
 11
-4184.000097414988
 21
2393.500262124924
 31
0.0
  0
LINE
  5
138
330
1F
100
AcDbEntity
  8
レバー
  6
Continuous
 62
     7
370
     0
100
AcDbLine
 10
-4184.000149568988
 20
2407.500233686123
 30
0.0
 11
-4193.729251822888
 21
2407.500096316024
 31
0.0
  0
LINE
  5
139
330
1F
100
AcDbEntity
  8
レバー
  6
Continuous
 62
     7
370
     0
100
AcDbLine
 10
-4193.729251822888
 20
2407.500096316024
 30
0.0
 11
-4203.914046487287
 21
2407.499727046624
 31
0.0
  0
LINE
  5
13A
330
1F
100
AcDbEntity
  8
レバー
  6
Continuous
 62
     7
370
     0
100
AcDbLine
 10
-4203.914046487287
 20
2407.499727046624
 30
0.0
 11
-4213.505596122288
 21
2407.499276752123
 31
0.0
  0
LINE
  5
13B
330
1F
100
AcDbEntity
  8
レバー
  6
Continuous
 62
     7
370
     0
100
AcDbLine
 10
-4213.505596122288
 20
2407.499276752123
 30
0.0
 11
-4222.503893277188
 21
2407.498845549824
 31
0.0
  0
LINE
  5
13C
330
1F
100
AcDbEntity
  8
レバー
  6
Continuous
 62
     7
370
     0
100
AcDbLine
 10
-4222.503893277188
 20
2407.498845549824
 30
0.0
 11
-4230.908960303787
 21
2407.498502357424
 31
0.0
  0
LINE
  5
13D
330
1F
100
AcDbEntity
  8
レバー
  6
Continuous
 62
     7
370
     0
100
AcDbLine
 10
-4230.908960303787
 20
2407.498502357424
 30
0.0
 11
-4238.720793476788
 21
2407.498289084523
 31
0.0
  0
LINE
  5
13E
330
1F
100
AcDbEntity
  8
レバー
  6
Continuous
 62
     7
370
     0
100
AcDbLine
 10
-4238.720793476788
 20
2407.498289084523
 30
0.0
 11
-4245.542895248587
 21
2407.498224823324
 31
0.0
  0
LINE
  5
13F
330
1F
100
AcDbEntity
  8
レバー
  6
Continuous
 62
     7
370
     0
100
AcDbLine
 10
-4245.542895248587
 20
2407.498224823324
 30
0.0
 11
-4251.837641200487
 21
2407.498296069524
 31
0.0
  0
LINE
  5
140
330
1F
100
AcDbEntity
  8
レバー
  6
Continuous
 62
     7
370
     0
100
AcDbLine
 10
-4251.837641200487
 20
2407.498296069524
 30
0.0
 11
-4257.605031332488
 21
2407.498493975524
 31
0.0
  0
LINE
  5
141
330
1F
100
AcDbEntity
  8
レバー
  6
Continuous
 62
     7
370
     0
100
AcDbLine
 10
-4257.605031332488
 20
2407.498493975524
 30
0.0
 11
-4262.846771827487
 21
2407.498799915023
 31
0.0
  0
LINE
  5
142
330
1F
100
AcDbEntity
  8
レバー
  6
Continuous
 62
     7
370
     0
100
AcDbLine
 10
-4262.846771827487
 20
2407.498799915023
 30
0.0
 11
-4267.643928727587
 21
2407.499198055424
 31
0.0
  0
LINE
  5
143
330
1F
100
AcDbEntity
  8
レバー
  6
Continuous
 62
     7
370
     0
100
AcDbLine
 10
-4267.643928727587
 20
2407.499198055424
 30
0.0
 11
-4272.295108264788
 21
2407.499702366523
 31
0.0
  0
LINE
  5
144
330
1F
100
AcDbEntity
  8
レバー
  6
Continuous
 62
     7
370
     0
100
AcDbLine
 10
-4272.295108264788
 20
2407.499702366523
 30
0.0
 11
-4276.497211507087
 21
2407.500264419724
 31
0.0
  0
LINE
  5
145
330
1F
100
AcDbEntity
  8
レバー
  6
Continuous
 62
     7
370
     0
100
AcDbLine
 10
-4276.497211507087
 20
2407.500264419724
 30
0.0
 11
-4280.250640785787
 21
2407.500646262023
 31
0.0
  0
LINE
  5
146
330
1F
100
AcDbEntity
  8
レバー
  6
Continuous
 62
     7
370
     0
100
AcDbLine
 10
-4280.250640785787
 20
2407.500646262023
 30
0.0
 11
-4282.252498170787
 21
2407.499931006224
 31
0.0
  0
LINE
  5
147
330
1F
100
AcDbEntity
  8
レバー
  6
Continuous
 62
     7
370
     0
100
AcDbLine
 10
-4282.252498170787
 20
2407.499931006224
 30
0.0
 11
-4284.098865664088
 21
2407.497927731423
 31
0.0
  0
LINE
  5
148
330
1F
100
AcDbEntity
  8
レバー
  6
Continuous
 62
     7
370
     0
100
AcDbLine
 10
-4284.098865664088
 20
2407.497927731423
 30
0.0
 11
-4286.108485622788
 21
2407.494641094023
 31
0.0
  0
LINE
  5
149
330
1F
100
AcDbEntity
  8
レバー
  6
Continuous
 62
     7
370
     0
100
AcDbLine
 10
-4286.108485622788
 20
2407.494641094023
 30
0.0
 11
-4288.516421070788
 21
2407.492074834723
 31
0.0
  0
LINE
  5
14A
330
1F
100
AcDbEntity
  8
レバー
  6
Continuous
 62
     7
370
     0
100
AcDbLine
 10
-4288.516421070788
 20
2407.492074834723
 30
0.0
 11
-4290.011581233287
 21
2407.491586356024
 31
0.0
  0
LINE
  5
14B
330
1F
100
AcDbEntity
  8
レバー
  6
Continuous
 62
     7
370
     0
100
AcDbLine
 10
-4290.011581233287
 20
2407.491586356024
 30
0.0
 11
-4291.548931239688
 21
2407.492336070623
 31
0.0
  0
LINE
  5
14C
330
1F
100
AcDbEntity
  8
レバー
  6
Continuous
 62
     7
370
     0
100
AcDbLine
 10
-4291.548931239688
 20
2407.492336070623
 30
0.0
 11
-4293.067231042788
 21
2407.493537942424
 31
0.0
  0
LINE
  5
14D
330
1F
100
AcDbEntity
  8
レバー
  6
Continuous
 62
     7
370
     0
100
AcDbLine
 10
-4293.067231042788
 20
2407.493537942424
 30
0.0
 11
-4294.167902520388
 21
2407.492673675123
 31
0.0
  0
LINE
  5
14E
330
1F
100
AcDbEntity
  8
レバー
  6
Continuous
 62
     7
370
     0
100
AcDbLine
 10
-4294.167902520388
 20
2407.492673675123
 30
0.0
 11
-4294.630227344587
 21
2407.486083636524
 31
0.0
  0
LINE
  5
14F
330
1F
100
AcDbEntity
  8
レバー
  6
Continuous
 62
     7
370
     0
100
AcDbLine
 10
-4294.630227344587
 20
2407.486083636524
 30
0.0
 11
-4294.634146815587
 21
2407.482003512324
 31
0.0
  0
ARC
  5
150
330
1F
100
AcDbEntity
  8
レバー
  6
Continuous
 62
     7
370
     0
100
AcDbCircle
 10
-4184.000018557987
 20
2406.000247702524
 30
0.0
 40
1.500000000000118
100
AcDbArc
 50
359.9999957463
 51
90.17419294509996
  0
ARC
  5
151
330
1F
100
AcDbEntity
  8
レバー
  6
Continuous
 62
     7
370
     0
100
AcDbCircle
 10
-4184.000018557987
 20
2395.000247128923
 30
0.0
 40
1.500000000000029
100
AcDbArc
 50
269.9105889113
 51
359.9915336725
  0
LINE
  5
152
330
1F
100
AcDbEntity
  8
レバー
  6
Continuous
 62
     7
370
     0
100
AcDbLine
 10
-4289.544631926788
 20
2407.491739092924
 30
0.0
 11
-4290.307630053288
 21
2408.278422149424
 31
0.0
  0
LINE
  5
153
330
1F
100
AcDbEntity
  8
レバー
  6
Continuous
 62
     7
370
     0
100
AcDbLine
 10
-4290.307630053288
 20
2408.278422149424
 30
0.0
 11
-4292.277605472588
 21
2409.646413473924
 31
0.0
  0
LINE
  5
154
330
1F
100
AcDbEntity
  8
レバー
  6
Continuous
 62
     7
370
     0
100
AcDbLine
 10
-4292.277605472588
 20
2409.646413473924
 30
0.0
 11
-4294.525134111287
 21
2410.662922261823
 31
0.0
  0
LINE
  5
155
330
1F
100
AcDbEntity
  8
レバー
  6
Continuous
 62
     7
370
     0
100
AcDbLine
 10
-4294.525134111287
 20
2410.662922261823
 30
0.0
 11
-4296.963844415287
 21
2411.288885584624
 31
0.0
  0
LINE
  5
156
330
1F
100
AcDbEntity
  8
レバー
  6
Continuous
 62
     7
370
     0
100
AcDbLine
 10
-4296.963844415287
 20
2411.288885584624
 30
0.0
 11
-4299.500018557987
 21
2411.500247380224
 31
0.0
  0
LINE
  5
157
330
1F
100
AcDbEntity
  8
レバー
  6
Continuous
 62
     7
370
     0
100
AcDbLine
 10
-4299.500018557987
 20
2411.500247380224
 30
0.0
 11
-4302.036192700787
 21
2411.288885584624
 31
0.0
  0
LINE
  5
158
330
1F
100
AcDbEntity
  8
レバー
  6
Continuous
 62
     7
370
     0
100
AcDbLine
 10
-4302.036192700787
 20
2411.288885584624
 30
0.0
 11
-4304.474903004688
 21
2410.662922261823
 31
0.0
  0
LINE
  5
159
330
1F
100
AcDbEntity
  8
レバー
  6
Continuous
 62
     7
370
     0
100
AcDbLine
 10
-4304.474903004688
 20
2410.662922261823
 30
0.0
 11
-4306.722431643387
 21
2409.646413473924
 31
0.0
  0
LINE
  5
15A
330
1F
100
AcDbEntity
  8
レバー
  6
Continuous
 62
     7
370
     0
100
AcDbLine
 10
-4306.722431643387
 20
2409.646413473924
 30
0.0
 11
-4308.692407062787
 21
2408.278422149424
 31
0.0
  0
LINE
  5
15B
330
1F
100
AcDbEntity
  8
レバー
  6
Continuous
 62
     7
370
     0
100
AcDbLine
 10
-4308.692407062787
 20
2408.278422149424
 30
0.0
 11
-4310.309123447588
 21
2406.611520050623
 31
0.0
  0
LINE
  5
15C
330
1F
100
AcDbEntity
  8
レバー
  6
Continuous
 62
     7
370
     0
100
AcDbLine
 10
-4310.309123447588
 20
2406.611520050623
 30
0.0
 11
-4311.510452269087
 21
2404.709765406824
 31
0.0
  0
LINE
  5
15D
330
1F
100
AcDbEntity
  8
レバー
  6
Continuous
 62
     7
370
     0
100
AcDbLine
 10
-4311.510452269087
 20
2404.709765406824
 30
0.0
 11
-4312.250226935887
 21
2402.646240963124
 31
0.0
  0
LINE
  5
15E
330
1F
100
AcDbEntity
  8
レバー
  6
Continuous
 62
     7
370
     0
100
AcDbLine
 10
-4312.250226935887
 20
2402.646240963124
 30
0.0
 11
-4312.500018826187
 21
2400.500247439824
 31
0.0
  0
LINE
  5
15F
330
1F
100
AcDbEntity
  8
レバー
  6
Continuous
 62
     7
370
     0
100
AcDbLine
 10
-4312.500018826187
 20
2400.500247439824
 30
0.0
 11
-4312.250226935887
 21
2398.354253916524
 31
0.0
  0
LINE
  5
160
330
1F
100
AcDbEntity
  8
レバー
  6
Continuous
 62
     7
370
     0
100
AcDbLine
 10
-4312.250226935887
 20
2398.354253916524
 30
0.0
 11
-4311.510452269087
 21
2396.290729472924
 31
0.0
  0
LINE
  5
161
330
1F
100
AcDbEntity
  8
レバー
  6
Continuous
 62
     7
370
     0
100
AcDbLine
 10
-4311.510452269087
 20
2396.290729472924
 30
0.0
 11
-4310.309123447588
 21
2394.388974829123
 31
0.0
  0
LINE
  5
162
330
1F
100
AcDbEntity
  8
レバー
  6
Continuous
 62
     7
370
     0
100
AcDbLine
 10
-4310.309123447588
 20
2394.388974829123
 30
0.0
 11
-4308.692407062787
 21
2392.722072730324
 31
0.0
  0
LINE
  5
163
330
1F
100
AcDbEntity
  8
レバー
  6
Continuous
 62
     7
370
     0
100
AcDbLine
 10
-4308.692407062787
 20
2392.722072730324
 30
0.0
 11
-4306.722431643387
 21
2391.354081405823
 31
0.0
  0
LINE
  5
164
330
1F
100
AcDbEntity
  8
レバー
  6
Continuous
 62
     7
370
     0
100
AcDbLine
 10
-4306.722431643387
 20
2391.354081405823
 30
0.0
 11
-4304.474903004688
 21
2390.337572617923
 31
0.0
  0
LINE
  5
165
330
1F
100
AcDbEntity
  8
レバー
  6
Continuous
 62
     7
370
     0
100
AcDbLine
 10
-4304.474903004688
 20
2390.337572617923
 30
0.0
 11
-4302.036192700787
 21
2389.711609295124
 31
0.0
  0
LINE
  5
166
330
1F
100
AcDbEntity
  8
レバー
  6
Continuous
 62
     7
370
     0
100
AcDbLine
 10
-4302.036192700787
 20
2389.711609295124
 30
0.0
 11
-4299.500018557987
 21
2389.500247499424
 31
0.0
  0
LINE
  5
167
330
1F
100
AcDbEntity
  8
レバー
  6
Continuous
 62
     7
370
     0
100
AcDbLine
 10
-4299.500018557987
 20
2389.500247499424
 30
0.0
 11
-4296.963844415287
 21
2389.711609295124
 31
0.0
  0
LINE
  5
168
330
1F
100
AcDbEntity
  8
レバー
  6
Continuous
 62
     7
370
     0
100
AcDbLine
 10
-4296.963844415287
 20
2389.711609295124
 30
0.0
 11
-4294.525134111287
 21
2390.337572617923
 31
0.0
  0
LINE
  5
169
330
1F
100
AcDbEntity
  8
レバー
  6
Continuous
 62
     7
370
     0
100
AcDbLine
 10
-4294.525134111287
 20
2390.337572617923
 30
0.0
 11
-4292.277605472588
 21
2391.354081405823
 31
0.0
  0
LINE
  5
16A
330
1F
100
AcDbEntity
  8
レバー
  6
Continuous
 62
     7
370
     0
100
AcDbLine
 10
-4292.277605472588
 20
2391.354081405823
 30
0.0
 11
-4290.307630053288
 21
2392.722072730324
 31
0.0
  0
LINE
  5
16B
330
1F
100
AcDbEntity
  8
レバー
  6
Continuous
 62
     7
370
     0
100
AcDbLine
 10
-4290.307630053288
 20
2392.722072730324
 30
0.0
 11
-4289.544726921687
 21
2393.508657997924
 31
0.0
  0
LINE
  5
16C
330
1F
100
AcDbEntity
  8
レバー
  6
Continuous
 62
     7
370
     0
100
AcDbLine
 10
-4182.500019869287
 20
2400.500408573724
 30
0.0
 11
-4182.500019869287
 21
2395.003271939723
 31
0.0
  0
LINE
  5
16D
330
1F
100
AcDbEntity
  8
レバー
  6
Continuous
 62
     7
370
     0
100
AcDbLine
 10
-4182.500019869287
 20
2400.500408573724
 30
0.0
 11
-4182.500019869287
 21
2405.993492993124
 31
0.0
  0
ARC
  5
16E
330
1F
100
AcDbEntity
  8
レバー
  6
Continuous
 62
     7
370
     0
100
AcDbCircle
 10
-4299.500018557987
 20
2400.500247439824
 30
0.0
 40
24.55
100
AcDbArc
 50
16.5995243249
 51
343.3673588443
  0
LINE
  5
16F
330
1F
100
AcDbEntity
  8
レバー
  6
JWW_CENTER1
 62
   120
370
     5
100
AcDbLine
 10
-4252.697840014949
 20
-1718.749984844312
 30
0.0
 11
-4335.723791752801
 21
-1718.749984844312
 31
0.0
  0
LINE
  5
170
330
1F
100
AcDbEntity
  8
レバー
  6
JWW_CENTER1
 62
   120
370
     5
100
AcDbLine
 10
-4299.500018557987
 20
-1662.293024250522
 30
0.0
 11
-4299.500018557987
 21
-1762.136777538785
 31
0.0
  0
LINE
  5
171
330
1F
100
AcDbEntity
  8
レバー
  6
Continuous
 62
     7
370
     0
100
AcDbLine
 10
-4184.000097414988
 20
-1711.749998132412
 30
0.0
 11
-4193.075396320287
 21
-1711.750118273012
 31
0.0
  0
LINE
  5
172
330
1F
100
AcDbEntity
  8
レバー
  6
Continuous
 62
     7
370
     0
100
AcDbLine
 10
-4193.075396320287
 20
-1711.750118273012
 30
0.0
 11
-4193.475842675687
 21
-1711.750132242812
 31
0.0
  0
ARC
  5
173
330
1F
100
AcDbEntity
  8
レバー
  6
Continuous
 62
     7
370
     0
100
AcDbCircle
 10
-4184.000018557987
 20
-1724.249985106912
 30
0.0
 40
1.500000000000118
100
AcDbArc
 50
270.164192293
 51
0.000004253700026
  0
ARC
  5
174
330
1F
100
AcDbEntity
  8
レバー
  6
Continuous
 62
     7
370
     0
100
AcDbCircle
 10
-4184.000018557987
 20
-1713.249984533312
 30
0.0
 40
1.500000000000029
100
AcDbArc
 50
0.0084663275
 51
89.9162980715
  0
LINE
  5
175
330
1F
100
AcDbEntity
  8
レバー
  6
Continuous
 62
     7
370
     0
100
AcDbLine
 10
-4294.481640881388
 20
-1725.736100903412
 30
0.0
 11
-4294.349339524787
 21
-1725.742891641912
 31
0.0
  0
LINE
  5
176
330
1F
100
AcDbEntity
  8
レバー
  6
Continuous
 62
     7
370
     0
100
AcDbLine
 10
-4294.349339524787
 20
-1725.742891641912
 30
0.0
 11
-4293.913598372188
 21
-1725.744824136312
 31
0.0
  0
LINE
  5
177
330
1F
100
AcDbEntity
  8
レバー
  6
Continuous
 62
     7
370
     0
100
AcDbLine
 10
-4293.913598372188
 20
-1725.744824136312
 30
0.0
 11
-4293.185404701588
 21
-1725.744479081312
 31
0.0
  0
LINE
  5
178
330
1F
100
AcDbEntity
  8
レバー
  6
Continuous
 62
     7
370
     0
100
AcDbLine
 10
-4293.185404701588
 20
-1725.744479081312
 30
0.0
 11
-4292.170618394887
 21
-1725.743227383712
 31
0.0
  0
LINE
  5
179
330
1F
100
AcDbEntity
  8
レバー
  6
Continuous
 62
     7
370
     0
100
AcDbLine
 10
-4292.170618394887
 20
-1725.743227383712
 30
0.0
 11
-4290.907090729587
 21
-1725.741918875512
 31
0.0
  0
LINE
  5
17A
330
1F
100
AcDbEntity
  8
レバー
  6
Continuous
 62
     7
370
     0
100
AcDbLine
 10
-4290.907090729587
 20
-1725.741918875512
 30
0.0
 11
-4289.557560546787
 21
-1725.741565438612
 31
0.0
  0
LINE
  5
17B
330
1F
100
AcDbEntity
  8
レバー
  6
Continuous
 62
     7
370
     0
100
AcDbLine
 10
-4289.557560546787
 20
-1725.741565438612
 30
0.0
 11
-4286.704043126188
 21
-1725.743542170812
 31
0.0
  0
LINE
  5
17C
330
1F
100
AcDbEntity
  8
レバー
  6
Continuous
 62
     7
370
     0
100
AcDbLine
 10
-4286.704043126188
 20
-1725.743542170812
 30
0.0
 11
-4283.722207149987
 21
-1725.748135919412
 31
0.0
  0
LINE
  5
17D
330
1F
100
AcDbEntity
  8
レバー
  6
Continuous
 62
     7
370
     0
100
AcDbLine
 10
-4283.722207149987
 20
-1725.748135919412
 30
0.0
 11
-4280.701484730987
 21
-1725.750322199112
 31
0.0
  0
LINE
  5
17E
330
1F
100
AcDbEntity
  8
レバー
  6
Continuous
 62
     7
370
     0
100
AcDbLine
 10
-4280.701484730987
 20
-1725.750322199112
 30
0.0
 11
-4277.658896720487
 21
-1725.750184829012
 31
0.0
  0
LINE
  5
17F
330
1F
100
AcDbEntity
  8
レバー
  6
Continuous
 62
     7
370
     0
100
AcDbLine
 10
-4277.658896720487
 20
-1725.750184829012
 30
0.0
 11
-4274.594614481987
 21
-1725.749738725512
 31
0.0
  0
LINE
  5
180
330
1F
100
AcDbEntity
  8
レバー
  6
Continuous
 62
     7
370
     0
100
AcDbLine
 10
-4274.594614481987
 20
-1725.749738725512
 30
0.0
 11
-4271.508809378887
 21
-1725.749347570012
 31
0.0
  0
LINE
  5
181
330
1F
100
AcDbEntity
  8
レバー
  6
Continuous
 62
     7
370
     0
100
AcDbLine
 10
-4271.508809378887
 20
-1725.749347570012
 30
0.0
 11
-4267.511718174887
 21
-1725.748923352612
 31
0.0
  0
LINE
  5
182
330
1F
100
AcDbEntity
  8
レバー
  6
Continuous
 62
     7
370
     0
100
AcDbLine
 10
-4267.511718174887
 20
-1725.748923352612
 30
0.0
 11
-4263.102732798587
 21
-1725.748555945812
 31
0.0
  0
LINE
  5
183
330
1F
100
AcDbEntity
  8
レバー
  6
Continuous
 62
     7
370
     0
100
AcDbLine
 10
-4263.102732798587
 20
-1725.748555945812
 30
0.0
 11
-4258.132972022988
 21
-1725.748256525612
 31
0.0
  0
LINE
  5
184
330
1F
100
AcDbEntity
  8
レバー
  6
Continuous
 62
     7
370
     0
100
AcDbLine
 10
-4258.132972022988
 20
-1725.748256525612
 30
0.0
 11
-4252.602432122887
 21
-1725.748052566012
 31
0.0
  0
LINE
  5
185
330
1F
100
AcDbEntity
  8
レバー
  6
Continuous
 62
     7
370
     0
100
AcDbLine
 10
-4252.602432122887
 20
-1725.748052566012
 30
0.0
 11
-4246.511116823687
 21
-1725.747964556012
 31
0.0
  0
LINE
  5
186
330
1F
100
AcDbEntity
  8
レバー
  6
Continuous
 62
     7
370
     0
100
AcDbLine
 10
-4246.511116823687
 20
-1725.747964556012
 30
0.0
 11
-4239.859022399887
 21
-1725.748006931212
 31
0.0
  0
LINE
  5
187
330
1F
100
AcDbEntity
  8
レバー
  6
Continuous
 62
     7
370
     0
100
AcDbLine
 10
-4239.859022399887
 20
-1725.748006931212
 30
0.0
 11
-4232.646145126288
 21
-1725.748182019812
 31
0.0
  0
LINE
  5
188
330
1F
100
AcDbEntity
  8
レバー
  6
Continuous
 62
     7
370
     0
100
AcDbLine
 10
-4232.646145126288
 20
-1725.748182019812
 30
0.0
 11
-4224.064275822187
 21
-1725.748513105012
 31
0.0
  0
LINE
  5
189
330
1F
100
AcDbEntity
  8
レバー
  6
Continuous
 62
     7
370
     0
100
AcDbLine
 10
-4224.064275822187
 20
-1725.748513105012
 30
0.0
 11
-4214.803844890087
 21
-1725.748950826612
 31
0.0
  0
LINE
  5
18A
330
1F
100
AcDbEntity
  8
レバー
  6
Continuous
 62
     7
370
     0
100
AcDbLine
 10
-4214.803844890087
 20
-1725.748950826612
 30
0.0
 11
-4204.864859780788
 21
-1725.749423007212
 31
0.0
  0
LINE
  5
18B
330
1F
100
AcDbEntity
  8
レバー
  6
Continuous
 62
     7
370
     0
100
AcDbLine
 10
-4204.864859780788
 20
-1725.749423007212
 30
0.0
 11
-4194.247305592988
 21
-1725.749819284912
 31
0.0
  0
LINE
  5
18C
330
1F
100
AcDbEntity
  8
レバー
  6
Continuous
 62
     7
370
     0
100
AcDbLine
 10
-4194.247305592988
 20
-1725.749819284912
 30
0.0
 11
-4184.000097414988
 21
-1725.749970159212
 31
0.0
  0
LINE
  5
18D
330
1F
100
AcDbEntity
  8
レバー
  6
Continuous
 62
     7
370
     0
100
AcDbLine
 10
-4184.000149568988
 20
-1711.749998598012
 30
0.0
 11
-4193.729251822888
 21
-1711.750135968112
 31
0.0
  0
LINE
  5
18E
330
1F
100
AcDbEntity
  8
レバー
  6
Continuous
 62
     7
370
     0
100
AcDbLine
 10
-4193.729251822888
 20
-1711.750135968112
 30
0.0
 11
-4203.914046487287
 21
-1711.750505237512
 31
0.0
  0
LINE
  5
18F
330
1F
100
AcDbEntity
  8
レバー
  6
Continuous
 62
     7
370
     0
100
AcDbLine
 10
-4203.914046487287
 20
-1711.750505237512
 30
0.0
 11
-4213.505596122288
 21
-1711.750955532012
 31
0.0
  0
LINE
  5
190
330
1F
100
AcDbEntity
  8
レバー
  6
Continuous
 62
     7
370
     0
100
AcDbLine
 10
-4213.505596122288
 20
-1711.750955532012
 30
0.0
 11
-4222.503893277188
 21
-1711.751386734312
 31
0.0
  0
LINE
  5
191
330
1F
100
AcDbEntity
  8
レバー
  6
Continuous
 62
     7
370
     0
100
AcDbLine
 10
-4222.503893277188
 20
-1711.751386734312
 30
0.0
 11
-4230.908960303787
 21
-1711.751729926712
 31
0.0
  0
LINE
  5
192
330
1F
100
AcDbEntity
  8
レバー
  6
Continuous
 62
     7
370
     0
100
AcDbLine
 10
-4230.908960303787
 20
-1711.751729926712
 30
0.0
 11
-4238.720793476788
 21
-1711.751943199612
 31
0.0
  0
LINE
  5
193
330
1F
100
AcDbEntity
  8
レバー
  6
Continuous
 62
     7
370
     0
100
AcDbLine
 10
-4238.720793476788
 20
-1711.751943199612
 30
0.0
 11
-4245.542895248587
 21
-1711.752007460812
 31
0.0
  0
LINE
  5
194
330
1F
100
AcDbEntity
  8
レバー
  6
Continuous
 62
     7
370
     0
100
AcDbLine
 10
-4245.542895248587
 20
-1711.752007460812
 30
0.0
 11
-4251.837641200487
 21
-1711.751936214612
 31
0.0
  0
LINE
  5
195
330
1F
100
AcDbEntity
  8
レバー
  6
Continuous
 62
     7
370
     0
100
AcDbLine
 10
-4251.837641200487
 20
-1711.751936214612
 30
0.0
 11
-4257.605031332488
 21
-1711.751738308612
 31
0.0
  0
LINE
  5
196
330
1F
100
AcDbEntity
  8
レバー
  6
Continuous
 62
     7
370
     0
100
AcDbLine
 10
-4257.605031332488
 20
-1711.751738308612
 30
0.0
 11
-4262.846771827487
 21
-1711.751432369112
 31
0.0
  0
LINE
  5
197
330
1F
100
AcDbEntity
  8
レバー
  6
Continuous
 62
     7
370
     0
100
AcDbLine
 10
-4262.846771827487
 20
-1711.751432369112
 30
0.0
 11
-4267.643928727587
 21
-1711.751034228712
 31
0.0
  0
LINE
  5
198
330
1F
100
AcDbEntity
  8
レバー
  6
Continuous
 62
     7
370
     0
100
AcDbLine
 10
-4267.643928727587
 20
-1711.751034228712
 30
0.0
 11
-4272.295108264788
 21
-1711.750529917612
 31
0.0
  0
LINE
  5
199
330
1F
100
AcDbEntity
  8
レバー
  6
Continuous
 62
     7
370
     0
100
AcDbLine
 10
-4272.295108264788
 20
-1711.750529917612
 30
0.0
 11
-4276.497211507087
 21
-1711.749967864412
 31
0.0
  0
LINE
  5
19A
330
1F
100
AcDbEntity
  8
レバー
  6
Continuous
 62
     7
370
     0
100
AcDbLine
 10
-4276.497211507087
 20
-1711.749967864412
 30
0.0
 11
-4280.250640785787
 21
-1711.749586022112
 31
0.0
  0
LINE
  5
19B
330
1F
100
AcDbEntity
  8
レバー
  6
Continuous
 62
     7
370
     0
100
AcDbLine
 10
-4280.250640785787
 20
-1711.749586022112
 30
0.0
 11
-4282.252498170787
 21
-1711.750301277912
 31
0.0
  0
LINE
  5
19C
330
1F
100
AcDbEntity
  8
レバー
  6
Continuous
 62
     7
370
     0
100
AcDbLine
 10
-4282.252498170787
 20
-1711.750301277912
 30
0.0
 11
-4284.098865664088
 21
-1711.752304552712
 31
0.0
  0
LINE
  5
19D
330
1F
100
AcDbEntity
  8
レバー
  6
Continuous
 62
     7
370
     0
100
AcDbLine
 10
-4284.098865664088
 20
-1711.752304552712
 30
0.0
 11
-4286.108485622788
 21
-1711.755591190112
 31
0.0
  0
LINE
  5
19E
330
1F
100
AcDbEntity
  8
レバー
  6
Continuous
 62
     7
370
     0
100
AcDbLine
 10
-4286.108485622788
 20
-1711.755591190112
 30
0.0
 11
-4288.516421070788
 21
-1711.758157449412
 31
0.0
  0
LINE
  5
19F
330
1F
100
AcDbEntity
  8
レバー
  6
Continuous
 62
     7
370
     0
100
AcDbLine
 10
-4288.516421070788
 20
-1711.758157449412
 30
0.0
 11
-4290.011581233287
 21
-1711.758645928112
 31
0.0
  0
LINE
  5
1A0
330
1F
100
AcDbEntity
  8
レバー
  6
Continuous
 62
     7
370
     0
100
AcDbLine
 10
-4290.011581233287
 20
-1711.758645928112
 30
0.0
 11
-4291.548931239688
 21
-1711.757896213512
 31
0.0
  0
LINE
  5
1A1
330
1F
100
AcDbEntity
  8
レバー
  6
Continuous
 62
     7
370
     0
100
AcDbLine
 10
-4291.548931239688
 20
-1711.757896213512
 30
0.0
 11
-4293.067231042788
 21
-1711.756694341712
 31
0.0
  0
LINE
  5
1A2
330
1F
100
AcDbEntity
  8
レバー
  6
Continuous
 62
     7
370
     0
100
AcDbLine
 10
-4293.067231042788
 20
-1711.756694341712
 30
0.0
 11
-4294.167902520388
 21
-1711.757558609012
 31
0.0
  0
LINE
  5
1A3
330
1F
100
AcDbEntity
  8
レバー
  6
Continuous
 62
     7
370
     0
100
AcDbLine
 10
-4294.167902520388
 20
-1711.757558609012
 30
0.0
 11
-4294.630227344587
 21
-1711.764148647612
 31
0.0
  0
LINE
  5
1A4
330
1F
100
AcDbEntity
  8
レバー
  6
Continuous
 62
     7
370
     0
100
AcDbLine
 10
-4294.630227344587
 20
-1711.764148647612
 30
0.0
 11
-4294.634146815587
 21
-1711.768228771812
 31
0.0
  0
ARC
  5
1A5
330
1F
100
AcDbEntity
  8
レバー
  6
Continuous
 62
     7
370
     0
100
AcDbCircle
 10
-4184.000018557987
 20
-1713.249984581612
 30
0.0
 40
1.500000000000118
100
AcDbArc
 50
359.9999957463
 51
90.17419294509996
  0
ARC
  5
1A6
330
1F
100
AcDbEntity
  8
レバー
  6
Continuous
 62
     7
370
     0
100
AcDbCircle
 10
-4184.000018557987
 20
-1724.249985155212
 30
0.0
 40
1.500000000000029
100
AcDbArc
 50
269.9105889113
 51
359.9915336725
  0
LINE
  5
1A7
330
1F
100
AcDbEntity
  8
レバー
  6
Continuous
 62
     7
370
     0
100
AcDbLine
 10
-4289.544631926788
 20
-1711.758493191212
 30
0.0
 11
-4290.307630053288
 21
-1710.971810134712
 31
0.0
  0
LINE
  5
1A8
330
1F
100
AcDbEntity
  8
レバー
  6
Continuous
 62
     7
370
     0
100
AcDbLine
 10
-4290.307630053288
 20
-1710.971810134712
 30
0.0
 11
-4292.277605472588
 21
-1709.603818810212
 31
0.0
  0
LINE
  5
1A9
330
1F
100
AcDbEntity
  8
レバー
  6
Continuous
 62
     7
370
     0
100
AcDbLine
 10
-4292.277605472588
 20
-1709.603818810212
 30
0.0
 11
-4294.525134111287
 21
-1708.587310022312
 31
0.0
  0
LINE
  5
1AA
330
1F
100
AcDbEntity
  8
レバー
  6
Continuous
 62
     7
370
     0
100
AcDbLine
 10
-4294.525134111287
 20
-1708.587310022312
 30
0.0
 11
-4296.963844415287
 21
-1707.961346699512
 31
0.0
  0
LINE
  5
1AB
330
1F
100
AcDbEntity
  8
レバー
  6
Continuous
 62
     7
370
     0
100
AcDbLine
 10
-4296.963844415287
 20
-1707.961346699512
 30
0.0
 11
-4299.500018557987
 21
-1707.749984903912
 31
0.0
  0
LINE
  5
1AC
330
1F
100
AcDbEntity
  8
レバー
  6
Continuous
 62
     7
370
     0
100
AcDbLine
 10
-4299.500018557987
 20
-1707.749984903912
 30
0.0
 11
-4302.036192700787
 21
-1707.961346699512
 31
0.0
  0
LINE
  5
1AD
330
1F
100
AcDbEntity
  8
レバー
  6
Continuous
 62
     7
370
     0
100
AcDbLine
 10
-4302.036192700787
 20
-1707.961346699512
 30
0.0
 11
-4304.474903004688
 21
-1708.587310022312
 31
0.0
  0
LINE
  5
1AE
330
1F
100
AcDbEntity
  8
レバー
  6
Continuous
 62
     7
370
     0
100
AcDbLine
 10
-4304.474903004688
 20
-1708.587310022312
 30
0.0
 11
-4306.722431643387
 21
-1709.603818810212
 31
0.0
  0
LINE
  5
1AF
330
1F
100
AcDbEntity
  8
レバー
  6
Continuous
 62
     7
370
     0
100
AcDbLine
 10
-4306.722431643387
 20
-1709.603818810212
 30
0.0
 11
-4308.692407062787
 21
-1710.971810134712
 31
0.0
  0
LINE
  5
1B0
330
1F
100
AcDbEntity
  8
レバー
  6
Continuous
 62
     7
370
     0
100
AcDbLine
 10
-4308.692407062787
 20
-1710.971810134712
 30
0.0
 11
-4310.309123447588
 21
-1712.638712233512
 31
0.0
  0
LINE
  5
1B1
330
1F
100
AcDbEntity
  8
レバー
  6
Continuous
 62
     7
370
     0
100
AcDbLine
 10
-4310.309123447588
 20
-1712.638712233512
 30
0.0
 11
-4311.510452269087
 21
-1714.540466877312
 31
0.0
  0
LINE
  5
1B2
330
1F
100
AcDbEntity
  8
レバー
  6
Continuous
 62
     7
370
     0
100
AcDbLine
 10
-4311.510452269087
 20
-1714.540466877312
 30
0.0
 11
-4312.250226935887
 21
-1716.603991321012
 31
0.0
  0
LINE
  5
1B3
330
1F
100
AcDbEntity
  8
レバー
  6
Continuous
 62
     7
370
     0
100
AcDbLine
 10
-4312.250226935887
 20
-1716.603991321012
 30
0.0
 11
-4312.500018826187
 21
-1718.749984844312
 31
0.0
  0
LINE
  5
1B4
330
1F
100
AcDbEntity
  8
レバー
  6
Continuous
 62
     7
370
     0
100
AcDbLine
 10
-4312.500018826187
 20
-1718.749984844312
 30
0.0
 11
-4312.250226935887
 21
-1720.895978367612
 31
0.0
  0
LINE
  5
1B5
330
1F
100
AcDbEntity
  8
レバー
  6
Continuous
 62
     7
370
     0
100
AcDbLine
 10
-4312.250226935887
 20
-1720.895978367612
 30
0.0
 11
-4311.510452269087
 21
-1722.959502811212
 31
0.0
  0
LINE
  5
1B6
330
1F
100
AcDbEntity
  8
レバー
  6
Continuous
 62
     7
370
     0
100
AcDbLine
 10
-4311.510452269087
 20
-1722.959502811212
 30
0.0
 11
-4310.309123447588
 21
-1724.861257455012
 31
0.0
  0
LINE
  5
1B7
330
1F
100
AcDbEntity
  8
レバー
  6
Continuous
 62
     7
370
     0
100
AcDbLine
 10
-4310.309123447588
 20
-1724.861257455012
 30
0.0
 11
-4308.692407062787
 21
-1726.528159553812
 31
0.0
  0
LINE
  5
1B8
330
1F
100
AcDbEntity
  8
レバー
  6
Continuous
 62
     7
370
     0
100
AcDbLine
 10
-4308.692407062787
 20
-1726.528159553812
 30
0.0
 11
-4306.722431643387
 21
-1727.896150878312
 31
0.0
  0
LINE
  5
1B9
330
1F
100
AcDbEntity
  8
レバー
  6
Continuous
 62
     7
370
     0
100
AcDbLine
 10
-4306.722431643387
 20
-1727.896150878312
 30
0.0
 11
-4304.474903004688
 21
-1728.912659666212
 31
0.0
  0
LINE
  5
1BA
330
1F
100
AcDbEntity
  8
レバー
  6
Continuous
 62
     7
370
     0
100
AcDbLine
 10
-4304.474903004688
 20
-1728.912659666212
 30
0.0
 11
-4302.036192700787
 21
-1729.538622989012
 31
0.0
  0
LINE
  5
1BB
330
1F
100
AcDbEntity
  8
レバー
  6
Continuous
 62
     7
370
     0
100
AcDbLine
 10
-4302.036192700787
 20
-1729.538622989012
 30
0.0
 11
-4299.500018557987
 21
-1729.749984784712
 31
0.0
  0
LINE
  5
1BC
330
1F
100
AcDbEntity
  8
レバー
  6
Continuous
 62
     7
370
     0
100
AcDbLine
 10
-4299.500018557987
 20
-1729.749984784712
 30
0.0
 11
-4296.963844415287
 21
-1729.538622989012
 31
0.0
  0
LINE
  5
1BD
330
1F
100
AcDbEntity
  8
レバー
  6
Continuous
 62
     7
370
     0
100
AcDbLine
 10
-4296.963844415287
 20
-1729.538622989012
 30
0.0
 11
-4294.525134111287
 21
-1728.912659666212
 31
0.0
  0
LINE
  5
1BE
330
1F
100
AcDbEntity
  8
レバー
  6
Continuous
 62
     7
370
     0
100
AcDbLine
 10
-4294.525134111287
 20
-1728.912659666212
 30
0.0
 11
-4292.277605472588
 21
-1727.896150878312
 31
0.0
  0
LINE
  5
1BF
330
1F
100
AcDbEntity
  8
レバー
  6
Continuous
 62
     7
370
     0
100
AcDbLine
 10
-4292.277605472588
 20
-1727.896150878312
 30
0.0
 11
-4290.307630053288
 21
-1726.528159553812
 31
0.0
  0
LINE
  5
1C0
330
1F
100
AcDbEntity
  8
レバー
  6
Continuous
 62
     7
370
     0
100
AcDbLine
 10
-4290.307630053288
 20
-1726.528159553812
 30
0.0
 11
-4289.544726921687
 21
-1725.741574286212
 31
0.0
  0
LINE
  5
1C1
330
1F
100
AcDbEntity
  8
レバー
  6
Continuous
 62
     7
370
     0
100
AcDbLine
 10
-4182.500019869287
 20
-1718.749823710412
 30
0.0
 11
-4182.500019869287
 21
-1724.246960344412
 31
0.0
  0
LINE
  5
1C2
330
1F
100
AcDbEntity
  8
レバー
  6
Continuous
 62
     7
370
     0
100
AcDbLine
 10
-4182.500019869287
 20
-1718.749823710412
 30
0.0
 11
-4182.500019869287
 21
-1713.256739291012
 31
0.0
  0
ARC
  5
1C3
330
1F
100
AcDbEntity
  8
レバー
  6
Continuous
 62
     7
370
     0
100
AcDbCircle
 10
-4299.500018557987
 20
-1718.749984844312
 30
0.0
 40
24.55
100
AcDbArc
 50
16.5995243249
 51
343.3673588443
  0
LINE
  5
1C4
330
1F
100
AcDbEntity
  8
0-C_ハッチ
  6
Continuous
 62
   120
370
     5
100
AcDbLine
 10
-4171.855698078023
 20
3303.000197951859
 30
0.0
 11
-4240.000158773887
 21
3239.903475085318
 31
0.0
  0
LINE
  5
1C5
330
1F
100
AcDbEntity
  8
0-C_ハッチ
  6
Continuous
 62
   120
370
     5
100
AcDbLine
 10
-4135.058959092076
 20
3303.000197951859
 30
0.0
 11
-4240.000158773887
 21
3205.8324204687
 31
0.0
  0
LINE
  5
1C6
330
1F
100
AcDbEntity
  8
0-C_ハッチ
  6
Continuous
 62
   120
370
     5
100
AcDbLine
 10
-4098.262220106128
 20
3303.000197951859
 30
0.0
 11
-4240.000158773887
 21
3171.76136585208
 31
0.0
  0
LINE
  5
1C7
330
1F
100
AcDbEntity
  8
0-C_ハッチ
  6
Continuous
 62
   120
370
     5
100
AcDbLine
 10
-4061.46548112018
 20
3303.000197951859
 30
0.0
 11
-4240.000158773887
 21
3137.690311235462
 31
0.0
  0
LINE
  5
1C8
330
1F
100
AcDbEntity
  8
0-C_ハッチ
  6
Continuous
 62
   120
370
     5
100
AcDbLine
 10
-4208.652437063972
 20
3303.000197951859
 30
0.0
 11
-4240.000158773887
 21
3273.974529701937
 31
0.0
  0
LINE
  5
1C9
330
1F
100
AcDbEntity
  8
0-C_ハッチ
  6
Continuous
 62
   120
370
     5
100
AcDbLine
 10
-3736.999909684466
 20
1627.310114850668
 30
0.0
 11
-3774.054603901078
 21
1593.000212798248
 31
0.0
  0
LINE
  5
1CA
330
1F
100
AcDbEntity
  8
0-C_ハッチ
  6
Continuous
 62
   120
370
     5
100
AcDbLine
 10
-3736.999909684466
 20
1763.594333317143
 30
0.0
 11
-3921.241559844871
 21
1593.000212798248
 31
0.0
  0
LINE
  5
1CB
330
1F
100
AcDbEntity
  8
0-C_ハッチ
  6
Continuous
 62
   120
370
     5
100
AcDbLine
 10
-3736.999909684466
 20
1729.523278700524
 30
0.0
 11
-3884.444820858922
 21
1593.000212798248
 31
0.0
  0
LINE
  5
1CC
330
1F
100
AcDbEntity
  8
0-C_ハッチ
  6
Continuous
 62
   120
370
     5
100
AcDbLine
 10
-3736.999909684466
 20
1695.452224083906
 30
0.0
 11
-3847.648081872975
 21
1593.000212798248
 31
0.0
  0
LINE
  5
1CD
330
1F
100
AcDbEntity
  8
0-C_ハッチ
  6
Continuous
 62
   120
370
     5
100
AcDbLine
 10
-3736.999909684466
 20
1661.381169467287
 30
0.0
 11
-3810.851342887027
 21
1593.000212798248
 31
0.0
  0
LINE
  5
1CE
330
1F
100
AcDbEntity
  8
0-C_ハッチ
  6
Continuous
 62
   120
370
     5
100
AcDbLine
 10
-4464.000018557984
 20
3032.496197507449
 30
0.0
 11
-4654.000158773884
 21
2856.570141751984
 31
0.0
  0
LINE
  5
1CF
330
1F
100
AcDbEntity
  8
0-C_ハッチ
  6
Continuous
 62
   120
370
     5
100
AcDbLine
 10
-4464.000018557984
 20
2998.42514289083
 30
0.0
 11
-4654.000158773884
 21
2822.499087135365
 31
0.0
  0
LINE
  5
1D0
330
1F
100
AcDbEntity
  8
0-C_ハッチ
  6
Continuous
 62
   120
370
     5
100
AcDbLine
 10
-4464.000018557984
 20
2964.354088274212
 30
0.0
 11
-4654.000158773884
 21
2788.428032518746
 31
0.0
  0
LINE
  5
1D1
330
1F
100
AcDbEntity
  8
0-C_ハッチ
  6
Continuous
 62
   120
370
     5
100
AcDbLine
 10
-4464.000018557984
 20
2930.283033657592
 30
0.0
 11
-4654.000158773884
 21
2754.356977902127
 31
0.0
  0
LINE
  5
1D2
330
1F
100
AcDbEntity
  8
0-C_ハッチ
  6
Continuous
 62
   120
370
     5
100
AcDbLine
 10
-4464.000018557984
 20
2896.211979040974
 30
0.0
 11
-4654.000158773884
 21
2720.285923285509
 31
0.0
  0
LINE
  5
1D3
330
1F
100
AcDbEntity
  8
0-C_ハッチ
  6
Continuous
 62
   120
370
     5
100
AcDbLine
 10
-4464.000018557984
 20
2862.140924424355
 30
0.0
 11
-4654.000158773884
 21
2686.21486866889
 31
0.0
  0
LINE
  5
1D4
330
1F
100
AcDbEntity
  8
0-C_ハッチ
  6
Continuous
 62
   120
370
     5
100
AcDbLine
 10
-4464.000018557984
 20
2828.069869807736
 30
0.0
 11
-4654.000158773884
 21
2652.143814052271
 31
0.0
  0
LINE
  5
1D5
330
1F
100
AcDbEntity
  8
0-C_ハッチ
  6
Continuous
 62
   120
370
     5
100
AcDbLine
 10
-4464.000018557984
 20
3066.567252124068
 30
0.0
 11
-4654.000158773884
 21
2890.641196368603
 31
0.0
  0
LINE
  5
1D6
330
1F
100
AcDbEntity
  8
0-C_ハッチ
  6
Continuous
 62
   120
370
     5
100
AcDbLine
 10
-4464.000018557984
 20
3100.638306740686
 30
0.0
 11
-4654.000158773884
 21
2924.712250985221
 31
0.0
  0
LINE
  5
1D7
330
1F
100
AcDbEntity
  8
0-C_ハッチ
  6
Continuous
 62
   120
370
     5
100
AcDbLine
 10
-4464.000018557984
 20
3134.709361357305
 30
0.0
 11
-4654.000158773884
 21
2958.78330560184
 31
0.0
  0
LINE
  5
1D8
330
1F
100
AcDbEntity
  8
0-C_ハッチ
  6
Continuous
 62
   120
370
     5
100
AcDbLine
 10
-4464.000018557984
 20
3168.780415973924
 30
0.0
 11
-4654.000158773884
 21
2992.854360218459
 31
0.0
  0
LINE
  5
1D9
330
1F
100
AcDbEntity
  8
0-C_ハッチ
  6
Continuous
 62
   120
370
     5
100
AcDbLine
 10
-4464.000018557984
 20
3202.851470590543
 30
0.0
 11
-4654.000158773884
 21
3026.925414835078
 31
0.0
  0
LINE
  5
1DA
330
1F
100
AcDbEntity
  8
0-C_ハッチ
  6
Continuous
 62
   120
370
     5
100
AcDbLine
 10
-4464.000018557984
 20
3236.922525207161
 30
0.0
 11
-4654.000158773884
 21
3060.996469451697
 31
0.0
  0
LINE
  5
1DB
330
1F
100
AcDbEntity
  8
0-C_ハッチ
  6
Continuous
 62
   120
370
     5
100
AcDbLine
 10
-4464.000018557984
 20
3270.993579823781
 30
0.0
 11
-4654.000158773884
 21
3095.067524068316
 31
0.0
  0
LINE
  5
1DC
330
1F
100
AcDbEntity
  8
0-C_ハッチ
  6
Continuous
 62
   120
370
     5
100
AcDbLine
 10
-4613.416833144409
 20
3302.999950512036
 30
0.0
 11
-4654.000158773884
 21
3265.42279715141
 31
0.0
  0
LINE
  5
1DD
330
1F
100
AcDbEntity
  8
0-C_ハッチ
  6
Continuous
 62
   120
370
     5
100
AcDbLine
 10
-4466.229877200616
 20
3302.999950512036
 30
0.0
 11
-4654.000158773884
 21
3129.138578684934
 31
0.0
  0
LINE
  5
1DE
330
1F
100
AcDbEntity
  8
0-C_ハッチ
  6
Continuous
 62
   120
370
     5
100
AcDbLine
 10
-4503.026616186564
 20
3302.999950512036
 30
0.0
 11
-4654.000158773884
 21
3163.209633301553
 31
0.0
  0
LINE
  5
1DF
330
1F
100
AcDbEntity
  8
0-C_ハッチ
  6
Continuous
 62
   120
370
     5
100
AcDbLine
 10
-4539.823355172512
 20
3302.999950512036
 30
0.0
 11
-4654.000158773884
 21
3197.280687918172
 31
0.0
  0
LINE
  5
1E0
330
1F
100
AcDbEntity
  8
0-C_ハッチ
  6
Continuous
 62
   120
370
     5
100
AcDbLine
 10
-4576.62009415846
 20
3302.999950512036
 30
0.0
 11
-4654.000158773884
 21
3231.351742534791
 31
0.0
  0
LINE
  5
1E1
330
1F
100
AcDbEntity
  8
0-C_ハッチ
  6
Continuous
 62
   120
370
     5
100
AcDbLine
 10
-4464.000018557984
 20
2793.998815191117
 30
0.0
 11
-4654.000158773884
 21
2618.072759435652
 31
0.0
  0
LINE
  5
1E2
330
1F
100
AcDbEntity
  8
0-C_ハッチ
  6
Continuous
 62
   120
370
     5
100
AcDbLine
 10
-4464.000018557984
 20
2759.927760574498
 30
0.0
 11
-4654.000158773884
 21
2584.001704819033
 31
0.0
  0
LINE
  5
1E3
330
1F
100
AcDbEntity
  8
0-C_ハッチ
  6
Continuous
 62
   120
370
     5
100
AcDbLine
 10
-4464.000018557984
 20
2725.856705957879
 30
0.0
 11
-4654.000158773884
 21
2549.930650202414
 31
0.0
  0
LINE
  5
1E4
330
1F
100
AcDbEntity
  8
0-C_ハッチ
  6
Continuous
 62
   120
370
     5
100
AcDbLine
 10
-4464.000018557984
 20
2691.785651341261
 30
0.0
 11
-4654.000158773884
 21
2515.859595585795
 31
0.0
  0
LINE
  5
1E5
330
1F
100
AcDbEntity
  8
0-C_ハッチ
  6
Continuous
 62
   120
370
     5
100
AcDbLine
 10
-4464.000018557984
 20
2657.714596724642
 30
0.0
 11
-4654.000158773884
 21
2481.788540969176
 31
0.0
  0
LINE
  5
1E6
330
1F
100
AcDbEntity
  8
0-C_ハッチ
  6
Continuous
 62
   120
370
     5
100
AcDbLine
 10
-4464.000018557984
 20
2623.643542108023
 30
0.0
 11
-4654.000158773884
 21
2447.717486352558
 31
0.0
  0
LINE
  5
1E7
330
1F
100
AcDbEntity
  8
0-C_ハッチ
  6
Continuous
 62
   120
370
     5
100
AcDbLine
 10
-4464.000018557984
 20
2589.572487491404
 30
0.0
 11
-4654.000158773884
 21
2413.646431735939
 31
0.0
  0
LINE
  5
1E8
330
1F
100
AcDbEntity
  8
0-C_ハッチ
  6
Continuous
 62
   120
370
     5
100
AcDbLine
 10
-4464.000018557984
 20
2555.501432874785
 30
0.0
 11
-4654.000158773884
 21
2379.57537711932
 31
0.0
  0
LINE
  5
1E9
330
1F
100
AcDbEntity
  8
0-C_ハッチ
  6
Continuous
 62
   120
370
     5
100
AcDbLine
 10
-4464.000018557984
 20
2521.430378258166
 30
0.0
 11
-4654.000158773884
 21
2345.504322502701
 31
0.0
  0
LINE
  5
1EA
330
1F
100
AcDbEntity
  8
0-C_ハッチ
  6
Continuous
 62
   120
370
     5
100
AcDbLine
 10
-4464.000018557984
 20
2487.359323641548
 30
0.0
 11
-4654.000158773884
 21
2311.433267886082
 31
0.0
  0
LINE
  5
1EB
330
1F
100
AcDbEntity
  8
0-C_ハッチ
  6
Continuous
 62
   120
370
     5
100
AcDbLine
 10
-4464.000018557984
 20
2453.288269024928
 30
0.0
 11
-4654.000158773884
 21
2277.362213269463
 31
0.0
  0
LINE
  5
1EC
330
1F
100
AcDbEntity
  8
0-C_ハッチ
  6
Continuous
 62
   120
370
     5
100
AcDbLine
 10
-4464.000018557984
 20
2248.861941325215
 30
0.0
 11
-4654.000158773884
 21
2072.935885569749
 31
0.0
  0
LINE
  5
1ED
330
1F
100
AcDbEntity
  8
0-C_ハッチ
  6
Continuous
 62
   120
370
     5
100
AcDbLine
 10
-4464.000018557984
 20
2419.217214408309
 30
0.0
 11
-4654.000158773884
 21
2243.291158652843
 31
0.0
  0
LINE
  5
1EE
330
1F
100
AcDbEntity
  8
0-C_ハッチ
  6
Continuous
 62
   120
370
     5
100
AcDbLine
 10
-4464.000018557984
 20
2385.14615979169
 30
0.0
 11
-4654.000158773884
 21
2209.220104036225
 31
0.0
  0
LINE
  5
1EF
330
1F
100
AcDbEntity
  8
0-C_ハッチ
  6
Continuous
 62
   120
370
     5
100
AcDbLine
 10
-4464.000018557984
 20
2351.075105175071
 30
0.0
 11
-4654.000158773884
 21
2175.149049419605
 31
0.0
  0
LINE
  5
1F0
330
1F
100
AcDbEntity
  8
0-C_ハッチ
  6
Continuous
 62
   120
370
     5
100
AcDbLine
 10
-4464.000018557984
 20
2317.004050558453
 30
0.0
 11
-4654.000158773884
 21
2141.077994802987
 31
0.0
  0
LINE
  5
1F1
330
1F
100
AcDbEntity
  8
0-C_ハッチ
  6
Continuous
 62
   120
370
     5
100
AcDbLine
 10
-4464.000018557984
 20
2282.932995941834
 30
0.0
 11
-4654.000158773884
 21
2107.006940186368
 31
0.0
  0
LINE
  5
1F2
330
1F
100
AcDbEntity
  8
0-C_ハッチ
  6
Continuous
 62
   120
370
     5
100
AcDbLine
 10
-4464.000018557984
 20
2214.790886708596
 30
0.0
 11
-4654.000158773884
 21
2038.86483095313
 31
0.0
  0
LINE
  5
1F3
330
1F
100
AcDbEntity
  8
0-C_ハッチ
  6
Continuous
 62
   120
370
     5
100
AcDbLine
 10
-4464.000018557984
 20
1908.151395159026
 30
0.0
 11
-4654.000158773884
 21
1732.22533940356
 31
0.0
  0
LINE
  5
1F4
330
1F
100
AcDbEntity
  8
0-C_ハッチ
  6
Continuous
 62
   120
370
     5
100
AcDbLine
 10
-4464.000018557984
 20
2180.719832091977
 30
0.0
 11
-4654.000158773884
 21
2004.793776336511
 31
0.0
  0
LINE
  5
1F5
330
1F
100
AcDbEntity
  8
0-C_ハッチ
  6
Continuous
 62
   120
370
     5
100
AcDbLine
 10
-4464.000018557984
 20
2146.648777475358
 30
0.0
 11
-4654.000158773884
 21
1970.722721719892
 31
0.0
  0
LINE
  5
1F6
330
1F
100
AcDbEntity
  8
0-C_ハッチ
  6
Continuous
 62
   120
370
     5
100
AcDbLine
 10
-4464.000018557984
 20
2112.577722858739
 30
0.0
 11
-4654.000158773884
 21
1936.651667103274
 31
0.0
  0
LINE
  5
1F7
330
1F
100
AcDbEntity
  8
0-C_ハッチ
  6
Continuous
 62
   120
370
     5
100
AcDbLine
 10
-4464.000018557984
 20
2078.50666824212
 30
0.0
 11
-4654.000158773884
 21
1902.580612486654
 31
0.0
  0
LINE
  5
1F8
330
1F
100
AcDbEntity
  8
0-C_ハッチ
  6
Continuous
 62
   120
370
     5
100
AcDbLine
 10
-4464.000018557984
 20
2044.435613625501
 30
0.0
 11
-4654.000158773884
 21
1868.509557870036
 31
0.0
  0
LINE
  5
1F9
330
1F
100
AcDbEntity
  8
0-C_ハッチ
  6
Continuous
 62
   120
370
     5
100
AcDbLine
 10
-4464.000018557984
 20
2010.364559008882
 30
0.0
 11
-4654.000158773884
 21
1834.438503253416
 31
0.0
  0
LINE
  5
1FA
330
1F
100
AcDbEntity
  8
0-C_ハッチ
  6
Continuous
 62
   120
370
     5
100
AcDbLine
 10
-4464.000018557984
 20
1976.293504392264
 30
0.0
 11
-4654.000158773884
 21
1800.367448636798
 31
0.0
  0
LINE
  5
1FB
330
1F
100
AcDbEntity
  8
0-C_ハッチ
  6
Continuous
 62
   120
370
     5
100
AcDbLine
 10
-4464.000018557984
 20
1942.222449775644
 30
0.0
 11
-4654.000158773884
 21
1766.296394020179
 31
0.0
  0
LINE
  5
1FC
330
1F
100
AcDbEntity
  8
0-C_ハッチ
  6
Continuous
 62
   120
370
     5
100
AcDbLine
 10
-4464.000018557984
 20
1874.080340542407
 30
0.0
 11
-4654.000158773884
 21
1698.154284786941
 31
0.0
  0
LINE
  5
1FD
330
1F
100
AcDbEntity
  8
0-C_ハッチ
  6
Continuous
 62
   120
370
     5
100
AcDbLine
 10
-4464.000018557984
 20
1840.009285925788
 30
0.0
 11
-4654.000158773884
 21
1664.083230170322
 31
0.0
  0
LINE
  5
1FE
330
1F
100
AcDbEntity
  8
0-C_ハッチ
  6
Continuous
 62
   120
370
     5
100
AcDbLine
 10
-4464.000018557984
 20
1805.938231309169
 30
0.0
 11
-4654.000158773884
 21
1630.012175553703
 31
0.0
  0
LINE
  5
1FF
330
1F
100
AcDbEntity
  8
0-C_ハッチ
  6
Continuous
 62
   120
370
     5
100
AcDbLine
 10
-4464.000018557984
 20
1635.582958226075
 30
0.0
 11
-4509.989650855045
 21
1592.999965358425
 31
0.0
  0
LINE
  5
200
330
1F
100
AcDbEntity
  8
0-C_ハッチ
  6
Continuous
 62
   120
370
     5
100
AcDbLine
 10
-4464.000018557984
 20
1737.796122075931
 30
0.0
 11
-4620.379867812888
 21
1592.999965358425
 31
0.0
  0
LINE
  5
201
330
1F
100
AcDbEntity
  8
0-C_ハッチ
  6
Continuous
 62
   120
370
     5
100
AcDbLine
 10
-4464.000018557984
 20
1703.725067459312
 30
0.0
 11
-4583.58312882694
 21
1592.999965358425
 31
0.0
  0
LINE
  5
202
330
1F
100
AcDbEntity
  8
0-C_ハッチ
  6
Continuous
 62
   120
370
     5
100
AcDbLine
 10
-4464.000018557984
 20
1669.654012842693
 30
0.0
 11
-4546.786389840992
 21
1592.999965358425
 31
0.0
  0
LINE
  5
203
330
1F
100
AcDbEntity
  8
0-C_ハッチ
  6
Continuous
 62
   120
370
     5
100
AcDbLine
 10
-4197.400125111442
 20
2393.500530666603
 30
0.0
 11
-4240.000158773887
 21
2354.056055053228
 31
0.0
  0
LINE
  5
204
330
1F
100
AcDbEntity
  8
0-C_ハッチ
  6
Continuous
 62
   120
370
     5
100
AcDbLine
 10
-4033.500117533917
 20
3294.822998507706
 30
0.0
 11
-4240.000158773887
 21
3103.619256618842
 31
0.0
  0
LINE
  5
205
330
1F
100
AcDbEntity
  8
0-C_ハッチ
  6
Continuous
 62
   120
370
     5
100
AcDbLine
 10
-3736.999909684466
 20
1797.665387933762
 30
0.0
 11
-3943.500117533917
 21
1606.461491776861
 31
0.0
  0
LINE
  5
206
330
1F
100
AcDbEntity
  8
0-C_ハッチ
  6
Continuous
 62
   120
370
     5
100
AcDbLine
 10
-4033.500117533917
 20
3260.751943891088
 30
0.0
 11
-4240.000158773887
 21
3069.548202002224
 31
0.0
  0
LINE
  5
207
330
1F
100
AcDbEntity
  8
0-C_ハッチ
  6
Continuous
 62
   120
370
     5
100
AcDbLine
 10
-4033.500117533917
 20
3226.680889274468
 30
0.0
 11
-4240.000158773887
 21
3035.477147385605
 31
0.0
  0
LINE
  5
208
330
1F
100
AcDbEntity
  8
0-C_ハッチ
  6
Continuous
 62
   120
370
     5
100
AcDbLine
 10
-3914.278525176388
 20
3303.000197951859
 30
0.0
 11
-3943.500117533917
 21
3275.943167991184
 31
0.0
  0
LINE
  5
209
330
1F
100
AcDbEntity
  8
0-C_ハッチ
  6
Continuous
 62
   120
370
     5
100
AcDbLine
 10
-4033.500117533917
 20
3192.60983465785
 30
0.0
 11
-4240.000158773887
 21
3001.406092768986
 31
0.0
  0
LINE
  5
20A
330
1F
100
AcDbEntity
  8
0-C_ハッチ
  6
Continuous
 62
   120
370
     5
100
AcDbLine
 10
-3877.48178619044
 20
3303.000197951859
 30
0.0
 11
-3943.500117533917
 21
3241.872113374565
 31
0.0
  0
LINE
  5
20B
330
1F
100
AcDbEntity
  8
0-C_ハッチ
  6
Continuous
 62
   120
370
     5
100
AcDbLine
 10
-4033.500117533917
 20
3158.538780041231
 30
0.0
 11
-4240.000158773887
 21
2967.335038152368
 31
0.0
  0
LINE
  5
20C
330
1F
100
AcDbEntity
  8
0-C_ハッチ
  6
Continuous
 62
   120
370
     5
100
AcDbLine
 10
-3840.685047204493
 20
3303.000197951859
 30
0.0
 11
-3943.500117533917
 21
3207.801058757947
 31
0.0
  0
LINE
  5
20D
330
1F
100
AcDbEntity
  8
0-C_ハッチ
  6
Continuous
 62
   120
370
     5
100
AcDbLine
 10
-4033.500117533917
 20
3124.467725424613
 30
0.0
 11
-4240.000158773887
 21
2933.263983535749
 31
0.0
  0
LINE
  5
20E
330
1F
100
AcDbEntity
  8
0-C_ハッチ
  6
Continuous
 62
   120
370
     5
100
AcDbLine
 10
-3803.888308218544
 20
3303.000197951859
 30
0.0
 11
-3943.500117533917
 21
3173.730004141328
 31
0.0
  0
LINE
  5
20F
330
1F
100
AcDbEntity
  8
0-C_ハッチ
  6
Continuous
 62
   120
370
     5
100
AcDbLine
 10
-4033.500117533917
 20
3090.396670807993
 30
0.0
 11
-4240.000158773887
 21
2899.19292891913
 31
0.0
  0
LINE
  5
210
330
1F
100
AcDbEntity
  8
0-C_ハッチ
  6
Continuous
 62
   120
370
     5
100
AcDbLine
 10
-3767.091569232596
 20
3303.000197951859
 30
0.0
 11
-3943.500117533917
 21
3139.658949524709
 31
0.0
  0
LINE
  5
211
330
1F
100
AcDbEntity
  8
0-C_ハッチ
  6
Continuous
 62
   120
370
     5
100
AcDbLine
 10
-4033.500117533917
 20
3056.325616191374
 30
0.0
 11
-4240.000158773887
 21
2865.121874302511
 31
0.0
  0
LINE
  5
212
330
1F
100
AcDbEntity
  8
0-C_ハッチ
  6
Continuous
 62
   120
370
     5
100
AcDbLine
 10
-3736.999909684466
 20
3296.791791064991
 30
0.0
 11
-3943.500117533917
 21
3105.587894908089
 31
0.0
  0
LINE
  5
213
330
1F
100
AcDbEntity
  8
0-C_ハッチ
  6
Continuous
 62
   120
370
     5
100
AcDbLine
 10
-4033.500117533917
 20
3022.254561574755
 30
0.0
 11
-4240.000158773887
 21
2831.050819685892
 31
0.0
  0
LINE
  5
214
330
1F
100
AcDbEntity
  8
0-C_ハッチ
  6
Continuous
 62
   120
370
     5
100
AcDbLine
 10
-3736.999909684466
 20
3262.720736448372
 30
0.0
 11
-3943.500117533917
 21
3071.516840291471
 31
0.0
  0
LINE
  5
215
330
1F
100
AcDbEntity
  8
0-C_ハッチ
  6
Continuous
 62
   120
370
     5
100
AcDbLine
 10
-4033.500117533917
 20
2988.183506958136
 30
0.0
 11
-4240.000158773887
 21
2796.979765069273
 31
0.0
  0
LINE
  5
216
330
1F
100
AcDbEntity
  8
0-C_ハッチ
  6
Continuous
 62
   120
370
     5
100
AcDbLine
 10
-3736.999909684466
 20
3228.649681831753
 30
0.0
 11
-3943.500117533917
 21
3037.445785674852
 31
0.0
  0
LINE
  5
217
330
1F
100
AcDbEntity
  8
0-C_ハッチ
  6
Continuous
 62
   120
370
     5
100
AcDbLine
 10
-4033.500117533917
 20
2954.112452341518
 30
0.0
 11
-4240.000158773887
 21
2762.908710452654
 31
0.0
  0
LINE
  5
218
330
1F
100
AcDbEntity
  8
0-C_ハッチ
  6
Continuous
 62
   120
370
     5
100
AcDbLine
 10
-3736.999909684466
 20
3194.578627215134
 30
0.0
 11
-3943.500117533917
 21
3003.374731058233
 31
0.0
  0
LINE
  5
219
330
1F
100
AcDbEntity
  8
0-C_ハッチ
  6
Continuous
 62
   120
370
     5
100
AcDbLine
 10
-4033.500117533917
 20
2920.041397724899
 30
0.0
 11
-4240.000158773887
 21
2728.837655836035
 31
0.0
  0
LINE
  5
21A
330
1F
100
AcDbEntity
  8
0-C_ハッチ
  6
Continuous
 62
   120
370
     5
100
AcDbLine
 10
-3736.999909684466
 20
3160.507572598515
 30
0.0
 11
-3943.500117533917
 21
2969.303676441614
 31
0.0
  0
LINE
  5
21B
330
1F
100
AcDbEntity
  8
0-C_ハッチ
  6
Continuous
 62
   120
370
     5
100
AcDbLine
 10
-4033.500117533917
 20
2885.97034310828
 30
0.0
 11
-4240.000158773887
 21
2694.766601219417
 31
0.0
  0
LINE
  5
21C
330
1F
100
AcDbEntity
  8
0-C_ハッチ
  6
Continuous
 62
   120
370
     5
100
AcDbLine
 10
-3736.999909684466
 20
3126.436517981896
 30
0.0
 11
-3943.500117533917
 21
2935.232621824995
 31
0.0
  0
LINE
  5
21D
330
1F
100
AcDbEntity
  8
0-C_ハッチ
  6
Continuous
 62
   120
370
     5
100
AcDbLine
 10
-4033.500117533917
 20
2851.899288491661
 30
0.0
 11
-4240.000158773887
 21
2660.695546602798
 31
0.0
  0
LINE
  5
21E
330
1F
100
AcDbEntity
  8
0-C_ハッチ
  6
Continuous
 62
   120
370
     5
100
AcDbLine
 10
-3736.999909684466
 20
3092.365463365278
 30
0.0
 11
-3943.500117533917
 21
2901.161567208377
 31
0.0
  0
LINE
  5
21F
330
1F
100
AcDbEntity
  8
0-C_ハッチ
  6
Continuous
 62
   120
370
     5
100
AcDbLine
 10
-4033.500117533917
 20
2817.828233875042
 30
0.0
 11
-4240.000158773887
 21
2626.624491986179
 31
0.0
  0
LINE
  5
220
330
1F
100
AcDbEntity
  8
0-C_ハッチ
  6
Continuous
 62
   120
370
     5
100
AcDbLine
 10
-3736.999909684466
 20
3058.294408748658
 30
0.0
 11
-3943.500117533917
 21
2867.090512591757
 31
0.0
  0
LINE
  5
221
330
1F
100
AcDbEntity
  8
0-C_ハッチ
  6
Continuous
 62
   120
370
     5
100
AcDbLine
 10
-4033.500117533917
 20
2783.757179258423
 30
0.0
 11
-4240.000158773887
 21
2592.55343736956
 31
0.0
  0
LINE
  5
222
330
1F
100
AcDbEntity
  8
0-C_ハッチ
  6
Continuous
 62
   120
370
     5
100
AcDbLine
 10
-3736.999909684466
 20
3024.22335413204
 30
0.0
 11
-3943.500117533917
 21
2833.019457975139
 31
0.0
  0
LINE
  5
223
330
1F
100
AcDbEntity
  8
0-C_ハッチ
  6
Continuous
 62
   120
370
     5
100
AcDbLine
 10
-4033.500117533917
 20
2749.686124641805
 30
0.0
 11
-4240.000158773887
 21
2558.482382752941
 31
0.0
  0
LINE
  5
224
330
1F
100
AcDbEntity
  8
0-C_ハッチ
  6
Continuous
 62
   120
370
     5
100
AcDbLine
 10
-3736.999909684466
 20
2990.152299515421
 30
0.0
 11
-3943.500117533917
 21
2798.948403358519
 31
0.0
  0
LINE
  5
225
330
1F
100
AcDbEntity
  8
0-C_ハッチ
  6
Continuous
 62
   120
370
     5
100
AcDbLine
 10
-4033.500117533917
 20
2715.615070025186
 30
0.0
 11
-4240.000158773887
 21
2524.411328136322
 31
0.0
  0
LINE
  5
226
330
1F
100
AcDbEntity
  8
0-C_ハッチ
  6
Continuous
 62
   120
370
     5
100
AcDbLine
 10
-3736.999909684466
 20
2956.081244898802
 30
0.0
 11
-3943.500117533917
 21
2764.877348741901
 31
0.0
  0
LINE
  5
227
330
1F
100
AcDbEntity
  8
0-C_ハッチ
  6
Continuous
 62
   120
370
     5
100
AcDbLine
 10
-4033.500117533917
 20
2681.544015408567
 30
0.0
 11
-4240.000158773887
 21
2490.340273519704
 31
0.0
  0
LINE
  5
228
330
1F
100
AcDbEntity
  8
0-C_ハッチ
  6
Continuous
 62
   120
370
     5
100
AcDbLine
 10
-3736.999909684466
 20
2922.010190282183
 30
0.0
 11
-3943.500117533917
 21
2730.806294125281
 31
0.0
  0
LINE
  5
229
330
1F
100
AcDbEntity
  8
0-C_ハッチ
  6
Continuous
 62
   120
370
     5
100
AcDbLine
 10
-4033.500117533917
 20
2647.472960791947
 30
0.0
 11
-4240.000158773887
 21
2456.269218903084
 31
0.0
  0
LINE
  5
22A
330
1F
100
AcDbEntity
  8
0-C_ハッチ
  6
Continuous
 62
   120
370
     5
100
AcDbLine
 10
-3736.999909684466
 20
2887.939135665564
 30
0.0
 11
-3943.500117533917
 21
2696.735239508663
 31
0.0
  0
LINE
  5
22B
330
1F
100
AcDbEntity
  8
0-C_ハッチ
  6
Continuous
 62
   120
370
     5
100
AcDbLine
 10
-4033.500117533917
 20
2613.401906175329
 30
0.0
 11
-4240.000158773887
 21
2422.198164286466
 31
0.0
  0
LINE
  5
22C
330
1F
100
AcDbEntity
  8
0-C_ハッチ
  6
Continuous
 62
   120
370
     5
100
AcDbLine
 10
-3736.999909684466
 20
2785.725971815707
 30
0.0
 11
-3943.500117533917
 21
2594.522075658807
 31
0.0
  0
LINE
  5
22D
330
1F
100
AcDbEntity
  8
0-C_ハッチ
  6
Continuous
 62
   120
370
     5
100
AcDbLine
 10
-4033.500117533917
 20
2511.188742325472
 30
0.0
 11
-4240.000158773887
 21
2319.985000436609
 31
0.0
  0
LINE
  5
22E
330
1F
100
AcDbEntity
  8
0-C_ハッチ
  6
Continuous
 62
   120
370
     5
100
AcDbLine
 10
-3736.999909684466
 20
2751.654917199089
 30
0.0
 11
-3943.500117533917
 21
2560.451021042188
 31
0.0
  0
LINE
  5
22F
330
1F
100
AcDbEntity
  8
0-C_ハッチ
  6
Continuous
 62
   120
370
     5
100
AcDbLine
 10
-4033.500117533917
 20
2477.117687708854
 30
0.0
 11
-4240.000158773887
 21
2285.91394581999
 31
0.0
  0
LINE
  5
230
330
1F
100
AcDbEntity
  8
0-C_ハッチ
  6
Continuous
 62
   120
370
     5
100
AcDbLine
 10
-3736.999909684466
 20
2717.58386258247
 30
0.0
 11
-3943.500117533917
 21
2526.379966425569
 31
0.0
  0
LINE
  5
231
330
1F
100
AcDbEntity
  8
0-C_ハッチ
  6
Continuous
 62
   120
370
     5
100
AcDbLine
 10
-4033.500117533917
 20
2443.046633092235
 30
0.0
 11
-4240.000158773887
 21
2251.842891203371
 31
0.0
  0
LINE
  5
232
330
1F
100
AcDbEntity
  8
0-C_ハッチ
  6
Continuous
 62
   120
370
     5
100
AcDbLine
 10
-3736.999909684466
 20
2683.512807965851
 30
0.0
 11
-3943.500117533917
 21
2492.308911808951
 31
0.0
  0
LINE
  5
233
330
1F
100
AcDbEntity
  8
0-C_ハッチ
  6
Continuous
 62
   120
370
     5
100
AcDbLine
 10
-4033.500117533917
 20
2408.975578475616
 30
0.0
 11
-4240.000158773887
 21
2217.771836586753
 31
0.0
  0
LINE
  5
234
330
1F
100
AcDbEntity
  8
0-C_ハッチ
  6
Continuous
 62
   120
370
     5
100
AcDbLine
 10
-3736.999909684466
 20
2649.441753349232
 30
0.0
 11
-3943.500117533917
 21
2458.237857192331
 31
0.0
  0
LINE
  5
235
330
1F
100
AcDbEntity
  8
0-C_ハッチ
  6
Continuous
 62
   120
370
     5
100
AcDbLine
 10
-4033.500117533917
 20
2374.904523858997
 30
0.0
 11
-4240.000158773887
 21
2183.700781970133
 31
0.0
  0
LINE
  5
236
330
1F
100
AcDbEntity
  8
0-C_ハッチ
  6
Continuous
 62
   120
370
     5
100
AcDbLine
 10
-3736.999909684466
 20
2615.370698732614
 30
0.0
 11
-3943.500117533917
 21
2424.166802575713
 31
0.0
  0
LINE
  5
237
330
1F
100
AcDbEntity
  8
0-C_ハッチ
  6
Continuous
 62
   120
370
     5
100
AcDbLine
 10
-4033.500117533917
 20
2340.833469242379
 30
0.0
 11
-4240.000158773887
 21
2149.629727353515
 31
0.0
  0
LINE
  5
238
330
1F
100
AcDbEntity
  8
0-C_ハッチ
  6
Continuous
 62
   120
370
     5
100
AcDbLine
 10
-3736.999909684466
 20
2581.299644115994
 30
0.0
 11
-3943.500117533917
 21
2390.095747959093
 31
0.0
  0
LINE
  5
239
330
1F
100
AcDbEntity
  8
0-C_ハッチ
  6
Continuous
 62
   120
370
     5
100
AcDbLine
 10
-4033.500117533917
 20
2306.762414625759
 30
0.0
 11
-4240.000158773887
 21
2115.558672736896
 31
0.0
  0
LINE
  5
23A
330
1F
100
AcDbEntity
  8
0-C_ハッチ
  6
Continuous
 62
   120
370
     5
100
AcDbLine
 10
-3736.999909684466
 20
2547.228589499377
 30
0.0
 11
-3943.500117533917
 21
2356.024693342475
 31
0.0
  0
LINE
  5
23B
330
1F
100
AcDbEntity
  8
0-C_ハッチ
  6
Continuous
 62
   120
370
     5
100
AcDbLine
 10
-4033.500117533917
 20
2272.691360009141
 30
0.0
 11
-4240.000158773887
 21
2081.487618120277
 31
0.0
  0
LINE
  5
23C
330
1F
100
AcDbEntity
  8
0-C_ハッチ
  6
Continuous
 62
   120
370
     5
100
AcDbLine
 10
-3736.999909684466
 20
2513.157534882757
 30
0.0
 11
-3943.500117533917
 21
2321.953638725857
 31
0.0
  0
LINE
  5
23D
330
1F
100
AcDbEntity
  8
0-C_ハッチ
  6
Continuous
 62
   120
370
     5
100
AcDbLine
 10
-4033.500117533917
 20
2238.620305392523
 30
0.0
 11
-4240.000158773887
 21
2047.41656350366
 31
0.0
  0
LINE
  5
23E
330
1F
100
AcDbEntity
  8
0-C_ハッチ
  6
Continuous
 62
   120
370
     5
100
AcDbLine
 10
-3736.999909684466
 20
2479.086480266139
 30
0.0
 11
-3943.500117533917
 21
2287.882584109238
 31
0.0
  0
LINE
  5
23F
330
1F
100
AcDbEntity
  8
0-C_ハッチ
  6
Continuous
 62
   120
370
     5
100
AcDbLine
 10
-4033.500117533917
 20
2204.549250775904
 30
0.0
 11
-4240.000158773887
 21
2013.345508887041
 31
0.0
  0
LINE
  5
240
330
1F
100
AcDbEntity
  8
0-C_ハッチ
  6
Continuous
 62
   120
370
     5
100
AcDbLine
 10
-3736.999909684466
 20
2445.01542564952
 30
0.0
 11
-3943.500117533917
 21
2253.811529492619
 31
0.0
  0
LINE
  5
241
330
1F
100
AcDbEntity
  8
0-C_ハッチ
  6
Continuous
 62
   120
370
     5
100
AcDbLine
 10
-4033.500117533917
 20
2170.478196159284
 30
0.0
 11
-4240.000158773887
 21
1979.274454270422
 31
0.0
  0
LINE
  5
242
330
1F
100
AcDbEntity
  8
0-C_ハッチ
  6
Continuous
 62
   120
370
     5
100
AcDbLine
 10
-3736.999909684466
 20
2410.944371032901
 30
0.0
 11
-3943.500117533917
 21
2219.740474876
 31
0.0
  0
LINE
  5
243
330
1F
100
AcDbEntity
  8
0-C_ハッチ
  6
Continuous
 62
   120
370
     5
100
AcDbLine
 10
-4033.500117533917
 20
2136.407141542666
 30
0.0
 11
-4240.000158773887
 21
1945.203399653803
 31
0.0
  0
LINE
  5
244
330
1F
100
AcDbEntity
  8
0-C_ハッチ
  6
Continuous
 62
   120
370
     5
100
AcDbLine
 10
-3736.999909684466
 20
2376.873316416282
 30
0.0
 11
-3943.500117533917
 21
2185.669420259381
 31
0.0
  0
LINE
  5
245
330
1F
100
AcDbEntity
  8
0-C_ハッチ
  6
Continuous
 62
   120
370
     5
100
AcDbLine
 10
-4033.500117533917
 20
2102.336086926047
 30
0.0
 11
-4240.000158773887
 21
1911.132345037184
 31
0.0
  0
LINE
  5
246
330
1F
100
AcDbEntity
  8
0-C_ハッチ
  6
Continuous
 62
   120
370
     5
100
AcDbLine
 10
-3736.999909684466
 20
2342.802261799663
 30
0.0
 11
-3943.500117533917
 21
2151.598365642762
 31
0.0
  0
LINE
  5
247
330
1F
100
AcDbEntity
  8
0-C_ハッチ
  6
Continuous
 62
   120
370
     5
100
AcDbLine
 10
-4033.500117533917
 20
2068.265032309429
 30
0.0
 11
-4240.000158773887
 21
1877.061290420565
 31
0.0
  0
LINE
  5
248
330
1F
100
AcDbEntity
  8
0-C_ハッチ
  6
Continuous
 62
   120
370
     5
100
AcDbLine
 10
-3736.999909684466
 20
2308.731207183044
 30
0.0
 11
-3943.500117533917
 21
2117.527311026144
 31
0.0
  0
LINE
  5
249
330
1F
100
AcDbEntity
  8
0-C_ハッチ
  6
Continuous
 62
   120
370
     5
100
AcDbLine
 10
-4033.500117533917
 20
2034.19397769281
 30
0.0
 11
-4240.000158773887
 21
1842.990235803947
 31
0.0
  0
LINE
  5
24A
330
1F
100
AcDbEntity
  8
0-C_ハッチ
  6
Continuous
 62
   120
370
     5
100
AcDbLine
 10
-3736.999909684466
 20
2274.660152566425
 30
0.0
 11
-3943.500117533917
 21
2083.456256409525
 31
0.0
  0
LINE
  5
24B
330
1F
100
AcDbEntity
  8
0-C_ハッチ
  6
Continuous
 62
   120
370
     5
100
AcDbLine
 10
-4033.500117533917
 20
2000.122923076191
 30
0.0
 11
-4240.000158773887
 21
1808.919181187328
 31
0.0
  0
LINE
  5
24C
330
1F
100
AcDbEntity
  8
0-C_ハッチ
  6
Continuous
 62
   120
370
     5
100
AcDbLine
 10
-3736.999909684466
 20
2070.233824866712
 30
0.0
 11
-3943.500117533917
 21
1879.029928709812
 31
0.0
  0
LINE
  5
24D
330
1F
100
AcDbEntity
  8
0-C_ハッチ
  6
Continuous
 62
   120
370
     5
100
AcDbLine
 10
-4033.500117533917
 20
1795.696595376478
 30
0.0
 11
-4240.000158773887
 21
1604.492853487615
 31
0.0
  0
LINE
  5
24E
330
1F
100
AcDbEntity
  8
0-C_ハッチ
  6
Continuous
 62
   120
370
     5
100
AcDbLine
 10
-3736.999909684466
 20
2240.589097949807
 30
0.0
 11
-3943.500117533917
 21
2049.385201792906
 31
0.0
  0
LINE
  5
24F
330
1F
100
AcDbEntity
  8
0-C_ハッチ
  6
Continuous
 62
   120
370
     5
100
AcDbLine
 10
-4033.500117533917
 20
1966.051868459572
 30
0.0
 11
-4240.000158773887
 21
1774.848126570709
 31
0.0
  0
LINE
  5
250
330
1F
100
AcDbEntity
  8
0-C_ハッチ
  6
Continuous
 62
   120
370
     5
100
AcDbLine
 10
-3736.999909684466
 20
2206.518043333189
 30
0.0
 11
-3943.500117533917
 21
2015.314147176287
 31
0.0
  0
LINE
  5
251
330
1F
100
AcDbEntity
  8
0-C_ハッチ
  6
Continuous
 62
   120
370
     5
100
AcDbLine
 10
-4033.500117533917
 20
1931.980813842953
 30
0.0
 11
-4240.000158773887
 21
1740.77707195409
 31
0.0
  0
LINE
  5
252
330
1F
100
AcDbEntity
  8
0-C_ハッチ
  6
Continuous
 62
   120
370
     5
100
AcDbLine
 10
-3736.999909684466
 20
2172.446988716569
 30
0.0
 11
-3943.500117533917
 21
1981.243092559668
 31
0.0
  0
LINE
  5
253
330
1F
100
AcDbEntity
  8
0-C_ハッチ
  6
Continuous
 62
   120
370
     5
100
AcDbLine
 10
-4033.500117533917
 20
1897.909759226334
 30
0.0
 11
-4240.000158773887
 21
1706.706017337471
 31
0.0
  0
LINE
  5
254
330
1F
100
AcDbEntity
  8
0-C_ハッチ
  6
Continuous
 62
   120
370
     5
100
AcDbLine
 10
-3736.999909684466
 20
2138.37593409995
 30
0.0
 11
-3943.500117533917
 21
1947.17203794305
 31
0.0
  0
LINE
  5
255
330
1F
100
AcDbEntity
  8
0-C_ハッチ
  6
Continuous
 62
   120
370
     5
100
AcDbLine
 10
-4033.500117533917
 20
1863.838704609715
 30
0.0
 11
-4240.000158773887
 21
1672.634962720852
 31
0.0
  0
LINE
  5
256
330
1F
100
AcDbEntity
  8
0-C_ハッチ
  6
Continuous
 62
   120
370
     5
100
AcDbLine
 10
-3736.999909684466
 20
2104.304879483331
 30
0.0
 11
-3943.500117533917
 21
1913.10098332643
 31
0.0
  0
LINE
  5
257
330
1F
100
AcDbEntity
  8
0-C_ハッチ
  6
Continuous
 62
   120
370
     5
100
AcDbLine
 10
-4033.500117533917
 20
1829.767649993096
 30
0.0
 11
-4240.000158773887
 21
1638.563908104233
 31
0.0
  0
LINE
  5
258
330
1F
100
AcDbEntity
  8
0-C_ハッチ
  6
Continuous
 62
   120
370
     5
100
AcDbLine
 10
-3736.999909684466
 20
2036.162770250093
 30
0.0
 11
-3943.500117533917
 21
1844.958874093193
 31
0.0
  0
LINE
  5
259
330
1F
100
AcDbEntity
  8
0-C_ハッチ
  6
Continuous
 62
   120
370
     5
100
AcDbLine
 10
-4033.500117533917
 20
1761.625540759859
 30
0.0
 11
-4215.615471732455
 21
1593.000212798248
 31
0.0
  0
LINE
  5
25A
330
1F
100
AcDbEntity
  8
0-C_ハッチ
  6
Continuous
 62
   120
370
     5
100
AcDbLine
 10
-3736.999909684466
 20
2002.091715633475
 30
0.0
 11
-3943.500117533917
 21
1810.887819476574
 31
0.0
  0
LINE
  5
25B
330
1F
100
AcDbEntity
  8
0-C_ハッチ
  6
Continuous
 62
   120
370
     5
100
AcDbLine
 10
-4033.500117533917
 20
1727.55448614324
 30
0.0
 11
-4178.818732746508
 21
1593.000212798248
 31
0.0
  0
LINE
  5
25C
330
1F
100
AcDbEntity
  8
0-C_ハッチ
  6
Continuous
 62
   120
370
     5
100
AcDbLine
 10
-3736.999909684466
 20
1968.020661016856
 30
0.0
 11
-3943.500117533917
 21
1776.816764859955
 31
0.0
  0
LINE
  5
25D
330
1F
100
AcDbEntity
  8
0-C_ハッチ
  6
Continuous
 62
   120
370
     5
100
AcDbLine
 10
-4033.500117533917
 20
1693.483431526622
 30
0.0
 11
-4142.02199376056
 21
1593.000212798248
 31
0.0
  0
LINE
  5
25E
330
1F
100
AcDbEntity
  8
0-C_ハッチ
  6
Continuous
 62
   120
370
     5
100
AcDbLine
 10
-3736.999909684466
 20
1933.949606400237
 30
0.0
 11
-3943.500117533917
 21
1742.745710243336
 31
0.0
  0
LINE
  5
25F
330
1F
100
AcDbEntity
  8
0-C_ハッチ
  6
Continuous
 62
   120
370
     5
100
AcDbLine
 10
-4033.500117533917
 20
1659.412376910003
 30
0.0
 11
-4105.225254774611
 21
1593.000212798248
 31
0.0
  0
LINE
  5
260
330
1F
100
AcDbEntity
  8
0-C_ハッチ
  6
Continuous
 62
   120
370
     5
100
AcDbLine
 10
-3736.999909684466
 20
1899.878551783618
 30
0.0
 11
-3943.500117533917
 21
1708.674655626718
 31
0.0
  0
LINE
  5
261
330
1F
100
AcDbEntity
  8
0-C_ハッチ
  6
Continuous
 62
   120
370
     5
100
AcDbLine
 10
-4033.500117533917
 20
1625.341322293384
 30
0.0
 11
-4068.428515788663
 21
1593.000212798248
 31
0.0
  0
LINE
  5
262
330
1F
100
AcDbEntity
  8
0-C_ハッチ
  6
Continuous
 62
   120
370
     5
100
AcDbLine
 10
-3736.999909684466
 20
1865.807497167
 30
0.0
 11
-3943.500117533917
 21
1674.603601010099
 31
0.0
  0
LINE
  5
263
330
1F
100
AcDbEntity
  8
0-C_ハッチ
  6
Continuous
 62
   120
370
     5
100
AcDbLine
 10
-3736.999909684466
 20
1831.736442550381
 30
0.0
 11
-3943.500117533917
 21
1640.53254639348
 31
0.0
  0
LINE
  5
264
330
1F
100
AcDbEntity
  8
0-C_ハッチ
  6
Continuous
 62
   120
370
     5
100
AcDbLine
 10
-3736.999909684466
 20
2853.868081048945
 30
0.0
 11
-3943.500117533917
 21
2662.664184892044
 31
0.0
  0
LINE
  5
265
330
1F
100
AcDbEntity
  8
0-C_ハッチ
  6
Continuous
 62
   120
370
     5
100
AcDbLine
 10
-3736.999909684466
 20
2819.797026432327
 30
0.0
 11
-3943.500117533917
 21
2628.593130275426
 31
0.0
  0
LINE
  5
266
330
1F
100
AcDbEntity
  8
0-C_ハッチ
  6
Continuous
 62
   120
370
     5
100
AcDbLine
 10
-4033.500117533917
 20
2545.259796942091
 30
0.0
 11
-4182.854602554455
 21
2406.968607108259
 31
0.0
  0
LINE
  5
267
330
1F
100
AcDbEntity
  8
0-C_ハッチ
  6
Continuous
 62
   120
370
     5
100
AcDbLine
 10
-4171.855698078023
 20
-631.2500343322769
 30
0.0
 11
-4240.000158773887
 21
-694.3467571988175
 31
0.0
  0
LINE
  5
268
330
1F
100
AcDbEntity
  8
0-C_ハッチ
  6
Continuous
 62
   120
370
     5
100
AcDbLine
 10
-4135.058959092076
 20
-631.2500343322769
 30
0.0
 11
-4240.000158773887
 21
-728.4178118154364
 31
0.0
  0
LINE
  5
269
330
1F
100
AcDbEntity
  8
0-C_ハッチ
  6
Continuous
 62
   120
370
     5
100
AcDbLine
 10
-4098.262220106128
 20
-631.2500343322769
 30
0.0
 11
-4240.000158773887
 21
-762.4888664320556
 31
0.0
  0
LINE
  5
26A
330
1F
100
AcDbEntity
  8
0-C_ハッチ
  6
Continuous
 62
   120
370
     5
100
AcDbLine
 10
-4061.46548112018
 20
-631.2500343322769
 30
0.0
 11
-4240.000158773887
 21
-796.5599210486741
 31
0.0
  0
LINE
  5
26B
330
1F
100
AcDbEntity
  8
0-C_ハッチ
  6
Continuous
 62
   120
370
     5
100
AcDbLine
 10
-4208.652437063972
 20
-631.2500343322769
 30
0.0
 11
-4240.000158773887
 21
-660.2757025821991
 31
0.0
  0
LINE
  5
26C
330
1F
100
AcDbEntity
  8
0-C_ハッチ
  6
Continuous
 62
   120
370
     5
100
AcDbLine
 10
-4464.000018557984
 20
-901.7540347766865
 30
0.0
 11
-4654.000158773884
 21
-1077.680090532152
 31
0.0
  0
LINE
  5
26D
330
1F
100
AcDbEntity
  8
0-C_ハッチ
  6
Continuous
 62
   120
370
     5
100
AcDbLine
 10
-4464.000018557984
 20
-935.8250893933058
 30
0.0
 11
-4654.000158773884
 21
-1111.751145148771
 31
0.0
  0
LINE
  5
26E
330
1F
100
AcDbEntity
  8
0-C_ハッチ
  6
Continuous
 62
   120
370
     5
100
AcDbLine
 10
-4464.000018557984
 20
-969.8961440099242
 30
0.0
 11
-4654.000158773884
 21
-1145.82219976539
 31
0.0
  0
LINE
  5
26F
330
1F
100
AcDbEntity
  8
0-C_ハッチ
  6
Continuous
 62
   120
370
     5
100
AcDbLine
 10
-4464.000018557984
 20
-1003.967198626543
 30
0.0
 11
-4654.000158773884
 21
-1179.893254382009
 31
0.0
  0
LINE
  5
270
330
1F
100
AcDbEntity
  8
0-C_ハッチ
  6
Continuous
 62
   120
370
     5
100
AcDbLine
 10
-4464.000018557984
 20
-1038.038253243162
 30
0.0
 11
-4654.000158773884
 21
-1213.964308998627
 31
0.0
  0
LINE
  5
271
330
1F
100
AcDbEntity
  8
0-C_ハッチ
  6
Continuous
 62
   120
370
     5
100
AcDbLine
 10
-4464.000018557984
 20
-1072.109307859781
 30
0.0
 11
-4654.000158773884
 21
-1248.035363615246
 31
0.0
  0
LINE
  5
272
330
1F
100
AcDbEntity
  8
0-C_ハッチ
  6
Continuous
 62
   120
370
     5
100
AcDbLine
 10
-4464.000018557984
 20
-1106.1803624764
 30
0.0
 11
-4654.000158773884
 21
-1282.106418231865
 31
0.0
  0
LINE
  5
273
330
1F
100
AcDbEntity
  8
0-C_ハッチ
  6
Continuous
 62
   120
370
     5
100
AcDbLine
 10
-4464.000018557984
 20
-867.6829801600682
 30
0.0
 11
-4654.000158773884
 21
-1043.609035915533
 31
0.0
  0
LINE
  5
274
330
1F
100
AcDbEntity
  8
0-C_ハッチ
  6
Continuous
 62
   120
370
     5
100
AcDbLine
 10
-4464.000018557984
 20
-833.6119255434496
 30
0.0
 11
-4654.000158773884
 21
-1009.537981298915
 31
0.0
  0
LINE
  5
275
330
1F
100
AcDbEntity
  8
0-C_ハッチ
  6
Continuous
 62
   120
370
     5
100
AcDbLine
 10
-4464.000018557984
 20
-799.5408709268304
 30
0.0
 11
-4654.000158773884
 21
-975.4669266822954
 31
0.0
  0
LINE
  5
276
330
1F
100
AcDbEntity
  8
0-C_ハッチ
  6
Continuous
 62
   120
370
     5
100
AcDbLine
 10
-4464.000018557984
 20
-765.469816310212
 30
0.0
 11
-4654.000158773884
 21
-941.3958720656769
 31
0.0
  0
LINE
  5
277
330
1F
100
AcDbEntity
  8
0-C_ハッチ
  6
Continuous
 62
   120
370
     5
100
AcDbLine
 10
-4464.000018557984
 20
-731.3987616935926
 30
0.0
 11
-4654.000158773884
 21
-907.3248174490577
 31
0.0
  0
LINE
  5
278
330
1F
100
AcDbEntity
  8
0-C_ハッチ
  6
Continuous
 62
   120
370
     5
100
AcDbLine
 10
-4464.000018557984
 20
-697.3277070769743
 30
0.0
 11
-4654.000158773884
 21
-873.2537628324393
 31
0.0
  0
LINE
  5
279
330
1F
100
AcDbEntity
  8
0-C_ハッチ
  6
Continuous
 62
   120
370
     5
100
AcDbLine
 10
-4464.000018557984
 20
-663.256652460355
 30
0.0
 11
-4654.000158773884
 21
-839.18270821582
 31
0.0
  0
LINE
  5
27A
330
1F
100
AcDbEntity
  8
0-C_ハッチ
  6
Continuous
 62
   120
370
     5
100
AcDbLine
 10
-4613.416833144409
 20
-631.2502817720996
 30
0.0
 11
-4654.000158773884
 21
-668.8274351327257
 31
0.0
  0
LINE
  5
27B
330
1F
100
AcDbEntity
  8
0-C_ハッチ
  6
Continuous
 62
   120
370
     5
100
AcDbLine
 10
-4466.229877200616
 20
-631.2502817720996
 30
0.0
 11
-4654.000158773884
 21
-805.1116535992015
 31
0.0
  0
LINE
  5
27C
330
1F
100
AcDbEntity
  8
0-C_ハッチ
  6
Continuous
 62
   120
370
     5
100
AcDbLine
 10
-4503.026616186564
 20
-631.2502817720996
 30
0.0
 11
-4654.000158773884
 21
-771.0405989825823
 31
0.0
  0
LINE
  5
27D
330
1F
100
AcDbEntity
  8
0-C_ハッチ
  6
Continuous
 62
   120
370
     5
100
AcDbLine
 10
-4539.823355172512
 20
-631.2502817720996
 30
0.0
 11
-4654.000158773884
 21
-736.9695443659639
 31
0.0
  0
LINE
  5
27E
330
1F
100
AcDbEntity
  8
0-C_ハッチ
  6
Continuous
 62
   120
370
     5
100
AcDbLine
 10
-4576.62009415846
 20
-631.2502817720996
 30
0.0
 11
-4654.000158773884
 21
-702.8984897493445
 31
0.0
  0
LINE
  5
27F
330
1F
100
AcDbEntity
  8
0-C_ハッチ
  6
Continuous
 62
   120
370
     5
100
AcDbLine
 10
-4464.000018557984
 20
-1140.251417093019
 30
0.0
 11
-4654.000158773884
 21
-1316.177472848484
 31
0.0
  0
LINE
  5
280
330
1F
100
AcDbEntity
  8
0-C_ハッチ
  6
Continuous
 62
   120
370
     5
100
AcDbLine
 10
-4464.000018557984
 20
-1174.322471709637
 30
0.0
 11
-4654.000158773884
 21
-1350.248527465103
 31
0.0
  0
LINE
  5
281
330
1F
100
AcDbEntity
  8
0-C_ハッチ
  6
Continuous
 62
   120
370
     5
100
AcDbLine
 10
-4464.000018557984
 20
-1208.393526326257
 30
0.0
 11
-4654.000158773884
 21
-1384.319582081722
 31
0.0
  0
LINE
  5
282
330
1F
100
AcDbEntity
  8
0-C_ハッチ
  6
Continuous
 62
   120
370
     5
100
AcDbLine
 10
-4464.000018557984
 20
-1242.464580942875
 30
0.0
 11
-4654.000158773884
 21
-1418.390636698341
 31
0.0
  0
LINE
  5
283
330
1F
100
AcDbEntity
  8
0-C_ハッチ
  6
Continuous
 62
   120
370
     5
100
AcDbLine
 10
-4464.000018557984
 20
-1276.535635559494
 30
0.0
 11
-4654.000158773884
 21
-1452.46169131496
 31
0.0
  0
LINE
  5
284
330
1F
100
AcDbEntity
  8
0-C_ハッチ
  6
Continuous
 62
   120
370
     5
100
AcDbLine
 10
-4464.000018557984
 20
-1310.606690176113
 30
0.0
 11
-4654.000158773884
 21
-1486.532745931577
 31
0.0
  0
LINE
  5
285
330
1F
100
AcDbEntity
  8
0-C_ハッチ
  6
Continuous
 62
   120
370
     5
100
AcDbLine
 10
-4464.000018557984
 20
-1344.677744792732
 30
0.0
 11
-4654.000158773884
 21
-1520.603800548197
 31
0.0
  0
LINE
  5
286
330
1F
100
AcDbEntity
  8
0-C_ハッチ
  6
Continuous
 62
   120
370
     5
100
AcDbLine
 10
-4464.000018557984
 20
-1378.74879940935
 30
0.0
 11
-4654.000158773884
 21
-1554.674855164815
 31
0.0
  0
LINE
  5
287
330
1F
100
AcDbEntity
  8
0-C_ハッチ
  6
Continuous
 62
   120
370
     5
100
AcDbLine
 10
-4464.000018557984
 20
-1412.81985402597
 30
0.0
 11
-4654.000158773884
 21
-1588.745909781435
 31
0.0
  0
LINE
  5
288
330
1F
100
AcDbEntity
  8
0-C_ハッチ
  6
Continuous
 62
   120
370
     5
100
AcDbLine
 10
-4464.000018557984
 20
-1446.890908642588
 30
0.0
 11
-4654.000158773884
 21
-1622.816964398054
 31
0.0
  0
LINE
  5
289
330
1F
100
AcDbEntity
  8
0-C_ハッチ
  6
Continuous
 62
   120
370
     5
100
AcDbLine
 10
-4464.000018557984
 20
-1480.961963259208
 30
0.0
 11
-4654.000158773884
 21
-1656.888019014673
 31
0.0
  0
LINE
  5
28A
330
1F
100
AcDbEntity
  8
0-C_ハッチ
  6
Continuous
 62
   120
370
     5
100
AcDbLine
 10
-4464.000018557984
 20
-1685.388290958921
 30
0.0
 11
-4654.000158773884
 21
-1861.314346714387
 31
0.0
  0
LINE
  5
28B
330
1F
100
AcDbEntity
  8
0-C_ハッチ
  6
Continuous
 62
   120
370
     5
100
AcDbLine
 10
-4464.000018557984
 20
-1515.033017875827
 30
0.0
 11
-4654.000158773884
 21
-1690.959073631293
 31
0.0
  0
LINE
  5
28C
330
1F
100
AcDbEntity
  8
0-C_ハッチ
  6
Continuous
 62
   120
370
     5
100
AcDbLine
 10
-4464.000018557984
 20
-1549.104072492446
 30
0.0
 11
-4654.000158773884
 21
-1725.030128247911
 31
0.0
  0
LINE
  5
28D
330
1F
100
AcDbEntity
  8
0-C_ハッチ
  6
Continuous
 62
   120
370
     5
100
AcDbLine
 10
-4464.000018557984
 20
-1583.175127109064
 30
0.0
 11
-4654.000158773884
 21
-1759.10118286453
 31
0.0
  0
LINE
  5
28E
330
1F
100
AcDbEntity
  8
0-C_ハッチ
  6
Continuous
 62
   120
370
     5
100
AcDbLine
 10
-4464.000018557984
 20
-1617.246181725683
 30
0.0
 11
-4654.000158773884
 21
-1793.172237481149
 31
0.0
  0
LINE
  5
28F
330
1F
100
AcDbEntity
  8
0-C_ハッチ
  6
Continuous
 62
   120
370
     5
100
AcDbLine
 10
-4464.000018557984
 20
-1651.317236342302
 30
0.0
 11
-4654.000158773884
 21
-1827.243292097769
 31
0.0
  0
LINE
  5
290
330
1F
100
AcDbEntity
  8
0-C_ハッチ
  6
Continuous
 62
   120
370
     5
100
AcDbLine
 10
-4464.000018557984
 20
-1719.45934557554
 30
0.0
 11
-4654.000158773884
 21
-1895.385401331006
 31
0.0
  0
LINE
  5
291
330
1F
100
AcDbEntity
  8
0-C_ハッチ
  6
Continuous
 62
   120
370
     5
100
AcDbLine
 10
-4464.000018557984
 20
-2026.09883712511
 30
0.0
 11
-4654.000158773884
 21
-2202.024892880576
 31
0.0
  0
LINE
  5
292
330
1F
100
AcDbEntity
  8
0-C_ハッチ
  6
Continuous
 62
   120
370
     5
100
AcDbLine
 10
-4464.000018557984
 20
-1753.530400192159
 30
0.0
 11
-4654.000158773884
 21
-1929.456455947625
 31
0.0
  0
LINE
  5
293
330
1F
100
AcDbEntity
  8
0-C_ハッチ
  6
Continuous
 62
   120
370
     5
100
AcDbLine
 10
-4464.000018557984
 20
-1787.601454808778
 30
0.0
 11
-4654.000158773884
 21
-1963.527510564244
 31
0.0
  0
LINE
  5
294
330
1F
100
AcDbEntity
  8
0-C_ハッチ
  6
Continuous
 62
   120
370
     5
100
AcDbLine
 10
-4464.000018557984
 20
-1821.672509425396
 30
0.0
 11
-4654.000158773884
 21
-1997.598565180862
 31
0.0
  0
LINE
  5
295
330
1F
100
AcDbEntity
  8
0-C_ハッチ
  6
Continuous
 62
   120
370
     5
100
AcDbLine
 10
-4464.000018557984
 20
-1855.743564042016
 30
0.0
 11
-4654.000158773884
 21
-2031.669619797482
 31
0.0
  0
LINE
  5
296
330
1F
100
AcDbEntity
  8
0-C_ハッチ
  6
Continuous
 62
   120
370
     5
100
AcDbLine
 10
-4464.000018557984
 20
-1889.814618658635
 30
0.0
 11
-4654.000158773884
 21
-2065.7406744141
 31
0.0
  0
LINE
  5
297
330
1F
100
AcDbEntity
  8
0-C_ハッチ
  6
Continuous
 62
   120
370
     5
100
AcDbLine
 10
-4464.000018557984
 20
-1923.885673275253
 30
0.0
 11
-4654.000158773884
 21
-2099.811729030719
 31
0.0
  0
LINE
  5
298
330
1F
100
AcDbEntity
  8
0-C_ハッチ
  6
Continuous
 62
   120
370
     5
100
AcDbLine
 10
-4464.000018557984
 20
-1957.956727891872
 30
0.0
 11
-4654.000158773884
 21
-2133.882783647338
 31
0.0
  0
LINE
  5
299
330
1F
100
AcDbEntity
  8
0-C_ハッチ
  6
Continuous
 62
   120
370
     5
100
AcDbLine
 10
-4464.000018557984
 20
-1992.027782508492
 30
0.0
 11
-4654.000158773884
 21
-2167.953838263957
 31
0.0
  0
LINE
  5
29A
330
1F
100
AcDbEntity
  8
0-C_ハッチ
  6
Continuous
 62
   120
370
     5
100
AcDbLine
 10
-4464.000018557984
 20
-2060.169891741729
 30
0.0
 11
-4654.000158773884
 21
-2236.095947497195
 31
0.0
  0
LINE
  5
29B
330
1F
100
AcDbEntity
  8
0-C_ハッチ
  6
Continuous
 62
   120
370
     5
100
AcDbLine
 10
-4464.000018557984
 20
-2094.240946358348
 30
0.0
 11
-4654.000158773884
 21
-2270.167002113813
 31
0.0
  0
LINE
  5
29C
330
1F
100
AcDbEntity
  8
0-C_ハッチ
  6
Continuous
 62
   120
370
     5
100
AcDbLine
 10
-4464.000018557984
 20
-2128.312000974967
 30
0.0
 11
-4654.000158773884
 21
-2304.238056730433
 31
0.0
  0
LINE
  5
29D
330
1F
100
AcDbEntity
  8
0-C_ハッチ
  6
Continuous
 62
   120
370
     5
100
AcDbLine
 10
-4197.400125111442
 20
-1540.749701617533
 30
0.0
 11
-4240.000158773887
 21
-1580.194177230908
 31
0.0
  0
LINE
  5
29E
330
1F
100
AcDbEntity
  8
0-C_ハッチ
  6
Continuous
 62
   120
370
     5
100
AcDbLine
 10
-4033.500117533917
 20
-639.42723377643
 30
0.0
 11
-4240.000158773887
 21
-830.6309756652934
 31
0.0
  0
LINE
  5
29F
330
1F
100
AcDbEntity
  8
0-C_ハッチ
  6
Continuous
 62
   120
370
     5
100
AcDbLine
 10
-3736.999909684466
 20
-2136.584844350374
 30
0.0
 11
-3943.500117533917
 21
-2327.788740507275
 31
0.0
  0
LINE
  5
2A0
330
1F
100
AcDbEntity
  8
0-C_ハッチ
  6
Continuous
 62
   120
370
     5
100
AcDbLine
 10
-4033.500117533917
 20
-673.4982883930484
 30
0.0
 11
-4240.000158773887
 21
-864.7020302819118
 31
0.0
  0
LINE
  5
2A1
330
1F
100
AcDbEntity
  8
0-C_ハッチ
  6
Continuous
 62
   120
370
     5
100
AcDbLine
 10
-4033.500117533917
 20
-707.5693430096671
 30
0.0
 11
-4240.000158773887
 21
-898.7730848985302
 31
0.0
  0
LINE
  5
2A2
330
1F
100
AcDbEntity
  8
0-C_ハッチ
  6
Continuous
 62
   120
370
     5
100
AcDbLine
 10
-3914.278525176388
 20
-631.2500343322769
 30
0.0
 11
-3943.500117533917
 21
-658.3070642929521
 31
0.0
  0
LINE
  5
2A3
330
1F
100
AcDbEntity
  8
0-C_ハッチ
  6
Continuous
 62
   120
370
     5
100
AcDbLine
 10
-4033.500117533917
 20
-741.640397626286
 30
0.0
 11
-4240.000158773887
 21
-932.8441395151494
 31
0.0
  0
LINE
  5
2A4
330
1F
100
AcDbEntity
  8
0-C_ハッチ
  6
Continuous
 62
   120
370
     5
100
AcDbLine
 10
-3877.48178619044
 20
-631.2500343322769
 30
0.0
 11
-3943.500117533917
 21
-692.378118909571
 31
0.0
  0
LINE
  5
2A5
330
1F
100
AcDbEntity
  8
0-C_ハッチ
  6
Continuous
 62
   120
370
     5
100
AcDbLine
 10
-4033.500117533917
 20
-775.7114522429049
 30
0.0
 11
-4240.000158773887
 21
-966.915194131768
 31
0.0
  0
LINE
  5
2A6
330
1F
100
AcDbEntity
  8
0-C_ハッチ
  6
Continuous
 62
   120
370
     5
100
AcDbLine
 10
-3840.685047204493
 20
-631.2500343322769
 30
0.0
 11
-3943.500117533917
 21
-726.4491735261893
 31
0.0
  0
LINE
  5
2A7
330
1F
100
AcDbEntity
  8
0-C_ハッチ
  6
Continuous
 62
   120
370
     5
100
AcDbLine
 10
-4033.500117533917
 20
-809.7825068595233
 30
0.0
 11
-4240.000158773887
 21
-1000.986248748387
 31
0.0
  0
LINE
  5
2A8
330
1F
100
AcDbEntity
  8
0-C_ハッチ
  6
Continuous
 62
   120
370
     5
100
AcDbLine
 10
-3803.888308218544
 20
-631.2500343322769
 30
0.0
 11
-3943.500117533917
 21
-760.5202281428082
 31
0.0
  0
LINE
  5
2A9
330
1F
100
AcDbEntity
  8
0-C_ハッチ
  6
Continuous
 62
   120
370
     5
100
AcDbLine
 10
-4033.500117533917
 20
-843.8535614761427
 30
0.0
 11
-4240.000158773887
 21
-1035.057303365006
 31
0.0
  0
LINE
  5
2AA
330
1F
100
AcDbEntity
  8
0-C_ハッチ
  6
Continuous
 62
   120
370
     5
100
AcDbLine
 10
-3767.091569232596
 20
-631.2500343322769
 30
0.0
 11
-3943.500117533917
 21
-794.5912827594275
 31
0.0
  0
LINE
  5
2AB
330
1F
100
AcDbEntity
  8
0-C_ハッチ
  6
Continuous
 62
   120
370
     5
100
AcDbLine
 10
-4033.500117533917
 20
-877.9246160927614
 30
0.0
 11
-4240.000158773887
 21
-1069.128357981625
 31
0.0
  0
LINE
  5
2AC
330
1F
100
AcDbEntity
  8
0-C_ハッチ
  6
Continuous
 62
   120
370
     5
100
AcDbLine
 10
-3736.999909684466
 20
-637.4584412191451
 30
0.0
 11
-3943.500117533917
 21
-828.6623373760463
 31
0.0
  0
LINE
  5
2AD
330
1F
100
AcDbEntity
  8
0-C_ハッチ
  6
Continuous
 62
   120
370
     5
100
AcDbLine
 10
-4033.500117533917
 20
-911.9956707093803
 30
0.0
 11
-4240.000158773887
 21
-1103.199412598244
 31
0.0
  0
LINE
  5
2AE
330
1F
100
AcDbEntity
  8
0-C_ハッチ
  6
Continuous
 62
   120
370
     5
100
AcDbLine
 10
-3736.999909684466
 20
-671.529495835764
 30
0.0
 11
-3943.500117533917
 21
-862.7333919926651
 31
0.0
  0
LINE
  5
2AF
330
1F
100
AcDbEntity
  8
0-C_ハッチ
  6
Continuous
 62
   120
370
     5
100
AcDbLine
 10
-4033.500117533917
 20
-946.0667253259996
 30
0.0
 11
-4240.000158773887
 21
-1137.270467214862
 31
0.0
  0
LINE
  5
2B0
330
1F
100
AcDbEntity
  8
0-C_ハッチ
  6
Continuous
 62
   120
370
     5
100
AcDbLine
 10
-3736.999909684466
 20
-705.6005504523829
 30
0.0
 11
-3943.500117533917
 21
-896.804446609284
 31
0.0
  0
LINE
  5
2B1
330
1F
100
AcDbEntity
  8
0-C_ハッチ
  6
Continuous
 62
   120
370
     5
100
AcDbLine
 10
-4033.500117533917
 20
-980.137779942618
 30
0.0
 11
-4240.000158773887
 21
-1171.341521831481
 31
0.0
  0
LINE
  5
2B2
330
1F
100
AcDbEntity
  8
0-C_ハッチ
  6
Continuous
 62
   120
370
     5
100
AcDbLine
 10
-3736.999909684466
 20
-739.6716050690018
 30
0.0
 11
-3943.500117533917
 21
-930.8755012259029
 31
0.0
  0
LINE
  5
2B3
330
1F
100
AcDbEntity
  8
0-C_ハッチ
  6
Continuous
 62
   120
370
     5
100
AcDbLine
 10
-4033.500117533917
 20
-1014.208834559237
 30
0.0
 11
-4240.000158773887
 21
-1205.412576448101
 31
0.0
  0
LINE
  5
2B4
330
1F
100
AcDbEntity
  8
0-C_ハッチ
  6
Continuous
 62
   120
370
     5
100
AcDbLine
 10
-3736.999909684466
 20
-773.7426596856205
 30
0.0
 11
-3943.500117533917
 21
-964.9465558425218
 31
0.0
  0
LINE
  5
2B5
330
1F
100
AcDbEntity
  8
0-C_ハッチ
  6
Continuous
 62
   120
370
     5
100
AcDbLine
 10
-4033.500117533917
 20
-1048.279889175856
 30
0.0
 11
-4240.000158773887
 21
-1239.483631064719
 31
0.0
  0
LINE
  5
2B6
330
1F
100
AcDbEntity
  8
0-C_ハッチ
  6
Continuous
 62
   120
370
     5
100
AcDbLine
 10
-3736.999909684466
 20
-807.8137143022394
 30
0.0
 11
-3943.500117533917
 21
-999.0176104591401
 31
0.0
  0
LINE
  5
2B7
330
1F
100
AcDbEntity
  8
0-C_ハッチ
  6
Continuous
 62
   120
370
     5
100
AcDbLine
 10
-4033.500117533917
 20
-1082.350943792474
 30
0.0
 11
-4240.000158773887
 21
-1273.554685681338
 31
0.0
  0
LINE
  5
2B8
330
1F
100
AcDbEntity
  8
0-C_ハッチ
  6
Continuous
 62
   120
370
     5
100
AcDbLine
 10
-3736.999909684466
 20
-841.8847689188583
 30
0.0
 11
-3943.500117533917
 21
-1033.088665075759
 31
0.0
  0
LINE
  5
2B9
330
1F
100
AcDbEntity
  8
0-C_ハッチ
  6
Continuous
 62
   120
370
     5
100
AcDbLine
 10
-4033.500117533917
 20
-1116.421998409093
 30
0.0
 11
-4240.000158773887
 21
-1307.625740297956
 31
0.0
  0
LINE
  5
2BA
330
1F
100
AcDbEntity
  8
0-C_ハッチ
  6
Continuous
 62
   120
370
     5
100
AcDbLine
 10
-3736.999909684466
 20
-875.9558235354775
 30
0.0
 11
-3943.500117533917
 21
-1067.159719692378
 31
0.0
  0
LINE
  5
2BB
330
1F
100
AcDbEntity
  8
0-C_ハッチ
  6
Continuous
 62
   120
370
     5
100
AcDbLine
 10
-4033.500117533917
 20
-1150.493053025713
 30
0.0
 11
-4240.000158773887
 21
-1341.696794914576
 31
0.0
  0
LINE
  5
2BC
330
1F
100
AcDbEntity
  8
0-C_ハッチ
  6
Continuous
 62
   120
370
     5
100
AcDbLine
 10
-3736.999909684466
 20
-910.026878152096
 30
0.0
 11
-3943.500117533917
 21
-1101.230774308997
 31
0.0
  0
LINE
  5
2BD
330
1F
100
AcDbEntity
  8
0-C_ハッチ
  6
Continuous
 62
   120
370
     5
100
AcDbLine
 10
-4033.500117533917
 20
-1184.564107642331
 30
0.0
 11
-4240.000158773887
 21
-1375.767849531195
 31
0.0
  0
LINE
  5
2BE
330
1F
100
AcDbEntity
  8
0-C_ハッチ
  6
Continuous
 62
   120
370
     5
100
AcDbLine
 10
-3736.999909684466
 20
-944.0979327687153
 30
0.0
 11
-3943.500117533917
 21
-1135.301828925617
 31
0.0
  0
LINE
  5
2BF
330
1F
100
AcDbEntity
  8
0-C_ハッチ
  6
Continuous
 62
   120
370
     5
100
AcDbLine
 10
-4033.500117533917
 20
-1218.63516225895
 30
0.0
 11
-4240.000158773887
 21
-1409.838904147814
 31
0.0
  0
LINE
  5
2C0
330
1F
100
AcDbEntity
  8
0-C_ハッチ
  6
Continuous
 62
   120
370
     5
100
AcDbLine
 10
-3736.999909684466
 20
-978.1689873853337
 30
0.0
 11
-3943.500117533917
 21
-1169.372883542235
 31
0.0
  0
LINE
  5
2C1
330
1F
100
AcDbEntity
  8
0-C_ハッチ
  6
Continuous
 62
   120
370
     5
100
AcDbLine
 10
-4033.500117533917
 20
-1252.706216875569
 30
0.0
 11
-4240.000158773887
 21
-1443.909958764432
 31
0.0
  0
LINE
  5
2C2
330
1F
100
AcDbEntity
  8
0-C_ハッチ
  6
Continuous
 62
   120
370
     5
100
AcDbLine
 10
-3736.999909684466
 20
-1012.240042001953
 30
0.0
 11
-3943.500117533917
 21
-1203.443938158855
 31
0.0
  0
LINE
  5
2C3
330
1F
100
AcDbEntity
  8
0-C_ハッチ
  6
Continuous
 62
   120
370
     5
100
AcDbLine
 10
-4033.500117533917
 20
-1286.777271492189
 30
0.0
 11
-4240.000158773887
 21
-1477.981013381052
 31
0.0
  0
LINE
  5
2C4
330
1F
100
AcDbEntity
  8
0-C_ハッチ
  6
Continuous
 62
   120
370
     5
100
AcDbLine
 10
-3736.999909684466
 20
-1046.311096618571
 30
0.0
 11
-3943.500117533917
 21
-1237.514992775473
 31
0.0
  0
LINE
  5
2C5
330
1F
100
AcDbEntity
  8
0-C_ハッチ
  6
Continuous
 62
   120
370
     5
100
AcDbLine
 10
-4033.500117533917
 20
-1320.848326108807
 30
0.0
 11
-4240.000158773887
 21
-1512.05206799767
 31
0.0
  0
LINE
  5
2C6
330
1F
100
AcDbEntity
  8
0-C_ハッチ
  6
Continuous
 62
   120
370
     5
100
AcDbLine
 10
-3736.999909684466
 20
-1148.524260468428
 30
0.0
 11
-3943.500117533917
 21
-1339.728156625329
 31
0.0
  0
LINE
  5
2C7
330
1F
100
AcDbEntity
  8
0-C_ハッチ
  6
Continuous
 62
   120
370
     5
100
AcDbLine
 10
-4033.500117533917
 20
-1423.061489958664
 30
0.0
 11
-4240.000158773887
 21
-1614.265231847527
 31
0.0
  0
LINE
  5
2C8
330
1F
100
AcDbEntity
  8
0-C_ハッチ
  6
Continuous
 62
   120
370
     5
100
AcDbLine
 10
-3736.999909684466
 20
-1182.595315085047
 30
0.0
 11
-3943.500117533917
 21
-1373.799211241948
 31
0.0
  0
LINE
  5
2C9
330
1F
100
AcDbEntity
  8
0-C_ハッチ
  6
Continuous
 62
   120
370
     5
100
AcDbLine
 10
-4033.500117533917
 20
-1457.132544575282
 30
0.0
 11
-4240.000158773887
 21
-1648.336286464145
 31
0.0
  0
LINE
  5
2CA
330
1F
100
AcDbEntity
  8
0-C_ハッチ
  6
Continuous
 62
   120
370
     5
100
AcDbLine
 10
-3736.999909684466
 20
-1216.666369701666
 30
0.0
 11
-3943.500117533917
 21
-1407.870265858567
 31
0.0
  0
LINE
  5
2CB
330
1F
100
AcDbEntity
  8
0-C_ハッチ
  6
Continuous
 62
   120
370
     5
100
AcDbLine
 10
-4033.500117533917
 20
-1491.203599191901
 30
0.0
 11
-4240.000158773887
 21
-1682.407341080765
 31
0.0
  0
LINE
  5
2CC
330
1F
100
AcDbEntity
  8
0-C_ハッチ
  6
Continuous
 62
   120
370
     5
100
AcDbLine
 10
-3736.999909684466
 20
-1250.737424318284
 30
0.0
 11
-3943.500117533917
 21
-1441.941320475185
 31
0.0
  0
LINE
  5
2CD
330
1F
100
AcDbEntity
  8
0-C_ハッチ
  6
Continuous
 62
   120
370
     5
100
AcDbLine
 10
-3736.999909684466
 20
-1284.808478934903
 30
0.0
 11
-3943.500117533917
 21
-1476.012375091804
 31
0.0
  0
LINE
  5
2CE
330
1F
100
AcDbEntity
  8
0-C_ハッチ
  6
Continuous
 62
   120
370
     5
100
AcDbLine
 10
-3736.999909684466
 20
-1318.879533551522
 30
0.0
 11
-3943.500117533917
 21
-1510.083429708423
 31
0.0
  0
LINE
  5
2CF
330
1F
100
AcDbEntity
  8
0-C_ハッチ
  6
Continuous
 62
   120
370
     5
100
AcDbLine
 10
-4033.500117533917
 20
-1593.416763041757
 30
0.0
 11
-4240.000158773887
 21
-1784.620504930621
 31
0.0
  0
LINE
  5
2D0
330
1F
100
AcDbEntity
  8
0-C_ハッチ
  6
Continuous
 62
   120
370
     5
100
AcDbLine
 10
-3736.999909684466
 20
-1352.950588168141
 30
0.0
 11
-3943.500117533917
 21
-1544.154484325042
 31
0.0
  0
LINE
  5
2D1
330
1F
100
AcDbEntity
  8
0-C_ハッチ
  6
Continuous
 62
   120
370
     5
100
AcDbLine
 10
-4033.500117533917
 20
-1627.487817658377
 30
0.0
 11
-4240.000158773887
 21
-1818.69155954724
 31
0.0
  0
LINE
  5
2D2
330
1F
100
AcDbEntity
  8
0-C_ハッチ
  6
Continuous
 62
   120
370
     5
100
AcDbLine
 10
-3736.999909684466
 20
-1387.021642784759
 30
0.0
 11
-3943.500117533917
 21
-1578.225538941661
 31
0.0
  0
LINE
  5
2D3
330
1F
100
AcDbEntity
  8
0-C_ハッチ
  6
Continuous
 62
   120
370
     5
100
AcDbLine
 10
-4033.500117533917
 20
-1661.558872274995
 30
0.0
 11
-4240.000158773887
 21
-1852.762614163858
 31
0.0
  0
LINE
  5
2D4
330
1F
100
AcDbEntity
  8
0-C_ハッチ
  6
Continuous
 62
   120
370
     5
100
AcDbLine
 10
-3736.999909684466
 20
-1421.092697401378
 30
0.0
 11
-3943.500117533917
 21
-1612.296593558279
 31
0.0
  0
LINE
  5
2D5
330
1F
100
AcDbEntity
  8
0-C_ハッチ
  6
Continuous
 62
   120
370
     5
100
AcDbLine
 10
-4033.500117533917
 20
-1695.629926891613
 30
0.0
 11
-4240.000158773887
 21
-1886.833668780476
 31
0.0
  0
LINE
  5
2D6
330
1F
100
AcDbEntity
  8
0-C_ハッチ
  6
Continuous
 62
   120
370
     5
100
AcDbLine
 10
-3736.999909684466
 20
-1455.163752017997
 30
0.0
 11
-3943.500117533917
 21
-1646.367648174898
 31
0.0
  0
LINE
  5
2D7
330
1F
100
AcDbEntity
  8
0-C_ハッチ
  6
Continuous
 62
   120
370
     5
100
AcDbLine
 10
-4033.500117533917
 20
-1729.700981508232
 30
0.0
 11
-4240.000158773887
 21
-1920.904723397095
 31
0.0
  0
LINE
  5
2D8
330
1F
100
AcDbEntity
  8
0-C_ハッチ
  6
Continuous
 62
   120
370
     5
100
AcDbLine
 10
-3736.999909684466
 20
-1489.234806634616
 30
0.0
 11
-3943.500117533917
 21
-1680.438702791517
 31
0.0
  0
LINE
  5
2D9
330
1F
100
AcDbEntity
  8
0-C_ハッチ
  6
Continuous
 62
   120
370
     5
100
AcDbLine
 10
-4033.500117533917
 20
-1763.772036124851
 30
0.0
 11
-4240.000158773887
 21
-1954.975778013714
 31
0.0
  0
LINE
  5
2DA
330
1F
100
AcDbEntity
  8
0-C_ハッチ
  6
Continuous
 62
   120
370
     5
100
AcDbLine
 10
-3736.999909684466
 20
-1523.305861251235
 30
0.0
 11
-3943.500117533917
 21
-1714.509757408136
 31
0.0
  0
LINE
  5
2DB
330
1F
100
AcDbEntity
  8
0-C_ハッチ
  6
Continuous
 62
   120
370
     5
100
AcDbLine
 10
-4033.500117533917
 20
-1797.843090741469
 30
0.0
 11
-4240.000158773887
 21
-1989.046832630333
 31
0.0
  0
LINE
  5
2DC
330
1F
100
AcDbEntity
  8
0-C_ハッチ
  6
Continuous
 62
   120
370
     5
100
AcDbLine
 10
-3736.999909684466
 20
-1557.376915867854
 30
0.0
 11
-3943.500117533917
 21
-1748.580812024755
 31
0.0
  0
LINE
  5
2DD
330
1F
100
AcDbEntity
  8
0-C_ハッチ
  6
Continuous
 62
   120
370
     5
100
AcDbLine
 10
-4033.500117533917
 20
-1831.914145358088
 30
0.0
 11
-4240.000158773887
 21
-2023.117887246952
 31
0.0
  0
LINE
  5
2DE
330
1F
100
AcDbEntity
  8
0-C_ハッチ
  6
Continuous
 62
   120
370
     5
100
AcDbLine
 10
-3736.999909684466
 20
-1591.447970484473
 30
0.0
 11
-3943.500117533917
 21
-1782.651866641373
 31
0.0
  0
LINE
  5
2DF
330
1F
100
AcDbEntity
  8
0-C_ハッチ
  6
Continuous
 62
   120
370
     5
100
AcDbLine
 10
-4033.500117533917
 20
-1865.985199974707
 30
0.0
 11
-4240.000158773887
 21
-2057.18894186357
 31
0.0
  0
LINE
  5
2E0
330
1F
100
AcDbEntity
  8
0-C_ハッチ
  6
Continuous
 62
   120
370
     5
100
AcDbLine
 10
-3736.999909684466
 20
-1625.519025101092
 30
0.0
 11
-3943.500117533917
 21
-1816.722921257992
 31
0.0
  0
LINE
  5
2E1
330
1F
100
AcDbEntity
  8
0-C_ハッチ
  6
Continuous
 62
   120
370
     5
100
AcDbLine
 10
-4033.500117533917
 20
-1900.056254591326
 30
0.0
 11
-4240.000158773887
 21
-2091.259996480189
 31
0.0
  0
LINE
  5
2E2
330
1F
100
AcDbEntity
  8
0-C_ハッチ
  6
Continuous
 62
   120
370
     5
100
AcDbLine
 10
-3736.999909684466
 20
-1659.59007971771
 30
0.0
 11
-3943.500117533917
 21
-1850.793975874611
 31
0.0
  0
LINE
  5
2E3
330
1F
100
AcDbEntity
  8
0-C_ハッチ
  6
Continuous
 62
   120
370
     5
100
AcDbLine
 10
-4033.500117533917
 20
-1934.127309207945
 30
0.0
 11
-4240.000158773887
 21
-2125.331051096808
 31
0.0
  0
LINE
  5
2E4
330
1F
100
AcDbEntity
  8
0-C_ハッチ
  6
Continuous
 62
   120
370
     5
100
AcDbLine
 10
-3736.999909684466
 20
-1864.016407417423
 30
0.0
 11
-3943.500117533917
 21
-2055.220303574324
 31
0.0
  0
LINE
  5
2E5
330
1F
100
AcDbEntity
  8
0-C_ハッチ
  6
Continuous
 62
   120
370
     5
100
AcDbLine
 10
-4033.500117533917
 20
-2138.553636907658
 30
0.0
 11
-4240.000158773887
 21
-2329.757378796521
 31
0.0
  0
LINE
  5
2E6
330
1F
100
AcDbEntity
  8
0-C_ハッチ
  6
Continuous
 62
   120
370
     5
100
AcDbLine
 10
-3736.999909684466
 20
-1693.661134334329
 30
0.0
 11
-3943.500117533917
 21
-1884.86503049123
 31
0.0
  0
LINE
  5
2E7
330
1F
100
AcDbEntity
  8
0-C_ハッチ
  6
Continuous
 62
   120
370
     5
100
AcDbLine
 10
-4033.500117533917
 20
-1968.198363824564
 30
0.0
 11
-4240.000158773887
 21
-2159.402105713427
 31
0.0
  0
LINE
  5
2E8
330
1F
100
AcDbEntity
  8
0-C_ハッチ
  6
Continuous
 62
   120
370
     5
100
AcDbLine
 10
-3736.999909684466
 20
-1727.732188950947
 30
0.0
 11
-3943.500117533917
 21
-1918.936085107848
 31
0.0
  0
LINE
  5
2E9
330
1F
100
AcDbEntity
  8
0-C_ハッチ
  6
Continuous
 62
   120
370
     5
100
AcDbLine
 10
-4033.500117533917
 20
-2002.269418441183
 30
0.0
 11
-4240.000158773887
 21
-2193.473160330046
 31
0.0
  0
LINE
  5
2EA
330
1F
100
AcDbEntity
  8
0-C_ハッチ
  6
Continuous
 62
   120
370
     5
100
AcDbLine
 10
-3736.999909684466
 20
-1761.803243567567
 30
0.0
 11
-3943.500117533917
 21
-1953.007139724468
 31
0.0
  0
LINE
  5
2EB
330
1F
100
AcDbEntity
  8
0-C_ハッチ
  6
Continuous
 62
   120
370
     5
100
AcDbLine
 10
-4033.500117533917
 20
-2036.340473057802
 30
0.0
 11
-4240.000158773887
 21
-2227.544214946665
 31
0.0
  0
LINE
  5
2EC
330
1F
100
AcDbEntity
  8
0-C_ハッチ
  6
Continuous
 62
   120
370
     5
100
AcDbLine
 10
-3736.999909684466
 20
-1795.874298184185
 30
0.0
 11
-3943.500117533917
 21
-1987.078194341086
 31
0.0
  0
LINE
  5
2ED
330
1F
100
AcDbEntity
  8
0-C_ハッチ
  6
Continuous
 62
   120
370
     5
100
AcDbLine
 10
-4033.500117533917
 20
-2070.411527674421
 30
0.0
 11
-4240.000158773887
 21
-2261.615269563284
 31
0.0
  0
LINE
  5
2EE
330
1F
100
AcDbEntity
  8
0-C_ハッチ
  6
Continuous
 62
   120
370
     5
100
AcDbLine
 10
-3736.999909684466
 20
-1829.945352800805
 30
0.0
 11
-3943.500117533917
 21
-2021.149248957705
 31
0.0
  0
LINE
  5
2EF
330
1F
100
AcDbEntity
  8
0-C_ハッチ
  6
Continuous
 62
   120
370
     5
100
AcDbLine
 10
-4033.500117533917
 20
-2104.48258229104
 30
0.0
 11
-4240.000158773887
 21
-2295.686324179903
 31
0.0
  0
LINE
  5
2F0
330
1F
100
AcDbEntity
  8
0-C_ハッチ
  6
Continuous
 62
   120
370
     5
100
AcDbLine
 10
-3736.999909684466
 20
-1898.087462034042
 30
0.0
 11
-3943.500117533917
 21
-2089.291358190943
 31
0.0
  0
LINE
  5
2F1
330
1F
100
AcDbEntity
  8
0-C_ハッチ
  6
Continuous
 62
   120
370
     5
100
AcDbLine
 10
-3736.999909684466
 20
-1932.158516650661
 30
0.0
 11
-3943.500117533917
 21
-2123.362412807562
 31
0.0
  0
LINE
  5
2F2
330
1F
100
AcDbEntity
  8
0-C_ハッチ
  6
Continuous
 62
   120
370
     5
100
AcDbLine
 10
-3736.999909684466
 20
-1966.22957126728
 30
0.0
 11
-3943.500117533917
 21
-2157.43346742418
 31
0.0
  0
LINE
  5
2F3
330
1F
100
AcDbEntity
  8
0-C_ハッチ
  6
Continuous
 62
   120
370
     5
100
AcDbLine
 10
-3736.999909684466
 20
-2000.300625883899
 30
0.0
 11
-3943.500117533917
 21
-2191.5045220408
 31
0.0
  0
LINE
  5
2F4
330
1F
100
AcDbEntity
  8
0-C_ハッチ
  6
Continuous
 62
   120
370
     5
100
AcDbLine
 10
-3736.999909684466
 20
-2034.371680500518
 30
0.0
 11
-3943.500117533917
 21
-2225.575576657418
 31
0.0
  0
LINE
  5
2F5
330
1F
100
AcDbEntity
  8
0-C_ハッチ
  6
Continuous
 62
   120
370
     5
100
AcDbLine
 10
-3736.999909684466
 20
-2068.442735117136
 30
0.0
 11
-3943.500117533917
 21
-2259.646631274037
 31
0.0
  0
LINE
  5
2F6
330
1F
100
AcDbEntity
  8
0-C_ハッチ
  6
Continuous
 62
   120
370
     5
100
AcDbLine
 10
-3736.999909684466
 20
-2102.513789733755
 30
0.0
 11
-3943.500117533917
 21
-2293.717685890656
 31
0.0
  0
LINE
  5
2F7
330
1F
100
AcDbEntity
  8
0-C_ハッチ
  6
Continuous
 62
   120
370
     5
100
AcDbLine
 10
-3736.999909684466
 20
-1080.382151235191
 30
0.0
 11
-3943.500117533917
 21
-1271.586047392092
 31
0.0
  0
LINE
  5
2F8
330
1F
100
AcDbEntity
  8
0-C_ハッチ
  6
Continuous
 62
   120
370
     5
100
AcDbLine
 10
-3736.999909684466
 20
-1114.453205851809
 30
0.0
 11
-3943.500117533917
 21
-1305.65710200871
 31
0.0
  0
LINE
  5
2F9
330
1F
100
AcDbEntity
  8
0-C_ハッチ
  6
Continuous
 62
   120
370
     5
100
AcDbLine
 10
-4464.000018557984
 20
-2162.383055591585
 30
0.0
 11
-4654.000018557984
 21
-2338.308981517514
 31
0.0
  0
LINE
  5
2FA
330
1F
100
AcDbEntity
  8
0-C_ハッチ
  6
Continuous
 62
   120
370
     5
100
AcDbLine
 10
-4464.000018557984
 20
1771.86717669255
 30
0.0
 11
-4654.000018557984
 21
1595.941250766622
 31
0.0
  0
LINE
  5
2FB
330
1F
100
AcDbEntity
  8
0-C_ハッチ
  6
Continuous
 62
   120
370
     5
100
AcDbLine
 10
-4464.000018557984
 20
-2196.454110208205
 30
0.0
 11
-4654.000018557984
 21
-2372.380036134134
 31
0.0
  0
LINE
  5
2FC
330
1F
100
AcDbEntity
  8
0-C_ハッチ
  6
Continuous
 62
   120
370
     5
100
AcDbLine
 10
-4464.000018557984
 20
-2230.525164824824
 30
0.0
 11
-4654.000018557984
 21
-2406.451090750752
 31
0.0
  0
LINE
  5
2FD
330
1F
100
AcDbEntity
  8
0-C_ハッチ
  6
Continuous
 62
   120
370
     5
100
AcDbLine
 10
-4464.000018557984
 20
-2264.596219441442
 30
0.0
 11
-4654.000018557984
 21
-2440.522145367371
 31
0.0
  0
LINE
  5
2FE
330
1F
100
AcDbEntity
  8
0-C_ハッチ
  6
Continuous
 62
   120
370
     5
100
AcDbLine
 10
-4033.500117533917
 20
-2172.624691524277
 30
0.0
 11
-4240.000026805982
 21
-2363.828311220635
 31
0.0
  0
LINE
  5
2FF
330
1F
100
AcDbEntity
  8
0-C_ハッチ
  6
Continuous
 62
   120
370
     5
100
AcDbLine
 10
-4033.500117533917
 20
-2206.695746140896
 30
0.0
 11
-4240.000026805982
 21
-2397.899365837253
 31
0.0
  0
LINE
  5
300
330
1F
100
AcDbEntity
  8
0-C_ハッチ
  6
Continuous
 62
   120
370
     5
100
AcDbLine
 10
-4033.500117533917
 20
-2240.766800757514
 30
0.0
 11
-4240.000026805982
 21
-2431.970420453872
 31
0.0
  0
LINE
  5
301
330
1F
100
AcDbEntity
  8
0-C_ハッチ
  6
Continuous
 62
   120
370
     5
100
AcDbLine
 10
-3736.999909684466
 20
-2170.655898966992
 30
0.0
 11
-3943.500117533917
 21
-2361.859795123894
 31
0.0
  0
LINE
  5
302
330
1F
100
AcDbEntity
  8
0-C_ハッチ
  6
Continuous
 62
   120
370
     5
100
AcDbLine
 10
-3736.999909684466
 20
-2204.726953583612
 30
0.0
 11
-3943.500117533917
 21
-2395.930849740513
 31
0.0
  0
LINE
  5
303
330
1F
100
AcDbEntity
  8
0-C_ハッチ
  6
Continuous
 62
   120
370
     5
100
AcDbLine
 10
-3736.999909684466
 20
-2238.79800820023
 30
0.0
 11
-3943.500117533917
 21
-2430.00190435713
 31
0.0
  0
LINE
  5
304
330
1F
100
AcDbEntity
  8
0-C_ハッチ
  6
Continuous
 62
   120
370
     5
100
AcDbLine
 10
-3736.999909684466
 20
-2272.869062816849
 30
0.0
 11
-3929.651342887026
 21
-2451.250019485888
 31
0.0
  0
LINE
  5
305
330
1F
100
AcDbEntity
  8
0-C_ハッチ
  6
Continuous
 62
   120
370
     5
100
AcDbLine
 10
-3736.99977771656
 20
-2443.224213707438
 30
0.0
 11
-3745.667647957285
 21
-2451.250019485888
 31
0.0
  0
LINE
  5
306
330
1F
100
AcDbEntity
  8
0-C_ハッチ
  6
Continuous
 62
   120
370
     5
100
AcDbLine
 10
-3736.99977771656
 20
-2306.939995240963
 30
0.0
 11
-3892.854603901078
 21
-2451.250019485888
 31
0.0
  0
LINE
  5
307
330
1F
100
AcDbEntity
  8
0-C_ハッチ
  6
Continuous
 62
   120
370
     5
100
AcDbLine
 10
-3736.99977771656
 20
-2341.011049857581
 30
0.0
 11
-3856.057864915129
 21
-2451.250019485888
 31
0.0
  0
LINE
  5
308
330
1F
100
AcDbEntity
  8
0-C_ハッチ
  6
Continuous
 62
   120
370
     5
100
AcDbLine
 10
-3736.99977771656
 20
-2375.0821044742
 30
0.0
 11
-3819.261125929181
 21
-2451.250019485888
 31
0.0
  0
LINE
  5
309
330
1F
100
AcDbEntity
  8
0-C_ハッチ
  6
Continuous
 62
   120
370
     5
100
AcDbLine
 10
-3736.99977771656
 20
-2409.153159090819
 30
0.0
 11
-3782.464386943233
 21
-2451.250019485888
 31
0.0
  0
LINE
  5
30A
330
1F
100
AcDbEntity
  8
0-C_ハッチ
  6
Continuous
 62
   120
370
     5
100
AcDbLine
 10
-4033.500117533917
 20
-2274.837855374133
 30
0.0
 11
-4224.02525477461
 21
-2451.250019485888
 31
0.0
  0
LINE
  5
30B
330
1F
100
AcDbEntity
  8
0-C_ハッチ
  6
Continuous
 62
   120
370
     5
100
AcDbLine
 10
-4033.500117533917
 20
-2411.122073840609
 30
0.0
 11
-4076.838298830818
 21
-2451.250019485888
 31
0.0
  0
LINE
  5
30C
330
1F
100
AcDbEntity
  8
0-C_ハッチ
  6
Continuous
 62
   120
370
     5
100
AcDbLine
 10
-4033.500117533917
 20
-2308.908909990752
 30
0.0
 11
-4187.228515788663
 21
-2451.250019485888
 31
0.0
  0
LINE
  5
30D
330
1F
100
AcDbEntity
  8
0-C_ハッチ
  6
Continuous
 62
   120
370
     5
100
AcDbLine
 10
-4033.500117533917
 20
-2342.97996460737
 30
0.0
 11
-4150.431776802714
 21
-2451.250019485888
 31
0.0
  0
LINE
  5
30E
330
1F
100
AcDbEntity
  8
0-C_ハッチ
  6
Continuous
 62
   120
370
     5
100
AcDbLine
 10
-4033.500117533917
 20
-2377.05101922399
 30
0.0
 11
-4113.635037816766
 21
-2451.250019485888
 31
0.0
  0
LINE
  5
30F
330
1F
100
AcDbEntity
  8
0-C_ハッチ
  6
Continuous
 62
   120
370
     5
100
AcDbLine
 10
-4464.000018557984
 20
-2298.667274058061
 30
0.0
 11
-4628.789650855043
 21
-2451.250266925711
 31
0.0
  0
LINE
  5
310
330
1F
100
AcDbEntity
  8
0-C_ハッチ
  6
Continuous
 62
   120
370
     5
100
AcDbLine
 10
-4464.000018557984
 20
-2434.951492524536
 30
0.0
 11
-4481.602694911251
 21
-2451.250266925711
 31
0.0
  0
LINE
  5
311
330
1F
100
AcDbEntity
  8
0-C_ハッチ
  6
Continuous
 62
   120
370
     5
100
AcDbLine
 10
-4464.000018557984
 20
-2332.73832867468
 30
0.0
 11
-4591.992911869096
 21
-2451.250266925711
 31
0.0
  0
LINE
  5
312
330
1F
100
AcDbEntity
  8
0-C_ハッチ
  6
Continuous
 62
   120
370
     5
100
AcDbLine
 10
-4464.000018557984
 20
-2366.809383291298
 30
0.0
 11
-4555.196172883147
 21
-2451.250266925711
 31
0.0
  0
LINE
  5
313
330
1F
100
AcDbEntity
  8
0-C_ハッチ
  6
Continuous
 62
   120
370
     5
100
AcDbLine
 10
-4464.000018557984
 20
-2400.880437907918
 30
0.0
 11
-4518.399433897199
 21
-2451.250266925711
 31
0.0
  0
LINE
  5
314
330
1F
100
AcDbEntity
  8
0-C_ハッチ
  6
Continuous
 62
   120
370
     5
100
AcDbLine
 10
-4033.500117533917
 20
-1525.27465380852
 30
0.0
 11
-4234.895477285461
 21
-1711.751838763655
 31
0.0
  0
LINE
  5
315
330
1F
100
AcDbEntity
  8
0-C_ハッチ
  6
Continuous
 62
   120
370
     5
100
AcDbLine
 10
-4033.500117533917
 20
-1559.345708425139
 30
0.0
 11
-4198.097070313116
 21
-1711.750294331807
 31
0.0
  0
LINE
  5
316
330
1F
100
AcDbEntity
  8
0-C_ハッチ
  6
Continuous
 62
   120
370
     5
100
AcDbLine
 10
-4213.215700812898
 20
-1725.749026276049
 30
0.0
 11
-4240.000158773887
 21
-1750.549450314002
 31
0.0
  0
LINE
  5
317
330
1F
100
AcDbEntity
  8
0-2_扉
  6
Continuous
 62
     7
370
     9
100
AcDbLine
 10
-4240.000026805982
 20
-2676.249984844312
 30
0.0
 11
-4240.000026805982
 21
-1725.748006931212
 31
0.0
  0
LINE
  5
318
330
1F
100
AcDbEntity
  8
0-2_扉
  6
Continuous
 62
     7
370
     9
100
AcDbLine
 10
-4240.000026805982
 20
-1711.751955249428
 30
0.0
 11
-4240.000026805982
 21
-481.2498363804183
 31
0.0
  0
LINE
  5
319
330
1F
100
AcDbEntity
  8
0-2_扉
  6
Continuous
 62
     7
370
     9
100
AcDbLine
 10
-4240.000026805982
 20
1443.000247439824
 30
0.0
 11
-4240.000026805982
 21
2393.502226251151
 31
0.0
  0
LINE
  5
31A
330
1F
100
AcDbEntity
  8
0-2_扉
  6
Continuous
 62
     7
370
     9
100
AcDbLine
 10
-4240.000026805982
 20
2407.498277034708
 30
0.0
 11
-4240.000026805982
 21
3438.000395903718
 31
0.0
  0
LINE
  5
31B
330
1F
100
AcDbEntity
  8
0-7
  6
JWW_CENTER2
 62
     7
370
     9
100
AcDbLine
 10
-4764.000018557984
 20
2440.500148463894
 30
0.0
 11
-4354.000018557984
 21
3438.000148463894
 31
0.0
  0
LINE
  5
31C
330
1F
100
AcDbEntity
  8
0-7
  6
JWW_CENTER2
 62
     7
370
     9
100
AcDbLine
 10
-4354.000018557984
 20
1443.000148463894
 30
0.0
 11
-4764.000018557984
 21
2440.500148463894
 31
0.0
  0
LINE
  5
31D
330
1F
100
AcDbEntity
  8
0-7
  6
JWW_CENTER2
 62
     7
370
     9
100
AcDbLine
 10
-4350.000018557987
 20
3438.000148463894
 30
0.0
 11
-3626.999909684466
 21
2440.500197951859
 31
0.0
  0
LINE
  5
31E
330
1F
100
AcDbEntity
  8
0-7
  6
JWW_CENTER2
 62
     7
370
     9
100
AcDbLine
 10
-3626.999909684466
 20
2440.500197951859
 30
0.0
 11
-4350.000018557987
 21
1443.000247439824
 31
0.0
  0
LINE
  5
31F
330
1F
100
AcDbEntity
  8
0-7
  6
JWW_CENTER2
 62
     7
370
     9
100
AcDbLine
 10
-4350.000018557987
 20
-481.2500838202413
 30
0.0
 11
-3626.999909684466
 21
-1578.750034332277
 31
0.0
  0
LINE
  5
320
330
1F
100
AcDbEntity
  8
0-7
  6
JWW_CENTER2
 62
     7
370
     9
100
AcDbLine
 10
-4764.000018557984
 20
-1578.750083820241
 30
0.0
 11
-4354.000018557984
 21
-481.2500838202413
 31
0.0
  0
LINE
  5
321
330
1F
100
AcDbEntity
  8
0-7
  6
JWW_CENTER2
 62
     7
370
     9
100
AcDbLine
 10
-4354.000018557984
 20
-2676.250083820241
 30
0.0
 11
-4764.000018557984
 21
-1578.750083820241
 31
0.0
  0
LINE
  5
322
330
1F
100
AcDbEntity
  8
0-7
  6
JWW_CENTER2
 62
     7
370
     9
100
AcDbLine
 10
-3626.999909684466
 20
-1578.750034332277
 30
0.0
 11
-4350.000018557987
 21
-2676.249984844312
 31
0.0
  0
LINE
  5
323
330
1F
100
AcDbEntity
  8
0-C_ハッチ
  6
Continuous
 62
   120
370
     5
100
AcDbLine
 10
-4033.500117533917
 20
2579.33085155871
 30
0.0
 11
-4219.078506745824
 21
2407.499009695831
 31
0.0
  0
LINE
  5
324
330
1F
100
AcDbEntity
  8
0-C_ハッチ
  6
Continuous
 62
   120
370
     5
100
AcDbLine
 10
-4234.19518232167
 20
2393.502087866343
 30
0.0
 11
-4240.000026805982
 21
2388.127231862351
 31
0.0
  0
LINE
  5
325
330
1F
100
AcDbEntity
  8
0-C_ハッチ
  6
Continuous
 62
   120
370
     5
100
AcDbLine
 10
-4033.500117533917
 20
-1354.919380725426
 30
0.0
 11
-4240.000026805982
 21
-1546.123000421785
 31
0.0
  0
LINE
  5
326
330
1F
100
AcDbEntity
  8
0-C_ハッチ
  6
Continuous
 62
   120
370
     5
100
AcDbLine
 10
-4033.500117533917
 20
-1388.990435342045
 30
0.0
 11
-4197.400125111442
 21
-1540.749701617533
 31
0.0
  0
LINE
  5
327
330
1F
100
AcDbEntity
  8
F-0_補助線
  6
JWW_HOJO
 62
   200
370
    20
100
AcDbLine
 10
-5999.99998453501
 20
4064.999901024072
 30
0.0
 11
5689.998977248734
 21
4064.999901024072
 31
0.0
  0
LINE
  5
328
330
1F
100
AcDbEntity
  8
F-0_補助線
  6
JWW_HOJO
 62
   200
370
    20
100
AcDbLine
 10
-5999.99998453501
 20
84.49993236644843
 30
0.0
 11
5689.998977248734
 21
84.49993236644843
 31
0.0
  0
MTEXT
  5
329
330
1F
100
AcDbEntity
  8
0-B_寸法
  6
Continuous
 62
     7
370
   211
100
AcDbMText
 10
-4368.750018557987
 20
1071.683465608466
 30
0.0
 40
57.15
 41
37.5
 46
0.0
 71
     7
 72
     1
  1
{\fＭＳ ゴシック|b0|i0|c128|p49;4}
 73
     1
 44
1.0
  0
MTEXT
  5
32A
330
1F
100
AcDbEntity
  8
0-B_寸法
  6
Continuous
 62
     7
370
   211
100
AcDbMText
 10
-4368.750018557987
 20
-3047.566766675669
 30
0.0
 40
57.15
 41
37.5
 46
0.0
 71
     7
 72
     1
  1
{\fＭＳ ゴシック|b0|i0|c128|p49;4}
 73
     1
 44
1.0
  0
LINE
  5
32B
330
1F
100
AcDbEntity
  8
0-4_枠
  6
Continuous
 62
    92
370
    13
100
AcDbLine
 10
-4766.000018557987
 20
1430.000148463894
 30
0.0
 11
-3625.000018557987
 21
1430.000148463894
 31
0.0
  0
LINE
  5
32C
330
1F
100
AcDbEntity
  8
0-4_枠
  6
Continuous
 62
    92
370
    13
100
AcDbLine
 10
-4766.000018557987
 20
-2689.250083820241
 30
0.0
 11
-3625.000018557987
 21
-2689.250083820241
 31
0.0
  0
ENDSEC
  0
SECTION
  2
OBJECTS
  0
DICTIONARY
  5
C
330
0
100
AcDbDictionary
281
     1
  3
ACAD_GROUP
350
D
  3
ACAD_LAYOUT
350
1A
  3
ACAD_MATERIAL
350
3B
  3
ACAD_MLEADERSTYLE
350
32E
  3
ACAD_MLINESTYLE
350
17
  3
ACAD_PLOTSETTINGS
350
19
  3
ACAD_PLOTSTYLENAME
350
E
  3
ACAD_TABLESTYLE
350
32D
  3
ACAD_VISUALSTYLE
350
2A
  0
DICTIONARY
  5
D
102
{ACAD_REACTORS
330
C
102
}
330
C
100
AcDbDictionary
281
     1
  0
DICTIONARY
  5
1A
102
{ACAD_REACTORS
330
C
102
}
330
C
100
AcDbDictionary
281
     1
  3
Layout1
350
1E
  3
Layout2
350
26
  3
Model
350
22
  0
DICTIONARY
  5
3B
102
{ACAD_REACTORS
330
C
102
}
330
C
100
AcDbDictionary
281
     1
  3
ByBlock
350
3D
  3
ByLayer
350
3C
  3
Global
350
3E
  0
DICTIONARY
  5
32E
102
{ACAD_REACTORS
330
C
102
}
330
C
100
AcDbDictionary
281
     1
  0
DICTIONARY
  5
17
102
{ACAD_REACTORS
330
C
102
}
330
C
100
AcDbDictionary
281
     1
  3
Standard
350
18
  0
DICTIONARY
  5
19
102
{ACAD_REACTORS
330
C
102
}
330
C
100
AcDbDictionary
281
     1
  0
ACDBDICTIONARYWDFLT
  5
E
102
{ACAD_REACTORS
330
C
102
}
330
C
100
AcDbDictionary
281
     1
  3
Normal
350
F
100
AcDbDictionaryWithDefault
340
F
  0
DICTIONARY
  5
32D
102
{ACAD_REACTORS
330
C
102
}
330
C
100
AcDbDictionary
281
     1
  0
DICTIONARY
  5
2A
102
{ACAD_REACTORS
330
C
102
}
330
C
100
AcDbDictionary
281
     1
  3
2dWireframe
350
2F
  3
3D Hidden
350
31
  3
3dWireframe
350
30
  3
Basic
350
32
  3
Brighten
350
36
  3
ColorChange
350
3A
  3
Conceptual
350
34
  3
Dim
350
35
  3
Facepattern
350
39
  3
Flat
350
2B
  3
FlatWithEdges
350
2C
  3
Gouraud
350
2D
  3
GouraudWithEdges
350
2E
  3
Linepattern
350
38
  3
Realistic
350
33
  3
Thicken
350
37
  0
LAYOUT
  5
1E
102
{ACAD_REACTORS
330
1A
102
}
330
1A
100
AcDbPlotSettings
  1

  2
none_device
  4

  6

 40
0.0
 41
0.0
 42
0.0
 43
0.0
 44
0.0
 45
0.0
 46
0.0
 47
0.0
 48
0.0
 49
0.0
140
0.0
141
0.0
142
1.0
143
1.0
 70
   688
 72
     0
 73
     0
 74
     5
  7

 75
    16
 76
     0
 77
     5
 78
   300
147
1.0
148
0.0
149
0.0
100
AcDbLayout
  1
Layout1
 70
     1
 71
     1
 10
0.0
 20
0.0
 11
420.0
 21
297.0
 12
0.0
 22
0.0
 32
0.0
 14
1.000000000000000E+20
 24
1.000000000000000E+20
 34
1.000000000000000E+20
 15
-1.000000000000000E+20
 25
-1.000000000000000E+20
 35
-1.000000000000000E+20
146
0.0
 13
0.0
 23
0.0
 33
0.0
 16
1.0
 26
0.0
 36
0.0
 17
0.0
 27
1.0
 37
0.0
 76
     0
330
1B
  0
LAYOUT
  5
26
102
{ACAD_REACTORS
330
1A
102
}
330
1A
100
AcDbPlotSettings
  1

  2
none_device
  4

  6

 40
0.0
 41
0.0
 42
0.0
 43
0.0
 44
0.0
 45
0.0
 46
0.0
 47
0.0
 48
0.0
 49
0.0
140
0.0
141
0.0
142
1.0
143
1.0
 70
   688
 72
     0
 73
     0
 74
     5
  7

 75
    16
 76
     0
 77
     5
 78
   300
147
1.0
148
0.0
149
0.0
100
AcDbLayout
  1
Layout2
 70
     1
 71
     2
 10
0.0
 20
0.0
 11
0.0
 21
0.0
 12
0.0
 22
0.0
 32
0.0
 14
0.0
 24
0.0
 34
0.0
 15
0.0
 25
0.0
 35
0.0
146
0.0
 13
0.0
 23
0.0
 33
0.0
 16
1.0
 26
0.0
 36
0.0
 17
0.0
 27
1.0
 37
0.0
 76
     0
330
23
  0
LAYOUT
  5
22
102
{ACAD_REACTORS
330
1A
102
}
330
1A
100
AcDbPlotSettings
  1

  2
none_device
  4

  6

 40
0.0
 41
0.0
 42
0.0
 43
0.0
 44
0.0
 45
0.0
 46
0.0
 47
0.0
 48
0.0
 49
0.0
140
0.0
141
0.0
142
1.0
143
1.0
 70
  1712
 72
     0
 73
     0
 74
     0
  7

 75
     0
 76
     0
 77
     5
 78
   300
147
1.0
148
0.0
149
0.0
100
AcDbLayout
  1
Model
 70
     1
 71
     0
 10
-6300.0
 20
-4455.0
 11
6300.0
 21
4455.0
 12
0.0
 22
0.0
 32
0.0
 14
-6300.0
 24
-4455.0
 34
0.0
 15
6300.0
 25
4455.0
 35
0.0
146
0.0
 13
0.0
 23
0.0
 33
0.0
 16
1.0
 26
0.0
 36
0.0
 17
0.0
 27
1.0
 37
0.0
 76
     0
330
1F
331
29
  0
MATERIAL
  5
3D
102
{ACAD_REACTORS
330
3B
102
}
330
3B
100
AcDbMaterial
  1
ByBlock
 72
     1
 94
      127
  0
MATERIAL
  5
3C
102
{ACAD_REACTORS
330
3B
102
}
330
3B
100
AcDbMaterial
  1
ByLayer
 72
     1
 94
      127
  0
MATERIAL
  5
3E
102
{ACAD_REACTORS
330
3B
102
}
330
3B
100
AcDbMaterial
  1
Global
 72
     1
 94
      127
  0
MLINESTYLE
  5
18
102
{ACAD_REACTORS
330
17
102
}
330
17
100
AcDbMlineStyle
  2
Standard
 70
     0
  3

 62
   256
 51
90.0
 52
90.0
 71
     2
 49
0.5
 62
   256
  6
BYLAYER
 49
-0.5
 62
   256
  6
BYLAYER
  0
ACDBPLACEHOLDER
  5
F
102
{ACAD_REACTORS
330
E
102
}
330
E
  0
VISUALSTYLE
  5
2F
102
{ACAD_REACTORS
330
2A
102
}
330
2A
100
AcDbVisualStyle
  2
2dWireframe
 70
     4
177
     2
291
     0
 71
     0
176
     1
 72
     2
176
     1
 73
     0
176
     1
 90
        0
176
     1
 40
-0.6
176
     1
 41
-30.0
176
     1
 62
     5
 63
     7
421
 16777215
176
     1
 74
     1
176
     1
 91
        4
176
     1
 64
     7
176
     1
 65
   257
176
     1
 75
     1
176
     1
175
     1
176
     1
 42
1.0
176
     1
 92
        0
176
     1
 66
   257
176
     1
 43
1.0
176
     1
 76
     1
176
     1
 77
     6
176
     1
 78
     2
176
     1
 67
     7
176
     1
 79
     5
176
     1
170
     0
176
     1
171
     0
176
     1
290
     0
176
     1
 93
        1
176
     1
 44
0.0
176
     1
173
     0
176
     1
  0
VISUALSTYLE
  5
31
102
{ACAD_REACTORS
330
2A
102
}
330
2A
100
AcDbVisualStyle
  2
3D Hidden
 70
     6
177
     2
291
     0
 71
     1
176
     1
 72
     2
176
     1
 73
     2
176
     1
 90
        0
176
     1
 40
-0.6
176
     1
 41
-30.0
176
     1
 62
     5
 63
     7
421
 16777215
176
     1
 74
     2
176
     1
 91
        2
176
     1
 64
     7
176
     1
 65
   257
176
     1
 75
     2
176
     1
175
     1
176
     1
 42
40.0
176
     1
 92
        0
176
     1
 66
   257
176
     1
 43
1.0
176
     1
 76
     1
176
     1
 77
     6
176
     1
 78
     2
176
     1
 67
     7
176
     1
 79
     3
176
     1
170
     0
176
     1
171
     0
176
     1
290
     0
176
     1
 93
        1
176
     1
 44
0.0
176
     1
173
     0
176
     1
  0
VISUALSTYLE
  5
30
102
{ACAD_REACTORS
330
2A
102
}
330
2A
100
AcDbVisualStyle
  2
3dWireframe
 70
     5
177
     2
291
     0
 71
     0
176
     1
 72
     2
176
     1
 73
     0
176
     1
 90
        0
176
     1
 40
-0.6
176
     1
 41
-30.0
176
     1
 62
     5
 63
     7
421
 16777215
176
     1
 74
     1
176
     1
 91
        4
176
     1
 64
     7
176
     1
 65
   257
176
     1
 75
     1
176
     1
175
     1
176
     1
 42
1.0
176
     1
 92
        0
176
     1
 66
   257
176
     1
 43
1.0
176
     1
 76
     1
176
     1
 77
     6
176
     1
 78
     2
176
     1
 67
     7
176
     1
 79
     5
176
     1
170
     0
176
     1
171
     0
176
     1
290
     0
176
     1
 93
        1
176
     1
 44
0.0
176
     1
173
     0
176
     1
  0
VISUALSTYLE
  5
32
102
{ACAD_REACTORS
330
2A
102
}
330
2A
100
AcDbVisualStyle
  2
Basic
 70
     7
177
     2
291
     1
 71
     1
176
     1
 72
     0
176
     1
 73
     1
176
     1
 90
        0
176
     1
 40
-0.6
176
     1
 41
-30.0
176
     1
 62
     5
 63
     7
421
 16777215
176
     1
 74
     0
176
     1
 91
        4
176
     1
 64
     7
176
     1
 65
   257
176
     1
 75
     1
176
     1
175
     1
176
     1
 42
1.0
176
     1
 92
        8
176
     1
 66
     7
176
     1
 43
1.0
176
     1
 76
     1
176
     1
 77
     6
176
     1
 78
     2
176
     1
 67
     7
176
     1
 79
     5
176
     1
170
     0
176
     1
171
     0
176
     1
290
     0
176
     1
 93
        1
176
     1
 44
0.0
176
     1
173
     0
176
     1
  0
VISUALSTYLE
  5
36
102
{ACAD_REACTORS
330
2A
102
}
330
2A
100
AcDbVisualStyle
  2
Brighten
 70
    12
177
     2
291
     1
 71
     2
176
     1
 72
     2
176
     1
 73
     0
176
     1
 90
        0
176
     1
 40
-0.6
176
     1
 41
-30.0
176
     1
 62
     5
 63
     7
421
 16777215
176
     1
 74
     1
176
     1
 91
        4
176
     1
 64
     7
176
     1
 65
   257
176
     1
 75
     1
176
     1
175
     1
176
     1
 42
1.0
176
     1
 92
        8
176
     1
 66
     7
176
     1
 43
1.0
176
     1
 76
     1
176
     1
 77
     6
176
     1
 78
     2
176
     1
 67
     7
176
     1
 79
     5
176
     1
170
     0
176
     1
171
     0
176
     1
290
     0
176
     1
 93
        1
176
     1
 44
50.0
176
     1
173
     0
176
     1
  0
VISUALSTYLE
  5
3A
102
{ACAD_REACTORS
330
2A
102
}
330
2A
100
AcDbVisualStyle
  2
ColorChange
 70
    16
177
     2
291
     1
 71
     2
176
     1
 72
     2
176
     1
 73
     3
176
     1
 90
        0
176
     1
 40
-0.6
176
     1
 41
-30.0
176
     1
 62
     5
 63
     8
421
  8421504
176
     1
 74
     1
176
     1
 91
        4
176
     1
 64
     7
176
     1
 65
   257
176
     1
 75
     1
176
     1
175
     1
176
     1
 42
1.0
176
     1
 92
        8
176
     1
 66
     8
424
  8421504
176
     1
 43
1.0
176
     1
 76
     1
176
     1
 77
     6
176
     1
 78
     2
176
     1
 67
     7
176
     1
 79
     5
176
     1
170
     0
176
     1
171
     0
176
     1
290
     0
176
     1
 93
        1
176
     1
 44
0.0
176
     1
173
     0
176
     1
  0
VISUALSTYLE
  5
34
102
{ACAD_REACTORS
330
2A
102
}
330
2A
100
AcDbVisualStyle
  2
Conceptual
 70
     9
177
     2
291
     0
 71
     3
176
     1
 72
     2
176
     1
 73
     0
176
     1
 90
        0
176
     1
 40
-0.6
176
     1
 41
-30.0
176
     1
 62
     5
 63
     7
421
 16777215
176
     1
 74
     2
176
     1
 91
        2
176
     1
 64
     7
176
     1
 65
   257
176
     1
 75
     1
176
     1
175
     1
176
     1
 42
40.0
176
     1
 92
        8
176
     1
 66
     7
176
     1
 43
1.0
176
     1
 76
     1
176
     1
 77
     6
176
     1
 78
     2
176
     1
 67
     7
176
     1
 79
     3
176
     1
170
     0
176
     1
171
     0
176
     1
290
     0
176
     1
 93
        1
176
     1
 44
0.0
176
     1
173
     0
176
     1
  0
VISUALSTYLE
  5
35
102
{ACAD_REACTORS
330
2A
102
}
330
2A
100
AcDbVisualStyle
  2
Dim
 70
    11
177
     2
291
     1
 71
     2
176
     1
 72
     2
176
     1
 73
     0
176
     1
 90
        0
176
     1
 40
-0.6
176
     1
 41
-30.0
176
     1
 62
     5
 63
     7
421
 16777215
176
     1
 74
     1
176
     1
 91
        4
176
     1
 64
     7
176
     1
 65
   257
176
     1
 75
     1
176
     1
175
     1
176
     1
 42
1.0
176
     1
 92
        8
176
     1
 66
     7
176
     1
 43
1.0
176
     1
 76
     1
176
     1
 77
     6
176
     1
 78
     2
176
     1
 67
     7
176
     1
 79
     5
176
     1
170
     0
176
     1
171
     0
176
     1
290
     0
176
     1
 93
        1
176
     1
 44
-50.0
176
     1
173
     0
176
     1
  0
VISUALSTYLE
  5
39
102
{ACAD_REACTORS
330
2A
102
}
330
2A
100
AcDbVisualStyle
  2
Facepattern
 70
    15
177
     2
291
     1
 71
     2
176
     1
 72
     2
176
     1
 73
     0
176
     1
 90
        0
176
     1
 40
-0.6
176
     1
 41
-30.0
176
     1
 62
     5
 63
     7
421
 16777215
176
     1
 74
     1
176
     1
 91
        4
176
     1
 64
     7
176
     1
 65
   257
176
     1
 75
     1
176
     1
175
     1
176
     1
 42
1.0
176
     1
 92
        8
176
     1
 66
     7
176
     1
 43
1.0
176
     1
 76
     1
176
     1
 77
     6
176
     1
 78
     2
176
     1
 67
     7
176
     1
 79
     5
176
     1
170
     0
176
     1
171
     0
176
     1
290
     0
176
     1
 93
        1
176
     1
 44
0.0
176
     1
173
     0
176
     1
  0
VISUALSTYLE
  5
2B
102
{ACAD_REACTORS
330
2A
102
}
330
2A
100
AcDbVisualStyle
  2
Flat
 70
     0
177
     2
291
     1
 71
     2
176
     1
 72
     1
176
     1
 73
     1
176
     1
 90
        2
176
     1
 40
-0.6
176
     1
 41
30.0
176
     1
 62
     5
 63
     7
421
 16777215
176
     1
 74
     0
176
     1
 91
        4
176
     1
 64
     7
176
     1
 65
   257
176
     1
 75
     1
176
     1
175
     1
176
     1
 42
1.0
176
     1
 92
        8
176
     1
 66
     7
176
     1
 43
1.0
176
     1
 76
     1
176
     1
 77
     6
176
     1
 78
     2
176
     1
 67
     7
176
     1
 79
     5
176
     1
170
     0
176
     1
171
     0
176
     1
290
     0
176
     1
 93
       13
176
     1
 44
0.0
176
     1
173
     0
176
     1
  0
VISUALSTYLE
  5
2C
102
{ACAD_REACTORS
330
2A
102
}
330
2A
100
AcDbVisualStyle
  2
FlatWithEdges
 70
     1
177
     2
291
     1
 71
     2
176
     1
 72
     1
176
     1
 73
     1
176
     1
 90
        2
176
     1
 40
-0.6
176
     1
 41
30.0
176
     1
 62
     5
 63
     7
421
 16777215
176
     1
 74
     1
176
     1
 91
        4
176
     1
 64
     7
176
     1
 65
   257
176
     1
 75
     1
176
     1
175
     1
176
     1
 42
1.0
176
     1
 92
        0
176
     1
 66
   257
176
     1
 43
1.0
176
     1
 76
     1
176
     1
 77
     6
176
     1
 78
     2
176
     1
 67
     7
176
     1
 79
     5
176
     1
170
     0
176
     1
171
     0
176
     1
290
     0
176
     1
 93
       13
176
     1
 44
0.0
176
     1
173
     0
176
     1
  0
VISUALSTYLE
  5
2D
102
{ACAD_REACTORS
330
2A
102
}
330
2A
100
AcDbVisualStyle
  2
Gouraud
 70
     2
177
     2
291
     1
 71
     2
176
     1
 72
     2
176
     1
 73
     1
176
     1
 90
        2
176
     1
 40
-0.6
176
     1
 41
30.0
176
     1
 62
     5
 63
     7
421
 16777215
176
     1
 74
     0
176
     1
 91
        4
176
     1
 64
     7
176
     1
 65
   257
176
     1
 75
     1
176
     1
175
     1
176
     1
 42
1.0
176
     1
 92
        0
176
     1
 66
     7
176
     1
 43
1.0
176
     1
 76
     1
176
     1
 77
     6
176
     1
 78
     2
176
     1
 67
     7
176
     1
 79
     5
176
     1
170
     0
176
     1
171
     0
176
     1
290
     0
176
     1
 93
       13
176
     1
 44
0.0
176
     1
173
     0
176
     1
  0
VISUALSTYLE
  5
2E
102
{ACAD_REACTORS
330
2A
102
}
330
2A
100
AcDbVisualStyle
  2
GouraudWithEdges
 70
     3
177
     2
291
     1
 71
     2
176
     1
 72
     2
176
     1
 73
     1
176
     1
 90
        2
176
     1
 40
-0.6
176
     1
 41
30.0
176
     1
 62
     5
 63
     7
421
 16777215
176
     1
 74
     1
176
     1
 91
        4
176
     1
 64
     7
176
     1
 65
   257
176
     1
 75
     1
176
     1
175
     1
176
     1
 42
1.0
176
     1
 92
        0
176
     1
 66
   257
176
     1
 43
1.0
176
     1
 76
     1
176
     1
 77
     6
176
     1
 78
     2
176
     1
 67
     7
176
     1
 79
     5
176
     1
170
     0
176
     1
171
     0
176
     1
290
     0
176
     1
 93
       13
176
     1
 44
0.0
176
     1
173
     0
176
     1
  0
VISUALSTYLE
  5
38
102
{ACAD_REACTORS
330
2A
102
}
330
2A
100
AcDbVisualStyle
  2
Linepattern
 70
    14
177
     2
291
     1
 71
     2
176
     1
 72
     2
176
     1
 73
     0
176
     1
 90
        0
176
     1
 40
-0.6
176
     1
 41
-30.0
176
     1
 62
     5
 63
     7
421
 16777215
176
     1
 74
     1
176
     1
 91
        4
176
     1
 64
     7
176
     1
 65
   257
176
     1
 75
     7
176
     1
175
     7
176
     1
 42
1.0
176
     1
 92
        8
176
     1
 66
     7
176
     1
 43
1.0
176
     1
 76
     1
176
     1
 77
     6
176
     1
 78
     2
176
     1
 67
     7
176
     1
 79
     5
176
     1
170
     0
176
     1
171
     0
176
     1
290
     0
176
     1
 93
        1
176
     1
 44
0.0
176
     1
173
     0
176
     1
  0
VISUALSTYLE
  5
33
102
{ACAD_REACTORS
330
2A
102
}
330
2A
100
AcDbVisualStyle
  2
Realistic
 70
     8
177
     2
291
     0
 71
     2
176
     1
 72
     2
176
     1
 73
     0
176
     1
 90
        0
176
     1
 40
-0.6
176
     1
 41
-30.0
176
     1
 62
     5
 63
     7
421
 16777215
176
     1
 74
     1
176
     1
 91
        0
176
     1
 64
     7
176
     1
 65
   257
176
     1
 75
     1
176
     1
175
     1
176
     1
 42
1.0
176
     1
 92
        8
176
     1
 66
     8
424
  7895160
176
     1
 43
1.0
176
     1
 76
     1
176
     1
 77
     6
176
     1
 78
     2
176
     1
 67
     7
176
     1
 79
     5
176
     1
170
     0
176
     1
171
     0
176
     1
290
     0
176
     1
 93
       13
176
     1
 44
0.0
176
     1
173
     0
176
     1
  0
VISUALSTYLE
  5
37
102
{ACAD_REACTORS
330
2A
102
}
330
2A
100
AcDbVisualStyle
  2
Thicken
 70
    13
177
     2
291
     1
 71
     2
176
     1
 72
     2
176
     1
 73
     0
176
     1
 90
        0
176
     1
 40
-0.6
176
     1
 41
-30.0
176
     1
 62
     5
 63
     7
421
 16777215
176
     1
 74
     1
176
     1
 91
        4
176
     1
 64
     7
176
     1
 65
   257
176
     1
 75
     1
176
     1
175
     1
176
     1
 42
1.0
176
     1
 92
       12
176
     1
 66
     7
176
     1
 43
1.0
176
     1
 76
     1
176
     1
 77
     6
176
     1
 78
     2
176
     1
 67
     7
176
     1
 79
     5
176
     1
170
     0
176
     1
171
     0
176
     1
290
     0
176
     1
 93
        1
176
     1
 44
0.0
176
     1
173
     0
176
     1
  0
ENDSEC
  0
EOF
