  0
SECTION
  2
HEADER
  9
$ACADVER
  1
AC1024
  9
$ACADMAINTVER
 70
     6
  9
$DWGCODEPAGE
  3
ANSI_932
  9
$INSBASE
 10
0.0
 20
0.0
 30
0.0
  9
$EXTMIN
 10
-6300.0
 20
-4455.0
 30
0.0
  9
$EXTMAX
 10
6300.0
 20
4455.0
 30
0.0
  9
$LIMMIN
 10
-6300.0
 20
-4455.0
  9
$LIMMAX
 10
6300.0
 20
4455.0
  9
$ORTHOMODE
 70
     0
  9
$REGENMODE
 70
     1
  9
$FILLMODE
 70
     1
  9
$QTEXTMODE
 70
     0
  9
$MIRRTEXT
 70
     1
  9
$LTSCALE
 40
30.0
  9
$ATTMODE
 70
     1
  9
$TEXTSIZE
 40
2.5
  9
$TRACEWID
 40
1.0
  9
$TEXTSTYLE
  7
Standard
  9
$CLAYER
  8
0
  9
$CELTYPE
  6
ByLayer
  9
$CECOLOR
 62
   256
  9
$CELTSCALE
 40
1.0
  9
$DISPSILH
 70
     0
  9
$DIMSCALE
 40
1.0
  9
$DIMASZ
 40
2.5
  9
$DIMEXO
 40
0.625
  9
$DIMDLI
 40
3.75
  9
$DIMRND
 40
0.0
  9
$DIMDLE
 40
0.0
  9
$DIMEXE
 40
1.25
  9
$DIMTP
 40
0.0
  9
$DIMTM
 40
0.0
  9
$DIMTXT
 40
2.5
  9
$DIMCEN
 40
2.5
  9
$DIMTSZ
 40
0.0
  9
$DIMTOL
 70
     0
  9
$DIMLIM
 70
     0
  9
$DIMTIH
 70
     0
  9
$DIMTOH
 70
     0
  9
$DIMSE1
 70
     0
  9
$DIMSE2
 70
     0
  9
$DIMTAD
 70
     1
  9
$DIMZIN
 70
     8
  9
$DIMBLK
  1

  9
$DIMASO
 70
     1
  9
$DIMSHO
 70
     1
  9
$DIMPOST
  1

  9
$DIMAPOST
  1

  9
$DIMALT
 70
     0
  9
$DIMALTD
 70
     3
  9
$DIMALTF
 40
0.03937007874016
  9
$DIMLFAC
 40
1.0
  9
$DIMTOFL
 70
     1
  9
$DIMTVP
 40
0.0
  9
$DIMTIX
 70
     0
  9
$DIMSOXD
 70
     0
  9
$DIMSAH
 70
     0
  9
$DIMBLK1
  1

  9
$DIMBLK2
  1

  9
$DIMSTYLE
  2
ISO-25
  9
$DIMCLRD
 70
     0
  9
$DIMCLRE
 70
     0
  9
$DIMCLRT
 70
     0
  9
$DIMTFAC
 40
1.0
  9
$DIMGAP
 40
0.625
  9
$DIMJUST
 70
     0
  9
$DIMSD1
 70
     0
  9
$DIMSD2
 70
     0
  9
$DIMTOLJ
 70
     0
  9
$DIMTZIN
 70
     8
  9
$DIMALTZ
 70
     0
  9
$DIMALTTZ
 70
     0
  9
$DIMUPT
 70
     0
  9
$DIMDEC
 70
     2
  9
$DIMTDEC
 70
     2
  9
$DIMALTU
 70
     2
  9
$DIMALTTD
 70
     3
  9
$DIMTXSTY
  7
Standard
  9
$DIMAUNIT
 70
     0
  9
$DIMADEC
 70
     0
  9
$DIMALTRND
 40
0.0
  9
$DIMAZIN
 70
     0
  9
$DIMDSEP
 70
    44
  9
$DIMATFIT
 70
     3
  9
$DIMFRAC
 70
     0
  9
$DIMLDRBLK
  1

  9
$DIMLUNIT
 70
     2
  9
$DIMLWD
 70
    -2
  9
$DIMLWE
 70
    -2
  9
$DIMTMOVE
 70
     0
  9
$DIMFXL
 40
1.0
  9
$DIMFXLON
 70
     0
  9
$DIMJOGANG
 40
0.7853981633974483
  9
$DIMTFILL
 70
     0
  9
$DIMTFILLCLR
 70
     0
  9
$DIMARCSYM
 70
     0
  9
$DIMLTYPE
  6

  9
$DIMLTEX1
  6

  9
$DIMLTEX2
  6

  9
$DIMTXTDIRECTION
 70
     0
  9
$LUNITS
 70
     2
  9
$LUPREC
 70
     4
  9
$SKETCHINC
 40
1.0
  9
$FILLETRAD
 40
10.0
  9
$AUNITS
 70
     0
  9
$AUPREC
 70
     0
  9
$MENU
  1
.
  9
$ELEVATION
 40
0.0
  9
$PELEVATION
 40
0.0
  9
$THICKNESS
 40
0.0
  9
$LIMCHECK
 70
     0
  9
$CHAMFERA
 40
10.0
  9
$CHAMFERB
 40
10.0
  9
$CHAMFERC
 40
20.0
  9
$CHAMFERD
 40
0.0
  9
$SKPOLY
 70
     0
  9
$TDCREATE
 40
2459380.631459618
  9
$TDUCREATE
 40
2459380.256459618
  9
$TDUPDATE
 40
2459380.63145963
  9
$TDUUPDATE
 40
2459380.25645963
  9
$TDINDWG
 40
0.0000000116
  9
$TDUSRTIMER
 40
0.0000000116
  9
$USRTIMER
 70
     1
  9
$ANGBASE
 50
0.0
  9
$ANGDIR
 70
     0
  9
$PDMODE
 70
     0
  9
$PDSIZE
 40
0.0
  9
$PLINEWID
 40
0.0
  9
$SPLFRAME
 70
     0
  9
$SPLINETYPE
 70
     6
  9
$SPLINESEGS
 70
     8
  9
$HANDSEED
  5
25B
  9
$SURFTAB1
 70
     6
  9
$SURFTAB2
 70
     6
  9
$SURFTYPE
 70
     6
  9
$SURFU
 70
     6
  9
$SURFV
 70
     6
  9
$UCSBASE
  2

  9
$UCSNAME
  2

  9
$UCSORG
 10
0.0
 20
0.0
 30
0.0
  9
$UCSXDIR
 10
1.0
 20
0.0
 30
0.0
  9
$UCSYDIR
 10
0.0
 20
1.0
 30
0.0
  9
$UCSORTHOREF
  2

  9
$UCSORTHOVIEW
 70
     0
  9
$UCSORGTOP
 10
0.0
 20
0.0
 30
0.0
  9
$UCSORGBOTTOM
 10
0.0
 20
0.0
 30
0.0
  9
$UCSORGLEFT
 10
0.0
 20
0.0
 30
0.0
  9
$UCSORGRIGHT
 10
0.0
 20
0.0
 30
0.0
  9
$UCSORGFRONT
 10
0.0
 20
0.0
 30
0.0
  9
$UCSORGBACK
 10
0.0
 20
0.0
 30
0.0
  9
$PUCSBASE
  2

  9
$PUCSNAME
  2

  9
$PUCSORG
 10
0.0
 20
0.0
 30
0.0
  9
$PUCSXDIR
 10
1.0
 20
0.0
 30
0.0
  9
$PUCSYDIR
 10
0.0
 20
1.0
 30
0.0
  9
$PUCSORTHOREF
  2

  9
$PUCSORTHOVIEW
 70
     0
  9
$PUCSORGTOP
 10
0.0
 20
0.0
 30
0.0
  9
$PUCSORGBOTTOM
 10
0.0
 20
0.0
 30
0.0
  9
$PUCSORGLEFT
 10
0.0
 20
0.0
 30
0.0
  9
$PUCSORGRIGHT
 10
0.0
 20
0.0
 30
0.0
  9
$PUCSORGFRONT
 10
0.0
 20
0.0
 30
0.0
  9
$PUCSORGBACK
 10
0.0
 20
0.0
 30
0.0
  9
$USERI1
 70
     0
  9
$USERI2
 70
     0
  9
$USERI3
 70
     0
  9
$USERI4
 70
     0
  9
$USERI5
 70
     0
  9
$USERR1
 40
0.0
  9
$USERR2
 40
0.0
  9
$USERR3
 40
0.0
  9
$USERR4
 40
0.0
  9
$USERR5
 40
0.0
  9
$WORLDVIEW
 70
     1
  9
$SHADEDGE
 70
     3
  9
$SHADEDIF
 70
    70
  9
$TILEMODE
 70
     1
  9
$MAXACTVP
 70
    64
  9
$PINSBASE
 10
0.0
 20
0.0
 30
0.0
  9
$PLIMCHECK
 70
     0
  9
$PEXTMIN
 10
1.000000000000000E+20
 20
1.000000000000000E+20
 30
1.000000000000000E+20
  9
$PEXTMAX
 10
-1.000000000000000E+20
 20
-1.000000000000000E+20
 30
-1.000000000000000E+20
  9
$PLIMMIN
 10
0.0
 20
0.0
  9
$PLIMMAX
 10
420.0
 20
297.0
  9
$UNITMODE
 70
     0
  9
$VISRETAIN
 70
     1
  9
$PLINEGEN
 70
     0
  9
$PSLTSCALE
 70
     1
  9
$TREEDEPTH
 70
  3020
  9
$CMLSTYLE
  2
Standard
  9
$CMLJUST
 70
     0
  9
$CMLSCALE
 40
20.0
  9
$PROXYGRAPHICS
 70
     1
  9
$MEASUREMENT
 70
     1
  9
$CELWEIGHT
370
    -1
  9
$ENDCAPS
280
     0
  9
$JOINSTYLE
280
     0
  9
$LWDISPLAY
290
     0
  9
$INSUNITS
 70
     4
  9
$HYPERLINKBASE
  1

  9
$STYLESHEET
  1

  9
$XEDIT
290
     1
  9
$CEPSNTYPE
380
     0
  9
$PSTYLEMODE
290
     1
  9
$FINGERPRINTGUID
  2
{319F7118-4DAC-4EEF-A36B-AB259423639C}
  9
$VERSIONGUID
  2
{FAEB1C32-E019-11D5-929B-00C0DF256EC4}
  9
$EXTNAMES
290
     1
  9
$PSVPSCALE
 40
0.0
  9
$OLESTARTUP
290
     0
  9
$SORTENTS
280
   127
  9
$INDEXCTL
280
     0
  9
$HIDETEXT
280
     1
  9
$XCLIPFRAME
280
     2
  9
$HALOGAP
280
     0
  9
$OBSCOLOR
 70
   257
  9
$OBSLTYPE
280
     0
  9
$INTERSECTIONDISPLAY
280
     0
  9
$INTERSECTIONCOLOR
 70
   257
  9
$DIMASSOC
280
     2
  9
$PROJECTNAME
  1

  9
$CAMERADISPLAY
290
     0
  9
$LENSLENGTH
 40
50.0
  9
$CAMERAHEIGHT
 40
0.0
  9
$STEPSPERSEC
 40
2.0
  9
$STEPSIZE
 40
6.0
  9
$3DDWFPREC
 40
2.0
  9
$PSOLWIDTH
 40
5.0
  9
$PSOLHEIGHT
 40
80.0
  9
$LOFTANG1
 40
1.570796326794897
  9
$LOFTANG2
 40
1.570796326794897
  9
$LOFTMAG1
 40
0.0
  9
$LOFTMAG2
 40
0.0
  9
$LOFTPARAM
 70
     7
  9
$LOFTNORMALS
280
     1
  9
$LATITUDE
 40
37.795
  9
$LONGITUDE
 40
-122.394
  9
$NORTHDIRECTION
 40
0.0
  9
$TIMEZONE
 70
 -8000
  9
$LIGHTGLYPHDISPLAY
280
     1
  9
$TILEMODELIGHTSYNCH
280
     1
  9
$SOLIDHIST
280
     1
  9
$SHOWHIST
280
     1
  9
$DWFFRAME
280
     2
  9
$DGNFRAME
280
     2
  9
$REALWORLDSCALE
290
     1
  9
$INTERFERECOLOR
 62
   256
  9
$CSHADOW
280
     0
  9
$SHADOWPLANELOCATION
 40
0.0
  0
ENDSEC
  0
SECTION
  2
CLASSES
  0
CLASS
  1
ACDBDICTIONARYWDFLT
  2
AcDbDictionaryWithDefault
  3
ObjectDBX Classes
 90
        0
 91
        4
280
     0
281
     0
  0
CLASS
  1
VISUALSTYLE
  2
AcDbVisualStyle
  3
ObjectDBX Classes
 90
     4095
 91
        4
280
     0
281
     0
  0
CLASS
  1
MATERIAL
  2
AcDbMaterial
  3
ObjectDBX Classes
 90
     1153
 91
        4
280
     0
281
     0
  0
ENDSEC
  0
SECTION
  2
TABLES
  0
TABLE
  2
VPORT
  5
8
330
0
100
AcDbSymbolTable
 70
     1
  0
VPORT
  5
29
330
8
100
AcDbSymbolTableRecord
100
AcDbViewportTableRecord
  2
*Active
 70
     0
 10
0.0
 20
0.0
 11
1.0
 21
1.0
 12
0.0
 22
0.0
 13
0.0
 23
0.0
 14
10.0
 24
10.0
 15
10.0
 25
10.0
 16
0.0
 26
0.0
 36
1.0
 17
0.0
 27
0.0
 37
0.0
 40
9801.0
 41
1.414141414141414
 42
50.0
 43
0.0
 44
0.0
 50
0.0
 51
0.0
 71
     0
 72
 10000
 73
     1
 74
     3
 75
     0
 76
     0
 77
     0
 78
     0
281
     0
 65
     1
110
0.0
120
0.0
130
0.0
111
1.0
121
0.0
131
0.0
112
0.0
122
1.0
132
0.0
 79
     0
146
0.0
 60
     3
 61
     5
292
     1
282
     1
141
0.0
142
0.0
 63
   250
  0
ENDTAB
  0
TABLE
  2
LTYPE
  5
5
330
0
100
AcDbSymbolTable
 70
     4
  0
LTYPE
  5
14
330
5
100
AcDbSymbolTableRecord
100
AcDbLinetypeTableRecord
  2
ByBlock
 70
     0
  3

 72
    65
 73
     0
 40
0.0
  0
LTYPE
  5
15
330
5
100
AcDbSymbolTableRecord
100
AcDbLinetypeTableRecord
  2
ByLayer
 70
     0
  3

 72
    65
 73
     0
 40
0.0
  0
LTYPE
  5
16
330
5
100
AcDbSymbolTableRecord
100
AcDbLinetypeTableRecord
  2
Continuous
 70
     0
  3
Solid line
 72
    65
 73
     0
 40
0.0
  0
LTYPE
  5
3F
330
5
100
AcDbSymbolTableRecord
100
AcDbLinetypeTableRecord
  2
JWW_HOJO
 70
     0
  3
  -   -   -   -   -   -   -   - 
 72
    65
 73
     2
 40
1.693333333333333
 49
-1.27
 74
     0
 49
0.4233333333333333
 74
     0
  0
LTYPE
  5
40
330
5
100
AcDbSymbolTableRecord
100
AcDbLinetypeTableRecord
  2
JWW_CENTER1
 70
     0
  3
-----  --  ----------  --  -----
 72
    65
 73
     4
 40
6.773333333333333
 49
4.233333333333333
 74
     0
 49
-0.8466666666666667
 74
     0
 49
0.8466666666666667
 74
     0
 49
-0.8466666666666667
 74
     0
  0
LTYPE
  5
41
330
5
100
AcDbSymbolTableRecord
100
AcDbLinetypeTableRecord
  2
JWW_CENTER2
 70
     0
  3
-------------  --  -------------
 72
    65
 73
     4
 40
13.54666666666667
 49
11.00666666666667
 74
     0
 49
-0.8466666666666667
 74
     0
 49
0.8466666666666667
 74
     0
 49
-0.8466666666666667
 74
     0
  0
ENDTAB
  0
TABLE
  2
LAYER
  5
2
330
0
100
AcDbSymbolTable
 70
    12
  0
LAYER
  5
10
330
2
100
AcDbSymbolTableRecord
100
AcDbLayerTableRecord
  2
0
 70
     0
 62
     7
  6
Continuous
370
    -3
390
F
347
3E
  0
LAYER
  5
42
330
2
100
AcDbSymbolTableRecord
100
AcDbLayerTableRecord
  2
0-2_扉
 70
     0
 62
     7
  6
Continuous
370
    -3
390
F
347
3E
  0
LAYER
  5
43
330
2
100
AcDbSymbolTableRecord
100
AcDbLayerTableRecord
  2
F-1_枠
 70
     0
 62
     7
  6
Continuous
370
    -3
390
F
347
3E
  0
LAYER
  5
44
330
2
100
AcDbSymbolTableRecord
100
AcDbLayerTableRecord
  2
F-0_補助線
 70
     0
 62
     7
  6
Continuous
370
    -3
390
F
347
3E
  0
LAYER
  5
45
330
2
100
AcDbSymbolTableRecord
100
AcDbLayerTableRecord
  2
0-0_補助線
 70
     0
 62
     7
  6
Continuous
370
    -3
390
F
347
3E
  0
LAYER
  5
46
330
2
100
AcDbSymbolTableRecord
100
AcDbLayerTableRecord
  2
F-A_文字
 70
     0
 62
     7
  6
Continuous
370
    -3
390
F
347
3E
  0
LAYER
  5
47
330
2
100
AcDbSymbolTableRecord
100
AcDbLayerTableRecord
  2
0-4_枠
 70
     0
 62
     7
  6
Continuous
370
    -3
390
F
347
3E
  0
LAYER
  5
48
330
2
100
AcDbSymbolTableRecord
100
AcDbLayerTableRecord
  2
0-B_寸法
 70
     0
 62
     7
  6
Continuous
370
    -3
390
F
347
3E
  0
LAYER
  5
49
330
2
100
AcDbSymbolTableRecord
100
AcDbLayerTableRecord
  2
0-A_文字
 70
     0
 62
     7
  6
Continuous
370
    -3
390
F
347
3E
  0
LAYER
  5
4A
330
2
100
AcDbSymbolTableRecord
100
AcDbLayerTableRecord
  2
レバー
 70
     0
 62
     7
  6
Continuous
370
    -3
390
F
347
3E
  0
LAYER
  5
4B
330
2
100
AcDbSymbolTableRecord
100
AcDbLayerTableRecord
  2
0-7
 70
     0
 62
     7
  6
Continuous
370
    -3
390
F
347
3E
  0
LAYER
  5
4C
330
2
100
AcDbSymbolTableRecord
100
AcDbLayerTableRecord
  2
0-C_ハッチ
 70
     0
 62
     7
  6
Continuous
370
    -3
390
F
347
3E
  0
ENDTAB
  0
TABLE
  2
STYLE
  5
3
330
0
100
AcDbSymbolTable
 70
     1
  0
STYLE
  5
11
330
3
100
AcDbSymbolTableRecord
100
AcDbTextStyleTableRecord
  2
Standard
 70
     0
 40
0.0
 41
1.0
 50
0.0
 71
     0
 42
2.5
  3
txt
  4

  0
ENDTAB
  0
TABLE
  2
VIEW
  5
6
330
0
100
AcDbSymbolTable
 70
     0
  0
ENDTAB
  0
TABLE
  2
UCS
  5
7
330
0
100
AcDbSymbolTable
 70
     0
  0
ENDTAB
  0
TABLE
  2
APPID
  5
9
330
0
100
AcDbSymbolTable
 70
     1
  0
APPID
  5
12
330
9
100
AcDbSymbolTableRecord
100
AcDbRegAppTableRecord
  2
ACAD
 70
     0
  0
ENDTAB
  0
TABLE
  2
DIMSTYLE
  5
A
330
0
100
AcDbSymbolTable
 70
     1
100
AcDbDimStyleTable
  0
DIMSTYLE
105
27
330
A
100
AcDbSymbolTableRecord
100
AcDbDimStyleTableRecord
  2
ISO-25
 70
     0
 41
2.5
 42
0.625
 43
3.75
 44
1.25
 73
     0
 74
     0
 77
     1
 78
     8
140
2.5
141
2.5
143
0.03937007874016
147
0.625
171
     3
172
     1
178
     0
271
     2
272
     2
274
     3
278
    44
283
     0
284
     8
340
11
  0
ENDTAB
  0
TABLE
  2
BLOCK_RECORD
  5
1
330
0
100
AcDbSymbolTable
 70
     1
  0
BLOCK_RECORD
  5
1F
330
1
100
AcDbSymbolTableRecord
100
AcDbBlockTableRecord
  2
*Model_Space
340
22
 70
     0
280
     1
281
     0
  0
BLOCK_RECORD
  5
1B
330
1
100
AcDbSymbolTableRecord
100
AcDbBlockTableRecord
  2
*Paper_Space
340
1E
 70
     0
280
     1
281
     0
  0
BLOCK_RECORD
  5
23
330
1
100
AcDbSymbolTableRecord
100
AcDbBlockTableRecord
  2
*Paper_Space0
340
26
 70
     0
280
     1
281
     0
  0
ENDTAB
  0
ENDSEC
  0
SECTION
  2
BLOCKS
  0
BLOCK
  5
20
330
1F
100
AcDbEntity
  8
0
100
AcDbBlockBegin
  2
*Model_Space
 70
     0
 10
0.0
 20
0.0
 30
0.0
  3
*Model_Space
  1

  0
ENDBLK
  5
21
330
1F
100
AcDbEntity
  8
0
100
AcDbBlockEnd
  0
BLOCK
  5
1C
330
1B
100
AcDbEntity
 67
     1
  8
0
100
AcDbBlockBegin
  2
*Paper_Space
 70
     0
 10
0.0
 20
0.0
 30
0.0
  3
*Paper_Space
  1

  0
ENDBLK
  5
1D
330
1B
100
AcDbEntity
 67
     1
  8
0
100
AcDbBlockEnd
  0
BLOCK
  5
24
330
23
100
AcDbEntity
  8
0
100
AcDbBlockBegin
  2
*Paper_Space0
 70
     0
 10
0.0
 20
0.0
 30
0.0
  3
*Paper_Space0
  1

  0
ENDBLK
  5
25
330
23
100
AcDbEntity
  8
0
100
AcDbBlockEnd
  0
ENDSEC
  0
SECTION
  2
ENTITIES
  0
LINE
  5
4D
330
1F
100
AcDbEntity
  8
0-2_扉
  6
Continuous
 62
     7
370
     9
100
AcDbLine
 10
-4515.249870094091
 20
3251.749950512036
 30
0.0
 11
-4515.249870094091
 21
2309.249719568202
 31
0.0
  0
LINE
  5
4E
330
1F
100
AcDbEntity
  8
0-2_扉
  6
Continuous
 62
     7
370
     9
100
AcDbLine
 10
-4764.000018557984
 20
1443.000148463894
 30
0.0
 11
-4764.000018557984
 21
3438.000148463894
 31
0.0
  0
LINE
  5
4F
330
1F
100
AcDbEntity
  8
F-1_枠
  6
Continuous
 62
   200
370
    20
100
AcDbLine
 10
-5490.000018557986
 20
4174.999769056166
 30
0.0
 11
-5490.000018557986
 21
-3790.000179909372
 31
0.0
  0
LINE
  5
50
330
1F
100
AcDbEntity
  8
F-1_枠
  6
Continuous
 62
   200
370
    20
100
AcDbLine
 10
-5999.99998453501
 20
190.5001831054688
 30
0.0
 11
5699.998762800888
 21
190.5001831054688
 31
0.0
  0
LINE
  5
51
330
1F
100
AcDbEntity
  8
F-1_枠
  6
Continuous
 62
   200
370
    20
100
AcDbLine
 10
-5999.99998453501
 20
184.5000148463899
 30
0.0
 11
5699.998762800888
 21
184.5000148463899
 31
0.0
  0
LINE
  5
52
330
1F
100
AcDbEntity
  8
F-1_枠
  6
Continuous
 62
   200
370
    20
100
AcDbLine
 10
-5999.99998453501
 20
187.5000989759289
 30
0.0
 11
5699.998762800888
 21
187.5000989759289
 31
0.0
  0
LINE
  5
53
330
1F
100
AcDbEntity
  8
F-1_枠
  6
Continuous
 62
   200
370
    20
100
AcDbLine
 10
-5999.999752560178
 20
4174.999769056166
 30
0.0
 11
5699.998762800888
 21
4174.999769056166
 31
0.0
  0
LINE
  5
54
330
1F
100
AcDbEntity
  8
F-0_補助線
  6
JWW_HOJO
 62
   120
370
     5
100
AcDbLine
 10
-6300.0
 20
-4455.0
 30
0.0
 11
-6300.0
 21
4424.999604096284
 31
0.0
  0
LINE
  5
55
330
1F
100
AcDbEntity
  8
F-0_補助線
  6
JWW_HOJO
 62
   120
370
     5
100
AcDbLine
 10
5999.999010240709
 20
4424.999604096284
 30
0.0
 11
5999.999010240709
 21
-4455.0
 31
0.0
  0
LINE
  5
56
330
1F
100
AcDbEntity
  8
F-0_補助線
  6
JWW_HOJO
 62
   120
370
     5
100
AcDbLine
 10
5999.999010240709
 20
-4455.0
 30
0.0
 11
-6300.0
 21
-4455.0
 31
0.0
  0
LINE
  5
57
330
1F
100
AcDbEntity
  8
F-1_枠
  6
Continuous
 62
   200
370
    20
100
AcDbLine
 10
-5999.999752560178
 20
4164.999983504013
 30
0.0
 11
5699.998762800888
 21
4164.999983504013
 31
0.0
  0
LINE
  5
58
330
1F
100
AcDbEntity
  8
F-1_枠
  6
Continuous
 62
   200
370
    20
100
AcDbLine
 10
-5999.999752560178
 20
4169.999505120355
 30
0.0
 11
5699.998762800888
 21
4169.999505120355
 31
0.0
  0
LINE
  5
59
330
1F
100
AcDbEntity
  8
F-1_枠
  6
Continuous
 62
   200
370
    20
100
AcDbLine
 10
5689.998977248734
 20
4174.999769056166
 30
0.0
 11
5689.998977248734
 21
-4205.000164959882
 31
0.0
  0
LINE
  5
5A
330
1F
100
AcDbEntity
  8
F-1_枠
  6
Continuous
 62
   200
370
    20
100
AcDbLine
 10
5694.998498865077
 20
4174.999769056166
 30
0.0
 11
5694.998498865077
 21
-4205.000164959882
 31
0.0
  0
LINE
  5
5B
330
1F
100
AcDbEntity
  8
F-1_枠
  6
Continuous
 62
   200
370
    20
100
AcDbLine
 10
5699.998762800888
 20
4174.999769056166
 30
0.0
 11
5699.998762800888
 21
-4205.000164959882
 31
0.0
  0
LINE
  5
5C
330
1F
100
AcDbEntity
  8
F-1_枠
  6
Continuous
 62
   200
370
    20
100
AcDbLine
 10
-5989.999990205507
 20
4174.999769056166
 30
0.0
 11
-5989.999990205507
 21
-4205.000164959882
 31
0.0
  0
LINE
  5
5D
330
1F
100
AcDbEntity
  8
F-1_枠
  6
Continuous
 62
   200
370
    20
100
AcDbLine
 10
-5994.999975771518
 20
4174.999769056166
 30
0.0
 11
-5994.999975771518
 21
-4205.000164959882
 31
0.0
  0
LINE
  5
5E
330
1F
100
AcDbEntity
  8
F-1_枠
  6
Continuous
 62
   200
370
    20
100
AcDbLine
 10
-5999.99998453501
 20
4174.999769056166
 30
0.0
 11
-5999.99998453501
 21
-4205.000164959882
 31
0.0
  0
LINE
  5
5F
330
1F
100
AcDbEntity
  8
F-0_補助線
  6
JWW_HOJO
 62
   120
370
     5
100
AcDbLine
 10
-6300.0
 20
4424.999604096284
 30
0.0
 11
5999.999010240709
 21
4424.999604096284
 31
0.0
  0
LINE
  5
60
330
1F
100
AcDbEntity
  8
F-0_補助線
  6
JWW_HOJO
 62
     7
370
     9
100
AcDbLine
 10
849.9995876002961
 20
-3795.000003092998
 30
0.0
 11
849.9995876002961
 21
-4195.000008247994
 31
0.0
  0
LINE
  5
61
330
1F
100
AcDbEntity
  8
F-0_補助線
  6
JWW_HOJO
 62
     7
370
     9
100
AcDbLine
 10
349.9999175200594
 20
-3795.000003092998
 30
0.0
 11
349.9999175200594
 21
-4195.000008247994
 31
0.0
  0
LINE
  5
62
330
1F
100
AcDbEntity
  8
F-1_枠
  6
Continuous
 62
   200
370
    20
100
AcDbLine
 10
5699.998762800888
 20
-4205.000002577498
 30
0.0
 11
-5999.999752560178
 21
-4205.000002577498
 31
0.0
  0
LINE
  5
63
330
1F
100
AcDbEntity
  8
F-1_枠
  6
Continuous
 62
   200
370
    20
100
AcDbLine
 10
5699.998762800888
 20
-4199.999993814004
 30
0.0
 11
-5999.999752560178
 21
-4199.999993814004
 31
0.0
  0
LINE
  5
64
330
1F
100
AcDbEntity
  8
F-1_枠
  6
Continuous
 62
   200
370
    20
100
AcDbLine
 10
5699.998762800888
 20
-4195.000008247994
 30
0.0
 11
-5999.999752560178
 21
-4195.000008247994
 31
0.0
  0
LINE
  5
65
330
1F
100
AcDbEntity
  8
F-1_枠
  6
Continuous
 62
   200
370
    20
100
AcDbLine
 10
4189.999224688556
 20
-3795.000003092998
 30
0.0
 11
4189.999224688556
 21
-4195.000008247994
 31
0.0
  0
LINE
  5
66
330
1F
100
AcDbEntity
  8
F-1_枠
  6
Continuous
 62
   200
370
    20
100
AcDbLine
 10
2689.998729808911
 20
-3795.000003092998
 30
0.0
 11
2689.998729808911
 21
-4195.000008247994
 31
0.0
  0
LINE
  5
67
330
1F
100
AcDbEntity
  8
F-1_枠
  6
Continuous
 62
   200
370
    20
100
AcDbLine
 10
-150.0001237199109
 20
-3795.000003092998
 30
0.0
 11
-150.0001237199109
 21
-4195.000008247994
 31
0.0
  0
LINE
  5
68
330
1F
100
AcDbEntity
  8
F-1_枠
  6
Continuous
 62
   200
370
    20
100
AcDbLine
 10
-150.0001237199109
 20
-3994.999936078046
 30
0.0
 11
5689.998977248734
 21
-3995.005364289155
 31
0.0
  0
LINE
  5
69
330
1F
100
AcDbEntity
  8
F-0_補助線
  6
JWW_HOJO
 62
     7
370
     9
100
AcDbLine
 10
-5989.999990205507
 20
-3994.99993607839
 30
0.0
 11
-150.0001237199109
 21
-3994.99993607839
 31
0.0
  0
LINE
  5
6A
330
1F
100
AcDbEntity
  8
F-0_補助線
  6
JWW_HOJO
 62
     7
370
     9
100
AcDbLine
 10
-5989.999990205507
 20
-3904.99993607839
 30
0.0
 11
-150.0001237199109
 21
-3904.99993607839
 31
0.0
  0
LINE
  5
6B
330
1F
100
AcDbEntity
  8
F-0_補助線
  6
JWW_HOJO
 62
     7
370
     9
100
AcDbLine
 10
-5989.999990205507
 20
-4084.99993607839
 30
0.0
 11
-150.0001237199109
 21
-4084.99993607839
 31
0.0
  0
LINE
  5
6C
330
1F
100
AcDbEntity
  8
F-0_補助線
  6
JWW_HOJO
 62
     7
370
     9
100
AcDbLine
 10
-150.0002584955388
 20
-4139.999739777983
 30
0.0
 11
5689.998842473105
 21
-4140.005167989091
 31
0.0
  0
LINE
  5
6D
330
1F
100
AcDbEntity
  8
F-0_補助線
  6
JWW_HOJO
 62
     7
370
     9
100
AcDbLine
 10
-150.0001748415872
 20
-4049.999739778022
 30
0.0
 11
5689.998926127057
 21
-4050.005167989131
 31
0.0
  0
LINE
  5
6E
330
1F
100
AcDbEntity
  8
F-0_補助線
  6
JWW_HOJO
 62
     7
370
     9
100
AcDbLine
 10
-150.0000725978671
 20
-3939.99973721807
 30
0.0
 11
5689.999028370777
 21
-3940.005165429179
 31
0.0
  0
LINE
  5
6F
330
1F
100
AcDbEntity
  8
F-0_補助線
  6
JWW_HOJO
 62
     7
370
     9
100
AcDbLine
 10
-149.9999889439155
 20
-3849.999737218109
 30
0.0
 11
5689.999112024728
 21
-3850.005165429218
 31
0.0
  0
LINE
  5
70
330
1F
100
AcDbEntity
  8
F-0_補助線
  6
JWW_HOJO
 62
     7
370
     9
100
AcDbLine
 10
2779.998729808911
 20
-3795.000003092998
 30
0.0
 11
2779.998729808911
 21
-4195.000008247994
 31
0.0
  0
LINE
  5
71
330
1F
100
AcDbEntity
  8
F-0_補助線
  6
JWW_HOJO
 62
     7
370
     9
100
AcDbLine
 10
-60.0001237199109
 20
-3795.000003092998
 30
0.0
 11
-60.0001237199109
 21
-4195.000008247994
 31
0.0
  0
LINE
  5
72
330
1F
100
AcDbEntity
  8
F-0_補助線
  6
JWW_HOJO
 62
     7
370
     9
100
AcDbLine
 10
4279.999224688556
 20
-3795.000003092998
 30
0.0
 11
4279.999224688556
 21
-4195.000008247994
 31
0.0
  0
LINE
  5
73
330
1F
100
AcDbEntity
  8
F-0_補助線
  6
JWW_HOJO
 62
     7
370
     9
100
AcDbLine
 10
-5247.547376752838
 20
-3795.000003092999
 30
0.0
 11
-5247.547376752838
 21
-4205.000164959882
 31
0.0
  0
LINE
  5
74
330
1F
100
AcDbEntity
  8
F-0_補助線
  6
JWW_HOJO
 62
     7
370
     9
100
AcDbLine
 10
-210.0001237199109
 20
-3795.000003092998
 30
0.0
 11
-210.0001237199109
 21
-4195.000008247994
 31
0.0
  0
LINE
  5
75
330
1F
100
AcDbEntity
  8
0-0_補助線
  6
JWW_HOJO
 62
     7
370
     9
100
AcDbLine
 10
-5490.000018557986
 20
3465.000148463894
 30
0.0
 11
5689.998977248734
 21
3465.000148463894
 31
0.0
  0
LINE
  5
76
330
1F
100
AcDbEntity
  8
0-0_補助線
  6
JWW_HOJO
 62
     7
370
     9
100
AcDbLine
 10
-5490.000018557986
 20
1418.000148463893
 30
0.0
 11
5689.998977248734
 21
1418.000148463893
 31
0.0
  0
LINE
  5
77
330
1F
100
AcDbEntity
  8
0-0_補助線
  6
JWW_HOJO
 62
   120
370
     5
100
AcDbLine
 10
-5490.000018557986
 20
1368.000148463894
 30
0.0
 11
5689.998977248734
 21
1368.000148463894
 31
0.0
  0
LINE
  5
78
330
1F
100
AcDbEntity
  8
0-0_補助線
  6
JWW_HOJO
 62
     7
370
     9
100
AcDbLine
 10
-5490.000018557986
 20
-2701.250083820241
 30
0.0
 11
5699.998762800888
 21
-2701.250083820241
 31
0.0
  0
LINE
  5
79
330
1F
100
AcDbEntity
  8
0-0_補助線
  6
JWW_HOJO
 62
   120
370
     5
100
AcDbLine
 10
-5490.000018557986
 20
-2751.250083820241
 30
0.0
 11
5699.998762800888
 21
-2751.250083820241
 31
0.0
  0
LINE
  5
7A
330
1F
100
AcDbEntity
  8
0-0_補助線
  6
JWW_HOJO
 62
     7
370
     9
100
AcDbLine
 10
-5490.000018557986
 20
1168.000148463894
 30
0.0
 11
5689.998977248734
 21
1168.000148463894
 31
0.0
  0
LINE
  5
7B
330
1F
100
AcDbEntity
  8
0-0_補助線
  6
JWW_HOJO
 62
     7
370
     9
100
AcDbLine
 10
-5490.000018557986
 20
-2951.250083820241
 30
0.0
 11
5699.998762800888
 21
-2951.250083820241
 31
0.0
  0
LINE
  5
7C
330
1F
100
AcDbEntity
  8
0-0_補助線
  6
JWW_HOJO
 62
     7
370
     9
100
AcDbLine
 10
-5490.000018557986
 20
-454.2500838202386
 30
0.0
 11
5699.998762800888
 21
-454.2500838202386
 31
0.0
  0
LINE
  5
7D
330
1F
100
AcDbEntity
  8
F-1_枠
  6
Continuous
 62
   200
370
    20
100
AcDbLine
 10
5699.998762800888
 20
-3795.000003092998
 30
0.0
 11
-5999.99998453501
 21
-3795.000003092998
 31
0.0
  0
LINE
  5
7E
330
1F
100
AcDbEntity
  8
F-1_枠
  6
Continuous
 62
   200
370
    20
100
AcDbLine
 10
-5999.99998453501
 20
3964.999818544131
 30
0.0
 11
5699.998762800888
 21
3964.999818544131
 31
0.0
  0
LINE
  5
7F
330
1F
100
AcDbEntity
  8
F-1_枠
  6
Continuous
 62
   200
370
    20
100
AcDbLine
 10
5699.998762800888
 20
-3790.000017526987
 30
0.0
 11
-5999.99998453501
 21
-3790.000017526987
 31
0.0
  0
LINE
  5
80
330
1F
100
AcDbEntity
  8
F-1_枠
  6
Continuous
 62
   200
370
    20
100
AcDbLine
 10
-5999.99998453501
 20
-15.50015011349217
 30
0.0
 11
5699.998762800888
 21
-15.50015011349217
 31
0.0
  0
LINE
  5
81
330
1F
100
AcDbEntity
  8
F-1_枠
  6
Continuous
 62
   200
370
    20
100
AcDbLine
 10
1204.8000851193
 20
4174.999769056166
 30
0.0
 11
1204.8000851193
 21
-3790.000179909372
 31
0.0
  0
LINE
  5
82
330
1F
100
AcDbEntity
  8
F-1_枠
  6
Continuous
 62
   200
370
    20
100
AcDbLine
 10
-1026.799671069995
 20
4174.999769056166
 30
0.0
 11
-1026.799671069995
 21
-3790.000179909372
 31
0.0
  0
LINE
  5
83
330
1F
100
AcDbEntity
  8
F-1_枠
  6
Continuous
 62
   200
370
    20
100
AcDbLine
 10
3436.400212468328
 20
4174.999769056166
 30
0.0
 11
3436.400212468328
 21
-3790.000179909372
 31
0.0
  0
LINE
  5
84
330
1F
100
AcDbEntity
  8
F-1_枠
  6
Continuous
 62
   200
370
    20
100
AcDbLine
 10
-3258.399798419025
 20
4174.999769056166
 30
0.0
 11
-3258.399798419025
 21
-3790.000179909372
 31
0.0
  0
LINE
  5
85
330
1F
100
AcDbEntity
  8
F-A_文字
  6
Continuous
 62
     7
370
     9
100
AcDbLine
 10
-1026.799671069995
 20
184.5000148463899
 30
0.0
 11
-3258.399798419025
 21
-3790.000017526987
 31
0.0
  0
LINE
  5
86
330
1F
100
AcDbEntity
  8
F-A_文字
  6
Continuous
 62
     7
370
     9
100
AcDbLine
 10
1204.800085119301
 20
184.5000148463899
 30
0.0
 11
-1026.79974162023
 21
-3790.000179909372
 31
0.0
  0
LINE
  5
87
330
1F
100
AcDbEntity
  8
F-A_文字
  6
Continuous
 62
     7
370
     9
100
AcDbLine
 10
1204.8000851193
 20
-3790.000017526987
 30
0.0
 11
3436.400212468328
 21
184.5000148463899
 31
0.0
  0
LINE
  5
88
330
1F
100
AcDbEntity
  8
F-A_文字
  6
Continuous
 62
     7
370
     9
100
AcDbLine
 10
3436.400212468328
 20
-3790.000017526987
 30
0.0
 11
5689.998977248734
 21
184.5000148463899
 31
0.0
  0
LINE
  5
89
330
1F
100
AcDbEntity
  8
F-A_文字
  6
Continuous
 62
     7
370
     9
100
AcDbLine
 10
-1026.799671069995
 20
4164.999983504013
 30
0.0
 11
-3258.399798419025
 21
190.499951130636
 31
0.0
  0
LINE
  5
8A
330
1F
100
AcDbEntity
  8
F-A_文字
  6
Continuous
 62
     7
370
     9
100
AcDbLine
 10
1204.800085119301
 20
4164.999983504013
 30
0.0
 11
-1026.79974162023
 21
190.499788748252
 31
0.0
  0
LINE
  5
8B
330
1F
100
AcDbEntity
  8
F-A_文字
  6
Continuous
 62
     7
370
     9
100
AcDbLine
 10
1204.8000851193
 20
190.499951130636
 30
0.0
 11
3436.400212468328
 21
4164.999983504013
 31
0.0
  0
LINE
  5
8C
330
1F
100
AcDbEntity
  8
F-A_文字
  6
Continuous
 62
     7
370
     9
100
AcDbLine
 10
3436.400212468328
 20
190.499951130636
 30
0.0
 11
5689.998977248734
 21
4164.999983504013
 31
0.0
  0
LINE
  5
8D
330
1F
100
AcDbEntity
  8
0-4_枠
  6
Continuous
 62
    92
370
    13
100
AcDbLine
 10
-4790.000018557988
 20
3465.000148463894
 30
0.0
 11
-4790.000018557988
 21
1418.000148463893
 31
0.0
  0
LINE
  5
8E
330
1F
100
AcDbEntity
  8
0-4_枠
  6
Continuous
 62
    92
370
    13
100
AcDbLine
 10
-3601.000018557988
 20
3465.000148463894
 30
0.0
 11
-3601.000018557988
 21
1418.000148463893
 31
0.0
  0
LINE
  5
8F
330
1F
100
AcDbEntity
  8
0-4_枠
  6
Continuous
 62
    92
370
    13
100
AcDbLine
 10
-4790.000018557988
 20
1418.000148463893
 30
0.0
 11
-3601.000018557988
 21
1418.000148463893
 31
0.0
  0
LINE
  5
90
330
1F
100
AcDbEntity
  8
0-B_寸法
  6
Continuous
 62
   120
370
     5
100
AcDbLine
 10
-5090.000018557988
 20
3438.000148463894
 30
0.0
 11
-5090.000018557988
 21
1443.000148463894
 31
0.0
  0
LINE
  5
91
330
1F
100
AcDbEntity
  8
0-B_寸法
  6
Continuous
 62
   120
370
     5
100
AcDbLine
 10
-5090.000018557988
 20
3438.000148463894
 30
0.0
 11
-4840.000018557987
 21
3438.000148463894
 31
0.0
  0
LINE
  5
92
330
1F
100
AcDbEntity
  8
0-B_寸法
  6
Continuous
 62
   120
370
     5
100
AcDbLine
 10
-5090.000018557988
 20
1443.000148463894
 30
0.0
 11
-4840.000018557987
 21
1443.000148463894
 31
0.0
  0
LWPOLYLINE
  5
93
330
1F
100
AcDbEntity
  8
0-B_寸法
  6
Continuous
 62
     7
370
     9
100
AcDbPolyline
 90
        4
 70
     1
 43
3.0
 10
-5088.500018557987
 20
3438.000148463894
 42
0.4142135623731
 10
-5090.000018557988
 20
3439.500148463894
 42
0.4142135623731
 10
-5091.500018557988
 20
3438.000148463894
 42
0.4142135623731
 10
-5090.000018557988
 20
3436.500148463895
 42
0.4142135623731
  0
LWPOLYLINE
  5
94
330
1F
100
AcDbEntity
  8
0-B_寸法
  6
Continuous
 62
     7
370
     9
100
AcDbPolyline
 90
        4
 70
     1
 43
3.0
 10
-5088.500018557987
 20
1443.000148463894
 42
0.4142135623731
 10
-5090.000018557988
 20
1444.500148463894
 42
0.4142135623731
 10
-5091.500018557988
 20
1443.000148463894
 42
0.4142135623731
 10
-5090.000018557988
 20
1441.500148463894
 42
0.4142135623731
  0
LINE
  5
95
330
1F
100
AcDbEntity
  8
0-4_枠
  6
Continuous
 62
    92
370
    13
100
AcDbLine
 10
-4766.000018557987
 20
1418.000148463893
 30
0.0
 11
-4766.000018557987
 21
3465.000148463894
 31
0.0
  0
LINE
  5
96
330
1F
100
AcDbEntity
  8
0-4_枠
  6
Continuous
 62
    92
370
    13
100
AcDbLine
 10
-3625.000018557987
 20
1418.000148463893
 30
0.0
 11
-3625.000018557987
 21
3465.000148463894
 31
0.0
  0
LINE
  5
97
330
1F
100
AcDbEntity
  8
0-4_枠
  6
Continuous
 62
    92
370
    13
100
AcDbLine
 10
-4766.000018557987
 20
3441.000148463893
 30
0.0
 11
-3625.000018557987
 21
3441.000148463893
 31
0.0
  0
LINE
  5
98
330
1F
100
AcDbEntity
  8
0-4_枠
  6
Continuous
 62
    92
370
    13
100
AcDbLine
 10
-4790.000018557988
 20
3465.000148463894
 30
0.0
 11
-3601.000018557988
 21
3465.000148463894
 31
0.0
  0
LINE
  5
99
330
1F
100
AcDbEntity
  8
0-0_補助線
  6
JWW_HOJO
 62
     7
370
     9
100
AcDbLine
 10
-4790.000018557988
 20
3964.999818544131
 30
0.0
 11
-4790.000018557988
 21
-3790.000179909372
 31
0.0
  0
LINE
  5
9A
330
1F
100
AcDbEntity
  8
0-0_補助線
  6
JWW_HOJO
 62
   120
370
     5
100
AcDbLine
 10
-4840.000018557988
 20
3964.999818544131
 30
0.0
 11
-4840.000018557988
 21
-3790.000179909372
 31
0.0
  0
LINE
  5
9B
330
1F
100
AcDbEntity
  8
0-B_寸法
  6
Continuous
 62
   120
370
     5
100
AcDbLine
 10
-4764.000018557988
 20
1168.000148463894
 30
0.0
 11
-4764.000018557988
 21
1368.000148463894
 31
0.0
  0
LINE
  5
9C
330
1F
100
AcDbEntity
  8
0-B_寸法
  6
Continuous
 62
   120
370
     5
100
AcDbLine
 10
-3627.000018557988
 20
1168.000148463894
 30
0.0
 11
-3627.000018557988
 21
1368.000148463894
 31
0.0
  0
LWPOLYLINE
  5
9D
330
1F
100
AcDbEntity
  8
0-B_寸法
  6
Continuous
 62
     7
370
     9
100
AcDbPolyline
 90
        4
 70
     1
 43
3.0
 10
-4762.500018557987
 20
1168.000148463894
 42
0.4142135623731
 10
-4764.000018557988
 20
1169.500148463894
 42
0.4142135623731
 10
-4765.500018557988
 20
1168.000148463894
 42
0.4142135623731
 10
-4764.000018557988
 20
1166.500148463894
 42
0.4142135623731
  0
LWPOLYLINE
  5
9E
330
1F
100
AcDbEntity
  8
0-B_寸法
  6
Continuous
 62
     7
370
     9
100
AcDbPolyline
 90
        4
 70
     1
 43
3.0
 10
-3625.500018557989
 20
1168.000148463894
 42
0.4142135623731
 10
-3627.000018557988
 20
1169.500148463894
 42
0.4142135623731
 10
-3628.500018557988
 20
1168.000148463894
 42
0.4142135623731
 10
-3627.000018557988
 20
1166.500148463894
 42
0.4142135623731
  0
LINE
  5
9F
330
1F
100
AcDbEntity
  8
0-B_寸法
  6
Continuous
 62
   120
370
     5
100
AcDbLine
 10
-4354.000018557984
 20
1168.000148463894
 30
0.0
 11
-4354.000018557984
 21
1368.000148463894
 31
0.0
  0
LINE
  5
A0
330
1F
100
AcDbEntity
  8
0-B_寸法
  6
Continuous
 62
   120
370
     5
100
AcDbLine
 10
-4764.000018557988
 20
1168.000148463894
 30
0.0
 11
-4354.000018557984
 21
1168.000148463894
 31
0.0
  0
LINE
  5
A1
330
1F
100
AcDbEntity
  8
0-B_寸法
  6
Continuous
 62
   120
370
     5
100
AcDbLine
 10
-4354.000018557984
 20
1168.000148463894
 30
0.0
 11
-4350.000018557987
 21
1168.000148463894
 31
0.0
  0
LINE
  5
A2
330
1F
100
AcDbEntity
  8
0-B_寸法
  6
Continuous
 62
   120
370
     5
100
AcDbLine
 10
-4350.000018557987
 20
1168.000148463894
 30
0.0
 11
-4350.000018557987
 21
1368.000148463894
 31
0.0
  0
LINE
  5
A3
330
1F
100
AcDbEntity
  8
0-B_寸法
  6
Continuous
 62
   120
370
     5
100
AcDbLine
 10
-4350.000018557987
 20
1168.000148463894
 30
0.0
 11
-3627.000018557988
 21
1168.000148463894
 31
0.0
  0
LWPOLYLINE
  5
A4
330
1F
100
AcDbEntity
  8
0-B_寸法
  6
Continuous
 62
     7
370
     9
100
AcDbPolyline
 90
        4
 70
     1
 43
3.0
 10
-4352.500018557984
 20
1168.000148463894
 42
0.4142135623731
 10
-4354.000018557984
 20
1169.500148463894
 42
0.4142135623731
 10
-4355.500018557985
 20
1168.000148463894
 42
0.4142135623731
 10
-4354.000018557984
 20
1166.500148463894
 42
0.4142135623731
  0
LWPOLYLINE
  5
A5
330
1F
100
AcDbEntity
  8
0-B_寸法
  6
Continuous
 62
     7
370
     9
100
AcDbPolyline
 90
        4
 70
     1
 43
3.0
 10
-4348.500018557987
 20
1168.000148463894
 42
0.4142135623731
 10
-4350.000018557987
 20
1169.500148463894
 42
0.4142135623731
 10
-4351.500018557988
 20
1168.000148463894
 42
0.4142135623731
 10
-4350.000018557987
 20
1166.500148463894
 42
0.4142135623731
  0
MTEXT
  5
A6
330
1F
100
AcDbEntity
  8
0-B_寸法
  6
Continuous
 62
     7
370
    70
100
AcDbMText
 10
-5105.000018557988
 20
2225.325148463894
 30
0.0
 40
57.14999999999999
 41
412.5
 46
0.0
 71
     7
 72
     1
  1
{\fＭＳ ゴシック|b0|i0|c128|p49;ＤＨ＝1,995}
 11
6.123031769111886E-17
 21
1.0
 31
0.0
 73
     1
 44
1.0
  0
MTEXT
  5
A7
330
1F
100
AcDbEntity
  8
0-B_寸法
  6
Continuous
 62
     7
370
    70
100
AcDbMText
 10
-4727.750018557987
 20
1174.075148463894
 30
0.0
 40
57.15
 41
337.5
 46
0.0
 71
     7
 72
     1
  1
{\fＭＳ ゴシック|b0|i0|c128|p49;ＤＷ＝410}
 73
     1
 44
1.0
  0
MTEXT
  5
A8
330
1F
100
AcDbEntity
  8
0-B_寸法
  6
Continuous
 62
     7
370
    70
100
AcDbMText
 10
-4157.250018557987
 20
1174.075148463894
 30
0.0
 40
57.15
 41
337.5
 46
0.0
 71
     7
 72
     1
  1
{\fＭＳ ゴシック|b0|i0|c128|p49;ＤＷ＝723}
 73
     1
 44
1.0
  0
MTEXT
  5
A9
330
1F
100
AcDbEntity
  8
F-A_文字
  6
Continuous
 62
     7
370
     9
100
AcDbMText
 10
-5890.000004381747
 20
4018.575148463894
 30
0.0
 40
57.15
 41
300.0
 46
0.0
 71
     7
 72
     1
  1
{\fＭＳ ゴシック|b0|i0|c128|p49;デザイン}
 73
     1
 44
1.0
  0
MTEXT
  5
AA
330
1F
100
AcDbEntity
  8
F-A_文字
  6
Continuous
 62
     7
370
     9
100
AcDbMText
 10
-5852.500004381747
 20
2031.325062684755
 30
0.0
 40
57.15
 41
225.0
 46
0.0
 71
     7
 72
     1
  1
{\fＭＳ ゴシック|b0|i0|c128|p49;姿　図}
 73
     1
 44
1.0
  0
MTEXT
  5
AB
330
1F
100
AcDbEntity
  8
F-A_文字
  6
Continuous
 62
     7
370
     9
100
AcDbMText
 10
-5890.000004381747
 20
38.07493236644844
 30
0.0
 40
57.15
 41
300.0
 46
0.0
 71
     7
 72
     1
  1
{\fＭＳ ゴシック|b0|i0|c128|p49;デザイン}
 73
     1
 44
1.0
  0
MTEXT
  5
AC
330
1F
100
AcDbEntity
  8
F-A_文字
  6
Continuous
 62
     7
370
     9
100
AcDbMText
 10
-5852.500004381747
 20
-1949.175091552734
 30
0.0
 40
57.15
 41
225.0
 46
0.0
 71
     7
 72
     1
  1
{\fＭＳ ゴシック|b0|i0|c128|p49;姿　図}
 73
     1
 44
1.0
  0
MTEXT
  5
AD
330
1F
100
AcDbEntity
  8
F-A_文字
  6
Continuous
 62
     7
370
     0
100
AcDbMText
 10
-60.0001237199109
 20
-3887.139820871936
 30
0.0
 40
45.72
 41
180.0
 46
0.0
 71
     7
 72
     1
  1
{\fＭＳ ゴシック|b0|i0|c128|p49;図面名}
 73
     1
 44
1.0
  0
MTEXT
  5
AE
330
1F
100
AcDbEntity
  8
F-A_文字
  6
Continuous
 62
     7
370
     0
100
AcDbMText
 10
2779.998729808911
 20
-3887.142460617774
 30
0.0
 40
45.72
 41
300.0
 46
0.0
 71
     7
 72
     1
  1
{\fＭＳ ゴシック|b0|i0|c128|p49;ＳＣＡＬＥ}
 73
     1
 44
1.0
  0
MTEXT
  5
AF
330
1F
100
AcDbEntity
  8
F-A_文字
  6
Continuous
 62
     7
370
     0
100
AcDbMText
 10
4279.999224688556
 20
-3887.143854850754
 30
0.0
 40
45.72
 41
240.0
 46
0.0
 71
     7
 72
     1
  1
{\fＭＳ ゴシック|b0|i0|c128|p49;ＤＡＴＥ}
 73
     1
 44
1.0
  0
MTEXT
  5
B0
330
1F
100
AcDbEntity
  8
F-A_文字
  6
Continuous
 62
     7
370
     0
100
AcDbMText
 10
1180.417701903719
 20
-3946.423911599839
 30
0.0
 40
77.15249999999999
 41
405.0
 46
0.0
 71
     7
 72
     1
  1
{\fＭＳ ゴシック|b0|i0|c128|p49;建具姿図}
 73
     1
 44
1.0
  0
MTEXT
  5
B1
330
1F
100
AcDbEntity
  8
F-A_文字
  6
Continuous
 62
     7
370
     0
100
AcDbMText
 10
349.9999175200594
 20
-3946.496666872502
 30
0.0
 40
78.58125
 41
412.5
 46
0.0
 71
     7
 72
     1
  1
{\fＭＳ ゴシック|b0|i0|c128|p49;DOORETUS}
 73
     1
 44
1.0
  0
MTEXT
  5
B2
330
1F
100
AcDbEntity
  8
F-A_文字
  6
Continuous
 62
     7
370
     0
100
AcDbMText
 10
2779.998729808911
 20
-4087.14246317786
 30
0.0
 40
45.72
 41
240.0
 46
0.0
 71
     7
 72
     1
  1
{\fＭＳ ゴシック|b0|i0|c128|p49;ＦＩＬＥ}
 73
     1
 44
1.0
  0
MTEXT
  5
B3
330
1F
100
AcDbEntity
  8
F-A_文字
  6
Continuous
 62
     7
370
     0
100
AcDbMText
 10
4279.999224688556
 20
-4087.143857410839
 30
0.0
 40
45.72
 41
180.0
 46
0.0
 71
     7
 72
     1
  1
{\fＭＳ ゴシック|b0|i0|c128|p49;ＮＯ．}
 73
     1
 44
1.0
  0
MTEXT
  5
B4
330
1F
100
AcDbEntity
  8
F-A_文字
  6
Continuous
 62
     7
370
     0
100
AcDbMText
 10
1234.998729808911
 20
-4096.140669266149
 30
0.0
 40
45.72
 41
120.0
 46
0.0
 71
     7
 72
     1
  1
{\fＭＳ ゴシック|b0|i0|c128|p49;株式}
 73
     1
 44
1.0
  0
MTEXT
  5
B5
330
1F
100
AcDbEntity
  8
F-A_文字
  6
Continuous
 62
     7
370
     9
100
AcDbMText
 10
4936.249033580831
 20
-4147.857012699985
 30
0.0
 40
74.295
 41
97.5
 46
0.0
 71
     7
 72
     1
  1
{\fＭＳ ゴシック|b0|i0|c128|p49;01}
 73
     1
 44
1.0
  0
MTEXT
  5
B6
330
1F
100
AcDbEntity
  8
F-A_文字
  6
Continuous
 62
     7
370
     0
100
AcDbMText
 10
1444.998729808911
 20
-4164.281754523929
 30
0.0
 40
101.44125
 41
1065.0
 46
0.0
 71
     7
 72
     1
  1
{\fＭＳ ゴシック|b0|i0|c128|p49;ウッドワン・・・}
 73
     1
 44
1.0
  0
MTEXT
  5
B7
330
1F
100
AcDbEntity
  8
F-A_文字
  6
Continuous
 62
     7
370
     0
100
AcDbMText
 10
1234.998729808911
 20
-4168.140669266187
 30
0.0
 40
45.72
 41
120.0
 46
0.0
 71
     7
 72
     1
  1
{\fＭＳ ゴシック|b0|i0|c128|p49;会社}
 73
     1
 44
1.0
  0
MTEXT
  5
B8
330
1F
100
AcDbEntity
  8
F-A_文字
  6
Continuous
 62
     7
370
     0
100
AcDbMText
 10
5608.403311109712
 20
-4314.841419020919
 30
0.0
 40
68.58
 41
90.0
 46
0.0
 71
     7
 72
     1
  1
{\fＭＳ ゴシック|b0|i0|c128|p49;）}
 73
     1
 44
1.0
  0
MTEXT
  5
B9
330
1F
100
AcDbEntity
  8
F-A_文字
  6
Continuous
 62
     7
370
     0
100
AcDbMText
 10
5190.195950842071
 20
-4316.235443869856
 30
0.0
 40
68.58
 41
45.0
 46
0.0
 71
     7
 72
     1
  1
{\fＭＳ ゴシック|b0|i0|c128|p49;,}
 73
     1
 44
1.0
  0
MTEXT
  5
BA
330
1F
100
AcDbEntity
  8
F-A_文字
  6
Continuous
 62
     7
370
     0
100
AcDbMText
 10
4923.937261915373
 20
-4314.771967288282
 30
0.0
 40
74.295
 41
97.5
 46
0.0
 71
     7
 72
     1
  1
{\fＭＳ ゴシック|b0|i0|c128|p49;$y}
 73
     1
 44
1.0
  0
MTEXT
  5
BB
330
1F
100
AcDbEntity
  8
F-A_文字
  6
Continuous
 62
     7
370
     0
100
AcDbMText
 10
5078.673982954195
 20
-4314.771967288282
 30
0.0
 40
74.295
 41
97.5
 46
0.0
 71
     7
 72
     1
  1
{\fＭＳ ゴシック|b0|i0|c128|p49;$m}
 73
     1
 44
1.0
  0
MTEXT
  5
BC
330
1F
100
AcDbEntity
  8
F-A_文字
  6
Continuous
 62
     7
370
     0
100
AcDbMText
 10
5233.410715437103
 20
-4314.771967288282
 30
0.0
 40
74.295
 41
97.5
 46
0.0
 71
     7
 72
     1
  1
{\fＭＳ ゴシック|b0|i0|c128|p49;$d}
 73
     1
 44
1.0
  0
MTEXT
  5
BD
330
1F
100
AcDbEntity
  8
F-A_文字
  6
Continuous
 62
     7
370
     0
100
AcDbMText
 10
5388.147447920011
 20
-4314.771967288282
 30
0.0
 40
74.295
 41
195.0
 46
0.0
 71
     7
 72
     1
  1
{\fＭＳ ゴシック|b0|i0|c128|p49;印刷}
 73
     1
 44
1.0
  0
MTEXT
  5
BE
330
1F
100
AcDbEntity
  8
F-A_文字
  6
Continuous
 62
     7
370
     0
100
AcDbMText
 10
4784.033374252999
 20
-4319.023493567732
 30
0.0
 40
68.58
 41
90.0
 46
0.0
 71
     7
 72
     1
  1
{\fＭＳ ゴシック|b0|i0|c128|p49;（}
 73
     1
 44
1.0
  0
MTEXT
  5
BF
330
1F
100
AcDbEntity
  8
F-A_文字
  6
Continuous
 62
     7
370
     0
100
AcDbMText
 10
5031.277143812345
 20
-4319.023493567732
 30
0.0
 40
68.58
 41
45.0
 46
0.0
 71
     7
 72
     1
  1
{\fＭＳ ゴシック|b0|i0|c128|p49;,}
 73
     1
 44
1.0
  0
LINE
  5
C0
330
1F
100
AcDbEntity
  8
0-0_補助線
  6
JWW_HOJO
 62
   120
370
     5
100
AcDbLine
 10
-5999.99998453501
 20
790.5001831054692
 30
0.0
 11
5699.998762800888
 21
790.5001831054692
 31
0.0
  0
LINE
  5
C1
330
1F
100
AcDbEntity
  8
0-0_補助線
  6
JWW_HOJO
 62
   120
370
     5
100
AcDbLine
 10
-5999.99998453501
 20
670.5001831054692
 30
0.0
 11
5699.998762800888
 21
670.5001831054692
 31
0.0
  0
LINE
  5
C2
330
1F
100
AcDbEntity
  8
0-0_補助線
  6
JWW_HOJO
 62
   120
370
     5
100
AcDbLine
 10
-5999.99998453501
 20
550.5001831054688
 30
0.0
 11
5699.998762800888
 21
550.5001831054688
 31
0.0
  0
LINE
  5
C3
330
1F
100
AcDbEntity
  8
0-0_補助線
  6
JWW_HOJO
 62
   120
370
     5
100
AcDbLine
 10
-5999.99998453501
 20
430.5001831054688
 30
0.0
 11
5699.998762800888
 21
430.5001831054688
 31
0.0
  0
LINE
  5
C4
330
1F
100
AcDbEntity
  8
0-0_補助線
  6
JWW_HOJO
 62
   120
370
     5
100
AcDbLine
 10
-5999.99998453501
 20
310.5001831054688
 30
0.0
 11
5699.998762800888
 21
310.5001831054688
 31
0.0
  0
LINE
  5
C5
330
1F
100
AcDbEntity
  8
0-0_補助線
  6
JWW_HOJO
 62
   120
370
     5
100
AcDbLine
 10
-906.7996710699953
 20
4174.999769056166
 30
0.0
 11
-906.7996710699953
 21
-3790.000179909371
 31
0.0
  0
LINE
  5
C6
330
1F
100
AcDbEntity
  8
0-0_補助線
  6
JWW_HOJO
 62
   120
370
     5
100
AcDbLine
 10
1324.8000851193
 20
4174.999769056166
 30
0.0
 11
1324.8000851193
 21
-3790.000179909371
 31
0.0
  0
LINE
  5
C7
330
1F
100
AcDbEntity
  8
0-0_補助線
  6
JWW_HOJO
 62
   120
370
     5
100
AcDbLine
 10
3556.400212468328
 20
4174.999769056166
 30
0.0
 11
3556.400212468328
 21
-3790.000179909371
 31
0.0
  0
LINE
  5
C8
330
1F
100
AcDbEntity
  8
0-0_補助線
  6
JWW_HOJO
 62
   120
370
     5
100
AcDbLine
 10
5699.998762800888
 20
-3310.000017526988
 30
0.0
 11
-5999.99998453501
 21
-3310.000017526988
 31
0.0
  0
LINE
  5
C9
330
1F
100
AcDbEntity
  8
0-0_補助線
  6
JWW_HOJO
 62
   120
370
     5
100
AcDbLine
 10
5699.998762800888
 20
-3430.000017526988
 30
0.0
 11
-5999.99998453501
 21
-3430.000017526988
 31
0.0
  0
LINE
  5
CA
330
1F
100
AcDbEntity
  8
0-0_補助線
  6
JWW_HOJO
 62
   120
370
     5
100
AcDbLine
 10
5699.998762800888
 20
-3550.000017526988
 30
0.0
 11
-5999.99998453501
 21
-3550.000017526988
 31
0.0
  0
LINE
  5
CB
330
1F
100
AcDbEntity
  8
0-0_補助線
  6
JWW_HOJO
 62
   120
370
     5
100
AcDbLine
 10
5699.998762800888
 20
-3670.000017526988
 30
0.0
 11
-5999.99998453501
 21
-3670.000017526988
 31
0.0
  0
LINE
  5
CC
330
1F
100
AcDbEntity
  8
0-0_補助線
  6
JWW_HOJO
 62
   120
370
     5
100
AcDbLine
 10
-3138.399798419025
 20
4174.999769056166
 30
0.0
 11
-3138.399798419025
 21
-3790.000179909371
 31
0.0
  0
LINE
  5
CD
330
1F
100
AcDbEntity
  8
0-0_補助線
  6
JWW_HOJO
 62
   120
370
     5
100
AcDbLine
 10
-5370.000018557986
 20
4174.999769056166
 30
0.0
 11
-5370.000018557986
 21
-3790.000179909371
 31
0.0
  0
MTEXT
  5
CE
330
1F
100
AcDbEntity
  8
0-A_文字
  6
Continuous
 62
     7
370
     9
100
AcDbMText
 10
-5370.000018557986
 20
661.5751831054693
 30
0.0
 40
57.15000000000003
 41
1050.0
 46
0.0
 71
     7
 72
     1
  1
{\fＭＳ ゴシック|b0|i0|c128|p49;枠外幅 1,189mm（DW=1,137mm）}
 73
     1
 44
1.0
  0
MTEXT
  5
CF
330
1F
100
AcDbEntity
  8
F-A_文字
  6
Continuous
 62
     7
370
     0
100
AcDbMText
 10
3383.748977248734
 20
-3946.426865907308
 30
0.0
 40
77.15249999999999
 41
202.5
 46
0.0
 71
     7
 72
     1
  1
{\fＭＳ ゴシック|b0|i0|c128|p49;1/30}
 73
     1
 44
1.0
  0
MTEXT
  5
D0
330
1F
100
AcDbEntity
  8
F-A_文字
  6
Continuous
 62
     7
370
     0
100
AcDbMText
 10
4778.749126529666
 20
-3938.071010139966
 30
0.0
 40
78.86699999999999
 41
517.5
 46
0.0
 71
     7
 72
     1
  1
{\fＭＳ ゴシック|b0|i0|c128|p49;2021.04.01}
 73
     1
 44
1.0
  0
MTEXT
  5
D1
330
1F
100
AcDbEntity
  8
0-A_文字
  6
Continuous
 62
     7
370
     9
100
AcDbMText
 10
-4576.699908488504
 20
4013.576151024072
 30
0.0
 40
77.15249999999999
 41
405.0
 46
0.0
 71
     7
 72
     1
  1
{\fＭＳ ゴシック|b0|i0|c128|p49;Ｂ－ＤＪ}
 73
     1
 44
1.0
  0
MTEXT
  5
D2
330
1F
100
AcDbEntity
  8
0-A_文字
  6
Continuous
 62
     7
370
     9
100
AcDbMText
 10
-5370.000018557986
 20
541.5751831054688
 30
0.0
 40
57.15
 41
675.0
 46
0.0
 71
     7
 72
     1
  1
{\fＭＳ ゴシック|b0|i0|c128|p49;カスミ熱処理ガラス}
 73
     1
 44
1.0
  0
MTEXT
  5
D3
330
1F
100
AcDbEntity
  8
F-A_文字
  6
Continuous
 62
     7
370
     0
100
AcDbMText
 10
-5247.547376752838
 20
-4045.403150364105
 30
0.0
 40
79.19357142857143
 41
1455.0
 46
0.0
 71
     7
 72
     1
  1
{\fＭＳ ゴシック|b0|i0|c128|p49;ドレタス　親子ドア　Ｂ－ＤＪ}
 73
     1
 44
1.0
  0
MTEXT
  5
D4
330
1F
100
AcDbEntity
  8
0-A_文字
  6
Continuous
 62
     7
370
     9
100
AcDbMText
 10
-5370.000018557986
 20
421.5751831054687
 30
0.0
 40
57.15000000000001
 41
1050.0
 46
0.0
 71
     7
 72
     1
  1
{\fＭＳ ゴシック|b0|i0|c128|p49;ハイドアの対応はありません。}
 73
     1
 44
1.0
  0
LINE
  5
D5
330
1F
100
AcDbEntity
  8
F-A_文字
  6
Continuous
 62
     7
370
     9
100
AcDbLine
 10
-3258.399798419025
 20
184.5000148463899
 30
0.0
 11
-5489.999925768055
 21
-3790.000017526987
 31
0.0
  0
LINE
  5
D6
330
1F
100
AcDbEntity
  8
0-2_扉
  6
Continuous
 62
     7
370
     9
100
AcDbLine
 10
-4354.000018557984
 20
3438.000148463894
 30
0.0
 11
-4764.000018557984
 21
3438.000148463894
 31
0.0
  0
LINE
  5
D7
330
1F
100
AcDbEntity
  8
0-2_扉
  6
Continuous
 62
     7
370
     9
100
AcDbLine
 10
-4354.000018557984
 20
1443.000148463894
 30
0.0
 11
-4764.000018557984
 21
1443.000148463894
 31
0.0
  0
LINE
  5
D8
330
1F
100
AcDbEntity
  8
0-2_扉
  6
Continuous
 62
     7
370
     9
100
AcDbLine
 10
-4354.000018557984
 20
1443.000148463894
 30
0.0
 11
-4354.000018557984
 21
3438.000148463894
 31
0.0
  0
LINE
  5
D9
330
1F
100
AcDbEntity
  8
0-2_扉
  6
Continuous
 62
     7
370
     9
100
AcDbLine
 10
-4615.250018557984
 20
3302.999950512036
 30
0.0
 11
-4615.250018557984
 21
3264.249950512036
 31
0.0
  0
LINE
  5
DA
330
1F
100
AcDbEntity
  8
0-2_扉
  6
Continuous
 62
     7
370
     9
100
AcDbLine
 10
-4602.750018557984
 20
3302.999950512036
 30
0.0
 11
-4602.750018557984
 21
3264.249950512036
 31
0.0
  0
LINE
  5
DB
330
1F
100
AcDbEntity
  8
0-2_扉
  6
JWW_CENTER1
 62
     7
370
     9
100
AcDbLine
 10
-4609.000018557984
 20
2236.929645340227
 30
0.0
 11
-4609.000018557984
 21
3323.566300307483
 31
0.0
  0
LINE
  5
DC
330
1F
100
AcDbEntity
  8
0-2_扉
  6
Continuous
 62
     7
370
     9
100
AcDbLine
 10
-4602.750018557984
 20
2296.749719568202
 30
0.0
 11
-4602.750018557984
 21
2257.999719568201
 31
0.0
  0
LINE
  5
DD
330
1F
100
AcDbEntity
  8
0-2_扉
  6
Continuous
 62
     7
370
     9
100
AcDbLine
 10
-4615.250018557984
 20
2296.749719568202
 30
0.0
 11
-4615.250018557984
 21
2257.999719568201
 31
0.0
  0
LINE
  5
DE
330
1F
100
AcDbEntity
  8
0-2_扉
  6
Continuous
 62
     7
370
     9
100
AcDbLine
 10
-4615.250018557984
 20
3251.749950512036
 30
0.0
 11
-4615.250018557984
 21
2309.249719568202
 31
0.0
  0
LINE
  5
DF
330
1F
100
AcDbEntity
  8
0-2_扉
  6
Continuous
 62
     7
370
     9
100
AcDbLine
 10
-4602.750018557984
 20
3251.749950512036
 30
0.0
 11
-4602.750018557984
 21
2309.249719568202
 31
0.0
  0
LINE
  5
E0
330
1F
100
AcDbEntity
  8
0-2_扉
  6
Continuous
 62
     7
370
     9
100
AcDbLine
 10
-4654.000018557984
 20
1443.000148463894
 30
0.0
 11
-4654.000018557984
 21
3438.000148463894
 31
0.0
  0
LINE
  5
E1
330
1F
100
AcDbEntity
  8
0-2_扉
  6
JWW_CENTER1
 62
     7
370
     9
100
AcDbLine
 10
-4508.99987009409
 20
2236.929645340227
 30
0.0
 11
-4508.99987009409
 21
3323.566300307483
 31
0.0
  0
LINE
  5
E2
330
1F
100
AcDbEntity
  8
0-2_扉
  6
Continuous
 62
     7
370
     9
100
AcDbLine
 10
-4502.749870094091
 20
3251.749950512036
 30
0.0
 11
-4502.749870094091
 21
2309.249719568202
 31
0.0
  0
LINE
  5
E3
330
1F
100
AcDbEntity
  8
0-2_扉
  6
Continuous
 62
     7
370
     9
100
AcDbLine
 10
-4502.749870094091
 20
2296.749719568202
 30
0.0
 11
-4502.749870094091
 21
2257.999719568201
 31
0.0
  0
LINE
  5
E4
330
1F
100
AcDbEntity
  8
0-2_扉
  6
Continuous
 62
     7
370
     9
100
AcDbLine
 10
-4515.249870094091
 20
2296.749719568202
 30
0.0
 11
-4515.249870094091
 21
2257.999719568201
 31
0.0
  0
LINE
  5
E5
330
1F
100
AcDbEntity
  8
0-2_扉
  6
Continuous
 62
     7
370
     9
100
AcDbLine
 10
-4515.249870094091
 20
3302.999950512036
 30
0.0
 11
-4515.249870094091
 21
3264.249950512036
 31
0.0
  0
LINE
  5
E6
330
1F
100
AcDbEntity
  8
0-2_扉
  6
Continuous
 62
     7
370
     9
100
AcDbLine
 10
-4502.749870094091
 20
3302.999950512036
 30
0.0
 11
-4502.749870094091
 21
3264.249950512036
 31
0.0
  0
LINE
  5
E7
330
1F
100
AcDbEntity
  8
0-2_扉
  6
Continuous
 62
     7
370
     9
100
AcDbLine
 10
-4464.000018557984
 20
1443.000148463894
 30
0.0
 11
-4464.000018557984
 21
3438.000148463894
 31
0.0
  0
LINE
  5
E8
330
1F
100
AcDbEntity
  8
0-2_扉
  6
Continuous
 62
     7
370
     9
100
AcDbLine
 10
-4464.000018557984
 20
3302.999950512036
 30
0.0
 11
-4654.000018557984
 21
3302.999950512036
 31
0.0
  0
LINE
  5
E9
330
1F
100
AcDbEntity
  8
0-2_扉
  6
JWW_CENTER1
 62
     7
370
     9
100
AcDbLine
 10
-4664.194325267953
 20
3257.999950512036
 30
0.0
 11
-4452.019810757281
 21
3257.999950512036
 31
0.0
  0
LINE
  5
EA
330
1F
100
AcDbEntity
  8
0-2_扉
  6
JWW_CENTER1
 62
     7
370
     9
100
AcDbLine
 10
-4664.194325267953
 20
2302.999719568201
 30
0.0
 11
-4452.019810757281
 21
2302.999719568201
 31
0.0
  0
LINE
  5
EB
330
1F
100
AcDbEntity
  8
0-2_扉
  6
Continuous
 62
     7
370
     9
100
AcDbLine
 10
-4654.000018557984
 20
3251.749950512036
 30
0.0
 11
-4464.000018557984
 21
3251.749950512036
 31
0.0
  0
LINE
  5
EC
330
1F
100
AcDbEntity
  8
0-2_扉
  6
Continuous
 62
     7
370
     9
100
AcDbLine
 10
-4654.000018557984
 20
3264.249950512036
 30
0.0
 11
-4464.000018557984
 21
3264.249950512036
 31
0.0
  0
LINE
  5
ED
330
1F
100
AcDbEntity
  8
0-2_扉
  6
Continuous
 62
     7
370
     9
100
AcDbLine
 10
-4654.000018557984
 20
2309.249719568202
 30
0.0
 11
-4464.000018557984
 21
2309.249719568202
 31
0.0
  0
LINE
  5
EE
330
1F
100
AcDbEntity
  8
0-2_扉
  6
Continuous
 62
     7
370
     9
100
AcDbLine
 10
-4654.000018557984
 20
2296.749719568202
 30
0.0
 11
-4464.000018557984
 21
2296.749719568202
 31
0.0
  0
LINE
  5
EF
330
1F
100
AcDbEntity
  8
0-2_扉
  6
Continuous
 62
     7
370
     9
100
AcDbLine
 10
-4654.000018557984
 20
2257.999967008024
 30
0.0
 11
-4464.000018557984
 21
2257.999967008024
 31
0.0
  0
LINE
  5
F0
330
1F
100
AcDbEntity
  8
0-2_扉
  6
Continuous
 62
     7
370
     9
100
AcDbLine
 10
-4464.000018557984
 20
2153.002466150233
 30
0.0
 11
-4654.000018557984
 21
2153.002466150233
 31
0.0
  0
LINE
  5
F1
330
1F
100
AcDbEntity
  8
0-2_扉
  6
Continuous
 62
     7
370
     9
100
AcDbLine
 10
-4464.000018557984
 20
1592.999965358425
 30
0.0
 11
-4654.000018557984
 21
1592.999965358425
 31
0.0
  0
LINE
  5
F2
330
1F
100
AcDbEntity
  8
0-2_扉
  6
Continuous
 62
     7
370
     9
100
AcDbLine
 10
-4350.000018557987
 20
1443.000247439824
 30
0.0
 11
-4350.000018557987
 21
3438.000148463894
 31
0.0
  0
LINE
  5
F3
330
1F
100
AcDbEntity
  8
0-2_扉
  6
Continuous
 62
     7
370
     9
100
AcDbLine
 10
-3626.999909684466
 20
1443.000247439824
 30
0.0
 11
-3626.999909684466
 21
3438.000148463894
 31
0.0
  0
LINE
  5
F4
330
1F
100
AcDbEntity
  8
0-2_扉
  6
Continuous
 62
     7
370
     9
100
AcDbLine
 10
-4350.000018557987
 20
3438.000148463894
 30
0.0
 11
-3626.999909684466
 21
3438.000148463894
 31
0.0
  0
LINE
  5
F5
330
1F
100
AcDbEntity
  8
0-2_扉
  6
Continuous
 62
     7
370
     9
100
AcDbLine
 10
-4350.000018557987
 20
1443.000247439824
 30
0.0
 11
-3626.999909684466
 21
1443.000247439824
 31
0.0
  0
LINE
  5
F6
330
1F
100
AcDbEntity
  8
0-2_扉
  6
JWW_CENTER1
 62
     7
370
     9
100
AcDbLine
 10
-4250.19457270778
 20
2302.999967008025
 30
0.0
 11
-3726.722354907312
 21
2302.999967008025
 31
0.0
  0
LINE
  5
F7
330
1F
100
AcDbEntity
  8
0-2_扉
  6
JWW_CENTER1
 62
     7
370
     9
100
AcDbLine
 10
-4250.19457270778
 20
3258.000197951859
 30
0.0
 11
-3726.722354907312
 21
3258.000197951859
 31
0.0
  0
LINE
  5
F8
330
1F
100
AcDbEntity
  8
0-2_扉
  6
Continuous
 62
     7
370
     9
100
AcDbLine
 10
-3736.99977771656
 20
1443.000247439824
 30
0.0
 11
-3736.99977771656
 21
3438.000395903718
 31
0.0
  0
LINE
  5
F9
330
1F
100
AcDbEntity
  8
0-2_扉
  6
Continuous
 62
     7
370
     9
100
AcDbLine
 10
-4188.750026805982
 20
2296.749967008025
 30
0.0
 11
-4188.750026805982
 21
2257.999967008025
 31
0.0
  0
LINE
  5
FA
330
1F
100
AcDbEntity
  8
0-2_扉
  6
Continuous
 62
     7
370
     9
100
AcDbLine
 10
-4201.250026805982
 20
2296.749967008025
 30
0.0
 11
-4201.250026805982
 21
2257.999967008025
 31
0.0
  0
LINE
  5
FB
330
1F
100
AcDbEntity
  8
0-2_扉
  6
Continuous
 62
     7
370
     9
100
AcDbLine
 10
-4188.750026805982
 20
3303.000197951859
 30
0.0
 11
-4188.750026805982
 21
3264.250197951859
 31
0.0
  0
LINE
  5
FC
330
1F
100
AcDbEntity
  8
0-2_扉
  6
Continuous
 62
     7
370
     9
100
AcDbLine
 10
-4201.250026805982
 20
3303.000197951859
 30
0.0
 11
-4201.250026805982
 21
3264.250197951859
 31
0.0
  0
LINE
  5
FD
330
1F
100
AcDbEntity
  8
0-2_扉
  6
JWW_CENTER1
 62
     7
370
     9
100
AcDbLine
 10
-3781.999839576516
 20
2236.92989278005
 30
0.0
 11
-3781.999839576516
 21
3323.566547747306
 31
0.0
  0
LINE
  5
FE
330
1F
100
AcDbEntity
  8
0-2_扉
  6
Continuous
 62
     7
370
     9
100
AcDbLine
 10
-3775.749839576516
 20
3303.000197951859
 30
0.0
 11
-3775.749839576516
 21
3264.250197951859
 31
0.0
  0
LINE
  5
FF
330
1F
100
AcDbEntity
  8
0-2_扉
  6
Continuous
 62
     7
370
     9
100
AcDbLine
 10
-3788.249839576516
 20
3303.000197951859
 30
0.0
 11
-3788.249839576516
 21
3264.250197951859
 31
0.0
  0
LINE
  5
100
330
1F
100
AcDbEntity
  8
0-2_扉
  6
Continuous
 62
     7
370
     9
100
AcDbLine
 10
-3788.249839576516
 20
3251.750197951859
 30
0.0
 11
-3788.249839576516
 21
2309.249967008024
 31
0.0
  0
LINE
  5
101
330
1F
100
AcDbEntity
  8
0-2_扉
  6
Continuous
 62
     7
370
     9
100
AcDbLine
 10
-3788.249839576516
 20
2296.749967008025
 30
0.0
 11
-3788.249839576516
 21
2257.999967008025
 31
0.0
  0
LINE
  5
102
330
1F
100
AcDbEntity
  8
0-2_扉
  6
Continuous
 62
     7
370
     9
100
AcDbLine
 10
-3775.749839576516
 20
3251.750197951859
 30
0.0
 11
-3775.749839576516
 21
2309.249967008024
 31
0.0
  0
LINE
  5
103
330
1F
100
AcDbEntity
  8
0-2_扉
  6
Continuous
 62
     7
370
     9
100
AcDbLine
 10
-3775.749839576516
 20
2296.749967008025
 30
0.0
 11
-3775.749839576516
 21
2257.999967008025
 31
0.0
  0
LINE
  5
104
330
1F
100
AcDbEntity
  8
0-2_扉
  6
Continuous
 62
     7
370
     9
100
AcDbLine
 10
-4240.000026805982
 20
3303.000197951859
 30
0.0
 11
-3736.99977771656
 21
3303.000197951859
 31
0.0
  0
LINE
  5
105
330
1F
100
AcDbEntity
  8
0-2_扉
  6
Continuous
 62
     7
370
     9
100
AcDbLine
 10
-4240.000026805982
 20
3264.250197951859
 30
0.0
 11
-3736.99977771656
 21
3264.250197951859
 31
0.0
  0
LINE
  5
106
330
1F
100
AcDbEntity
  8
0-2_扉
  6
Continuous
 62
     7
370
     9
100
AcDbLine
 10
-4240.000026805982
 20
3251.750197951859
 30
0.0
 11
-3736.99977771656
 21
3251.750197951859
 31
0.0
  0
LINE
  5
107
330
1F
100
AcDbEntity
  8
0-2_扉
  6
Continuous
 62
     7
370
     9
100
AcDbLine
 10
-4240.000026805982
 20
2309.249967008024
 30
0.0
 11
-3736.99977771656
 21
2309.249967008024
 31
0.0
  0
LINE
  5
108
330
1F
100
AcDbEntity
  8
0-2_扉
  6
Continuous
 62
     7
370
     9
100
AcDbLine
 10
-4240.000026805982
 20
2296.749967008025
 30
0.0
 11
-3736.99977771656
 21
2296.749967008025
 31
0.0
  0
LINE
  5
109
330
1F
100
AcDbEntity
  8
0-2_扉
  6
Continuous
 62
     7
370
     9
100
AcDbLine
 10
-4240.000026805982
 20
2153.002713590056
 30
0.0
 11
-3736.99977771656
 21
2153.002713590056
 31
0.0
  0
LINE
  5
10A
330
1F
100
AcDbEntity
  8
0-2_扉
  6
Continuous
 62
     7
370
     9
100
AcDbLine
 10
-4240.000026805982
 20
1593.000212798248
 30
0.0
 11
-3736.99977771656
 21
1593.000212798248
 31
0.0
  0
LINE
  5
10B
330
1F
100
AcDbEntity
  8
0-2_扉
  6
Continuous
 62
     7
370
     9
100
AcDbLine
 10
-4201.250026805982
 20
3251.750197951859
 30
0.0
 11
-4201.250026805982
 21
2407.499312083723
 31
0.0
  0
LINE
  5
10C
330
1F
100
AcDbEntity
  8
0-2_扉
  6
Continuous
 62
     7
370
     9
100
AcDbLine
 10
-4188.750026805982
 20
3251.750197951859
 30
0.0
 11
-4188.750026805982
 21
2407.499653349492
 31
0.0
  0
LINE
  5
10D
330
1F
100
AcDbEntity
  8
0-2_扉
  6
Continuous
 62
     7
370
     9
100
AcDbLine
 10
-4201.250026805982
 20
2393.500637543695
 30
0.0
 11
-4201.250026805982
 21
2309.249967008024
 31
0.0
  0
LINE
  5
10E
330
1F
100
AcDbEntity
  8
0-2_扉
  6
Continuous
 62
     7
370
     9
100
AcDbLine
 10
-4188.750026805982
 20
2393.500043694581
 30
0.0
 11
-4188.750026805982
 21
2309.249967008024
 31
0.0
  0
LINE
  5
10F
330
1F
100
AcDbEntity
  8
レバー
  6
JWW_CENTER1
 62
   120
370
     5
100
AcDbLine
 10
-4252.697840014949
 20
2400.500247439824
 30
0.0
 11
-4335.723791752801
 21
2400.500247439824
 31
0.0
  0
LINE
  5
110
330
1F
100
AcDbEntity
  8
レバー
  6
JWW_CENTER1
 62
   120
370
     5
100
AcDbLine
 10
-4299.500018557987
 20
2456.957208033614
 30
0.0
 11
-4299.500018557987
 21
2357.11345474535
 31
0.0
  0
LINE
  5
111
330
1F
100
AcDbEntity
  8
レバー
  6
Continuous
 62
     7
370
     0
100
AcDbLine
 10
-4184.000097414988
 20
2407.500234151723
 30
0.0
 11
-4193.075396320287
 21
2407.500114011124
 31
0.0
  0
LINE
  5
112
330
1F
100
AcDbEntity
  8
レバー
  6
Continuous
 62
     7
370
     0
100
AcDbLine
 10
-4193.075396320287
 20
2407.500114011124
 30
0.0
 11
-4193.475842675687
 21
2407.500100041324
 31
0.0
  0
ARC
  5
113
330
1F
100
AcDbEntity
  8
レバー
  6
Continuous
 62
     7
370
     0
100
AcDbCircle
 10
-4184.000018557987
 20
2395.000247177223
 30
0.0
 40
1.500000000000118
100
AcDbArc
 50
270.164192293
 51
0.000004253700026
  0
ARC
  5
114
330
1F
100
AcDbEntity
  8
レバー
  6
Continuous
 62
     7
370
     0
100
AcDbCircle
 10
-4184.000018557987
 20
2406.000247750823
 30
0.0
 40
1.500000000000029
100
AcDbArc
 50
0.0084663275
 51
89.9162980715
  0
LINE
  5
115
330
1F
100
AcDbEntity
  8
レバー
  6
Continuous
 62
     7
370
     0
100
AcDbLine
 10
-4294.481640881388
 20
2393.514131380724
 30
0.0
 11
-4294.349339524787
 21
2393.507340642224
 31
0.0
  0
LINE
  5
116
330
1F
100
AcDbEntity
  8
レバー
  6
Continuous
 62
     7
370
     0
100
AcDbLine
 10
-4294.349339524787
 20
2393.507340642224
 30
0.0
 11
-4293.913598372188
 21
2393.505408147823
 31
0.0
  0
LINE
  5
117
330
1F
100
AcDbEntity
  8
レバー
  6
Continuous
 62
     7
370
     0
100
AcDbLine
 10
-4293.913598372188
 20
2393.505408147823
 30
0.0
 11
-4293.185404701588
 21
2393.505753202823
 31
0.0
  0
LINE
  5
118
330
1F
100
AcDbEntity
  8
レバー
  6
Continuous
 62
     7
370
     0
100
AcDbLine
 10
-4293.185404701588
 20
2393.505753202823
 30
0.0
 11
-4292.170618394887
 21
2393.507004900424
 31
0.0
  0
LINE
  5
119
330
1F
100
AcDbEntity
  8
レバー
  6
Continuous
 62
     7
370
     0
100
AcDbLine
 10
-4292.170618394887
 20
2393.507004900424
 30
0.0
 11
-4290.907090729587
 21
2393.508313408624
 31
0.0
  0
LINE
  5
11A
330
1F
100
AcDbEntity
  8
レバー
  6
Continuous
 62
     7
370
     0
100
AcDbLine
 10
-4290.907090729587
 20
2393.508313408624
 30
0.0
 11
-4289.557560546787
 21
2393.508666845523
 31
0.0
  0
LINE
  5
11B
330
1F
100
AcDbEntity
  8
レバー
  6
Continuous
 62
     7
370
     0
100
AcDbLine
 10
-4289.557560546787
 20
2393.508666845523
 30
0.0
 11
-4286.704043126188
 21
2393.506690113323
 31
0.0
  0
LINE
  5
11C
330
1F
100
AcDbEntity
  8
レバー
  6
Continuous
 62
     7
370
     0
100
AcDbLine
 10
-4286.704043126188
 20
2393.506690113323
 30
0.0
 11
-4283.722207149987
 21
2393.502096364723
 31
0.0
  0
LINE
  5
11D
330
1F
100
AcDbEntity
  8
レバー
  6
Continuous
 62
     7
370
     0
100
AcDbLine
 10
-4283.722207149987
 20
2393.502096364723
 30
0.0
 11
-4280.701484730987
 21
2393.499910085023
 31
0.0
  0
LINE
  5
11E
330
1F
100
AcDbEntity
  8
レバー
  6
Continuous
 62
     7
370
     0
100
AcDbLine
 10
-4280.701484730987
 20
2393.499910085023
 30
0.0
 11
-4277.658896720487
 21
2393.500047455124
 31
0.0
  0
LINE
  5
11F
330
1F
100
AcDbEntity
  8
レバー
  6
Continuous
 62
     7
370
     0
100
AcDbLine
 10
-4277.658896720487
 20
2393.500047455124
 30
0.0
 11
-4274.594614481987
 21
2393.500493558623
 31
0.0
  0
LINE
  5
120
330
1F
100
AcDbEntity
  8
レバー
  6
Continuous
 62
     7
370
     0
100
AcDbLine
 10
-4274.594614481987
 20
2393.500493558623
 30
0.0
 11
-4271.508809378887
 21
2393.500884714124
 31
0.0
  0
LINE
  5
121
330
1F
100
AcDbEntity
  8
レバー
  6
Continuous
 62
     7
370
     0
100
AcDbLine
 10
-4271.508809378887
 20
2393.500884714124
 30
0.0
 11
-4267.511718174887
 21
2393.501308931524
 31
0.0
  0
LINE
  5
122
330
1F
100
AcDbEntity
  8
レバー
  6
Continuous
 62
     7
370
     0
100
AcDbLine
 10
-4267.511718174887
 20
2393.501308931524
 30
0.0
 11
-4263.102732798587
 21
2393.501676338324
 31
0.0
  0
LINE
  5
123
330
1F
100
AcDbEntity
  8
レバー
  6
Continuous
 62
     7
370
     0
100
AcDbLine
 10
-4263.102732798587
 20
2393.501676338324
 30
0.0
 11
-4258.132972022988
 21
2393.501975758524
 31
0.0
  0
LINE
  5
124
330
1F
100
AcDbEntity
  8
レバー
  6
Continuous
 62
     7
370
     0
100
AcDbLine
 10
-4258.132972022988
 20
2393.501975758524
 30
0.0
 11
-4252.602432122887
 21
2393.502179718124
 31
0.0
  0
LINE
  5
125
330
1F
100
AcDbEntity
  8
レバー
  6
Continuous
 62
     7
370
     0
100
AcDbLine
 10
-4252.602432122887
 20
2393.502179718124
 30
0.0
 11
-4246.511116823687
 21
2393.502267728124
 31
0.0
  0
LINE
  5
126
330
1F
100
AcDbEntity
  8
レバー
  6
Continuous
 62
     7
370
     0
100
AcDbLine
 10
-4246.511116823687
 20
2393.502267728124
 30
0.0
 11
-4239.859022399887
 21
2393.502225352924
 31
0.0
  0
LINE
  5
127
330
1F
100
AcDbEntity
  8
レバー
  6
Continuous
 62
     7
370
     0
100
AcDbLine
 10
-4239.859022399887
 20
2393.502225352924
 30
0.0
 11
-4232.646145126288
 21
2393.502050264323
 31
0.0
  0
LINE
  5
128
330
1F
100
AcDbEntity
  8
レバー
  6
Continuous
 62
     7
370
     0
100
AcDbLine
 10
-4232.646145126288
 20
2393.502050264323
 30
0.0
 11
-4224.064275822187
 21
2393.501719179123
 31
0.0
  0
LINE
  5
129
330
1F
100
AcDbEntity
  8
レバー
  6
Continuous
 62
     7
370
     0
100
AcDbLine
 10
-4224.064275822187
 20
2393.501719179123
 30
0.0
 11
-4214.803844890087
 21
2393.501281457524
 31
0.0
  0
LINE
  5
12A
330
1F
100
AcDbEntity
  8
レバー
  6
Continuous
 62
     7
370
     0
100
AcDbLine
 10
-4214.803844890087
 20
2393.501281457524
 30
0.0
 11
-4204.864859780788
 21
2393.500809276924
 31
0.0
  0
LINE
  5
12B
330
1F
100
AcDbEntity
  8
レバー
  6
Continuous
 62
     7
370
     0
100
AcDbLine
 10
-4204.864859780788
 20
2393.500809276924
 30
0.0
 11
-4194.247305592988
 21
2393.500412999223
 31
0.0
  0
LINE
  5
12C
330
1F
100
AcDbEntity
  8
レバー
  6
Continuous
 62
     7
370
     0
100
AcDbLine
 10
-4194.247305592988
 20
2393.500412999223
 30
0.0
 11
-4184.000097414988
 21
2393.500262124924
 31
0.0
  0
LINE
  5
12D
330
1F
100
AcDbEntity
  8
レバー
  6
Continuous
 62
     7
370
     0
100
AcDbLine
 10
-4184.000149568988
 20
2407.500233686123
 30
0.0
 11
-4193.729251822888
 21
2407.500096316024
 31
0.0
  0
LINE
  5
12E
330
1F
100
AcDbEntity
  8
レバー
  6
Continuous
 62
     7
370
     0
100
AcDbLine
 10
-4193.729251822888
 20
2407.500096316024
 30
0.0
 11
-4203.914046487287
 21
2407.499727046624
 31
0.0
  0
LINE
  5
12F
330
1F
100
AcDbEntity
  8
レバー
  6
Continuous
 62
     7
370
     0
100
AcDbLine
 10
-4203.914046487287
 20
2407.499727046624
 30
0.0
 11
-4213.505596122288
 21
2407.499276752123
 31
0.0
  0
LINE
  5
130
330
1F
100
AcDbEntity
  8
レバー
  6
Continuous
 62
     7
370
     0
100
AcDbLine
 10
-4213.505596122288
 20
2407.499276752123
 30
0.0
 11
-4222.503893277188
 21
2407.498845549824
 31
0.0
  0
LINE
  5
131
330
1F
100
AcDbEntity
  8
レバー
  6
Continuous
 62
     7
370
     0
100
AcDbLine
 10
-4222.503893277188
 20
2407.498845549824
 30
0.0
 11
-4230.908960303787
 21
2407.498502357424
 31
0.0
  0
LINE
  5
132
330
1F
100
AcDbEntity
  8
レバー
  6
Continuous
 62
     7
370
     0
100
AcDbLine
 10
-4230.908960303787
 20
2407.498502357424
 30
0.0
 11
-4238.720793476788
 21
2407.498289084523
 31
0.0
  0
LINE
  5
133
330
1F
100
AcDbEntity
  8
レバー
  6
Continuous
 62
     7
370
     0
100
AcDbLine
 10
-4238.720793476788
 20
2407.498289084523
 30
0.0
 11
-4245.542895248587
 21
2407.498224823324
 31
0.0
  0
LINE
  5
134
330
1F
100
AcDbEntity
  8
レバー
  6
Continuous
 62
     7
370
     0
100
AcDbLine
 10
-4245.542895248587
 20
2407.498224823324
 30
0.0
 11
-4251.837641200487
 21
2407.498296069524
 31
0.0
  0
LINE
  5
135
330
1F
100
AcDbEntity
  8
レバー
  6
Continuous
 62
     7
370
     0
100
AcDbLine
 10
-4251.837641200487
 20
2407.498296069524
 30
0.0
 11
-4257.605031332488
 21
2407.498493975524
 31
0.0
  0
LINE
  5
136
330
1F
100
AcDbEntity
  8
レバー
  6
Continuous
 62
     7
370
     0
100
AcDbLine
 10
-4257.605031332488
 20
2407.498493975524
 30
0.0
 11
-4262.846771827487
 21
2407.498799915023
 31
0.0
  0
LINE
  5
137
330
1F
100
AcDbEntity
  8
レバー
  6
Continuous
 62
     7
370
     0
100
AcDbLine
 10
-4262.846771827487
 20
2407.498799915023
 30
0.0
 11
-4267.643928727587
 21
2407.499198055424
 31
0.0
  0
LINE
  5
138
330
1F
100
AcDbEntity
  8
レバー
  6
Continuous
 62
     7
370
     0
100
AcDbLine
 10
-4267.643928727587
 20
2407.499198055424
 30
0.0
 11
-4272.295108264788
 21
2407.499702366523
 31
0.0
  0
LINE
  5
139
330
1F
100
AcDbEntity
  8
レバー
  6
Continuous
 62
     7
370
     0
100
AcDbLine
 10
-4272.295108264788
 20
2407.499702366523
 30
0.0
 11
-4276.497211507087
 21
2407.500264419724
 31
0.0
  0
LINE
  5
13A
330
1F
100
AcDbEntity
  8
レバー
  6
Continuous
 62
     7
370
     0
100
AcDbLine
 10
-4276.497211507087
 20
2407.500264419724
 30
0.0
 11
-4280.250640785787
 21
2407.500646262023
 31
0.0
  0
LINE
  5
13B
330
1F
100
AcDbEntity
  8
レバー
  6
Continuous
 62
     7
370
     0
100
AcDbLine
 10
-4280.250640785787
 20
2407.500646262023
 30
0.0
 11
-4282.252498170787
 21
2407.499931006224
 31
0.0
  0
LINE
  5
13C
330
1F
100
AcDbEntity
  8
レバー
  6
Continuous
 62
     7
370
     0
100
AcDbLine
 10
-4282.252498170787
 20
2407.499931006224
 30
0.0
 11
-4284.098865664088
 21
2407.497927731423
 31
0.0
  0
LINE
  5
13D
330
1F
100
AcDbEntity
  8
レバー
  6
Continuous
 62
     7
370
     0
100
AcDbLine
 10
-4284.098865664088
 20
2407.497927731423
 30
0.0
 11
-4286.108485622788
 21
2407.494641094023
 31
0.0
  0
LINE
  5
13E
330
1F
100
AcDbEntity
  8
レバー
  6
Continuous
 62
     7
370
     0
100
AcDbLine
 10
-4286.108485622788
 20
2407.494641094023
 30
0.0
 11
-4288.516421070788
 21
2407.492074834723
 31
0.0
  0
LINE
  5
13F
330
1F
100
AcDbEntity
  8
レバー
  6
Continuous
 62
     7
370
     0
100
AcDbLine
 10
-4288.516421070788
 20
2407.492074834723
 30
0.0
 11
-4290.011581233287
 21
2407.491586356024
 31
0.0
  0
LINE
  5
140
330
1F
100
AcDbEntity
  8
レバー
  6
Continuous
 62
     7
370
     0
100
AcDbLine
 10
-4290.011581233287
 20
2407.491586356024
 30
0.0
 11
-4291.548931239688
 21
2407.492336070623
 31
0.0
  0
LINE
  5
141
330
1F
100
AcDbEntity
  8
レバー
  6
Continuous
 62
     7
370
     0
100
AcDbLine
 10
-4291.548931239688
 20
2407.492336070623
 30
0.0
 11
-4293.067231042788
 21
2407.493537942424
 31
0.0
  0
LINE
  5
142
330
1F
100
AcDbEntity
  8
レバー
  6
Continuous
 62
     7
370
     0
100
AcDbLine
 10
-4293.067231042788
 20
2407.493537942424
 30
0.0
 11
-4294.167902520388
 21
2407.492673675123
 31
0.0
  0
LINE
  5
143
330
1F
100
AcDbEntity
  8
レバー
  6
Continuous
 62
     7
370
     0
100
AcDbLine
 10
-4294.167902520388
 20
2407.492673675123
 30
0.0
 11
-4294.630227344587
 21
2407.486083636524
 31
0.0
  0
LINE
  5
144
330
1F
100
AcDbEntity
  8
レバー
  6
Continuous
 62
     7
370
     0
100
AcDbLine
 10
-4294.630227344587
 20
2407.486083636524
 30
0.0
 11
-4294.634146815587
 21
2407.482003512324
 31
0.0
  0
ARC
  5
145
330
1F
100
AcDbEntity
  8
レバー
  6
Continuous
 62
     7
370
     0
100
AcDbCircle
 10
-4184.000018557987
 20
2406.000247702524
 30
0.0
 40
1.500000000000118
100
AcDbArc
 50
359.9999957463
 51
90.17419294509996
  0
ARC
  5
146
330
1F
100
AcDbEntity
  8
レバー
  6
Continuous
 62
     7
370
     0
100
AcDbCircle
 10
-4184.000018557987
 20
2395.000247128923
 30
0.0
 40
1.500000000000029
100
AcDbArc
 50
269.9105889113
 51
359.9915336725
  0
LINE
  5
147
330
1F
100
AcDbEntity
  8
レバー
  6
Continuous
 62
     7
370
     0
100
AcDbLine
 10
-4289.544631926788
 20
2407.491739092924
 30
0.0
 11
-4290.307630053288
 21
2408.278422149424
 31
0.0
  0
LINE
  5
148
330
1F
100
AcDbEntity
  8
レバー
  6
Continuous
 62
     7
370
     0
100
AcDbLine
 10
-4290.307630053288
 20
2408.278422149424
 30
0.0
 11
-4292.277605472588
 21
2409.646413473924
 31
0.0
  0
LINE
  5
149
330
1F
100
AcDbEntity
  8
レバー
  6
Continuous
 62
     7
370
     0
100
AcDbLine
 10
-4292.277605472588
 20
2409.646413473924
 30
0.0
 11
-4294.525134111287
 21
2410.662922261823
 31
0.0
  0
LINE
  5
14A
330
1F
100
AcDbEntity
  8
レバー
  6
Continuous
 62
     7
370
     0
100
AcDbLine
 10
-4294.525134111287
 20
2410.662922261823
 30
0.0
 11
-4296.963844415287
 21
2411.288885584624
 31
0.0
  0
LINE
  5
14B
330
1F
100
AcDbEntity
  8
レバー
  6
Continuous
 62
     7
370
     0
100
AcDbLine
 10
-4296.963844415287
 20
2411.288885584624
 30
0.0
 11
-4299.500018557987
 21
2411.500247380224
 31
0.0
  0
LINE
  5
14C
330
1F
100
AcDbEntity
  8
レバー
  6
Continuous
 62
     7
370
     0
100
AcDbLine
 10
-4299.500018557987
 20
2411.500247380224
 30
0.0
 11
-4302.036192700787
 21
2411.288885584624
 31
0.0
  0
LINE
  5
14D
330
1F
100
AcDbEntity
  8
レバー
  6
Continuous
 62
     7
370
     0
100
AcDbLine
 10
-4302.036192700787
 20
2411.288885584624
 30
0.0
 11
-4304.474903004688
 21
2410.662922261823
 31
0.0
  0
LINE
  5
14E
330
1F
100
AcDbEntity
  8
レバー
  6
Continuous
 62
     7
370
     0
100
AcDbLine
 10
-4304.474903004688
 20
2410.662922261823
 30
0.0
 11
-4306.722431643387
 21
2409.646413473924
 31
0.0
  0
LINE
  5
14F
330
1F
100
AcDbEntity
  8
レバー
  6
Continuous
 62
     7
370
     0
100
AcDbLine
 10
-4306.722431643387
 20
2409.646413473924
 30
0.0
 11
-4308.692407062787
 21
2408.278422149424
 31
0.0
  0
LINE
  5
150
330
1F
100
AcDbEntity
  8
レバー
  6
Continuous
 62
     7
370
     0
100
AcDbLine
 10
-4308.692407062787
 20
2408.278422149424
 30
0.0
 11
-4310.309123447588
 21
2406.611520050623
 31
0.0
  0
LINE
  5
151
330
1F
100
AcDbEntity
  8
レバー
  6
Continuous
 62
     7
370
     0
100
AcDbLine
 10
-4310.309123447588
 20
2406.611520050623
 30
0.0
 11
-4311.510452269087
 21
2404.709765406824
 31
0.0
  0
LINE
  5
152
330
1F
100
AcDbEntity
  8
レバー
  6
Continuous
 62
     7
370
     0
100
AcDbLine
 10
-4311.510452269087
 20
2404.709765406824
 30
0.0
 11
-4312.250226935887
 21
2402.646240963124
 31
0.0
  0
LINE
  5
153
330
1F
100
AcDbEntity
  8
レバー
  6
Continuous
 62
     7
370
     0
100
AcDbLine
 10
-4312.250226935887
 20
2402.646240963124
 30
0.0
 11
-4312.500018826187
 21
2400.500247439824
 31
0.0
  0
LINE
  5
154
330
1F
100
AcDbEntity
  8
レバー
  6
Continuous
 62
     7
370
     0
100
AcDbLine
 10
-4312.500018826187
 20
2400.500247439824
 30
0.0
 11
-4312.250226935887
 21
2398.354253916524
 31
0.0
  0
LINE
  5
155
330
1F
100
AcDbEntity
  8
レバー
  6
Continuous
 62
     7
370
     0
100
AcDbLine
 10
-4312.250226935887
 20
2398.354253916524
 30
0.0
 11
-4311.510452269087
 21
2396.290729472924
 31
0.0
  0
LINE
  5
156
330
1F
100
AcDbEntity
  8
レバー
  6
Continuous
 62
     7
370
     0
100
AcDbLine
 10
-4311.510452269087
 20
2396.290729472924
 30
0.0
 11
-4310.309123447588
 21
2394.388974829123
 31
0.0
  0
LINE
  5
157
330
1F
100
AcDbEntity
  8
レバー
  6
Continuous
 62
     7
370
     0
100
AcDbLine
 10
-4310.309123447588
 20
2394.388974829123
 30
0.0
 11
-4308.692407062787
 21
2392.722072730324
 31
0.0
  0
LINE
  5
158
330
1F
100
AcDbEntity
  8
レバー
  6
Continuous
 62
     7
370
     0
100
AcDbLine
 10
-4308.692407062787
 20
2392.722072730324
 30
0.0
 11
-4306.722431643387
 21
2391.354081405823
 31
0.0
  0
LINE
  5
159
330
1F
100
AcDbEntity
  8
レバー
  6
Continuous
 62
     7
370
     0
100
AcDbLine
 10
-4306.722431643387
 20
2391.354081405823
 30
0.0
 11
-4304.474903004688
 21
2390.337572617923
 31
0.0
  0
LINE
  5
15A
330
1F
100
AcDbEntity
  8
レバー
  6
Continuous
 62
     7
370
     0
100
AcDbLine
 10
-4304.474903004688
 20
2390.337572617923
 30
0.0
 11
-4302.036192700787
 21
2389.711609295124
 31
0.0
  0
LINE
  5
15B
330
1F
100
AcDbEntity
  8
レバー
  6
Continuous
 62
     7
370
     0
100
AcDbLine
 10
-4302.036192700787
 20
2389.711609295124
 30
0.0
 11
-4299.500018557987
 21
2389.500247499424
 31
0.0
  0
LINE
  5
15C
330
1F
100
AcDbEntity
  8
レバー
  6
Continuous
 62
     7
370
     0
100
AcDbLine
 10
-4299.500018557987
 20
2389.500247499424
 30
0.0
 11
-4296.963844415287
 21
2389.711609295124
 31
0.0
  0
LINE
  5
15D
330
1F
100
AcDbEntity
  8
レバー
  6
Continuous
 62
     7
370
     0
100
AcDbLine
 10
-4296.963844415287
 20
2389.711609295124
 30
0.0
 11
-4294.525134111287
 21
2390.337572617923
 31
0.0
  0
LINE
  5
15E
330
1F
100
AcDbEntity
  8
レバー
  6
Continuous
 62
     7
370
     0
100
AcDbLine
 10
-4294.525134111287
 20
2390.337572617923
 30
0.0
 11
-4292.277605472588
 21
2391.354081405823
 31
0.0
  0
LINE
  5
15F
330
1F
100
AcDbEntity
  8
レバー
  6
Continuous
 62
     7
370
     0
100
AcDbLine
 10
-4292.277605472588
 20
2391.354081405823
 30
0.0
 11
-4290.307630053288
 21
2392.722072730324
 31
0.0
  0
LINE
  5
160
330
1F
100
AcDbEntity
  8
レバー
  6
Continuous
 62
     7
370
     0
100
AcDbLine
 10
-4290.307630053288
 20
2392.722072730324
 30
0.0
 11
-4289.544726921687
 21
2393.508657997924
 31
0.0
  0
LINE
  5
161
330
1F
100
AcDbEntity
  8
レバー
  6
Continuous
 62
     7
370
     0
100
AcDbLine
 10
-4182.500019869287
 20
2400.500408573724
 30
0.0
 11
-4182.500019869287
 21
2395.003271939723
 31
0.0
  0
LINE
  5
162
330
1F
100
AcDbEntity
  8
レバー
  6
Continuous
 62
     7
370
     0
100
AcDbLine
 10
-4182.500019869287
 20
2400.500408573724
 30
0.0
 11
-4182.500019869287
 21
2405.993492993124
 31
0.0
  0
ARC
  5
163
330
1F
100
AcDbEntity
  8
レバー
  6
Continuous
 62
     7
370
     0
100
AcDbCircle
 10
-4299.500018557987
 20
2400.500247439824
 30
0.0
 40
24.55
100
AcDbArc
 50
16.5995243249
 51
343.3673588443
  0
LINE
  5
164
330
1F
100
AcDbEntity
  8
0-7
  6
JWW_CENTER2
 62
     7
370
     9
100
AcDbLine
 10
-4350.000018557987
 20
3438.000148463894
 30
0.0
 11
-3626.999909684466
 21
2440.500197951859
 31
0.0
  0
LINE
  5
165
330
1F
100
AcDbEntity
  8
0-7
  6
JWW_CENTER2
 62
     7
370
     9
100
AcDbLine
 10
-3626.999909684466
 20
2440.500197951859
 30
0.0
 11
-4350.000018557987
 21
1443.000247439824
 31
0.0
  0
LINE
  5
166
330
1F
100
AcDbEntity
  8
0-7
  6
JWW_CENTER2
 62
     7
370
     9
100
AcDbLine
 10
-4354.000018557984
 20
1443.000148463894
 30
0.0
 11
-4764.000018557984
 21
2440.500148463894
 31
0.0
  0
LINE
  5
167
330
1F
100
AcDbEntity
  8
0-7
  6
JWW_CENTER2
 62
     7
370
     9
100
AcDbLine
 10
-4764.000018557984
 20
2440.500148463894
 30
0.0
 11
-4354.000018557984
 21
3438.000148463894
 31
0.0
  0
LINE
  5
168
330
1F
100
AcDbEntity
  8
0-2_扉
  6
JWW_CENTER1
 62
     7
370
     9
100
AcDbLine
 10
-4195.000026805982
 20
2236.92989278005
 30
0.0
 11
-4195.000026805982
 21
2393.500412999223
 31
0.0
  0
LINE
  5
169
330
1F
100
AcDbEntity
  8
0-2_扉
  6
JWW_CENTER1
 62
     7
370
     9
100
AcDbLine
 10
-4195.000026805982
 20
2407.500050241623
 30
0.0
 11
-4195.000026805982
 21
3323.566547747306
 31
0.0
  0
LINE
  5
16A
330
1F
100
AcDbEntity
  8
0-2_扉
  6
Continuous
 62
     7
370
     9
100
AcDbLine
 10
-4240.000026805982
 20
2258.000214447847
 30
0.0
 11
-3736.99977771656
 21
2258.000214447847
 31
0.0
  0
LINE
  5
16B
330
1F
100
AcDbEntity
  8
0-C_ハッチ
  6
Continuous
 62
   120
370
     5
100
AcDbLine
 10
-4463.999886590079
 20
2282.932995941834
 30
0.0
 11
-4490.927557838592
 21
2257.999967008024
 31
0.0
  0
LINE
  5
16C
330
1F
100
AcDbEntity
  8
0-C_ハッチ
  6
Continuous
 62
   120
370
     5
100
AcDbLine
 10
-4208.652305096067
 20
3303.000197951859
 30
0.0
 11
-4240.000026805982
 21
3273.974529701937
 31
0.0
  0
LINE
  5
16D
330
1F
100
AcDbEntity
  8
0-C_ハッチ
  6
Continuous
 62
   120
370
     5
100
AcDbLine
 10
-3736.999777716561
 20
2274.660152566425
 30
0.0
 11
-3754.992510884625
 21
2258.000214447847
 31
0.0
  0
LINE
  5
16E
330
1F
100
AcDbEntity
  8
0-C_ハッチ
  6
Continuous
 62
   120
370
     5
100
AcDbLine
 10
-4234.195050357224
 20
2393.50208786314
 30
0.0
 11
-4240.000026805982
 21
2388.127109669846
 31
0.0
  0
LINE
  5
16F
330
1F
100
AcDbEntity
  8
0-C_ハッチ
  6
Continuous
 62
   120
370
     5
100
AcDbLine
 10
-4576.619962190555
 20
3302.999950512036
 30
0.0
 11
-4602.750018557984
 21
3278.805453875528
 31
0.0
  0
LINE
  5
170
330
1F
100
AcDbEntity
  8
0-C_ハッチ
  6
Continuous
 62
   120
370
     5
100
AcDbLine
 10
-4615.250018557984
 20
3267.231379801453
 30
0.0
 11
-4618.469962190555
 21
3264.249950512036
 31
0.0
  0
LINE
  5
171
330
1F
100
AcDbEntity
  8
0-C_ハッチ
  6
Continuous
 62
   120
370
     5
100
AcDbLine
 10
-4631.969962190555
 20
3251.749950512036
 30
0.0
 11
-4654.000026805979
 21
3231.351742534791
 31
0.0
  0
LINE
  5
172
330
1F
100
AcDbEntity
  8
0-C_ハッチ
  6
Continuous
 62
   120
370
     5
100
AcDbLine
 10
-4539.823223204607
 20
3302.999950512036
 30
0.0
 11
-4581.673223204606
 21
3264.249950512036
 31
0.0
  0
LINE
  5
173
330
1F
100
AcDbEntity
  8
0-C_ハッチ
  6
Continuous
 62
   120
370
     5
100
AcDbLine
 10
-4463.999886590079
 20
3270.993579823781
 30
0.0
 11
-4471.283006246763
 21
3264.249950512036
 31
0.0
  0
LINE
  5
174
330
1F
100
AcDbEntity
  8
0-C_ハッチ
  6
Continuous
 62
   120
370
     5
100
AcDbLine
 10
-4595.173223204607
 20
3251.749950512036
 30
0.0
 11
-4602.750018557984
 21
3244.734399258909
 31
0.0
  0
LINE
  5
175
330
1F
100
AcDbEntity
  8
0-C_ハッチ
  6
Continuous
 62
   120
370
     5
100
AcDbLine
 10
-4615.250018557984
 20
3233.160325184835
 30
0.0
 11
-4654.000026805979
 21
3197.280687918172
 31
0.0
  0
LINE
  5
176
330
1F
100
AcDbEntity
  8
0-C_ハッチ
  6
Continuous
 62
   120
370
     5
100
AcDbLine
 10
-4558.376484218659
 20
3251.749950512036
 30
0.0
 11
-4602.750018557984
 21
3210.66334464229
 31
0.0
  0
LINE
  5
177
330
1F
100
AcDbEntity
  8
0-C_ハッチ
  6
Continuous
 62
   120
370
     5
100
AcDbLine
 10
-4615.250018557984
 20
3199.089270568216
 30
0.0
 11
-4654.000026805979
 21
3163.209633301553
 31
0.0
  0
LINE
  5
178
330
1F
100
AcDbEntity
  8
0-C_ハッチ
  6
Continuous
 62
   120
370
     5
100
AcDbLine
 10
-4484.783006246763
 20
3251.749950512036
 30
0.0
 11
-4502.749870094091
 21
3235.113965468214
 31
0.0
  0
LINE
  5
179
330
1F
100
AcDbEntity
  8
0-C_ハッチ
  6
Continuous
 62
   120
370
     5
100
AcDbLine
 10
-4463.999886590079
 20
3236.922525207161
 30
0.0
 11
-4502.749870094091
 21
3201.042910851595
 31
0.0
  0
LINE
  5
17A
330
1F
100
AcDbEntity
  8
0-C_ハッチ
  6
Continuous
 62
   120
370
     5
100
AcDbLine
 10
-4515.249870094091
 20
3291.682000627377
 30
0.0
 11
-4544.876484218658
 21
3264.249950512036
 31
0.0
  0
LINE
  5
17B
330
1F
100
AcDbEntity
  8
0-C_ハッチ
  6
Continuous
 62
   120
370
     5
100
AcDbLine
 10
-4466.229745232711
 20
3302.999950512036
 30
0.0
 11
-4502.749870094091
 21
3269.185020084832
 31
0.0
  0
LINE
  5
17C
330
1F
100
AcDbEntity
  8
0-C_ハッチ
  6
Continuous
 62
   120
370
     5
100
AcDbLine
 10
-4615.250018557984
 20
3301.302434418072
 30
0.0
 11
-4654.000026805979
 21
3265.42279715141
 31
0.0
  0
LINE
  5
17D
330
1F
100
AcDbEntity
  8
0-C_ハッチ
  6
Continuous
 62
   120
370
     5
100
AcDbLine
 10
-4521.579745232711
 20
3251.749950512036
 30
0.0
 11
-4602.750018557984
 21
3176.592290025671
 31
0.0
  0
LINE
  5
17E
330
1F
100
AcDbEntity
  8
0-C_ハッチ
  6
Continuous
 62
   120
370
     5
100
AcDbLine
 10
-4615.250018557984
 20
3165.018215951596
 30
0.0
 11
-4654.000026805979
 21
3129.138578684934
 31
0.0
  0
LINE
  5
17F
330
1F
100
AcDbEntity
  8
0-C_ハッチ
  6
Continuous
 62
   120
370
     5
100
AcDbLine
 10
-4515.249870094091
 20
3223.53989139414
 30
0.0
 11
-4602.750018557984
 21
3142.521235409053
 31
0.0
  0
LINE
  5
180
330
1F
100
AcDbEntity
  8
0-C_ハッチ
  6
Continuous
 62
   120
370
     5
100
AcDbLine
 10
-4615.250018557984
 20
3130.947161334978
 30
0.0
 11
-4654.000026805979
 21
3095.067524068316
 31
0.0
  0
LINE
  5
181
330
1F
100
AcDbEntity
  8
0-C_ハッチ
  6
Continuous
 62
   120
370
     5
100
AcDbLine
 10
-4463.999886590079
 20
3202.851470590543
 30
0.0
 11
-4502.749870094091
 21
3166.971856234976
 31
0.0
  0
LINE
  5
182
330
1F
100
AcDbEntity
  8
0-C_ハッチ
  6
Continuous
 62
   120
370
     5
100
AcDbLine
 10
-4463.999886590079
 20
3168.780415973924
 30
0.0
 11
-4502.749870094091
 21
3132.900801618357
 31
0.0
  0
LINE
  5
183
330
1F
100
AcDbEntity
  8
0-C_ハッチ
  6
Continuous
 62
   120
370
     5
100
AcDbLine
 10
-4515.249870094091
 20
3189.468836777521
 30
0.0
 11
-4602.750018557984
 21
3108.450180792433
 31
0.0
  0
LINE
  5
184
330
1F
100
AcDbEntity
  8
0-C_ハッチ
  6
Continuous
 62
   120
370
     5
100
AcDbLine
 10
-4615.250018557984
 20
3096.876106718359
 30
0.0
 11
-4654.000026805979
 21
3060.996469451697
 31
0.0
  0
LINE
  5
185
330
1F
100
AcDbEntity
  8
0-C_ハッチ
  6
Continuous
 62
   120
370
     5
100
AcDbLine
 10
-4515.249870094091
 20
3155.397782160902
 30
0.0
 11
-4602.750018557984
 21
3074.379126175815
 31
0.0
  0
LINE
  5
186
330
1F
100
AcDbEntity
  8
0-C_ハッチ
  6
Continuous
 62
   120
370
     5
100
AcDbLine
 10
-4615.250018557984
 20
3062.80505210174
 30
0.0
 11
-4654.000026805979
 21
3026.925414835078
 31
0.0
  0
LINE
  5
187
330
1F
100
AcDbEntity
  8
0-C_ハッチ
  6
Continuous
 62
   120
370
     5
100
AcDbLine
 10
-4463.999886590079
 20
3134.709361357305
 30
0.0
 11
-4502.749870094091
 21
3098.829747001738
 31
0.0
  0
LINE
  5
188
330
1F
100
AcDbEntity
  8
0-C_ハッチ
  6
Continuous
 62
   120
370
     5
100
AcDbLine
 10
-4515.249870094091
 20
3121.326727544283
 30
0.0
 11
-4602.750018557984
 21
3040.308071559196
 31
0.0
  0
LINE
  5
189
330
1F
100
AcDbEntity
  8
0-C_ハッチ
  6
Continuous
 62
   120
370
     5
100
AcDbLine
 10
-4615.250018557984
 20
3028.733997485121
 30
0.0
 11
-4654.000026805979
 21
2992.854360218459
 31
0.0
  0
LINE
  5
18A
330
1F
100
AcDbEntity
  8
0-C_ハッチ
  6
Continuous
 62
   120
370
     5
100
AcDbLine
 10
-4515.249870094091
 20
3087.255672927664
 30
0.0
 11
-4602.750018557984
 21
3006.237016942577
 31
0.0
  0
LINE
  5
18B
330
1F
100
AcDbEntity
  8
0-C_ハッチ
  6
Continuous
 62
   120
370
     5
100
AcDbLine
 10
-4615.250018557984
 20
2994.662942868503
 30
0.0
 11
-4654.000026805979
 21
2958.78330560184
 31
0.0
  0
LINE
  5
18C
330
1F
100
AcDbEntity
  8
0-C_ハッチ
  6
Continuous
 62
   120
370
     5
100
AcDbLine
 10
-4463.999886590079
 20
3100.638306740686
 30
0.0
 11
-4502.749870094091
 21
3064.758692385119
 31
0.0
  0
LINE
  5
18D
330
1F
100
AcDbEntity
  8
0-C_ハッチ
  6
Continuous
 62
   120
370
     5
100
AcDbLine
 10
-4463.999886590079
 20
3066.567252124068
 30
0.0
 11
-4502.749870094091
 21
3030.687637768501
 31
0.0
  0
LINE
  5
18E
330
1F
100
AcDbEntity
  8
0-C_ハッチ
  6
Continuous
 62
   120
370
     5
100
AcDbLine
 10
-4463.999886590079
 20
3032.496197507449
 30
0.0
 11
-4502.749870094091
 21
2996.616583151882
 31
0.0
  0
LINE
  5
18F
330
1F
100
AcDbEntity
  8
0-C_ハッチ
  6
Continuous
 62
   120
370
     5
100
AcDbLine
 10
-4515.249870094091
 20
3053.184618311045
 30
0.0
 11
-4602.750018557984
 21
2972.165962325958
 31
0.0
  0
LINE
  5
190
330
1F
100
AcDbEntity
  8
0-C_ハッチ
  6
Continuous
 62
   120
370
     5
100
AcDbLine
 10
-4615.250018557984
 20
2960.591888251883
 30
0.0
 11
-4654.000026805979
 21
2924.712250985221
 31
0.0
  0
LINE
  5
191
330
1F
100
AcDbEntity
  8
0-C_ハッチ
  6
Continuous
 62
   120
370
     5
100
AcDbLine
 10
-4515.249870094091
 20
3019.113563694427
 30
0.0
 11
-4602.750018557984
 21
2938.09490770934
 31
0.0
  0
LINE
  5
192
330
1F
100
AcDbEntity
  8
0-C_ハッチ
  6
Continuous
 62
   120
370
     5
100
AcDbLine
 10
-4615.250018557984
 20
2926.520833635265
 30
0.0
 11
-4654.000026805979
 21
2890.641196368603
 31
0.0
  0
LINE
  5
193
330
1F
100
AcDbEntity
  8
0-C_ハッチ
  6
Continuous
 62
   120
370
     5
100
AcDbLine
 10
-4515.249870094091
 20
2985.042509077808
 30
0.0
 11
-4602.750018557984
 21
2904.023853092721
 31
0.0
  0
LINE
  5
194
330
1F
100
AcDbEntity
  8
0-C_ハッチ
  6
Continuous
 62
   120
370
     5
100
AcDbLine
 10
-4615.250018557984
 20
2892.449779018646
 30
0.0
 11
-4654.000026805979
 21
2856.570141751984
 31
0.0
  0
LINE
  5
195
330
1F
100
AcDbEntity
  8
0-C_ハッチ
  6
Continuous
 62
   120
370
     5
100
AcDbLine
 10
-4463.999886590079
 20
2998.42514289083
 30
0.0
 11
-4502.749870094091
 21
2962.545528535263
 31
0.0
  0
LINE
  5
196
330
1F
100
AcDbEntity
  8
0-C_ハッチ
  6
Continuous
 62
   120
370
     5
100
AcDbLine
 10
-4463.999886590079
 20
2964.354088274212
 30
0.0
 11
-4502.749870094091
 21
2928.474473918644
 31
0.0
  0
LINE
  5
197
330
1F
100
AcDbEntity
  8
0-C_ハッチ
  6
Continuous
 62
   120
370
     5
100
AcDbLine
 10
-4463.999886590079
 20
2930.283033657592
 30
0.0
 11
-4502.749870094091
 21
2894.403419302025
 31
0.0
  0
LINE
  5
198
330
1F
100
AcDbEntity
  8
0-C_ハッチ
  6
Continuous
 62
   120
370
     5
100
AcDbLine
 10
-4515.249870094091
 20
2950.971454461189
 30
0.0
 11
-4602.750018557984
 21
2869.952798476102
 31
0.0
  0
LINE
  5
199
330
1F
100
AcDbEntity
  8
0-C_ハッチ
  6
Continuous
 62
   120
370
     5
100
AcDbLine
 10
-4615.250018557984
 20
2858.378724402027
 30
0.0
 11
-4654.000026805979
 21
2822.499087135365
 31
0.0
  0
LINE
  5
19A
330
1F
100
AcDbEntity
  8
0-C_ハッチ
  6
Continuous
 62
   120
370
     5
100
AcDbLine
 10
-4515.249870094091
 20
2916.900399844571
 30
0.0
 11
-4602.750018557984
 21
2835.881743859483
 31
0.0
  0
LINE
  5
19B
330
1F
100
AcDbEntity
  8
0-C_ハッチ
  6
Continuous
 62
   120
370
     5
100
AcDbLine
 10
-4615.250018557984
 20
2824.307669785409
 30
0.0
 11
-4654.000026805979
 21
2788.428032518746
 31
0.0
  0
LINE
  5
19C
330
1F
100
AcDbEntity
  8
0-C_ハッチ
  6
Continuous
 62
   120
370
     5
100
AcDbLine
 10
-4463.999886590079
 20
2896.211979040974
 30
0.0
 11
-4502.749870094091
 21
2860.332364685407
 31
0.0
  0
LINE
  5
19D
330
1F
100
AcDbEntity
  8
0-C_ハッチ
  6
Continuous
 62
   120
370
     5
100
AcDbLine
 10
-4463.999886590079
 20
2862.140924424355
 30
0.0
 11
-4502.749870094091
 21
2826.261310068788
 31
0.0
  0
LINE
  5
19E
330
1F
100
AcDbEntity
  8
0-C_ハッチ
  6
Continuous
 62
   120
370
     5
100
AcDbLine
 10
-4515.249870094091
 20
2882.829345227951
 30
0.0
 11
-4602.750018557984
 21
2801.810689242864
 31
0.0
  0
LINE
  5
19F
330
1F
100
AcDbEntity
  8
0-C_ハッチ
  6
Continuous
 62
   120
370
     5
100
AcDbLine
 10
-4615.250018557984
 20
2790.236615168789
 30
0.0
 11
-4654.000026805979
 21
2754.356977902127
 31
0.0
  0
LINE
  5
1A0
330
1F
100
AcDbEntity
  8
0-C_ハッチ
  6
Continuous
 62
   120
370
     5
100
AcDbLine
 10
-4515.249870094091
 20
2848.758290611333
 30
0.0
 11
-4602.750018557984
 21
2767.739634626246
 31
0.0
  0
LINE
  5
1A1
330
1F
100
AcDbEntity
  8
0-C_ハッチ
  6
Continuous
 62
   120
370
     5
100
AcDbLine
 10
-4615.250018557984
 20
2756.165560552171
 30
0.0
 11
-4654.000026805979
 21
2720.285923285509
 31
0.0
  0
LINE
  5
1A2
330
1F
100
AcDbEntity
  8
0-C_ハッチ
  6
Continuous
 62
   120
370
     5
100
AcDbLine
 10
-4515.249870094091
 20
2814.687235994714
 30
0.0
 11
-4602.750018557984
 21
2733.668580009627
 31
0.0
  0
LINE
  5
1A3
330
1F
100
AcDbEntity
  8
0-C_ハッチ
  6
Continuous
 62
   120
370
     5
100
AcDbLine
 10
-4615.250018557984
 20
2722.094505935552
 30
0.0
 11
-4654.000026805979
 21
2686.21486866889
 31
0.0
  0
LINE
  5
1A4
330
1F
100
AcDbEntity
  8
0-C_ハッチ
  6
Continuous
 62
   120
370
     5
100
AcDbLine
 10
-4615.250018557984
 20
2688.023451318933
 30
0.0
 11
-4654.000026805979
 21
2652.143814052271
 31
0.0
  0
LINE
  5
1A5
330
1F
100
AcDbEntity
  8
0-C_ハッチ
  6
Continuous
 62
   120
370
     5
100
AcDbLine
 10
-4463.999886590079
 20
2828.069869807736
 30
0.0
 11
-4502.749870094091
 21
2792.190255452169
 31
0.0
  0
LINE
  5
1A6
330
1F
100
AcDbEntity
  8
0-C_ハッチ
  6
Continuous
 62
   120
370
     5
100
AcDbLine
 10
-4515.249870094091
 20
2780.616181378095
 30
0.0
 11
-4602.750018557984
 21
2699.597525393008
 31
0.0
  0
LINE
  5
1A7
330
1F
100
AcDbEntity
  8
0-C_ハッチ
  6
Continuous
 62
   120
370
     5
100
AcDbLine
 10
-4463.999886590079
 20
2793.998815191117
 30
0.0
 11
-4502.749870094091
 21
2758.11920083555
 31
0.0
  0
LINE
  5
1A8
330
1F
100
AcDbEntity
  8
0-C_ハッチ
  6
Continuous
 62
   120
370
     5
100
AcDbLine
 10
-4515.249870094091
 20
2746.545126761476
 30
0.0
 11
-4602.750018557984
 21
2665.526470776389
 31
0.0
  0
LINE
  5
1A9
330
1F
100
AcDbEntity
  8
0-C_ハッチ
  6
Continuous
 62
   120
370
     5
100
AcDbLine
 10
-4615.250018557984
 20
2653.952396702314
 30
0.0
 11
-4654.000026805979
 21
2618.072759435652
 31
0.0
  0
LINE
  5
1AA
330
1F
100
AcDbEntity
  8
0-C_ハッチ
  6
Continuous
 62
   120
370
     5
100
AcDbLine
 10
-4463.999886590079
 20
2759.927760574498
 30
0.0
 11
-4502.749870094091
 21
2724.048146218931
 31
0.0
  0
LINE
  5
1AB
330
1F
100
AcDbEntity
  8
0-C_ハッチ
  6
Continuous
 62
   120
370
     5
100
AcDbLine
 10
-4463.999886590079
 20
2725.856705957879
 30
0.0
 11
-4502.749870094091
 21
2689.977091602312
 31
0.0
  0
LINE
  5
1AC
330
1F
100
AcDbEntity
  8
0-C_ハッチ
  6
Continuous
 62
   120
370
     5
100
AcDbLine
 10
-4463.999886590079
 20
2691.785651341261
 30
0.0
 11
-4502.749870094091
 21
2655.906036985694
 31
0.0
  0
LINE
  5
1AD
330
1F
100
AcDbEntity
  8
0-C_ハッチ
  6
Continuous
 62
   120
370
     5
100
AcDbLine
 10
-4515.249870094091
 20
2712.474072144857
 30
0.0
 11
-4602.750018557984
 21
2631.45541615977
 31
0.0
  0
LINE
  5
1AE
330
1F
100
AcDbEntity
  8
0-C_ハッチ
  6
Continuous
 62
   120
370
     5
100
AcDbLine
 10
-4615.250018557984
 20
2619.881342085695
 30
0.0
 11
-4654.000026805979
 21
2584.001704819033
 31
0.0
  0
LINE
  5
1AF
330
1F
100
AcDbEntity
  8
0-C_ハッチ
  6
Continuous
 62
   120
370
     5
100
AcDbLine
 10
-4515.249870094091
 20
2678.403017528238
 30
0.0
 11
-4602.750018557984
 21
2597.384361543151
 31
0.0
  0
LINE
  5
1B0
330
1F
100
AcDbEntity
  8
0-C_ハッチ
  6
Continuous
 62
   120
370
     5
100
AcDbLine
 10
-4615.250018557984
 20
2585.810287469076
 30
0.0
 11
-4654.000026805979
 21
2549.930650202414
 31
0.0
  0
LINE
  5
1B1
330
1F
100
AcDbEntity
  8
0-C_ハッチ
  6
Continuous
 62
   120
370
     5
100
AcDbLine
 10
-4463.999886590079
 20
2657.714596724642
 30
0.0
 11
-4502.749870094091
 21
2621.834982369074
 31
0.0
  0
LINE
  5
1B2
330
1F
100
AcDbEntity
  8
0-C_ハッチ
  6
Continuous
 62
   120
370
     5
100
AcDbLine
 10
-4463.999886590079
 20
2623.643542108023
 30
0.0
 11
-4502.749870094091
 21
2587.763927752456
 31
0.0
  0
LINE
  5
1B3
330
1F
100
AcDbEntity
  8
0-C_ハッチ
  6
Continuous
 62
   120
370
     5
100
AcDbLine
 10
-4515.249870094091
 20
2644.33196291162
 30
0.0
 11
-4602.750018557984
 21
2563.313306926532
 31
0.0
  0
LINE
  5
1B4
330
1F
100
AcDbEntity
  8
0-C_ハッチ
  6
Continuous
 62
   120
370
     5
100
AcDbLine
 10
-4615.250018557984
 20
2551.739232852457
 30
0.0
 11
-4654.000026805979
 21
2515.859595585795
 31
0.0
  0
LINE
  5
1B5
330
1F
100
AcDbEntity
  8
0-C_ハッチ
  6
Continuous
 62
   120
370
     5
100
AcDbLine
 10
-4515.249870094091
 20
2610.260908295
 30
0.0
 11
-4602.750018557984
 21
2529.242252309913
 31
0.0
  0
LINE
  5
1B6
330
1F
100
AcDbEntity
  8
0-C_ハッチ
  6
Continuous
 62
   120
370
     5
100
AcDbLine
 10
-4615.250018557984
 20
2517.668178235838
 30
0.0
 11
-4654.000026805979
 21
2481.788540969176
 31
0.0
  0
LINE
  5
1B7
330
1F
100
AcDbEntity
  8
0-C_ハッチ
  6
Continuous
 62
   120
370
     5
100
AcDbLine
 10
-4515.249870094091
 20
2576.189853678382
 30
0.0
 11
-4602.750018557984
 21
2495.171197693295
 31
0.0
  0
LINE
  5
1B8
330
1F
100
AcDbEntity
  8
0-C_ハッチ
  6
Continuous
 62
   120
370
     5
100
AcDbLine
 10
-4615.250018557984
 20
2483.597123619221
 30
0.0
 11
-4654.000026805979
 21
2447.717486352558
 31
0.0
  0
LINE
  5
1B9
330
1F
100
AcDbEntity
  8
0-C_ハッチ
  6
Continuous
 62
   120
370
     5
100
AcDbLine
 10
-4463.999886590079
 20
2589.572487491404
 30
0.0
 11
-4502.749870094091
 21
2553.692873135837
 31
0.0
  0
LINE
  5
1BA
330
1F
100
AcDbEntity
  8
0-C_ハッチ
  6
Continuous
 62
   120
370
     5
100
AcDbLine
 10
-4463.999886590079
 20
2555.501432874785
 30
0.0
 11
-4502.749870094091
 21
2519.621818519218
 31
0.0
  0
LINE
  5
1BB
330
1F
100
AcDbEntity
  8
0-C_ハッチ
  6
Continuous
 62
   120
370
     5
100
AcDbLine
 10
-4515.249870094091
 20
2542.118799061763
 30
0.0
 11
-4602.750018557984
 21
2461.100143076676
 31
0.0
  0
LINE
  5
1BC
330
1F
100
AcDbEntity
  8
0-C_ハッチ
  6
Continuous
 62
   120
370
     5
100
AcDbLine
 10
-4615.250018557984
 20
2449.526069002601
 30
0.0
 11
-4654.000026805979
 21
2413.646431735939
 31
0.0
  0
LINE
  5
1BD
330
1F
100
AcDbEntity
  8
0-C_ハッチ
  6
Continuous
 62
   120
370
     5
100
AcDbLine
 10
-4515.249870094091
 20
2508.047744445144
 30
0.0
 11
-4602.750018557984
 21
2427.029088460057
 31
0.0
  0
LINE
  5
1BE
330
1F
100
AcDbEntity
  8
0-C_ハッチ
  6
Continuous
 62
   120
370
     5
100
AcDbLine
 10
-4615.250018557984
 20
2415.455014385982
 30
0.0
 11
-4654.000026805979
 21
2379.57537711932
 31
0.0
  0
LINE
  5
1BF
330
1F
100
AcDbEntity
  8
0-C_ハッチ
  6
Continuous
 62
   120
370
     5
100
AcDbLine
 10
-4615.250018557984
 20
2381.383959769363
 30
0.0
 11
-4654.000026805979
 21
2345.504322502701
 31
0.0
  0
LINE
  5
1C0
330
1F
100
AcDbEntity
  8
0-C_ハッチ
  6
Continuous
 62
   120
370
     5
100
AcDbLine
 10
-4615.250018557984
 20
2347.312905152744
 30
0.0
 11
-4654.000026805979
 21
2311.433267886082
 31
0.0
  0
LINE
  5
1C1
330
1F
100
AcDbEntity
  8
0-C_ハッチ
  6
Continuous
 62
   120
370
     5
100
AcDbLine
 10
-4463.999886590079
 20
2521.430378258166
 30
0.0
 11
-4502.749870094091
 21
2485.550763902599
 31
0.0
  0
LINE
  5
1C2
330
1F
100
AcDbEntity
  8
0-C_ハッチ
  6
Continuous
 62
   120
370
     5
100
AcDbLine
 10
-4515.249870094091
 20
2473.976689828525
 30
0.0
 11
-4602.750018557984
 21
2392.958033843438
 31
0.0
  0
LINE
  5
1C3
330
1F
100
AcDbEntity
  8
0-C_ハッチ
  6
Continuous
 62
   120
370
     5
100
AcDbLine
 10
-4463.999886590079
 20
2487.359323641548
 30
0.0
 11
-4502.749870094091
 21
2451.479709285981
 31
0.0
  0
LINE
  5
1C4
330
1F
100
AcDbEntity
  8
0-C_ハッチ
  6
Continuous
 62
   120
370
     5
100
AcDbLine
 10
-4515.249870094091
 20
2439.905635211907
 30
0.0
 11
-4602.750018557984
 21
2358.886979226819
 31
0.0
  0
LINE
  5
1C5
330
1F
100
AcDbEntity
  8
0-C_ハッチ
  6
Continuous
 62
   120
370
     5
100
AcDbLine
 10
-4463.999886590079
 20
2453.288269024928
 30
0.0
 11
-4502.749870094091
 21
2417.408654669361
 31
0.0
  0
LINE
  5
1C6
330
1F
100
AcDbEntity
  8
0-C_ハッチ
  6
Continuous
 62
   120
370
     5
100
AcDbLine
 10
-4515.249870094091
 20
2405.834580595287
 30
0.0
 11
-4602.750018557984
 21
2324.8159246102
 31
0.0
  0
LINE
  5
1C7
330
1F
100
AcDbEntity
  8
0-C_ハッチ
  6
Continuous
 62
   120
370
     5
100
AcDbLine
 10
-4463.999886590079
 20
2419.217214408309
 30
0.0
 11
-4502.749870094091
 21
2383.337600052742
 31
0.0
  0
LINE
  5
1C8
330
1F
100
AcDbEntity
  8
0-C_ハッチ
  6
Continuous
 62
   120
370
     5
100
AcDbLine
 10
-4463.999886590079
 20
2385.14615979169
 30
0.0
 11
-4502.749870094091
 21
2349.266545436123
 31
0.0
  0
LINE
  5
1C9
330
1F
100
AcDbEntity
  8
0-C_ハッチ
  6
Continuous
 62
   120
370
     5
100
AcDbLine
 10
-4463.999886590079
 20
2351.075105175071
 30
0.0
 11
-4502.749870094091
 21
2315.195490819504
 31
0.0
  0
LINE
  5
1CA
330
1F
100
AcDbEntity
  8
0-C_ハッチ
  6
Continuous
 62
   120
370
     5
100
AcDbLine
 10
-4615.250018557984
 20
2313.241850536125
 30
0.0
 11
-4619.561520003341
 21
2309.249719568202
 31
0.0
  0
LINE
  5
1CB
330
1F
100
AcDbEntity
  8
0-C_ハッチ
  6
Continuous
 62
   120
370
     5
100
AcDbLine
 10
-4633.061520003341
 20
2296.749719568202
 30
0.0
 11
-4654.000026805979
 21
2277.362213269463
 31
0.0
  0
LINE
  5
1CC
330
1F
100
AcDbEntity
  8
0-C_ハッチ
  6
Continuous
 62
   120
370
     5
100
AcDbLine
 10
-4515.249870094091
 20
2371.763525978668
 30
0.0
 11
-4582.764781017393
 21
2309.249719568202
 31
0.0
  0
LINE
  5
1CD
330
1F
100
AcDbEntity
  8
0-C_ハッチ
  6
Continuous
 62
   120
370
     5
100
AcDbLine
 10
-4515.249870094091
 20
2337.692471362049
 30
0.0
 11
-4545.968042031445
 21
2309.249719568202
 31
0.0
  0
LINE
  5
1CE
330
1F
100
AcDbEntity
  8
0-C_ハッチ
  6
Continuous
 62
   120
370
     5
100
AcDbLine
 10
-4559.468042031445
 20
2296.749719568202
 30
0.0
 11
-4601.317774796436
 21
2257.999967008024
 31
0.0
  0
LINE
  5
1CF
330
1F
100
AcDbEntity
  8
0-C_ハッチ
  6
Continuous
 62
   120
370
     5
100
AcDbLine
 10
-4508.99987009409
 20
2309.408453782468
 30
0.0
 11
-4509.171303045498
 21
2309.249719568202
 31
0.0
  0
LINE
  5
1D0
330
1F
100
AcDbEntity
  8
0-C_ハッチ
  6
Continuous
 62
   120
370
     5
100
AcDbLine
 10
-4522.671303045498
 20
2296.749719568202
 30
0.0
 11
-4564.521035810489
 21
2257.999967008024
 31
0.0
  0
LINE
  5
1D1
330
1F
100
AcDbEntity
  8
0-C_ハッチ
  6
Continuous
 62
   120
370
     5
100
AcDbLine
 10
-4463.999886590079
 20
2317.004050558453
 30
0.0
 11
-4472.374564059549
 21
2309.249719568202
 31
0.0
  0
LINE
  5
1D2
330
1F
100
AcDbEntity
  8
0-C_ハッチ
  6
Continuous
 62
   120
370
     5
100
AcDbLine
 10
-4596.264781017392
 20
2296.749719568202
 30
0.0
 11
-4602.750018557984
 21
2290.744869993581
 31
0.0
  0
LINE
  5
1D3
330
1F
100
AcDbEntity
  8
0-C_ハッチ
  6
Continuous
 62
   120
370
     5
100
AcDbLine
 10
-4615.250018557984
 20
2279.170795919506
 30
0.0
 11
-4638.114513782384
 21
2257.999967008024
 31
0.0
  0
LINE
  5
1D4
330
1F
100
AcDbEntity
  8
0-C_ハッチ
  6
Continuous
 62
   120
370
     5
100
AcDbLine
 10
-4485.874564059549
 20
2296.749719568202
 30
0.0
 11
-4502.749870094091
 21
2281.124436202886
 31
0.0
  0
LINE
  5
1D5
330
1F
100
AcDbEntity
  8
0-C_ハッチ
  6
Continuous
 62
   120
370
     5
100
AcDbLine
 10
-4515.249870094091
 20
2269.550362128812
 30
0.0
 11
-4527.724296824541
 21
2257.999967008024
 31
0.0
  0
LINE
  5
1D6
330
1F
100
AcDbEntity
  8
0-C_ハッチ
  6
Continuous
 62
   120
370
     5
100
AcDbLine
 10
-4171.855566110118
 20
3303.000197951859
 30
0.0
 11
-4188.750026805982
 21
3287.357178789022
 31
0.0
  0
LINE
  5
1D7
330
1F
100
AcDbEntity
  8
0-C_ハッチ
  6
Continuous
 62
   120
370
     5
100
AcDbLine
 10
-4201.250026805982
 20
3275.783104714948
 30
0.0
 11
-4213.705566110118
 21
3264.250197951859
 31
0.0
  0
LINE
  5
1D8
330
1F
100
AcDbEntity
  8
0-C_ハッチ
  6
Continuous
 62
   120
370
     5
100
AcDbLine
 10
-4227.205566110119
 20
3251.750197951859
 30
0.0
 11
-4240.000026805982
 21
3239.903475085318
 31
0.0
  0
LINE
  5
1D9
330
1F
100
AcDbEntity
  8
0-C_ハッチ
  6
Continuous
 62
   120
370
     5
100
AcDbLine
 10
-4135.058827124171
 20
3303.000197951859
 30
0.0
 11
-4176.908827124171
 21
3264.250197951859
 31
0.0
  0
LINE
  5
1DA
330
1F
100
AcDbEntity
  8
0-C_ハッチ
  6
Continuous
 62
   120
370
     5
100
AcDbLine
 10
-4201.250026805982
 20
3241.712050098329
 30
0.0
 11
-4240.000026805982
 21
3205.8324204687
 31
0.0
  0
LINE
  5
1DB
330
1F
100
AcDbEntity
  8
0-C_ハッチ
  6
Continuous
 62
   120
370
     5
100
AcDbLine
 10
-4098.262088138223
 20
3303.000197951859
 30
0.0
 11
-4140.112088138222
 21
3264.250197951859
 31
0.0
  0
LINE
  5
1DC
330
1F
100
AcDbEntity
  8
0-C_ハッチ
  6
Continuous
 62
   120
370
     5
100
AcDbLine
 10
-4061.465349152275
 20
3303.000197951859
 30
0.0
 11
-4103.315349152274
 21
3264.250197951859
 31
0.0
  0
LINE
  5
1DD
330
1F
100
AcDbEntity
  8
0-C_ハッチ
  6
Continuous
 62
   120
370
     5
100
AcDbLine
 10
-4024.668610166327
 20
3303.000197951859
 30
0.0
 11
-4066.518610166326
 21
3264.250197951859
 31
0.0
  0
LINE
  5
1DE
330
1F
100
AcDbEntity
  8
0-C_ハッチ
  6
Continuous
 62
   120
370
     5
100
AcDbLine
 10
-3987.871871180379
 20
3303.000197951859
 30
0.0
 11
-4029.721871180379
 21
3264.250197951859
 31
0.0
  0
LINE
  5
1DF
330
1F
100
AcDbEntity
  8
0-C_ハッチ
  6
Continuous
 62
   120
370
     5
100
AcDbLine
 10
-3951.075132194431
 20
3303.000197951859
 30
0.0
 11
-3992.925132194431
 21
3264.250197951859
 31
0.0
  0
LINE
  5
1E0
330
1F
100
AcDbEntity
  8
0-C_ハッチ
  6
Continuous
 62
   120
370
     5
100
AcDbLine
 10
-3914.278393208483
 20
3303.000197951859
 30
0.0
 11
-3956.128393208483
 21
3264.250197951859
 31
0.0
  0
LINE
  5
1E1
330
1F
100
AcDbEntity
  8
0-C_ハッチ
  6
Continuous
 62
   120
370
     5
100
AcDbLine
 10
-3877.481654222535
 20
3303.000197951859
 30
0.0
 11
-3919.331654222534
 21
3264.250197951859
 31
0.0
  0
LINE
  5
1E2
330
1F
100
AcDbEntity
  8
0-C_ハッチ
  6
Continuous
 62
   120
370
     5
100
AcDbLine
 10
-3840.684915236588
 20
3303.000197951859
 30
0.0
 11
-3882.534915236587
 21
3264.250197951859
 31
0.0
  0
LINE
  5
1E3
330
1F
100
AcDbEntity
  8
0-C_ハッチ
  6
Continuous
 62
   120
370
     5
100
AcDbLine
 10
-3803.888176250639
 20
3303.000197951859
 30
0.0
 11
-3845.738176250638
 21
3264.250197951859
 31
0.0
  0
LINE
  5
1E4
330
1F
100
AcDbEntity
  8
0-C_ハッチ
  6
Continuous
 62
   120
370
     5
100
AcDbLine
 10
-3736.999777716561
 20
3296.791791064991
 30
0.0
 11
-3772.144698278742
 21
3264.250197951859
 31
0.0
  0
LINE
  5
1E5
330
1F
100
AcDbEntity
  8
0-C_ハッチ
  6
Continuous
 62
   120
370
     5
100
AcDbLine
 10
-4153.612088138222
 20
3251.750197951859
 30
0.0
 11
-4188.750026805982
 21
3219.215069555784
 31
0.0
  0
LINE
  5
1E6
330
1F
100
AcDbEntity
  8
0-C_ハッチ
  6
Continuous
 62
   120
370
     5
100
AcDbLine
 10
-4201.250026805982
 20
3207.64099548171
 30
0.0
 11
-4240.000026805982
 21
3171.76136585208
 31
0.0
  0
LINE
  5
1E7
330
1F
100
AcDbEntity
  8
0-C_ハッチ
  6
Continuous
 62
   120
370
     5
100
AcDbLine
 10
-4080.018610166326
 20
3251.750197951859
 30
0.0
 11
-4188.750026805982
 21
3151.072960322547
 31
0.0
  0
LINE
  5
1E8
330
1F
100
AcDbEntity
  8
0-C_ハッチ
  6
Continuous
 62
   120
370
     5
100
AcDbLine
 10
-4201.250026805982
 20
3139.498886248472
 30
0.0
 11
-4240.000026805982
 21
3103.619256618842
 31
0.0
  0
LINE
  5
1E9
330
1F
100
AcDbEntity
  8
0-C_ハッチ
  6
Continuous
 62
   120
370
     5
100
AcDbLine
 10
-4201.250026805982
 20
2798.788340082284
 30
0.0
 11
-4240.000026805982
 21
2762.908710452654
 31
0.0
  0
LINE
  5
1EA
330
1F
100
AcDbEntity
  8
0-C_ハッチ
  6
Continuous
 62
   120
370
     5
100
AcDbLine
 10
-4201.250026805982
 20
2764.717285465665
 30
0.0
 11
-4240.000026805982
 21
2728.837655836035
 31
0.0
  0
LINE
  5
1EB
330
1F
100
AcDbEntity
  8
0-C_ハッチ
  6
Continuous
 62
   120
370
     5
100
AcDbLine
 10
-4201.250026805982
 20
2730.646230849046
 30
0.0
 11
-4240.000026805982
 21
2694.766601219417
 31
0.0
  0
LINE
  5
1EC
330
1F
100
AcDbEntity
  8
0-C_ハッチ
  6
Continuous
 62
   120
370
     5
100
AcDbLine
 10
-4201.250026805982
 20
2696.575176232428
 30
0.0
 11
-4240.000026805982
 21
2660.695546602798
 31
0.0
  0
LINE
  5
1ED
330
1F
100
AcDbEntity
  8
0-C_ハッチ
  6
Continuous
 62
   120
370
     5
100
AcDbLine
 10
-4201.250026805982
 20
2662.504121615809
 30
0.0
 11
-4240.000026805982
 21
2626.624491986179
 31
0.0
  0
LINE
  5
1EE
330
1F
100
AcDbEntity
  8
0-C_ハッチ
  6
Continuous
 62
   120
370
     5
100
AcDbLine
 10
-4201.250026805982
 20
2628.43306699919
 30
0.0
 11
-4240.000026805982
 21
2592.55343736956
 31
0.0
  0
LINE
  5
1EF
330
1F
100
AcDbEntity
  8
0-C_ハッチ
  6
Continuous
 62
   120
370
     5
100
AcDbLine
 10
-4201.250026805982
 20
2594.362012382571
 30
0.0
 11
-4240.000026805982
 21
2558.482382752941
 31
0.0
  0
LINE
  5
1F0
330
1F
100
AcDbEntity
  8
0-C_ハッチ
  6
Continuous
 62
   120
370
     5
100
AcDbLine
 10
-4201.250026805982
 20
2560.290957765952
 30
0.0
 11
-4240.000026805982
 21
2524.411328136322
 31
0.0
  0
LINE
  5
1F1
330
1F
100
AcDbEntity
  8
0-C_ハッチ
  6
Continuous
 62
   120
370
     5
100
AcDbLine
 10
-4201.250026805982
 20
2526.219903149333
 30
0.0
 11
-4240.000026805982
 21
2490.340273519704
 31
0.0
  0
LINE
  5
1F2
330
1F
100
AcDbEntity
  8
0-C_ハッチ
  6
Continuous
 62
   120
370
     5
100
AcDbLine
 10
-4201.250026805982
 20
2492.148848532713
 30
0.0
 11
-4240.000026805982
 21
2456.269218903084
 31
0.0
  0
LINE
  5
1F3
330
1F
100
AcDbEntity
  8
0-C_ハッチ
  6
Continuous
 62
   120
370
     5
100
AcDbLine
 10
-4201.250026805982
 20
2458.077793916095
 30
0.0
 11
-4240.000026805982
 21
2422.198164286466
 31
0.0
  0
LINE
  5
1F4
330
1F
100
AcDbEntity
  8
0-C_ハッチ
  6
Continuous
 62
   120
370
     5
100
AcDbLine
 10
-4201.250026805982
 20
2355.864630066239
 30
0.0
 11
-4240.000026805982
 21
2319.985000436609
 31
0.0
  0
LINE
  5
1F5
330
1F
100
AcDbEntity
  8
0-C_ハッチ
  6
Continuous
 62
   120
370
     5
100
AcDbLine
 10
-4201.250026805982
 20
2287.722520833001
 30
0.0
 11
-4233.350117701948
 21
2258.000214447847
 31
0.0
  0
LINE
  5
1F6
330
1F
100
AcDbEntity
  8
0-C_ハッチ
  6
Continuous
 62
   120
370
     5
100
AcDbLine
 10
-4201.250026805982
 20
2424.006739299475
 30
0.0
 11
-4219.078374771088
 21
2407.499009702155
 31
0.0
  0
LINE
  5
1F7
330
1F
100
AcDbEntity
  8
0-C_ハッチ
  6
Continuous
 62
   120
370
     5
100
AcDbLine
 10
-4116.815349152273
 20
3251.750197951859
 30
0.0
 11
-4188.750026805982
 21
3185.144014939166
 31
0.0
  0
LINE
  5
1F8
330
1F
100
AcDbEntity
  8
0-C_ハッチ
  6
Continuous
 62
   120
370
     5
100
AcDbLine
 10
-4201.250026805982
 20
3173.569940865091
 30
0.0
 11
-4240.000026805982
 21
3137.690311235462
 31
0.0
  0
LINE
  5
1F9
330
1F
100
AcDbEntity
  8
0-C_ハッチ
  6
Continuous
 62
   120
370
     5
100
AcDbLine
 10
-4043.221871180378
 20
3251.750197951859
 30
0.0
 11
-4188.750026805982
 21
3117.001905705928
 31
0.0
  0
LINE
  5
1FA
330
1F
100
AcDbEntity
  8
0-C_ハッチ
  6
Continuous
 62
   120
370
     5
100
AcDbLine
 10
-4201.250026805982
 20
3105.427831631854
 30
0.0
 11
-4240.000026805982
 21
3069.548202002224
 31
0.0
  0
LINE
  5
1FB
330
1F
100
AcDbEntity
  8
0-C_ハッチ
  6
Continuous
 62
   120
370
     5
100
AcDbLine
 10
-4006.42513219443
 20
3251.750197951859
 30
0.0
 11
-4188.750026805982
 21
3082.93085108931
 31
0.0
  0
LINE
  5
1FC
330
1F
100
AcDbEntity
  8
0-C_ハッチ
  6
Continuous
 62
   120
370
     5
100
AcDbLine
 10
-4201.250026805982
 20
3071.356777015235
 30
0.0
 11
-4240.000026805982
 21
3035.477147385605
 31
0.0
  0
LINE
  5
1FD
330
1F
100
AcDbEntity
  8
0-C_ハッチ
  6
Continuous
 62
   120
370
     5
100
AcDbLine
 10
-3969.628393208482
 20
3251.750197951859
 30
0.0
 11
-4188.750026805982
 21
3048.859796472691
 31
0.0
  0
LINE
  5
1FE
330
1F
100
AcDbEntity
  8
0-C_ハッチ
  6
Continuous
 62
   120
370
     5
100
AcDbLine
 10
-4201.250026805982
 20
3037.285722398616
 30
0.0
 11
-4240.000026805982
 21
3001.406092768986
 31
0.0
  0
LINE
  5
1FF
330
1F
100
AcDbEntity
  8
0-C_ハッチ
  6
Continuous
 62
   120
370
     5
100
AcDbLine
 10
-3932.831654222534
 20
3251.750197951859
 30
0.0
 11
-4188.750026805982
 21
3014.788741856072
 31
0.0
  0
LINE
  5
200
330
1F
100
AcDbEntity
  8
0-C_ハッチ
  6
Continuous
 62
   120
370
     5
100
AcDbLine
 10
-4201.250026805982
 20
3003.214667781997
 30
0.0
 11
-4240.000026805982
 21
2967.335038152368
 31
0.0
  0
LINE
  5
201
330
1F
100
AcDbEntity
  8
0-C_ハッチ
  6
Continuous
 62
   120
370
     5
100
AcDbLine
 10
-3896.034915236587
 20
3251.750197951859
 30
0.0
 11
-4188.750026805982
 21
2980.717687239453
 31
0.0
  0
LINE
  5
202
330
1F
100
AcDbEntity
  8
0-C_ハッチ
  6
Continuous
 62
   120
370
     5
100
AcDbLine
 10
-4201.250026805982
 20
2969.143613165378
 30
0.0
 11
-4240.000026805982
 21
2933.263983535749
 31
0.0
  0
LINE
  5
203
330
1F
100
AcDbEntity
  8
0-C_ハッチ
  6
Continuous
 62
   120
370
     5
100
AcDbLine
 10
-3859.238176250638
 20
3251.750197951859
 30
0.0
 11
-4188.750026805982
 21
2946.646632622835
 31
0.0
  0
LINE
  5
204
330
1F
100
AcDbEntity
  8
0-C_ハッチ
  6
Continuous
 62
   120
370
     5
100
AcDbLine
 10
-4201.250026805982
 20
2935.07255854876
 30
0.0
 11
-4240.000026805982
 21
2899.19292891913
 31
0.0
  0
LINE
  5
205
330
1F
100
AcDbEntity
  8
0-C_ハッチ
  6
Continuous
 62
   120
370
     5
100
AcDbLine
 10
-3822.44143726469
 20
3251.750197951859
 30
0.0
 11
-4188.750026805982
 21
2912.575578006215
 31
0.0
  0
LINE
  5
206
330
1F
100
AcDbEntity
  8
0-C_ハッチ
  6
Continuous
 62
   120
370
     5
100
AcDbLine
 10
-4201.250026805982
 20
2901.001503932141
 30
0.0
 11
-4240.000026805982
 21
2865.121874302511
 31
0.0
  0
LINE
  5
207
330
1F
100
AcDbEntity
  8
0-C_ハッチ
  6
Continuous
 62
   120
370
     5
100
AcDbLine
 10
-3788.249839576516
 20
3249.33803008355
 30
0.0
 11
-4188.750026805982
 21
2878.504523389596
 31
0.0
  0
LINE
  5
208
330
1F
100
AcDbEntity
  8
0-C_ハッチ
  6
Continuous
 62
   120
370
     5
100
AcDbLine
 10
-4201.250026805982
 20
2866.930449315522
 30
0.0
 11
-4240.000026805982
 21
2831.050819685892
 31
0.0
  0
LINE
  5
209
330
1F
100
AcDbEntity
  8
0-C_ハッチ
  6
Continuous
 62
   120
370
     5
100
AcDbLine
 10
-4201.250026805982
 20
2832.859394698903
 30
0.0
 11
-4240.000026805982
 21
2796.979765069273
 31
0.0
  0
LINE
  5
20A
330
1F
100
AcDbEntity
  8
0-C_ハッチ
  6
Continuous
 62
   120
370
     5
100
AcDbLine
 10
-4201.250026805982
 20
2389.935684682857
 30
0.0
 11
-4240.000026805982
 21
2354.056055053228
 31
0.0
  0
LINE
  5
20B
330
1F
100
AcDbEntity
  8
0-C_ハッチ
  6
Continuous
 62
   120
370
     5
100
AcDbLine
 10
-4201.250026805982
 20
2321.79357544962
 30
0.0
 11
-4214.797123922906
 21
2309.249967008024
 31
0.0
  0
LINE
  5
20C
330
1F
100
AcDbEntity
  8
0-C_ハッチ
  6
Continuous
 62
   120
370
     5
100
AcDbLine
 10
-4228.297123922905
 20
2296.749967008025
 30
0.0
 11
-4240.000026805982
 21
2285.91394581999
 31
0.0
  0
LINE
  5
20D
330
1F
100
AcDbEntity
  8
0-C_ハッチ
  6
Continuous
 62
   120
370
     5
100
AcDbLine
 10
-4154.703645951009
 20
2296.749967008025
 30
0.0
 11
-4188.750026805982
 21
2265.225540290458
 31
0.0
  0
LINE
  5
20E
330
1F
100
AcDbEntity
  8
0-C_ハッチ
  6
Continuous
 62
   120
370
     5
100
AcDbLine
 10
-4117.90690696506
 20
2296.749967008025
 30
0.0
 11
-4159.756639730052
 21
2258.000214447847
 31
0.0
  0
LINE
  5
20F
330
1F
100
AcDbEntity
  8
0-C_ハッチ
  6
Continuous
 62
   120
370
     5
100
AcDbLine
 10
-4081.110167979113
 20
2296.749967008025
 30
0.0
 11
-4122.959900744105
 21
2258.000214447847
 31
0.0
  0
LINE
  5
210
330
1F
100
AcDbEntity
  8
0-C_ハッチ
  6
Continuous
 62
   120
370
     5
100
AcDbLine
 10
-4044.313428993165
 20
2296.749967008025
 30
0.0
 11
-4086.163161758156
 21
2258.000214447847
 31
0.0
  0
LINE
  5
211
330
1F
100
AcDbEntity
  8
0-C_ハッチ
  6
Continuous
 62
   120
370
     5
100
AcDbLine
 10
-4007.516690007218
 20
2296.749967008025
 30
0.0
 11
-4049.366422772209
 21
2258.000214447847
 31
0.0
  0
LINE
  5
212
330
1F
100
AcDbEntity
  8
0-C_ハッチ
  6
Continuous
 62
   120
370
     5
100
AcDbLine
 10
-3970.71995102127
 20
2296.749967008025
 30
0.0
 11
-4012.569683786262
 21
2258.000214447847
 31
0.0
  0
LINE
  5
213
330
1F
100
AcDbEntity
  8
0-C_ハッチ
  6
Continuous
 62
   120
370
     5
100
AcDbLine
 10
-3933.923212035322
 20
2296.749967008025
 30
0.0
 11
-3975.772944800314
 21
2258.000214447847
 31
0.0
  0
LINE
  5
214
330
1F
100
AcDbEntity
  8
0-C_ハッチ
  6
Continuous
 62
   120
370
     5
100
AcDbLine
 10
-3897.126473049374
 20
2296.749967008025
 30
0.0
 11
-3938.976205814366
 21
2258.000214447847
 31
0.0
  0
LINE
  5
215
330
1F
100
AcDbEntity
  8
0-C_ハッチ
  6
Continuous
 62
   120
370
     5
100
AcDbLine
 10
-3860.329734063426
 20
2296.749967008025
 30
0.0
 11
-3902.179466828417
 21
2258.000214447847
 31
0.0
  0
LINE
  5
216
330
1F
100
AcDbEntity
  8
0-C_ハッチ
  6
Continuous
 62
   120
370
     5
100
AcDbLine
 10
-3823.532995077478
 20
2296.749967008025
 30
0.0
 11
-3865.382727842469
 21
2258.000214447847
 31
0.0
  0
LINE
  5
217
330
1F
100
AcDbEntity
  8
0-C_ハッチ
  6
Continuous
 62
   120
370
     5
100
AcDbLine
 10
-3736.999777716561
 20
2342.802261799663
 30
0.0
 11
-3773.23625609153
 21
2309.249967008024
 31
0.0
  0
LINE
  5
218
330
1F
100
AcDbEntity
  8
0-C_ハッチ
  6
Continuous
 62
   120
370
     5
100
AcDbLine
 10
-3749.939517105582
 20
2296.749967008025
 30
0.0
 11
-3775.749839576516
 21
2272.851520275678
 31
0.0
  0
LINE
  5
219
330
1F
100
AcDbEntity
  8
0-C_ハッチ
  6
Continuous
 62
   120
370
     5
100
AcDbLine
 10
-3788.249839576516
 20
2261.277446201604
 30
0.0
 11
-3791.789249870573
 21
2258.000214447847
 31
0.0
  0
LINE
  5
21A
330
1F
100
AcDbEntity
  8
0-C_ハッチ
  6
Continuous
 62
   120
370
     5
100
AcDbLine
 10
-3767.091437264691
 20
3303.000197951859
 30
0.0
 11
-3775.749839576516
 21
3294.983158774243
 31
0.0
  0
LINE
  5
21B
330
1F
100
AcDbEntity
  8
0-C_ハッチ
  6
Continuous
 62
   120
370
     5
100
AcDbLine
 10
-3788.249839576516
 20
3283.409084700169
 30
0.0
 11
-3808.94143726469
 21
3264.250197951859
 31
0.0
  0
LINE
  5
21C
330
1F
100
AcDbEntity
  8
0-C_ハッチ
  6
Continuous
 62
   120
370
     5
100
AcDbLine
 10
-3736.999777716561
 20
2376.873316416282
 30
0.0
 11
-3775.749839576516
 21
2340.993629508916
 31
0.0
  0
LINE
  5
21D
330
1F
100
AcDbEntity
  8
0-C_ハッチ
  6
Continuous
 62
   120
370
     5
100
AcDbLine
 10
-3788.249839576516
 20
2329.419555434842
 30
0.0
 11
-3810.032995077478
 21
2309.249967008024
 31
0.0
  0
LINE
  5
21E
330
1F
100
AcDbEntity
  8
0-C_ハッチ
  6
Continuous
 62
   120
370
     5
100
AcDbLine
 10
-3736.999777716561
 20
2819.797026432327
 30
0.0
 11
-3775.749839576516
 21
2783.91733952496
 31
0.0
  0
LINE
  5
21F
330
1F
100
AcDbEntity
  8
0-C_ハッチ
  6
Continuous
 62
   120
370
     5
100
AcDbLine
 10
-3788.249839576516
 20
2772.343265450886
 30
0.0
 11
-4182.854470609453
 21
2406.968607087053
 31
0.0
  0
LINE
  5
220
330
1F
100
AcDbEntity
  8
0-C_ハッチ
  6
Continuous
 62
   120
370
     5
100
AcDbLine
 10
-3736.999777716561
 20
3228.649681831753
 30
0.0
 11
-3775.749839576516
 21
3192.769994924387
 31
0.0
  0
LINE
  5
221
330
1F
100
AcDbEntity
  8
0-C_ハッチ
  6
Continuous
 62
   120
370
     5
100
AcDbLine
 10
-3788.249839576516
 20
3181.195920850312
 30
0.0
 11
-4188.750026805982
 21
2810.362414156359
 31
0.0
  0
LINE
  5
222
330
1F
100
AcDbEntity
  8
0-C_ハッチ
  6
Continuous
 62
   120
370
     5
100
AcDbLine
 10
-3736.999777716561
 20
3194.578627215134
 30
0.0
 11
-3775.749839576516
 21
3158.698940307768
 31
0.0
  0
LINE
  5
223
330
1F
100
AcDbEntity
  8
0-C_ハッチ
  6
Continuous
 62
   120
370
     5
100
AcDbLine
 10
-3788.249839576516
 20
3147.124866233693
 30
0.0
 11
-4188.750026805982
 21
2776.291359539739
 31
0.0
  0
LINE
  5
224
330
1F
100
AcDbEntity
  8
0-C_ハッチ
  6
Continuous
 62
   120
370
     5
100
AcDbLine
 10
-3736.999777716561
 20
3160.507572598515
 30
0.0
 11
-3775.749839576516
 21
3124.627885691149
 31
0.0
  0
LINE
  5
225
330
1F
100
AcDbEntity
  8
0-C_ハッチ
  6
Continuous
 62
   120
370
     5
100
AcDbLine
 10
-3788.249839576516
 20
3113.053811617075
 30
0.0
 11
-4188.750026805982
 21
2742.220304923121
 31
0.0
  0
LINE
  5
226
330
1F
100
AcDbEntity
  8
0-C_ハッチ
  6
Continuous
 62
   120
370
     5
100
AcDbLine
 10
-3736.999777716561
 20
3126.436517981896
 30
0.0
 11
-3775.749839576516
 21
3090.55683107453
 31
0.0
  0
LINE
  5
227
330
1F
100
AcDbEntity
  8
0-C_ハッチ
  6
Continuous
 62
   120
370
     5
100
AcDbLine
 10
-3788.249839576516
 20
3078.982757000456
 30
0.0
 11
-4188.750026805982
 21
2708.149250306502
 31
0.0
  0
LINE
  5
228
330
1F
100
AcDbEntity
  8
0-C_ハッチ
  6
Continuous
 62
   120
370
     5
100
AcDbLine
 10
-3736.999777716561
 20
3092.365463365278
 30
0.0
 11
-3775.749839576516
 21
3056.485776457911
 31
0.0
  0
LINE
  5
229
330
1F
100
AcDbEntity
  8
0-C_ハッチ
  6
Continuous
 62
   120
370
     5
100
AcDbLine
 10
-3788.249839576516
 20
3044.911702383837
 30
0.0
 11
-4188.750026805982
 21
2674.078195689884
 31
0.0
  0
LINE
  5
22A
330
1F
100
AcDbEntity
  8
0-C_ハッチ
  6
Continuous
 62
   120
370
     5
100
AcDbLine
 10
-3736.999777716561
 20
3058.294408748658
 30
0.0
 11
-3775.749839576516
 21
3022.414721841292
 31
0.0
  0
LINE
  5
22B
330
1F
100
AcDbEntity
  8
0-C_ハッチ
  6
Continuous
 62
   120
370
     5
100
AcDbLine
 10
-3788.249839576516
 20
3010.840647767217
 30
0.0
 11
-4188.750026805982
 21
2640.007141073264
 31
0.0
  0
LINE
  5
22C
330
1F
100
AcDbEntity
  8
0-C_ハッチ
  6
Continuous
 62
   120
370
     5
100
AcDbLine
 10
-3736.999777716561
 20
3024.22335413204
 30
0.0
 11
-3775.749839576516
 21
2988.343667224673
 31
0.0
  0
LINE
  5
22D
330
1F
100
AcDbEntity
  8
0-C_ハッチ
  6
Continuous
 62
   120
370
     5
100
AcDbLine
 10
-3788.249839576516
 20
2976.769593150599
 30
0.0
 11
-4188.750026805982
 21
2605.936086456646
 31
0.0
  0
LINE
  5
22E
330
1F
100
AcDbEntity
  8
0-C_ハッチ
  6
Continuous
 62
   120
370
     5
100
AcDbLine
 10
-3736.999777716561
 20
2990.152299515421
 30
0.0
 11
-3775.749839576516
 21
2954.272612608054
 31
0.0
  0
LINE
  5
22F
330
1F
100
AcDbEntity
  8
0-C_ハッチ
  6
Continuous
 62
   120
370
     5
100
AcDbLine
 10
-3788.249839576516
 20
2942.69853853398
 30
0.0
 11
-4188.750026805982
 21
2571.865031840026
 31
0.0
  0
LINE
  5
230
330
1F
100
AcDbEntity
  8
0-C_ハッチ
  6
Continuous
 62
   120
370
     5
100
AcDbLine
 10
-3736.999777716561
 20
2956.081244898802
 30
0.0
 11
-3775.749839576516
 21
2920.201557991436
 31
0.0
  0
LINE
  5
231
330
1F
100
AcDbEntity
  8
0-C_ハッチ
  6
Continuous
 62
   120
370
     5
100
AcDbLine
 10
-3788.249839576516
 20
2908.627483917362
 30
0.0
 11
-4188.750026805982
 21
2537.793977223408
 31
0.0
  0
LINE
  5
232
330
1F
100
AcDbEntity
  8
0-C_ハッチ
  6
Continuous
 62
   120
370
     5
100
AcDbLine
 10
-3736.999777716561
 20
2922.010190282183
 30
0.0
 11
-3775.749839576516
 21
2886.130503374817
 31
0.0
  0
LINE
  5
233
330
1F
100
AcDbEntity
  8
0-C_ハッチ
  6
Continuous
 62
   120
370
     5
100
AcDbLine
 10
-3788.249839576516
 20
2874.556429300742
 30
0.0
 11
-4188.750026805982
 21
2503.722922606788
 31
0.0
  0
LINE
  5
234
330
1F
100
AcDbEntity
  8
0-C_ハッチ
  6
Continuous
 62
   120
370
     5
100
AcDbLine
 10
-3736.999777716561
 20
2887.939135665564
 30
0.0
 11
-3775.749839576516
 21
2852.059448758198
 31
0.0
  0
LINE
  5
235
330
1F
100
AcDbEntity
  8
0-C_ハッチ
  6
Continuous
 62
   120
370
     5
100
AcDbLine
 10
-3788.249839576516
 20
2840.485374684124
 30
0.0
 11
-4188.750026805982
 21
2469.65186799017
 31
0.0
  0
LINE
  5
236
330
1F
100
AcDbEntity
  8
0-C_ハッチ
  6
Continuous
 62
   120
370
     5
100
AcDbLine
 10
-3736.999777716561
 20
2785.725971815707
 30
0.0
 11
-3775.749839576516
 21
2749.846284908341
 31
0.0
  0
LINE
  5
237
330
1F
100
AcDbEntity
  8
0-C_ハッチ
  6
Continuous
 62
   120
370
     5
100
AcDbLine
 10
-3788.249839576516
 20
2738.272210834267
 30
0.0
 11
-4188.750026805982
 21
2367.438704140314
 31
0.0
  0
LINE
  5
238
330
1F
100
AcDbEntity
  8
0-C_ハッチ
  6
Continuous
 62
   120
370
     5
100
AcDbLine
 10
-3736.999777716561
 20
2751.654917199089
 30
0.0
 11
-3775.749839576516
 21
2715.775230291723
 31
0.0
  0
LINE
  5
239
330
1F
100
AcDbEntity
  8
0-C_ハッチ
  6
Continuous
 62
   120
370
     5
100
AcDbLine
 10
-3788.249839576516
 20
2704.201156217649
 30
0.0
 11
-4188.750026805982
 21
2333.367649523695
 31
0.0
  0
LINE
  5
23A
330
1F
100
AcDbEntity
  8
0-C_ハッチ
  6
Continuous
 62
   120
370
     5
100
AcDbLine
 10
-3736.999777716561
 20
2853.868081048945
 30
0.0
 11
-3775.749839576516
 21
2817.988394141579
 31
0.0
  0
LINE
  5
23B
330
1F
100
AcDbEntity
  8
0-C_ハッチ
  6
Continuous
 62
   120
370
     5
100
AcDbLine
 10
-3788.249839576516
 20
2806.414320067504
 30
0.0
 11
-4188.750026805982
 21
2435.58081337355
 31
0.0
  0
LINE
  5
23C
330
1F
100
AcDbEntity
  8
0-C_ハッチ
  6
Continuous
 62
   120
370
     5
100
AcDbLine
 10
-3748.847959292794
 20
3251.750197951859
 30
0.0
 11
-3775.749839576516
 21
3226.841049541005
 31
0.0
  0
LINE
  5
23D
330
1F
100
AcDbEntity
  8
0-C_ハッチ
  6
Continuous
 62
   120
370
     5
100
AcDbLine
 10
-3788.249839576516
 20
3215.266975466931
 30
0.0
 11
-4188.750026805982
 21
2844.433468772977
 31
0.0
  0
LINE
  5
23E
330
1F
100
AcDbEntity
  8
0-C_ハッチ
  6
Continuous
 62
   120
370
     5
100
AcDbLine
 10
-3736.999777716561
 20
2717.58386258247
 30
0.0
 11
-3775.749839576516
 21
2681.704175675104
 31
0.0
  0
LINE
  5
23F
330
1F
100
AcDbEntity
  8
0-C_ハッチ
  6
Continuous
 62
   120
370
     5
100
AcDbLine
 10
-3788.249839576516
 20
2670.130101601029
 30
0.0
 11
-4178.000384936957
 21
2309.249967008024
 31
0.0
  0
LINE
  5
240
330
1F
100
AcDbEntity
  8
0-C_ハッチ
  6
Continuous
 62
   120
370
     5
100
AcDbLine
 10
-3736.999777716561
 20
2683.512807965851
 30
0.0
 11
-3775.749839576516
 21
2647.633121058485
 31
0.0
  0
LINE
  5
241
330
1F
100
AcDbEntity
  8
0-C_ハッチ
  6
Continuous
 62
   120
370
     5
100
AcDbLine
 10
-3788.249839576516
 20
2636.059046984411
 30
0.0
 11
-4141.20364595101
 21
2309.249967008024
 31
0.0
  0
LINE
  5
242
330
1F
100
AcDbEntity
  8
0-C_ハッチ
  6
Continuous
 62
   120
370
     5
100
AcDbLine
 10
-3736.999777716561
 20
2649.441753349232
 30
0.0
 11
-3775.749839576516
 21
2613.562066441866
 31
0.0
  0
LINE
  5
243
330
1F
100
AcDbEntity
  8
0-C_ハッチ
  6
Continuous
 62
   120
370
     5
100
AcDbLine
 10
-3788.249839576516
 20
2601.987992367792
 30
0.0
 11
-4104.40690696506
 21
2309.249967008024
 31
0.0
  0
LINE
  5
244
330
1F
100
AcDbEntity
  8
0-C_ハッチ
  6
Continuous
 62
   120
370
     5
100
AcDbLine
 10
-3736.999777716561
 20
2615.370698732614
 30
0.0
 11
-3775.749839576516
 21
2579.491011825247
 31
0.0
  0
LINE
  5
245
330
1F
100
AcDbEntity
  8
0-C_ハッチ
  6
Continuous
 62
   120
370
     5
100
AcDbLine
 10
-3788.249839576516
 20
2567.916937751173
 30
0.0
 11
-4067.610167979114
 21
2309.249967008024
 31
0.0
  0
LINE
  5
246
330
1F
100
AcDbEntity
  8
0-C_ハッチ
  6
Continuous
 62
   120
370
     5
100
AcDbLine
 10
-3736.999777716561
 20
2581.299644115994
 30
0.0
 11
-3775.749839576516
 21
2545.419957208628
 31
0.0
  0
LINE
  5
247
330
1F
100
AcDbEntity
  8
0-C_ハッチ
  6
Continuous
 62
   120
370
     5
100
AcDbLine
 10
-3788.249839576516
 20
2533.845883134554
 30
0.0
 11
-4030.813428993165
 21
2309.249967008024
 31
0.0
  0
LINE
  5
248
330
1F
100
AcDbEntity
  8
0-C_ハッチ
  6
Continuous
 62
   120
370
     5
100
AcDbLine
 10
-3736.999777716561
 20
2547.228589499377
 30
0.0
 11
-3775.749839576516
 21
2511.34890259201
 31
0.0
  0
LINE
  5
249
330
1F
100
AcDbEntity
  8
0-C_ハッチ
  6
Continuous
 62
   120
370
     5
100
AcDbLine
 10
-3788.249839576516
 20
2499.774828517935
 30
0.0
 11
-3994.016690007218
 21
2309.249967008024
 31
0.0
  0
LINE
  5
24A
330
1F
100
AcDbEntity
  8
0-C_ハッチ
  6
Continuous
 62
   120
370
     5
100
AcDbLine
 10
-3736.999777716561
 20
2513.157534882757
 30
0.0
 11
-3775.749839576516
 21
2477.277847975391
 31
0.0
  0
LINE
  5
24B
330
1F
100
AcDbEntity
  8
0-C_ハッチ
  6
Continuous
 62
   120
370
     5
100
AcDbLine
 10
-3788.249839576516
 20
2465.703773901317
 30
0.0
 11
-3957.219951021271
 21
2309.249967008024
 31
0.0
  0
LINE
  5
24C
330
1F
100
AcDbEntity
  8
0-C_ハッチ
  6
Continuous
 62
   120
370
     5
100
AcDbLine
 10
-3736.999777716561
 20
2479.086480266139
 30
0.0
 11
-3775.749839576516
 21
2443.206793358772
 31
0.0
  0
LINE
  5
24D
330
1F
100
AcDbEntity
  8
0-C_ハッチ
  6
Continuous
 62
   120
370
     5
100
AcDbLine
 10
-3788.249839576516
 20
2431.632719284698
 30
0.0
 11
-3920.423212035323
 21
2309.249967008024
 31
0.0
  0
LINE
  5
24E
330
1F
100
AcDbEntity
  8
0-C_ハッチ
  6
Continuous
 62
   120
370
     5
100
AcDbLine
 10
-3736.999777716561
 20
2445.01542564952
 30
0.0
 11
-3775.749839576516
 21
2409.135738742154
 31
0.0
  0
LINE
  5
24F
330
1F
100
AcDbEntity
  8
0-C_ハッチ
  6
Continuous
 62
   120
370
     5
100
AcDbLine
 10
-3788.249839576516
 20
2397.561664668079
 30
0.0
 11
-3883.626473049374
 21
2309.249967008024
 31
0.0
  0
LINE
  5
250
330
1F
100
AcDbEntity
  8
0-C_ハッチ
  6
Continuous
 62
   120
370
     5
100
AcDbLine
 10
-3736.999777716561
 20
2410.944371032901
 30
0.0
 11
-3775.749839576516
 21
2375.064684125535
 31
0.0
  0
LINE
  5
251
330
1F
100
AcDbEntity
  8
0-C_ハッチ
  6
Continuous
 62
   120
370
     5
100
AcDbLine
 10
-3788.249839576516
 20
2363.49061005146
 30
0.0
 11
-3846.829734063426
 21
2309.249967008024
 31
0.0
  0
LINE
  5
252
330
1F
100
AcDbEntity
  8
0-C_ハッチ
  6
Continuous
 62
   120
370
     5
100
AcDbLine
 10
-3788.249839576516
 20
2295.348500818222
 30
0.0
 11
-3828.585988856521
 21
2258.000214447847
 31
0.0
  0
LINE
  5
253
330
1F
100
AcDbEntity
  8
0-2_扉
  6
Continuous
 62
     7
370
     9
100
AcDbLine
 10
-4240.000026805982
 20
1443.000247439824
 30
0.0
 11
-4240.000026805982
 21
2393.502226251151
 31
0.0
  0
LINE
  5
254
330
1F
100
AcDbEntity
  8
0-2_扉
  6
Continuous
 62
     7
370
     9
100
AcDbLine
 10
-4240.000026805982
 20
2407.498277034708
 30
0.0
 11
-4240.000026805982
 21
3438.000395903718
 31
0.0
  0
LINE
  5
255
330
1F
100
AcDbEntity
  8
F-0_補助線
  6
JWW_HOJO
 62
   200
370
    20
100
AcDbLine
 10
-5999.99998453501
 20
4064.999901024072
 30
0.0
 11
5689.998977248734
 21
4064.999901024072
 31
0.0
  0
LINE
  5
256
330
1F
100
AcDbEntity
  8
F-0_補助線
  6
JWW_HOJO
 62
   200
370
    20
100
AcDbLine
 10
-5999.99998453501
 20
84.49993236644843
 30
0.0
 11
5689.998977248734
 21
84.49993236644843
 31
0.0
  0
MTEXT
  5
257
330
1F
100
AcDbEntity
  8
0-B_寸法
  6
Continuous
 62
     7
370
   211
100
AcDbMText
 10
-4368.750018557987
 20
1071.683465608466
 30
0.0
 40
57.15
 41
37.5
 46
0.0
 71
     7
 72
     1
  1
{\fＭＳ ゴシック|b0|i0|c128|p49;4}
 73
     1
 44
1.0
  0
LINE
  5
258
330
1F
100
AcDbEntity
  8
0-4_枠
  6
Continuous
 62
    92
370
    13
100
AcDbLine
 10
-4766.000018557987
 20
1430.000148463894
 30
0.0
 11
-3625.000018557987
 21
1430.000148463894
 31
0.0
  0
ENDSEC
  0
SECTION
  2
OBJECTS
  0
DICTIONARY
  5
C
330
0
100
AcDbDictionary
281
     1
  3
ACAD_GROUP
350
D
  3
ACAD_LAYOUT
350
1A
  3
ACAD_MATERIAL
350
3B
  3
ACAD_MLEADERSTYLE
350
25A
  3
ACAD_MLINESTYLE
350
17
  3
ACAD_PLOTSETTINGS
350
19
  3
ACAD_PLOTSTYLENAME
350
E
  3
ACAD_TABLESTYLE
350
259
  3
ACAD_VISUALSTYLE
350
2A
  0
DICTIONARY
  5
D
102
{ACAD_REACTORS
330
C
102
}
330
C
100
AcDbDictionary
281
     1
  0
DICTIONARY
  5
1A
102
{ACAD_REACTORS
330
C
102
}
330
C
100
AcDbDictionary
281
     1
  3
Layout1
350
1E
  3
Layout2
350
26
  3
Model
350
22
  0
DICTIONARY
  5
3B
102
{ACAD_REACTORS
330
C
102
}
330
C
100
AcDbDictionary
281
     1
  3
ByBlock
350
3D
  3
ByLayer
350
3C
  3
Global
350
3E
  0
DICTIONARY
  5
25A
102
{ACAD_REACTORS
330
C
102
}
330
C
100
AcDbDictionary
281
     1
  0
DICTIONARY
  5
17
102
{ACAD_REACTORS
330
C
102
}
330
C
100
AcDbDictionary
281
     1
  3
Standard
350
18
  0
DICTIONARY
  5
19
102
{ACAD_REACTORS
330
C
102
}
330
C
100
AcDbDictionary
281
     1
  0
ACDBDICTIONARYWDFLT
  5
E
102
{ACAD_REACTORS
330
C
102
}
330
C
100
AcDbDictionary
281
     1
  3
Normal
350
F
100
AcDbDictionaryWithDefault
340
F
  0
DICTIONARY
  5
259
102
{ACAD_REACTORS
330
C
102
}
330
C
100
AcDbDictionary
281
     1
  0
DICTIONARY
  5
2A
102
{ACAD_REACTORS
330
C
102
}
330
C
100
AcDbDictionary
281
     1
  3
2dWireframe
350
2F
  3
3D Hidden
350
31
  3
3dWireframe
350
30
  3
Basic
350
32
  3
Brighten
350
36
  3
ColorChange
350
3A
  3
Conceptual
350
34
  3
Dim
350
35
  3
Facepattern
350
39
  3
Flat
350
2B
  3
FlatWithEdges
350
2C
  3
Gouraud
350
2D
  3
GouraudWithEdges
350
2E
  3
Linepattern
350
38
  3
Realistic
350
33
  3
Thicken
350
37
  0
LAYOUT
  5
1E
102
{ACAD_REACTORS
330
1A
102
}
330
1A
100
AcDbPlotSettings
  1

  2
none_device
  4

  6

 40
0.0
 41
0.0
 42
0.0
 43
0.0
 44
0.0
 45
0.0
 46
0.0
 47
0.0
 48
0.0
 49
0.0
140
0.0
141
0.0
142
1.0
143
1.0
 70
   688
 72
     0
 73
     0
 74
     5
  7

 75
    16
 76
     0
 77
     5
 78
   300
147
1.0
148
0.0
149
0.0
100
AcDbLayout
  1
Layout1
 70
     1
 71
     1
 10
0.0
 20
0.0
 11
420.0
 21
297.0
 12
0.0
 22
0.0
 32
0.0
 14
1.000000000000000E+20
 24
1.000000000000000E+20
 34
1.000000000000000E+20
 15
-1.000000000000000E+20
 25
-1.000000000000000E+20
 35
-1.000000000000000E+20
146
0.0
 13
0.0
 23
0.0
 33
0.0
 16
1.0
 26
0.0
 36
0.0
 17
0.0
 27
1.0
 37
0.0
 76
     0
330
1B
  0
LAYOUT
  5
26
102
{ACAD_REACTORS
330
1A
102
}
330
1A
100
AcDbPlotSettings
  1

  2
none_device
  4

  6

 40
0.0
 41
0.0
 42
0.0
 43
0.0
 44
0.0
 45
0.0
 46
0.0
 47
0.0
 48
0.0
 49
0.0
140
0.0
141
0.0
142
1.0
143
1.0
 70
   688
 72
     0
 73
     0
 74
     5
  7

 75
    16
 76
     0
 77
     5
 78
   300
147
1.0
148
0.0
149
0.0
100
AcDbLayout
  1
Layout2
 70
     1
 71
     2
 10
0.0
 20
0.0
 11
0.0
 21
0.0
 12
0.0
 22
0.0
 32
0.0
 14
0.0
 24
0.0
 34
0.0
 15
0.0
 25
0.0
 35
0.0
146
0.0
 13
0.0
 23
0.0
 33
0.0
 16
1.0
 26
0.0
 36
0.0
 17
0.0
 27
1.0
 37
0.0
 76
     0
330
23
  0
LAYOUT
  5
22
102
{ACAD_REACTORS
330
1A
102
}
330
1A
100
AcDbPlotSettings
  1

  2
none_device
  4

  6

 40
0.0
 41
0.0
 42
0.0
 43
0.0
 44
0.0
 45
0.0
 46
0.0
 47
0.0
 48
0.0
 49
0.0
140
0.0
141
0.0
142
1.0
143
1.0
 70
  1712
 72
     0
 73
     0
 74
     0
  7

 75
     0
 76
     0
 77
     5
 78
   300
147
1.0
148
0.0
149
0.0
100
AcDbLayout
  1
Model
 70
     1
 71
     0
 10
-6300.0
 20
-4455.0
 11
6300.0
 21
4455.0
 12
0.0
 22
0.0
 32
0.0
 14
-6300.0
 24
-4455.0
 34
0.0
 15
6300.0
 25
4455.0
 35
0.0
146
0.0
 13
0.0
 23
0.0
 33
0.0
 16
1.0
 26
0.0
 36
0.0
 17
0.0
 27
1.0
 37
0.0
 76
     0
330
1F
331
29
  0
MATERIAL
  5
3D
102
{ACAD_REACTORS
330
3B
102
}
330
3B
100
AcDbMaterial
  1
ByBlock
 72
     1
 94
      127
  0
MATERIAL
  5
3C
102
{ACAD_REACTORS
330
3B
102
}
330
3B
100
AcDbMaterial
  1
ByLayer
 72
     1
 94
      127
  0
MATERIAL
  5
3E
102
{ACAD_REACTORS
330
3B
102
}
330
3B
100
AcDbMaterial
  1
Global
 72
     1
 94
      127
  0
MLINESTYLE
  5
18
102
{ACAD_REACTORS
330
17
102
}
330
17
100
AcDbMlineStyle
  2
Standard
 70
     0
  3

 62
   256
 51
90.0
 52
90.0
 71
     2
 49
0.5
 62
   256
  6
BYLAYER
 49
-0.5
 62
   256
  6
BYLAYER
  0
ACDBPLACEHOLDER
  5
F
102
{ACAD_REACTORS
330
E
102
}
330
E
  0
VISUALSTYLE
  5
2F
102
{ACAD_REACTORS
330
2A
102
}
330
2A
100
AcDbVisualStyle
  2
2dWireframe
 70
     4
177
     2
291
     0
 71
     0
176
     1
 72
     2
176
     1
 73
     0
176
     1
 90
        0
176
     1
 40
-0.6
176
     1
 41
-30.0
176
     1
 62
     5
 63
     7
421
 16777215
176
     1
 74
     1
176
     1
 91
        4
176
     1
 64
     7
176
     1
 65
   257
176
     1
 75
     1
176
     1
175
     1
176
     1
 42
1.0
176
     1
 92
        0
176
     1
 66
   257
176
     1
 43
1.0
176
     1
 76
     1
176
     1
 77
     6
176
     1
 78
     2
176
     1
 67
     7
176
     1
 79
     5
176
     1
170
     0
176
     1
171
     0
176
     1
290
     0
176
     1
 93
        1
176
     1
 44
0.0
176
     1
173
     0
176
     1
  0
VISUALSTYLE
  5
31
102
{ACAD_REACTORS
330
2A
102
}
330
2A
100
AcDbVisualStyle
  2
3D Hidden
 70
     6
177
     2
291
     0
 71
     1
176
     1
 72
     2
176
     1
 73
     2
176
     1
 90
        0
176
     1
 40
-0.6
176
     1
 41
-30.0
176
     1
 62
     5
 63
     7
421
 16777215
176
     1
 74
     2
176
     1
 91
        2
176
     1
 64
     7
176
     1
 65
   257
176
     1
 75
     2
176
     1
175
     1
176
     1
 42
40.0
176
     1
 92
        0
176
     1
 66
   257
176
     1
 43
1.0
176
     1
 76
     1
176
     1
 77
     6
176
     1
 78
     2
176
     1
 67
     7
176
     1
 79
     3
176
     1
170
     0
176
     1
171
     0
176
     1
290
     0
176
     1
 93
        1
176
     1
 44
0.0
176
     1
173
     0
176
     1
  0
VISUALSTYLE
  5
30
102
{ACAD_REACTORS
330
2A
102
}
330
2A
100
AcDbVisualStyle
  2
3dWireframe
 70
     5
177
     2
291
     0
 71
     0
176
     1
 72
     2
176
     1
 73
     0
176
     1
 90
        0
176
     1
 40
-0.6
176
     1
 41
-30.0
176
     1
 62
     5
 63
     7
421
 16777215
176
     1
 74
     1
176
     1
 91
        4
176
     1
 64
     7
176
     1
 65
   257
176
     1
 75
     1
176
     1
175
     1
176
     1
 42
1.0
176
     1
 92
        0
176
     1
 66
   257
176
     1
 43
1.0
176
     1
 76
     1
176
     1
 77
     6
176
     1
 78
     2
176
     1
 67
     7
176
     1
 79
     5
176
     1
170
     0
176
     1
171
     0
176
     1
290
     0
176
     1
 93
        1
176
     1
 44
0.0
176
     1
173
     0
176
     1
  0
VISUALSTYLE
  5
32
102
{ACAD_REACTORS
330
2A
102
}
330
2A
100
AcDbVisualStyle
  2
Basic
 70
     7
177
     2
291
     1
 71
     1
176
     1
 72
     0
176
     1
 73
     1
176
     1
 90
        0
176
     1
 40
-0.6
176
     1
 41
-30.0
176
     1
 62
     5
 63
     7
421
 16777215
176
     1
 74
     0
176
     1
 91
        4
176
     1
 64
     7
176
     1
 65
   257
176
     1
 75
     1
176
     1
175
     1
176
     1
 42
1.0
176
     1
 92
        8
176
     1
 66
     7
176
     1
 43
1.0
176
     1
 76
     1
176
     1
 77
     6
176
     1
 78
     2
176
     1
 67
     7
176
     1
 79
     5
176
     1
170
     0
176
     1
171
     0
176
     1
290
     0
176
     1
 93
        1
176
     1
 44
0.0
176
     1
173
     0
176
     1
  0
VISUALSTYLE
  5
36
102
{ACAD_REACTORS
330
2A
102
}
330
2A
100
AcDbVisualStyle
  2
Brighten
 70
    12
177
     2
291
     1
 71
     2
176
     1
 72
     2
176
     1
 73
     0
176
     1
 90
        0
176
     1
 40
-0.6
176
     1
 41
-30.0
176
     1
 62
     5
 63
     7
421
 16777215
176
     1
 74
     1
176
     1
 91
        4
176
     1
 64
     7
176
     1
 65
   257
176
     1
 75
     1
176
     1
175
     1
176
     1
 42
1.0
176
     1
 92
        8
176
     1
 66
     7
176
     1
 43
1.0
176
     1
 76
     1
176
     1
 77
     6
176
     1
 78
     2
176
     1
 67
     7
176
     1
 79
     5
176
     1
170
     0
176
     1
171
     0
176
     1
290
     0
176
     1
 93
        1
176
     1
 44
50.0
176
     1
173
     0
176
     1
  0
VISUALSTYLE
  5
3A
102
{ACAD_REACTORS
330
2A
102
}
330
2A
100
AcDbVisualStyle
  2
ColorChange
 70
    16
177
     2
291
     1
 71
     2
176
     1
 72
     2
176
     1
 73
     3
176
     1
 90
        0
176
     1
 40
-0.6
176
     1
 41
-30.0
176
     1
 62
     5
 63
     8
421
  8421504
176
     1
 74
     1
176
     1
 91
        4
176
     1
 64
     7
176
     1
 65
   257
176
     1
 75
     1
176
     1
175
     1
176
     1
 42
1.0
176
     1
 92
        8
176
     1
 66
     8
424
  8421504
176
     1
 43
1.0
176
     1
 76
     1
176
     1
 77
     6
176
     1
 78
     2
176
     1
 67
     7
176
     1
 79
     5
176
     1
170
     0
176
     1
171
     0
176
     1
290
     0
176
     1
 93
        1
176
     1
 44
0.0
176
     1
173
     0
176
     1
  0
VISUALSTYLE
  5
34
102
{ACAD_REACTORS
330
2A
102
}
330
2A
100
AcDbVisualStyle
  2
Conceptual
 70
     9
177
     2
291
     0
 71
     3
176
     1
 72
     2
176
     1
 73
     0
176
     1
 90
        0
176
     1
 40
-0.6
176
     1
 41
-30.0
176
     1
 62
     5
 63
     7
421
 16777215
176
     1
 74
     2
176
     1
 91
        2
176
     1
 64
     7
176
     1
 65
   257
176
     1
 75
     1
176
     1
175
     1
176
     1
 42
40.0
176
     1
 92
        8
176
     1
 66
     7
176
     1
 43
1.0
176
     1
 76
     1
176
     1
 77
     6
176
     1
 78
     2
176
     1
 67
     7
176
     1
 79
     3
176
     1
170
     0
176
     1
171
     0
176
     1
290
     0
176
     1
 93
        1
176
     1
 44
0.0
176
     1
173
     0
176
     1
  0
VISUALSTYLE
  5
35
102
{ACAD_REACTORS
330
2A
102
}
330
2A
100
AcDbVisualStyle
  2
Dim
 70
    11
177
     2
291
     1
 71
     2
176
     1
 72
     2
176
     1
 73
     0
176
     1
 90
        0
176
     1
 40
-0.6
176
     1
 41
-30.0
176
     1
 62
     5
 63
     7
421
 16777215
176
     1
 74
     1
176
     1
 91
        4
176
     1
 64
     7
176
     1
 65
   257
176
     1
 75
     1
176
     1
175
     1
176
     1
 42
1.0
176
     1
 92
        8
176
     1
 66
     7
176
     1
 43
1.0
176
     1
 76
     1
176
     1
 77
     6
176
     1
 78
     2
176
     1
 67
     7
176
     1
 79
     5
176
     1
170
     0
176
     1
171
     0
176
     1
290
     0
176
     1
 93
        1
176
     1
 44
-50.0
176
     1
173
     0
176
     1
  0
VISUALSTYLE
  5
39
102
{ACAD_REACTORS
330
2A
102
}
330
2A
100
AcDbVisualStyle
  2
Facepattern
 70
    15
177
     2
291
     1
 71
     2
176
     1
 72
     2
176
     1
 73
     0
176
     1
 90
        0
176
     1
 40
-0.6
176
     1
 41
-30.0
176
     1
 62
     5
 63
     7
421
 16777215
176
     1
 74
     1
176
     1
 91
        4
176
     1
 64
     7
176
     1
 65
   257
176
     1
 75
     1
176
     1
175
     1
176
     1
 42
1.0
176
     1
 92
        8
176
     1
 66
     7
176
     1
 43
1.0
176
     1
 76
     1
176
     1
 77
     6
176
     1
 78
     2
176
     1
 67
     7
176
     1
 79
     5
176
     1
170
     0
176
     1
171
     0
176
     1
290
     0
176
     1
 93
        1
176
     1
 44
0.0
176
     1
173
     0
176
     1
  0
VISUALSTYLE
  5
2B
102
{ACAD_REACTORS
330
2A
102
}
330
2A
100
AcDbVisualStyle
  2
Flat
 70
     0
177
     2
291
     1
 71
     2
176
     1
 72
     1
176
     1
 73
     1
176
     1
 90
        2
176
     1
 40
-0.6
176
     1
 41
30.0
176
     1
 62
     5
 63
     7
421
 16777215
176
     1
 74
     0
176
     1
 91
        4
176
     1
 64
     7
176
     1
 65
   257
176
     1
 75
     1
176
     1
175
     1
176
     1
 42
1.0
176
     1
 92
        8
176
     1
 66
     7
176
     1
 43
1.0
176
     1
 76
     1
176
     1
 77
     6
176
     1
 78
     2
176
     1
 67
     7
176
     1
 79
     5
176
     1
170
     0
176
     1
171
     0
176
     1
290
     0
176
     1
 93
       13
176
     1
 44
0.0
176
     1
173
     0
176
     1
  0
VISUALSTYLE
  5
2C
102
{ACAD_REACTORS
330
2A
102
}
330
2A
100
AcDbVisualStyle
  2
FlatWithEdges
 70
     1
177
     2
291
     1
 71
     2
176
     1
 72
     1
176
     1
 73
     1
176
     1
 90
        2
176
     1
 40
-0.6
176
     1
 41
30.0
176
     1
 62
     5
 63
     7
421
 16777215
176
     1
 74
     1
176
     1
 91
        4
176
     1
 64
     7
176
     1
 65
   257
176
     1
 75
     1
176
     1
175
     1
176
     1
 42
1.0
176
     1
 92
        0
176
     1
 66
   257
176
     1
 43
1.0
176
     1
 76
     1
176
     1
 77
     6
176
     1
 78
     2
176
     1
 67
     7
176
     1
 79
     5
176
     1
170
     0
176
     1
171
     0
176
     1
290
     0
176
     1
 93
       13
176
     1
 44
0.0
176
     1
173
     0
176
     1
  0
VISUALSTYLE
  5
2D
102
{ACAD_REACTORS
330
2A
102
}
330
2A
100
AcDbVisualStyle
  2
Gouraud
 70
     2
177
     2
291
     1
 71
     2
176
     1
 72
     2
176
     1
 73
     1
176
     1
 90
        2
176
     1
 40
-0.6
176
     1
 41
30.0
176
     1
 62
     5
 63
     7
421
 16777215
176
     1
 74
     0
176
     1
 91
        4
176
     1
 64
     7
176
     1
 65
   257
176
     1
 75
     1
176
     1
175
     1
176
     1
 42
1.0
176
     1
 92
        0
176
     1
 66
     7
176
     1
 43
1.0
176
     1
 76
     1
176
     1
 77
     6
176
     1
 78
     2
176
     1
 67
     7
176
     1
 79
     5
176
     1
170
     0
176
     1
171
     0
176
     1
290
     0
176
     1
 93
       13
176
     1
 44
0.0
176
     1
173
     0
176
     1
  0
VISUALSTYLE
  5
2E
102
{ACAD_REACTORS
330
2A
102
}
330
2A
100
AcDbVisualStyle
  2
GouraudWithEdges
 70
     3
177
     2
291
     1
 71
     2
176
     1
 72
     2
176
     1
 73
     1
176
     1
 90
        2
176
     1
 40
-0.6
176
     1
 41
30.0
176
     1
 62
     5
 63
     7
421
 16777215
176
     1
 74
     1
176
     1
 91
        4
176
     1
 64
     7
176
     1
 65
   257
176
     1
 75
     1
176
     1
175
     1
176
     1
 42
1.0
176
     1
 92
        0
176
     1
 66
   257
176
     1
 43
1.0
176
     1
 76
     1
176
     1
 77
     6
176
     1
 78
     2
176
     1
 67
     7
176
     1
 79
     5
176
     1
170
     0
176
     1
171
     0
176
     1
290
     0
176
     1
 93
       13
176
     1
 44
0.0
176
     1
173
     0
176
     1
  0
VISUALSTYLE
  5
38
102
{ACAD_REACTORS
330
2A
102
}
330
2A
100
AcDbVisualStyle
  2
Linepattern
 70
    14
177
     2
291
     1
 71
     2
176
     1
 72
     2
176
     1
 73
     0
176
     1
 90
        0
176
     1
 40
-0.6
176
     1
 41
-30.0
176
     1
 62
     5
 63
     7
421
 16777215
176
     1
 74
     1
176
     1
 91
        4
176
     1
 64
     7
176
     1
 65
   257
176
     1
 75
     7
176
     1
175
     7
176
     1
 42
1.0
176
     1
 92
        8
176
     1
 66
     7
176
     1
 43
1.0
176
     1
 76
     1
176
     1
 77
     6
176
     1
 78
     2
176
     1
 67
     7
176
     1
 79
     5
176
     1
170
     0
176
     1
171
     0
176
     1
290
     0
176
     1
 93
        1
176
     1
 44
0.0
176
     1
173
     0
176
     1
  0
VISUALSTYLE
  5
33
102
{ACAD_REACTORS
330
2A
102
}
330
2A
100
AcDbVisualStyle
  2
Realistic
 70
     8
177
     2
291
     0
 71
     2
176
     1
 72
     2
176
     1
 73
     0
176
     1
 90
        0
176
     1
 40
-0.6
176
     1
 41
-30.0
176
     1
 62
     5
 63
     7
421
 16777215
176
     1
 74
     1
176
     1
 91
        0
176
     1
 64
     7
176
     1
 65
   257
176
     1
 75
     1
176
     1
175
     1
176
     1
 42
1.0
176
     1
 92
        8
176
     1
 66
     8
424
  7895160
176
     1
 43
1.0
176
     1
 76
     1
176
     1
 77
     6
176
     1
 78
     2
176
     1
 67
     7
176
     1
 79
     5
176
     1
170
     0
176
     1
171
     0
176
     1
290
     0
176
     1
 93
       13
176
     1
 44
0.0
176
     1
173
     0
176
     1
  0
VISUALSTYLE
  5
37
102
{ACAD_REACTORS
330
2A
102
}
330
2A
100
AcDbVisualStyle
  2
Thicken
 70
    13
177
     2
291
     1
 71
     2
176
     1
 72
     2
176
     1
 73
     0
176
     1
 90
        0
176
     1
 40
-0.6
176
     1
 41
-30.0
176
     1
 62
     5
 63
     7
421
 16777215
176
     1
 74
     1
176
     1
 91
        4
176
     1
 64
     7
176
     1
 65
   257
176
     1
 75
     1
176
     1
175
     1
176
     1
 42
1.0
176
     1
 92
       12
176
     1
 66
     7
176
     1
 43
1.0
176
     1
 76
     1
176
     1
 77
     6
176
     1
 78
     2
176
     1
 67
     7
176
     1
 79
     5
176
     1
170
     0
176
     1
171
     0
176
     1
290
     0
176
     1
 93
        1
176
     1
 44
0.0
176
     1
173
     0
176
     1
  0
ENDSEC
  0
EOF
