  0
SECTION
  2
HEADER
  9
$ACADVER
  1
AC1024
  9
$ACADMAINTVER
 70
     6
  9
$DWGCODEPAGE
  3
ANSI_932
  9
$INSBASE
 10
0.0
 20
0.0
 30
0.0
  9
$EXTMIN
 10
-6300.0
 20
-4455.0
 30
0.0
  9
$EXTMAX
 10
6300.0
 20
4455.0
 30
0.0
  9
$LIMMIN
 10
-6300.0
 20
-4455.0
  9
$LIMMAX
 10
6300.0
 20
4455.0
  9
$ORTHOMODE
 70
     0
  9
$REGENMODE
 70
     1
  9
$FILLMODE
 70
     1
  9
$QTEXTMODE
 70
     0
  9
$MIRRTEXT
 70
     1
  9
$LTSCALE
 40
30.0
  9
$ATTMODE
 70
     1
  9
$TEXTSIZE
 40
2.5
  9
$TRACEWID
 40
1.0
  9
$TEXTSTYLE
  7
Standard
  9
$CLAYER
  8
0
  9
$CELTYPE
  6
ByLayer
  9
$CECOLOR
 62
   256
  9
$CELTSCALE
 40
1.0
  9
$DISPSILH
 70
     0
  9
$DIMSCALE
 40
1.0
  9
$DIMASZ
 40
2.5
  9
$DIMEXO
 40
0.625
  9
$DIMDLI
 40
3.75
  9
$DIMRND
 40
0.0
  9
$DIMDLE
 40
0.0
  9
$DIMEXE
 40
1.25
  9
$DIMTP
 40
0.0
  9
$DIMTM
 40
0.0
  9
$DIMTXT
 40
2.5
  9
$DIMCEN
 40
2.5
  9
$DIMTSZ
 40
0.0
  9
$DIMTOL
 70
     0
  9
$DIMLIM
 70
     0
  9
$DIMTIH
 70
     0
  9
$DIMTOH
 70
     0
  9
$DIMSE1
 70
     0
  9
$DIMSE2
 70
     0
  9
$DIMTAD
 70
     1
  9
$DIMZIN
 70
     8
  9
$DIMBLK
  1

  9
$DIMASO
 70
     1
  9
$DIMSHO
 70
     1
  9
$DIMPOST
  1

  9
$DIMAPOST
  1

  9
$DIMALT
 70
     0
  9
$DIMALTD
 70
     3
  9
$DIMALTF
 40
0.03937007874016
  9
$DIMLFAC
 40
1.0
  9
$DIMTOFL
 70
     1
  9
$DIMTVP
 40
0.0
  9
$DIMTIX
 70
     0
  9
$DIMSOXD
 70
     0
  9
$DIMSAH
 70
     0
  9
$DIMBLK1
  1

  9
$DIMBLK2
  1

  9
$DIMSTYLE
  2
ISO-25
  9
$DIMCLRD
 70
     0
  9
$DIMCLRE
 70
     0
  9
$DIMCLRT
 70
     0
  9
$DIMTFAC
 40
1.0
  9
$DIMGAP
 40
0.625
  9
$DIMJUST
 70
     0
  9
$DIMSD1
 70
     0
  9
$DIMSD2
 70
     0
  9
$DIMTOLJ
 70
     0
  9
$DIMTZIN
 70
     8
  9
$DIMALTZ
 70
     0
  9
$DIMALTTZ
 70
     0
  9
$DIMUPT
 70
     0
  9
$DIMDEC
 70
     2
  9
$DIMTDEC
 70
     2
  9
$DIMALTU
 70
     2
  9
$DIMALTTD
 70
     3
  9
$DIMTXSTY
  7
Standard
  9
$DIMAUNIT
 70
     0
  9
$DIMADEC
 70
     0
  9
$DIMALTRND
 40
0.0
  9
$DIMAZIN
 70
     0
  9
$DIMDSEP
 70
    44
  9
$DIMATFIT
 70
     3
  9
$DIMFRAC
 70
     0
  9
$DIMLDRBLK
  1

  9
$DIMLUNIT
 70
     2
  9
$DIMLWD
 70
    -2
  9
$DIMLWE
 70
    -2
  9
$DIMTMOVE
 70
     0
  9
$DIMFXL
 40
1.0
  9
$DIMFXLON
 70
     0
  9
$DIMJOGANG
 40
0.7853981633974483
  9
$DIMTFILL
 70
     0
  9
$DIMTFILLCLR
 70
     0
  9
$DIMARCSYM
 70
     0
  9
$DIMLTYPE
  6

  9
$DIMLTEX1
  6

  9
$DIMLTEX2
  6

  9
$DIMTXTDIRECTION
 70
     0
  9
$LUNITS
 70
     2
  9
$LUPREC
 70
     4
  9
$SKETCHINC
 40
1.0
  9
$FILLETRAD
 40
10.0
  9
$AUNITS
 70
     0
  9
$AUPREC
 70
     0
  9
$MENU
  1
.
  9
$ELEVATION
 40
0.0
  9
$PELEVATION
 40
0.0
  9
$THICKNESS
 40
0.0
  9
$LIMCHECK
 70
     0
  9
$CHAMFERA
 40
10.0
  9
$CHAMFERB
 40
10.0
  9
$CHAMFERC
 40
20.0
  9
$CHAMFERD
 40
0.0
  9
$SKPOLY
 70
     0
  9
$TDCREATE
 40
2459380.632575648
  9
$TDUCREATE
 40
2459380.257575648
  9
$TDUPDATE
 40
2459380.63257566
  9
$TDUUPDATE
 40
2459380.25757566
  9
$TDINDWG
 40
0.0000000116
  9
$TDUSRTIMER
 40
0.0000000116
  9
$USRTIMER
 70
     1
  9
$ANGBASE
 50
0.0
  9
$ANGDIR
 70
     0
  9
$PDMODE
 70
     0
  9
$PDSIZE
 40
0.0
  9
$PLINEWID
 40
0.0
  9
$SPLFRAME
 70
     0
  9
$SPLINETYPE
 70
     6
  9
$SPLINESEGS
 70
     8
  9
$HANDSEED
  5
58E
  9
$SURFTAB1
 70
     6
  9
$SURFTAB2
 70
     6
  9
$SURFTYPE
 70
     6
  9
$SURFU
 70
     6
  9
$SURFV
 70
     6
  9
$UCSBASE
  2

  9
$UCSNAME
  2

  9
$UCSORG
 10
0.0
 20
0.0
 30
0.0
  9
$UCSXDIR
 10
1.0
 20
0.0
 30
0.0
  9
$UCSYDIR
 10
0.0
 20
1.0
 30
0.0
  9
$UCSORTHOREF
  2

  9
$UCSORTHOVIEW
 70
     0
  9
$UCSORGTOP
 10
0.0
 20
0.0
 30
0.0
  9
$UCSORGBOTTOM
 10
0.0
 20
0.0
 30
0.0
  9
$UCSORGLEFT
 10
0.0
 20
0.0
 30
0.0
  9
$UCSORGRIGHT
 10
0.0
 20
0.0
 30
0.0
  9
$UCSORGFRONT
 10
0.0
 20
0.0
 30
0.0
  9
$UCSORGBACK
 10
0.0
 20
0.0
 30
0.0
  9
$PUCSBASE
  2

  9
$PUCSNAME
  2

  9
$PUCSORG
 10
0.0
 20
0.0
 30
0.0
  9
$PUCSXDIR
 10
1.0
 20
0.0
 30
0.0
  9
$PUCSYDIR
 10
0.0
 20
1.0
 30
0.0
  9
$PUCSORTHOREF
  2

  9
$PUCSORTHOVIEW
 70
     0
  9
$PUCSORGTOP
 10
0.0
 20
0.0
 30
0.0
  9
$PUCSORGBOTTOM
 10
0.0
 20
0.0
 30
0.0
  9
$PUCSORGLEFT
 10
0.0
 20
0.0
 30
0.0
  9
$PUCSORGRIGHT
 10
0.0
 20
0.0
 30
0.0
  9
$PUCSORGFRONT
 10
0.0
 20
0.0
 30
0.0
  9
$PUCSORGBACK
 10
0.0
 20
0.0
 30
0.0
  9
$USERI1
 70
     0
  9
$USERI2
 70
     0
  9
$USERI3
 70
     0
  9
$USERI4
 70
     0
  9
$USERI5
 70
     0
  9
$USERR1
 40
0.0
  9
$USERR2
 40
0.0
  9
$USERR3
 40
0.0
  9
$USERR4
 40
0.0
  9
$USERR5
 40
0.0
  9
$WORLDVIEW
 70
     1
  9
$SHADEDGE
 70
     3
  9
$SHADEDIF
 70
    70
  9
$TILEMODE
 70
     1
  9
$MAXACTVP
 70
    64
  9
$PINSBASE
 10
0.0
 20
0.0
 30
0.0
  9
$PLIMCHECK
 70
     0
  9
$PEXTMIN
 10
1.000000000000000E+20
 20
1.000000000000000E+20
 30
1.000000000000000E+20
  9
$PEXTMAX
 10
-1.000000000000000E+20
 20
-1.000000000000000E+20
 30
-1.000000000000000E+20
  9
$PLIMMIN
 10
0.0
 20
0.0
  9
$PLIMMAX
 10
420.0
 20
297.0
  9
$UNITMODE
 70
     0
  9
$VISRETAIN
 70
     1
  9
$PLINEGEN
 70
     0
  9
$PSLTSCALE
 70
     1
  9
$TREEDEPTH
 70
  3020
  9
$CMLSTYLE
  2
Standard
  9
$CMLJUST
 70
     0
  9
$CMLSCALE
 40
20.0
  9
$PROXYGRAPHICS
 70
     1
  9
$MEASUREMENT
 70
     1
  9
$CELWEIGHT
370
    -1
  9
$ENDCAPS
280
     0
  9
$JOINSTYLE
280
     0
  9
$LWDISPLAY
290
     0
  9
$INSUNITS
 70
     4
  9
$HYPERLINKBASE
  1

  9
$STYLESHEET
  1

  9
$XEDIT
290
     1
  9
$CEPSNTYPE
380
     0
  9
$PSTYLEMODE
290
     1
  9
$FINGERPRINTGUID
  2
{0C3DA3F2-03BD-4E01-889E-C430F4AC3E3D}
  9
$VERSIONGUID
  2
{FAEB1C32-E019-11D5-929B-00C0DF256EC4}
  9
$EXTNAMES
290
     1
  9
$PSVPSCALE
 40
0.0
  9
$OLESTARTUP
290
     0
  9
$SORTENTS
280
   127
  9
$INDEXCTL
280
     0
  9
$HIDETEXT
280
     1
  9
$XCLIPFRAME
280
     2
  9
$HALOGAP
280
     0
  9
$OBSCOLOR
 70
   257
  9
$OBSLTYPE
280
     0
  9
$INTERSECTIONDISPLAY
280
     0
  9
$INTERSECTIONCOLOR
 70
   257
  9
$DIMASSOC
280
     2
  9
$PROJECTNAME
  1

  9
$CAMERADISPLAY
290
     0
  9
$LENSLENGTH
 40
50.0
  9
$CAMERAHEIGHT
 40
0.0
  9
$STEPSPERSEC
 40
2.0
  9
$STEPSIZE
 40
6.0
  9
$3DDWFPREC
 40
2.0
  9
$PSOLWIDTH
 40
5.0
  9
$PSOLHEIGHT
 40
80.0
  9
$LOFTANG1
 40
1.570796326794897
  9
$LOFTANG2
 40
1.570796326794897
  9
$LOFTMAG1
 40
0.0
  9
$LOFTMAG2
 40
0.0
  9
$LOFTPARAM
 70
     7
  9
$LOFTNORMALS
280
     1
  9
$LATITUDE
 40
37.795
  9
$LONGITUDE
 40
-122.394
  9
$NORTHDIRECTION
 40
0.0
  9
$TIMEZONE
 70
 -8000
  9
$LIGHTGLYPHDISPLAY
280
     1
  9
$TILEMODELIGHTSYNCH
280
     1
  9
$SOLIDHIST
280
     1
  9
$SHOWHIST
280
     1
  9
$DWFFRAME
280
     2
  9
$DGNFRAME
280
     2
  9
$REALWORLDSCALE
290
     1
  9
$INTERFERECOLOR
 62
   256
  9
$CSHADOW
280
     0
  9
$SHADOWPLANELOCATION
 40
0.0
  0
ENDSEC
  0
SECTION
  2
CLASSES
  0
CLASS
  1
ACDBDICTIONARYWDFLT
  2
AcDbDictionaryWithDefault
  3
ObjectDBX Classes
 90
        0
 91
        4
280
     0
281
     0
  0
CLASS
  1
VISUALSTYLE
  2
AcDbVisualStyle
  3
ObjectDBX Classes
 90
     4095
 91
        4
280
     0
281
     0
  0
CLASS
  1
MATERIAL
  2
AcDbMaterial
  3
ObjectDBX Classes
 90
     1153
 91
        4
280
     0
281
     0
  0
ENDSEC
  0
SECTION
  2
TABLES
  0
TABLE
  2
VPORT
  5
8
330
0
100
AcDbSymbolTable
 70
     1
  0
VPORT
  5
29
330
8
100
AcDbSymbolTableRecord
100
AcDbViewportTableRecord
  2
*Active
 70
     0
 10
0.0
 20
0.0
 11
1.0
 21
1.0
 12
0.0
 22
0.0
 13
0.0
 23
0.0
 14
10.0
 24
10.0
 15
10.0
 25
10.0
 16
0.0
 26
0.0
 36
1.0
 17
0.0
 27
0.0
 37
0.0
 40
9801.0
 41
1.414141414141414
 42
50.0
 43
0.0
 44
0.0
 50
0.0
 51
0.0
 71
     0
 72
 10000
 73
     1
 74
     3
 75
     0
 76
     0
 77
     0
 78
     0
281
     0
 65
     1
110
0.0
120
0.0
130
0.0
111
1.0
121
0.0
131
0.0
112
0.0
122
1.0
132
0.0
 79
     0
146
0.0
 60
     3
 61
     5
292
     1
282
     1
141
0.0
142
0.0
 63
   250
  0
ENDTAB
  0
TABLE
  2
LTYPE
  5
5
330
0
100
AcDbSymbolTable
 70
     5
  0
LTYPE
  5
14
330
5
100
AcDbSymbolTableRecord
100
AcDbLinetypeTableRecord
  2
ByBlock
 70
     0
  3

 72
    65
 73
     0
 40
0.0
  0
LTYPE
  5
15
330
5
100
AcDbSymbolTableRecord
100
AcDbLinetypeTableRecord
  2
ByLayer
 70
     0
  3

 72
    65
 73
     0
 40
0.0
  0
LTYPE
  5
16
330
5
100
AcDbSymbolTableRecord
100
AcDbLinetypeTableRecord
  2
Continuous
 70
     0
  3
Solid line
 72
    65
 73
     0
 40
0.0
  0
LTYPE
  5
3F
330
5
100
AcDbSymbolTableRecord
100
AcDbLinetypeTableRecord
  2
JWW_HOJO
 70
     0
  3
  -   -   -   -   -   -   -   - 
 72
    65
 73
     2
 40
1.693333333333333
 49
-1.27
 74
     0
 49
0.4233333333333333
 74
     0
  0
LTYPE
  5
40
330
5
100
AcDbSymbolTableRecord
100
AcDbLinetypeTableRecord
  2
JWW_DASHED1
 70
     0
  3
-  --  --  --  --  --  --  --  -
 72
    65
 73
     2
 40
1.693333333333333
 49
0.8466666666666667
 74
     0
 49
-0.8466666666666667
 74
     0
  0
LTYPE
  5
41
330
5
100
AcDbSymbolTableRecord
100
AcDbLinetypeTableRecord
  2
JWW_CENTER2
 70
     0
  3
-------------  --  -------------
 72
    65
 73
     4
 40
13.54666666666667
 49
11.00666666666667
 74
     0
 49
-0.8466666666666667
 74
     0
 49
0.8466666666666667
 74
     0
 49
-0.8466666666666667
 74
     0
  0
LTYPE
  5
42
330
5
100
AcDbSymbolTableRecord
100
AcDbLinetypeTableRecord
  2
JWW_CENTER1
 70
     0
  3
-----  --  ----------  --  -----
 72
    65
 73
     4
 40
6.773333333333333
 49
4.233333333333333
 74
     0
 49
-0.8466666666666667
 74
     0
 49
0.8466666666666667
 74
     0
 49
-0.8466666666666667
 74
     0
  0
ENDTAB
  0
TABLE
  2
LAYER
  5
2
330
0
100
AcDbSymbolTable
 70
    12
  0
LAYER
  5
10
330
2
100
AcDbSymbolTableRecord
100
AcDbLayerTableRecord
  2
0
 70
     0
 62
     7
  6
Continuous
370
    -3
390
F
347
3E
  0
LAYER
  5
43
330
2
100
AcDbSymbolTableRecord
100
AcDbLayerTableRecord
  2
0-0_補助線
 70
     0
 62
     7
  6
Continuous
370
    -3
390
F
347
3E
  0
LAYER
  5
44
330
2
100
AcDbSymbolTableRecord
100
AcDbLayerTableRecord
  2
F-1_枠
 70
     0
 62
     7
  6
Continuous
370
    -3
390
F
347
3E
  0
LAYER
  5
45
330
2
100
AcDbSymbolTableRecord
100
AcDbLayerTableRecord
  2
F-0_補助線
 70
     0
 62
     7
  6
Continuous
370
    -3
390
F
347
3E
  0
LAYER
  5
46
330
2
100
AcDbSymbolTableRecord
100
AcDbLayerTableRecord
  2
0-2_扉
 70
     0
 62
     7
  6
Continuous
370
    -3
390
F
347
3E
  0
LAYER
  5
47
330
2
100
AcDbSymbolTableRecord
100
AcDbLayerTableRecord
  2
0-4_枠
 70
     0
 62
     7
  6
Continuous
370
    -3
390
F
347
3E
  0
LAYER
  5
48
330
2
100
AcDbSymbolTableRecord
100
AcDbLayerTableRecord
  2
0-B_寸法
 70
     0
 62
     7
  6
Continuous
370
    -3
390
F
347
3E
  0
LAYER
  5
49
330
2
100
AcDbSymbolTableRecord
100
AcDbLayerTableRecord
  2
F-A_文字
 70
     0
 62
     7
  6
Continuous
370
    -3
390
F
347
3E
  0
LAYER
  5
4A
330
2
100
AcDbSymbolTableRecord
100
AcDbLayerTableRecord
  2
0-A_文字
 70
     0
 62
     7
  6
Continuous
370
    -3
390
F
347
3E
  0
LAYER
  5
4B
330
2
100
AcDbSymbolTableRecord
100
AcDbLayerTableRecord
  2
0-C_ハッチ
 70
     0
 62
     7
  6
Continuous
370
    -3
390
F
347
3E
  0
LAYER
  5
4C
330
2
100
AcDbSymbolTableRecord
100
AcDbLayerTableRecord
  2
0-7
 70
     0
 62
     7
  6
Continuous
370
    -3
390
F
347
3E
  0
LAYER
  5
4D
330
2
100
AcDbSymbolTableRecord
100
AcDbLayerTableRecord
  2
レバー
 70
     0
 62
     7
  6
Continuous
370
    -3
390
F
347
3E
  0
ENDTAB
  0
TABLE
  2
STYLE
  5
3
330
0
100
AcDbSymbolTable
 70
     1
  0
STYLE
  5
11
330
3
100
AcDbSymbolTableRecord
100
AcDbTextStyleTableRecord
  2
Standard
 70
     0
 40
0.0
 41
1.0
 50
0.0
 71
     0
 42
2.5
  3
txt
  4

  0
ENDTAB
  0
TABLE
  2
VIEW
  5
6
330
0
100
AcDbSymbolTable
 70
     0
  0
ENDTAB
  0
TABLE
  2
UCS
  5
7
330
0
100
AcDbSymbolTable
 70
     0
  0
ENDTAB
  0
TABLE
  2
APPID
  5
9
330
0
100
AcDbSymbolTable
 70
     1
  0
APPID
  5
12
330
9
100
AcDbSymbolTableRecord
100
AcDbRegAppTableRecord
  2
ACAD
 70
     0
  0
ENDTAB
  0
TABLE
  2
DIMSTYLE
  5
A
330
0
100
AcDbSymbolTable
 70
     1
100
AcDbDimStyleTable
  0
DIMSTYLE
105
27
330
A
100
AcDbSymbolTableRecord
100
AcDbDimStyleTableRecord
  2
ISO-25
 70
     0
 41
2.5
 42
0.625
 43
3.75
 44
1.25
 73
     0
 74
     0
 77
     1
 78
     8
140
2.5
141
2.5
143
0.03937007874016
147
0.625
171
     3
172
     1
178
     0
271
     2
272
     2
274
     3
278
    44
283
     0
284
     8
340
11
  0
ENDTAB
  0
TABLE
  2
BLOCK_RECORD
  5
1
330
0
100
AcDbSymbolTable
 70
     1
  0
BLOCK_RECORD
  5
1F
330
1
100
AcDbSymbolTableRecord
100
AcDbBlockTableRecord
  2
*Model_Space
340
22
 70
     0
280
     1
281
     0
  0
BLOCK_RECORD
  5
1B
330
1
100
AcDbSymbolTableRecord
100
AcDbBlockTableRecord
  2
*Paper_Space
340
1E
 70
     0
280
     1
281
     0
  0
BLOCK_RECORD
  5
23
330
1
100
AcDbSymbolTableRecord
100
AcDbBlockTableRecord
  2
*Paper_Space0
340
26
 70
     0
280
     1
281
     0
  0
ENDTAB
  0
ENDSEC
  0
SECTION
  2
BLOCKS
  0
BLOCK
  5
20
330
1F
100
AcDbEntity
  8
0
100
AcDbBlockBegin
  2
*Model_Space
 70
     0
 10
0.0
 20
0.0
 30
0.0
  3
*Model_Space
  1

  0
ENDBLK
  5
21
330
1F
100
AcDbEntity
  8
0
100
AcDbBlockEnd
  0
BLOCK
  5
1C
330
1B
100
AcDbEntity
 67
     1
  8
0
100
AcDbBlockBegin
  2
*Paper_Space
 70
     0
 10
0.0
 20
0.0
 30
0.0
  3
*Paper_Space
  1

  0
ENDBLK
  5
1D
330
1B
100
AcDbEntity
 67
     1
  8
0
100
AcDbBlockEnd
  0
BLOCK
  5
24
330
23
100
AcDbEntity
  8
0
100
AcDbBlockBegin
  2
*Paper_Space0
 70
     0
 10
0.0
 20
0.0
 30
0.0
  3
*Paper_Space0
  1

  0
ENDBLK
  5
25
330
23
100
AcDbEntity
  8
0
100
AcDbBlockEnd
  0
ENDSEC
  0
SECTION
  2
ENTITIES
  0
LINE
  5
4E
330
1F
100
AcDbEntity
  8
0-0_補助線
  6
JWW_HOJO
 62
   120
370
     5
100
AcDbLine
 10
-5999.99998453501
 20
790.5001831054692
 30
0.0
 11
5699.998762800888
 21
790.5001831054692
 31
0.0
  0
LINE
  5
4F
330
1F
100
AcDbEntity
  8
F-1_枠
  6
Continuous
 62
   200
370
    20
100
AcDbLine
 10
-5999.999752560178
 20
4174.999769056166
 30
0.0
 11
5699.998762800888
 21
4174.999769056166
 31
0.0
  0
LINE
  5
50
330
1F
100
AcDbEntity
  8
F-0_補助線
  6
JWW_HOJO
 62
   120
370
     5
100
AcDbLine
 10
-6300.0
 20
-4455.0
 30
0.0
 11
-6300.0
 21
4424.999604096284
 31
0.0
  0
LINE
  5
51
330
1F
100
AcDbEntity
  8
F-0_補助線
  6
JWW_HOJO
 62
   120
370
     5
100
AcDbLine
 10
5999.999010240709
 20
4424.999604096284
 30
0.0
 11
5999.999010240709
 21
-4455.0
 31
0.0
  0
LINE
  5
52
330
1F
100
AcDbEntity
  8
F-0_補助線
  6
JWW_HOJO
 62
   120
370
     5
100
AcDbLine
 10
5999.999010240709
 20
-4455.0
 30
0.0
 11
-6300.0
 21
-4455.0
 31
0.0
  0
LINE
  5
53
330
1F
100
AcDbEntity
  8
F-1_枠
  6
Continuous
 62
   200
370
    20
100
AcDbLine
 10
-5999.999752560178
 20
4164.999983504013
 30
0.0
 11
5699.998762800888
 21
4164.999983504013
 31
0.0
  0
LINE
  5
54
330
1F
100
AcDbEntity
  8
F-1_枠
  6
Continuous
 62
   200
370
    20
100
AcDbLine
 10
-5999.999752560178
 20
4169.999505120355
 30
0.0
 11
5699.998762800888
 21
4169.999505120355
 31
0.0
  0
LINE
  5
55
330
1F
100
AcDbEntity
  8
F-1_枠
  6
Continuous
 62
   200
370
    20
100
AcDbLine
 10
5689.998977248734
 20
4174.999769056166
 30
0.0
 11
5689.998977248734
 21
-4205.000164959882
 31
0.0
  0
LINE
  5
56
330
1F
100
AcDbEntity
  8
F-1_枠
  6
Continuous
 62
   200
370
    20
100
AcDbLine
 10
5694.998498865077
 20
4174.999769056166
 30
0.0
 11
5694.998498865077
 21
-4205.000164959882
 31
0.0
  0
LINE
  5
57
330
1F
100
AcDbEntity
  8
F-1_枠
  6
Continuous
 62
   200
370
    20
100
AcDbLine
 10
5699.998762800888
 20
4174.999769056166
 30
0.0
 11
5699.998762800888
 21
-4205.000164959882
 31
0.0
  0
LINE
  5
58
330
1F
100
AcDbEntity
  8
F-1_枠
  6
Continuous
 62
   200
370
    20
100
AcDbLine
 10
-5989.999990205507
 20
4174.999769056166
 30
0.0
 11
-5989.999990205507
 21
-4205.000164959882
 31
0.0
  0
LINE
  5
59
330
1F
100
AcDbEntity
  8
F-1_枠
  6
Continuous
 62
   200
370
    20
100
AcDbLine
 10
-5994.999975771518
 20
4174.999769056166
 30
0.0
 11
-5994.999975771518
 21
-4205.000164959882
 31
0.0
  0
LINE
  5
5A
330
1F
100
AcDbEntity
  8
F-1_枠
  6
Continuous
 62
   200
370
    20
100
AcDbLine
 10
-5999.99998453501
 20
4174.999769056166
 30
0.0
 11
-5999.99998453501
 21
-4205.000164959882
 31
0.0
  0
LINE
  5
5B
330
1F
100
AcDbEntity
  8
F-1_枠
  6
Continuous
 62
   200
370
    20
100
AcDbLine
 10
-5490.000018557986
 20
4174.999769056166
 30
0.0
 11
-5490.000018557986
 21
-3790.000179909372
 31
0.0
  0
LINE
  5
5C
330
1F
100
AcDbEntity
  8
F-0_補助線
  6
JWW_HOJO
 62
   120
370
     5
100
AcDbLine
 10
-6300.0
 20
4424.999604096284
 30
0.0
 11
5999.999010240709
 21
4424.999604096284
 31
0.0
  0
LINE
  5
5D
330
1F
100
AcDbEntity
  8
F-0_補助線
  6
JWW_HOJO
 62
     7
370
     9
100
AcDbLine
 10
849.9995876002961
 20
-3795.000003092998
 30
0.0
 11
849.9995876002961
 21
-4195.000008247994
 31
0.0
  0
LINE
  5
5E
330
1F
100
AcDbEntity
  8
F-0_補助線
  6
JWW_HOJO
 62
     7
370
     9
100
AcDbLine
 10
349.9999175200594
 20
-3795.000003092998
 30
0.0
 11
349.9999175200594
 21
-4195.000008247994
 31
0.0
  0
LINE
  5
5F
330
1F
100
AcDbEntity
  8
F-1_枠
  6
Continuous
 62
   200
370
    20
100
AcDbLine
 10
5699.998762800888
 20
-4205.000002577498
 30
0.0
 11
-5999.999752560178
 21
-4205.000002577498
 31
0.0
  0
LINE
  5
60
330
1F
100
AcDbEntity
  8
F-1_枠
  6
Continuous
 62
   200
370
    20
100
AcDbLine
 10
5699.998762800888
 20
-4199.999993814004
 30
0.0
 11
-5999.999752560178
 21
-4199.999993814004
 31
0.0
  0
LINE
  5
61
330
1F
100
AcDbEntity
  8
F-1_枠
  6
Continuous
 62
   200
370
    20
100
AcDbLine
 10
5699.998762800888
 20
-4195.000008247994
 30
0.0
 11
-5999.999752560178
 21
-4195.000008247994
 31
0.0
  0
LINE
  5
62
330
1F
100
AcDbEntity
  8
F-1_枠
  6
Continuous
 62
   200
370
    20
100
AcDbLine
 10
4189.999224688556
 20
-3795.000003092998
 30
0.0
 11
4189.999224688556
 21
-4195.000008247994
 31
0.0
  0
LINE
  5
63
330
1F
100
AcDbEntity
  8
F-1_枠
  6
Continuous
 62
   200
370
    20
100
AcDbLine
 10
2689.998729808911
 20
-3795.000003092998
 30
0.0
 11
2689.998729808911
 21
-4195.000008247994
 31
0.0
  0
LINE
  5
64
330
1F
100
AcDbEntity
  8
F-1_枠
  6
Continuous
 62
   200
370
    20
100
AcDbLine
 10
-150.0001237199109
 20
-3795.000003092998
 30
0.0
 11
-150.0001237199109
 21
-4195.000008247994
 31
0.0
  0
LINE
  5
65
330
1F
100
AcDbEntity
  8
F-1_枠
  6
Continuous
 62
   200
370
    20
100
AcDbLine
 10
-150.0001237199109
 20
-3994.999936078046
 30
0.0
 11
5689.998977248734
 21
-3995.005364289155
 31
0.0
  0
LINE
  5
66
330
1F
100
AcDbEntity
  8
F-0_補助線
  6
JWW_HOJO
 62
     7
370
     9
100
AcDbLine
 10
-5989.999990205507
 20
-3994.99993607839
 30
0.0
 11
-150.0001237199109
 21
-3994.99993607839
 31
0.0
  0
LINE
  5
67
330
1F
100
AcDbEntity
  8
F-0_補助線
  6
JWW_HOJO
 62
     7
370
     9
100
AcDbLine
 10
-5989.999990205507
 20
-3904.99993607839
 30
0.0
 11
-150.0001237199109
 21
-3904.99993607839
 31
0.0
  0
LINE
  5
68
330
1F
100
AcDbEntity
  8
F-0_補助線
  6
JWW_HOJO
 62
     7
370
     9
100
AcDbLine
 10
-5989.999990205507
 20
-4084.99993607839
 30
0.0
 11
-150.0001237199109
 21
-4084.99993607839
 31
0.0
  0
LINE
  5
69
330
1F
100
AcDbEntity
  8
F-0_補助線
  6
JWW_HOJO
 62
     7
370
     9
100
AcDbLine
 10
-150.0002584955388
 20
-4139.999739777983
 30
0.0
 11
5689.998842473105
 21
-4140.005167989091
 31
0.0
  0
LINE
  5
6A
330
1F
100
AcDbEntity
  8
F-0_補助線
  6
JWW_HOJO
 62
     7
370
     9
100
AcDbLine
 10
-150.0001748415872
 20
-4049.999739778022
 30
0.0
 11
5689.998926127057
 21
-4050.005167989131
 31
0.0
  0
LINE
  5
6B
330
1F
100
AcDbEntity
  8
F-0_補助線
  6
JWW_HOJO
 62
     7
370
     9
100
AcDbLine
 10
-150.0000725978671
 20
-3939.99973721807
 30
0.0
 11
5689.999028370777
 21
-3940.005165429179
 31
0.0
  0
LINE
  5
6C
330
1F
100
AcDbEntity
  8
F-0_補助線
  6
JWW_HOJO
 62
     7
370
     9
100
AcDbLine
 10
-149.9999889439155
 20
-3849.999737218109
 30
0.0
 11
5689.999112024728
 21
-3850.005165429218
 31
0.0
  0
LINE
  5
6D
330
1F
100
AcDbEntity
  8
F-0_補助線
  6
JWW_HOJO
 62
     7
370
     9
100
AcDbLine
 10
2779.998729808911
 20
-3795.000003092998
 30
0.0
 11
2779.998729808911
 21
-4195.000008247994
 31
0.0
  0
LINE
  5
6E
330
1F
100
AcDbEntity
  8
F-0_補助線
  6
JWW_HOJO
 62
     7
370
     9
100
AcDbLine
 10
-60.0001237199109
 20
-3795.000003092998
 30
0.0
 11
-60.0001237199109
 21
-4195.000008247994
 31
0.0
  0
LINE
  5
6F
330
1F
100
AcDbEntity
  8
F-0_補助線
  6
JWW_HOJO
 62
     7
370
     9
100
AcDbLine
 10
4279.999224688556
 20
-3795.000003092998
 30
0.0
 11
4279.999224688556
 21
-4195.000008247994
 31
0.0
  0
LINE
  5
70
330
1F
100
AcDbEntity
  8
F-0_補助線
  6
JWW_HOJO
 62
     7
370
     9
100
AcDbLine
 10
-5247.547376752838
 20
-3795.000003092999
 30
0.0
 11
-5247.547376752838
 21
-4205.000164959882
 31
0.0
  0
LINE
  5
71
330
1F
100
AcDbEntity
  8
F-0_補助線
  6
JWW_HOJO
 62
     7
370
     9
100
AcDbLine
 10
-210.0001237199109
 20
-3795.000003092998
 30
0.0
 11
-210.0001237199109
 21
-4195.000008247994
 31
0.0
  0
LINE
  5
72
330
1F
100
AcDbEntity
  8
0-0_補助線
  6
JWW_HOJO
 62
     7
370
     9
100
AcDbLine
 10
-5490.000018557986
 20
3465.000148463894
 30
0.0
 11
5689.998977248734
 21
3465.000148463894
 31
0.0
  0
LINE
  5
73
330
1F
100
AcDbEntity
  8
0-0_補助線
  6
JWW_HOJO
 62
     7
370
     9
100
AcDbLine
 10
-5490.000018557986
 20
1418.000148463893
 30
0.0
 11
5689.998977248734
 21
1418.000148463893
 31
0.0
  0
LINE
  5
74
330
1F
100
AcDbEntity
  8
0-0_補助線
  6
JWW_HOJO
 62
   120
370
     5
100
AcDbLine
 10
-5490.000018557986
 20
1368.000148463894
 30
0.0
 11
5689.998977248734
 21
1368.000148463894
 31
0.0
  0
LINE
  5
75
330
1F
100
AcDbEntity
  8
0-0_補助線
  6
JWW_HOJO
 62
     7
370
     9
100
AcDbLine
 10
-5490.000018557986
 20
-2701.250083820241
 30
0.0
 11
5699.998762800888
 21
-2701.250083820241
 31
0.0
  0
LINE
  5
76
330
1F
100
AcDbEntity
  8
0-0_補助線
  6
JWW_HOJO
 62
   120
370
     5
100
AcDbLine
 10
-5490.000018557986
 20
-2751.250083820241
 30
0.0
 11
5699.998762800888
 21
-2751.250083820241
 31
0.0
  0
LINE
  5
77
330
1F
100
AcDbEntity
  8
0-0_補助線
  6
JWW_HOJO
 62
     7
370
     9
100
AcDbLine
 10
-5490.000018557986
 20
1168.000148463894
 30
0.0
 11
5689.998977248734
 21
1168.000148463894
 31
0.0
  0
LINE
  5
78
330
1F
100
AcDbEntity
  8
0-0_補助線
  6
JWW_HOJO
 62
     7
370
     9
100
AcDbLine
 10
-5490.000018557986
 20
-2951.250083820241
 30
0.0
 11
5699.998762800888
 21
-2951.250083820241
 31
0.0
  0
LINE
  5
79
330
1F
100
AcDbEntity
  8
0-0_補助線
  6
JWW_HOJO
 62
     7
370
     9
100
AcDbLine
 10
-5490.000018557986
 20
-454.2500838202386
 30
0.0
 11
5699.998762800888
 21
-454.2500838202386
 31
0.0
  0
LINE
  5
7A
330
1F
100
AcDbEntity
  8
F-1_枠
  6
Continuous
 62
   200
370
    20
100
AcDbLine
 10
5699.998762800888
 20
-3795.000003092998
 30
0.0
 11
-5999.99998453501
 21
-3795.000003092998
 31
0.0
  0
LINE
  5
7B
330
1F
100
AcDbEntity
  8
F-1_枠
  6
Continuous
 62
   200
370
    20
100
AcDbLine
 10
-5999.99998453501
 20
3964.999818544131
 30
0.0
 11
5699.998762800888
 21
3964.999818544131
 31
0.0
  0
LINE
  5
7C
330
1F
100
AcDbEntity
  8
F-1_枠
  6
Continuous
 62
   200
370
    20
100
AcDbLine
 10
5699.998762800888
 20
-3790.000017526987
 30
0.0
 11
-5999.99998453501
 21
-3790.000017526987
 31
0.0
  0
LINE
  5
7D
330
1F
100
AcDbEntity
  8
F-1_枠
  6
Continuous
 62
   200
370
    20
100
AcDbLine
 10
-5999.99998453501
 20
190.5001831054688
 30
0.0
 11
5699.998762800888
 21
190.5001831054688
 31
0.0
  0
LINE
  5
7E
330
1F
100
AcDbEntity
  8
F-1_枠
  6
Continuous
 62
   200
370
    20
100
AcDbLine
 10
-5999.99998453501
 20
-15.50015011349217
 30
0.0
 11
5699.998762800888
 21
-15.50015011349217
 31
0.0
  0
LINE
  5
7F
330
1F
100
AcDbEntity
  8
F-1_枠
  6
Continuous
 62
   200
370
    20
100
AcDbLine
 10
-5999.99998453501
 20
184.5000148463899
 30
0.0
 11
5699.998762800888
 21
184.5000148463899
 31
0.0
  0
LINE
  5
80
330
1F
100
AcDbEntity
  8
F-1_枠
  6
Continuous
 62
   200
370
    20
100
AcDbLine
 10
-5999.99998453501
 20
187.5000989759289
 30
0.0
 11
5699.998762800888
 21
187.5000989759289
 31
0.0
  0
LINE
  5
81
330
1F
100
AcDbEntity
  8
F-1_枠
  6
Continuous
 62
   200
370
    20
100
AcDbLine
 10
1204.8000851193
 20
4174.999769056166
 30
0.0
 11
1204.8000851193
 21
-3790.000179909372
 31
0.0
  0
LINE
  5
82
330
1F
100
AcDbEntity
  8
F-1_枠
  6
Continuous
 62
   200
370
    20
100
AcDbLine
 10
-1026.799671069995
 20
4174.999769056166
 30
0.0
 11
-1026.799671069995
 21
-3790.000179909372
 31
0.0
  0
LINE
  5
83
330
1F
100
AcDbEntity
  8
F-1_枠
  6
Continuous
 62
   200
370
    20
100
AcDbLine
 10
3436.400212468328
 20
4174.999769056166
 30
0.0
 11
3436.400212468328
 21
-3790.000179909372
 31
0.0
  0
LINE
  5
84
330
1F
100
AcDbEntity
  8
F-1_枠
  6
Continuous
 62
   200
370
    20
100
AcDbLine
 10
-3258.399798419025
 20
4174.999769056166
 30
0.0
 11
-3258.399798419025
 21
-3790.000179909372
 31
0.0
  0
LINE
  5
85
330
1F
100
AcDbEntity
  8
0-2_扉
  6
Continuous
 62
    92
370
    13
100
AcDbLine
 10
-2436.799671069995
 20
3438.000148463894
 30
0.0
 11
-1713.799671069996
 21
3438.000148463894
 31
0.0
  0
LINE
  5
86
330
1F
100
AcDbEntity
  8
0-2_扉
  6
Continuous
 62
    92
370
    13
100
AcDbLine
 10
-1713.799671069996
 20
1443.000148463894
 30
0.0
 11
-1713.799671069996
 21
3438.000148463894
 31
0.0
  0
LINE
  5
87
330
1F
100
AcDbEntity
  8
0-2_扉
  6
Continuous
 62
    92
370
    13
100
AcDbLine
 10
-2436.799671069995
 20
1443.000148463894
 30
0.0
 11
-1713.799671069996
 21
1443.000148463894
 31
0.0
  0
LINE
  5
88
330
1F
100
AcDbEntity
  8
0-4_枠
  6
Continuous
 62
    92
370
    13
100
AcDbLine
 10
-2441.799671069996
 20
1433.000148463893
 30
0.0
 11
-1711.799671069995
 21
1433.000148463893
 31
0.0
  0
LINE
  5
89
330
1F
100
AcDbEntity
  8
0-4_枠
  6
Continuous
 62
    92
370
    13
100
AcDbLine
 10
-2465.799671069994
 20
3465.000148463894
 30
0.0
 11
-1687.799671069996
 21
3465.000148463894
 31
0.0
  0
LINE
  5
8A
330
1F
100
AcDbEntity
  8
0-4_枠
  6
Continuous
 62
    92
370
    13
100
AcDbLine
 10
-2441.799671069996
 20
3441.000148463893
 30
0.0
 11
-1711.799671069995
 21
3441.000148463893
 31
0.0
  0
LINE
  5
8B
330
1F
100
AcDbEntity
  8
0-4_枠
  6
Continuous
 62
    92
370
    13
100
AcDbLine
 10
-1711.799671069995
 20
1418.000148463893
 30
0.0
 11
-1711.799671069995
 21
3441.000148463893
 31
0.0
  0
LINE
  5
8C
330
1F
100
AcDbEntity
  8
0-4_枠
  6
Continuous
 62
    92
370
    13
100
AcDbLine
 10
-1687.799671069996
 20
1418.000148463893
 30
0.0
 11
-1687.799671069996
 21
3465.000148463894
 31
0.0
  0
LINE
  5
8D
330
1F
100
AcDbEntity
  8
0-4_枠
  6
Continuous
 62
    92
370
    13
100
AcDbLine
 10
-2465.799671069994
 20
1418.000148463893
 30
0.0
 11
-1687.799671069996
 21
1418.000148463893
 31
0.0
  0
LINE
  5
8E
330
1F
100
AcDbEntity
  8
0-2_扉
  6
Continuous
 62
    92
370
    13
100
AcDbLine
 10
2026.400212468328
 20
3438.000148463894
 30
0.0
 11
2706.400212468327
 21
3438.000148463894
 31
0.0
  0
LINE
  5
8F
330
1F
100
AcDbEntity
  8
0-2_扉
  6
Continuous
 62
    92
370
    13
100
AcDbLine
 10
2706.400212468327
 20
1443.000148463894
 30
0.0
 11
2706.400212468327
 21
3438.000148463894
 31
0.0
  0
LINE
  5
90
330
1F
100
AcDbEntity
  8
0-2_扉
  6
Continuous
 62
    92
370
    13
100
AcDbLine
 10
2026.400212468328
 20
1443.000148463894
 30
0.0
 11
2706.400212468327
 21
1443.000148463894
 31
0.0
  0
LINE
  5
91
330
1F
100
AcDbEntity
  8
0-2_扉
  6
Continuous
 62
    92
370
    13
100
AcDbLine
 10
2026.400212468328
 20
1443.000148463894
 30
0.0
 11
2026.400212468328
 21
3438.000148463894
 31
0.0
  0
LINE
  5
92
330
1F
100
AcDbEntity
  8
0-2_扉
  6
Continuous
 62
    92
370
    13
100
AcDbLine
 10
-205.1999148806999
 20
3438.000148463894
 30
0.0
 11
497.8000851192985
 21
3438.000148463894
 31
0.0
  0
LINE
  5
93
330
1F
100
AcDbEntity
  8
0-2_扉
  6
Continuous
 62
    92
370
    13
100
AcDbLine
 10
497.8000851192985
 20
1443.000148463894
 30
0.0
 11
497.8000851192985
 21
3438.000148463894
 31
0.0
  0
LINE
  5
94
330
1F
100
AcDbEntity
  8
0-2_扉
  6
Continuous
 62
    92
370
    13
100
AcDbLine
 10
-205.1999148806999
 20
1443.000148463894
 30
0.0
 11
497.8000851192985
 21
1443.000148463894
 31
0.0
  0
LINE
  5
95
330
1F
100
AcDbEntity
  8
0-2_扉
  6
Continuous
 62
    92
370
    13
100
AcDbLine
 10
-205.1999148806999
 20
1443.000148463894
 30
0.0
 11
-205.1999148806999
 21
3438.000148463894
 31
0.0
  0
LINE
  5
96
330
1F
100
AcDbEntity
  8
0-2_扉
  6
Continuous
 62
    92
370
    13
100
AcDbLine
 10
-2436.799671069995
 20
1443.000148463894
 30
0.0
 11
-2436.799671069995
 21
3438.000148463894
 31
0.0
  0
LINE
  5
97
330
1F
100
AcDbEntity
  8
0-2_扉
  6
Continuous
 62
    92
370
    13
100
AcDbLine
 10
-4668.399798419025
 20
3438.000148463894
 30
0.0
 11
-3875.399798419023
 21
3438.000148463894
 31
0.0
  0
LINE
  5
98
330
1F
100
AcDbEntity
  8
0-2_扉
  6
Continuous
 62
    92
370
    13
100
AcDbLine
 10
-3875.399798419023
 20
1443.000148463894
 30
0.0
 11
-3875.399798419023
 21
3438.000148463894
 31
0.0
  0
LINE
  5
99
330
1F
100
AcDbEntity
  8
0-2_扉
  6
Continuous
 62
    92
370
    13
100
AcDbLine
 10
-4668.399798419025
 20
1443.000148463894
 30
0.0
 11
-3875.399798419023
 21
1443.000148463894
 31
0.0
  0
LINE
  5
9A
330
1F
100
AcDbEntity
  8
0-2_扉
  6
Continuous
 62
    92
370
    13
100
AcDbLine
 10
-4668.399798419025
 20
1443.000148463894
 30
0.0
 11
-4668.399798419025
 21
3438.000148463894
 31
0.0
  0
LWPOLYLINE
  5
9B
330
1F
100
AcDbEntity
  8
0-B_寸法
  6
Continuous
 62
     7
370
     9
100
AcDbPolyline
 90
        4
 70
     1
 43
3.0
 10
1698.900212468327
 20
1443.000148463894
 42
0.4142135623731
 10
1697.400212468327
 20
1444.500148463894
 42
0.4142135623731
 10
1695.900212468327
 20
1443.000148463894
 42
0.4142135623731
 10
1697.400212468327
 20
1441.500148463894
 42
0.4142135623731
  0
LWPOLYLINE
  5
9C
330
1F
100
AcDbEntity
  8
0-B_寸法
  6
Continuous
 62
     7
370
     9
100
AcDbPolyline
 90
        4
 70
     1
 43
3.0
 10
1698.900212468327
 20
3438.000148463894
 42
0.4142135623731
 10
1697.400212468327
 20
3439.500148463894
 42
0.4142135623731
 10
1695.900212468327
 20
3438.000148463894
 42
0.4142135623731
 10
1697.400212468327
 20
3436.500148463895
 42
0.4142135623731
  0
LWPOLYLINE
  5
9D
330
1F
100
AcDbEntity
  8
0-B_寸法
  6
Continuous
 62
     7
370
     9
100
AcDbPolyline
 90
        4
 70
     1
 43
3.0
 10
-532.6999148807008
 20
1443.000148463894
 42
0.4142135623731
 10
-534.1999148807008
 20
1444.500148463894
 42
0.4142135623731
 10
-535.6999148807008
 20
1443.000148463894
 42
0.4142135623731
 10
-534.1999148807008
 20
1441.500148463894
 42
0.4142135623731
  0
LWPOLYLINE
  5
9E
330
1F
100
AcDbEntity
  8
0-B_寸法
  6
Continuous
 62
     7
370
     9
100
AcDbPolyline
 90
        4
 70
     1
 43
3.0
 10
-532.6999148807008
 20
3438.000148463894
 42
0.4142135623731
 10
-534.1999148807008
 20
3439.500148463894
 42
0.4142135623731
 10
-535.6999148807008
 20
3438.000148463894
 42
0.4142135623731
 10
-534.1999148807008
 20
3436.500148463895
 42
0.4142135623731
  0
LWPOLYLINE
  5
9F
330
1F
100
AcDbEntity
  8
0-B_寸法
  6
Continuous
 62
     7
370
     9
100
AcDbPolyline
 90
        4
 70
     1
 43
3.0
 10
-2764.299671069994
 20
1443.000148463894
 42
0.4142135623731
 10
-2765.799671069994
 20
1444.500148463894
 42
0.4142135623731
 10
-2767.299671069994
 20
1443.000148463894
 42
0.4142135623731
 10
-2765.799671069994
 20
1441.500148463894
 42
0.4142135623731
  0
LWPOLYLINE
  5
A0
330
1F
100
AcDbEntity
  8
0-B_寸法
  6
Continuous
 62
     7
370
     9
100
AcDbPolyline
 90
        4
 70
     1
 43
3.0
 10
-2764.299671069994
 20
3438.000148463894
 42
0.4142135623731
 10
-2765.799671069994
 20
3439.500148463894
 42
0.4142135623731
 10
-2767.299671069994
 20
3438.000148463894
 42
0.4142135623731
 10
-2765.799671069994
 20
3436.500148463895
 42
0.4142135623731
  0
LWPOLYLINE
  5
A1
330
1F
100
AcDbEntity
  8
0-B_寸法
  6
Continuous
 62
     7
370
     9
100
AcDbPolyline
 90
        4
 70
     1
 43
3.0
 10
-4995.899798419022
 20
1443.000148463894
 42
0.4142135623731
 10
-4997.399798419023
 20
1444.500148463894
 42
0.4142135623731
 10
-4998.899798419023
 20
1443.000148463894
 42
0.4142135623731
 10
-4997.399798419023
 20
1441.500148463894
 42
0.4142135623731
  0
LWPOLYLINE
  5
A2
330
1F
100
AcDbEntity
  8
0-B_寸法
  6
Continuous
 62
     7
370
     9
100
AcDbPolyline
 90
        4
 70
     1
 43
3.0
 10
-4995.899798419022
 20
3438.000148463894
 42
0.4142135623731
 10
-4997.399798419023
 20
3439.500148463894
 42
0.4142135623731
 10
-4998.899798419023
 20
3438.000148463894
 42
0.4142135623731
 10
-4997.399798419023
 20
3436.500148463895
 42
0.4142135623731
  0
LINE
  5
A3
330
1F
100
AcDbEntity
  8
0-B_寸法
  6
Continuous
 62
   120
370
     5
100
AcDbLine
 10
1697.400212468327
 20
1443.000148463894
 30
0.0
 11
1947.400212468328
 21
1443.000148463894
 31
0.0
  0
LINE
  5
A4
330
1F
100
AcDbEntity
  8
0-B_寸法
  6
Continuous
 62
   120
370
     5
100
AcDbLine
 10
1697.400212468327
 20
3438.000148463894
 30
0.0
 11
1947.400212468328
 21
3438.000148463894
 31
0.0
  0
LINE
  5
A5
330
1F
100
AcDbEntity
  8
0-B_寸法
  6
Continuous
 62
   120
370
     5
100
AcDbLine
 10
1697.400212468327
 20
3438.000148463894
 30
0.0
 11
1697.400212468327
 21
1443.000148463894
 31
0.0
  0
LINE
  5
A6
330
1F
100
AcDbEntity
  8
0-B_寸法
  6
Continuous
 62
   120
370
     5
100
AcDbLine
 10
-534.1999148807008
 20
1443.000148463894
 30
0.0
 11
-284.1999148807014
 21
1443.000148463894
 31
0.0
  0
LINE
  5
A7
330
1F
100
AcDbEntity
  8
0-B_寸法
  6
Continuous
 62
   120
370
     5
100
AcDbLine
 10
-534.1999148807008
 20
3438.000148463894
 30
0.0
 11
-284.1999148807014
 21
3438.000148463894
 31
0.0
  0
LINE
  5
A8
330
1F
100
AcDbEntity
  8
0-B_寸法
  6
Continuous
 62
   120
370
     5
100
AcDbLine
 10
-534.1999148807008
 20
3438.000148463894
 30
0.0
 11
-534.1999148807008
 21
1443.000148463894
 31
0.0
  0
LINE
  5
A9
330
1F
100
AcDbEntity
  8
0-B_寸法
  6
Continuous
 62
   120
370
     5
100
AcDbLine
 10
-2765.799671069994
 20
1443.000148463894
 30
0.0
 11
-2515.799671069997
 21
1443.000148463894
 31
0.0
  0
LINE
  5
AA
330
1F
100
AcDbEntity
  8
0-B_寸法
  6
Continuous
 62
   120
370
     5
100
AcDbLine
 10
-2765.799671069994
 20
3438.000148463894
 30
0.0
 11
-2515.799671069997
 21
3438.000148463894
 31
0.0
  0
LINE
  5
AB
330
1F
100
AcDbEntity
  8
0-B_寸法
  6
Continuous
 62
   120
370
     5
100
AcDbLine
 10
-2765.799671069994
 20
3438.000148463894
 30
0.0
 11
-2765.799671069994
 21
1443.000148463894
 31
0.0
  0
LINE
  5
AC
330
1F
100
AcDbEntity
  8
0-B_寸法
  6
Continuous
 62
   120
370
     5
100
AcDbLine
 10
-4997.399798419023
 20
1443.000148463894
 30
0.0
 11
-4747.399798419025
 21
1443.000148463894
 31
0.0
  0
LINE
  5
AD
330
1F
100
AcDbEntity
  8
0-B_寸法
  6
Continuous
 62
   120
370
     5
100
AcDbLine
 10
-4997.399798419023
 20
3438.000148463894
 30
0.0
 11
-4747.399798419025
 21
3438.000148463894
 31
0.0
  0
LINE
  5
AE
330
1F
100
AcDbEntity
  8
0-B_寸法
  6
Continuous
 62
   120
370
     5
100
AcDbLine
 10
-4997.399798419023
 20
3438.000148463894
 30
0.0
 11
-4997.399798419023
 21
1443.000148463894
 31
0.0
  0
LINE
  5
AF
330
1F
100
AcDbEntity
  8
0-4_枠
  6
Continuous
 62
    92
370
    13
100
AcDbLine
 10
2021.400212468329
 20
1433.000148463893
 30
0.0
 11
2708.400212468328
 21
1433.000148463893
 31
0.0
  0
LINE
  5
B0
330
1F
100
AcDbEntity
  8
0-4_枠
  6
Continuous
 62
    92
370
    13
100
AcDbLine
 10
1997.400212468327
 20
3465.000148463894
 30
0.0
 11
2732.400212468327
 21
3465.000148463894
 31
0.0
  0
LINE
  5
B1
330
1F
100
AcDbEntity
  8
0-4_枠
  6
Continuous
 62
    92
370
    13
100
AcDbLine
 10
2021.400212468329
 20
3441.000148463893
 30
0.0
 11
2708.400212468328
 21
3441.000148463893
 31
0.0
  0
LINE
  5
B2
330
1F
100
AcDbEntity
  8
0-4_枠
  6
Continuous
 62
    92
370
    13
100
AcDbLine
 10
2708.400212468328
 20
1418.000148463893
 30
0.0
 11
2708.400212468328
 21
3441.000148463893
 31
0.0
  0
LINE
  5
B3
330
1F
100
AcDbEntity
  8
0-4_枠
  6
Continuous
 62
    92
370
    13
100
AcDbLine
 10
2732.400212468327
 20
1418.000148463893
 30
0.0
 11
2732.400212468327
 21
3465.000148463894
 31
0.0
  0
LINE
  5
B4
330
1F
100
AcDbEntity
  8
0-4_枠
  6
Continuous
 62
    92
370
    13
100
AcDbLine
 10
1997.400212468327
 20
1418.000148463893
 30
0.0
 11
2732.400212468327
 21
1418.000148463893
 31
0.0
  0
LINE
  5
B5
330
1F
100
AcDbEntity
  8
0-4_枠
  6
Continuous
 62
    92
370
    13
100
AcDbLine
 10
1997.400212468327
 20
1418.000148463893
 30
0.0
 11
1997.400212468327
 21
3465.000148463894
 31
0.0
  0
LINE
  5
B6
330
1F
100
AcDbEntity
  8
0-4_枠
  6
Continuous
 62
    92
370
    13
100
AcDbLine
 10
2021.400212468329
 20
1418.000148463893
 30
0.0
 11
2021.400212468329
 21
3441.000148463893
 31
0.0
  0
LINE
  5
B7
330
1F
100
AcDbEntity
  8
0-4_枠
  6
Continuous
 62
    92
370
    13
100
AcDbLine
 10
-210.1999148807005
 20
1433.000148463893
 30
0.0
 11
499.8000851192984
 21
1433.000148463893
 31
0.0
  0
LINE
  5
B8
330
1F
100
AcDbEntity
  8
0-4_枠
  6
Continuous
 62
    92
370
    13
100
AcDbLine
 10
-234.1999148807008
 20
3465.000148463894
 30
0.0
 11
523.8000851192996
 21
3465.000148463894
 31
0.0
  0
LINE
  5
B9
330
1F
100
AcDbEntity
  8
0-4_枠
  6
Continuous
 62
    92
370
    13
100
AcDbLine
 10
-210.1999148807005
 20
3441.000148463893
 30
0.0
 11
499.8000851192984
 21
3441.000148463893
 31
0.0
  0
LINE
  5
BA
330
1F
100
AcDbEntity
  8
0-4_枠
  6
Continuous
 62
    92
370
    13
100
AcDbLine
 10
499.8000851192984
 20
1418.000148463893
 30
0.0
 11
499.8000851192984
 21
3441.000148463893
 31
0.0
  0
LINE
  5
BB
330
1F
100
AcDbEntity
  8
0-4_枠
  6
Continuous
 62
    92
370
    13
100
AcDbLine
 10
523.8000851192996
 20
1418.000148463893
 30
0.0
 11
523.8000851192996
 21
3465.000148463894
 31
0.0
  0
LINE
  5
BC
330
1F
100
AcDbEntity
  8
0-4_枠
  6
Continuous
 62
    92
370
    13
100
AcDbLine
 10
-234.1999148807008
 20
1418.000148463893
 30
0.0
 11
523.8000851192996
 21
1418.000148463893
 31
0.0
  0
LINE
  5
BD
330
1F
100
AcDbEntity
  8
0-4_枠
  6
Continuous
 62
    92
370
    13
100
AcDbLine
 10
-234.1999148807008
 20
1418.000148463893
 30
0.0
 11
-234.1999148807008
 21
3465.000148463894
 31
0.0
  0
LINE
  5
BE
330
1F
100
AcDbEntity
  8
0-4_枠
  6
Continuous
 62
    92
370
    13
100
AcDbLine
 10
-210.1999148807005
 20
1418.000148463893
 30
0.0
 11
-210.1999148807005
 21
3441.000148463893
 31
0.0
  0
LINE
  5
BF
330
1F
100
AcDbEntity
  8
0-4_枠
  6
Continuous
 62
    92
370
    13
100
AcDbLine
 10
-2465.799671069994
 20
1418.000148463893
 30
0.0
 11
-2465.799671069994
 21
3465.000148463894
 31
0.0
  0
LINE
  5
C0
330
1F
100
AcDbEntity
  8
0-4_枠
  6
Continuous
 62
    92
370
    13
100
AcDbLine
 10
-2441.799671069996
 20
1418.000148463893
 30
0.0
 11
-2441.799671069996
 21
3441.000148463893
 31
0.0
  0
LINE
  5
C1
330
1F
100
AcDbEntity
  8
0-4_枠
  6
Continuous
 62
    92
370
    13
100
AcDbLine
 10
-4673.399798419024
 20
1433.000148463893
 30
0.0
 11
-3873.399798419025
 21
1433.000148463893
 31
0.0
  0
LINE
  5
C2
330
1F
100
AcDbEntity
  8
0-4_枠
  6
Continuous
 62
    92
370
    13
100
AcDbLine
 10
-4697.399798419023
 20
3465.000148463894
 30
0.0
 11
-3849.399798419023
 21
3465.000148463894
 31
0.0
  0
LINE
  5
C3
330
1F
100
AcDbEntity
  8
0-4_枠
  6
Continuous
 62
    92
370
    13
100
AcDbLine
 10
-4673.399798419024
 20
3441.000148463893
 30
0.0
 11
-3873.399798419025
 21
3441.000148463893
 31
0.0
  0
LINE
  5
C4
330
1F
100
AcDbEntity
  8
0-4_枠
  6
Continuous
 62
    92
370
    13
100
AcDbLine
 10
-3873.399798419025
 20
1418.000148463893
 30
0.0
 11
-3873.399798419025
 21
3441.000148463893
 31
0.0
  0
LINE
  5
C5
330
1F
100
AcDbEntity
  8
0-4_枠
  6
Continuous
 62
    92
370
    13
100
AcDbLine
 10
-3849.399798419023
 20
1418.000148463893
 30
0.0
 11
-3849.399798419023
 21
3465.000148463894
 31
0.0
  0
LINE
  5
C6
330
1F
100
AcDbEntity
  8
0-4_枠
  6
Continuous
 62
    92
370
    13
100
AcDbLine
 10
-4697.399798419023
 20
1418.000148463893
 30
0.0
 11
-3849.399798419023
 21
1418.000148463893
 31
0.0
  0
LINE
  5
C7
330
1F
100
AcDbEntity
  8
0-4_枠
  6
Continuous
 62
    92
370
    13
100
AcDbLine
 10
-4697.399798419023
 20
1418.000148463893
 30
0.0
 11
-4697.399798419023
 21
3465.000148463894
 31
0.0
  0
LINE
  5
C8
330
1F
100
AcDbEntity
  8
0-4_枠
  6
Continuous
 62
    92
370
    13
100
AcDbLine
 10
-4673.399798419024
 20
1418.000148463893
 30
0.0
 11
-4673.399798419024
 21
3441.000148463893
 31
0.0
  0
LWPOLYLINE
  5
C9
330
1F
100
AcDbEntity
  8
0-B_寸法
  6
Continuous
 62
     7
370
     9
100
AcDbPolyline
 90
        4
 70
     1
 43
3.0
 10
-1712.299671069996
 20
1168.000148463894
 42
0.4142135623731
 10
-1713.799671069996
 20
1169.500148463894
 42
0.4142135623731
 10
-1715.299671069996
 20
1168.000148463894
 42
0.4142135623731
 10
-1713.799671069996
 20
1166.500148463894
 42
0.4142135623731
  0
LINE
  5
CA
330
1F
100
AcDbEntity
  8
0-B_寸法
  6
Continuous
 62
   120
370
     5
100
AcDbLine
 10
-1713.799671069996
 20
1168.000148463894
 30
0.0
 11
-1713.799671069996
 21
1368.000148463894
 31
0.0
  0
LINE
  5
CB
330
1F
100
AcDbEntity
  8
0-B_寸法
  6
Continuous
 62
   120
370
     5
100
AcDbLine
 10
-2436.799671069995
 20
1168.000148463894
 30
0.0
 11
-1713.799671069996
 21
1168.000148463894
 31
0.0
  0
LWPOLYLINE
  5
CC
330
1F
100
AcDbEntity
  8
0-B_寸法
  6
Continuous
 62
     7
370
     9
100
AcDbPolyline
 90
        4
 70
     1
 43
3.0
 10
2707.900212468327
 20
1168.000148463894
 42
0.4142135623731
 10
2706.400212468327
 20
1169.500148463894
 42
0.4142135623731
 10
2704.900212468327
 20
1168.000148463894
 42
0.4142135623731
 10
2706.400212468327
 20
1166.500148463894
 42
0.4142135623731
  0
LWPOLYLINE
  5
CD
330
1F
100
AcDbEntity
  8
0-B_寸法
  6
Continuous
 62
     7
370
     9
100
AcDbPolyline
 90
        4
 70
     1
 43
3.0
 10
2027.900212468328
 20
1168.000148463894
 42
0.4142135623731
 10
2026.400212468328
 20
1169.500148463894
 42
0.4142135623731
 10
2024.900212468328
 20
1168.000148463894
 42
0.4142135623731
 10
2026.400212468328
 20
1166.500148463894
 42
0.4142135623731
  0
LWPOLYLINE
  5
CE
330
1F
100
AcDbEntity
  8
0-B_寸法
  6
Continuous
 62
     7
370
     9
100
AcDbPolyline
 90
        4
 70
     1
 43
3.0
 10
499.3000851192985
 20
1168.000148463894
 42
0.4142135623731
 10
497.8000851192985
 20
1169.500148463894
 42
0.4142135623731
 10
496.3000851192985
 20
1168.000148463894
 42
0.4142135623731
 10
497.8000851192985
 20
1166.500148463894
 42
0.4142135623731
  0
LWPOLYLINE
  5
CF
330
1F
100
AcDbEntity
  8
0-B_寸法
  6
Continuous
 62
     7
370
     9
100
AcDbPolyline
 90
        4
 70
     1
 43
3.0
 10
-203.6999148806999
 20
1168.000148463894
 42
0.4142135623731
 10
-205.1999148806999
 20
1169.500148463894
 42
0.4142135623731
 10
-206.6999148806999
 20
1168.000148463894
 42
0.4142135623731
 10
-205.1999148806999
 20
1166.500148463894
 42
0.4142135623731
  0
LWPOLYLINE
  5
D0
330
1F
100
AcDbEntity
  8
0-B_寸法
  6
Continuous
 62
     7
370
     9
100
AcDbPolyline
 90
        4
 70
     1
 43
3.0
 10
-2435.299671069995
 20
1168.000148463894
 42
0.4142135623731
 10
-2436.799671069995
 20
1169.500148463894
 42
0.4142135623731
 10
-2438.299671069995
 20
1168.000148463894
 42
0.4142135623731
 10
-2436.799671069995
 20
1166.500148463894
 42
0.4142135623731
  0
LWPOLYLINE
  5
D1
330
1F
100
AcDbEntity
  8
0-B_寸法
  6
Continuous
 62
     7
370
     9
100
AcDbPolyline
 90
        4
 70
     1
 43
3.0
 10
-3873.899798419023
 20
1168.000148463894
 42
0.4142135623731
 10
-3875.399798419023
 20
1169.500148463894
 42
0.4142135623731
 10
-3876.899798419024
 20
1168.000148463894
 42
0.4142135623731
 10
-3875.399798419023
 20
1166.500148463894
 42
0.4142135623731
  0
LWPOLYLINE
  5
D2
330
1F
100
AcDbEntity
  8
0-B_寸法
  6
Continuous
 62
     7
370
     9
100
AcDbPolyline
 90
        4
 70
     1
 43
3.0
 10
-4666.899798419025
 20
1168.000148463894
 42
0.4142135623731
 10
-4668.399798419025
 20
1169.500148463894
 42
0.4142135623731
 10
-4669.899798419026
 20
1168.000148463894
 42
0.4142135623731
 10
-4668.399798419025
 20
1166.500148463894
 42
0.4142135623731
  0
LINE
  5
D3
330
1F
100
AcDbEntity
  8
0-B_寸法
  6
Continuous
 62
   120
370
     5
100
AcDbLine
 10
2706.400212468327
 20
1168.000148463894
 30
0.0
 11
2706.400212468327
 21
1368.000148463894
 31
0.0
  0
LINE
  5
D4
330
1F
100
AcDbEntity
  8
0-B_寸法
  6
Continuous
 62
   120
370
     5
100
AcDbLine
 10
2026.400212468328
 20
1168.000148463894
 30
0.0
 11
2706.400212468327
 21
1168.000148463894
 31
0.0
  0
LINE
  5
D5
330
1F
100
AcDbEntity
  8
0-B_寸法
  6
Continuous
 62
   120
370
     5
100
AcDbLine
 10
2026.400212468328
 20
1168.000148463894
 30
0.0
 11
2026.400212468328
 21
1368.000148463894
 31
0.0
  0
LINE
  5
D6
330
1F
100
AcDbEntity
  8
0-B_寸法
  6
Continuous
 62
   120
370
     5
100
AcDbLine
 10
497.8000851192985
 20
1168.000148463894
 30
0.0
 11
497.8000851192985
 21
1368.000148463894
 31
0.0
  0
LINE
  5
D7
330
1F
100
AcDbEntity
  8
0-B_寸法
  6
Continuous
 62
   120
370
     5
100
AcDbLine
 10
-205.1999148806999
 20
1168.000148463894
 30
0.0
 11
497.8000851192985
 21
1168.000148463894
 31
0.0
  0
LINE
  5
D8
330
1F
100
AcDbEntity
  8
0-B_寸法
  6
Continuous
 62
   120
370
     5
100
AcDbLine
 10
-205.1999148806999
 20
1168.000148463894
 30
0.0
 11
-205.1999148806999
 21
1368.000148463894
 31
0.0
  0
LINE
  5
D9
330
1F
100
AcDbEntity
  8
0-B_寸法
  6
Continuous
 62
   120
370
     5
100
AcDbLine
 10
-2436.799671069995
 20
1168.000148463894
 30
0.0
 11
-2436.799671069995
 21
1368.000148463894
 31
0.0
  0
LINE
  5
DA
330
1F
100
AcDbEntity
  8
0-B_寸法
  6
Continuous
 62
   120
370
     5
100
AcDbLine
 10
-3875.399798419023
 20
1168.000148463894
 30
0.0
 11
-3875.399798419023
 21
1368.000148463894
 31
0.0
  0
LINE
  5
DB
330
1F
100
AcDbEntity
  8
0-B_寸法
  6
Continuous
 62
   120
370
     5
100
AcDbLine
 10
-4668.399798419025
 20
1168.000148463894
 30
0.0
 11
-3875.399798419023
 21
1168.000148463894
 31
0.0
  0
LINE
  5
DC
330
1F
100
AcDbEntity
  8
0-B_寸法
  6
Continuous
 62
   120
370
     5
100
AcDbLine
 10
-4668.399798419025
 20
1168.000148463894
 30
0.0
 11
-4668.399798419025
 21
1368.000148463894
 31
0.0
  0
LINE
  5
DD
330
1F
100
AcDbEntity
  8
0-0_補助線
  6
JWW_HOJO
 62
     7
370
     9
100
AcDbLine
 10
-4697.399798419023
 20
3964.999818544131
 30
0.0
 11
-4697.399798419023
 21
-3790.000179909372
 31
0.0
  0
LINE
  5
DE
330
1F
100
AcDbEntity
  8
0-0_補助線
  6
JWW_HOJO
 62
   120
370
     5
100
AcDbLine
 10
-4747.399798419023
 20
3964.999818544131
 30
0.0
 11
-4747.399798419023
 21
-3790.000179909372
 31
0.0
  0
LINE
  5
DF
330
1F
100
AcDbEntity
  8
0-0_補助線
  6
JWW_HOJO
 62
     7
370
     9
100
AcDbLine
 10
-2465.799671069994
 20
3964.999818544131
 30
0.0
 11
-2465.799671069994
 21
-3790.000179909372
 31
0.0
  0
LINE
  5
E0
330
1F
100
AcDbEntity
  8
0-0_補助線
  6
JWW_HOJO
 62
   120
370
     5
100
AcDbLine
 10
-2515.799671069995
 20
3964.999818544131
 30
0.0
 11
-2515.799671069995
 21
-3790.000179909372
 31
0.0
  0
LINE
  5
E1
330
1F
100
AcDbEntity
  8
0-0_補助線
  6
JWW_HOJO
 62
     7
370
     9
100
AcDbLine
 10
-234.1999148807008
 20
3964.999818544131
 30
0.0
 11
-234.1999148807008
 21
-3790.000179909372
 31
0.0
  0
LINE
  5
E2
330
1F
100
AcDbEntity
  8
0-0_補助線
  6
JWW_HOJO
 62
   120
370
     5
100
AcDbLine
 10
-284.1999148807014
 20
3964.999818544131
 30
0.0
 11
-284.1999148807014
 21
-3790.000179909372
 31
0.0
  0
LINE
  5
E3
330
1F
100
AcDbEntity
  8
0-0_補助線
  6
JWW_HOJO
 62
     7
370
     9
100
AcDbLine
 10
1997.400212468327
 20
3964.999818544131
 30
0.0
 11
1997.400212468327
 21
-3790.000179909372
 31
0.0
  0
LINE
  5
E4
330
1F
100
AcDbEntity
  8
0-0_補助線
  6
JWW_HOJO
 62
   120
370
     5
100
AcDbLine
 10
1947.400212468327
 20
3964.999818544131
 30
0.0
 11
1947.400212468327
 21
-3790.000179909372
 31
0.0
  0
MTEXT
  5
E5
330
1F
100
AcDbEntity
  8
0-B_寸法
  6
Continuous
 62
     7
370
    70
100
AcDbMText
 10
-5012.399798419023
 20
2225.325148463893
 30
0.0
 40
57.14999999999999
 41
412.5
 46
0.0
 71
     7
 72
     1
  1
{\fＭＳ ゴシック|b0|i0|c128|p49;ＤＨ＝1,995}
 11
6.123031769111886E-17
 21
1.0
 31
0.0
 73
     1
 44
1.0
  0
MTEXT
  5
E6
330
1F
100
AcDbEntity
  8
0-B_寸法
  6
Continuous
 62
     7
370
    70
100
AcDbMText
 10
-2780.799671069994
 20
2225.325148463893
 30
0.0
 40
57.14999999999999
 41
412.5
 46
0.0
 71
     7
 72
     1
  1
{\fＭＳ ゴシック|b0|i0|c128|p49;ＤＨ＝1,995}
 11
6.123031769111886E-17
 21
1.0
 31
0.0
 73
     1
 44
1.0
  0
MTEXT
  5
E7
330
1F
100
AcDbEntity
  8
0-B_寸法
  6
Continuous
 62
     7
370
    70
100
AcDbMText
 10
-549.1999148807008
 20
2225.325148463893
 30
0.0
 40
57.14999999999999
 41
412.5
 46
0.0
 71
     7
 72
     1
  1
{\fＭＳ ゴシック|b0|i0|c128|p49;ＤＨ＝1,995}
 11
6.123031769111886E-17
 21
1.0
 31
0.0
 73
     1
 44
1.0
  0
MTEXT
  5
E8
330
1F
100
AcDbEntity
  8
0-B_寸法
  6
Continuous
 62
     7
370
    70
100
AcDbMText
 10
1682.400212468327
 20
2225.325148463893
 30
0.0
 40
57.14999999999999
 41
412.5
 46
0.0
 71
     7
 72
     1
  1
{\fＭＳ ゴシック|b0|i0|c128|p49;ＤＨ＝1,995}
 11
6.123031769111886E-17
 21
1.0
 31
0.0
 73
     1
 44
1.0
  0
MTEXT
  5
E9
330
1F
100
AcDbEntity
  8
0-B_寸法
  6
Continuous
 62
     7
370
    70
100
AcDbMText
 10
-4440.649798419025
 20
1174.075148463894
 30
0.0
 40
57.15
 41
337.5
 46
0.0
 71
     7
 72
     1
  1
{\fＭＳ ゴシック|b0|i0|c128|p49;ＤＷ＝793}
 73
     1
 44
1.0
  0
MTEXT
  5
EA
330
1F
100
AcDbEntity
  8
0-B_寸法
  6
Continuous
 62
     7
370
    70
100
AcDbMText
 10
-2244.549671069994
 20
1174.075148463894
 30
0.0
 40
57.15
 41
337.5
 46
0.0
 71
     7
 72
     1
  1
{\fＭＳ ゴシック|b0|i0|c128|p49;ＤＷ＝723}
 73
     1
 44
1.0
  0
MTEXT
  5
EB
330
1F
100
AcDbEntity
  8
0-B_寸法
  6
Continuous
 62
     7
370
    70
100
AcDbMText
 10
-22.4499148807007
 20
1174.075148463894
 30
0.0
 40
57.15
 41
337.5
 46
0.0
 71
     7
 72
     1
  1
{\fＭＳ ゴシック|b0|i0|c128|p49;ＤＷ＝703}
 73
     1
 44
1.0
  0
MTEXT
  5
EC
330
1F
100
AcDbEntity
  8
0-B_寸法
  6
Continuous
 62
     7
370
    70
100
AcDbMText
 10
2197.650212468327
 20
1174.075148463894
 30
0.0
 40
57.15
 41
337.5
 46
0.0
 71
     7
 72
     1
  1
{\fＭＳ ゴシック|b0|i0|c128|p49;ＤＷ＝680}
 73
     1
 44
1.0
  0
MTEXT
  5
ED
330
1F
100
AcDbEntity
  8
F-A_文字
  6
Continuous
 62
     7
370
     9
100
AcDbMText
 10
-5890.000004381747
 20
4018.575148463894
 30
0.0
 40
57.15
 41
300.0
 46
0.0
 71
     7
 72
     1
  1
{\fＭＳ ゴシック|b0|i0|c128|p49;デザイン}
 73
     1
 44
1.0
  0
MTEXT
  5
EE
330
1F
100
AcDbEntity
  8
F-A_文字
  6
Continuous
 62
     7
370
     9
100
AcDbMText
 10
-5852.500004381747
 20
2031.325062684755
 30
0.0
 40
57.15
 41
225.0
 46
0.0
 71
     7
 72
     1
  1
{\fＭＳ ゴシック|b0|i0|c128|p49;姿　図}
 73
     1
 44
1.0
  0
MTEXT
  5
EF
330
1F
100
AcDbEntity
  8
F-A_文字
  6
Continuous
 62
     7
370
     9
100
AcDbMText
 10
-5890.000004381747
 20
38.07493236644844
 30
0.0
 40
57.15
 41
300.0
 46
0.0
 71
     7
 72
     1
  1
{\fＭＳ ゴシック|b0|i0|c128|p49;デザイン}
 73
     1
 44
1.0
  0
MTEXT
  5
F0
330
1F
100
AcDbEntity
  8
F-A_文字
  6
Continuous
 62
     7
370
     9
100
AcDbMText
 10
-5852.500004381747
 20
-1949.175091552734
 30
0.0
 40
57.15
 41
225.0
 46
0.0
 71
     7
 72
     1
  1
{\fＭＳ ゴシック|b0|i0|c128|p49;姿　図}
 73
     1
 44
1.0
  0
MTEXT
  5
F1
330
1F
100
AcDbEntity
  8
F-A_文字
  6
Continuous
 62
     7
370
     0
100
AcDbMText
 10
-60.0001237199109
 20
-3887.139820871936
 30
0.0
 40
45.72
 41
180.0
 46
0.0
 71
     7
 72
     1
  1
{\fＭＳ ゴシック|b0|i0|c128|p49;図面名}
 73
     1
 44
1.0
  0
MTEXT
  5
F2
330
1F
100
AcDbEntity
  8
F-A_文字
  6
Continuous
 62
     7
370
     0
100
AcDbMText
 10
2779.998729808911
 20
-3887.142460617774
 30
0.0
 40
45.72
 41
300.0
 46
0.0
 71
     7
 72
     1
  1
{\fＭＳ ゴシック|b0|i0|c128|p49;ＳＣＡＬＥ}
 73
     1
 44
1.0
  0
MTEXT
  5
F3
330
1F
100
AcDbEntity
  8
F-A_文字
  6
Continuous
 62
     7
370
     0
100
AcDbMText
 10
4279.999224688556
 20
-3887.143854850754
 30
0.0
 40
45.72
 41
240.0
 46
0.0
 71
     7
 72
     1
  1
{\fＭＳ ゴシック|b0|i0|c128|p49;ＤＡＴＥ}
 73
     1
 44
1.0
  0
MTEXT
  5
F4
330
1F
100
AcDbEntity
  8
F-A_文字
  6
Continuous
 62
     7
370
     0
100
AcDbMText
 10
1180.417701903719
 20
-3946.423911599839
 30
0.0
 40
77.15249999999999
 41
405.0
 46
0.0
 71
     7
 72
     1
  1
{\fＭＳ ゴシック|b0|i0|c128|p49;建具姿図}
 73
     1
 44
1.0
  0
MTEXT
  5
F5
330
1F
100
AcDbEntity
  8
F-A_文字
  6
Continuous
 62
     7
370
     0
100
AcDbMText
 10
349.9999175200594
 20
-3946.496666872502
 30
0.0
 40
78.58125
 41
412.5
 46
0.0
 71
     7
 72
     1
  1
{\fＭＳ ゴシック|b0|i0|c128|p49;DOORETUS}
 73
     1
 44
1.0
  0
MTEXT
  5
F6
330
1F
100
AcDbEntity
  8
F-A_文字
  6
Continuous
 62
     7
370
     0
100
AcDbMText
 10
2779.998729808911
 20
-4087.14246317786
 30
0.0
 40
45.72
 41
240.0
 46
0.0
 71
     7
 72
     1
  1
{\fＭＳ ゴシック|b0|i0|c128|p49;ＦＩＬＥ}
 73
     1
 44
1.0
  0
MTEXT
  5
F7
330
1F
100
AcDbEntity
  8
F-A_文字
  6
Continuous
 62
     7
370
     0
100
AcDbMText
 10
4279.999224688556
 20
-4087.143857410839
 30
0.0
 40
45.72
 41
180.0
 46
0.0
 71
     7
 72
     1
  1
{\fＭＳ ゴシック|b0|i0|c128|p49;ＮＯ．}
 73
     1
 44
1.0
  0
MTEXT
  5
F8
330
1F
100
AcDbEntity
  8
F-A_文字
  6
Continuous
 62
     7
370
     0
100
AcDbMText
 10
1234.998729808911
 20
-4096.140669266149
 30
0.0
 40
45.72
 41
120.0
 46
0.0
 71
     7
 72
     1
  1
{\fＭＳ ゴシック|b0|i0|c128|p49;株式}
 73
     1
 44
1.0
  0
MTEXT
  5
F9
330
1F
100
AcDbEntity
  8
F-A_文字
  6
Continuous
 62
     7
370
     9
100
AcDbMText
 10
4936.249033580831
 20
-4147.857012699985
 30
0.0
 40
74.295
 41
97.5
 46
0.0
 71
     7
 72
     1
  1
{\fＭＳ ゴシック|b0|i0|c128|p49;01}
 73
     1
 44
1.0
  0
MTEXT
  5
FA
330
1F
100
AcDbEntity
  8
F-A_文字
  6
Continuous
 62
     7
370
     0
100
AcDbMText
 10
1444.998729808911
 20
-4164.281754523929
 30
0.0
 40
101.44125
 41
1065.0
 46
0.0
 71
     7
 72
     1
  1
{\fＭＳ ゴシック|b0|i0|c128|p49;ウッドワン・・・}
 73
     1
 44
1.0
  0
MTEXT
  5
FB
330
1F
100
AcDbEntity
  8
F-A_文字
  6
Continuous
 62
     7
370
     0
100
AcDbMText
 10
1234.998729808911
 20
-4168.140669266187
 30
0.0
 40
45.72
 41
120.0
 46
0.0
 71
     7
 72
     1
  1
{\fＭＳ ゴシック|b0|i0|c128|p49;会社}
 73
     1
 44
1.0
  0
MTEXT
  5
FC
330
1F
100
AcDbEntity
  8
F-A_文字
  6
Continuous
 62
     7
370
     0
100
AcDbMText
 10
5608.403311109712
 20
-4314.841419020919
 30
0.0
 40
68.58
 41
90.0
 46
0.0
 71
     7
 72
     1
  1
{\fＭＳ ゴシック|b0|i0|c128|p49;）}
 73
     1
 44
1.0
  0
MTEXT
  5
FD
330
1F
100
AcDbEntity
  8
F-A_文字
  6
Continuous
 62
     7
370
     0
100
AcDbMText
 10
5190.195950842071
 20
-4316.235443869856
 30
0.0
 40
68.58
 41
45.0
 46
0.0
 71
     7
 72
     1
  1
{\fＭＳ ゴシック|b0|i0|c128|p49;,}
 73
     1
 44
1.0
  0
MTEXT
  5
FE
330
1F
100
AcDbEntity
  8
F-A_文字
  6
Continuous
 62
     7
370
     0
100
AcDbMText
 10
4923.937261915373
 20
-4314.771967288282
 30
0.0
 40
74.295
 41
97.5
 46
0.0
 71
     7
 72
     1
  1
{\fＭＳ ゴシック|b0|i0|c128|p49;$y}
 73
     1
 44
1.0
  0
MTEXT
  5
FF
330
1F
100
AcDbEntity
  8
F-A_文字
  6
Continuous
 62
     7
370
     0
100
AcDbMText
 10
5078.673982954195
 20
-4314.771967288282
 30
0.0
 40
74.295
 41
97.5
 46
0.0
 71
     7
 72
     1
  1
{\fＭＳ ゴシック|b0|i0|c128|p49;$m}
 73
     1
 44
1.0
  0
MTEXT
  5
100
330
1F
100
AcDbEntity
  8
F-A_文字
  6
Continuous
 62
     7
370
     0
100
AcDbMText
 10
5233.410715437103
 20
-4314.771967288282
 30
0.0
 40
74.295
 41
97.5
 46
0.0
 71
     7
 72
     1
  1
{\fＭＳ ゴシック|b0|i0|c128|p49;$d}
 73
     1
 44
1.0
  0
MTEXT
  5
101
330
1F
100
AcDbEntity
  8
F-A_文字
  6
Continuous
 62
     7
370
     0
100
AcDbMText
 10
5388.147447920011
 20
-4314.771967288282
 30
0.0
 40
74.295
 41
195.0
 46
0.0
 71
     7
 72
     1
  1
{\fＭＳ ゴシック|b0|i0|c128|p49;印刷}
 73
     1
 44
1.0
  0
MTEXT
  5
102
330
1F
100
AcDbEntity
  8
F-A_文字
  6
Continuous
 62
     7
370
     0
100
AcDbMText
 10
4784.033374252999
 20
-4319.023493567732
 30
0.0
 40
68.58
 41
90.0
 46
0.0
 71
     7
 72
     1
  1
{\fＭＳ ゴシック|b0|i0|c128|p49;（}
 73
     1
 44
1.0
  0
MTEXT
  5
103
330
1F
100
AcDbEntity
  8
F-A_文字
  6
Continuous
 62
     7
370
     0
100
AcDbMText
 10
5031.277143812345
 20
-4319.023493567732
 30
0.0
 40
68.58
 41
45.0
 46
0.0
 71
     7
 72
     1
  1
{\fＭＳ ゴシック|b0|i0|c128|p49;,}
 73
     1
 44
1.0
  0
LINE
  5
104
330
1F
100
AcDbEntity
  8
0-0_補助線
  6
JWW_HOJO
 62
   120
370
     5
100
AcDbLine
 10
-5999.99998453501
 20
670.5001831054692
 30
0.0
 11
5699.998762800888
 21
670.5001831054692
 31
0.0
  0
LINE
  5
105
330
1F
100
AcDbEntity
  8
0-0_補助線
  6
JWW_HOJO
 62
   120
370
     5
100
AcDbLine
 10
-5999.99998453501
 20
550.5001831054688
 30
0.0
 11
5699.998762800888
 21
550.5001831054688
 31
0.0
  0
LINE
  5
106
330
1F
100
AcDbEntity
  8
0-0_補助線
  6
JWW_HOJO
 62
   120
370
     5
100
AcDbLine
 10
-5999.99998453501
 20
430.5001831054688
 30
0.0
 11
5699.998762800888
 21
430.5001831054688
 31
0.0
  0
LINE
  5
107
330
1F
100
AcDbEntity
  8
0-0_補助線
  6
JWW_HOJO
 62
   120
370
     5
100
AcDbLine
 10
-5999.99998453501
 20
310.5001831054688
 30
0.0
 11
5699.998762800888
 21
310.5001831054688
 31
0.0
  0
LINE
  5
108
330
1F
100
AcDbEntity
  8
0-0_補助線
  6
JWW_HOJO
 62
   120
370
     5
100
AcDbLine
 10
-906.7996710699953
 20
4174.999769056166
 30
0.0
 11
-906.7996710699953
 21
-3790.000179909371
 31
0.0
  0
LINE
  5
109
330
1F
100
AcDbEntity
  8
0-0_補助線
  6
JWW_HOJO
 62
   120
370
     5
100
AcDbLine
 10
1324.8000851193
 20
4174.999769056166
 30
0.0
 11
1324.8000851193
 21
-3790.000179909371
 31
0.0
  0
LINE
  5
10A
330
1F
100
AcDbEntity
  8
0-0_補助線
  6
JWW_HOJO
 62
   120
370
     5
100
AcDbLine
 10
3556.400212468328
 20
4174.999769056166
 30
0.0
 11
3556.400212468328
 21
-3790.000179909371
 31
0.0
  0
LINE
  5
10B
330
1F
100
AcDbEntity
  8
0-0_補助線
  6
JWW_HOJO
 62
   120
370
     5
100
AcDbLine
 10
5699.998762800888
 20
-3310.000017526988
 30
0.0
 11
-5999.99998453501
 21
-3310.000017526988
 31
0.0
  0
LINE
  5
10C
330
1F
100
AcDbEntity
  8
0-0_補助線
  6
JWW_HOJO
 62
   120
370
     5
100
AcDbLine
 10
5699.998762800888
 20
-3430.000017526988
 30
0.0
 11
-5999.99998453501
 21
-3430.000017526988
 31
0.0
  0
LINE
  5
10D
330
1F
100
AcDbEntity
  8
0-0_補助線
  6
JWW_HOJO
 62
   120
370
     5
100
AcDbLine
 10
5699.998762800888
 20
-3550.000017526988
 30
0.0
 11
-5999.99998453501
 21
-3550.000017526988
 31
0.0
  0
LINE
  5
10E
330
1F
100
AcDbEntity
  8
0-0_補助線
  6
JWW_HOJO
 62
   120
370
     5
100
AcDbLine
 10
5699.998762800888
 20
-3670.000017526988
 30
0.0
 11
-5999.99998453501
 21
-3670.000017526988
 31
0.0
  0
LINE
  5
10F
330
1F
100
AcDbEntity
  8
0-0_補助線
  6
JWW_HOJO
 62
   120
370
     5
100
AcDbLine
 10
-3138.399798419025
 20
4174.999769056166
 30
0.0
 11
-3138.399798419025
 21
-3790.000179909371
 31
0.0
  0
LINE
  5
110
330
1F
100
AcDbEntity
  8
0-0_補助線
  6
JWW_HOJO
 62
   120
370
     5
100
AcDbLine
 10
-5370.000018557986
 20
4174.999769056166
 30
0.0
 11
-5370.000018557986
 21
-3790.000179909371
 31
0.0
  0
MTEXT
  5
111
330
1F
100
AcDbEntity
  8
F-A_文字
  6
Continuous
 62
     7
370
     0
100
AcDbMText
 10
3383.748977248734
 20
-3946.426865907308
 30
0.0
 40
77.15249999999999
 41
202.5
 46
0.0
 71
     7
 72
     1
  1
{\fＭＳ ゴシック|b0|i0|c128|p49;1/30}
 73
     1
 44
1.0
  0
MTEXT
  5
112
330
1F
100
AcDbEntity
  8
0-A_文字
  6
Continuous
 62
     7
370
     9
100
AcDbMText
 10
-5370.000018557986
 20
661.5751831054688
 30
0.0
 40
57.15000000000003
 41
900.0
 46
0.0
 71
     7
 72
     1
  1
{\fＭＳ ゴシック|b0|i0|c128|p49;枠外幅 848mm（DW=793mm）}
 73
     1
 44
1.0
  0
MTEXT
  5
113
330
1F
100
AcDbEntity
  8
0-A_文字
  6
Continuous
 62
     7
370
     9
100
AcDbMText
 10
-3138.399798419025
 20
661.5751831054688
 30
0.0
 40
57.15000000000003
 41
900.0
 46
0.0
 71
     7
 72
     1
  1
{\fＭＳ ゴシック|b0|i0|c128|p49;枠外幅 778mm（DW=723mm）}
 73
     1
 44
1.0
  0
MTEXT
  5
114
330
1F
100
AcDbEntity
  8
0-A_文字
  6
Continuous
 62
     7
370
     9
100
AcDbMText
 10
-906.7996710699953
 20
661.5751831054688
 30
0.0
 40
57.15000000000003
 41
900.0
 46
0.0
 71
     7
 72
     1
  1
{\fＭＳ ゴシック|b0|i0|c128|p49;枠外幅 758mm（DW=703mm）}
 73
     1
 44
1.0
  0
MTEXT
  5
115
330
1F
100
AcDbEntity
  8
0-A_文字
  6
Continuous
 62
     7
370
     9
100
AcDbMText
 10
1324.8000851193
 20
661.5751831054688
 30
0.0
 40
57.15000000000003
 41
900.0
 46
0.0
 71
     7
 72
     1
  1
{\fＭＳ ゴシック|b0|i0|c128|p49;枠外幅 735mm（DW=680mm）}
 73
     1
 44
1.0
  0
LINE
  5
116
330
1F
100
AcDbEntity
  8
0-A_文字
  6
Continuous
 62
     7
370
     9
100
AcDbLine
 10
-5450.000018557986
 20
-55.50015011349217
 30
0.0
 11
-4915.67460317461
 21
-55.50015011349217
 31
0.0
  0
LINE
  5
117
330
1F
100
AcDbEntity
  8
0-A_文字
  6
Continuous
 62
     7
370
     9
100
AcDbLine
 10
-4915.67460317461
 20
-55.50015011349217
 30
0.0
 11
-4915.67460317461
 21
-205.5001501134922
 31
0.0
  0
LINE
  5
118
330
1F
100
AcDbEntity
  8
0-A_文字
  6
Continuous
 62
     7
370
     9
100
AcDbLine
 10
-5450.000018557986
 20
-205.5001501134922
 30
0.0
 11
-4915.67460317461
 21
-205.5001501134922
 31
0.0
  0
LINE
  5
119
330
1F
100
AcDbEntity
  8
0-A_文字
  6
Continuous
 62
     7
370
     9
100
AcDbLine
 10
-5450.000018557986
 20
-55.50015011349217
 30
0.0
 11
-5450.000018557986
 21
-205.5001501134922
 31
0.0
  0
LINE
  5
11A
330
1F
100
AcDbEntity
  8
0-A_文字
  6
Continuous
 62
     7
370
     9
100
AcDbLine
 10
-5440.000018557986
 20
-65.50015011349215
 30
0.0
 11
-5440.000018557986
 21
-195.5001501134922
 31
0.0
  0
LINE
  5
11B
330
1F
100
AcDbEntity
  8
0-A_文字
  6
Continuous
 62
     7
370
     9
100
AcDbLine
 10
-5440.000018557986
 20
-195.5001501134922
 30
0.0
 11
-4925.67460317461
 21
-195.5001501134922
 31
0.0
  0
LINE
  5
11C
330
1F
100
AcDbEntity
  8
0-A_文字
  6
Continuous
 62
     7
370
     9
100
AcDbLine
 10
-4925.67460317461
 20
-65.50015011349215
 30
0.0
 11
-4925.67460317461
 21
-195.5001501134922
 31
0.0
  0
LINE
  5
11D
330
1F
100
AcDbEntity
  8
0-A_文字
  6
Continuous
 62
     7
370
     9
100
AcDbLine
 10
-5440.000018557986
 20
-65.50015011349215
 30
0.0
 11
-4925.67460317461
 21
-65.50015011349215
 31
0.0
  0
MTEXT
  5
11E
330
1F
100
AcDbEntity
  8
0-A_文字
  6
Continuous
 62
     7
370
     9
100
AcDbMText
 10
-5385.337310866298
 20
-181.9239001134922
 30
0.0
 40
77.15249999999999
 41
405.0
 46
0.0
 71
     7
 72
     1
  1
{\fＭＳ ゴシック|b0|i0|c128|p49;ハイドア}
 73
     1
 44
1.0
  0
LINE
  5
11F
330
1F
100
AcDbEntity
  8
0-A_文字
  6
Continuous
 62
     7
370
     9
100
AcDbLine
 10
-3218.399798419025
 20
-55.50015011349217
 30
0.0
 11
-2684.074383035649
 21
-55.50015011349217
 31
0.0
  0
LINE
  5
120
330
1F
100
AcDbEntity
  8
0-A_文字
  6
Continuous
 62
     7
370
     9
100
AcDbLine
 10
-2684.074383035649
 20
-55.50015011349217
 30
0.0
 11
-2684.074383035649
 21
-205.5001501134922
 31
0.0
  0
LINE
  5
121
330
1F
100
AcDbEntity
  8
0-A_文字
  6
Continuous
 62
     7
370
     9
100
AcDbLine
 10
-3218.399798419025
 20
-205.5001501134922
 30
0.0
 11
-2684.074383035649
 21
-205.5001501134922
 31
0.0
  0
LINE
  5
122
330
1F
100
AcDbEntity
  8
0-A_文字
  6
Continuous
 62
     7
370
     9
100
AcDbLine
 10
-3218.399798419025
 20
-55.50015011349217
 30
0.0
 11
-3218.399798419025
 21
-205.5001501134922
 31
0.0
  0
LINE
  5
123
330
1F
100
AcDbEntity
  8
0-A_文字
  6
Continuous
 62
     7
370
     9
100
AcDbLine
 10
-3208.399798419025
 20
-65.50015011349215
 30
0.0
 11
-3208.399798419025
 21
-195.5001501134922
 31
0.0
  0
LINE
  5
124
330
1F
100
AcDbEntity
  8
0-A_文字
  6
Continuous
 62
     7
370
     9
100
AcDbLine
 10
-3208.399798419025
 20
-195.5001501134922
 30
0.0
 11
-2694.074383035649
 21
-195.5001501134922
 31
0.0
  0
LINE
  5
125
330
1F
100
AcDbEntity
  8
0-A_文字
  6
Continuous
 62
     7
370
     9
100
AcDbLine
 10
-2694.074383035649
 20
-65.50015011349215
 30
0.0
 11
-2694.074383035649
 21
-195.5001501134922
 31
0.0
  0
LINE
  5
126
330
1F
100
AcDbEntity
  8
0-A_文字
  6
Continuous
 62
     7
370
     9
100
AcDbLine
 10
-3208.399798419025
 20
-65.50015011349215
 30
0.0
 11
-2694.074383035649
 21
-65.50015011349215
 31
0.0
  0
MTEXT
  5
127
330
1F
100
AcDbEntity
  8
0-A_文字
  6
Continuous
 62
     7
370
     9
100
AcDbMText
 10
-3153.737090727337
 20
-181.9239001134922
 30
0.0
 40
77.15249999999999
 41
405.0
 46
0.0
 71
     7
 72
     1
  1
{\fＭＳ ゴシック|b0|i0|c128|p49;ハイドア}
 73
     1
 44
1.0
  0
LINE
  5
128
330
1F
100
AcDbEntity
  8
0-A_文字
  6
Continuous
 62
     7
370
     9
100
AcDbLine
 10
-986.7996710699949
 20
-55.50015011349217
 30
0.0
 11
-452.4742556866192
 21
-55.50015011349217
 31
0.0
  0
LINE
  5
129
330
1F
100
AcDbEntity
  8
0-A_文字
  6
Continuous
 62
     7
370
     9
100
AcDbLine
 10
-452.4742556866192
 20
-55.50015011349217
 30
0.0
 11
-452.4742556866192
 21
-205.5001501134922
 31
0.0
  0
LINE
  5
12A
330
1F
100
AcDbEntity
  8
0-A_文字
  6
Continuous
 62
     7
370
     9
100
AcDbLine
 10
-986.7996710699949
 20
-205.5001501134922
 30
0.0
 11
-452.4742556866192
 21
-205.5001501134922
 31
0.0
  0
LINE
  5
12B
330
1F
100
AcDbEntity
  8
0-A_文字
  6
Continuous
 62
     7
370
     9
100
AcDbLine
 10
-986.7996710699949
 20
-55.50015011349217
 30
0.0
 11
-986.7996710699949
 21
-205.5001501134922
 31
0.0
  0
LINE
  5
12C
330
1F
100
AcDbEntity
  8
0-A_文字
  6
Continuous
 62
     7
370
     9
100
AcDbLine
 10
-976.7996710699947
 20
-65.50015011349215
 30
0.0
 11
-976.7996710699947
 21
-195.5001501134922
 31
0.0
  0
LINE
  5
12D
330
1F
100
AcDbEntity
  8
0-A_文字
  6
Continuous
 62
     7
370
     9
100
AcDbLine
 10
-976.7996710699947
 20
-195.5001501134922
 30
0.0
 11
-462.4742556866196
 21
-195.5001501134922
 31
0.0
  0
LINE
  5
12E
330
1F
100
AcDbEntity
  8
0-A_文字
  6
Continuous
 62
     7
370
     9
100
AcDbLine
 10
-462.4742556866196
 20
-65.50015011349215
 30
0.0
 11
-462.4742556866196
 21
-195.5001501134922
 31
0.0
  0
LINE
  5
12F
330
1F
100
AcDbEntity
  8
0-A_文字
  6
Continuous
 62
     7
370
     9
100
AcDbLine
 10
-976.7996710699947
 20
-65.50015011349215
 30
0.0
 11
-462.4742556866196
 21
-65.50015011349215
 31
0.0
  0
MTEXT
  5
130
330
1F
100
AcDbEntity
  8
0-A_文字
  6
Continuous
 62
     7
370
     9
100
AcDbMText
 10
-922.1369633783075
 20
-181.9239001134922
 30
0.0
 40
77.15249999999999
 41
405.0
 46
0.0
 71
     7
 72
     1
  1
{\fＭＳ ゴシック|b0|i0|c128|p49;ハイドア}
 73
     1
 44
1.0
  0
LINE
  5
131
330
1F
100
AcDbEntity
  8
0-A_文字
  6
Continuous
 62
     7
370
     9
100
AcDbLine
 10
1244.8000851193
 20
-55.50015011349217
 30
0.0
 11
1779.125500502676
 21
-55.50015011349217
 31
0.0
  0
LINE
  5
132
330
1F
100
AcDbEntity
  8
0-A_文字
  6
Continuous
 62
     7
370
     9
100
AcDbLine
 10
1779.125500502676
 20
-55.50015011349217
 30
0.0
 11
1779.125500502676
 21
-205.5001501134922
 31
0.0
  0
LINE
  5
133
330
1F
100
AcDbEntity
  8
0-A_文字
  6
Continuous
 62
     7
370
     9
100
AcDbLine
 10
1244.8000851193
 20
-205.5001501134922
 30
0.0
 11
1779.125500502676
 21
-205.5001501134922
 31
0.0
  0
LINE
  5
134
330
1F
100
AcDbEntity
  8
0-A_文字
  6
Continuous
 62
     7
370
     9
100
AcDbLine
 10
1244.8000851193
 20
-55.50015011349217
 30
0.0
 11
1244.8000851193
 21
-205.5001501134922
 31
0.0
  0
LINE
  5
135
330
1F
100
AcDbEntity
  8
0-A_文字
  6
Continuous
 62
     7
370
     9
100
AcDbLine
 10
1254.800085119301
 20
-65.50015011349215
 30
0.0
 11
1254.800085119301
 21
-195.5001501134922
 31
0.0
  0
LINE
  5
136
330
1F
100
AcDbEntity
  8
0-A_文字
  6
Continuous
 62
     7
370
     9
100
AcDbLine
 10
1254.800085119301
 20
-195.5001501134922
 30
0.0
 11
1769.125500502676
 21
-195.5001501134922
 31
0.0
  0
LINE
  5
137
330
1F
100
AcDbEntity
  8
0-A_文字
  6
Continuous
 62
     7
370
     9
100
AcDbLine
 10
1769.125500502676
 20
-65.50015011349215
 30
0.0
 11
1769.125500502676
 21
-195.5001501134922
 31
0.0
  0
LINE
  5
138
330
1F
100
AcDbEntity
  8
0-A_文字
  6
Continuous
 62
     7
370
     9
100
AcDbLine
 10
1254.800085119301
 20
-65.50015011349215
 30
0.0
 11
1769.125500502676
 21
-65.50015011349215
 31
0.0
  0
MTEXT
  5
139
330
1F
100
AcDbEntity
  8
0-A_文字
  6
Continuous
 62
     7
370
     9
100
AcDbMText
 10
1309.462792810988
 20
-181.9239001134922
 30
0.0
 40
77.15249999999999
 41
405.0
 46
0.0
 71
     7
 72
     1
  1
{\fＭＳ ゴシック|b0|i0|c128|p49;ハイドア}
 73
     1
 44
1.0
  0
MTEXT
  5
13A
330
1F
100
AcDbEntity
  8
0-A_文字
  6
Continuous
 62
     7
370
     9
100
AcDbMText
 10
-5370.000018557986
 20
-3438.925017526989
 30
0.0
 40
57.15000000000003
 41
900.0
 46
0.0
 71
     7
 72
     1
  1
{\fＭＳ ゴシック|b0|i0|c128|p49;枠外幅 848mm（DW=793mm）}
 73
     1
 44
1.0
  0
MTEXT
  5
13B
330
1F
100
AcDbEntity
  8
0-A_文字
  6
Continuous
 62
     7
370
     9
100
AcDbMText
 10
-3138.399798419025
 20
-3438.925017526989
 30
0.0
 40
57.15000000000003
 41
900.0
 46
0.0
 71
     7
 72
     1
  1
{\fＭＳ ゴシック|b0|i0|c128|p49;枠外幅 778mm（DW=723mm）}
 73
     1
 44
1.0
  0
MTEXT
  5
13C
330
1F
100
AcDbEntity
  8
0-A_文字
  6
Continuous
 62
     7
370
     9
100
AcDbMText
 10
-906.7996710699953
 20
-3438.925017526989
 30
0.0
 40
57.15000000000003
 41
900.0
 46
0.0
 71
     7
 72
     1
  1
{\fＭＳ ゴシック|b0|i0|c128|p49;枠外幅 758mm（DW=703mm）}
 73
     1
 44
1.0
  0
MTEXT
  5
13D
330
1F
100
AcDbEntity
  8
0-A_文字
  6
Continuous
 62
     7
370
     9
100
AcDbMText
 10
1324.8000851193
 20
-3438.925017526989
 30
0.0
 40
57.15000000000003
 41
900.0
 46
0.0
 71
     7
 72
     1
  1
{\fＭＳ ゴシック|b0|i0|c128|p49;枠外幅 735mm（DW=680mm）}
 73
     1
 44
1.0
  0
LINE
  5
13E
330
1F
100
AcDbEntity
  8
0-0_補助線
  6
JWW_HOJO
 62
     7
370
     9
100
AcDbLine
 10
4229.000339817356
 20
3964.999818544131
 30
0.0
 11
4229.000339817356
 21
-3790.000179909372
 31
0.0
  0
LINE
  5
13F
330
1F
100
AcDbEntity
  8
0-0_補助線
  6
JWW_HOJO
 62
   120
370
     5
100
AcDbLine
 10
4179.000339817355
 20
3964.999818544131
 30
0.0
 11
4179.000339817355
 21
-3790.000179909372
 31
0.0
  0
LWPOLYLINE
  5
140
330
1F
100
AcDbEntity
  8
0-B_寸法
  6
Continuous
 62
     7
370
     9
100
AcDbPolyline
 90
        4
 70
     1
 43
3.0
 10
3930.500339817359
 20
-2676.250083820242
 42
0.4142135623731
 10
3929.000339817359
 20
-2674.750083820242
 42
0.4142135623731
 10
3927.500339817359
 20
-2676.250083820242
 42
0.4142135623731
 10
3929.000339817359
 20
-2677.750083820242
 42
0.4142135623731
  0
LINE
  5
141
330
1F
100
AcDbEntity
  8
0-B_寸法
  6
Continuous
 62
   120
370
     5
100
AcDbLine
 10
3929.000339817359
 20
-2676.250083820242
 30
0.0
 11
4179.000339817357
 21
-2676.250083820242
 31
0.0
  0
LINE
  5
142
330
1F
100
AcDbEntity
  8
0-2_扉
  6
Continuous
 62
    92
370
    13
100
AcDbLine
 10
4258.000339817356
 20
-2676.250083820242
 30
0.0
 11
4857.000339817358
 21
-2676.250083820242
 31
0.0
  0
LINE
  5
143
330
1F
100
AcDbEntity
  8
0-4_枠
  6
Continuous
 62
    92
370
    13
100
AcDbLine
 10
4253.000339817358
 20
-2686.250083820241
 30
0.0
 11
4859.000339817359
 21
-2686.250083820241
 31
0.0
  0
LINE
  5
144
330
1F
100
AcDbEntity
  8
0-4_枠
  6
Continuous
 62
    92
370
    13
100
AcDbLine
 10
4229.000339817359
 20
-2701.250083820241
 30
0.0
 11
4883.000339817358
 21
-2701.250083820241
 31
0.0
  0
LWPOLYLINE
  5
145
330
1F
100
AcDbEntity
  8
0-B_寸法
  6
Continuous
 62
     7
370
     9
100
AcDbPolyline
 90
        4
 70
     1
 43
3.0
 10
4858.500339817358
 20
-2951.250083820241
 42
0.4142135623731
 10
4857.000339817358
 20
-2949.750083820241
 42
0.4142135623731
 10
4855.500339817357
 20
-2951.250083820241
 42
0.4142135623731
 10
4857.000339817358
 20
-2952.750083820241
 42
0.4142135623731
  0
LWPOLYLINE
  5
146
330
1F
100
AcDbEntity
  8
0-B_寸法
  6
Continuous
 62
     7
370
     9
100
AcDbPolyline
 90
        4
 70
     1
 43
3.0
 10
4259.500339817357
 20
-2951.250083820241
 42
0.4142135623731
 10
4258.000339817356
 20
-2949.750083820241
 42
0.4142135623731
 10
4256.500339817356
 20
-2951.250083820241
 42
0.4142135623731
 10
4258.000339817356
 20
-2952.750083820241
 42
0.4142135623731
  0
LINE
  5
147
330
1F
100
AcDbEntity
  8
0-B_寸法
  6
Continuous
 62
   120
370
     5
100
AcDbLine
 10
4857.000339817358
 20
-2951.250083820241
 30
0.0
 11
4857.000339817358
 21
-2751.250083820242
 31
0.0
  0
LINE
  5
148
330
1F
100
AcDbEntity
  8
0-B_寸法
  6
Continuous
 62
   120
370
     5
100
AcDbLine
 10
4258.000339817356
 20
-2951.250083820241
 30
0.0
 11
4857.000339817358
 21
-2951.250083820241
 31
0.0
  0
LINE
  5
149
330
1F
100
AcDbEntity
  8
0-B_寸法
  6
Continuous
 62
   120
370
     5
100
AcDbLine
 10
4258.000339817356
 20
-2951.250083820241
 30
0.0
 11
4258.000339817356
 21
-2751.250083820242
 31
0.0
  0
LWPOLYLINE
  5
14A
330
1F
100
AcDbEntity
  8
0-B_寸法
  6
Continuous
 62
     7
370
     9
100
AcDbPolyline
 90
        4
 70
     1
 43
3.0
 10
3930.500339817359
 20
-481.2500838202413
 42
0.4142135623731
 10
3929.000339817359
 20
-479.7500838202413
 42
0.4142135623731
 10
3927.500339817359
 20
-481.2500838202413
 42
0.4142135623731
 10
3929.000339817359
 20
-482.7500838202413
 42
0.4142135623731
  0
LINE
  5
14B
330
1F
100
AcDbEntity
  8
0-B_寸法
  6
Continuous
 62
   120
370
     5
100
AcDbLine
 10
3929.000339817359
 20
-481.2500838202413
 30
0.0
 11
4179.000339817357
 21
-481.2500838202413
 31
0.0
  0
LINE
  5
14C
330
1F
100
AcDbEntity
  8
0-B_寸法
  6
Continuous
 62
   120
370
     5
100
AcDbLine
 10
3929.000339817359
 20
-481.2500838202413
 30
0.0
 11
3929.000339817359
 21
-2676.250083820242
 31
0.0
  0
LINE
  5
14D
330
1F
100
AcDbEntity
  8
0-2_扉
  6
Continuous
 62
    92
370
    13
100
AcDbLine
 10
4258.000339817356
 20
-481.2500838202413
 30
0.0
 11
4857.000339817358
 21
-481.2500838202413
 31
0.0
  0
LINE
  5
14E
330
1F
100
AcDbEntity
  8
0-2_扉
  6
Continuous
 62
    92
370
    13
100
AcDbLine
 10
4857.000339817358
 20
-2676.250083820242
 30
0.0
 11
4857.000339817358
 21
-481.2500838202413
 31
0.0
  0
LINE
  5
14F
330
1F
100
AcDbEntity
  8
0-2_扉
  6
Continuous
 62
    92
370
    13
100
AcDbLine
 10
4258.000339817356
 20
-2676.250083820242
 30
0.0
 11
4258.000339817356
 21
-481.2500838202413
 31
0.0
  0
LINE
  5
150
330
1F
100
AcDbEntity
  8
0-4_枠
  6
Continuous
 62
    92
370
    13
100
AcDbLine
 10
4229.000339817359
 20
-454.2500838202425
 30
0.0
 11
4883.000339817358
 21
-454.2500838202425
 31
0.0
  0
LINE
  5
151
330
1F
100
AcDbEntity
  8
0-4_枠
  6
Continuous
 62
    92
370
    13
100
AcDbLine
 10
4253.000339817358
 20
-478.2500838202415
 30
0.0
 11
4859.000339817359
 21
-478.2500838202415
 31
0.0
  0
LINE
  5
152
330
1F
100
AcDbEntity
  8
0-4_枠
  6
Continuous
 62
    92
370
    13
100
AcDbLine
 10
4859.000339817359
 20
-2701.250083820241
 30
0.0
 11
4859.000339817359
 21
-478.2500838202415
 31
0.0
  0
LINE
  5
153
330
1F
100
AcDbEntity
  8
0-4_枠
  6
Continuous
 62
    92
370
    13
100
AcDbLine
 10
4883.000339817358
 20
-2701.250083820241
 30
0.0
 11
4883.000339817358
 21
-454.2500838202425
 31
0.0
  0
LINE
  5
154
330
1F
100
AcDbEntity
  8
0-4_枠
  6
Continuous
 62
    92
370
    13
100
AcDbLine
 10
4229.000339817359
 20
-2701.250083820241
 30
0.0
 11
4229.000339817359
 21
-454.2500838202425
 31
0.0
  0
LINE
  5
155
330
1F
100
AcDbEntity
  8
0-4_枠
  6
Continuous
 62
    92
370
    13
100
AcDbLine
 10
4253.000339817358
 20
-2701.250083820241
 30
0.0
 11
4253.000339817358
 21
-478.2500838202415
 31
0.0
  0
LINE
  5
156
330
1F
100
AcDbEntity
  8
0-C_ハッチ
  6
JWW_DASHED1
 62
   120
370
     5
100
AcDbLine
 10
4321.722165569317
 20
-663.7292252815412
 30
0.0
 11
4333.479481278659
 21
-651.9719095721995
 31
0.0
  0
LINE
  5
157
330
1F
100
AcDbEntity
  8
0-C_ハッチ
  6
JWW_DASHED1
 62
   120
370
     5
100
AcDbLine
 10
4313.967754458952
 20
-661.5841414552697
 30
0.0
 11
4331.334397452385
 21
-644.2174984618359
 31
0.0
  0
LINE
  5
158
330
1F
100
AcDbEntity
  8
0-C_ハッチ
  6
JWW_DASHED1
 62
   120
370
     5
100
AcDbLine
 10
4309.501235423373
 20
-656.151165554269
 30
0.0
 11
4325.901421551387
 21
-639.7509794262576
 31
0.0
  0
LINE
  5
159
330
1F
100
AcDbEntity
  8
0-C_ハッチ
  6
JWW_DASHED1
 62
   120
370
     5
100
AcDbLine
 10
4309.576210127148
 20
-646.176695913859
 30
0.0
 11
4315.926951910977
 21
-639.825954130031
 31
0.0
  0
MTEXT
  5
15A
330
1F
100
AcDbEntity
  8
0-A_文字
  6
Continuous
 62
     7
370
     9
100
AcDbMText
 10
3541.062920160016
 20
3798.861818544131
 30
0.0
 40
77.724
 41
510.0
 46
0.0
 71
     7
 72
     1
  1
{\fＭＳ ゴシック|b0|i0|c128|p49;トイレドア}
 73
     1
 44
1.0
  0
MTEXT
  5
15B
330
1F
100
AcDbEntity
  8
0-A_文字
  6
Continuous
 62
     7
370
     9
100
AcDbMText
 10
3556.400212468327
 20
661.5751831054688
 30
0.0
 40
57.15000000000003
 41
900.0
 46
0.0
 71
     7
 72
     1
  1
{\fＭＳ ゴシック|b0|i0|c128|p49;枠外幅 654mm（DW=599mm）}
 73
     1
 44
1.0
  0
LINE
  5
15C
330
1F
100
AcDbEntity
  8
0-A_文字
  6
Continuous
 62
     7
370
     9
100
AcDbLine
 10
3476.400212468328
 20
-55.50015011349224
 30
0.0
 11
4010.725627851704
 21
-55.50015011349224
 31
0.0
  0
LINE
  5
15D
330
1F
100
AcDbEntity
  8
0-A_文字
  6
Continuous
 62
     7
370
     9
100
AcDbLine
 10
4010.725627851704
 20
-55.50015011349224
 30
0.0
 11
4010.725627851704
 21
-205.5001501134922
 31
0.0
  0
LINE
  5
15E
330
1F
100
AcDbEntity
  8
0-A_文字
  6
Continuous
 62
     7
370
     9
100
AcDbLine
 10
3476.400212468328
 20
-205.5001501134922
 30
0.0
 11
4010.725627851704
 21
-205.5001501134922
 31
0.0
  0
LINE
  5
15F
330
1F
100
AcDbEntity
  8
0-A_文字
  6
Continuous
 62
     7
370
     9
100
AcDbLine
 10
3476.400212468328
 20
-55.50015011349224
 30
0.0
 11
3476.400212468328
 21
-205.5001501134922
 31
0.0
  0
LINE
  5
160
330
1F
100
AcDbEntity
  8
0-A_文字
  6
Continuous
 62
     7
370
     9
100
AcDbLine
 10
3486.400212468329
 20
-65.5001501134921
 30
0.0
 11
3486.400212468329
 21
-195.5001501134919
 31
0.0
  0
LINE
  5
161
330
1F
100
AcDbEntity
  8
0-A_文字
  6
Continuous
 62
     7
370
     9
100
AcDbLine
 10
3486.400212468329
 20
-195.5001501134919
 30
0.0
 11
4000.725627851704
 21
-195.5001501134919
 31
0.0
  0
LINE
  5
162
330
1F
100
AcDbEntity
  8
0-A_文字
  6
Continuous
 62
     7
370
     9
100
AcDbLine
 10
4000.725627851704
 20
-65.5001501134921
 30
0.0
 11
4000.725627851704
 21
-195.5001501134919
 31
0.0
  0
LINE
  5
163
330
1F
100
AcDbEntity
  8
0-A_文字
  6
Continuous
 62
     7
370
     9
100
AcDbLine
 10
3486.400212468329
 20
-65.5001501134921
 30
0.0
 11
4000.725627851704
 21
-65.5001501134921
 31
0.0
  0
LINE
  5
164
330
1F
100
AcDbEntity
  8
0-A_文字
  6
Continuous
 62
     7
370
     9
100
AcDbLine
 10
3476.400212468328
 20
3924.999818544131
 30
0.0
 11
3476.400212468328
 21
3774.999818544131
 31
0.0
  0
LINE
  5
165
330
1F
100
AcDbEntity
  8
0-A_文字
  6
Continuous
 62
     7
370
     9
100
AcDbLine
 10
3486.400212468329
 20
3914.999818544132
 30
0.0
 11
3486.400212468329
 21
3784.999818544131
 31
0.0
  0
LINE
  5
166
330
1F
100
AcDbEntity
  8
0-A_文字
  6
Continuous
 62
     7
370
     9
100
AcDbLine
 10
3476.400212468328
 20
3924.999818544131
 30
0.0
 11
4107.433850061878
 21
3924.999818544131
 31
0.0
  0
LINE
  5
167
330
1F
100
AcDbEntity
  8
0-A_文字
  6
Continuous
 62
     7
370
     9
100
AcDbLine
 10
4107.433850061878
 20
3924.999818544131
 30
0.0
 11
4107.433850061878
 21
3774.999818544131
 31
0.0
  0
LINE
  5
168
330
1F
100
AcDbEntity
  8
0-A_文字
  6
Continuous
 62
     7
370
     9
100
AcDbLine
 10
3476.400212468328
 20
3774.999818544131
 30
0.0
 11
4107.433850061878
 21
3774.999818544131
 31
0.0
  0
LINE
  5
169
330
1F
100
AcDbEntity
  8
0-A_文字
  6
Continuous
 62
     7
370
     9
100
AcDbLine
 10
3486.400212468329
 20
3784.999818544131
 30
0.0
 11
4097.433850061877
 21
3784.999818544131
 31
0.0
  0
LINE
  5
16A
330
1F
100
AcDbEntity
  8
0-A_文字
  6
Continuous
 62
     7
370
     9
100
AcDbLine
 10
4097.433850061877
 20
3914.999818544132
 30
0.0
 11
4097.433850061877
 21
3784.999818544131
 31
0.0
  0
LINE
  5
16B
330
1F
100
AcDbEntity
  8
0-A_文字
  6
Continuous
 62
     7
370
     9
100
AcDbLine
 10
3486.400212468329
 20
3914.999818544132
 30
0.0
 11
4097.433850061877
 21
3914.999818544132
 31
0.0
  0
LINE
  5
16C
330
1F
100
AcDbEntity
  8
0-C_ハッチ
  6
JWW_DASHED1
 62
   120
370
     5
100
AcDbLine
 10
4309.576210127145
 20
3273.073536370276
 30
0.0
 11
4315.926951910973
 21
3279.424278154104
 31
0.0
  0
LINE
  5
16D
330
1F
100
AcDbEntity
  8
0-C_ハッチ
  6
JWW_DASHED1
 62
   120
370
     5
100
AcDbLine
 10
4313.967754458949
 20
3257.666090828865
 30
0.0
 11
4331.334397452382
 21
3275.032733822299
 31
0.0
  0
LINE
  5
16E
330
1F
100
AcDbEntity
  8
0-C_ハッチ
  6
JWW_DASHED1
 62
   120
370
     5
100
AcDbLine
 10
4321.722165569314
 20
3255.521007002593
 30
0.0
 11
4333.479481278655
 21
3267.278322711935
 31
0.0
  0
LINE
  5
16F
330
1F
100
AcDbEntity
  8
0-C_ハッチ
  6
JWW_DASHED1
 62
   120
370
     5
100
AcDbLine
 10
4309.50123542337
 20
3263.099066729866
 30
0.0
 11
4325.901421551383
 21
3279.499252857877
 31
0.0
  0
LWPOLYLINE
  5
170
330
1F
100
AcDbEntity
  8
0-B_寸法
  6
Continuous
 62
     7
370
     9
100
AcDbPolyline
 90
        4
 70
     1
 43
3.0
 10
3930.500339817356
 20
1443.000148463894
 42
0.4142135623731
 10
3929.000339817355
 20
1444.500148463894
 42
0.4142135623731
 10
3927.500339817355
 20
1443.000148463894
 42
0.4142135623731
 10
3929.000339817355
 20
1441.500148463894
 42
0.4142135623731
  0
LWPOLYLINE
  5
171
330
1F
100
AcDbEntity
  8
0-B_寸法
  6
Continuous
 62
     7
370
     9
100
AcDbPolyline
 90
        4
 70
     1
 43
3.0
 10
3930.500339817356
 20
3438.000148463894
 42
0.4142135623731
 10
3929.000339817355
 20
3439.500148463894
 42
0.4142135623731
 10
3927.500339817355
 20
3438.000148463894
 42
0.4142135623731
 10
3929.000339817355
 20
3436.500148463895
 42
0.4142135623731
  0
LINE
  5
172
330
1F
100
AcDbEntity
  8
0-B_寸法
  6
Continuous
 62
   120
370
     5
100
AcDbLine
 10
3929.000339817355
 20
1443.000148463894
 30
0.0
 11
4179.000339817353
 21
1443.000148463894
 31
0.0
  0
LINE
  5
173
330
1F
100
AcDbEntity
  8
0-B_寸法
  6
Continuous
 62
   120
370
     5
100
AcDbLine
 10
3929.000339817355
 20
3438.000148463894
 30
0.0
 11
4179.000339817353
 21
3438.000148463894
 31
0.0
  0
LINE
  5
174
330
1F
100
AcDbEntity
  8
0-B_寸法
  6
Continuous
 62
   120
370
     5
100
AcDbLine
 10
3929.000339817355
 20
3438.000148463894
 30
0.0
 11
3929.000339817355
 21
1443.000148463894
 31
0.0
  0
LINE
  5
175
330
1F
100
AcDbEntity
  8
0-2_扉
  6
Continuous
 62
    92
370
    13
100
AcDbLine
 10
4258.000339817353
 20
3438.000148463894
 30
0.0
 11
4857.000339817354
 21
3438.000148463894
 31
0.0
  0
LINE
  5
176
330
1F
100
AcDbEntity
  8
0-2_扉
  6
Continuous
 62
    92
370
    13
100
AcDbLine
 10
4857.000339817354
 20
1443.000148463894
 30
0.0
 11
4857.000339817354
 21
3438.000148463894
 31
0.0
  0
LINE
  5
177
330
1F
100
AcDbEntity
  8
0-2_扉
  6
Continuous
 62
    92
370
    13
100
AcDbLine
 10
4258.000339817353
 20
1443.000148463894
 30
0.0
 11
4857.000339817354
 21
1443.000148463894
 31
0.0
  0
LINE
  5
178
330
1F
100
AcDbEntity
  8
0-2_扉
  6
Continuous
 62
    92
370
    13
100
AcDbLine
 10
4258.000339817353
 20
1443.000148463894
 30
0.0
 11
4258.000339817353
 21
3438.000148463894
 31
0.0
  0
LINE
  5
179
330
1F
100
AcDbEntity
  8
0-4_枠
  6
Continuous
 62
    92
370
    13
100
AcDbLine
 10
4253.000339817354
 20
1433.000148463893
 30
0.0
 11
4859.000339817356
 21
1433.000148463893
 31
0.0
  0
LINE
  5
17A
330
1F
100
AcDbEntity
  8
0-4_枠
  6
Continuous
 62
    92
370
    13
100
AcDbLine
 10
4229.000339817356
 20
3465.000148463894
 30
0.0
 11
4883.000339817354
 21
3465.000148463894
 31
0.0
  0
LINE
  5
17B
330
1F
100
AcDbEntity
  8
0-4_枠
  6
Continuous
 62
    92
370
    13
100
AcDbLine
 10
4253.000339817354
 20
3441.000148463893
 30
0.0
 11
4859.000339817356
 21
3441.000148463893
 31
0.0
  0
LINE
  5
17C
330
1F
100
AcDbEntity
  8
0-4_枠
  6
Continuous
 62
    92
370
    13
100
AcDbLine
 10
4859.000339817356
 20
1418.000148463893
 30
0.0
 11
4859.000339817356
 21
3441.000148463893
 31
0.0
  0
LINE
  5
17D
330
1F
100
AcDbEntity
  8
0-4_枠
  6
Continuous
 62
    92
370
    13
100
AcDbLine
 10
4883.000339817354
 20
1418.000148463893
 30
0.0
 11
4883.000339817354
 21
3465.000148463894
 31
0.0
  0
LINE
  5
17E
330
1F
100
AcDbEntity
  8
0-4_枠
  6
Continuous
 62
    92
370
    13
100
AcDbLine
 10
4229.000339817356
 20
1418.000148463893
 30
0.0
 11
4883.000339817354
 21
1418.000148463893
 31
0.0
  0
LINE
  5
17F
330
1F
100
AcDbEntity
  8
0-4_枠
  6
Continuous
 62
    92
370
    13
100
AcDbLine
 10
4229.000339817356
 20
1418.000148463893
 30
0.0
 11
4229.000339817356
 21
3465.000148463894
 31
0.0
  0
LINE
  5
180
330
1F
100
AcDbEntity
  8
0-4_枠
  6
Continuous
 62
    92
370
    13
100
AcDbLine
 10
4253.000339817354
 20
1418.000148463893
 30
0.0
 11
4253.000339817354
 21
3441.000148463893
 31
0.0
  0
LWPOLYLINE
  5
181
330
1F
100
AcDbEntity
  8
0-B_寸法
  6
Continuous
 62
     7
370
     9
100
AcDbPolyline
 90
        4
 70
     1
 43
3.0
 10
4858.500339817354
 20
1168.000148463894
 42
0.4142135623731
 10
4857.000339817354
 20
1169.500148463894
 42
0.4142135623731
 10
4855.500339817353
 20
1168.000148463894
 42
0.4142135623731
 10
4857.000339817354
 20
1166.500148463894
 42
0.4142135623731
  0
LWPOLYLINE
  5
182
330
1F
100
AcDbEntity
  8
0-B_寸法
  6
Continuous
 62
     7
370
     9
100
AcDbPolyline
 90
        4
 70
     1
 43
3.0
 10
4259.500339817353
 20
1168.000148463894
 42
0.4142135623731
 10
4258.000339817353
 20
1169.500148463894
 42
0.4142135623731
 10
4256.500339817352
 20
1168.000148463894
 42
0.4142135623731
 10
4258.000339817353
 20
1166.500148463894
 42
0.4142135623731
  0
LINE
  5
183
330
1F
100
AcDbEntity
  8
0-B_寸法
  6
Continuous
 62
   120
370
     5
100
AcDbLine
 10
4857.000339817354
 20
1168.000148463894
 30
0.0
 11
4857.000339817354
 21
1368.000148463894
 31
0.0
  0
LINE
  5
184
330
1F
100
AcDbEntity
  8
0-B_寸法
  6
Continuous
 62
   120
370
     5
100
AcDbLine
 10
4258.000339817353
 20
1168.000148463894
 30
0.0
 11
4857.000339817354
 21
1168.000148463894
 31
0.0
  0
LINE
  5
185
330
1F
100
AcDbEntity
  8
0-B_寸法
  6
Continuous
 62
   120
370
     5
100
AcDbLine
 10
4258.000339817353
 20
1168.000148463894
 30
0.0
 11
4258.000339817353
 21
1368.000148463894
 31
0.0
  0
MTEXT
  5
186
330
1F
100
AcDbEntity
  8
0-A_文字
  6
Continuous
 62
     7
370
     9
100
AcDbMText
 10
3541.062920160016
 20
-181.923900113492
 30
0.0
 40
77.15249999999999
 41
405.0
 46
0.0
 71
     7
 72
     1
  1
{\fＭＳ ゴシック|b0|i0|c128|p49;ハイドア}
 73
     1
 44
1.0
  0
LINE
  5
187
330
1F
100
AcDbEntity
  8
0-A_文字
  6
Continuous
 62
     7
370
     9
100
AcDbLine
 10
4050.725627851704
 20
-55.50015011349224
 30
0.0
 11
4050.725627851704
 21
-205.5001501134922
 31
0.0
  0
LINE
  5
188
330
1F
100
AcDbEntity
  8
0-A_文字
  6
Continuous
 62
     7
370
     9
100
AcDbLine
 10
4060.725627851705
 20
-65.5001501134921
 30
0.0
 11
4060.725627851705
 21
-195.5001501134919
 31
0.0
  0
MTEXT
  5
189
330
1F
100
AcDbEntity
  8
0-A_文字
  6
Continuous
 62
     7
370
     9
100
AcDbMText
 10
4115.388335543392
 20
-181.638150113492
 30
0.0
 40
77.724
 41
510.0
 46
0.0
 71
     7
 72
     1
  1
{\fＭＳ ゴシック|b0|i0|c128|p49;トイレドア}
 73
     1
 44
1.0
  0
LINE
  5
18A
330
1F
100
AcDbEntity
  8
0-A_文字
  6
Continuous
 62
     7
370
     9
100
AcDbLine
 10
4050.725627851704
 20
-55.50015011349224
 30
0.0
 11
4681.759265445254
 21
-55.50015011349224
 31
0.0
  0
LINE
  5
18B
330
1F
100
AcDbEntity
  8
0-A_文字
  6
Continuous
 62
     7
370
     9
100
AcDbLine
 10
4681.759265445254
 20
-55.50015011349224
 30
0.0
 11
4681.759265445254
 21
-205.5001501134922
 31
0.0
  0
LINE
  5
18C
330
1F
100
AcDbEntity
  8
0-A_文字
  6
Continuous
 62
     7
370
     9
100
AcDbLine
 10
4050.725627851704
 20
-205.5001501134922
 30
0.0
 11
4681.759265445254
 21
-205.5001501134922
 31
0.0
  0
LINE
  5
18D
330
1F
100
AcDbEntity
  8
0-A_文字
  6
Continuous
 62
     7
370
     9
100
AcDbLine
 10
4060.725627851705
 20
-195.5001501134919
 30
0.0
 11
4671.759265445253
 21
-195.5001501134919
 31
0.0
  0
LINE
  5
18E
330
1F
100
AcDbEntity
  8
0-A_文字
  6
Continuous
 62
     7
370
     9
100
AcDbLine
 10
4671.759265445253
 20
-65.5001501134921
 30
0.0
 11
4671.759265445253
 21
-195.5001501134919
 31
0.0
  0
LINE
  5
18F
330
1F
100
AcDbEntity
  8
0-A_文字
  6
Continuous
 62
     7
370
     9
100
AcDbLine
 10
4060.725627851705
 20
-65.5001501134921
 30
0.0
 11
4671.759265445253
 21
-65.5001501134921
 31
0.0
  0
MTEXT
  5
190
330
1F
100
AcDbEntity
  8
0-A_文字
  6
Continuous
 62
     7
370
     9
100
AcDbMText
 10
3556.400212468327
 20
-3438.925017526988
 30
0.0
 40
57.15000000000003
 41
900.0
 46
0.0
 71
     7
 72
     1
  1
{\fＭＳ ゴシック|b0|i0|c128|p49;枠外幅 654mm（DW=599mm）}
 73
     1
 44
1.0
  0
MTEXT
  5
191
330
1F
100
AcDbEntity
  8
0-B_寸法
  6
Continuous
 62
     7
370
    70
100
AcDbMText
 10
3914.000339817355
 20
2225.325148463893
 30
0.0
 40
57.14999999999999
 41
412.5
 46
0.0
 71
     7
 72
     1
  1
{\fＭＳ ゴシック|b0|i0|c128|p49;ＤＨ＝1,995}
 11
6.123031769111886E-17
 21
1.0
 31
0.0
 73
     1
 44
1.0
  0
MTEXT
  5
192
330
1F
100
AcDbEntity
  8
0-B_寸法
  6
Continuous
 62
     7
370
    70
100
AcDbMText
 10
4388.750339817353
 20
1174.075148463894
 30
0.0
 40
57.15
 41
337.5
 46
0.0
 71
     7
 72
     1
  1
{\fＭＳ ゴシック|b0|i0|c128|p49;ＤＷ＝599}
 73
     1
 44
1.0
  0
MTEXT
  5
193
330
1F
100
AcDbEntity
  8
0-B_寸法
  6
Continuous
 62
     7
370
    70
100
AcDbMText
 10
3914.000339817359
 20
-1793.925083820242
 30
0.0
 40
57.14999999999999
 41
412.5
 46
0.0
 71
     7
 72
     1
  1
{\fＭＳ ゴシック|b0|i0|c128|p49;ＤＨ＝2,195}
 11
6.123031769111886E-17
 21
1.0
 31
0.0
 73
     1
 44
1.0
  0
MTEXT
  5
194
330
1F
100
AcDbEntity
  8
0-B_寸法
  6
Continuous
 62
     7
370
    70
100
AcDbMText
 10
4388.750339817357
 20
-2945.175083820241
 30
0.0
 40
57.15
 41
337.5
 46
0.0
 71
     7
 72
     1
  1
{\fＭＳ ゴシック|b0|i0|c128|p49;ＤＷ＝599}
 73
     1
 44
1.0
  0
MTEXT
  5
195
330
1F
100
AcDbEntity
  8
F-A_文字
  6
Continuous
 62
     7
370
     0
100
AcDbMText
 10
4778.749126529666
 20
-3938.071010139966
 30
0.0
 40
78.86699999999999
 41
517.5
 46
0.0
 71
     7
 72
     1
  1
{\fＭＳ ゴシック|b0|i0|c128|p49;2021.04.01}
 73
     1
 44
1.0
  0
LINE
  5
196
330
1F
100
AcDbEntity
  8
F-0_補助線
  6
JWW_HOJO
 62
   200
370
    20
100
AcDbLine
 10
-5999.99998453501
 20
4064.999901024072
 30
0.0
 11
5689.998977248734
 21
4064.999901024072
 31
0.0
  0
LINE
  5
197
330
1F
100
AcDbEntity
  8
F-0_補助線
  6
JWW_HOJO
 62
   200
370
    20
100
AcDbLine
 10
-5999.99998453501
 20
84.49993236644843
 30
0.0
 11
5689.998977248734
 21
84.49993236644843
 31
0.0
  0
MTEXT
  5
198
330
1F
100
AcDbEntity
  8
0-A_文字
  6
Continuous
 62
     7
370
     9
100
AcDbMText
 10
-4576.699908488504
 20
4013.576151024072
 30
0.0
 40
77.15249999999999
 41
405.0
 46
0.0
 71
     7
 72
     1
  1
{\fＭＳ ゴシック|b0|i0|c128|p49;Ｂ－ＸＨ}
 73
     1
 44
1.0
  0
MTEXT
  5
199
330
1F
100
AcDbEntity
  8
0-A_文字
  6
Continuous
 62
     7
370
     9
100
AcDbMText
 10
-2345.099781139475
 20
4013.576151024072
 30
0.0
 40
77.15249999999999
 41
405.0
 46
0.0
 71
     7
 72
     1
  1
{\fＭＳ ゴシック|b0|i0|c128|p49;Ｂ－ＸＨ}
 73
     1
 44
1.0
  0
MTEXT
  5
19A
330
1F
100
AcDbEntity
  8
0-A_文字
  6
Continuous
 62
     7
370
     9
100
AcDbMText
 10
-113.500024950182
 20
4013.576151024072
 30
0.0
 40
77.15249999999999
 41
405.0
 46
0.0
 71
     7
 72
     1
  1
{\fＭＳ ゴシック|b0|i0|c128|p49;Ｂ－ＸＨ}
 73
     1
 44
1.0
  0
MTEXT
  5
19B
330
1F
100
AcDbEntity
  8
0-A_文字
  6
Continuous
 62
     7
370
     9
100
AcDbMText
 10
2118.100102398846
 20
4013.576151024072
 30
0.0
 40
77.15249999999999
 41
405.0
 46
0.0
 71
     7
 72
     1
  1
{\fＭＳ ゴシック|b0|i0|c128|p49;Ｂ－ＸＨ}
 73
     1
 44
1.0
  0
MTEXT
  5
19C
330
1F
100
AcDbEntity
  8
0-A_文字
  6
Continuous
 62
     7
370
     9
100
AcDbMText
 10
4349.700229747874
 20
4013.576151024072
 30
0.0
 40
77.15249999999999
 41
405.0
 46
0.0
 71
     7
 72
     1
  1
{\fＭＳ ゴシック|b0|i0|c128|p49;Ｂ－ＸＨ}
 73
     1
 44
1.0
  0
MTEXT
  5
19D
330
1F
100
AcDbEntity
  8
0-A_文字
  6
Continuous
 62
     7
370
     9
100
AcDbMText
 10
-4576.699908488504
 20
33.07618236644843
 30
0.0
 40
77.15249999999999
 41
405.0
 46
0.0
 71
     7
 72
     1
  1
{\fＭＳ ゴシック|b0|i0|c128|p49;Ｂ－ＸＨ}
 73
     1
 44
1.0
  0
MTEXT
  5
19E
330
1F
100
AcDbEntity
  8
0-A_文字
  6
Continuous
 62
     7
370
     9
100
AcDbMText
 10
-2345.099781139475
 20
33.07618236644843
 30
0.0
 40
77.15249999999999
 41
405.0
 46
0.0
 71
     7
 72
     1
  1
{\fＭＳ ゴシック|b0|i0|c128|p49;Ｂ－ＸＨ}
 73
     1
 44
1.0
  0
MTEXT
  5
19F
330
1F
100
AcDbEntity
  8
0-A_文字
  6
Continuous
 62
     7
370
     9
100
AcDbMText
 10
-113.500024950182
 20
33.07618236644843
 30
0.0
 40
77.15249999999999
 41
405.0
 46
0.0
 71
     7
 72
     1
  1
{\fＭＳ ゴシック|b0|i0|c128|p49;Ｂ－ＸＨ}
 73
     1
 44
1.0
  0
MTEXT
  5
1A0
330
1F
100
AcDbEntity
  8
0-A_文字
  6
Continuous
 62
     7
370
     9
100
AcDbMText
 10
2118.100102398846
 20
33.07618236644843
 30
0.0
 40
77.15249999999999
 41
405.0
 46
0.0
 71
     7
 72
     1
  1
{\fＭＳ ゴシック|b0|i0|c128|p49;Ｂ－ＸＨ}
 73
     1
 44
1.0
  0
MTEXT
  5
1A1
330
1F
100
AcDbEntity
  8
0-A_文字
  6
Continuous
 62
     7
370
     9
100
AcDbMText
 10
4349.700229747874
 20
33.07618236644843
 30
0.0
 40
77.15249999999999
 41
405.0
 46
0.0
 71
     7
 72
     1
  1
{\fＭＳ ゴシック|b0|i0|c128|p49;Ｂ－ＸＨ}
 73
     1
 44
1.0
  0
MTEXT
  5
1A2
330
1F
100
AcDbEntity
  8
F-A_文字
  6
Continuous
 62
     7
370
     0
100
AcDbMText
 10
-5239.999990205508
 20
-4045.254708805664
 30
0.0
 40
79.49045454545455
 41
2295.0
 46
0.0
 71
     7
 72
     1
  1
{\fＭＳ ゴシック|b0|i0|c128|p49;ドレタス　シングルドア／トイレドア　Ｂ－ＸＨ}
 73
     1
 44
1.0
  0
LINE
  5
1A3
330
1F
100
AcDbEntity
  8
0-7
  6
JWW_CENTER2
 62
     7
370
     9
100
AcDbLine
 10
-4668.399798419025
 20
3438.000148463894
 30
0.0
 11
-3875.399798419023
 21
2440.500148463894
 31
0.0
  0
LINE
  5
1A4
330
1F
100
AcDbEntity
  8
0-7
  6
JWW_CENTER2
 62
     7
370
     9
100
AcDbLine
 10
-3875.399798419023
 20
2440.500148463894
 30
0.0
 11
-4668.399798419025
 21
1443.000148463894
 31
0.0
  0
LINE
  5
1A5
330
1F
100
AcDbEntity
  8
0-7
  6
JWW_CENTER2
 62
     7
370
     9
100
AcDbLine
 10
-1713.799671069996
 20
2440.500148463894
 30
0.0
 11
-2436.799671069995
 21
1443.000148463894
 31
0.0
  0
LINE
  5
1A6
330
1F
100
AcDbEntity
  8
0-7
  6
JWW_CENTER2
 62
     7
370
     9
100
AcDbLine
 10
-2436.799671069995
 20
3438.000148463894
 30
0.0
 11
-1713.799671069996
 21
2440.500148463894
 31
0.0
  0
LINE
  5
1A7
330
1F
100
AcDbEntity
  8
0-7
  6
JWW_CENTER2
 62
     7
370
     9
100
AcDbLine
 10
-205.1999148806999
 20
3438.000148463894
 30
0.0
 11
497.8000851192985
 21
2440.500148463894
 31
0.0
  0
LINE
  5
1A8
330
1F
100
AcDbEntity
  8
0-7
  6
JWW_CENTER2
 62
     7
370
     9
100
AcDbLine
 10
497.8000851192985
 20
2440.500148463894
 30
0.0
 11
-205.1999148806999
 21
1443.000148463894
 31
0.0
  0
LINE
  5
1A9
330
1F
100
AcDbEntity
  8
0-7
  6
JWW_CENTER2
 62
     7
370
     9
100
AcDbLine
 10
2706.400212468327
 20
2440.500148463894
 30
0.0
 11
2026.400212468328
 21
1443.000148463894
 31
0.0
  0
LINE
  5
1AA
330
1F
100
AcDbEntity
  8
0-7
  6
JWW_CENTER2
 62
     7
370
     9
100
AcDbLine
 10
2026.400212468328
 20
3438.000148463894
 30
0.0
 11
2706.400212468327
 21
2440.500148463894
 31
0.0
  0
LINE
  5
1AB
330
1F
100
AcDbEntity
  8
0-7
  6
JWW_CENTER2
 62
     7
370
     9
100
AcDbLine
 10
4258.000339817353
 20
3438.000148463894
 30
0.0
 11
4857.000339817354
 21
2440.500148463894
 31
0.0
  0
LINE
  5
1AC
330
1F
100
AcDbEntity
  8
0-7
  6
JWW_CENTER2
 62
     7
370
     9
100
AcDbLine
 10
4857.000339817354
 20
2440.500148463894
 30
0.0
 11
4258.000339817353
 21
1443.000148463894
 31
0.0
  0
LINE
  5
1AD
330
1F
100
AcDbEntity
  8
0-7
  6
JWW_CENTER2
 62
     7
370
     9
100
AcDbLine
 10
4258.000339817356
 20
-481.2500838202413
 30
0.0
 11
4857.000339817358
 21
-1578.750083820242
 31
0.0
  0
LINE
  5
1AE
330
1F
100
AcDbEntity
  8
0-7
  6
JWW_CENTER2
 62
     7
370
     9
100
AcDbLine
 10
4857.000339817358
 20
-1578.750083820242
 30
0.0
 11
4258.000339817356
 21
-2676.250083820242
 31
0.0
  0
LINE
  5
1AF
330
1F
100
AcDbEntity
  8
0-7
  6
JWW_CENTER2
 62
     7
370
     9
100
AcDbLine
 10
2026.400212468328
 20
-481.2500838202413
 30
0.0
 11
2706.400212468327
 21
-1578.750083820242
 31
0.0
  0
LINE
  5
1B0
330
1F
100
AcDbEntity
  8
0-7
  6
JWW_CENTER2
 62
     7
370
     9
100
AcDbLine
 10
2706.400212468327
 20
-1578.750083820242
 30
0.0
 11
2026.400212468328
 21
-2676.250083820242
 31
0.0
  0
LINE
  5
1B1
330
1F
100
AcDbEntity
  8
0-7
  6
JWW_CENTER2
 62
     7
370
     9
100
AcDbLine
 10
-205.1999148806999
 20
-481.2500838202413
 30
0.0
 11
497.8000851192985
 21
-1578.750083820242
 31
0.0
  0
LINE
  5
1B2
330
1F
100
AcDbEntity
  8
0-7
  6
JWW_CENTER2
 62
     7
370
     9
100
AcDbLine
 10
497.8000851192985
 20
-1578.750083820242
 30
0.0
 11
-205.1999148806999
 21
-2676.250083820242
 31
0.0
  0
LINE
  5
1B3
330
1F
100
AcDbEntity
  8
0-7
  6
JWW_CENTER2
 62
     7
370
     9
100
AcDbLine
 10
-2436.799671069995
 20
-481.2500838202413
 30
0.0
 11
-1713.799671069996
 21
-1578.750083820242
 31
0.0
  0
LINE
  5
1B4
330
1F
100
AcDbEntity
  8
0-7
  6
JWW_CENTER2
 62
     7
370
     9
100
AcDbLine
 10
-1713.799671069996
 20
-1578.750083820242
 30
0.0
 11
-2436.799671069995
 21
-2676.250083820242
 31
0.0
  0
LINE
  5
1B5
330
1F
100
AcDbEntity
  8
0-7
  6
JWW_CENTER2
 62
     7
370
     9
100
AcDbLine
 10
-4668.399798419025
 20
-481.2500838202413
 30
0.0
 11
-3875.399798419023
 21
-1578.750083820242
 31
0.0
  0
LINE
  5
1B6
330
1F
100
AcDbEntity
  8
0-7
  6
JWW_CENTER2
 62
     7
370
     9
100
AcDbLine
 10
-3875.399798419023
 20
-1578.750083820242
 30
0.0
 11
-4668.399798419025
 21
-2676.250083820242
 31
0.0
  0
LWPOLYLINE
  5
1B7
330
1F
100
AcDbEntity
  8
0-B_寸法
  6
Continuous
 62
     7
370
     9
100
AcDbPolyline
 90
        4
 70
     1
 43
3.0
 10
-4995.899798419022
 20
-2676.250083820242
 42
0.4142135623731
 10
-4997.399798419023
 20
-2674.750083820242
 42
0.4142135623731
 10
-4998.899798419023
 20
-2676.250083820242
 42
0.4142135623731
 10
-4997.399798419023
 20
-2677.750083820242
 42
0.4142135623731
  0
LINE
  5
1B8
330
1F
100
AcDbEntity
  8
0-B_寸法
  6
Continuous
 62
   120
370
     5
100
AcDbLine
 10
-4997.399798419023
 20
-2676.250083820242
 30
0.0
 11
-4747.399798419025
 21
-2676.250083820242
 31
0.0
  0
LWPOLYLINE
  5
1B9
330
1F
100
AcDbEntity
  8
0-B_寸法
  6
Continuous
 62
     7
370
     9
100
AcDbPolyline
 90
        4
 70
     1
 43
3.0
 10
-3873.899798419023
 20
-2951.250083820241
 42
0.4142135623731
 10
-3875.399798419023
 20
-2949.750083820241
 42
0.4142135623731
 10
-3876.899798419024
 20
-2951.250083820241
 42
0.4142135623731
 10
-3875.399798419023
 20
-2952.750083820241
 42
0.4142135623731
  0
LWPOLYLINE
  5
1BA
330
1F
100
AcDbEntity
  8
0-B_寸法
  6
Continuous
 62
     7
370
     9
100
AcDbPolyline
 90
        4
 70
     1
 43
3.0
 10
-4666.899798419025
 20
-2951.250083820241
 42
0.4142135623731
 10
-4668.399798419025
 20
-2949.750083820241
 42
0.4142135623731
 10
-4669.899798419026
 20
-2951.250083820241
 42
0.4142135623731
 10
-4668.399798419025
 20
-2952.750083820241
 42
0.4142135623731
  0
LINE
  5
1BB
330
1F
100
AcDbEntity
  8
0-B_寸法
  6
Continuous
 62
   120
370
     5
100
AcDbLine
 10
-3875.399798419023
 20
-2951.250083820241
 30
0.0
 11
-3875.399798419023
 21
-2751.250083820242
 31
0.0
  0
LINE
  5
1BC
330
1F
100
AcDbEntity
  8
0-B_寸法
  6
Continuous
 62
   120
370
     5
100
AcDbLine
 10
-4668.399798419025
 20
-2951.250083820241
 30
0.0
 11
-3875.399798419023
 21
-2951.250083820241
 31
0.0
  0
LINE
  5
1BD
330
1F
100
AcDbEntity
  8
0-B_寸法
  6
Continuous
 62
   120
370
     5
100
AcDbLine
 10
-4668.399798419025
 20
-2951.250083820241
 30
0.0
 11
-4668.399798419025
 21
-2751.250083820242
 31
0.0
  0
LWPOLYLINE
  5
1BE
330
1F
100
AcDbEntity
  8
0-B_寸法
  6
Continuous
 62
     7
370
     9
100
AcDbPolyline
 90
        4
 70
     1
 43
3.0
 10
-4995.899798419022
 20
-481.2500838202413
 42
0.4142135623731
 10
-4997.399798419023
 20
-479.7500838202413
 42
0.4142135623731
 10
-4998.899798419023
 20
-481.2500838202413
 42
0.4142135623731
 10
-4997.399798419023
 20
-482.7500838202413
 42
0.4142135623731
  0
LINE
  5
1BF
330
1F
100
AcDbEntity
  8
0-B_寸法
  6
Continuous
 62
   120
370
     5
100
AcDbLine
 10
-4997.399798419023
 20
-481.2500838202413
 30
0.0
 11
-4747.399798419025
 21
-481.2500838202413
 31
0.0
  0
LINE
  5
1C0
330
1F
100
AcDbEntity
  8
0-B_寸法
  6
Continuous
 62
   120
370
     5
100
AcDbLine
 10
-4997.399798419023
 20
-481.2500838202413
 30
0.0
 11
-4997.399798419023
 21
-2676.250083820242
 31
0.0
  0
MTEXT
  5
1C1
330
1F
100
AcDbEntity
  8
0-B_寸法
  6
Continuous
 62
     7
370
    70
100
AcDbMText
 10
-5012.399798419023
 20
-1793.925083820242
 30
0.0
 40
57.14999999999999
 41
412.5
 46
0.0
 71
     7
 72
     1
  1
{\fＭＳ ゴシック|b0|i0|c128|p49;ＤＨ＝2,195}
 11
6.123031769111886E-17
 21
1.0
 31
0.0
 73
     1
 44
1.0
  0
MTEXT
  5
1C2
330
1F
100
AcDbEntity
  8
0-B_寸法
  6
Continuous
 62
     7
370
    70
100
AcDbMText
 10
-4440.649798419025
 20
-2945.175083820242
 30
0.0
 40
57.15
 41
337.5
 46
0.0
 71
     7
 72
     1
  1
{\fＭＳ ゴシック|b0|i0|c128|p49;ＤＷ＝793}
 73
     1
 44
1.0
  0
LWPOLYLINE
  5
1C3
330
1F
100
AcDbEntity
  8
0-B_寸法
  6
Continuous
 62
     7
370
     9
100
AcDbPolyline
 90
        4
 70
     1
 43
3.0
 10
-532.6999148807008
 20
-2676.250083820242
 42
0.4142135623731
 10
-534.1999148807008
 20
-2674.750083820242
 42
0.4142135623731
 10
-535.6999148807008
 20
-2676.250083820242
 42
0.4142135623731
 10
-534.1999148807008
 20
-2677.750083820242
 42
0.4142135623731
  0
LINE
  5
1C4
330
1F
100
AcDbEntity
  8
0-B_寸法
  6
Continuous
 62
   120
370
     5
100
AcDbLine
 10
-534.1999148807008
 20
-2676.250083820242
 30
0.0
 11
-284.1999148807014
 21
-2676.250083820242
 31
0.0
  0
LWPOLYLINE
  5
1C5
330
1F
100
AcDbEntity
  8
0-B_寸法
  6
Continuous
 62
     7
370
     9
100
AcDbPolyline
 90
        4
 70
     1
 43
3.0
 10
499.3000851192985
 20
-2951.250083820241
 42
0.4142135623731
 10
497.8000851192985
 20
-2949.750083820241
 42
0.4142135623731
 10
496.3000851192985
 20
-2951.250083820241
 42
0.4142135623731
 10
497.8000851192985
 20
-2952.750083820241
 42
0.4142135623731
  0
LWPOLYLINE
  5
1C6
330
1F
100
AcDbEntity
  8
0-B_寸法
  6
Continuous
 62
     7
370
     9
100
AcDbPolyline
 90
        4
 70
     1
 43
3.0
 10
-203.6999148806999
 20
-2951.250083820241
 42
0.4142135623731
 10
-205.1999148806999
 20
-2949.750083820241
 42
0.4142135623731
 10
-206.6999148806999
 20
-2951.250083820241
 42
0.4142135623731
 10
-205.1999148806999
 20
-2952.750083820241
 42
0.4142135623731
  0
LINE
  5
1C7
330
1F
100
AcDbEntity
  8
0-B_寸法
  6
Continuous
 62
   120
370
     5
100
AcDbLine
 10
497.8000851192985
 20
-2951.250083820241
 30
0.0
 11
497.8000851192985
 21
-2751.250083820242
 31
0.0
  0
LINE
  5
1C8
330
1F
100
AcDbEntity
  8
0-B_寸法
  6
Continuous
 62
   120
370
     5
100
AcDbLine
 10
-205.1999148806999
 20
-2951.250083820241
 30
0.0
 11
497.8000851192985
 21
-2951.250083820241
 31
0.0
  0
LINE
  5
1C9
330
1F
100
AcDbEntity
  8
0-B_寸法
  6
Continuous
 62
   120
370
     5
100
AcDbLine
 10
-205.1999148806999
 20
-2951.250083820241
 30
0.0
 11
-205.1999148806999
 21
-2751.250083820242
 31
0.0
  0
LWPOLYLINE
  5
1CA
330
1F
100
AcDbEntity
  8
0-B_寸法
  6
Continuous
 62
     7
370
     9
100
AcDbPolyline
 90
        4
 70
     1
 43
3.0
 10
-532.6999148807008
 20
-481.2500838202413
 42
0.4142135623731
 10
-534.1999148807008
 20
-479.7500838202413
 42
0.4142135623731
 10
-535.6999148807008
 20
-481.2500838202413
 42
0.4142135623731
 10
-534.1999148807008
 20
-482.7500838202413
 42
0.4142135623731
  0
LINE
  5
1CB
330
1F
100
AcDbEntity
  8
0-B_寸法
  6
Continuous
 62
   120
370
     5
100
AcDbLine
 10
-534.1999148807008
 20
-481.2500838202413
 30
0.0
 11
-284.1999148807014
 21
-481.2500838202413
 31
0.0
  0
LINE
  5
1CC
330
1F
100
AcDbEntity
  8
0-B_寸法
  6
Continuous
 62
   120
370
     5
100
AcDbLine
 10
-534.1999148807008
 20
-481.2500838202413
 30
0.0
 11
-534.1999148807008
 21
-2676.250083820242
 31
0.0
  0
MTEXT
  5
1CD
330
1F
100
AcDbEntity
  8
0-B_寸法
  6
Continuous
 62
     7
370
    70
100
AcDbMText
 10
-549.1999148807008
 20
-1793.925083820242
 30
0.0
 40
57.14999999999999
 41
412.5
 46
0.0
 71
     7
 72
     1
  1
{\fＭＳ ゴシック|b0|i0|c128|p49;ＤＨ＝2,195}
 11
6.123031769111886E-17
 21
1.0
 31
0.0
 73
     1
 44
1.0
  0
MTEXT
  5
1CE
330
1F
100
AcDbEntity
  8
0-B_寸法
  6
Continuous
 62
     7
370
    70
100
AcDbMText
 10
-22.4499148807007
 20
-2945.175083820242
 30
0.0
 40
57.15
 41
337.5
 46
0.0
 71
     7
 72
     1
  1
{\fＭＳ ゴシック|b0|i0|c128|p49;ＤＷ＝703}
 73
     1
 44
1.0
  0
LWPOLYLINE
  5
1CF
330
1F
100
AcDbEntity
  8
0-B_寸法
  6
Continuous
 62
     7
370
     9
100
AcDbPolyline
 90
        4
 70
     1
 43
3.0
 10
-2764.299671069994
 20
-2676.250083820242
 42
0.4142135623731
 10
-2765.799671069994
 20
-2674.750083820242
 42
0.4142135623731
 10
-2767.299671069994
 20
-2676.250083820242
 42
0.4142135623731
 10
-2765.799671069994
 20
-2677.750083820242
 42
0.4142135623731
  0
LINE
  5
1D0
330
1F
100
AcDbEntity
  8
0-B_寸法
  6
Continuous
 62
   120
370
     5
100
AcDbLine
 10
-2765.799671069994
 20
-2676.250083820242
 30
0.0
 11
-2515.799671069997
 21
-2676.250083820242
 31
0.0
  0
LWPOLYLINE
  5
1D1
330
1F
100
AcDbEntity
  8
0-B_寸法
  6
Continuous
 62
     7
370
     9
100
AcDbPolyline
 90
        4
 70
     1
 43
3.0
 10
-1712.299671069996
 20
-2951.250083820241
 42
0.4142135623731
 10
-1713.799671069996
 20
-2949.750083820241
 42
0.4142135623731
 10
-1715.299671069996
 20
-2951.250083820241
 42
0.4142135623731
 10
-1713.799671069996
 20
-2952.750083820241
 42
0.4142135623731
  0
LINE
  5
1D2
330
1F
100
AcDbEntity
  8
0-B_寸法
  6
Continuous
 62
   120
370
     5
100
AcDbLine
 10
-1713.799671069996
 20
-2951.250083820241
 30
0.0
 11
-1713.799671069996
 21
-2751.250083820242
 31
0.0
  0
LINE
  5
1D3
330
1F
100
AcDbEntity
  8
0-B_寸法
  6
Continuous
 62
   120
370
     5
100
AcDbLine
 10
-2436.799671069995
 20
-2951.250083820241
 30
0.0
 11
-1713.799671069996
 21
-2951.250083820241
 31
0.0
  0
LWPOLYLINE
  5
1D4
330
1F
100
AcDbEntity
  8
0-B_寸法
  6
Continuous
 62
     7
370
     9
100
AcDbPolyline
 90
        4
 70
     1
 43
3.0
 10
-2435.299671069995
 20
-2951.250083820241
 42
0.4142135623731
 10
-2436.799671069995
 20
-2949.750083820241
 42
0.4142135623731
 10
-2438.299671069995
 20
-2951.250083820241
 42
0.4142135623731
 10
-2436.799671069995
 20
-2952.750083820241
 42
0.4142135623731
  0
LINE
  5
1D5
330
1F
100
AcDbEntity
  8
0-B_寸法
  6
Continuous
 62
   120
370
     5
100
AcDbLine
 10
-2436.799671069995
 20
-2951.250083820241
 30
0.0
 11
-2436.799671069995
 21
-2751.250083820242
 31
0.0
  0
LWPOLYLINE
  5
1D6
330
1F
100
AcDbEntity
  8
0-B_寸法
  6
Continuous
 62
     7
370
     9
100
AcDbPolyline
 90
        4
 70
     1
 43
3.0
 10
-2764.299671069994
 20
-481.2500838202413
 42
0.4142135623731
 10
-2765.799671069994
 20
-479.7500838202413
 42
0.4142135623731
 10
-2767.299671069994
 20
-481.2500838202413
 42
0.4142135623731
 10
-2765.799671069994
 20
-482.7500838202413
 42
0.4142135623731
  0
LINE
  5
1D7
330
1F
100
AcDbEntity
  8
0-B_寸法
  6
Continuous
 62
   120
370
     5
100
AcDbLine
 10
-2765.799671069994
 20
-481.2500838202413
 30
0.0
 11
-2515.799671069997
 21
-481.2500838202413
 31
0.0
  0
LINE
  5
1D8
330
1F
100
AcDbEntity
  8
0-B_寸法
  6
Continuous
 62
   120
370
     5
100
AcDbLine
 10
-2765.799671069994
 20
-481.2500838202413
 30
0.0
 11
-2765.799671069994
 21
-2676.250083820242
 31
0.0
  0
MTEXT
  5
1D9
330
1F
100
AcDbEntity
  8
0-B_寸法
  6
Continuous
 62
     7
370
    70
100
AcDbMText
 10
-2780.799671069994
 20
-1793.925083820242
 30
0.0
 40
57.14999999999999
 41
412.5
 46
0.0
 71
     7
 72
     1
  1
{\fＭＳ ゴシック|b0|i0|c128|p49;ＤＨ＝2,195}
 11
6.123031769111886E-17
 21
1.0
 31
0.0
 73
     1
 44
1.0
  0
MTEXT
  5
1DA
330
1F
100
AcDbEntity
  8
0-B_寸法
  6
Continuous
 62
     7
370
    70
100
AcDbMText
 10
-2244.549671069994
 20
-2945.175083820242
 30
0.0
 40
57.15
 41
337.5
 46
0.0
 71
     7
 72
     1
  1
{\fＭＳ ゴシック|b0|i0|c128|p49;ＤＷ＝723}
 73
     1
 44
1.0
  0
LWPOLYLINE
  5
1DB
330
1F
100
AcDbEntity
  8
0-B_寸法
  6
Continuous
 62
     7
370
     9
100
AcDbPolyline
 90
        4
 70
     1
 43
3.0
 10
1698.900212468327
 20
-2676.250083820242
 42
0.4142135623731
 10
1697.400212468327
 20
-2674.750083820242
 42
0.4142135623731
 10
1695.900212468327
 20
-2676.250083820242
 42
0.4142135623731
 10
1697.400212468327
 20
-2677.750083820242
 42
0.4142135623731
  0
LINE
  5
1DC
330
1F
100
AcDbEntity
  8
0-B_寸法
  6
Continuous
 62
   120
370
     5
100
AcDbLine
 10
1697.400212468327
 20
-2676.250083820242
 30
0.0
 11
1947.400212468328
 21
-2676.250083820242
 31
0.0
  0
LWPOLYLINE
  5
1DD
330
1F
100
AcDbEntity
  8
0-B_寸法
  6
Continuous
 62
     7
370
     9
100
AcDbPolyline
 90
        4
 70
     1
 43
3.0
 10
2707.900212468327
 20
-2951.250083820241
 42
0.4142135623731
 10
2706.400212468327
 20
-2949.750083820241
 42
0.4142135623731
 10
2704.900212468327
 20
-2951.250083820241
 42
0.4142135623731
 10
2706.400212468327
 20
-2952.750083820241
 42
0.4142135623731
  0
LWPOLYLINE
  5
1DE
330
1F
100
AcDbEntity
  8
0-B_寸法
  6
Continuous
 62
     7
370
     9
100
AcDbPolyline
 90
        4
 70
     1
 43
3.0
 10
2027.900212468328
 20
-2951.250083820241
 42
0.4142135623731
 10
2026.400212468328
 20
-2949.750083820241
 42
0.4142135623731
 10
2024.900212468328
 20
-2951.250083820241
 42
0.4142135623731
 10
2026.400212468328
 20
-2952.750083820241
 42
0.4142135623731
  0
LINE
  5
1DF
330
1F
100
AcDbEntity
  8
0-B_寸法
  6
Continuous
 62
   120
370
     5
100
AcDbLine
 10
2706.400212468327
 20
-2951.250083820241
 30
0.0
 11
2706.400212468327
 21
-2751.250083820242
 31
0.0
  0
LINE
  5
1E0
330
1F
100
AcDbEntity
  8
0-B_寸法
  6
Continuous
 62
   120
370
     5
100
AcDbLine
 10
2026.400212468328
 20
-2951.250083820241
 30
0.0
 11
2706.400212468327
 21
-2951.250083820241
 31
0.0
  0
LINE
  5
1E1
330
1F
100
AcDbEntity
  8
0-B_寸法
  6
Continuous
 62
   120
370
     5
100
AcDbLine
 10
2026.400212468328
 20
-2951.250083820241
 30
0.0
 11
2026.400212468328
 21
-2751.250083820242
 31
0.0
  0
LWPOLYLINE
  5
1E2
330
1F
100
AcDbEntity
  8
0-B_寸法
  6
Continuous
 62
     7
370
     9
100
AcDbPolyline
 90
        4
 70
     1
 43
3.0
 10
1698.900212468327
 20
-481.2500838202413
 42
0.4142135623731
 10
1697.400212468327
 20
-479.7500838202413
 42
0.4142135623731
 10
1695.900212468327
 20
-481.2500838202413
 42
0.4142135623731
 10
1697.400212468327
 20
-482.7500838202413
 42
0.4142135623731
  0
LINE
  5
1E3
330
1F
100
AcDbEntity
  8
0-B_寸法
  6
Continuous
 62
   120
370
     5
100
AcDbLine
 10
1697.400212468327
 20
-481.2500838202413
 30
0.0
 11
1947.400212468328
 21
-481.2500838202413
 31
0.0
  0
LINE
  5
1E4
330
1F
100
AcDbEntity
  8
0-B_寸法
  6
Continuous
 62
   120
370
     5
100
AcDbLine
 10
1697.400212468327
 20
-481.2500838202413
 30
0.0
 11
1697.400212468327
 21
-2676.250083820242
 31
0.0
  0
MTEXT
  5
1E5
330
1F
100
AcDbEntity
  8
0-B_寸法
  6
Continuous
 62
     7
370
    70
100
AcDbMText
 10
1682.400212468327
 20
-1793.925083820242
 30
0.0
 40
57.14999999999999
 41
412.5
 46
0.0
 71
     7
 72
     1
  1
{\fＭＳ ゴシック|b0|i0|c128|p49;ＤＨ＝2,195}
 11
6.123031769111886E-17
 21
1.0
 31
0.0
 73
     1
 44
1.0
  0
MTEXT
  5
1E6
330
1F
100
AcDbEntity
  8
0-B_寸法
  6
Continuous
 62
     7
370
    70
100
AcDbMText
 10
2197.650212468327
 20
-2945.175083820242
 30
0.0
 40
57.15
 41
337.5
 46
0.0
 71
     7
 72
     1
  1
{\fＭＳ ゴシック|b0|i0|c128|p49;ＤＷ＝680}
 73
     1
 44
1.0
  0
LINE
  5
1E7
330
1F
100
AcDbEntity
  8
0-4_枠
  6
Continuous
 62
    92
370
    13
100
AcDbLine
 10
-4673.399798419024
 20
-2686.250083820241
 30
0.0
 11
-3873.399798419025
 21
-2686.250083820241
 31
0.0
  0
LINE
  5
1E8
330
1F
100
AcDbEntity
  8
0-4_枠
  6
Continuous
 62
    92
370
    13
100
AcDbLine
 10
-4697.399798419023
 20
-2701.250083820241
 30
0.0
 11
-3849.399798419023
 21
-2701.250083820241
 31
0.0
  0
LINE
  5
1E9
330
1F
100
AcDbEntity
  8
0-4_枠
  6
Continuous
 62
    92
370
    13
100
AcDbLine
 10
-4697.399798419023
 20
-454.2500838202425
 30
0.0
 11
-3849.399798419023
 21
-454.2500838202425
 31
0.0
  0
LINE
  5
1EA
330
1F
100
AcDbEntity
  8
0-4_枠
  6
Continuous
 62
    92
370
    13
100
AcDbLine
 10
-4673.399798419024
 20
-478.2500838202415
 30
0.0
 11
-3873.399798419025
 21
-478.2500838202415
 31
0.0
  0
LINE
  5
1EB
330
1F
100
AcDbEntity
  8
0-4_枠
  6
Continuous
 62
    92
370
    13
100
AcDbLine
 10
-3873.399798419025
 20
-2701.250083820241
 30
0.0
 11
-3873.399798419025
 21
-478.2500838202415
 31
0.0
  0
LINE
  5
1EC
330
1F
100
AcDbEntity
  8
0-4_枠
  6
Continuous
 62
    92
370
    13
100
AcDbLine
 10
-3849.399798419023
 20
-2701.250083820241
 30
0.0
 11
-3849.399798419023
 21
-454.2500838202425
 31
0.0
  0
LINE
  5
1ED
330
1F
100
AcDbEntity
  8
0-4_枠
  6
Continuous
 62
    92
370
    13
100
AcDbLine
 10
-4697.399798419023
 20
-2701.250083820241
 30
0.0
 11
-4697.399798419023
 21
-454.2500838202425
 31
0.0
  0
LINE
  5
1EE
330
1F
100
AcDbEntity
  8
0-4_枠
  6
Continuous
 62
    92
370
    13
100
AcDbLine
 10
-4673.399798419024
 20
-2701.250083820241
 30
0.0
 11
-4673.399798419024
 21
-478.2500838202415
 31
0.0
  0
LINE
  5
1EF
330
1F
100
AcDbEntity
  8
0-4_枠
  6
Continuous
 62
    92
370
    13
100
AcDbLine
 10
-210.1999148807005
 20
-2686.250083820241
 30
0.0
 11
499.8000851192984
 21
-2686.250083820241
 31
0.0
  0
LINE
  5
1F0
330
1F
100
AcDbEntity
  8
0-4_枠
  6
Continuous
 62
    92
370
    13
100
AcDbLine
 10
-234.1999148807008
 20
-2701.250083820241
 30
0.0
 11
523.8000851192996
 21
-2701.250083820241
 31
0.0
  0
LINE
  5
1F1
330
1F
100
AcDbEntity
  8
0-4_枠
  6
Continuous
 62
    92
370
    13
100
AcDbLine
 10
-234.1999148807008
 20
-454.2500838202425
 30
0.0
 11
523.8000851192996
 21
-454.2500838202425
 31
0.0
  0
LINE
  5
1F2
330
1F
100
AcDbEntity
  8
0-4_枠
  6
Continuous
 62
    92
370
    13
100
AcDbLine
 10
-210.1999148807005
 20
-478.2500838202415
 30
0.0
 11
499.8000851192984
 21
-478.2500838202415
 31
0.0
  0
LINE
  5
1F3
330
1F
100
AcDbEntity
  8
0-4_枠
  6
Continuous
 62
    92
370
    13
100
AcDbLine
 10
499.8000851192984
 20
-2701.250083820241
 30
0.0
 11
499.8000851192984
 21
-478.2500838202415
 31
0.0
  0
LINE
  5
1F4
330
1F
100
AcDbEntity
  8
0-4_枠
  6
Continuous
 62
    92
370
    13
100
AcDbLine
 10
523.8000851192996
 20
-2701.250083820241
 30
0.0
 11
523.8000851192996
 21
-454.2500838202425
 31
0.0
  0
LINE
  5
1F5
330
1F
100
AcDbEntity
  8
0-4_枠
  6
Continuous
 62
    92
370
    13
100
AcDbLine
 10
-234.1999148807008
 20
-2701.250083820241
 30
0.0
 11
-234.1999148807008
 21
-454.2500838202425
 31
0.0
  0
LINE
  5
1F6
330
1F
100
AcDbEntity
  8
0-4_枠
  6
Continuous
 62
    92
370
    13
100
AcDbLine
 10
-210.1999148807005
 20
-2701.250083820241
 30
0.0
 11
-210.1999148807005
 21
-478.2500838202415
 31
0.0
  0
LINE
  5
1F7
330
1F
100
AcDbEntity
  8
0-4_枠
  6
Continuous
 62
    92
370
    13
100
AcDbLine
 10
-2441.799671069996
 20
-2686.250083820241
 30
0.0
 11
-1711.799671069995
 21
-2686.250083820241
 31
0.0
  0
LINE
  5
1F8
330
1F
100
AcDbEntity
  8
0-4_枠
  6
Continuous
 62
    92
370
    13
100
AcDbLine
 10
-2465.799671069994
 20
-2701.250083820241
 30
0.0
 11
-1687.799671069996
 21
-2701.250083820241
 31
0.0
  0
LINE
  5
1F9
330
1F
100
AcDbEntity
  8
0-4_枠
  6
Continuous
 62
    92
370
    13
100
AcDbLine
 10
-2465.799671069994
 20
-454.2500838202425
 30
0.0
 11
-1687.799671069996
 21
-454.2500838202425
 31
0.0
  0
LINE
  5
1FA
330
1F
100
AcDbEntity
  8
0-4_枠
  6
Continuous
 62
    92
370
    13
100
AcDbLine
 10
-2441.799671069996
 20
-478.2500838202415
 30
0.0
 11
-1711.799671069995
 21
-478.2500838202415
 31
0.0
  0
LINE
  5
1FB
330
1F
100
AcDbEntity
  8
0-4_枠
  6
Continuous
 62
    92
370
    13
100
AcDbLine
 10
-1711.799671069995
 20
-2701.250083820241
 30
0.0
 11
-1711.799671069995
 21
-478.2500838202415
 31
0.0
  0
LINE
  5
1FC
330
1F
100
AcDbEntity
  8
0-4_枠
  6
Continuous
 62
    92
370
    13
100
AcDbLine
 10
-1687.799671069996
 20
-2701.250083820241
 30
0.0
 11
-1687.799671069996
 21
-454.2500838202425
 31
0.0
  0
LINE
  5
1FD
330
1F
100
AcDbEntity
  8
0-4_枠
  6
Continuous
 62
    92
370
    13
100
AcDbLine
 10
-2465.799671069994
 20
-2701.250083820241
 30
0.0
 11
-2465.799671069994
 21
-454.2500838202425
 31
0.0
  0
LINE
  5
1FE
330
1F
100
AcDbEntity
  8
0-4_枠
  6
Continuous
 62
    92
370
    13
100
AcDbLine
 10
-2441.799671069996
 20
-2701.250083820241
 30
0.0
 11
-2441.799671069996
 21
-478.2500838202415
 31
0.0
  0
LINE
  5
1FF
330
1F
100
AcDbEntity
  8
0-4_枠
  6
Continuous
 62
    92
370
    13
100
AcDbLine
 10
2021.400212468329
 20
-2686.250083820241
 30
0.0
 11
2708.400212468328
 21
-2686.250083820241
 31
0.0
  0
LINE
  5
200
330
1F
100
AcDbEntity
  8
0-4_枠
  6
Continuous
 62
    92
370
    13
100
AcDbLine
 10
1997.400212468327
 20
-2701.250083820241
 30
0.0
 11
2732.400212468327
 21
-2701.250083820241
 31
0.0
  0
LINE
  5
201
330
1F
100
AcDbEntity
  8
0-4_枠
  6
Continuous
 62
    92
370
    13
100
AcDbLine
 10
1997.400212468327
 20
-454.2500838202425
 30
0.0
 11
2732.400212468327
 21
-454.2500838202425
 31
0.0
  0
LINE
  5
202
330
1F
100
AcDbEntity
  8
0-4_枠
  6
Continuous
 62
    92
370
    13
100
AcDbLine
 10
2021.400212468329
 20
-478.2500838202415
 30
0.0
 11
2708.400212468328
 21
-478.2500838202415
 31
0.0
  0
LINE
  5
203
330
1F
100
AcDbEntity
  8
0-4_枠
  6
Continuous
 62
    92
370
    13
100
AcDbLine
 10
2708.400212468328
 20
-2701.250083820241
 30
0.0
 11
2708.400212468328
 21
-478.2500838202415
 31
0.0
  0
LINE
  5
204
330
1F
100
AcDbEntity
  8
0-4_枠
  6
Continuous
 62
    92
370
    13
100
AcDbLine
 10
2732.400212468327
 20
-2701.250083820241
 30
0.0
 11
2732.400212468327
 21
-454.2500838202425
 31
0.0
  0
LINE
  5
205
330
1F
100
AcDbEntity
  8
0-4_枠
  6
Continuous
 62
    92
370
    13
100
AcDbLine
 10
1997.400212468327
 20
-2701.250083820241
 30
0.0
 11
1997.400212468327
 21
-454.2500838202425
 31
0.0
  0
LINE
  5
206
330
1F
100
AcDbEntity
  8
0-4_枠
  6
Continuous
 62
    92
370
    13
100
AcDbLine
 10
2021.400212468329
 20
-2701.250083820241
 30
0.0
 11
2021.400212468329
 21
-478.2500838202415
 31
0.0
  0
LINE
  5
207
330
1F
100
AcDbEntity
  8
0-2_扉
  6
Continuous
 62
    92
370
    13
100
AcDbLine
 10
-4290.899798419022
 20
1443.000148463894
 30
0.0
 11
-4290.899798419022
 21
3438.000148463894
 31
0.0
  0
LINE
  5
208
330
1F
100
AcDbEntity
  8
0-2_扉
  6
Continuous
 62
    92
370
    13
100
AcDbLine
 10
-4252.899798419023
 20
1443.000148463894
 30
0.0
 11
-4252.899798419023
 21
3438.000148463894
 31
0.0
  0
LINE
  5
209
330
1F
100
AcDbEntity
  8
0-2_扉
  6
Continuous
 62
    92
370
    13
100
AcDbLine
 10
-2094.299671069996
 20
1443.000148463894
 30
0.0
 11
-2094.299671069996
 21
3438.000148463894
 31
0.0
  0
LINE
  5
20A
330
1F
100
AcDbEntity
  8
0-2_扉
  6
Continuous
 62
    92
370
    13
100
AcDbLine
 10
-2056.299671069997
 20
1443.000148463894
 30
0.0
 11
-2056.299671069997
 21
3438.000148463894
 31
0.0
  0
LINE
  5
20B
330
1F
100
AcDbEntity
  8
0-2_扉
  6
Continuous
 62
    92
370
    13
100
AcDbLine
 10
127.3000851192978
 20
1443.000148463894
 30
0.0
 11
127.3000851192978
 21
3438.000148463894
 31
0.0
  0
LINE
  5
20C
330
1F
100
AcDbEntity
  8
0-2_扉
  6
Continuous
 62
    92
370
    13
100
AcDbLine
 10
165.3000851192974
 20
1443.000148463894
 30
0.0
 11
165.3000851192974
 21
3438.000148463894
 31
0.0
  0
LINE
  5
20D
330
1F
100
AcDbEntity
  8
0-2_扉
  6
Continuous
 62
    92
370
    13
100
AcDbLine
 10
2347.400212468329
 20
1443.000148463894
 30
0.0
 11
2347.400212468329
 21
3438.000148463894
 31
0.0
  0
LINE
  5
20E
330
1F
100
AcDbEntity
  8
0-2_扉
  6
Continuous
 62
    92
370
    13
100
AcDbLine
 10
2385.400212468326
 20
1443.000148463894
 30
0.0
 11
2385.400212468326
 21
3438.000148463894
 31
0.0
  0
LINE
  5
20F
330
1F
100
AcDbEntity
  8
0-2_扉
  6
Continuous
 62
    92
370
    13
100
AcDbLine
 10
-4254.399798419023
 20
-2676.250083820242
 30
0.0
 11
-4254.399798419023
 21
-481.2500838202422
 31
0.0
  0
LINE
  5
210
330
1F
100
AcDbEntity
  8
0-2_扉
  6
Continuous
 62
    92
370
    13
100
AcDbLine
 10
-4292.399798419023
 20
-2676.250083820242
 30
0.0
 11
-4292.399798419023
 21
-481.2500838202422
 31
0.0
  0
LINE
  5
211
330
1F
100
AcDbEntity
  8
0-2_扉
  6
Continuous
 62
    92
370
    13
100
AcDbLine
 10
163.8000851192992
 20
-2676.250083820242
 30
0.0
 11
163.8000851192992
 21
-481.2500838202422
 31
0.0
  0
LINE
  5
212
330
1F
100
AcDbEntity
  8
0-2_扉
  6
Continuous
 62
    92
370
    13
100
AcDbLine
 10
125.8000851192996
 20
-2676.250083820242
 30
0.0
 11
125.8000851192996
 21
-481.2500838202422
 31
0.0
  0
LINE
  5
213
330
1F
100
AcDbEntity
  8
0-2_扉
  6
Continuous
 62
    92
370
    13
100
AcDbLine
 10
-2057.799671069995
 20
-2676.250083820242
 30
0.0
 11
-2057.799671069995
 21
-481.2500838202422
 31
0.0
  0
LINE
  5
214
330
1F
100
AcDbEntity
  8
0-2_扉
  6
Continuous
 62
    92
370
    13
100
AcDbLine
 10
-2095.799671069995
 20
-2676.250083820242
 30
0.0
 11
-2095.799671069995
 21
-481.2500838202422
 31
0.0
  0
LINE
  5
215
330
1F
100
AcDbEntity
  8
0-2_扉
  6
Continuous
 62
    92
370
    13
100
AcDbLine
 10
2383.900212468327
 20
-2676.250083820242
 30
0.0
 11
2383.900212468327
 21
-481.2500838202422
 31
0.0
  0
LINE
  5
216
330
1F
100
AcDbEntity
  8
0-2_扉
  6
Continuous
 62
    92
370
    13
100
AcDbLine
 10
2345.900212468327
 20
-2676.250083820242
 30
0.0
 11
2345.900212468327
 21
-481.2500838202422
 31
0.0
  0
CIRCLE
  5
217
330
1F
100
AcDbEntity
  8
0-2_扉
  6
Continuous
 62
    92
370
    13
100
AcDbCircle
 10
4321.000339817355
 20
-651.2500838202411
 30
0.0
 40
12.50000016109364
  0
CIRCLE
  5
218
330
1F
100
AcDbEntity
  8
0-2_扉
  6
Continuous
 62
     7
370
     9
100
AcDbCircle
 10
4321.000339817355
 20
-651.2500838202411
 30
0.0
 40
15.00000019331236
  0
CIRCLE
  5
219
330
1F
100
AcDbEntity
  8
0-2_扉
  6
Continuous
 62
     7
370
     9
100
AcDbCircle
 10
4321.000339817354
 20
3268.000148463894
 30
0.0
 40
15.00000019331236
  0
LINE
  5
21A
330
1F
100
AcDbEntity
  8
0-2_扉
  6
Continuous
 62
    92
370
    13
100
AcDbLine
 10
4537.000339817357
 20
-2676.250083820242
 30
0.0
 11
4537.000339817357
 21
-481.2500838202422
 31
0.0
  0
LINE
  5
21B
330
1F
100
AcDbEntity
  8
0-2_扉
  6
Continuous
 62
    92
370
    13
100
AcDbLine
 10
4575.000339817356
 20
-2676.250083820242
 30
0.0
 11
4575.000339817356
 21
-481.2500838202422
 31
0.0
  0
LINE
  5
21C
330
1F
100
AcDbEntity
  8
0-2_扉
  6
Continuous
 62
    92
370
    13
100
AcDbLine
 10
4576.500339817355
 20
1443.000148463894
 30
0.0
 11
4576.500339817355
 21
3438.000148463894
 31
0.0
  0
LINE
  5
21D
330
1F
100
AcDbEntity
  8
0-2_扉
  6
Continuous
 62
    92
370
    13
100
AcDbLine
 10
4538.500339817359
 20
1443.000148463894
 30
0.0
 11
4538.500339817359
 21
3438.000148463894
 31
0.0
  0
LINE
  5
21E
330
1F
100
AcDbEntity
  8
0-2_扉
  6
Continuous
 62
    92
370
    13
100
AcDbLine
 10
2026.400212468328
 20
-481.2500838202413
 30
0.0
 11
2706.400212468327
 21
-481.2500838202413
 31
0.0
  0
LINE
  5
21F
330
1F
100
AcDbEntity
  8
0-2_扉
  6
Continuous
 62
    92
370
    13
100
AcDbLine
 10
2026.400212468328
 20
-2676.250083820242
 30
0.0
 11
2026.400212468328
 21
-481.2500838202413
 31
0.0
  0
LINE
  5
220
330
1F
100
AcDbEntity
  8
0-2_扉
  6
Continuous
 62
    92
370
    13
100
AcDbLine
 10
2706.400212468327
 20
-2676.250083820242
 30
0.0
 11
2706.400212468327
 21
-481.2500838202413
 31
0.0
  0
LINE
  5
221
330
1F
100
AcDbEntity
  8
0-2_扉
  6
Continuous
 62
    92
370
    13
100
AcDbLine
 10
2026.400212468328
 20
-2676.250083820242
 30
0.0
 11
2706.400212468327
 21
-2676.250083820242
 31
0.0
  0
LINE
  5
222
330
1F
100
AcDbEntity
  8
0-2_扉
  6
Continuous
 62
    92
370
    13
100
AcDbLine
 10
-205.1999148806999
 20
-2676.250083820242
 30
0.0
 11
497.8000851192985
 21
-2676.250083820242
 31
0.0
  0
LINE
  5
223
330
1F
100
AcDbEntity
  8
0-2_扉
  6
Continuous
 62
    92
370
    13
100
AcDbLine
 10
497.8000851192985
 20
-2676.250083820242
 30
0.0
 11
497.8000851192985
 21
-481.2500838202413
 31
0.0
  0
LINE
  5
224
330
1F
100
AcDbEntity
  8
0-2_扉
  6
Continuous
 62
    92
370
    13
100
AcDbLine
 10
-205.1999148806999
 20
-2676.250083820242
 30
0.0
 11
-205.1999148806999
 21
-481.2500838202413
 31
0.0
  0
LINE
  5
225
330
1F
100
AcDbEntity
  8
0-2_扉
  6
Continuous
 62
    92
370
    13
100
AcDbLine
 10
-205.1999148806999
 20
-481.2500838202413
 30
0.0
 11
497.8000851192985
 21
-481.2500838202413
 31
0.0
  0
LINE
  5
226
330
1F
100
AcDbEntity
  8
0-2_扉
  6
Continuous
 62
    92
370
    13
100
AcDbLine
 10
-2436.799671069995
 20
-481.2500838202413
 30
0.0
 11
-1713.799671069996
 21
-481.2500838202413
 31
0.0
  0
LINE
  5
227
330
1F
100
AcDbEntity
  8
0-2_扉
  6
Continuous
 62
    92
370
    13
100
AcDbLine
 10
-2436.799671069995
 20
-2676.250083820242
 30
0.0
 11
-2436.799671069995
 21
-481.2500838202413
 31
0.0
  0
LINE
  5
228
330
1F
100
AcDbEntity
  8
0-2_扉
  6
Continuous
 62
    92
370
    13
100
AcDbLine
 10
-1713.799671069996
 20
-2676.250083820242
 30
0.0
 11
-1713.799671069996
 21
-481.2500838202413
 31
0.0
  0
LINE
  5
229
330
1F
100
AcDbEntity
  8
0-2_扉
  6
Continuous
 62
    92
370
    13
100
AcDbLine
 10
-2436.799671069995
 20
-2676.250083820242
 30
0.0
 11
-1713.799671069996
 21
-2676.250083820242
 31
0.0
  0
LINE
  5
22A
330
1F
100
AcDbEntity
  8
0-2_扉
  6
Continuous
 62
    92
370
    13
100
AcDbLine
 10
-4668.399798419025
 20
-2676.250083820242
 30
0.0
 11
-3875.399798419023
 21
-2676.250083820242
 31
0.0
  0
LINE
  5
22B
330
1F
100
AcDbEntity
  8
0-2_扉
  6
Continuous
 62
    92
370
    13
100
AcDbLine
 10
-3875.399798419023
 20
-2676.250083820242
 30
0.0
 11
-3875.399798419023
 21
-481.2500838202413
 31
0.0
  0
LINE
  5
22C
330
1F
100
AcDbEntity
  8
0-2_扉
  6
Continuous
 62
    92
370
    13
100
AcDbLine
 10
-4668.399798419025
 20
-2676.250083820242
 30
0.0
 11
-4668.399798419025
 21
-481.2500838202413
 31
0.0
  0
LINE
  5
22D
330
1F
100
AcDbEntity
  8
0-2_扉
  6
Continuous
 62
    92
370
    13
100
AcDbLine
 10
-4668.399798419025
 20
-481.2500838202413
 30
0.0
 11
-3875.399798419023
 21
-481.2500838202413
 31
0.0
  0
MTEXT
  5
22E
330
1F
100
AcDbEntity
  8
0-A_文字
  6
Continuous
 62
     7
370
     9
100
AcDbMText
 10
-5370.000018557986
 20
541.5751831054683
 30
0.0
 40
57.15
 41
525.0
 46
0.0
 71
     7
 72
     1
  1
{\fＭＳ ゴシック|b0|i0|c128|p49;スリットパネル}
 73
     1
 44
1.0
  0
MTEXT
  5
22F
330
1F
100
AcDbEntity
  8
0-A_文字
  6
Continuous
 62
     7
370
     9
100
AcDbMText
 10
-3138.399798419025
 20
541.5751831054683
 30
0.0
 40
57.15
 41
525.0
 46
0.0
 71
     7
 72
     1
  1
{\fＭＳ ゴシック|b0|i0|c128|p49;スリットパネル}
 73
     1
 44
1.0
  0
MTEXT
  5
230
330
1F
100
AcDbEntity
  8
0-A_文字
  6
Continuous
 62
     7
370
     9
100
AcDbMText
 10
-906.7996710699953
 20
541.5751831054683
 30
0.0
 40
57.15
 41
525.0
 46
0.0
 71
     7
 72
     1
  1
{\fＭＳ ゴシック|b0|i0|c128|p49;スリットパネル}
 73
     1
 44
1.0
  0
MTEXT
  5
231
330
1F
100
AcDbEntity
  8
0-A_文字
  6
Continuous
 62
     7
370
     9
100
AcDbMText
 10
1324.8000851193
 20
541.5751831054683
 30
0.0
 40
57.15
 41
525.0
 46
0.0
 71
     7
 72
     1
  1
{\fＭＳ ゴシック|b0|i0|c128|p49;スリットパネル}
 73
     1
 44
1.0
  0
MTEXT
  5
232
330
1F
100
AcDbEntity
  8
0-A_文字
  6
Continuous
 62
     7
370
     9
100
AcDbMText
 10
3556.400212468327
 20
421.5751831054692
 30
0.0
 40
57.15
 41
375.0
 46
0.0
 71
     7
 72
     1
  1
{\fＭＳ ゴシック|b0|i0|c128|p49;スコープ付}
 73
     1
 44
1.0
  0
MTEXT
  5
233
330
1F
100
AcDbEntity
  8
0-A_文字
  6
Continuous
 62
     7
370
     9
100
AcDbMText
 10
3556.400212468328
 20
541.5751831054683
 30
0.0
 40
57.15
 41
525.0
 46
0.0
 71
     7
 72
     1
  1
{\fＭＳ ゴシック|b0|i0|c128|p49;スリットパネル}
 73
     1
 44
1.0
  0
MTEXT
  5
234
330
1F
100
AcDbEntity
  8
0-A_文字
  6
Continuous
 62
     7
370
     9
100
AcDbMText
 10
3556.400212468327
 20
-3678.925017526988
 30
0.0
 40
57.15
 41
375.0
 46
0.0
 71
     7
 72
     1
  1
{\fＭＳ ゴシック|b0|i0|c128|p49;スコープ付}
 73
     1
 44
1.0
  0
MTEXT
  5
235
330
1F
100
AcDbEntity
  8
0-A_文字
  6
Continuous
 62
     7
370
     9
100
AcDbMText
 10
-5370.000018557986
 20
-3558.925017526989
 30
0.0
 40
57.15
 41
525.0
 46
0.0
 71
     7
 72
     1
  1
{\fＭＳ ゴシック|b0|i0|c128|p49;スリットパネル}
 73
     1
 44
1.0
  0
MTEXT
  5
236
330
1F
100
AcDbEntity
  8
0-A_文字
  6
Continuous
 62
     7
370
     9
100
AcDbMText
 10
-3138.399798419025
 20
-3558.925017526989
 30
0.0
 40
57.15
 41
525.0
 46
0.0
 71
     7
 72
     1
  1
{\fＭＳ ゴシック|b0|i0|c128|p49;スリットパネル}
 73
     1
 44
1.0
  0
MTEXT
  5
237
330
1F
100
AcDbEntity
  8
0-A_文字
  6
Continuous
 62
     7
370
     9
100
AcDbMText
 10
-906.7996710699953
 20
-3558.925017526989
 30
0.0
 40
57.15
 41
525.0
 46
0.0
 71
     7
 72
     1
  1
{\fＭＳ ゴシック|b0|i0|c128|p49;スリットパネル}
 73
     1
 44
1.0
  0
MTEXT
  5
238
330
1F
100
AcDbEntity
  8
0-A_文字
  6
Continuous
 62
     7
370
     9
100
AcDbMText
 10
1324.8000851193
 20
-3558.925017526989
 30
0.0
 40
57.15
 41
525.0
 46
0.0
 71
     7
 72
     1
  1
{\fＭＳ ゴシック|b0|i0|c128|p49;スリットパネル}
 73
     1
 44
1.0
  0
MTEXT
  5
239
330
1F
100
AcDbEntity
  8
0-A_文字
  6
Continuous
 62
     7
370
     9
100
AcDbMText
 10
3556.400212468328
 20
-3558.925017526989
 30
0.0
 40
57.15
 41
525.0
 46
0.0
 71
     7
 72
     1
  1
{\fＭＳ ゴシック|b0|i0|c128|p49;スリットパネル}
 73
     1
 44
1.0
  0
LINE
  5
23A
330
1F
100
AcDbEntity
  8
レバー
  6
JWW_CENTER1
 62
   120
370
     5
100
AcDbLine
 10
-4571.097619875986
 20
2400.500148463894
 30
0.0
 11
-4654.123571613838
 21
2400.500148463894
 31
0.0
  0
LINE
  5
23B
330
1F
100
AcDbEntity
  8
レバー
  6
JWW_CENTER1
 62
   120
370
     5
100
AcDbLine
 10
-4617.899798419025
 20
2456.957109057684
 30
0.0
 11
-4617.899798419025
 21
2357.11335576942
 31
0.0
  0
LINE
  5
23C
330
1F
100
AcDbEntity
  8
レバー
  6
Continuous
 62
     7
370
     0
100
AcDbLine
 10
-4502.399877276025
 20
2407.500135175793
 30
0.0
 11
-4511.475176181325
 21
2407.500015035194
 31
0.0
  0
LINE
  5
23D
330
1F
100
AcDbEntity
  8
レバー
  6
Continuous
 62
     7
370
     0
100
AcDbLine
 10
-4511.475176181325
 20
2407.500015035194
 30
0.0
 11
-4511.875622536725
 21
2407.500001065394
 31
0.0
  0
ARC
  5
23E
330
1F
100
AcDbEntity
  8
レバー
  6
Continuous
 62
     7
370
     0
100
AcDbCircle
 10
-4502.399798419026
 20
2395.000148201294
 30
0.0
 40
1.500000000000118
100
AcDbArc
 50
270.164192293
 51
0.000004253700026
  0
ARC
  5
23F
330
1F
100
AcDbEntity
  8
レバー
  6
Continuous
 62
     7
370
     0
100
AcDbCircle
 10
-4502.399798419026
 20
2406.000148774894
 30
0.0
 40
1.500000000000029
100
AcDbArc
 50
0.0084663275
 51
89.9162980715
  0
LINE
  5
240
330
1F
100
AcDbEntity
  8
レバー
  6
Continuous
 62
     7
370
     0
100
AcDbLine
 10
-4612.881420742426
 20
2393.514032404794
 30
0.0
 11
-4612.749119385824
 21
2393.507241666294
 31
0.0
  0
LINE
  5
241
330
1F
100
AcDbEntity
  8
レバー
  6
Continuous
 62
     7
370
     0
100
AcDbLine
 10
-4612.749119385824
 20
2393.507241666294
 30
0.0
 11
-4612.313378233225
 21
2393.505309171893
 31
0.0
  0
LINE
  5
242
330
1F
100
AcDbEntity
  8
レバー
  6
Continuous
 62
     7
370
     0
100
AcDbLine
 10
-4612.313378233225
 20
2393.505309171893
 30
0.0
 11
-4611.585184562625
 21
2393.505654226894
 31
0.0
  0
LINE
  5
243
330
1F
100
AcDbEntity
  8
レバー
  6
Continuous
 62
     7
370
     0
100
AcDbLine
 10
-4611.585184562625
 20
2393.505654226894
 30
0.0
 11
-4610.570398255924
 21
2393.506905924493
 31
0.0
  0
LINE
  5
244
330
1F
100
AcDbEntity
  8
レバー
  6
Continuous
 62
     7
370
     0
100
AcDbLine
 10
-4610.570398255924
 20
2393.506905924493
 30
0.0
 11
-4609.306870590624
 21
2393.508214432693
 31
0.0
  0
LINE
  5
245
330
1F
100
AcDbEntity
  8
レバー
  6
Continuous
 62
     7
370
     0
100
AcDbLine
 10
-4609.306870590624
 20
2393.508214432693
 30
0.0
 11
-4607.957340407825
 21
2393.508567869593
 31
0.0
  0
LINE
  5
246
330
1F
100
AcDbEntity
  8
レバー
  6
Continuous
 62
     7
370
     0
100
AcDbLine
 10
-4607.957340407825
 20
2393.508567869593
 30
0.0
 11
-4605.103822987225
 21
2393.506591137393
 31
0.0
  0
LINE
  5
247
330
1F
100
AcDbEntity
  8
レバー
  6
Continuous
 62
     7
370
     0
100
AcDbLine
 10
-4605.103822987225
 20
2393.506591137393
 30
0.0
 11
-4602.121987011025
 21
2393.501997388793
 31
0.0
  0
LINE
  5
248
330
1F
100
AcDbEntity
  8
レバー
  6
Continuous
 62
     7
370
     0
100
AcDbLine
 10
-4602.121987011025
 20
2393.501997388793
 30
0.0
 11
-4599.101264592025
 21
2393.499811109094
 31
0.0
  0
LINE
  5
249
330
1F
100
AcDbEntity
  8
レバー
  6
Continuous
 62
     7
370
     0
100
AcDbLine
 10
-4599.101264592025
 20
2393.499811109094
 30
0.0
 11
-4596.058676581525
 21
2393.499948479194
 31
0.0
  0
LINE
  5
24A
330
1F
100
AcDbEntity
  8
レバー
  6
Continuous
 62
     7
370
     0
100
AcDbLine
 10
-4596.058676581525
 20
2393.499948479194
 30
0.0
 11
-4592.994394343024
 21
2393.500394582694
 31
0.0
  0
LINE
  5
24B
330
1F
100
AcDbEntity
  8
レバー
  6
Continuous
 62
     7
370
     0
100
AcDbLine
 10
-4592.994394343024
 20
2393.500394582694
 30
0.0
 11
-4589.908589239925
 21
2393.500785738193
 31
0.0
  0
LINE
  5
24C
330
1F
100
AcDbEntity
  8
レバー
  6
Continuous
 62
     7
370
     0
100
AcDbLine
 10
-4589.908589239925
 20
2393.500785738193
 30
0.0
 11
-4585.911498035925
 21
2393.501209955594
 31
0.0
  0
LINE
  5
24D
330
1F
100
AcDbEntity
  8
レバー
  6
Continuous
 62
     7
370
     0
100
AcDbLine
 10
-4585.911498035925
 20
2393.501209955594
 30
0.0
 11
-4581.502512659625
 21
2393.501577362394
 31
0.0
  0
LINE
  5
24E
330
1F
100
AcDbEntity
  8
レバー
  6
Continuous
 62
     7
370
     0
100
AcDbLine
 10
-4581.502512659625
 20
2393.501577362394
 30
0.0
 11
-4576.532751884026
 21
2393.501876782594
 31
0.0
  0
LINE
  5
24F
330
1F
100
AcDbEntity
  8
レバー
  6
Continuous
 62
     7
370
     0
100
AcDbLine
 10
-4576.532751884026
 20
2393.501876782594
 30
0.0
 11
-4571.002211983925
 21
2393.502080742193
 31
0.0
  0
LINE
  5
250
330
1F
100
AcDbEntity
  8
レバー
  6
Continuous
 62
     7
370
     0
100
AcDbLine
 10
-4571.002211983925
 20
2393.502080742193
 30
0.0
 11
-4564.910896684725
 21
2393.502168752193
 31
0.0
  0
LINE
  5
251
330
1F
100
AcDbEntity
  8
レバー
  6
Continuous
 62
     7
370
     0
100
AcDbLine
 10
-4564.910896684725
 20
2393.502168752193
 30
0.0
 11
-4558.258802260925
 21
2393.502126376994
 31
0.0
  0
LINE
  5
252
330
1F
100
AcDbEntity
  8
レバー
  6
Continuous
 62
     7
370
     0
100
AcDbLine
 10
-4558.258802260925
 20
2393.502126376994
 30
0.0
 11
-4551.045924987325
 21
2393.501951288394
 31
0.0
  0
LINE
  5
253
330
1F
100
AcDbEntity
  8
レバー
  6
Continuous
 62
     7
370
     0
100
AcDbLine
 10
-4551.045924987325
 20
2393.501951288394
 30
0.0
 11
-4542.464055683226
 21
2393.501620203193
 31
0.0
  0
LINE
  5
254
330
1F
100
AcDbEntity
  8
レバー
  6
Continuous
 62
     7
370
     0
100
AcDbLine
 10
-4542.464055683226
 20
2393.501620203193
 30
0.0
 11
-4533.203624751124
 21
2393.501182481594
 31
0.0
  0
LINE
  5
255
330
1F
100
AcDbEntity
  8
レバー
  6
Continuous
 62
     7
370
     0
100
AcDbLine
 10
-4533.203624751124
 20
2393.501182481594
 30
0.0
 11
-4523.264639641825
 21
2393.500710300994
 31
0.0
  0
LINE
  5
256
330
1F
100
AcDbEntity
  8
レバー
  6
Continuous
 62
     7
370
     0
100
AcDbLine
 10
-4523.264639641825
 20
2393.500710300994
 30
0.0
 11
-4512.647085454025
 21
2393.500314023294
 31
0.0
  0
LINE
  5
257
330
1F
100
AcDbEntity
  8
レバー
  6
Continuous
 62
     7
370
     0
100
AcDbLine
 10
-4512.647085454025
 20
2393.500314023294
 30
0.0
 11
-4502.399877276025
 21
2393.500163148994
 31
0.0
  0
LINE
  5
258
330
1F
100
AcDbEntity
  8
レバー
  6
Continuous
 62
     7
370
     0
100
AcDbLine
 10
-4502.399929430026
 20
2407.500134710194
 30
0.0
 11
-4512.129031683925
 21
2407.499997340094
 31
0.0
  0
LINE
  5
259
330
1F
100
AcDbEntity
  8
レバー
  6
Continuous
 62
     7
370
     0
100
AcDbLine
 10
-4512.129031683925
 20
2407.499997340094
 30
0.0
 11
-4522.313826348325
 21
2407.499628070693
 31
0.0
  0
LINE
  5
25A
330
1F
100
AcDbEntity
  8
レバー
  6
Continuous
 62
     7
370
     0
100
AcDbLine
 10
-4522.313826348325
 20
2407.499628070693
 30
0.0
 11
-4531.905375983325
 21
2407.499177776194
 31
0.0
  0
LINE
  5
25B
330
1F
100
AcDbEntity
  8
レバー
  6
Continuous
 62
     7
370
     0
100
AcDbLine
 10
-4531.905375983325
 20
2407.499177776194
 30
0.0
 11
-4540.903673138226
 21
2407.498746573893
 31
0.0
  0
LINE
  5
25C
330
1F
100
AcDbEntity
  8
レバー
  6
Continuous
 62
     7
370
     0
100
AcDbLine
 10
-4540.903673138226
 20
2407.498746573893
 30
0.0
 11
-4549.308740164824
 21
2407.498403381494
 31
0.0
  0
LINE
  5
25D
330
1F
100
AcDbEntity
  8
レバー
  6
Continuous
 62
     7
370
     0
100
AcDbLine
 10
-4549.308740164824
 20
2407.498403381494
 30
0.0
 11
-4557.120573337825
 21
2407.498190108593
 31
0.0
  0
LINE
  5
25E
330
1F
100
AcDbEntity
  8
レバー
  6
Continuous
 62
     7
370
     0
100
AcDbLine
 10
-4557.120573337825
 20
2407.498190108593
 30
0.0
 11
-4563.942675109625
 21
2407.498125847394
 31
0.0
  0
LINE
  5
25F
330
1F
100
AcDbEntity
  8
レバー
  6
Continuous
 62
     7
370
     0
100
AcDbLine
 10
-4563.942675109625
 20
2407.498125847394
 30
0.0
 11
-4570.237421061524
 21
2407.498197093593
 31
0.0
  0
LINE
  5
260
330
1F
100
AcDbEntity
  8
レバー
  6
Continuous
 62
     7
370
     0
100
AcDbLine
 10
-4570.237421061524
 20
2407.498197093593
 30
0.0
 11
-4576.004811193525
 21
2407.498394999594
 31
0.0
  0
LINE
  5
261
330
1F
100
AcDbEntity
  8
レバー
  6
Continuous
 62
     7
370
     0
100
AcDbLine
 10
-4576.004811193525
 20
2407.498394999594
 30
0.0
 11
-4581.246551688525
 21
2407.498700939094
 31
0.0
  0
LINE
  5
262
330
1F
100
AcDbEntity
  8
レバー
  6
Continuous
 62
     7
370
     0
100
AcDbLine
 10
-4581.246551688525
 20
2407.498700939094
 30
0.0
 11
-4586.043708588625
 21
2407.499099079494
 31
0.0
  0
LINE
  5
263
330
1F
100
AcDbEntity
  8
レバー
  6
Continuous
 62
     7
370
     0
100
AcDbLine
 10
-4586.043708588625
 20
2407.499099079494
 30
0.0
 11
-4590.694888125825
 21
2407.499603390594
 31
0.0
  0
LINE
  5
264
330
1F
100
AcDbEntity
  8
レバー
  6
Continuous
 62
     7
370
     0
100
AcDbLine
 10
-4590.694888125825
 20
2407.499603390594
 30
0.0
 11
-4594.896991368125
 21
2407.500165443793
 31
0.0
  0
LINE
  5
265
330
1F
100
AcDbEntity
  8
レバー
  6
Continuous
 62
     7
370
     0
100
AcDbLine
 10
-4594.896991368125
 20
2407.500165443793
 30
0.0
 11
-4598.650420646825
 21
2407.500547286093
 31
0.0
  0
LINE
  5
266
330
1F
100
AcDbEntity
  8
レバー
  6
Continuous
 62
     7
370
     0
100
AcDbLine
 10
-4598.650420646825
 20
2407.500547286093
 30
0.0
 11
-4600.652278031825
 21
2407.499832030293
 31
0.0
  0
LINE
  5
267
330
1F
100
AcDbEntity
  8
レバー
  6
Continuous
 62
     7
370
     0
100
AcDbLine
 10
-4600.652278031825
 20
2407.499832030293
 30
0.0
 11
-4602.498645525126
 21
2407.497828755494
 31
0.0
  0
LINE
  5
268
330
1F
100
AcDbEntity
  8
レバー
  6
Continuous
 62
     7
370
     0
100
AcDbLine
 10
-4602.498645525126
 20
2407.497828755494
 30
0.0
 11
-4604.508265483825
 21
2407.494542118093
 31
0.0
  0
LINE
  5
269
330
1F
100
AcDbEntity
  8
レバー
  6
Continuous
 62
     7
370
     0
100
AcDbLine
 10
-4604.508265483825
 20
2407.494542118093
 30
0.0
 11
-4606.916200931825
 21
2407.491975858793
 31
0.0
  0
LINE
  5
26A
330
1F
100
AcDbEntity
  8
レバー
  6
Continuous
 62
     7
370
     0
100
AcDbLine
 10
-4606.916200931825
 20
2407.491975858793
 30
0.0
 11
-4608.411361094325
 21
2407.491487380094
 31
0.0
  0
LINE
  5
26B
330
1F
100
AcDbEntity
  8
レバー
  6
Continuous
 62
     7
370
     0
100
AcDbLine
 10
-4608.411361094325
 20
2407.491487380094
 30
0.0
 11
-4609.948711100725
 21
2407.492237094694
 31
0.0
  0
LINE
  5
26C
330
1F
100
AcDbEntity
  8
レバー
  6
Continuous
 62
     7
370
     0
100
AcDbLine
 10
-4609.948711100725
 20
2407.492237094694
 30
0.0
 11
-4611.467010903825
 21
2407.493438966494
 31
0.0
  0
LINE
  5
26D
330
1F
100
AcDbEntity
  8
レバー
  6
Continuous
 62
     7
370
     0
100
AcDbLine
 10
-4611.467010903825
 20
2407.493438966494
 30
0.0
 11
-4612.567682381425
 21
2407.492574699193
 31
0.0
  0
LINE
  5
26E
330
1F
100
AcDbEntity
  8
レバー
  6
Continuous
 62
     7
370
     0
100
AcDbLine
 10
-4612.567682381425
 20
2407.492574699193
 30
0.0
 11
-4613.030007205624
 21
2407.485984660593
 31
0.0
  0
LINE
  5
26F
330
1F
100
AcDbEntity
  8
レバー
  6
Continuous
 62
     7
370
     0
100
AcDbLine
 10
-4613.030007205624
 20
2407.485984660593
 30
0.0
 11
-4613.033926676624
 21
2407.481904536393
 31
0.0
  0
ARC
  5
270
330
1F
100
AcDbEntity
  8
レバー
  6
Continuous
 62
     7
370
     0
100
AcDbCircle
 10
-4502.399798419026
 20
2406.000148726594
 30
0.0
 40
1.500000000000118
100
AcDbArc
 50
359.9999957463
 51
90.17419294509996
  0
ARC
  5
271
330
1F
100
AcDbEntity
  8
レバー
  6
Continuous
 62
     7
370
     0
100
AcDbCircle
 10
-4502.399798419026
 20
2395.000148152993
 30
0.0
 40
1.500000000000029
100
AcDbArc
 50
269.9105889113
 51
359.9915336725
  0
LINE
  5
272
330
1F
100
AcDbEntity
  8
レバー
  6
Continuous
 62
     7
370
     0
100
AcDbLine
 10
-4607.944411787825
 20
2407.491640116994
 30
0.0
 11
-4608.707409914325
 21
2408.278323173494
 31
0.0
  0
LINE
  5
273
330
1F
100
AcDbEntity
  8
レバー
  6
Continuous
 62
     7
370
     0
100
AcDbLine
 10
-4608.707409914325
 20
2408.278323173494
 30
0.0
 11
-4610.677385333625
 21
2409.646314497993
 31
0.0
  0
LINE
  5
274
330
1F
100
AcDbEntity
  8
レバー
  6
Continuous
 62
     7
370
     0
100
AcDbLine
 10
-4610.677385333625
 20
2409.646314497993
 30
0.0
 11
-4612.924913972325
 21
2410.662823285893
 31
0.0
  0
LINE
  5
275
330
1F
100
AcDbEntity
  8
レバー
  6
Continuous
 62
     7
370
     0
100
AcDbLine
 10
-4612.924913972325
 20
2410.662823285893
 30
0.0
 11
-4615.363624276325
 21
2411.288786608693
 31
0.0
  0
LINE
  5
276
330
1F
100
AcDbEntity
  8
レバー
  6
Continuous
 62
     7
370
     0
100
AcDbLine
 10
-4615.363624276325
 20
2411.288786608693
 30
0.0
 11
-4617.899798419025
 21
2411.500148404293
 31
0.0
  0
LINE
  5
277
330
1F
100
AcDbEntity
  8
レバー
  6
Continuous
 62
     7
370
     0
100
AcDbLine
 10
-4617.899798419025
 20
2411.500148404293
 30
0.0
 11
-4620.435972561825
 21
2411.288786608693
 31
0.0
  0
LINE
  5
278
330
1F
100
AcDbEntity
  8
レバー
  6
Continuous
 62
     7
370
     0
100
AcDbLine
 10
-4620.435972561825
 20
2411.288786608693
 30
0.0
 11
-4622.874682865725
 21
2410.662823285893
 31
0.0
  0
LINE
  5
279
330
1F
100
AcDbEntity
  8
レバー
  6
Continuous
 62
     7
370
     0
100
AcDbLine
 10
-4622.874682865725
 20
2410.662823285893
 30
0.0
 11
-4625.122211504425
 21
2409.646314497993
 31
0.0
  0
LINE
  5
27A
330
1F
100
AcDbEntity
  8
レバー
  6
Continuous
 62
     7
370
     0
100
AcDbLine
 10
-4625.122211504425
 20
2409.646314497993
 30
0.0
 11
-4627.092186923825
 21
2408.278323173494
 31
0.0
  0
LINE
  5
27B
330
1F
100
AcDbEntity
  8
レバー
  6
Continuous
 62
     7
370
     0
100
AcDbLine
 10
-4627.092186923825
 20
2408.278323173494
 30
0.0
 11
-4628.708903308625
 21
2406.611421074694
 31
0.0
  0
LINE
  5
27C
330
1F
100
AcDbEntity
  8
レバー
  6
Continuous
 62
     7
370
     0
100
AcDbLine
 10
-4628.708903308625
 20
2406.611421074694
 30
0.0
 11
-4629.910232130125
 21
2404.709666430894
 31
0.0
  0
LINE
  5
27D
330
1F
100
AcDbEntity
  8
レバー
  6
Continuous
 62
     7
370
     0
100
AcDbLine
 10
-4629.910232130125
 20
2404.709666430894
 30
0.0
 11
-4630.650006796925
 21
2402.646141987193
 31
0.0
  0
LINE
  5
27E
330
1F
100
AcDbEntity
  8
レバー
  6
Continuous
 62
     7
370
     0
100
AcDbLine
 10
-4630.650006796925
 20
2402.646141987193
 30
0.0
 11
-4630.899798687225
 21
2400.500148463894
 31
0.0
  0
LINE
  5
27F
330
1F
100
AcDbEntity
  8
レバー
  6
Continuous
 62
     7
370
     0
100
AcDbLine
 10
-4630.899798687225
 20
2400.500148463894
 30
0.0
 11
-4630.650006796925
 21
2398.354154940594
 31
0.0
  0
LINE
  5
280
330
1F
100
AcDbEntity
  8
レバー
  6
Continuous
 62
     7
370
     0
100
AcDbLine
 10
-4630.650006796925
 20
2398.354154940594
 30
0.0
 11
-4629.910232130125
 21
2396.290630496993
 31
0.0
  0
LINE
  5
281
330
1F
100
AcDbEntity
  8
レバー
  6
Continuous
 62
     7
370
     0
100
AcDbLine
 10
-4629.910232130125
 20
2396.290630496993
 30
0.0
 11
-4628.708903308625
 21
2394.388875853193
 31
0.0
  0
LINE
  5
282
330
1F
100
AcDbEntity
  8
レバー
  6
Continuous
 62
     7
370
     0
100
AcDbLine
 10
-4628.708903308625
 20
2394.388875853193
 30
0.0
 11
-4627.092186923825
 21
2392.721973754393
 31
0.0
  0
LINE
  5
283
330
1F
100
AcDbEntity
  8
レバー
  6
Continuous
 62
     7
370
     0
100
AcDbLine
 10
-4627.092186923825
 20
2392.721973754393
 30
0.0
 11
-4625.122211504425
 21
2391.353982429893
 31
0.0
  0
LINE
  5
284
330
1F
100
AcDbEntity
  8
レバー
  6
Continuous
 62
     7
370
     0
100
AcDbLine
 10
-4625.122211504425
 20
2391.353982429893
 30
0.0
 11
-4622.874682865725
 21
2390.337473641993
 31
0.0
  0
LINE
  5
285
330
1F
100
AcDbEntity
  8
レバー
  6
Continuous
 62
     7
370
     0
100
AcDbLine
 10
-4622.874682865725
 20
2390.337473641993
 30
0.0
 11
-4620.435972561825
 21
2389.711510319194
 31
0.0
  0
LINE
  5
286
330
1F
100
AcDbEntity
  8
レバー
  6
Continuous
 62
     7
370
     0
100
AcDbLine
 10
-4620.435972561825
 20
2389.711510319194
 30
0.0
 11
-4617.899798419025
 21
2389.500148523494
 31
0.0
  0
LINE
  5
287
330
1F
100
AcDbEntity
  8
レバー
  6
Continuous
 62
     7
370
     0
100
AcDbLine
 10
-4617.899798419025
 20
2389.500148523494
 30
0.0
 11
-4615.363624276325
 21
2389.711510319194
 31
0.0
  0
LINE
  5
288
330
1F
100
AcDbEntity
  8
レバー
  6
Continuous
 62
     7
370
     0
100
AcDbLine
 10
-4615.363624276325
 20
2389.711510319194
 30
0.0
 11
-4612.924913972325
 21
2390.337473641993
 31
0.0
  0
LINE
  5
289
330
1F
100
AcDbEntity
  8
レバー
  6
Continuous
 62
     7
370
     0
100
AcDbLine
 10
-4612.924913972325
 20
2390.337473641993
 30
0.0
 11
-4610.677385333625
 21
2391.353982429893
 31
0.0
  0
LINE
  5
28A
330
1F
100
AcDbEntity
  8
レバー
  6
Continuous
 62
     7
370
     0
100
AcDbLine
 10
-4610.677385333625
 20
2391.353982429893
 30
0.0
 11
-4608.707409914325
 21
2392.721973754393
 31
0.0
  0
LINE
  5
28B
330
1F
100
AcDbEntity
  8
レバー
  6
Continuous
 62
     7
370
     0
100
AcDbLine
 10
-4608.707409914325
 20
2392.721973754393
 30
0.0
 11
-4607.944506782726
 21
2393.508559021994
 31
0.0
  0
LINE
  5
28C
330
1F
100
AcDbEntity
  8
レバー
  6
Continuous
 62
     7
370
     0
100
AcDbLine
 10
-4500.899799730325
 20
2400.500309597794
 30
0.0
 11
-4500.899799730325
 21
2395.003172963794
 31
0.0
  0
LINE
  5
28D
330
1F
100
AcDbEntity
  8
レバー
  6
Continuous
 62
     7
370
     0
100
AcDbLine
 10
-4500.899799730325
 20
2400.500309597794
 30
0.0
 11
-4500.899799730325
 21
2405.993394017194
 31
0.0
  0
ARC
  5
28E
330
1F
100
AcDbEntity
  8
レバー
  6
Continuous
 62
     7
370
     0
100
AcDbCircle
 10
-4617.899798419025
 20
2400.500148463894
 30
0.0
 40
24.55
100
AcDbArc
 50
16.5995243249
 51
343.3673588443
  0
LINE
  5
28F
330
1F
100
AcDbEntity
  8
レバー
  6
JWW_CENTER1
 62
   120
370
     5
100
AcDbLine
 10
-2339.497492526957
 20
2400.500148463894
 30
0.0
 11
-2422.523444264809
 21
2400.500148463894
 31
0.0
  0
LINE
  5
290
330
1F
100
AcDbEntity
  8
レバー
  6
JWW_CENTER1
 62
   120
370
     5
100
AcDbLine
 10
-2386.299671069995
 20
2456.957109057684
 30
0.0
 11
-2386.299671069995
 21
2357.11335576942
 31
0.0
  0
LINE
  5
291
330
1F
100
AcDbEntity
  8
レバー
  6
Continuous
 62
     7
370
     0
100
AcDbLine
 10
-2270.799749926995
 20
2407.500135175793
 30
0.0
 11
-2279.875048832295
 21
2407.500015035194
 31
0.0
  0
LINE
  5
292
330
1F
100
AcDbEntity
  8
レバー
  6
Continuous
 62
     7
370
     0
100
AcDbLine
 10
-2279.875048832295
 20
2407.500015035194
 30
0.0
 11
-2280.275495187695
 21
2407.500001065394
 31
0.0
  0
ARC
  5
293
330
1F
100
AcDbEntity
  8
レバー
  6
Continuous
 62
     7
370
     0
100
AcDbCircle
 10
-2270.799671069995
 20
2395.000148201294
 30
0.0
 40
1.500000000000118
100
AcDbArc
 50
270.164192293
 51
0.000004253700026
  0
ARC
  5
294
330
1F
100
AcDbEntity
  8
レバー
  6
Continuous
 62
     7
370
     0
100
AcDbCircle
 10
-2270.799671069995
 20
2406.000148774894
 30
0.0
 40
1.500000000000029
100
AcDbArc
 50
0.0084663275
 51
89.9162980715
  0
LINE
  5
295
330
1F
100
AcDbEntity
  8
レバー
  6
Continuous
 62
     7
370
     0
100
AcDbLine
 10
-2381.281293393396
 20
2393.514032404794
 30
0.0
 11
-2381.148992036795
 21
2393.507241666294
 31
0.0
  0
LINE
  5
296
330
1F
100
AcDbEntity
  8
レバー
  6
Continuous
 62
     7
370
     0
100
AcDbLine
 10
-2381.148992036795
 20
2393.507241666294
 30
0.0
 11
-2380.713250884196
 21
2393.505309171893
 31
0.0
  0
LINE
  5
297
330
1F
100
AcDbEntity
  8
レバー
  6
Continuous
 62
     7
370
     0
100
AcDbLine
 10
-2380.713250884196
 20
2393.505309171893
 30
0.0
 11
-2379.985057213595
 21
2393.505654226894
 31
0.0
  0
LINE
  5
298
330
1F
100
AcDbEntity
  8
レバー
  6
Continuous
 62
     7
370
     0
100
AcDbLine
 10
-2379.985057213595
 20
2393.505654226894
 30
0.0
 11
-2378.970270906895
 21
2393.506905924493
 31
0.0
  0
LINE
  5
299
330
1F
100
AcDbEntity
  8
レバー
  6
Continuous
 62
     7
370
     0
100
AcDbLine
 10
-2378.970270906895
 20
2393.506905924493
 30
0.0
 11
-2377.706743241595
 21
2393.508214432693
 31
0.0
  0
LINE
  5
29A
330
1F
100
AcDbEntity
  8
レバー
  6
Continuous
 62
     7
370
     0
100
AcDbLine
 10
-2377.706743241595
 20
2393.508214432693
 30
0.0
 11
-2376.357213058795
 21
2393.508567869593
 31
0.0
  0
LINE
  5
29B
330
1F
100
AcDbEntity
  8
レバー
  6
Continuous
 62
     7
370
     0
100
AcDbLine
 10
-2376.357213058795
 20
2393.508567869593
 30
0.0
 11
-2373.503695638195
 21
2393.506591137393
 31
0.0
  0
LINE
  5
29C
330
1F
100
AcDbEntity
  8
レバー
  6
Continuous
 62
     7
370
     0
100
AcDbLine
 10
-2373.503695638195
 20
2393.506591137393
 30
0.0
 11
-2370.521859661995
 21
2393.501997388793
 31
0.0
  0
LINE
  5
29D
330
1F
100
AcDbEntity
  8
レバー
  6
Continuous
 62
     7
370
     0
100
AcDbLine
 10
-2370.521859661995
 20
2393.501997388793
 30
0.0
 11
-2367.501137242995
 21
2393.499811109094
 31
0.0
  0
LINE
  5
29E
330
1F
100
AcDbEntity
  8
レバー
  6
Continuous
 62
     7
370
     0
100
AcDbLine
 10
-2367.501137242995
 20
2393.499811109094
 30
0.0
 11
-2364.458549232495
 21
2393.499948479194
 31
0.0
  0
LINE
  5
29F
330
1F
100
AcDbEntity
  8
レバー
  6
Continuous
 62
     7
370
     0
100
AcDbLine
 10
-2364.458549232495
 20
2393.499948479194
 30
0.0
 11
-2361.394266993995
 21
2393.500394582694
 31
0.0
  0
LINE
  5
2A0
330
1F
100
AcDbEntity
  8
レバー
  6
Continuous
 62
     7
370
     0
100
AcDbLine
 10
-2361.394266993995
 20
2393.500394582694
 30
0.0
 11
-2358.308461890895
 21
2393.500785738193
 31
0.0
  0
LINE
  5
2A1
330
1F
100
AcDbEntity
  8
レバー
  6
Continuous
 62
     7
370
     0
100
AcDbLine
 10
-2358.308461890895
 20
2393.500785738193
 30
0.0
 11
-2354.311370686895
 21
2393.501209955594
 31
0.0
  0
LINE
  5
2A2
330
1F
100
AcDbEntity
  8
レバー
  6
Continuous
 62
     7
370
     0
100
AcDbLine
 10
-2354.311370686895
 20
2393.501209955594
 30
0.0
 11
-2349.902385310595
 21
2393.501577362394
 31
0.0
  0
LINE
  5
2A3
330
1F
100
AcDbEntity
  8
レバー
  6
Continuous
 62
     7
370
     0
100
AcDbLine
 10
-2349.902385310595
 20
2393.501577362394
 30
0.0
 11
-2344.932624534996
 21
2393.501876782594
 31
0.0
  0
LINE
  5
2A4
330
1F
100
AcDbEntity
  8
レバー
  6
Continuous
 62
     7
370
     0
100
AcDbLine
 10
-2344.932624534996
 20
2393.501876782594
 30
0.0
 11
-2339.402084634895
 21
2393.502080742193
 31
0.0
  0
LINE
  5
2A5
330
1F
100
AcDbEntity
  8
レバー
  6
Continuous
 62
     7
370
     0
100
AcDbLine
 10
-2339.402084634895
 20
2393.502080742193
 30
0.0
 11
-2333.310769335696
 21
2393.502168752193
 31
0.0
  0
LINE
  5
2A6
330
1F
100
AcDbEntity
  8
レバー
  6
Continuous
 62
     7
370
     0
100
AcDbLine
 10
-2333.310769335696
 20
2393.502168752193
 30
0.0
 11
-2326.658674911895
 21
2393.502126376994
 31
0.0
  0
LINE
  5
2A7
330
1F
100
AcDbEntity
  8
レバー
  6
Continuous
 62
     7
370
     0
100
AcDbLine
 10
-2326.658674911895
 20
2393.502126376994
 30
0.0
 11
-2319.445797638295
 21
2393.501951288394
 31
0.0
  0
LINE
  5
2A8
330
1F
100
AcDbEntity
  8
レバー
  6
Continuous
 62
     7
370
     0
100
AcDbLine
 10
-2319.445797638295
 20
2393.501951288394
 30
0.0
 11
-2310.863928334195
 21
2393.501620203193
 31
0.0
  0
LINE
  5
2A9
330
1F
100
AcDbEntity
  8
レバー
  6
Continuous
 62
     7
370
     0
100
AcDbLine
 10
-2310.863928334195
 20
2393.501620203193
 30
0.0
 11
-2301.603497402095
 21
2393.501182481594
 31
0.0
  0
LINE
  5
2AA
330
1F
100
AcDbEntity
  8
レバー
  6
Continuous
 62
     7
370
     0
100
AcDbLine
 10
-2301.603497402095
 20
2393.501182481594
 30
0.0
 11
-2291.664512292795
 21
2393.500710300994
 31
0.0
  0
LINE
  5
2AB
330
1F
100
AcDbEntity
  8
レバー
  6
Continuous
 62
     7
370
     0
100
AcDbLine
 10
-2291.664512292795
 20
2393.500710300994
 30
0.0
 11
-2281.046958104995
 21
2393.500314023294
 31
0.0
  0
LINE
  5
2AC
330
1F
100
AcDbEntity
  8
レバー
  6
Continuous
 62
     7
370
     0
100
AcDbLine
 10
-2281.046958104995
 20
2393.500314023294
 30
0.0
 11
-2270.799749926995
 21
2393.500163148994
 31
0.0
  0
LINE
  5
2AD
330
1F
100
AcDbEntity
  8
レバー
  6
Continuous
 62
     7
370
     0
100
AcDbLine
 10
-2270.799802080996
 20
2407.500134710194
 30
0.0
 11
-2280.528904334895
 21
2407.499997340094
 31
0.0
  0
LINE
  5
2AE
330
1F
100
AcDbEntity
  8
レバー
  6
Continuous
 62
     7
370
     0
100
AcDbLine
 10
-2280.528904334895
 20
2407.499997340094
 30
0.0
 11
-2290.713698999295
 21
2407.499628070693
 31
0.0
  0
LINE
  5
2AF
330
1F
100
AcDbEntity
  8
レバー
  6
Continuous
 62
     7
370
     0
100
AcDbLine
 10
-2290.713698999295
 20
2407.499628070693
 30
0.0
 11
-2300.305248634295
 21
2407.499177776194
 31
0.0
  0
LINE
  5
2B0
330
1F
100
AcDbEntity
  8
レバー
  6
Continuous
 62
     7
370
     0
100
AcDbLine
 10
-2300.305248634295
 20
2407.499177776194
 30
0.0
 11
-2309.303545789196
 21
2407.498746573893
 31
0.0
  0
LINE
  5
2B1
330
1F
100
AcDbEntity
  8
レバー
  6
Continuous
 62
     7
370
     0
100
AcDbLine
 10
-2309.303545789196
 20
2407.498746573893
 30
0.0
 11
-2317.708612815795
 21
2407.498403381494
 31
0.0
  0
LINE
  5
2B2
330
1F
100
AcDbEntity
  8
レバー
  6
Continuous
 62
     7
370
     0
100
AcDbLine
 10
-2317.708612815795
 20
2407.498403381494
 30
0.0
 11
-2325.520445988795
 21
2407.498190108593
 31
0.0
  0
LINE
  5
2B3
330
1F
100
AcDbEntity
  8
レバー
  6
Continuous
 62
     7
370
     0
100
AcDbLine
 10
-2325.520445988795
 20
2407.498190108593
 30
0.0
 11
-2332.342547760595
 21
2407.498125847394
 31
0.0
  0
LINE
  5
2B4
330
1F
100
AcDbEntity
  8
レバー
  6
Continuous
 62
     7
370
     0
100
AcDbLine
 10
-2332.342547760595
 20
2407.498125847394
 30
0.0
 11
-2338.637293712495
 21
2407.498197093593
 31
0.0
  0
LINE
  5
2B5
330
1F
100
AcDbEntity
  8
レバー
  6
Continuous
 62
     7
370
     0
100
AcDbLine
 10
-2338.637293712495
 20
2407.498197093593
 30
0.0
 11
-2344.404683844495
 21
2407.498394999594
 31
0.0
  0
LINE
  5
2B6
330
1F
100
AcDbEntity
  8
レバー
  6
Continuous
 62
     7
370
     0
100
AcDbLine
 10
-2344.404683844495
 20
2407.498394999594
 30
0.0
 11
-2349.646424339495
 21
2407.498700939094
 31
0.0
  0
LINE
  5
2B7
330
1F
100
AcDbEntity
  8
レバー
  6
Continuous
 62
     7
370
     0
100
AcDbLine
 10
-2349.646424339495
 20
2407.498700939094
 30
0.0
 11
-2354.443581239595
 21
2407.499099079494
 31
0.0
  0
LINE
  5
2B8
330
1F
100
AcDbEntity
  8
レバー
  6
Continuous
 62
     7
370
     0
100
AcDbLine
 10
-2354.443581239595
 20
2407.499099079494
 30
0.0
 11
-2359.094760776795
 21
2407.499603390594
 31
0.0
  0
LINE
  5
2B9
330
1F
100
AcDbEntity
  8
レバー
  6
Continuous
 62
     7
370
     0
100
AcDbLine
 10
-2359.094760776795
 20
2407.499603390594
 30
0.0
 11
-2363.296864019095
 21
2407.500165443793
 31
0.0
  0
LINE
  5
2BA
330
1F
100
AcDbEntity
  8
レバー
  6
Continuous
 62
     7
370
     0
100
AcDbLine
 10
-2363.296864019095
 20
2407.500165443793
 30
0.0
 11
-2367.050293297795
 21
2407.500547286093
 31
0.0
  0
LINE
  5
2BB
330
1F
100
AcDbEntity
  8
レバー
  6
Continuous
 62
     7
370
     0
100
AcDbLine
 10
-2367.050293297795
 20
2407.500547286093
 30
0.0
 11
-2369.052150682795
 21
2407.499832030293
 31
0.0
  0
LINE
  5
2BC
330
1F
100
AcDbEntity
  8
レバー
  6
Continuous
 62
     7
370
     0
100
AcDbLine
 10
-2369.052150682795
 20
2407.499832030293
 30
0.0
 11
-2370.898518176096
 21
2407.497828755494
 31
0.0
  0
LINE
  5
2BD
330
1F
100
AcDbEntity
  8
レバー
  6
Continuous
 62
     7
370
     0
100
AcDbLine
 10
-2370.898518176096
 20
2407.497828755494
 30
0.0
 11
-2372.908138134796
 21
2407.494542118093
 31
0.0
  0
LINE
  5
2BE
330
1F
100
AcDbEntity
  8
レバー
  6
Continuous
 62
     7
370
     0
100
AcDbLine
 10
-2372.908138134796
 20
2407.494542118093
 30
0.0
 11
-2375.316073582796
 21
2407.491975858793
 31
0.0
  0
LINE
  5
2BF
330
1F
100
AcDbEntity
  8
レバー
  6
Continuous
 62
     7
370
     0
100
AcDbLine
 10
-2375.316073582796
 20
2407.491975858793
 30
0.0
 11
-2376.811233745295
 21
2407.491487380094
 31
0.0
  0
LINE
  5
2C0
330
1F
100
AcDbEntity
  8
レバー
  6
Continuous
 62
     7
370
     0
100
AcDbLine
 10
-2376.811233745295
 20
2407.491487380094
 30
0.0
 11
-2378.348583751695
 21
2407.492237094694
 31
0.0
  0
LINE
  5
2C1
330
1F
100
AcDbEntity
  8
レバー
  6
Continuous
 62
     7
370
     0
100
AcDbLine
 10
-2378.348583751695
 20
2407.492237094694
 30
0.0
 11
-2379.866883554796
 21
2407.493438966494
 31
0.0
  0
LINE
  5
2C2
330
1F
100
AcDbEntity
  8
レバー
  6
Continuous
 62
     7
370
     0
100
AcDbLine
 10
-2379.866883554796
 20
2407.493438966494
 30
0.0
 11
-2380.967555032395
 21
2407.492574699193
 31
0.0
  0
LINE
  5
2C3
330
1F
100
AcDbEntity
  8
レバー
  6
Continuous
 62
     7
370
     0
100
AcDbLine
 10
-2380.967555032395
 20
2407.492574699193
 30
0.0
 11
-2381.429879856595
 21
2407.485984660593
 31
0.0
  0
LINE
  5
2C4
330
1F
100
AcDbEntity
  8
レバー
  6
Continuous
 62
     7
370
     0
100
AcDbLine
 10
-2381.429879856595
 20
2407.485984660593
 30
0.0
 11
-2381.433799327595
 21
2407.481904536393
 31
0.0
  0
ARC
  5
2C5
330
1F
100
AcDbEntity
  8
レバー
  6
Continuous
 62
     7
370
     0
100
AcDbCircle
 10
-2270.799671069995
 20
2406.000148726594
 30
0.0
 40
1.500000000000118
100
AcDbArc
 50
359.9999957463
 51
90.17419294509996
  0
ARC
  5
2C6
330
1F
100
AcDbEntity
  8
レバー
  6
Continuous
 62
     7
370
     0
100
AcDbCircle
 10
-2270.799671069995
 20
2395.000148152993
 30
0.0
 40
1.500000000000029
100
AcDbArc
 50
269.9105889113
 51
359.9915336725
  0
LINE
  5
2C7
330
1F
100
AcDbEntity
  8
レバー
  6
Continuous
 62
     7
370
     0
100
AcDbLine
 10
-2376.344284438796
 20
2407.491640116994
 30
0.0
 11
-2377.107282565295
 21
2408.278323173494
 31
0.0
  0
LINE
  5
2C8
330
1F
100
AcDbEntity
  8
レバー
  6
Continuous
 62
     7
370
     0
100
AcDbLine
 10
-2377.107282565295
 20
2408.278323173494
 30
0.0
 11
-2379.077257984596
 21
2409.646314497993
 31
0.0
  0
LINE
  5
2C9
330
1F
100
AcDbEntity
  8
レバー
  6
Continuous
 62
     7
370
     0
100
AcDbLine
 10
-2379.077257984596
 20
2409.646314497993
 30
0.0
 11
-2381.324786623295
 21
2410.662823285893
 31
0.0
  0
LINE
  5
2CA
330
1F
100
AcDbEntity
  8
レバー
  6
Continuous
 62
     7
370
     0
100
AcDbLine
 10
-2381.324786623295
 20
2410.662823285893
 30
0.0
 11
-2383.763496927295
 21
2411.288786608693
 31
0.0
  0
LINE
  5
2CB
330
1F
100
AcDbEntity
  8
レバー
  6
Continuous
 62
     7
370
     0
100
AcDbLine
 10
-2383.763496927295
 20
2411.288786608693
 30
0.0
 11
-2386.299671069995
 21
2411.500148404293
 31
0.0
  0
LINE
  5
2CC
330
1F
100
AcDbEntity
  8
レバー
  6
Continuous
 62
     7
370
     0
100
AcDbLine
 10
-2386.299671069995
 20
2411.500148404293
 30
0.0
 11
-2388.835845212795
 21
2411.288786608693
 31
0.0
  0
LINE
  5
2CD
330
1F
100
AcDbEntity
  8
レバー
  6
Continuous
 62
     7
370
     0
100
AcDbLine
 10
-2388.835845212795
 20
2411.288786608693
 30
0.0
 11
-2391.274555516695
 21
2410.662823285893
 31
0.0
  0
LINE
  5
2CE
330
1F
100
AcDbEntity
  8
レバー
  6
Continuous
 62
     7
370
     0
100
AcDbLine
 10
-2391.274555516695
 20
2410.662823285893
 30
0.0
 11
-2393.522084155395
 21
2409.646314497993
 31
0.0
  0
LINE
  5
2CF
330
1F
100
AcDbEntity
  8
レバー
  6
Continuous
 62
     7
370
     0
100
AcDbLine
 10
-2393.522084155395
 20
2409.646314497993
 30
0.0
 11
-2395.492059574795
 21
2408.278323173494
 31
0.0
  0
LINE
  5
2D0
330
1F
100
AcDbEntity
  8
レバー
  6
Continuous
 62
     7
370
     0
100
AcDbLine
 10
-2395.492059574795
 20
2408.278323173494
 30
0.0
 11
-2397.108775959595
 21
2406.611421074694
 31
0.0
  0
LINE
  5
2D1
330
1F
100
AcDbEntity
  8
レバー
  6
Continuous
 62
     7
370
     0
100
AcDbLine
 10
-2397.108775959595
 20
2406.611421074694
 30
0.0
 11
-2398.310104781096
 21
2404.709666430894
 31
0.0
  0
LINE
  5
2D2
330
1F
100
AcDbEntity
  8
レバー
  6
Continuous
 62
     7
370
     0
100
AcDbLine
 10
-2398.310104781096
 20
2404.709666430894
 30
0.0
 11
-2399.049879447895
 21
2402.646141987193
 31
0.0
  0
LINE
  5
2D3
330
1F
100
AcDbEntity
  8
レバー
  6
Continuous
 62
     7
370
     0
100
AcDbLine
 10
-2399.049879447895
 20
2402.646141987193
 30
0.0
 11
-2399.299671338195
 21
2400.500148463894
 31
0.0
  0
LINE
  5
2D4
330
1F
100
AcDbEntity
  8
レバー
  6
Continuous
 62
     7
370
     0
100
AcDbLine
 10
-2399.299671338195
 20
2400.500148463894
 30
0.0
 11
-2399.049879447895
 21
2398.354154940594
 31
0.0
  0
LINE
  5
2D5
330
1F
100
AcDbEntity
  8
レバー
  6
Continuous
 62
     7
370
     0
100
AcDbLine
 10
-2399.049879447895
 20
2398.354154940594
 30
0.0
 11
-2398.310104781096
 21
2396.290630496993
 31
0.0
  0
LINE
  5
2D6
330
1F
100
AcDbEntity
  8
レバー
  6
Continuous
 62
     7
370
     0
100
AcDbLine
 10
-2398.310104781096
 20
2396.290630496993
 30
0.0
 11
-2397.108775959595
 21
2394.388875853193
 31
0.0
  0
LINE
  5
2D7
330
1F
100
AcDbEntity
  8
レバー
  6
Continuous
 62
     7
370
     0
100
AcDbLine
 10
-2397.108775959595
 20
2394.388875853193
 30
0.0
 11
-2395.492059574795
 21
2392.721973754393
 31
0.0
  0
LINE
  5
2D8
330
1F
100
AcDbEntity
  8
レバー
  6
Continuous
 62
     7
370
     0
100
AcDbLine
 10
-2395.492059574795
 20
2392.721973754393
 30
0.0
 11
-2393.522084155395
 21
2391.353982429893
 31
0.0
  0
LINE
  5
2D9
330
1F
100
AcDbEntity
  8
レバー
  6
Continuous
 62
     7
370
     0
100
AcDbLine
 10
-2393.522084155395
 20
2391.353982429893
 30
0.0
 11
-2391.274555516695
 21
2390.337473641993
 31
0.0
  0
LINE
  5
2DA
330
1F
100
AcDbEntity
  8
レバー
  6
Continuous
 62
     7
370
     0
100
AcDbLine
 10
-2391.274555516695
 20
2390.337473641993
 30
0.0
 11
-2388.835845212795
 21
2389.711510319194
 31
0.0
  0
LINE
  5
2DB
330
1F
100
AcDbEntity
  8
レバー
  6
Continuous
 62
     7
370
     0
100
AcDbLine
 10
-2388.835845212795
 20
2389.711510319194
 30
0.0
 11
-2386.299671069995
 21
2389.500148523494
 31
0.0
  0
LINE
  5
2DC
330
1F
100
AcDbEntity
  8
レバー
  6
Continuous
 62
     7
370
     0
100
AcDbLine
 10
-2386.299671069995
 20
2389.500148523494
 30
0.0
 11
-2383.763496927295
 21
2389.711510319194
 31
0.0
  0
LINE
  5
2DD
330
1F
100
AcDbEntity
  8
レバー
  6
Continuous
 62
     7
370
     0
100
AcDbLine
 10
-2383.763496927295
 20
2389.711510319194
 30
0.0
 11
-2381.324786623295
 21
2390.337473641993
 31
0.0
  0
LINE
  5
2DE
330
1F
100
AcDbEntity
  8
レバー
  6
Continuous
 62
     7
370
     0
100
AcDbLine
 10
-2381.324786623295
 20
2390.337473641993
 30
0.0
 11
-2379.077257984596
 21
2391.353982429893
 31
0.0
  0
LINE
  5
2DF
330
1F
100
AcDbEntity
  8
レバー
  6
Continuous
 62
     7
370
     0
100
AcDbLine
 10
-2379.077257984596
 20
2391.353982429893
 30
0.0
 11
-2377.107282565295
 21
2392.721973754393
 31
0.0
  0
LINE
  5
2E0
330
1F
100
AcDbEntity
  8
レバー
  6
Continuous
 62
     7
370
     0
100
AcDbLine
 10
-2377.107282565295
 20
2392.721973754393
 30
0.0
 11
-2376.344379433695
 21
2393.508559021994
 31
0.0
  0
LINE
  5
2E1
330
1F
100
AcDbEntity
  8
レバー
  6
Continuous
 62
     7
370
     0
100
AcDbLine
 10
-2269.299672381295
 20
2400.500309597794
 30
0.0
 11
-2269.299672381295
 21
2395.003172963794
 31
0.0
  0
LINE
  5
2E2
330
1F
100
AcDbEntity
  8
レバー
  6
Continuous
 62
     7
370
     0
100
AcDbLine
 10
-2269.299672381295
 20
2400.500309597794
 30
0.0
 11
-2269.299672381295
 21
2405.993394017194
 31
0.0
  0
ARC
  5
2E3
330
1F
100
AcDbEntity
  8
レバー
  6
Continuous
 62
     7
370
     0
100
AcDbCircle
 10
-2386.299671069995
 20
2400.500148463894
 30
0.0
 40
24.55
100
AcDbArc
 50
16.5995243249
 51
343.3673588443
  0
LINE
  5
2E4
330
1F
100
AcDbEntity
  8
レバー
  6
JWW_CENTER1
 62
   120
370
     5
100
AcDbLine
 10
-107.8977363376612
 20
2400.500148463894
 30
0.0
 11
-190.9236880755134
 21
2400.500148463894
 31
0.0
  0
LINE
  5
2E5
330
1F
100
AcDbEntity
  8
レバー
  6
JWW_CENTER1
 62
   120
370
     5
100
AcDbLine
 10
-154.6999148806998
 20
2456.957109057684
 30
0.0
 11
-154.6999148806998
 21
2357.11335576942
 31
0.0
  0
LINE
  5
2E6
330
1F
100
AcDbEntity
  8
レバー
  6
Continuous
 62
     7
370
     0
100
AcDbLine
 10
-39.19999373770025
 20
2407.500135175793
 30
0.0
 11
-48.27529264299955
 21
2407.500015035194
 31
0.0
  0
LINE
  5
2E7
330
1F
100
AcDbEntity
  8
レバー
  6
Continuous
 62
     7
370
     0
100
AcDbLine
 10
-48.27529264299955
 20
2407.500015035194
 30
0.0
 11
-48.67573899839982
 21
2407.500001065394
 31
0.0
  0
ARC
  5
2E8
330
1F
100
AcDbEntity
  8
レバー
  6
Continuous
 62
     7
370
     0
100
AcDbCircle
 10
-39.19991488070082
 20
2395.000148201294
 30
0.0
 40
1.500000000000118
100
AcDbArc
 50
270.164192293
 51
0.000004253700026
  0
ARC
  5
2E9
330
1F
100
AcDbEntity
  8
レバー
  6
Continuous
 62
     7
370
     0
100
AcDbCircle
 10
-39.19991488070082
 20
2406.000148774894
 30
0.0
 40
1.500000000000029
100
AcDbArc
 50
0.0084663275
 51
89.9162980715
  0
LINE
  5
2EA
330
1F
100
AcDbEntity
  8
レバー
  6
Continuous
 62
     7
370
     0
100
AcDbLine
 10
-149.681537204101
 20
2393.514032404794
 30
0.0
 11
-149.5492358474993
 21
2393.507241666294
 31
0.0
  0
LINE
  5
2EB
330
1F
100
AcDbEntity
  8
レバー
  6
Continuous
 62
     7
370
     0
100
AcDbLine
 10
-149.5492358474993
 20
2393.507241666294
 30
0.0
 11
-149.1134946949001
 21
2393.505309171893
 31
0.0
  0
LINE
  5
2EC
330
1F
100
AcDbEntity
  8
レバー
  6
Continuous
 62
     7
370
     0
100
AcDbLine
 10
-149.1134946949001
 20
2393.505309171893
 30
0.0
 11
-148.3853010242996
 21
2393.505654226894
 31
0.0
  0
LINE
  5
2ED
330
1F
100
AcDbEntity
  8
レバー
  6
Continuous
 62
     7
370
     0
100
AcDbLine
 10
-148.3853010242996
 20
2393.505654226894
 30
0.0
 11
-147.3705147175994
 21
2393.506905924493
 31
0.0
  0
LINE
  5
2EE
330
1F
100
AcDbEntity
  8
レバー
  6
Continuous
 62
     7
370
     0
100
AcDbLine
 10
-147.3705147175994
 20
2393.506905924493
 30
0.0
 11
-146.1069870522996
 21
2393.508214432693
 31
0.0
  0
LINE
  5
2EF
330
1F
100
AcDbEntity
  8
レバー
  6
Continuous
 62
     7
370
     0
100
AcDbLine
 10
-146.1069870522996
 20
2393.508214432693
 30
0.0
 11
-144.7574568694998
 21
2393.508567869593
 31
0.0
  0
LINE
  5
2F0
330
1F
100
AcDbEntity
  8
レバー
  6
Continuous
 62
     7
370
     0
100
AcDbLine
 10
-144.7574568694998
 20
2393.508567869593
 30
0.0
 11
-141.9039394488999
 21
2393.506591137393
 31
0.0
  0
LINE
  5
2F1
330
1F
100
AcDbEntity
  8
レバー
  6
Continuous
 62
     7
370
     0
100
AcDbLine
 10
-141.9039394488999
 20
2393.506591137393
 30
0.0
 11
-138.9221034727007
 21
2393.501997388793
 31
0.0
  0
LINE
  5
2F2
330
1F
100
AcDbEntity
  8
レバー
  6
Continuous
 62
     7
370
     0
100
AcDbLine
 10
-138.9221034727007
 20
2393.501997388793
 30
0.0
 11
-135.9013810536996
 21
2393.499811109094
 31
0.0
  0
LINE
  5
2F3
330
1F
100
AcDbEntity
  8
レバー
  6
Continuous
 62
     7
370
     0
100
AcDbLine
 10
-135.9013810536996
 20
2393.499811109094
 30
0.0
 11
-132.8587930431996
 21
2393.499948479194
 31
0.0
  0
LINE
  5
2F4
330
1F
100
AcDbEntity
  8
レバー
  6
Continuous
 62
     7
370
     0
100
AcDbLine
 10
-132.8587930431996
 20
2393.499948479194
 30
0.0
 11
-129.7945108046997
 21
2393.500394582694
 31
0.0
  0
LINE
  5
2F5
330
1F
100
AcDbEntity
  8
レバー
  6
Continuous
 62
     7
370
     0
100
AcDbLine
 10
-129.7945108046997
 20
2393.500394582694
 30
0.0
 11
-126.7087057015999
 21
2393.500785738193
 31
0.0
  0
LINE
  5
2F6
330
1F
100
AcDbEntity
  8
レバー
  6
Continuous
 62
     7
370
     0
100
AcDbLine
 10
-126.7087057015999
 20
2393.500785738193
 30
0.0
 11
-122.7116144975997
 21
2393.501209955594
 31
0.0
  0
LINE
  5
2F7
330
1F
100
AcDbEntity
  8
レバー
  6
Continuous
 62
     7
370
     0
100
AcDbLine
 10
-122.7116144975997
 20
2393.501209955594
 30
0.0
 11
-118.3026291212994
 21
2393.501577362394
 31
0.0
  0
LINE
  5
2F8
330
1F
100
AcDbEntity
  8
レバー
  6
Continuous
 62
     7
370
     0
100
AcDbLine
 10
-118.3026291212994
 20
2393.501577362394
 30
0.0
 11
-113.3328683457012
 21
2393.501876782594
 31
0.0
  0
LINE
  5
2F9
330
1F
100
AcDbEntity
  8
レバー
  6
Continuous
 62
     7
370
     0
100
AcDbLine
 10
-113.3328683457012
 20
2393.501876782594
 30
0.0
 11
-107.8023284455998
 21
2393.502080742193
 31
0.0
  0
LINE
  5
2FA
330
1F
100
AcDbEntity
  8
レバー
  6
Continuous
 62
     7
370
     0
100
AcDbLine
 10
-107.8023284455998
 20
2393.502080742193
 30
0.0
 11
-101.7110131464
 21
2393.502168752193
 31
0.0
  0
LINE
  5
2FB
330
1F
100
AcDbEntity
  8
レバー
  6
Continuous
 62
     7
370
     0
100
AcDbLine
 10
-101.7110131464
 20
2393.502168752193
 30
0.0
 11
-95.0589187225998
 21
2393.502126376994
 31
0.0
  0
LINE
  5
2FC
330
1F
100
AcDbEntity
  8
レバー
  6
Continuous
 62
     7
370
     0
100
AcDbLine
 10
-95.0589187225998
 20
2393.502126376994
 30
0.0
 11
-87.84604144899987
 21
2393.501951288394
 31
0.0
  0
LINE
  5
2FD
330
1F
100
AcDbEntity
  8
レバー
  6
Continuous
 62
     7
370
     0
100
AcDbLine
 10
-87.84604144899987
 20
2393.501951288394
 30
0.0
 11
-79.26417214490016
 21
2393.501620203193
 31
0.0
  0
LINE
  5
2FE
330
1F
100
AcDbEntity
  8
レバー
  6
Continuous
 62
     7
370
     0
100
AcDbLine
 10
-79.26417214490016
 20
2393.501620203193
 30
0.0
 11
-70.00374121279947
 21
2393.501182481594
 31
0.0
  0
LINE
  5
2FF
330
1F
100
AcDbEntity
  8
レバー
  6
Continuous
 62
     7
370
     0
100
AcDbLine
 10
-70.00374121279947
 20
2393.501182481594
 30
0.0
 11
-60.0647561034998
 21
2393.500710300994
 31
0.0
  0
LINE
  5
300
330
1F
100
AcDbEntity
  8
レバー
  6
Continuous
 62
     7
370
     0
100
AcDbLine
 10
-60.0647561034998
 20
2393.500710300994
 30
0.0
 11
-49.44720191569985
 21
2393.500314023294
 31
0.0
  0
LINE
  5
301
330
1F
100
AcDbEntity
  8
レバー
  6
Continuous
 62
     7
370
     0
100
AcDbLine
 10
-49.44720191569985
 20
2393.500314023294
 30
0.0
 11
-39.19999373770025
 21
2393.500163148994
 31
0.0
  0
LINE
  5
302
330
1F
100
AcDbEntity
  8
レバー
  6
Continuous
 62
     7
370
     0
100
AcDbLine
 10
-39.2000458917002
 20
2407.500134710194
 30
0.0
 11
-48.92914814559987
 21
2407.499997340094
 31
0.0
  0
LINE
  5
303
330
1F
100
AcDbEntity
  8
レバー
  6
Continuous
 62
     7
370
     0
100
AcDbLine
 10
-48.92914814559987
 20
2407.499997340094
 30
0.0
 11
-59.11394280999986
 21
2407.499628070693
 31
0.0
  0
LINE
  5
304
330
1F
100
AcDbEntity
  8
レバー
  6
Continuous
 62
     7
370
     0
100
AcDbLine
 10
-59.11394280999986
 20
2407.499628070693
 30
0.0
 11
-68.70549244500012
 21
2407.499177776194
 31
0.0
  0
LINE
  5
305
330
1F
100
AcDbEntity
  8
レバー
  6
Continuous
 62
     7
370
     0
100
AcDbLine
 10
-68.70549244500012
 20
2407.499177776194
 30
0.0
 11
-77.70378959990097
 21
2407.498746573893
 31
0.0
  0
LINE
  5
306
330
1F
100
AcDbEntity
  8
レバー
  6
Continuous
 62
     7
370
     0
100
AcDbLine
 10
-77.70378959990097
 20
2407.498746573893
 30
0.0
 11
-86.10885662649963
 21
2407.498403381494
 31
0.0
  0
LINE
  5
307
330
1F
100
AcDbEntity
  8
レバー
  6
Continuous
 62
     7
370
     0
100
AcDbLine
 10
-86.10885662649963
 20
2407.498403381494
 30
0.0
 11
-93.92068979949954
 21
2407.498190108593
 31
0.0
  0
LINE
  5
308
330
1F
100
AcDbEntity
  8
レバー
  6
Continuous
 62
     7
370
     0
100
AcDbLine
 10
-93.92068979949954
 20
2407.498190108593
 30
0.0
 11
-100.7427915712998
 21
2407.498125847394
 31
0.0
  0
LINE
  5
309
330
1F
100
AcDbEntity
  8
レバー
  6
Continuous
 62
     7
370
     0
100
AcDbLine
 10
-100.7427915712998
 20
2407.498125847394
 30
0.0
 11
-107.0375375231995
 21
2407.498197093593
 31
0.0
  0
LINE
  5
30A
330
1F
100
AcDbEntity
  8
レバー
  6
Continuous
 62
     7
370
     0
100
AcDbLine
 10
-107.0375375231995
 20
2407.498197093593
 30
0.0
 11
-112.8049276551997
 21
2407.498394999594
 31
0.0
  0
LINE
  5
30B
330
1F
100
AcDbEntity
  8
レバー
  6
Continuous
 62
     7
370
     0
100
AcDbLine
 10
-112.8049276551997
 20
2407.498394999594
 30
0.0
 11
-118.0466681502003
 21
2407.498700939094
 31
0.0
  0
LINE
  5
30C
330
1F
100
AcDbEntity
  8
レバー
  6
Continuous
 62
     7
370
     0
100
AcDbLine
 10
-118.0466681502003
 20
2407.498700939094
 30
0.0
 11
-122.8438250502998
 21
2407.499099079494
 31
0.0
  0
LINE
  5
30D
330
1F
100
AcDbEntity
  8
レバー
  6
Continuous
 62
     7
370
     0
100
AcDbLine
 10
-122.8438250502998
 20
2407.499099079494
 30
0.0
 11
-127.4950045874999
 21
2407.499603390594
 31
0.0
  0
LINE
  5
30E
330
1F
100
AcDbEntity
  8
レバー
  6
Continuous
 62
     7
370
     0
100
AcDbLine
 10
-127.4950045874999
 20
2407.499603390594
 30
0.0
 11
-131.6971078297996
 21
2407.500165443793
 31
0.0
  0
LINE
  5
30F
330
1F
100
AcDbEntity
  8
レバー
  6
Continuous
 62
     7
370
     0
100
AcDbLine
 10
-131.6971078297996
 20
2407.500165443793
 30
0.0
 11
-135.4505371085
 21
2407.500547286093
 31
0.0
  0
LINE
  5
310
330
1F
100
AcDbEntity
  8
レバー
  6
Continuous
 62
     7
370
     0
100
AcDbLine
 10
-135.4505371085
 20
2407.500547286093
 30
0.0
 11
-137.4523944934998
 21
2407.499832030293
 31
0.0
  0
LINE
  5
311
330
1F
100
AcDbEntity
  8
レバー
  6
Continuous
 62
     7
370
     0
100
AcDbLine
 10
-137.4523944934998
 20
2407.499832030293
 30
0.0
 11
-139.2987619868003
 21
2407.497828755494
 31
0.0
  0
LINE
  5
312
330
1F
100
AcDbEntity
  8
レバー
  6
Continuous
 62
     7
370
     0
100
AcDbLine
 10
-139.2987619868003
 20
2407.497828755494
 30
0.0
 11
-141.3083819454999
 21
2407.494542118093
 31
0.0
  0
LINE
  5
313
330
1F
100
AcDbEntity
  8
レバー
  6
Continuous
 62
     7
370
     0
100
AcDbLine
 10
-141.3083819454999
 20
2407.494542118093
 30
0.0
 11
-143.7163173934999
 21
2407.491975858793
 31
0.0
  0
LINE
  5
314
330
1F
100
AcDbEntity
  8
レバー
  6
Continuous
 62
     7
370
     0
100
AcDbLine
 10
-143.7163173934999
 20
2407.491975858793
 30
0.0
 11
-145.2114775559997
 21
2407.491487380094
 31
0.0
  0
LINE
  5
315
330
1F
100
AcDbEntity
  8
レバー
  6
Continuous
 62
     7
370
     0
100
AcDbLine
 10
-145.2114775559997
 20
2407.491487380094
 30
0.0
 11
-146.7488275623995
 21
2407.492237094694
 31
0.0
  0
LINE
  5
316
330
1F
100
AcDbEntity
  8
レバー
  6
Continuous
 62
     7
370
     0
100
AcDbLine
 10
-146.7488275623995
 20
2407.492237094694
 30
0.0
 11
-148.2671273655004
 21
2407.493438966494
 31
0.0
  0
LINE
  5
317
330
1F
100
AcDbEntity
  8
レバー
  6
Continuous
 62
     7
370
     0
100
AcDbLine
 10
-148.2671273655004
 20
2407.493438966494
 30
0.0
 11
-149.3677988430997
 21
2407.492574699193
 31
0.0
  0
LINE
  5
318
330
1F
100
AcDbEntity
  8
レバー
  6
Continuous
 62
     7
370
     0
100
AcDbLine
 10
-149.3677988430997
 20
2407.492574699193
 30
0.0
 11
-149.8301236672992
 21
2407.485984660593
 31
0.0
  0
LINE
  5
319
330
1F
100
AcDbEntity
  8
レバー
  6
Continuous
 62
     7
370
     0
100
AcDbLine
 10
-149.8301236672992
 20
2407.485984660593
 30
0.0
 11
-149.8340431382994
 21
2407.481904536393
 31
0.0
  0
ARC
  5
31A
330
1F
100
AcDbEntity
  8
レバー
  6
Continuous
 62
     7
370
     0
100
AcDbCircle
 10
-39.19991488070082
 20
2406.000148726594
 30
0.0
 40
1.500000000000118
100
AcDbArc
 50
359.9999957463
 51
90.17419294509996
  0
ARC
  5
31B
330
1F
100
AcDbEntity
  8
レバー
  6
Continuous
 62
     7
370
     0
100
AcDbCircle
 10
-39.19991488070082
 20
2395.000148152993
 30
0.0
 40
1.500000000000029
100
AcDbArc
 50
269.9105889113
 51
359.9915336725
  0
LINE
  5
31C
330
1F
100
AcDbEntity
  8
レバー
  6
Continuous
 62
     7
370
     0
100
AcDbLine
 10
-144.7445282494999
 20
2407.491640116994
 30
0.0
 11
-145.5075263759997
 21
2408.278323173494
 31
0.0
  0
LINE
  5
31D
330
1F
100
AcDbEntity
  8
レバー
  6
Continuous
 62
     7
370
     0
100
AcDbLine
 10
-145.5075263759997
 20
2408.278323173494
 30
0.0
 11
-147.4775017953002
 21
2409.646314497993
 31
0.0
  0
LINE
  5
31E
330
1F
100
AcDbEntity
  8
レバー
  6
Continuous
 62
     7
370
     0
100
AcDbLine
 10
-147.4775017953002
 20
2409.646314497993
 30
0.0
 11
-149.7250304339997
 21
2410.662823285893
 31
0.0
  0
LINE
  5
31F
330
1F
100
AcDbEntity
  8
レバー
  6
Continuous
 62
     7
370
     0
100
AcDbLine
 10
-149.7250304339997
 20
2410.662823285893
 30
0.0
 11
-152.1637407379995
 21
2411.288786608693
 31
0.0
  0
LINE
  5
320
330
1F
100
AcDbEntity
  8
レバー
  6
Continuous
 62
     7
370
     0
100
AcDbLine
 10
-152.1637407379995
 20
2411.288786608693
 30
0.0
 11
-154.6999148806998
 21
2411.500148404293
 31
0.0
  0
LINE
  5
321
330
1F
100
AcDbEntity
  8
レバー
  6
Continuous
 62
     7
370
     0
100
AcDbLine
 10
-154.6999148806998
 20
2411.500148404293
 30
0.0
 11
-157.2360890234998
 21
2411.288786608693
 31
0.0
  0
LINE
  5
322
330
1F
100
AcDbEntity
  8
レバー
  6
Continuous
 62
     7
370
     0
100
AcDbLine
 10
-157.2360890234998
 20
2411.288786608693
 30
0.0
 11
-159.6747993273999
 21
2410.662823285893
 31
0.0
  0
LINE
  5
323
330
1F
100
AcDbEntity
  8
レバー
  6
Continuous
 62
     7
370
     0
100
AcDbLine
 10
-159.6747993273999
 20
2410.662823285893
 30
0.0
 11
-161.9223279660994
 21
2409.646314497993
 31
0.0
  0
LINE
  5
324
330
1F
100
AcDbEntity
  8
レバー
  6
Continuous
 62
     7
370
     0
100
AcDbLine
 10
-161.9223279660994
 20
2409.646314497993
 30
0.0
 11
-163.8923033854996
 21
2408.278323173494
 31
0.0
  0
LINE
  5
325
330
1F
100
AcDbEntity
  8
レバー
  6
Continuous
 62
     7
370
     0
100
AcDbLine
 10
-163.8923033854996
 20
2408.278323173494
 30
0.0
 11
-165.5090197702998
 21
2406.611421074694
 31
0.0
  0
LINE
  5
326
330
1F
100
AcDbEntity
  8
レバー
  6
Continuous
 62
     7
370
     0
100
AcDbLine
 10
-165.5090197702998
 20
2406.611421074694
 30
0.0
 11
-166.7103485918
 21
2404.709666430894
 31
0.0
  0
LINE
  5
327
330
1F
100
AcDbEntity
  8
レバー
  6
Continuous
 62
     7
370
     0
100
AcDbLine
 10
-166.7103485918
 20
2404.709666430894
 30
0.0
 11
-167.4501232585996
 21
2402.646141987193
 31
0.0
  0
LINE
  5
328
330
1F
100
AcDbEntity
  8
レバー
  6
Continuous
 62
     7
370
     0
100
AcDbLine
 10
-167.4501232585996
 20
2402.646141987193
 30
0.0
 11
-167.6999151488997
 21
2400.500148463894
 31
0.0
  0
LINE
  5
329
330
1F
100
AcDbEntity
  8
レバー
  6
Continuous
 62
     7
370
     0
100
AcDbLine
 10
-167.6999151488997
 20
2400.500148463894
 30
0.0
 11
-167.4501232585996
 21
2398.354154940594
 31
0.0
  0
LINE
  5
32A
330
1F
100
AcDbEntity
  8
レバー
  6
Continuous
 62
     7
370
     0
100
AcDbLine
 10
-167.4501232585996
 20
2398.354154940594
 30
0.0
 11
-166.7103485918
 21
2396.290630496993
 31
0.0
  0
LINE
  5
32B
330
1F
100
AcDbEntity
  8
レバー
  6
Continuous
 62
     7
370
     0
100
AcDbLine
 10
-166.7103485918
 20
2396.290630496993
 30
0.0
 11
-165.5090197702998
 21
2394.388875853193
 31
0.0
  0
LINE
  5
32C
330
1F
100
AcDbEntity
  8
レバー
  6
Continuous
 62
     7
370
     0
100
AcDbLine
 10
-165.5090197702998
 20
2394.388875853193
 30
0.0
 11
-163.8923033854996
 21
2392.721973754393
 31
0.0
  0
LINE
  5
32D
330
1F
100
AcDbEntity
  8
レバー
  6
Continuous
 62
     7
370
     0
100
AcDbLine
 10
-163.8923033854996
 20
2392.721973754393
 30
0.0
 11
-161.9223279660994
 21
2391.353982429893
 31
0.0
  0
LINE
  5
32E
330
1F
100
AcDbEntity
  8
レバー
  6
Continuous
 62
     7
370
     0
100
AcDbLine
 10
-161.9223279660994
 20
2391.353982429893
 30
0.0
 11
-159.6747993273999
 21
2390.337473641993
 31
0.0
  0
LINE
  5
32F
330
1F
100
AcDbEntity
  8
レバー
  6
Continuous
 62
     7
370
     0
100
AcDbLine
 10
-159.6747993273999
 20
2390.337473641993
 30
0.0
 11
-157.2360890234998
 21
2389.711510319194
 31
0.0
  0
LINE
  5
330
330
1F
100
AcDbEntity
  8
レバー
  6
Continuous
 62
     7
370
     0
100
AcDbLine
 10
-157.2360890234998
 20
2389.711510319194
 30
0.0
 11
-154.6999148806998
 21
2389.500148523494
 31
0.0
  0
LINE
  5
331
330
1F
100
AcDbEntity
  8
レバー
  6
Continuous
 62
     7
370
     0
100
AcDbLine
 10
-154.6999148806998
 20
2389.500148523494
 30
0.0
 11
-152.1637407379995
 21
2389.711510319194
 31
0.0
  0
LINE
  5
332
330
1F
100
AcDbEntity
  8
レバー
  6
Continuous
 62
     7
370
     0
100
AcDbLine
 10
-152.1637407379995
 20
2389.711510319194
 30
0.0
 11
-149.7250304339997
 21
2390.337473641993
 31
0.0
  0
LINE
  5
333
330
1F
100
AcDbEntity
  8
レバー
  6
Continuous
 62
     7
370
     0
100
AcDbLine
 10
-149.7250304339997
 20
2390.337473641993
 30
0.0
 11
-147.4775017953002
 21
2391.353982429893
 31
0.0
  0
LINE
  5
334
330
1F
100
AcDbEntity
  8
レバー
  6
Continuous
 62
     7
370
     0
100
AcDbLine
 10
-147.4775017953002
 20
2391.353982429893
 30
0.0
 11
-145.5075263759997
 21
2392.721973754393
 31
0.0
  0
LINE
  5
335
330
1F
100
AcDbEntity
  8
レバー
  6
Continuous
 62
     7
370
     0
100
AcDbLine
 10
-145.5075263759997
 20
2392.721973754393
 30
0.0
 11
-144.7446232444008
 21
2393.508559021994
 31
0.0
  0
LINE
  5
336
330
1F
100
AcDbEntity
  8
レバー
  6
Continuous
 62
     7
370
     0
100
AcDbLine
 10
-37.69991619199971
 20
2400.500309597794
 30
0.0
 11
-37.69991619199971
 21
2395.003172963794
 31
0.0
  0
LINE
  5
337
330
1F
100
AcDbEntity
  8
レバー
  6
Continuous
 62
     7
370
     0
100
AcDbLine
 10
-37.69991619199971
 20
2400.500309597794
 30
0.0
 11
-37.69991619199971
 21
2405.993394017194
 31
0.0
  0
ARC
  5
338
330
1F
100
AcDbEntity
  8
レバー
  6
Continuous
 62
     7
370
     0
100
AcDbCircle
 10
-154.6999148806998
 20
2400.500148463894
 30
0.0
 40
24.55
100
AcDbArc
 50
16.5995243249
 51
343.3673588443
  0
LINE
  5
339
330
1F
100
AcDbEntity
  8
レバー
  6
JWW_CENTER1
 62
   120
370
     5
100
AcDbLine
 10
2123.702391011367
 20
2400.500148463894
 30
0.0
 11
2040.676439273515
 21
2400.500148463894
 31
0.0
  0
LINE
  5
33A
330
1F
100
AcDbEntity
  8
レバー
  6
JWW_CENTER1
 62
   120
370
     5
100
AcDbLine
 10
2076.900212468327
 20
2456.957109057684
 30
0.0
 11
2076.900212468327
 21
2357.11335576942
 31
0.0
  0
LINE
  5
33B
330
1F
100
AcDbEntity
  8
レバー
  6
Continuous
 62
     7
370
     0
100
AcDbLine
 10
2192.400133611327
 20
2407.500135175793
 30
0.0
 11
2183.324834706028
 21
2407.500015035194
 31
0.0
  0
LINE
  5
33C
330
1F
100
AcDbEntity
  8
レバー
  6
Continuous
 62
     7
370
     0
100
AcDbLine
 10
2183.324834706028
 20
2407.500015035194
 30
0.0
 11
2182.924388350628
 21
2407.500001065394
 31
0.0
  0
ARC
  5
33D
330
1F
100
AcDbEntity
  8
レバー
  6
Continuous
 62
     7
370
     0
100
AcDbCircle
 10
2192.400212468328
 20
2395.000148201294
 30
0.0
 40
1.500000000000118
100
AcDbArc
 50
270.164192293
 51
0.000004253700026
  0
ARC
  5
33E
330
1F
100
AcDbEntity
  8
レバー
  6
Continuous
 62
     7
370
     0
100
AcDbCircle
 10
2192.400212468328
 20
2406.000148774894
 30
0.0
 40
1.500000000000029
100
AcDbArc
 50
0.0084663275
 51
89.9162980715
  0
LINE
  5
33F
330
1F
100
AcDbEntity
  8
レバー
  6
Continuous
 62
     7
370
     0
100
AcDbLine
 10
2081.918590144928
 20
2393.514032404794
 30
0.0
 11
2082.050891501529
 21
2393.507241666294
 31
0.0
  0
LINE
  5
340
330
1F
100
AcDbEntity
  8
レバー
  6
Continuous
 62
     7
370
     0
100
AcDbLine
 10
2082.050891501529
 20
2393.507241666294
 30
0.0
 11
2082.486632654128
 21
2393.505309171893
 31
0.0
  0
LINE
  5
341
330
1F
100
AcDbEntity
  8
レバー
  6
Continuous
 62
     7
370
     0
100
AcDbLine
 10
2082.486632654128
 20
2393.505309171893
 30
0.0
 11
2083.214826324729
 21
2393.505654226894
 31
0.0
  0
LINE
  5
342
330
1F
100
AcDbEntity
  8
レバー
  6
Continuous
 62
     7
370
     0
100
AcDbLine
 10
2083.214826324729
 20
2393.505654226894
 30
0.0
 11
2084.229612631429
 21
2393.506905924493
 31
0.0
  0
LINE
  5
343
330
1F
100
AcDbEntity
  8
レバー
  6
Continuous
 62
     7
370
     0
100
AcDbLine
 10
2084.229612631429
 20
2393.506905924493
 30
0.0
 11
2085.493140296729
 21
2393.508214432693
 31
0.0
  0
LINE
  5
344
330
1F
100
AcDbEntity
  8
レバー
  6
Continuous
 62
     7
370
     0
100
AcDbLine
 10
2085.493140296729
 20
2393.508214432693
 30
0.0
 11
2086.842670479527
 21
2393.508567869593
 31
0.0
  0
LINE
  5
345
330
1F
100
AcDbEntity
  8
レバー
  6
Continuous
 62
     7
370
     0
100
AcDbLine
 10
2086.842670479527
 20
2393.508567869593
 30
0.0
 11
2089.696187900127
 21
2393.506591137393
 31
0.0
  0
LINE
  5
346
330
1F
100
AcDbEntity
  8
レバー
  6
Continuous
 62
     7
370
     0
100
AcDbLine
 10
2089.696187900127
 20
2393.506591137393
 30
0.0
 11
2092.678023876328
 21
2393.501997388793
 31
0.0
  0
LINE
  5
347
330
1F
100
AcDbEntity
  8
レバー
  6
Continuous
 62
     7
370
     0
100
AcDbLine
 10
2092.678023876328
 20
2393.501997388793
 30
0.0
 11
2095.698746295328
 21
2393.499811109094
 31
0.0
  0
LINE
  5
348
330
1F
100
AcDbEntity
  8
レバー
  6
Continuous
 62
     7
370
     0
100
AcDbLine
 10
2095.698746295328
 20
2393.499811109094
 30
0.0
 11
2098.741334305828
 21
2393.499948479194
 31
0.0
  0
LINE
  5
349
330
1F
100
AcDbEntity
  8
レバー
  6
Continuous
 62
     7
370
     0
100
AcDbLine
 10
2098.741334305828
 20
2393.499948479194
 30
0.0
 11
2101.805616544329
 21
2393.500394582694
 31
0.0
  0
LINE
  5
34A
330
1F
100
AcDbEntity
  8
レバー
  6
Continuous
 62
     7
370
     0
100
AcDbLine
 10
2101.805616544329
 20
2393.500394582694
 30
0.0
 11
2104.891421647428
 21
2393.500785738193
 31
0.0
  0
LINE
  5
34B
330
1F
100
AcDbEntity
  8
レバー
  6
Continuous
 62
     7
370
     0
100
AcDbLine
 10
2104.891421647428
 20
2393.500785738193
 30
0.0
 11
2108.888512851428
 21
2393.501209955594
 31
0.0
  0
LINE
  5
34C
330
1F
100
AcDbEntity
  8
レバー
  6
Continuous
 62
     7
370
     0
100
AcDbLine
 10
2108.888512851428
 20
2393.501209955594
 30
0.0
 11
2113.297498227729
 21
2393.501577362394
 31
0.0
  0
LINE
  5
34D
330
1F
100
AcDbEntity
  8
レバー
  6
Continuous
 62
     7
370
     0
100
AcDbLine
 10
2113.297498227729
 20
2393.501577362394
 30
0.0
 11
2118.267259003328
 21
2393.501876782594
 31
0.0
  0
LINE
  5
34E
330
1F
100
AcDbEntity
  8
レバー
  6
Continuous
 62
     7
370
     0
100
AcDbLine
 10
2118.267259003328
 20
2393.501876782594
 30
0.0
 11
2123.797798903428
 21
2393.502080742193
 31
0.0
  0
LINE
  5
34F
330
1F
100
AcDbEntity
  8
レバー
  6
Continuous
 62
     7
370
     0
100
AcDbLine
 10
2123.797798903428
 20
2393.502080742193
 30
0.0
 11
2129.889114202628
 21
2393.502168752193
 31
0.0
  0
LINE
  5
350
330
1F
100
AcDbEntity
  8
レバー
  6
Continuous
 62
     7
370
     0
100
AcDbLine
 10
2129.889114202628
 20
2393.502168752193
 30
0.0
 11
2136.541208626428
 21
2393.502126376994
 31
0.0
  0
LINE
  5
351
330
1F
100
AcDbEntity
  8
レバー
  6
Continuous
 62
     7
370
     0
100
AcDbLine
 10
2136.541208626428
 20
2393.502126376994
 30
0.0
 11
2143.754085900027
 21
2393.501951288394
 31
0.0
  0
LINE
  5
352
330
1F
100
AcDbEntity
  8
レバー
  6
Continuous
 62
     7
370
     0
100
AcDbLine
 10
2143.754085900027
 20
2393.501951288394
 30
0.0
 11
2152.335955204128
 21
2393.501620203193
 31
0.0
  0
LINE
  5
353
330
1F
100
AcDbEntity
  8
レバー
  6
Continuous
 62
     7
370
     0
100
AcDbLine
 10
2152.335955204128
 20
2393.501620203193
 30
0.0
 11
2161.596386136229
 21
2393.501182481594
 31
0.0
  0
LINE
  5
354
330
1F
100
AcDbEntity
  8
レバー
  6
Continuous
 62
     7
370
     0
100
AcDbLine
 10
2161.596386136229
 20
2393.501182481594
 30
0.0
 11
2171.535371245528
 21
2393.500710300994
 31
0.0
  0
LINE
  5
355
330
1F
100
AcDbEntity
  8
レバー
  6
Continuous
 62
     7
370
     0
100
AcDbLine
 10
2171.535371245528
 20
2393.500710300994
 30
0.0
 11
2182.152925433328
 21
2393.500314023294
 31
0.0
  0
LINE
  5
356
330
1F
100
AcDbEntity
  8
レバー
  6
Continuous
 62
     7
370
     0
100
AcDbLine
 10
2182.152925433328
 20
2393.500314023294
 30
0.0
 11
2192.400133611327
 21
2393.500163148994
 31
0.0
  0
LINE
  5
357
330
1F
100
AcDbEntity
  8
レバー
  6
Continuous
 62
     7
370
     0
100
AcDbLine
 10
2192.400081457328
 20
2407.500134710194
 30
0.0
 11
2182.670979203428
 21
2407.499997340094
 31
0.0
  0
LINE
  5
358
330
1F
100
AcDbEntity
  8
レバー
  6
Continuous
 62
     7
370
     0
100
AcDbLine
 10
2182.670979203428
 20
2407.499997340094
 30
0.0
 11
2172.486184539028
 21
2407.499628070693
 31
0.0
  0
LINE
  5
359
330
1F
100
AcDbEntity
  8
レバー
  6
Continuous
 62
     7
370
     0
100
AcDbLine
 10
2172.486184539028
 20
2407.499628070693
 30
0.0
 11
2162.894634904028
 21
2407.499177776194
 31
0.0
  0
LINE
  5
35A
330
1F
100
AcDbEntity
  8
レバー
  6
Continuous
 62
     7
370
     0
100
AcDbLine
 10
2162.894634904028
 20
2407.499177776194
 30
0.0
 11
2153.896337749128
 21
2407.498746573893
 31
0.0
  0
LINE
  5
35B
330
1F
100
AcDbEntity
  8
レバー
  6
Continuous
 62
     7
370
     0
100
AcDbLine
 10
2153.896337749128
 20
2407.498746573893
 30
0.0
 11
2145.491270722528
 21
2407.498403381494
 31
0.0
  0
LINE
  5
35C
330
1F
100
AcDbEntity
  8
レバー
  6
Continuous
 62
     7
370
     0
100
AcDbLine
 10
2145.491270722528
 20
2407.498403381494
 30
0.0
 11
2137.679437549528
 21
2407.498190108593
 31
0.0
  0
LINE
  5
35D
330
1F
100
AcDbEntity
  8
レバー
  6
Continuous
 62
     7
370
     0
100
AcDbLine
 10
2137.679437549528
 20
2407.498190108593
 30
0.0
 11
2130.857335777728
 21
2407.498125847394
 31
0.0
  0
LINE
  5
35E
330
1F
100
AcDbEntity
  8
レバー
  6
Continuous
 62
     7
370
     0
100
AcDbLine
 10
2130.857335777728
 20
2407.498125847394
 30
0.0
 11
2124.562589825828
 21
2407.498197093593
 31
0.0
  0
LINE
  5
35F
330
1F
100
AcDbEntity
  8
レバー
  6
Continuous
 62
     7
370
     0
100
AcDbLine
 10
2124.562589825828
 20
2407.498197093593
 30
0.0
 11
2118.795199693828
 21
2407.498394999594
 31
0.0
  0
LINE
  5
360
330
1F
100
AcDbEntity
  8
レバー
  6
Continuous
 62
     7
370
     0
100
AcDbLine
 10
2118.795199693828
 20
2407.498394999594
 30
0.0
 11
2113.553459198828
 21
2407.498700939094
 31
0.0
  0
LINE
  5
361
330
1F
100
AcDbEntity
  8
レバー
  6
Continuous
 62
     7
370
     0
100
AcDbLine
 10
2113.553459198828
 20
2407.498700939094
 30
0.0
 11
2108.756302298728
 21
2407.499099079494
 31
0.0
  0
LINE
  5
362
330
1F
100
AcDbEntity
  8
レバー
  6
Continuous
 62
     7
370
     0
100
AcDbLine
 10
2108.756302298728
 20
2407.499099079494
 30
0.0
 11
2104.105122761528
 21
2407.499603390594
 31
0.0
  0
LINE
  5
363
330
1F
100
AcDbEntity
  8
レバー
  6
Continuous
 62
     7
370
     0
100
AcDbLine
 10
2104.105122761528
 20
2407.499603390594
 30
0.0
 11
2099.903019519229
 21
2407.500165443793
 31
0.0
  0
LINE
  5
364
330
1F
100
AcDbEntity
  8
レバー
  6
Continuous
 62
     7
370
     0
100
AcDbLine
 10
2099.903019519229
 20
2407.500165443793
 30
0.0
 11
2096.149590240528
 21
2407.500547286093
 31
0.0
  0
LINE
  5
365
330
1F
100
AcDbEntity
  8
レバー
  6
Continuous
 62
     7
370
     0
100
AcDbLine
 10
2096.149590240528
 20
2407.500547286093
 30
0.0
 11
2094.147732855527
 21
2407.499832030293
 31
0.0
  0
LINE
  5
366
330
1F
100
AcDbEntity
  8
レバー
  6
Continuous
 62
     7
370
     0
100
AcDbLine
 10
2094.147732855527
 20
2407.499832030293
 30
0.0
 11
2092.301365362228
 21
2407.497828755494
 31
0.0
  0
LINE
  5
367
330
1F
100
AcDbEntity
  8
レバー
  6
Continuous
 62
     7
370
     0
100
AcDbLine
 10
2092.301365362228
 20
2407.497828755494
 30
0.0
 11
2090.291745403528
 21
2407.494542118093
 31
0.0
  0
LINE
  5
368
330
1F
100
AcDbEntity
  8
レバー
  6
Continuous
 62
     7
370
     0
100
AcDbLine
 10
2090.291745403528
 20
2407.494542118093
 30
0.0
 11
2087.883809955528
 21
2407.491975858793
 31
0.0
  0
LINE
  5
369
330
1F
100
AcDbEntity
  8
レバー
  6
Continuous
 62
     7
370
     0
100
AcDbLine
 10
2087.883809955528
 20
2407.491975858793
 30
0.0
 11
2086.388649793028
 21
2407.491487380094
 31
0.0
  0
LINE
  5
36A
330
1F
100
AcDbEntity
  8
レバー
  6
Continuous
 62
     7
370
     0
100
AcDbLine
 10
2086.388649793028
 20
2407.491487380094
 30
0.0
 11
2084.851299786629
 21
2407.492237094694
 31
0.0
  0
LINE
  5
36B
330
1F
100
AcDbEntity
  8
レバー
  6
Continuous
 62
     7
370
     0
100
AcDbLine
 10
2084.851299786629
 20
2407.492237094694
 30
0.0
 11
2083.332999983527
 21
2407.493438966494
 31
0.0
  0
LINE
  5
36C
330
1F
100
AcDbEntity
  8
レバー
  6
Continuous
 62
     7
370
     0
100
AcDbLine
 10
2083.332999983527
 20
2407.493438966494
 30
0.0
 11
2082.232328505928
 21
2407.492574699193
 31
0.0
  0
LINE
  5
36D
330
1F
100
AcDbEntity
  8
レバー
  6
Continuous
 62
     7
370
     0
100
AcDbLine
 10
2082.232328505928
 20
2407.492574699193
 30
0.0
 11
2081.770003681729
 21
2407.485984660593
 31
0.0
  0
LINE
  5
36E
330
1F
100
AcDbEntity
  8
レバー
  6
Continuous
 62
     7
370
     0
100
AcDbLine
 10
2081.770003681729
 20
2407.485984660593
 30
0.0
 11
2081.766084210729
 21
2407.481904536393
 31
0.0
  0
ARC
  5
36F
330
1F
100
AcDbEntity
  8
レバー
  6
Continuous
 62
     7
370
     0
100
AcDbCircle
 10
2192.400212468328
 20
2406.000148726594
 30
0.0
 40
1.500000000000118
100
AcDbArc
 50
359.9999957463
 51
90.17419294509996
  0
ARC
  5
370
330
1F
100
AcDbEntity
  8
レバー
  6
Continuous
 62
     7
370
     0
100
AcDbCircle
 10
2192.400212468328
 20
2395.000148152993
 30
0.0
 40
1.500000000000029
100
AcDbArc
 50
269.9105889113
 51
359.9915336725
  0
LINE
  5
371
330
1F
100
AcDbEntity
  8
レバー
  6
Continuous
 62
     7
370
     0
100
AcDbLine
 10
2086.855599099527
 20
2407.491640116994
 30
0.0
 11
2086.092600973028
 21
2408.278323173494
 31
0.0
  0
LINE
  5
372
330
1F
100
AcDbEntity
  8
レバー
  6
Continuous
 62
     7
370
     0
100
AcDbLine
 10
2086.092600973028
 20
2408.278323173494
 30
0.0
 11
2084.122625553728
 21
2409.646314497993
 31
0.0
  0
LINE
  5
373
330
1F
100
AcDbEntity
  8
レバー
  6
Continuous
 62
     7
370
     0
100
AcDbLine
 10
2084.122625553728
 20
2409.646314497993
 30
0.0
 11
2081.875096915028
 21
2410.662823285893
 31
0.0
  0
LINE
  5
374
330
1F
100
AcDbEntity
  8
レバー
  6
Continuous
 62
     7
370
     0
100
AcDbLine
 10
2081.875096915028
 20
2410.662823285893
 30
0.0
 11
2079.436386611028
 21
2411.288786608693
 31
0.0
  0
LINE
  5
375
330
1F
100
AcDbEntity
  8
レバー
  6
Continuous
 62
     7
370
     0
100
AcDbLine
 10
2079.436386611028
 20
2411.288786608693
 30
0.0
 11
2076.900212468327
 21
2411.500148404293
 31
0.0
  0
LINE
  5
376
330
1F
100
AcDbEntity
  8
レバー
  6
Continuous
 62
     7
370
     0
100
AcDbLine
 10
2076.900212468327
 20
2411.500148404293
 30
0.0
 11
2074.364038325528
 21
2411.288786608693
 31
0.0
  0
LINE
  5
377
330
1F
100
AcDbEntity
  8
レバー
  6
Continuous
 62
     7
370
     0
100
AcDbLine
 10
2074.364038325528
 20
2411.288786608693
 30
0.0
 11
2071.925328021628
 21
2410.662823285893
 31
0.0
  0
LINE
  5
378
330
1F
100
AcDbEntity
  8
レバー
  6
Continuous
 62
     7
370
     0
100
AcDbLine
 10
2071.925328021628
 20
2410.662823285893
 30
0.0
 11
2069.677799382929
 21
2409.646314497993
 31
0.0
  0
LINE
  5
379
330
1F
100
AcDbEntity
  8
レバー
  6
Continuous
 62
     7
370
     0
100
AcDbLine
 10
2069.677799382929
 20
2409.646314497993
 30
0.0
 11
2067.707823963528
 21
2408.278323173494
 31
0.0
  0
LINE
  5
37A
330
1F
100
AcDbEntity
  8
レバー
  6
Continuous
 62
     7
370
     0
100
AcDbLine
 10
2067.707823963528
 20
2408.278323173494
 30
0.0
 11
2066.091107578728
 21
2406.611421074694
 31
0.0
  0
LINE
  5
37B
330
1F
100
AcDbEntity
  8
レバー
  6
Continuous
 62
     7
370
     0
100
AcDbLine
 10
2066.091107578728
 20
2406.611421074694
 30
0.0
 11
2064.889778757228
 21
2404.709666430894
 31
0.0
  0
LINE
  5
37C
330
1F
100
AcDbEntity
  8
レバー
  6
Continuous
 62
     7
370
     0
100
AcDbLine
 10
2064.889778757228
 20
2404.709666430894
 30
0.0
 11
2064.150004090428
 21
2402.646141987193
 31
0.0
  0
LINE
  5
37D
330
1F
100
AcDbEntity
  8
レバー
  6
Continuous
 62
     7
370
     0
100
AcDbLine
 10
2064.150004090428
 20
2402.646141987193
 30
0.0
 11
2063.900212200128
 21
2400.500148463894
 31
0.0
  0
LINE
  5
37E
330
1F
100
AcDbEntity
  8
レバー
  6
Continuous
 62
     7
370
     0
100
AcDbLine
 10
2063.900212200128
 20
2400.500148463894
 30
0.0
 11
2064.150004090428
 21
2398.354154940594
 31
0.0
  0
LINE
  5
37F
330
1F
100
AcDbEntity
  8
レバー
  6
Continuous
 62
     7
370
     0
100
AcDbLine
 10
2064.150004090428
 20
2398.354154940594
 30
0.0
 11
2064.889778757228
 21
2396.290630496993
 31
0.0
  0
LINE
  5
380
330
1F
100
AcDbEntity
  8
レバー
  6
Continuous
 62
     7
370
     0
100
AcDbLine
 10
2064.889778757228
 20
2396.290630496993
 30
0.0
 11
2066.091107578728
 21
2394.388875853193
 31
0.0
  0
LINE
  5
381
330
1F
100
AcDbEntity
  8
レバー
  6
Continuous
 62
     7
370
     0
100
AcDbLine
 10
2066.091107578728
 20
2394.388875853193
 30
0.0
 11
2067.707823963528
 21
2392.721973754393
 31
0.0
  0
LINE
  5
382
330
1F
100
AcDbEntity
  8
レバー
  6
Continuous
 62
     7
370
     0
100
AcDbLine
 10
2067.707823963528
 20
2392.721973754393
 30
0.0
 11
2069.677799382929
 21
2391.353982429893
 31
0.0
  0
LINE
  5
383
330
1F
100
AcDbEntity
  8
レバー
  6
Continuous
 62
     7
370
     0
100
AcDbLine
 10
2069.677799382929
 20
2391.353982429893
 30
0.0
 11
2071.925328021628
 21
2390.337473641993
 31
0.0
  0
LINE
  5
384
330
1F
100
AcDbEntity
  8
レバー
  6
Continuous
 62
     7
370
     0
100
AcDbLine
 10
2071.925328021628
 20
2390.337473641993
 30
0.0
 11
2074.364038325528
 21
2389.711510319194
 31
0.0
  0
LINE
  5
385
330
1F
100
AcDbEntity
  8
レバー
  6
Continuous
 62
     7
370
     0
100
AcDbLine
 10
2074.364038325528
 20
2389.711510319194
 30
0.0
 11
2076.900212468327
 21
2389.500148523494
 31
0.0
  0
LINE
  5
386
330
1F
100
AcDbEntity
  8
レバー
  6
Continuous
 62
     7
370
     0
100
AcDbLine
 10
2076.900212468327
 20
2389.500148523494
 30
0.0
 11
2079.436386611028
 21
2389.711510319194
 31
0.0
  0
LINE
  5
387
330
1F
100
AcDbEntity
  8
レバー
  6
Continuous
 62
     7
370
     0
100
AcDbLine
 10
2079.436386611028
 20
2389.711510319194
 30
0.0
 11
2081.875096915028
 21
2390.337473641993
 31
0.0
  0
LINE
  5
388
330
1F
100
AcDbEntity
  8
レバー
  6
Continuous
 62
     7
370
     0
100
AcDbLine
 10
2081.875096915028
 20
2390.337473641993
 30
0.0
 11
2084.122625553728
 21
2391.353982429893
 31
0.0
  0
LINE
  5
389
330
1F
100
AcDbEntity
  8
レバー
  6
Continuous
 62
     7
370
     0
100
AcDbLine
 10
2084.122625553728
 20
2391.353982429893
 30
0.0
 11
2086.092600973028
 21
2392.721973754393
 31
0.0
  0
LINE
  5
38A
330
1F
100
AcDbEntity
  8
レバー
  6
Continuous
 62
     7
370
     0
100
AcDbLine
 10
2086.092600973028
 20
2392.721973754393
 30
0.0
 11
2086.855504104628
 21
2393.508559021994
 31
0.0
  0
LINE
  5
38B
330
1F
100
AcDbEntity
  8
レバー
  6
Continuous
 62
     7
370
     0
100
AcDbLine
 10
2193.900211157028
 20
2400.500309597794
 30
0.0
 11
2193.900211157028
 21
2395.003172963794
 31
0.0
  0
LINE
  5
38C
330
1F
100
AcDbEntity
  8
レバー
  6
Continuous
 62
     7
370
     0
100
AcDbLine
 10
2193.900211157028
 20
2400.500309597794
 30
0.0
 11
2193.900211157028
 21
2405.993394017194
 31
0.0
  0
ARC
  5
38D
330
1F
100
AcDbEntity
  8
レバー
  6
Continuous
 62
     7
370
     0
100
AcDbCircle
 10
2076.900212468327
 20
2400.500148463894
 30
0.0
 40
24.55
100
AcDbArc
 50
16.5995243249
 51
343.3673588443
  0
LINE
  5
38E
330
1F
100
AcDbEntity
  8
レバー
  6
JWW_CENTER1
 62
   120
370
     5
100
AcDbLine
 10
4355.302518360395
 20
2400.500148463894
 30
0.0
 11
4272.276566622541
 21
2400.500148463894
 31
0.0
  0
LINE
  5
38F
330
1F
100
AcDbEntity
  8
レバー
  6
JWW_CENTER1
 62
   120
370
     5
100
AcDbLine
 10
4308.500339817357
 20
2456.957109057684
 30
0.0
 11
4308.500339817357
 21
2357.11335576942
 31
0.0
  0
LINE
  5
390
330
1F
100
AcDbEntity
  8
レバー
  6
Continuous
 62
     7
370
     0
100
AcDbLine
 10
4424.000260960355
 20
2407.500135175793
 30
0.0
 11
4414.924962055057
 21
2407.500015035194
 31
0.0
  0
LINE
  5
391
330
1F
100
AcDbEntity
  8
レバー
  6
Continuous
 62
     7
370
     0
100
AcDbLine
 10
4414.924962055057
 20
2407.500015035194
 30
0.0
 11
4414.524515699655
 21
2407.500001065394
 31
0.0
  0
ARC
  5
392
330
1F
100
AcDbEntity
  8
レバー
  6
Continuous
 62
     7
370
     0
100
AcDbCircle
 10
4424.000339817356
 20
2395.000148201294
 30
0.0
 40
1.500000000000118
100
AcDbArc
 50
270.164192293
 51
0.000004253700026
  0
ARC
  5
393
330
1F
100
AcDbEntity
  8
レバー
  6
Continuous
 62
     7
370
     0
100
AcDbCircle
 10
4424.000339817356
 20
2406.000148774894
 30
0.0
 40
1.500000000000029
100
AcDbArc
 50
0.0084663275
 51
89.9162980715
  0
LINE
  5
394
330
1F
100
AcDbEntity
  8
レバー
  6
Continuous
 62
     7
370
     0
100
AcDbLine
 10
4313.518717493955
 20
2393.514032404794
 30
0.0
 11
4313.651018850558
 21
2393.507241666294
 31
0.0
  0
LINE
  5
395
330
1F
100
AcDbEntity
  8
レバー
  6
Continuous
 62
     7
370
     0
100
AcDbLine
 10
4313.651018850558
 20
2393.507241666294
 30
0.0
 11
4314.086760003156
 21
2393.505309171893
 31
0.0
  0
LINE
  5
396
330
1F
100
AcDbEntity
  8
レバー
  6
Continuous
 62
     7
370
     0
100
AcDbLine
 10
4314.086760003156
 20
2393.505309171893
 30
0.0
 11
4314.814953673756
 21
2393.505654226894
 31
0.0
  0
LINE
  5
397
330
1F
100
AcDbEntity
  8
レバー
  6
Continuous
 62
     7
370
     0
100
AcDbLine
 10
4314.814953673756
 20
2393.505654226894
 30
0.0
 11
4315.829739980458
 21
2393.506905924493
 31
0.0
  0
LINE
  5
398
330
1F
100
AcDbEntity
  8
レバー
  6
Continuous
 62
     7
370
     0
100
AcDbLine
 10
4315.829739980458
 20
2393.506905924493
 30
0.0
 11
4317.093267645758
 21
2393.508214432693
 31
0.0
  0
LINE
  5
399
330
1F
100
AcDbEntity
  8
レバー
  6
Continuous
 62
     7
370
     0
100
AcDbLine
 10
4317.093267645758
 20
2393.508214432693
 30
0.0
 11
4318.442797828556
 21
2393.508567869593
 31
0.0
  0
LINE
  5
39A
330
1F
100
AcDbEntity
  8
レバー
  6
Continuous
 62
     7
370
     0
100
AcDbLine
 10
4318.442797828556
 20
2393.508567869593
 30
0.0
 11
4321.296315249157
 21
2393.506591137393
 31
0.0
  0
LINE
  5
39B
330
1F
100
AcDbEntity
  8
レバー
  6
Continuous
 62
     7
370
     0
100
AcDbLine
 10
4321.296315249157
 20
2393.506591137393
 30
0.0
 11
4324.278151225355
 21
2393.501997388793
 31
0.0
  0
LINE
  5
39C
330
1F
100
AcDbEntity
  8
レバー
  6
Continuous
 62
     7
370
     0
100
AcDbLine
 10
4324.278151225355
 20
2393.501997388793
 30
0.0
 11
4327.298873644358
 21
2393.499811109094
 31
0.0
  0
LINE
  5
39D
330
1F
100
AcDbEntity
  8
レバー
  6
Continuous
 62
     7
370
     0
100
AcDbLine
 10
4327.298873644358
 20
2393.499811109094
 30
0.0
 11
4330.341461654854
 21
2393.499948479194
 31
0.0
  0
LINE
  5
39E
330
1F
100
AcDbEntity
  8
レバー
  6
Continuous
 62
     7
370
     0
100
AcDbLine
 10
4330.341461654854
 20
2393.499948479194
 30
0.0
 11
4333.405743893355
 21
2393.500394582694
 31
0.0
  0
LINE
  5
39F
330
1F
100
AcDbEntity
  8
レバー
  6
Continuous
 62
     7
370
     0
100
AcDbLine
 10
4333.405743893355
 20
2393.500394582694
 30
0.0
 11
4336.491548996456
 21
2393.500785738193
 31
0.0
  0
LINE
  5
3A0
330
1F
100
AcDbEntity
  8
レバー
  6
Continuous
 62
     7
370
     0
100
AcDbLine
 10
4336.491548996456
 20
2393.500785738193
 30
0.0
 11
4340.488640200457
 21
2393.501209955594
 31
0.0
  0
LINE
  5
3A1
330
1F
100
AcDbEntity
  8
レバー
  6
Continuous
 62
     7
370
     0
100
AcDbLine
 10
4340.488640200457
 20
2393.501209955594
 30
0.0
 11
4344.897625576756
 21
2393.501577362394
 31
0.0
  0
LINE
  5
3A2
330
1F
100
AcDbEntity
  8
レバー
  6
Continuous
 62
     7
370
     0
100
AcDbLine
 10
4344.897625576756
 20
2393.501577362394
 30
0.0
 11
4349.867386352354
 21
2393.501876782594
 31
0.0
  0
LINE
  5
3A3
330
1F
100
AcDbEntity
  8
レバー
  6
Continuous
 62
     7
370
     0
100
AcDbLine
 10
4349.867386352354
 20
2393.501876782594
 30
0.0
 11
4355.397926252456
 21
2393.502080742193
 31
0.0
  0
LINE
  5
3A4
330
1F
100
AcDbEntity
  8
レバー
  6
Continuous
 62
     7
370
     0
100
AcDbLine
 10
4355.397926252456
 20
2393.502080742193
 30
0.0
 11
4361.489241551656
 21
2393.502168752193
 31
0.0
  0
LINE
  5
3A5
330
1F
100
AcDbEntity
  8
レバー
  6
Continuous
 62
     7
370
     0
100
AcDbLine
 10
4361.489241551656
 20
2393.502168752193
 30
0.0
 11
4368.141335975457
 21
2393.502126376994
 31
0.0
  0
LINE
  5
3A6
330
1F
100
AcDbEntity
  8
レバー
  6
Continuous
 62
     7
370
     0
100
AcDbLine
 10
4368.141335975457
 20
2393.502126376994
 30
0.0
 11
4375.354213249056
 21
2393.501951288394
 31
0.0
  0
LINE
  5
3A7
330
1F
100
AcDbEntity
  8
レバー
  6
Continuous
 62
     7
370
     0
100
AcDbLine
 10
4375.354213249056
 20
2393.501951288394
 30
0.0
 11
4383.936082553156
 21
2393.501620203193
 31
0.0
  0
LINE
  5
3A8
330
1F
100
AcDbEntity
  8
レバー
  6
Continuous
 62
     7
370
     0
100
AcDbLine
 10
4383.936082553156
 20
2393.501620203193
 30
0.0
 11
4393.196513485256
 21
2393.501182481594
 31
0.0
  0
LINE
  5
3A9
330
1F
100
AcDbEntity
  8
レバー
  6
Continuous
 62
     7
370
     0
100
AcDbLine
 10
4393.196513485256
 20
2393.501182481594
 30
0.0
 11
4403.135498594556
 21
2393.500710300994
 31
0.0
  0
LINE
  5
3AA
330
1F
100
AcDbEntity
  8
レバー
  6
Continuous
 62
     7
370
     0
100
AcDbLine
 10
4403.135498594556
 20
2393.500710300994
 30
0.0
 11
4413.753052782357
 21
2393.500314023294
 31
0.0
  0
LINE
  5
3AB
330
1F
100
AcDbEntity
  8
レバー
  6
Continuous
 62
     7
370
     0
100
AcDbLine
 10
4413.753052782357
 20
2393.500314023294
 30
0.0
 11
4424.000260960355
 21
2393.500163148994
 31
0.0
  0
LINE
  5
3AC
330
1F
100
AcDbEntity
  8
レバー
  6
Continuous
 62
     7
370
     0
100
AcDbLine
 10
4424.000208806357
 20
2407.500134710194
 30
0.0
 11
4414.271106552455
 21
2407.499997340094
 31
0.0
  0
LINE
  5
3AD
330
1F
100
AcDbEntity
  8
レバー
  6
Continuous
 62
     7
370
     0
100
AcDbLine
 10
4414.271106552455
 20
2407.499997340094
 30
0.0
 11
4404.086311888055
 21
2407.499628070693
 31
0.0
  0
LINE
  5
3AE
330
1F
100
AcDbEntity
  8
レバー
  6
Continuous
 62
     7
370
     0
100
AcDbLine
 10
4404.086311888055
 20
2407.499628070693
 30
0.0
 11
4394.494762253056
 21
2407.499177776194
 31
0.0
  0
LINE
  5
3AF
330
1F
100
AcDbEntity
  8
レバー
  6
Continuous
 62
     7
370
     0
100
AcDbLine
 10
4394.494762253056
 20
2407.499177776194
 30
0.0
 11
4385.496465098156
 21
2407.498746573893
 31
0.0
  0
LINE
  5
3B0
330
1F
100
AcDbEntity
  8
レバー
  6
Continuous
 62
     7
370
     0
100
AcDbLine
 10
4385.496465098156
 20
2407.498746573893
 30
0.0
 11
4377.091398071556
 21
2407.498403381494
 31
0.0
  0
LINE
  5
3B1
330
1F
100
AcDbEntity
  8
レバー
  6
Continuous
 62
     7
370
     0
100
AcDbLine
 10
4377.091398071556
 20
2407.498403381494
 30
0.0
 11
4369.279564898557
 21
2407.498190108593
 31
0.0
  0
LINE
  5
3B2
330
1F
100
AcDbEntity
  8
レバー
  6
Continuous
 62
     7
370
     0
100
AcDbLine
 10
4369.279564898557
 20
2407.498190108593
 30
0.0
 11
4362.457463126756
 21
2407.498125847394
 31
0.0
  0
LINE
  5
3B3
330
1F
100
AcDbEntity
  8
レバー
  6
Continuous
 62
     7
370
     0
100
AcDbLine
 10
4362.457463126756
 20
2407.498125847394
 30
0.0
 11
4356.162717174856
 21
2407.498197093593
 31
0.0
  0
LINE
  5
3B4
330
1F
100
AcDbEntity
  8
レバー
  6
Continuous
 62
     7
370
     0
100
AcDbLine
 10
4356.162717174856
 20
2407.498197093593
 30
0.0
 11
4350.395327042856
 21
2407.498394999594
 31
0.0
  0
LINE
  5
3B5
330
1F
100
AcDbEntity
  8
レバー
  6
Continuous
 62
     7
370
     0
100
AcDbLine
 10
4350.395327042856
 20
2407.498394999594
 30
0.0
 11
4345.153586547856
 21
2407.498700939094
 31
0.0
  0
LINE
  5
3B6
330
1F
100
AcDbEntity
  8
レバー
  6
Continuous
 62
     7
370
     0
100
AcDbLine
 10
4345.153586547856
 20
2407.498700939094
 30
0.0
 11
4340.356429647755
 21
2407.499099079494
 31
0.0
  0
LINE
  5
3B7
330
1F
100
AcDbEntity
  8
レバー
  6
Continuous
 62
     7
370
     0
100
AcDbLine
 10
4340.356429647755
 20
2407.499099079494
 30
0.0
 11
4335.705250110556
 21
2407.499603390594
 31
0.0
  0
LINE
  5
3B8
330
1F
100
AcDbEntity
  8
レバー
  6
Continuous
 62
     7
370
     0
100
AcDbLine
 10
4335.705250110556
 20
2407.499603390594
 30
0.0
 11
4331.503146868256
 21
2407.500165443793
 31
0.0
  0
LINE
  5
3B9
330
1F
100
AcDbEntity
  8
レバー
  6
Continuous
 62
     7
370
     0
100
AcDbLine
 10
4331.503146868256
 20
2407.500165443793
 30
0.0
 11
4327.749717589555
 21
2407.500547286093
 31
0.0
  0
LINE
  5
3BA
330
1F
100
AcDbEntity
  8
レバー
  6
Continuous
 62
     7
370
     0
100
AcDbLine
 10
4327.749717589555
 20
2407.500547286093
 30
0.0
 11
4325.747860204557
 21
2407.499832030293
 31
0.0
  0
LINE
  5
3BB
330
1F
100
AcDbEntity
  8
レバー
  6
Continuous
 62
     7
370
     0
100
AcDbLine
 10
4325.747860204557
 20
2407.499832030293
 30
0.0
 11
4323.901492711257
 21
2407.497828755494
 31
0.0
  0
LINE
  5
3BC
330
1F
100
AcDbEntity
  8
レバー
  6
Continuous
 62
     7
370
     0
100
AcDbLine
 10
4323.901492711257
 20
2407.497828755494
 30
0.0
 11
4321.891872752556
 21
2407.494542118093
 31
0.0
  0
LINE
  5
3BD
330
1F
100
AcDbEntity
  8
レバー
  6
Continuous
 62
     7
370
     0
100
AcDbLine
 10
4321.891872752556
 20
2407.494542118093
 30
0.0
 11
4319.483937304556
 21
2407.491975858793
 31
0.0
  0
LINE
  5
3BE
330
1F
100
AcDbEntity
  8
レバー
  6
Continuous
 62
     7
370
     0
100
AcDbLine
 10
4319.483937304556
 20
2407.491975858793
 30
0.0
 11
4317.988777142055
 21
2407.491487380094
 31
0.0
  0
LINE
  5
3BF
330
1F
100
AcDbEntity
  8
レバー
  6
Continuous
 62
     7
370
     0
100
AcDbLine
 10
4317.988777142055
 20
2407.491487380094
 30
0.0
 11
4316.451427135657
 21
2407.492237094694
 31
0.0
  0
LINE
  5
3C0
330
1F
100
AcDbEntity
  8
レバー
  6
Continuous
 62
     7
370
     0
100
AcDbLine
 10
4316.451427135657
 20
2407.492237094694
 30
0.0
 11
4314.933127332555
 21
2407.493438966494
 31
0.0
  0
LINE
  5
3C1
330
1F
100
AcDbEntity
  8
レバー
  6
Continuous
 62
     7
370
     0
100
AcDbLine
 10
4314.933127332555
 20
2407.493438966494
 30
0.0
 11
4313.832455854958
 21
2407.492574699193
 31
0.0
  0
LINE
  5
3C2
330
1F
100
AcDbEntity
  8
レバー
  6
Continuous
 62
     7
370
     0
100
AcDbLine
 10
4313.832455854958
 20
2407.492574699193
 30
0.0
 11
4313.370131030756
 21
2407.485984660593
 31
0.0
  0
LINE
  5
3C3
330
1F
100
AcDbEntity
  8
レバー
  6
Continuous
 62
     7
370
     0
100
AcDbLine
 10
4313.370131030756
 20
2407.485984660593
 30
0.0
 11
4313.366211559758
 21
2407.481904536393
 31
0.0
  0
ARC
  5
3C4
330
1F
100
AcDbEntity
  8
レバー
  6
Continuous
 62
     7
370
     0
100
AcDbCircle
 10
4424.000339817356
 20
2406.000148726594
 30
0.0
 40
1.500000000000118
100
AcDbArc
 50
359.9999957463
 51
90.17419294509996
  0
ARC
  5
3C5
330
1F
100
AcDbEntity
  8
レバー
  6
Continuous
 62
     7
370
     0
100
AcDbCircle
 10
4424.000339817356
 20
2395.000148152993
 30
0.0
 40
1.500000000000029
100
AcDbArc
 50
269.9105889113
 51
359.9915336725
  0
LINE
  5
3C6
330
1F
100
AcDbEntity
  8
レバー
  6
Continuous
 62
     7
370
     0
100
AcDbLine
 10
4318.455726448557
 20
2407.491640116994
 30
0.0
 11
4317.692728322058
 21
2408.278323173494
 31
0.0
  0
LINE
  5
3C7
330
1F
100
AcDbEntity
  8
レバー
  6
Continuous
 62
     7
370
     0
100
AcDbLine
 10
4317.692728322058
 20
2408.278323173494
 30
0.0
 11
4315.722752902757
 21
2409.646314497993
 31
0.0
  0
LINE
  5
3C8
330
1F
100
AcDbEntity
  8
レバー
  6
Continuous
 62
     7
370
     0
100
AcDbLine
 10
4315.722752902757
 20
2409.646314497993
 30
0.0
 11
4313.475224264056
 21
2410.662823285893
 31
0.0
  0
LINE
  5
3C9
330
1F
100
AcDbEntity
  8
レバー
  6
Continuous
 62
     7
370
     0
100
AcDbLine
 10
4313.475224264056
 20
2410.662823285893
 30
0.0
 11
4311.036513960054
 21
2411.288786608693
 31
0.0
  0
LINE
  5
3CA
330
1F
100
AcDbEntity
  8
レバー
  6
Continuous
 62
     7
370
     0
100
AcDbLine
 10
4311.036513960054
 20
2411.288786608693
 30
0.0
 11
4308.500339817357
 21
2411.500148404293
 31
0.0
  0
LINE
  5
3CB
330
1F
100
AcDbEntity
  8
レバー
  6
Continuous
 62
     7
370
     0
100
AcDbLine
 10
4308.500339817357
 20
2411.500148404293
 30
0.0
 11
4305.964165674555
 21
2411.288786608693
 31
0.0
  0
LINE
  5
3CC
330
1F
100
AcDbEntity
  8
レバー
  6
Continuous
 62
     7
370
     0
100
AcDbLine
 10
4305.964165674555
 20
2411.288786608693
 30
0.0
 11
4303.525455370656
 21
2410.662823285893
 31
0.0
  0
LINE
  5
3CD
330
1F
100
AcDbEntity
  8
レバー
  6
Continuous
 62
     7
370
     0
100
AcDbLine
 10
4303.525455370656
 20
2410.662823285893
 30
0.0
 11
4301.277926731956
 21
2409.646314497993
 31
0.0
  0
LINE
  5
3CE
330
1F
100
AcDbEntity
  8
レバー
  6
Continuous
 62
     7
370
     0
100
AcDbLine
 10
4301.277926731956
 20
2409.646314497993
 30
0.0
 11
4299.307951312557
 21
2408.278323173494
 31
0.0
  0
LINE
  5
3CF
330
1F
100
AcDbEntity
  8
レバー
  6
Continuous
 62
     7
370
     0
100
AcDbLine
 10
4299.307951312557
 20
2408.278323173494
 30
0.0
 11
4297.691234927756
 21
2406.611421074694
 31
0.0
  0
LINE
  5
3D0
330
1F
100
AcDbEntity
  8
レバー
  6
Continuous
 62
     7
370
     0
100
AcDbLine
 10
4297.691234927756
 20
2406.611421074694
 30
0.0
 11
4296.489906106256
 21
2404.709666430894
 31
0.0
  0
LINE
  5
3D1
330
1F
100
AcDbEntity
  8
レバー
  6
Continuous
 62
     7
370
     0
100
AcDbLine
 10
4296.489906106256
 20
2404.709666430894
 30
0.0
 11
4295.750131439458
 21
2402.646141987193
 31
0.0
  0
LINE
  5
3D2
330
1F
100
AcDbEntity
  8
レバー
  6
Continuous
 62
     7
370
     0
100
AcDbLine
 10
4295.750131439458
 20
2402.646141987193
 30
0.0
 11
4295.500339549157
 21
2400.500148463894
 31
0.0
  0
LINE
  5
3D3
330
1F
100
AcDbEntity
  8
レバー
  6
Continuous
 62
     7
370
     0
100
AcDbLine
 10
4295.500339549157
 20
2400.500148463894
 30
0.0
 11
4295.750131439458
 21
2398.354154940594
 31
0.0
  0
LINE
  5
3D4
330
1F
100
AcDbEntity
  8
レバー
  6
Continuous
 62
     7
370
     0
100
AcDbLine
 10
4295.750131439458
 20
2398.354154940594
 30
0.0
 11
4296.489906106256
 21
2396.290630496993
 31
0.0
  0
LINE
  5
3D5
330
1F
100
AcDbEntity
  8
レバー
  6
Continuous
 62
     7
370
     0
100
AcDbLine
 10
4296.489906106256
 20
2396.290630496993
 30
0.0
 11
4297.691234927756
 21
2394.388875853193
 31
0.0
  0
LINE
  5
3D6
330
1F
100
AcDbEntity
  8
レバー
  6
Continuous
 62
     7
370
     0
100
AcDbLine
 10
4297.691234927756
 20
2394.388875853193
 30
0.0
 11
4299.307951312557
 21
2392.721973754393
 31
0.0
  0
LINE
  5
3D7
330
1F
100
AcDbEntity
  8
レバー
  6
Continuous
 62
     7
370
     0
100
AcDbLine
 10
4299.307951312557
 20
2392.721973754393
 30
0.0
 11
4301.277926731956
 21
2391.353982429893
 31
0.0
  0
LINE
  5
3D8
330
1F
100
AcDbEntity
  8
レバー
  6
Continuous
 62
     7
370
     0
100
AcDbLine
 10
4301.277926731956
 20
2391.353982429893
 30
0.0
 11
4303.525455370656
 21
2390.337473641993
 31
0.0
  0
LINE
  5
3D9
330
1F
100
AcDbEntity
  8
レバー
  6
Continuous
 62
     7
370
     0
100
AcDbLine
 10
4303.525455370656
 20
2390.337473641993
 30
0.0
 11
4305.964165674555
 21
2389.711510319194
 31
0.0
  0
LINE
  5
3DA
330
1F
100
AcDbEntity
  8
レバー
  6
Continuous
 62
     7
370
     0
100
AcDbLine
 10
4305.964165674555
 20
2389.711510319194
 30
0.0
 11
4308.500339817357
 21
2389.500148523494
 31
0.0
  0
LINE
  5
3DB
330
1F
100
AcDbEntity
  8
レバー
  6
Continuous
 62
     7
370
     0
100
AcDbLine
 10
4308.500339817357
 20
2389.500148523494
 30
0.0
 11
4311.036513960054
 21
2389.711510319194
 31
0.0
  0
LINE
  5
3DC
330
1F
100
AcDbEntity
  8
レバー
  6
Continuous
 62
     7
370
     0
100
AcDbLine
 10
4311.036513960054
 20
2389.711510319194
 30
0.0
 11
4313.475224264056
 21
2390.337473641993
 31
0.0
  0
LINE
  5
3DD
330
1F
100
AcDbEntity
  8
レバー
  6
Continuous
 62
     7
370
     0
100
AcDbLine
 10
4313.475224264056
 20
2390.337473641993
 30
0.0
 11
4315.722752902757
 21
2391.353982429893
 31
0.0
  0
LINE
  5
3DE
330
1F
100
AcDbEntity
  8
レバー
  6
Continuous
 62
     7
370
     0
100
AcDbLine
 10
4315.722752902757
 20
2391.353982429893
 30
0.0
 11
4317.692728322058
 21
2392.721973754393
 31
0.0
  0
LINE
  5
3DF
330
1F
100
AcDbEntity
  8
レバー
  6
Continuous
 62
     7
370
     0
100
AcDbLine
 10
4317.692728322058
 20
2392.721973754393
 30
0.0
 11
4318.455631453655
 21
2393.508559021994
 31
0.0
  0
LINE
  5
3E0
330
1F
100
AcDbEntity
  8
レバー
  6
Continuous
 62
     7
370
     0
100
AcDbLine
 10
4425.500338506056
 20
2400.500309597794
 30
0.0
 11
4425.500338506056
 21
2395.003172963794
 31
0.0
  0
LINE
  5
3E1
330
1F
100
AcDbEntity
  8
レバー
  6
Continuous
 62
     7
370
     0
100
AcDbLine
 10
4425.500338506056
 20
2400.500309597794
 30
0.0
 11
4425.500338506056
 21
2405.993394017194
 31
0.0
  0
ARC
  5
3E2
330
1F
100
AcDbEntity
  8
レバー
  6
Continuous
 62
     7
370
     0
100
AcDbCircle
 10
4308.500339817357
 20
2400.500148463894
 30
0.0
 40
24.55
100
AcDbArc
 50
16.5995243249
 51
343.3673588443
  0
LINE
  5
3E3
330
1F
100
AcDbEntity
  8
レバー
  6
JWW_CENTER1
 62
   120
370
     5
100
AcDbLine
 10
4355.302518360395
 20
-1718.750083820242
 30
0.0
 11
4272.276566622541
 21
-1718.750083820242
 31
0.0
  0
LINE
  5
3E4
330
1F
100
AcDbEntity
  8
レバー
  6
JWW_CENTER1
 62
   120
370
     5
100
AcDbLine
 10
4308.500339817357
 20
-1662.293123226451
 30
0.0
 11
4308.500339817357
 21
-1762.136876514715
 31
0.0
  0
LINE
  5
3E5
330
1F
100
AcDbEntity
  8
レバー
  6
Continuous
 62
     7
370
     0
100
AcDbLine
 10
4424.000260960355
 20
-1711.750097108342
 30
0.0
 11
4414.924962055057
 21
-1711.750217248941
 31
0.0
  0
LINE
  5
3E6
330
1F
100
AcDbEntity
  8
レバー
  6
Continuous
 62
     7
370
     0
100
AcDbLine
 10
4414.924962055057
 20
-1711.750217248941
 30
0.0
 11
4414.524515699655
 21
-1711.750231218742
 31
0.0
  0
ARC
  5
3E7
330
1F
100
AcDbEntity
  8
レバー
  6
Continuous
 62
     7
370
     0
100
AcDbCircle
 10
4424.000339817356
 20
-1724.250084082842
 30
0.0
 40
1.500000000000118
100
AcDbArc
 50
270.164192293
 51
0.000004253700026
  0
ARC
  5
3E8
330
1F
100
AcDbEntity
  8
レバー
  6
Continuous
 62
     7
370
     0
100
AcDbCircle
 10
4424.000339817356
 20
-1713.250083509241
 30
0.0
 40
1.500000000000029
100
AcDbArc
 50
0.0084663275
 51
89.9162980715
  0
LINE
  5
3E9
330
1F
100
AcDbEntity
  8
レバー
  6
Continuous
 62
     7
370
     0
100
AcDbLine
 10
4313.518717493955
 20
-1725.736199879342
 30
0.0
 11
4313.651018850558
 21
-1725.742990617842
 31
0.0
  0
LINE
  5
3EA
330
1F
100
AcDbEntity
  8
レバー
  6
Continuous
 62
     7
370
     0
100
AcDbLine
 10
4313.651018850558
 20
-1725.742990617842
 30
0.0
 11
4314.086760003156
 21
-1725.744923112242
 31
0.0
  0
LINE
  5
3EB
330
1F
100
AcDbEntity
  8
レバー
  6
Continuous
 62
     7
370
     0
100
AcDbLine
 10
4314.086760003156
 20
-1725.744923112242
 30
0.0
 11
4314.814953673756
 21
-1725.744578057242
 31
0.0
  0
LINE
  5
3EC
330
1F
100
AcDbEntity
  8
レバー
  6
Continuous
 62
     7
370
     0
100
AcDbLine
 10
4314.814953673756
 20
-1725.744578057242
 30
0.0
 11
4315.829739980458
 21
-1725.743326359642
 31
0.0
  0
LINE
  5
3ED
330
1F
100
AcDbEntity
  8
レバー
  6
Continuous
 62
     7
370
     0
100
AcDbLine
 10
4315.829739980458
 20
-1725.743326359642
 30
0.0
 11
4317.093267645758
 21
-1725.742017851442
 31
0.0
  0
LINE
  5
3EE
330
1F
100
AcDbEntity
  8
レバー
  6
Continuous
 62
     7
370
     0
100
AcDbLine
 10
4317.093267645758
 20
-1725.742017851442
 30
0.0
 11
4318.442797828556
 21
-1725.741664414542
 31
0.0
  0
LINE
  5
3EF
330
1F
100
AcDbEntity
  8
レバー
  6
Continuous
 62
     7
370
     0
100
AcDbLine
 10
4318.442797828556
 20
-1725.741664414542
 30
0.0
 11
4321.296315249157
 21
-1725.743641146742
 31
0.0
  0
LINE
  5
3F0
330
1F
100
AcDbEntity
  8
レバー
  6
Continuous
 62
     7
370
     0
100
AcDbLine
 10
4321.296315249157
 20
-1725.743641146742
 30
0.0
 11
4324.278151225355
 21
-1725.748234895342
 31
0.0
  0
LINE
  5
3F1
330
1F
100
AcDbEntity
  8
レバー
  6
Continuous
 62
     7
370
     0
100
AcDbLine
 10
4324.278151225355
 20
-1725.748234895342
 30
0.0
 11
4327.298873644358
 21
-1725.750421175042
 31
0.0
  0
LINE
  5
3F2
330
1F
100
AcDbEntity
  8
レバー
  6
Continuous
 62
     7
370
     0
100
AcDbLine
 10
4327.298873644358
 20
-1725.750421175042
 30
0.0
 11
4330.341461654854
 21
-1725.750283804942
 31
0.0
  0
LINE
  5
3F3
330
1F
100
AcDbEntity
  8
レバー
  6
Continuous
 62
     7
370
     0
100
AcDbLine
 10
4330.341461654854
 20
-1725.750283804942
 30
0.0
 11
4333.405743893355
 21
-1725.749837701441
 31
0.0
  0
LINE
  5
3F4
330
1F
100
AcDbEntity
  8
レバー
  6
Continuous
 62
     7
370
     0
100
AcDbLine
 10
4333.405743893355
 20
-1725.749837701441
 30
0.0
 11
4336.491548996456
 21
-1725.749446545942
 31
0.0
  0
LINE
  5
3F5
330
1F
100
AcDbEntity
  8
レバー
  6
Continuous
 62
     7
370
     0
100
AcDbLine
 10
4336.491548996456
 20
-1725.749446545942
 30
0.0
 11
4340.488640200457
 21
-1725.749022328542
 31
0.0
  0
LINE
  5
3F6
330
1F
100
AcDbEntity
  8
レバー
  6
Continuous
 62
     7
370
     0
100
AcDbLine
 10
4340.488640200457
 20
-1725.749022328542
 30
0.0
 11
4344.897625576756
 21
-1725.748654921742
 31
0.0
  0
LINE
  5
3F7
330
1F
100
AcDbEntity
  8
レバー
  6
Continuous
 62
     7
370
     0
100
AcDbLine
 10
4344.897625576756
 20
-1725.748654921742
 30
0.0
 11
4349.867386352354
 21
-1725.748355501542
 31
0.0
  0
LINE
  5
3F8
330
1F
100
AcDbEntity
  8
レバー
  6
Continuous
 62
     7
370
     0
100
AcDbLine
 10
4349.867386352354
 20
-1725.748355501542
 30
0.0
 11
4355.397926252456
 21
-1725.748151541942
 31
0.0
  0
LINE
  5
3F9
330
1F
100
AcDbEntity
  8
レバー
  6
Continuous
 62
     7
370
     0
100
AcDbLine
 10
4355.397926252456
 20
-1725.748151541942
 30
0.0
 11
4361.489241551656
 21
-1725.748063531942
 31
0.0
  0
LINE
  5
3FA
330
1F
100
AcDbEntity
  8
レバー
  6
Continuous
 62
     7
370
     0
100
AcDbLine
 10
4361.489241551656
 20
-1725.748063531942
 30
0.0
 11
4368.141335975457
 21
-1725.748105907142
 31
0.0
  0
LINE
  5
3FB
330
1F
100
AcDbEntity
  8
レバー
  6
Continuous
 62
     7
370
     0
100
AcDbLine
 10
4368.141335975457
 20
-1725.748105907142
 30
0.0
 11
4375.354213249056
 21
-1725.748280995741
 31
0.0
  0
LINE
  5
3FC
330
1F
100
AcDbEntity
  8
レバー
  6
Continuous
 62
     7
370
     0
100
AcDbLine
 10
4375.354213249056
 20
-1725.748280995741
 30
0.0
 11
4383.936082553156
 21
-1725.748612080942
 31
0.0
  0
LINE
  5
3FD
330
1F
100
AcDbEntity
  8
レバー
  6
Continuous
 62
     7
370
     0
100
AcDbLine
 10
4383.936082553156
 20
-1725.748612080942
 30
0.0
 11
4393.196513485256
 21
-1725.749049802542
 31
0.0
  0
LINE
  5
3FE
330
1F
100
AcDbEntity
  8
レバー
  6
Continuous
 62
     7
370
     0
100
AcDbLine
 10
4393.196513485256
 20
-1725.749049802542
 30
0.0
 11
4403.135498594556
 21
-1725.749521983142
 31
0.0
  0
LINE
  5
3FF
330
1F
100
AcDbEntity
  8
レバー
  6
Continuous
 62
     7
370
     0
100
AcDbLine
 10
4403.135498594556
 20
-1725.749521983142
 30
0.0
 11
4413.753052782357
 21
-1725.749918260841
 31
0.0
  0
LINE
  5
400
330
1F
100
AcDbEntity
  8
レバー
  6
Continuous
 62
     7
370
     0
100
AcDbLine
 10
4413.753052782357
 20
-1725.749918260841
 30
0.0
 11
4424.000260960355
 21
-1725.750069135142
 31
0.0
  0
LINE
  5
401
330
1F
100
AcDbEntity
  8
レバー
  6
Continuous
 62
     7
370
     0
100
AcDbLine
 10
4424.000208806357
 20
-1711.750097573942
 30
0.0
 11
4414.271106552455
 21
-1711.750234944042
 31
0.0
  0
LINE
  5
402
330
1F
100
AcDbEntity
  8
レバー
  6
Continuous
 62
     7
370
     0
100
AcDbLine
 10
4414.271106552455
 20
-1711.750234944042
 30
0.0
 11
4404.086311888055
 21
-1711.750604213442
 31
0.0
  0
LINE
  5
403
330
1F
100
AcDbEntity
  8
レバー
  6
Continuous
 62
     7
370
     0
100
AcDbLine
 10
4404.086311888055
 20
-1711.750604213442
 30
0.0
 11
4394.494762253056
 21
-1711.751054507942
 31
0.0
  0
LINE
  5
404
330
1F
100
AcDbEntity
  8
レバー
  6
Continuous
 62
     7
370
     0
100
AcDbLine
 10
4394.494762253056
 20
-1711.751054507942
 30
0.0
 11
4385.496465098156
 21
-1711.751485710242
 31
0.0
  0
LINE
  5
405
330
1F
100
AcDbEntity
  8
レバー
  6
Continuous
 62
     7
370
     0
100
AcDbLine
 10
4385.496465098156
 20
-1711.751485710242
 30
0.0
 11
4377.091398071556
 21
-1711.751828902642
 31
0.0
  0
LINE
  5
406
330
1F
100
AcDbEntity
  8
レバー
  6
Continuous
 62
     7
370
     0
100
AcDbLine
 10
4377.091398071556
 20
-1711.751828902642
 30
0.0
 11
4369.279564898557
 21
-1711.752042175542
 31
0.0
  0
LINE
  5
407
330
1F
100
AcDbEntity
  8
レバー
  6
Continuous
 62
     7
370
     0
100
AcDbLine
 10
4369.279564898557
 20
-1711.752042175542
 30
0.0
 11
4362.457463126756
 21
-1711.752106436742
 31
0.0
  0
LINE
  5
408
330
1F
100
AcDbEntity
  8
レバー
  6
Continuous
 62
     7
370
     0
100
AcDbLine
 10
4362.457463126756
 20
-1711.752106436742
 30
0.0
 11
4356.162717174856
 21
-1711.752035190542
 31
0.0
  0
LINE
  5
409
330
1F
100
AcDbEntity
  8
レバー
  6
Continuous
 62
     7
370
     0
100
AcDbLine
 10
4356.162717174856
 20
-1711.752035190542
 30
0.0
 11
4350.395327042856
 21
-1711.751837284542
 31
0.0
  0
LINE
  5
40A
330
1F
100
AcDbEntity
  8
レバー
  6
Continuous
 62
     7
370
     0
100
AcDbLine
 10
4350.395327042856
 20
-1711.751837284542
 30
0.0
 11
4345.153586547856
 21
-1711.751531345042
 31
0.0
  0
LINE
  5
40B
330
1F
100
AcDbEntity
  8
レバー
  6
Continuous
 62
     7
370
     0
100
AcDbLine
 10
4345.153586547856
 20
-1711.751531345042
 30
0.0
 11
4340.356429647755
 21
-1711.751133204642
 31
0.0
  0
LINE
  5
40C
330
1F
100
AcDbEntity
  8
レバー
  6
Continuous
 62
     7
370
     0
100
AcDbLine
 10
4340.356429647755
 20
-1711.751133204642
 30
0.0
 11
4335.705250110556
 21
-1711.750628893542
 31
0.0
  0
LINE
  5
40D
330
1F
100
AcDbEntity
  8
レバー
  6
Continuous
 62
     7
370
     0
100
AcDbLine
 10
4335.705250110556
 20
-1711.750628893542
 30
0.0
 11
4331.503146868256
 21
-1711.750066840342
 31
0.0
  0
LINE
  5
40E
330
1F
100
AcDbEntity
  8
レバー
  6
Continuous
 62
     7
370
     0
100
AcDbLine
 10
4331.503146868256
 20
-1711.750066840342
 30
0.0
 11
4327.749717589555
 21
-1711.749684998042
 31
0.0
  0
LINE
  5
40F
330
1F
100
AcDbEntity
  8
レバー
  6
Continuous
 62
     7
370
     0
100
AcDbLine
 10
4327.749717589555
 20
-1711.749684998042
 30
0.0
 11
4325.747860204557
 21
-1711.750400253842
 31
0.0
  0
LINE
  5
410
330
1F
100
AcDbEntity
  8
レバー
  6
Continuous
 62
     7
370
     0
100
AcDbLine
 10
4325.747860204557
 20
-1711.750400253842
 30
0.0
 11
4323.901492711257
 21
-1711.752403528642
 31
0.0
  0
LINE
  5
411
330
1F
100
AcDbEntity
  8
レバー
  6
Continuous
 62
     7
370
     0
100
AcDbLine
 10
4323.901492711257
 20
-1711.752403528642
 30
0.0
 11
4321.891872752556
 21
-1711.755690166042
 31
0.0
  0
LINE
  5
412
330
1F
100
AcDbEntity
  8
レバー
  6
Continuous
 62
     7
370
     0
100
AcDbLine
 10
4321.891872752556
 20
-1711.755690166042
 30
0.0
 11
4319.483937304556
 21
-1711.758256425342
 31
0.0
  0
LINE
  5
413
330
1F
100
AcDbEntity
  8
レバー
  6
Continuous
 62
     7
370
     0
100
AcDbLine
 10
4319.483937304556
 20
-1711.758256425342
 30
0.0
 11
4317.988777142055
 21
-1711.758744904042
 31
0.0
  0
LINE
  5
414
330
1F
100
AcDbEntity
  8
レバー
  6
Continuous
 62
     7
370
     0
100
AcDbLine
 10
4317.988777142055
 20
-1711.758744904042
 30
0.0
 11
4316.451427135657
 21
-1711.757995189442
 31
0.0
  0
LINE
  5
415
330
1F
100
AcDbEntity
  8
レバー
  6
Continuous
 62
     7
370
     0
100
AcDbLine
 10
4316.451427135657
 20
-1711.757995189442
 30
0.0
 11
4314.933127332555
 21
-1711.756793317641
 31
0.0
  0
LINE
  5
416
330
1F
100
AcDbEntity
  8
レバー
  6
Continuous
 62
     7
370
     0
100
AcDbLine
 10
4314.933127332555
 20
-1711.756793317641
 30
0.0
 11
4313.832455854958
 21
-1711.757657584942
 31
0.0
  0
LINE
  5
417
330
1F
100
AcDbEntity
  8
レバー
  6
Continuous
 62
     7
370
     0
100
AcDbLine
 10
4313.832455854958
 20
-1711.757657584942
 30
0.0
 11
4313.370131030756
 21
-1711.764247623542
 31
0.0
  0
LINE
  5
418
330
1F
100
AcDbEntity
  8
レバー
  6
Continuous
 62
     7
370
     0
100
AcDbLine
 10
4313.370131030756
 20
-1711.764247623542
 30
0.0
 11
4313.366211559758
 21
-1711.768327747742
 31
0.0
  0
ARC
  5
419
330
1F
100
AcDbEntity
  8
レバー
  6
Continuous
 62
     7
370
     0
100
AcDbCircle
 10
4424.000339817356
 20
-1713.250083557542
 30
0.0
 40
1.500000000000118
100
AcDbArc
 50
359.9999957463
 51
90.17419294509996
  0
ARC
  5
41A
330
1F
100
AcDbEntity
  8
レバー
  6
Continuous
 62
     7
370
     0
100
AcDbCircle
 10
4424.000339817356
 20
-1724.250084131142
 30
0.0
 40
1.500000000000029
100
AcDbArc
 50
269.9105889113
 51
359.9915336725
  0
LINE
  5
41B
330
1F
100
AcDbEntity
  8
レバー
  6
Continuous
 62
     7
370
     0
100
AcDbLine
 10
4318.455726448557
 20
-1711.758592167142
 30
0.0
 11
4317.692728322058
 21
-1710.971909110642
 31
0.0
  0
LINE
  5
41C
330
1F
100
AcDbEntity
  8
レバー
  6
Continuous
 62
     7
370
     0
100
AcDbLine
 10
4317.692728322058
 20
-1710.971909110642
 30
0.0
 11
4315.722752902757
 21
-1709.603917786142
 31
0.0
  0
LINE
  5
41D
330
1F
100
AcDbEntity
  8
レバー
  6
Continuous
 62
     7
370
     0
100
AcDbLine
 10
4315.722752902757
 20
-1709.603917786142
 30
0.0
 11
4313.475224264056
 21
-1708.587408998242
 31
0.0
  0
LINE
  5
41E
330
1F
100
AcDbEntity
  8
レバー
  6
Continuous
 62
     7
370
     0
100
AcDbLine
 10
4313.475224264056
 20
-1708.587408998242
 30
0.0
 11
4311.036513960054
 21
-1707.961445675442
 31
0.0
  0
LINE
  5
41F
330
1F
100
AcDbEntity
  8
レバー
  6
Continuous
 62
     7
370
     0
100
AcDbLine
 10
4311.036513960054
 20
-1707.961445675442
 30
0.0
 11
4308.500339817357
 21
-1707.750083879842
 31
0.0
  0
LINE
  5
420
330
1F
100
AcDbEntity
  8
レバー
  6
Continuous
 62
     7
370
     0
100
AcDbLine
 10
4308.500339817357
 20
-1707.750083879842
 30
0.0
 11
4305.964165674555
 21
-1707.961445675442
 31
0.0
  0
LINE
  5
421
330
1F
100
AcDbEntity
  8
レバー
  6
Continuous
 62
     7
370
     0
100
AcDbLine
 10
4305.964165674555
 20
-1707.961445675442
 30
0.0
 11
4303.525455370656
 21
-1708.587408998242
 31
0.0
  0
LINE
  5
422
330
1F
100
AcDbEntity
  8
レバー
  6
Continuous
 62
     7
370
     0
100
AcDbLine
 10
4303.525455370656
 20
-1708.587408998242
 30
0.0
 11
4301.277926731956
 21
-1709.603917786142
 31
0.0
  0
LINE
  5
423
330
1F
100
AcDbEntity
  8
レバー
  6
Continuous
 62
     7
370
     0
100
AcDbLine
 10
4301.277926731956
 20
-1709.603917786142
 30
0.0
 11
4299.307951312557
 21
-1710.971909110642
 31
0.0
  0
LINE
  5
424
330
1F
100
AcDbEntity
  8
レバー
  6
Continuous
 62
     7
370
     0
100
AcDbLine
 10
4299.307951312557
 20
-1710.971909110642
 30
0.0
 11
4297.691234927756
 21
-1712.638811209441
 31
0.0
  0
LINE
  5
425
330
1F
100
AcDbEntity
  8
レバー
  6
Continuous
 62
     7
370
     0
100
AcDbLine
 10
4297.691234927756
 20
-1712.638811209441
 30
0.0
 11
4296.489906106256
 21
-1714.540565853242
 31
0.0
  0
LINE
  5
426
330
1F
100
AcDbEntity
  8
レバー
  6
Continuous
 62
     7
370
     0
100
AcDbLine
 10
4296.489906106256
 20
-1714.540565853242
 30
0.0
 11
4295.750131439458
 21
-1716.604090296942
 31
0.0
  0
LINE
  5
427
330
1F
100
AcDbEntity
  8
レバー
  6
Continuous
 62
     7
370
     0
100
AcDbLine
 10
4295.750131439458
 20
-1716.604090296942
 30
0.0
 11
4295.500339549157
 21
-1718.750083820242
 31
0.0
  0
LINE
  5
428
330
1F
100
AcDbEntity
  8
レバー
  6
Continuous
 62
     7
370
     0
100
AcDbLine
 10
4295.500339549157
 20
-1718.750083820242
 30
0.0
 11
4295.750131439458
 21
-1720.896077343541
 31
0.0
  0
LINE
  5
429
330
1F
100
AcDbEntity
  8
レバー
  6
Continuous
 62
     7
370
     0
100
AcDbLine
 10
4295.750131439458
 20
-1720.896077343541
 30
0.0
 11
4296.489906106256
 21
-1722.959601787142
 31
0.0
  0
LINE
  5
42A
330
1F
100
AcDbEntity
  8
レバー
  6
Continuous
 62
     7
370
     0
100
AcDbLine
 10
4296.489906106256
 20
-1722.959601787142
 30
0.0
 11
4297.691234927756
 21
-1724.861356430942
 31
0.0
  0
LINE
  5
42B
330
1F
100
AcDbEntity
  8
レバー
  6
Continuous
 62
     7
370
     0
100
AcDbLine
 10
4297.691234927756
 20
-1724.861356430942
 30
0.0
 11
4299.307951312557
 21
-1726.528258529742
 31
0.0
  0
LINE
  5
42C
330
1F
100
AcDbEntity
  8
レバー
  6
Continuous
 62
     7
370
     0
100
AcDbLine
 10
4299.307951312557
 20
-1726.528258529742
 30
0.0
 11
4301.277926731956
 21
-1727.896249854242
 31
0.0
  0
LINE
  5
42D
330
1F
100
AcDbEntity
  8
レバー
  6
Continuous
 62
     7
370
     0
100
AcDbLine
 10
4301.277926731956
 20
-1727.896249854242
 30
0.0
 11
4303.525455370656
 21
-1728.912758642142
 31
0.0
  0
LINE
  5
42E
330
1F
100
AcDbEntity
  8
レバー
  6
Continuous
 62
     7
370
     0
100
AcDbLine
 10
4303.525455370656
 20
-1728.912758642142
 30
0.0
 11
4305.964165674555
 21
-1729.538721964942
 31
0.0
  0
LINE
  5
42F
330
1F
100
AcDbEntity
  8
レバー
  6
Continuous
 62
     7
370
     0
100
AcDbLine
 10
4305.964165674555
 20
-1729.538721964942
 30
0.0
 11
4308.500339817357
 21
-1729.750083760642
 31
0.0
  0
LINE
  5
430
330
1F
100
AcDbEntity
  8
レバー
  6
Continuous
 62
     7
370
     0
100
AcDbLine
 10
4308.500339817357
 20
-1729.750083760642
 30
0.0
 11
4311.036513960054
 21
-1729.538721964942
 31
0.0
  0
LINE
  5
431
330
1F
100
AcDbEntity
  8
レバー
  6
Continuous
 62
     7
370
     0
100
AcDbLine
 10
4311.036513960054
 20
-1729.538721964942
 30
0.0
 11
4313.475224264056
 21
-1728.912758642142
 31
0.0
  0
LINE
  5
432
330
1F
100
AcDbEntity
  8
レバー
  6
Continuous
 62
     7
370
     0
100
AcDbLine
 10
4313.475224264056
 20
-1728.912758642142
 30
0.0
 11
4315.722752902757
 21
-1727.896249854242
 31
0.0
  0
LINE
  5
433
330
1F
100
AcDbEntity
  8
レバー
  6
Continuous
 62
     7
370
     0
100
AcDbLine
 10
4315.722752902757
 20
-1727.896249854242
 30
0.0
 11
4317.692728322058
 21
-1726.528258529742
 31
0.0
  0
LINE
  5
434
330
1F
100
AcDbEntity
  8
レバー
  6
Continuous
 62
     7
370
     0
100
AcDbLine
 10
4317.692728322058
 20
-1726.528258529742
 30
0.0
 11
4318.455631453655
 21
-1725.741673262142
 31
0.0
  0
LINE
  5
435
330
1F
100
AcDbEntity
  8
レバー
  6
Continuous
 62
     7
370
     0
100
AcDbLine
 10
4425.500338506056
 20
-1718.749922686342
 30
0.0
 11
4425.500338506056
 21
-1724.247059320342
 31
0.0
  0
LINE
  5
436
330
1F
100
AcDbEntity
  8
レバー
  6
Continuous
 62
     7
370
     0
100
AcDbLine
 10
4425.500338506056
 20
-1718.749922686342
 30
0.0
 11
4425.500338506056
 21
-1713.256838266942
 31
0.0
  0
ARC
  5
437
330
1F
100
AcDbEntity
  8
レバー
  6
Continuous
 62
     7
370
     0
100
AcDbCircle
 10
4308.500339817357
 20
-1718.750083820242
 30
0.0
 40
24.55
100
AcDbArc
 50
16.5995243249
 51
343.3673588443
  0
LINE
  5
438
330
1F
100
AcDbEntity
  8
レバー
  6
JWW_CENTER1
 62
   120
370
     5
100
AcDbLine
 10
2123.702391011367
 20
-1718.750083820242
 30
0.0
 11
2040.676439273515
 21
-1718.750083820242
 31
0.0
  0
LINE
  5
439
330
1F
100
AcDbEntity
  8
レバー
  6
JWW_CENTER1
 62
   120
370
     5
100
AcDbLine
 10
2076.900212468327
 20
-1662.293123226451
 30
0.0
 11
2076.900212468327
 21
-1762.136876514715
 31
0.0
  0
LINE
  5
43A
330
1F
100
AcDbEntity
  8
レバー
  6
Continuous
 62
     7
370
     0
100
AcDbLine
 10
2192.400133611327
 20
-1711.750097108342
 30
0.0
 11
2183.324834706028
 21
-1711.750217248941
 31
0.0
  0
LINE
  5
43B
330
1F
100
AcDbEntity
  8
レバー
  6
Continuous
 62
     7
370
     0
100
AcDbLine
 10
2183.324834706028
 20
-1711.750217248941
 30
0.0
 11
2182.924388350628
 21
-1711.750231218742
 31
0.0
  0
ARC
  5
43C
330
1F
100
AcDbEntity
  8
レバー
  6
Continuous
 62
     7
370
     0
100
AcDbCircle
 10
2192.400212468328
 20
-1724.250084082842
 30
0.0
 40
1.500000000000118
100
AcDbArc
 50
270.164192293
 51
0.000004253700026
  0
ARC
  5
43D
330
1F
100
AcDbEntity
  8
レバー
  6
Continuous
 62
     7
370
     0
100
AcDbCircle
 10
2192.400212468328
 20
-1713.250083509241
 30
0.0
 40
1.500000000000029
100
AcDbArc
 50
0.0084663275
 51
89.9162980715
  0
LINE
  5
43E
330
1F
100
AcDbEntity
  8
レバー
  6
Continuous
 62
     7
370
     0
100
AcDbLine
 10
2081.918590144928
 20
-1725.736199879342
 30
0.0
 11
2082.050891501529
 21
-1725.742990617842
 31
0.0
  0
LINE
  5
43F
330
1F
100
AcDbEntity
  8
レバー
  6
Continuous
 62
     7
370
     0
100
AcDbLine
 10
2082.050891501529
 20
-1725.742990617842
 30
0.0
 11
2082.486632654128
 21
-1725.744923112242
 31
0.0
  0
LINE
  5
440
330
1F
100
AcDbEntity
  8
レバー
  6
Continuous
 62
     7
370
     0
100
AcDbLine
 10
2082.486632654128
 20
-1725.744923112242
 30
0.0
 11
2083.214826324729
 21
-1725.744578057242
 31
0.0
  0
LINE
  5
441
330
1F
100
AcDbEntity
  8
レバー
  6
Continuous
 62
     7
370
     0
100
AcDbLine
 10
2083.214826324729
 20
-1725.744578057242
 30
0.0
 11
2084.229612631429
 21
-1725.743326359642
 31
0.0
  0
LINE
  5
442
330
1F
100
AcDbEntity
  8
レバー
  6
Continuous
 62
     7
370
     0
100
AcDbLine
 10
2084.229612631429
 20
-1725.743326359642
 30
0.0
 11
2085.493140296729
 21
-1725.742017851442
 31
0.0
  0
LINE
  5
443
330
1F
100
AcDbEntity
  8
レバー
  6
Continuous
 62
     7
370
     0
100
AcDbLine
 10
2085.493140296729
 20
-1725.742017851442
 30
0.0
 11
2086.842670479527
 21
-1725.741664414542
 31
0.0
  0
LINE
  5
444
330
1F
100
AcDbEntity
  8
レバー
  6
Continuous
 62
     7
370
     0
100
AcDbLine
 10
2086.842670479527
 20
-1725.741664414542
 30
0.0
 11
2089.696187900127
 21
-1725.743641146742
 31
0.0
  0
LINE
  5
445
330
1F
100
AcDbEntity
  8
レバー
  6
Continuous
 62
     7
370
     0
100
AcDbLine
 10
2089.696187900127
 20
-1725.743641146742
 30
0.0
 11
2092.678023876328
 21
-1725.748234895342
 31
0.0
  0
LINE
  5
446
330
1F
100
AcDbEntity
  8
レバー
  6
Continuous
 62
     7
370
     0
100
AcDbLine
 10
2092.678023876328
 20
-1725.748234895342
 30
0.0
 11
2095.698746295328
 21
-1725.750421175042
 31
0.0
  0
LINE
  5
447
330
1F
100
AcDbEntity
  8
レバー
  6
Continuous
 62
     7
370
     0
100
AcDbLine
 10
2095.698746295328
 20
-1725.750421175042
 30
0.0
 11
2098.741334305828
 21
-1725.750283804942
 31
0.0
  0
LINE
  5
448
330
1F
100
AcDbEntity
  8
レバー
  6
Continuous
 62
     7
370
     0
100
AcDbLine
 10
2098.741334305828
 20
-1725.750283804942
 30
0.0
 11
2101.805616544329
 21
-1725.749837701441
 31
0.0
  0
LINE
  5
449
330
1F
100
AcDbEntity
  8
レバー
  6
Continuous
 62
     7
370
     0
100
AcDbLine
 10
2101.805616544329
 20
-1725.749837701441
 30
0.0
 11
2104.891421647428
 21
-1725.749446545942
 31
0.0
  0
LINE
  5
44A
330
1F
100
AcDbEntity
  8
レバー
  6
Continuous
 62
     7
370
     0
100
AcDbLine
 10
2104.891421647428
 20
-1725.749446545942
 30
0.0
 11
2108.888512851428
 21
-1725.749022328542
 31
0.0
  0
LINE
  5
44B
330
1F
100
AcDbEntity
  8
レバー
  6
Continuous
 62
     7
370
     0
100
AcDbLine
 10
2108.888512851428
 20
-1725.749022328542
 30
0.0
 11
2113.297498227729
 21
-1725.748654921742
 31
0.0
  0
LINE
  5
44C
330
1F
100
AcDbEntity
  8
レバー
  6
Continuous
 62
     7
370
     0
100
AcDbLine
 10
2113.297498227729
 20
-1725.748654921742
 30
0.0
 11
2118.267259003328
 21
-1725.748355501542
 31
0.0
  0
LINE
  5
44D
330
1F
100
AcDbEntity
  8
レバー
  6
Continuous
 62
     7
370
     0
100
AcDbLine
 10
2118.267259003328
 20
-1725.748355501542
 30
0.0
 11
2123.797798903428
 21
-1725.748151541942
 31
0.0
  0
LINE
  5
44E
330
1F
100
AcDbEntity
  8
レバー
  6
Continuous
 62
     7
370
     0
100
AcDbLine
 10
2123.797798903428
 20
-1725.748151541942
 30
0.0
 11
2129.889114202628
 21
-1725.748063531942
 31
0.0
  0
LINE
  5
44F
330
1F
100
AcDbEntity
  8
レバー
  6
Continuous
 62
     7
370
     0
100
AcDbLine
 10
2129.889114202628
 20
-1725.748063531942
 30
0.0
 11
2136.541208626428
 21
-1725.748105907142
 31
0.0
  0
LINE
  5
450
330
1F
100
AcDbEntity
  8
レバー
  6
Continuous
 62
     7
370
     0
100
AcDbLine
 10
2136.541208626428
 20
-1725.748105907142
 30
0.0
 11
2143.754085900027
 21
-1725.748280995741
 31
0.0
  0
LINE
  5
451
330
1F
100
AcDbEntity
  8
レバー
  6
Continuous
 62
     7
370
     0
100
AcDbLine
 10
2143.754085900027
 20
-1725.748280995741
 30
0.0
 11
2152.335955204128
 21
-1725.748612080942
 31
0.0
  0
LINE
  5
452
330
1F
100
AcDbEntity
  8
レバー
  6
Continuous
 62
     7
370
     0
100
AcDbLine
 10
2152.335955204128
 20
-1725.748612080942
 30
0.0
 11
2161.596386136229
 21
-1725.749049802542
 31
0.0
  0
LINE
  5
453
330
1F
100
AcDbEntity
  8
レバー
  6
Continuous
 62
     7
370
     0
100
AcDbLine
 10
2161.596386136229
 20
-1725.749049802542
 30
0.0
 11
2171.535371245528
 21
-1725.749521983142
 31
0.0
  0
LINE
  5
454
330
1F
100
AcDbEntity
  8
レバー
  6
Continuous
 62
     7
370
     0
100
AcDbLine
 10
2171.535371245528
 20
-1725.749521983142
 30
0.0
 11
2182.152925433328
 21
-1725.749918260841
 31
0.0
  0
LINE
  5
455
330
1F
100
AcDbEntity
  8
レバー
  6
Continuous
 62
     7
370
     0
100
AcDbLine
 10
2182.152925433328
 20
-1725.749918260841
 30
0.0
 11
2192.400133611327
 21
-1725.750069135142
 31
0.0
  0
LINE
  5
456
330
1F
100
AcDbEntity
  8
レバー
  6
Continuous
 62
     7
370
     0
100
AcDbLine
 10
2192.400081457328
 20
-1711.750097573942
 30
0.0
 11
2182.670979203428
 21
-1711.750234944042
 31
0.0
  0
LINE
  5
457
330
1F
100
AcDbEntity
  8
レバー
  6
Continuous
 62
     7
370
     0
100
AcDbLine
 10
2182.670979203428
 20
-1711.750234944042
 30
0.0
 11
2172.486184539028
 21
-1711.750604213442
 31
0.0
  0
LINE
  5
458
330
1F
100
AcDbEntity
  8
レバー
  6
Continuous
 62
     7
370
     0
100
AcDbLine
 10
2172.486184539028
 20
-1711.750604213442
 30
0.0
 11
2162.894634904028
 21
-1711.751054507942
 31
0.0
  0
LINE
  5
459
330
1F
100
AcDbEntity
  8
レバー
  6
Continuous
 62
     7
370
     0
100
AcDbLine
 10
2162.894634904028
 20
-1711.751054507942
 30
0.0
 11
2153.896337749128
 21
-1711.751485710242
 31
0.0
  0
LINE
  5
45A
330
1F
100
AcDbEntity
  8
レバー
  6
Continuous
 62
     7
370
     0
100
AcDbLine
 10
2153.896337749128
 20
-1711.751485710242
 30
0.0
 11
2145.491270722528
 21
-1711.751828902642
 31
0.0
  0
LINE
  5
45B
330
1F
100
AcDbEntity
  8
レバー
  6
Continuous
 62
     7
370
     0
100
AcDbLine
 10
2145.491270722528
 20
-1711.751828902642
 30
0.0
 11
2137.679437549528
 21
-1711.752042175542
 31
0.0
  0
LINE
  5
45C
330
1F
100
AcDbEntity
  8
レバー
  6
Continuous
 62
     7
370
     0
100
AcDbLine
 10
2137.679437549528
 20
-1711.752042175542
 30
0.0
 11
2130.857335777728
 21
-1711.752106436742
 31
0.0
  0
LINE
  5
45D
330
1F
100
AcDbEntity
  8
レバー
  6
Continuous
 62
     7
370
     0
100
AcDbLine
 10
2130.857335777728
 20
-1711.752106436742
 30
0.0
 11
2124.562589825828
 21
-1711.752035190542
 31
0.0
  0
LINE
  5
45E
330
1F
100
AcDbEntity
  8
レバー
  6
Continuous
 62
     7
370
     0
100
AcDbLine
 10
2124.562589825828
 20
-1711.752035190542
 30
0.0
 11
2118.795199693828
 21
-1711.751837284542
 31
0.0
  0
LINE
  5
45F
330
1F
100
AcDbEntity
  8
レバー
  6
Continuous
 62
     7
370
     0
100
AcDbLine
 10
2118.795199693828
 20
-1711.751837284542
 30
0.0
 11
2113.553459198828
 21
-1711.751531345042
 31
0.0
  0
LINE
  5
460
330
1F
100
AcDbEntity
  8
レバー
  6
Continuous
 62
     7
370
     0
100
AcDbLine
 10
2113.553459198828
 20
-1711.751531345042
 30
0.0
 11
2108.756302298728
 21
-1711.751133204642
 31
0.0
  0
LINE
  5
461
330
1F
100
AcDbEntity
  8
レバー
  6
Continuous
 62
     7
370
     0
100
AcDbLine
 10
2108.756302298728
 20
-1711.751133204642
 30
0.0
 11
2104.105122761528
 21
-1711.750628893542
 31
0.0
  0
LINE
  5
462
330
1F
100
AcDbEntity
  8
レバー
  6
Continuous
 62
     7
370
     0
100
AcDbLine
 10
2104.105122761528
 20
-1711.750628893542
 30
0.0
 11
2099.903019519229
 21
-1711.750066840342
 31
0.0
  0
LINE
  5
463
330
1F
100
AcDbEntity
  8
レバー
  6
Continuous
 62
     7
370
     0
100
AcDbLine
 10
2099.903019519229
 20
-1711.750066840342
 30
0.0
 11
2096.149590240528
 21
-1711.749684998042
 31
0.0
  0
LINE
  5
464
330
1F
100
AcDbEntity
  8
レバー
  6
Continuous
 62
     7
370
     0
100
AcDbLine
 10
2096.149590240528
 20
-1711.749684998042
 30
0.0
 11
2094.147732855527
 21
-1711.750400253842
 31
0.0
  0
LINE
  5
465
330
1F
100
AcDbEntity
  8
レバー
  6
Continuous
 62
     7
370
     0
100
AcDbLine
 10
2094.147732855527
 20
-1711.750400253842
 30
0.0
 11
2092.301365362228
 21
-1711.752403528642
 31
0.0
  0
LINE
  5
466
330
1F
100
AcDbEntity
  8
レバー
  6
Continuous
 62
     7
370
     0
100
AcDbLine
 10
2092.301365362228
 20
-1711.752403528642
 30
0.0
 11
2090.291745403528
 21
-1711.755690166042
 31
0.0
  0
LINE
  5
467
330
1F
100
AcDbEntity
  8
レバー
  6
Continuous
 62
     7
370
     0
100
AcDbLine
 10
2090.291745403528
 20
-1711.755690166042
 30
0.0
 11
2087.883809955528
 21
-1711.758256425342
 31
0.0
  0
LINE
  5
468
330
1F
100
AcDbEntity
  8
レバー
  6
Continuous
 62
     7
370
     0
100
AcDbLine
 10
2087.883809955528
 20
-1711.758256425342
 30
0.0
 11
2086.388649793028
 21
-1711.758744904042
 31
0.0
  0
LINE
  5
469
330
1F
100
AcDbEntity
  8
レバー
  6
Continuous
 62
     7
370
     0
100
AcDbLine
 10
2086.388649793028
 20
-1711.758744904042
 30
0.0
 11
2084.851299786629
 21
-1711.757995189442
 31
0.0
  0
LINE
  5
46A
330
1F
100
AcDbEntity
  8
レバー
  6
Continuous
 62
     7
370
     0
100
AcDbLine
 10
2084.851299786629
 20
-1711.757995189442
 30
0.0
 11
2083.332999983527
 21
-1711.756793317641
 31
0.0
  0
LINE
  5
46B
330
1F
100
AcDbEntity
  8
レバー
  6
Continuous
 62
     7
370
     0
100
AcDbLine
 10
2083.332999983527
 20
-1711.756793317641
 30
0.0
 11
2082.232328505928
 21
-1711.757657584942
 31
0.0
  0
LINE
  5
46C
330
1F
100
AcDbEntity
  8
レバー
  6
Continuous
 62
     7
370
     0
100
AcDbLine
 10
2082.232328505928
 20
-1711.757657584942
 30
0.0
 11
2081.770003681729
 21
-1711.764247623542
 31
0.0
  0
LINE
  5
46D
330
1F
100
AcDbEntity
  8
レバー
  6
Continuous
 62
     7
370
     0
100
AcDbLine
 10
2081.770003681729
 20
-1711.764247623542
 30
0.0
 11
2081.766084210729
 21
-1711.768327747742
 31
0.0
  0
ARC
  5
46E
330
1F
100
AcDbEntity
  8
レバー
  6
Continuous
 62
     7
370
     0
100
AcDbCircle
 10
2192.400212468328
 20
-1713.250083557542
 30
0.0
 40
1.500000000000118
100
AcDbArc
 50
359.9999957463
 51
90.17419294509996
  0
ARC
  5
46F
330
1F
100
AcDbEntity
  8
レバー
  6
Continuous
 62
     7
370
     0
100
AcDbCircle
 10
2192.400212468328
 20
-1724.250084131142
 30
0.0
 40
1.500000000000029
100
AcDbArc
 50
269.9105889113
 51
359.9915336725
  0
LINE
  5
470
330
1F
100
AcDbEntity
  8
レバー
  6
Continuous
 62
     7
370
     0
100
AcDbLine
 10
2086.855599099527
 20
-1711.758592167142
 30
0.0
 11
2086.092600973028
 21
-1710.971909110642
 31
0.0
  0
LINE
  5
471
330
1F
100
AcDbEntity
  8
レバー
  6
Continuous
 62
     7
370
     0
100
AcDbLine
 10
2086.092600973028
 20
-1710.971909110642
 30
0.0
 11
2084.122625553728
 21
-1709.603917786142
 31
0.0
  0
LINE
  5
472
330
1F
100
AcDbEntity
  8
レバー
  6
Continuous
 62
     7
370
     0
100
AcDbLine
 10
2084.122625553728
 20
-1709.603917786142
 30
0.0
 11
2081.875096915028
 21
-1708.587408998242
 31
0.0
  0
LINE
  5
473
330
1F
100
AcDbEntity
  8
レバー
  6
Continuous
 62
     7
370
     0
100
AcDbLine
 10
2081.875096915028
 20
-1708.587408998242
 30
0.0
 11
2079.436386611028
 21
-1707.961445675442
 31
0.0
  0
LINE
  5
474
330
1F
100
AcDbEntity
  8
レバー
  6
Continuous
 62
     7
370
     0
100
AcDbLine
 10
2079.436386611028
 20
-1707.961445675442
 30
0.0
 11
2076.900212468327
 21
-1707.750083879842
 31
0.0
  0
LINE
  5
475
330
1F
100
AcDbEntity
  8
レバー
  6
Continuous
 62
     7
370
     0
100
AcDbLine
 10
2076.900212468327
 20
-1707.750083879842
 30
0.0
 11
2074.364038325528
 21
-1707.961445675442
 31
0.0
  0
LINE
  5
476
330
1F
100
AcDbEntity
  8
レバー
  6
Continuous
 62
     7
370
     0
100
AcDbLine
 10
2074.364038325528
 20
-1707.961445675442
 30
0.0
 11
2071.925328021628
 21
-1708.587408998242
 31
0.0
  0
LINE
  5
477
330
1F
100
AcDbEntity
  8
レバー
  6
Continuous
 62
     7
370
     0
100
AcDbLine
 10
2071.925328021628
 20
-1708.587408998242
 30
0.0
 11
2069.677799382929
 21
-1709.603917786142
 31
0.0
  0
LINE
  5
478
330
1F
100
AcDbEntity
  8
レバー
  6
Continuous
 62
     7
370
     0
100
AcDbLine
 10
2069.677799382929
 20
-1709.603917786142
 30
0.0
 11
2067.707823963528
 21
-1710.971909110642
 31
0.0
  0
LINE
  5
479
330
1F
100
AcDbEntity
  8
レバー
  6
Continuous
 62
     7
370
     0
100
AcDbLine
 10
2067.707823963528
 20
-1710.971909110642
 30
0.0
 11
2066.091107578728
 21
-1712.638811209441
 31
0.0
  0
LINE
  5
47A
330
1F
100
AcDbEntity
  8
レバー
  6
Continuous
 62
     7
370
     0
100
AcDbLine
 10
2066.091107578728
 20
-1712.638811209441
 30
0.0
 11
2064.889778757228
 21
-1714.540565853242
 31
0.0
  0
LINE
  5
47B
330
1F
100
AcDbEntity
  8
レバー
  6
Continuous
 62
     7
370
     0
100
AcDbLine
 10
2064.889778757228
 20
-1714.540565853242
 30
0.0
 11
2064.150004090428
 21
-1716.604090296942
 31
0.0
  0
LINE
  5
47C
330
1F
100
AcDbEntity
  8
レバー
  6
Continuous
 62
     7
370
     0
100
AcDbLine
 10
2064.150004090428
 20
-1716.604090296942
 30
0.0
 11
2063.900212200128
 21
-1718.750083820242
 31
0.0
  0
LINE
  5
47D
330
1F
100
AcDbEntity
  8
レバー
  6
Continuous
 62
     7
370
     0
100
AcDbLine
 10
2063.900212200128
 20
-1718.750083820242
 30
0.0
 11
2064.150004090428
 21
-1720.896077343541
 31
0.0
  0
LINE
  5
47E
330
1F
100
AcDbEntity
  8
レバー
  6
Continuous
 62
     7
370
     0
100
AcDbLine
 10
2064.150004090428
 20
-1720.896077343541
 30
0.0
 11
2064.889778757228
 21
-1722.959601787142
 31
0.0
  0
LINE
  5
47F
330
1F
100
AcDbEntity
  8
レバー
  6
Continuous
 62
     7
370
     0
100
AcDbLine
 10
2064.889778757228
 20
-1722.959601787142
 30
0.0
 11
2066.091107578728
 21
-1724.861356430942
 31
0.0
  0
LINE
  5
480
330
1F
100
AcDbEntity
  8
レバー
  6
Continuous
 62
     7
370
     0
100
AcDbLine
 10
2066.091107578728
 20
-1724.861356430942
 30
0.0
 11
2067.707823963528
 21
-1726.528258529742
 31
0.0
  0
LINE
  5
481
330
1F
100
AcDbEntity
  8
レバー
  6
Continuous
 62
     7
370
     0
100
AcDbLine
 10
2067.707823963528
 20
-1726.528258529742
 30
0.0
 11
2069.677799382929
 21
-1727.896249854242
 31
0.0
  0
LINE
  5
482
330
1F
100
AcDbEntity
  8
レバー
  6
Continuous
 62
     7
370
     0
100
AcDbLine
 10
2069.677799382929
 20
-1727.896249854242
 30
0.0
 11
2071.925328021628
 21
-1728.912758642142
 31
0.0
  0
LINE
  5
483
330
1F
100
AcDbEntity
  8
レバー
  6
Continuous
 62
     7
370
     0
100
AcDbLine
 10
2071.925328021628
 20
-1728.912758642142
 30
0.0
 11
2074.364038325528
 21
-1729.538721964942
 31
0.0
  0
LINE
  5
484
330
1F
100
AcDbEntity
  8
レバー
  6
Continuous
 62
     7
370
     0
100
AcDbLine
 10
2074.364038325528
 20
-1729.538721964942
 30
0.0
 11
2076.900212468327
 21
-1729.750083760642
 31
0.0
  0
LINE
  5
485
330
1F
100
AcDbEntity
  8
レバー
  6
Continuous
 62
     7
370
     0
100
AcDbLine
 10
2076.900212468327
 20
-1729.750083760642
 30
0.0
 11
2079.436386611028
 21
-1729.538721964942
 31
0.0
  0
LINE
  5
486
330
1F
100
AcDbEntity
  8
レバー
  6
Continuous
 62
     7
370
     0
100
AcDbLine
 10
2079.436386611028
 20
-1729.538721964942
 30
0.0
 11
2081.875096915028
 21
-1728.912758642142
 31
0.0
  0
LINE
  5
487
330
1F
100
AcDbEntity
  8
レバー
  6
Continuous
 62
     7
370
     0
100
AcDbLine
 10
2081.875096915028
 20
-1728.912758642142
 30
0.0
 11
2084.122625553728
 21
-1727.896249854242
 31
0.0
  0
LINE
  5
488
330
1F
100
AcDbEntity
  8
レバー
  6
Continuous
 62
     7
370
     0
100
AcDbLine
 10
2084.122625553728
 20
-1727.896249854242
 30
0.0
 11
2086.092600973028
 21
-1726.528258529742
 31
0.0
  0
LINE
  5
489
330
1F
100
AcDbEntity
  8
レバー
  6
Continuous
 62
     7
370
     0
100
AcDbLine
 10
2086.092600973028
 20
-1726.528258529742
 30
0.0
 11
2086.855504104628
 21
-1725.741673262142
 31
0.0
  0
LINE
  5
48A
330
1F
100
AcDbEntity
  8
レバー
  6
Continuous
 62
     7
370
     0
100
AcDbLine
 10
2193.900211157028
 20
-1718.749922686342
 30
0.0
 11
2193.900211157028
 21
-1724.247059320342
 31
0.0
  0
LINE
  5
48B
330
1F
100
AcDbEntity
  8
レバー
  6
Continuous
 62
     7
370
     0
100
AcDbLine
 10
2193.900211157028
 20
-1718.749922686342
 30
0.0
 11
2193.900211157028
 21
-1713.256838266942
 31
0.0
  0
ARC
  5
48C
330
1F
100
AcDbEntity
  8
レバー
  6
Continuous
 62
     7
370
     0
100
AcDbCircle
 10
2076.900212468327
 20
-1718.750083820242
 30
0.0
 40
24.55
100
AcDbArc
 50
16.5995243249
 51
343.3673588443
  0
LINE
  5
48D
330
1F
100
AcDbEntity
  8
レバー
  6
JWW_CENTER1
 62
   120
370
     5
100
AcDbLine
 10
-107.8977363376612
 20
-1718.750083820242
 30
0.0
 11
-190.9236880755134
 21
-1718.750083820242
 31
0.0
  0
LINE
  5
48E
330
1F
100
AcDbEntity
  8
レバー
  6
JWW_CENTER1
 62
   120
370
     5
100
AcDbLine
 10
-154.6999148806998
 20
-1662.293123226451
 30
0.0
 11
-154.6999148806998
 21
-1762.136876514715
 31
0.0
  0
LINE
  5
48F
330
1F
100
AcDbEntity
  8
レバー
  6
Continuous
 62
     7
370
     0
100
AcDbLine
 10
-39.19999373770025
 20
-1711.750097108342
 30
0.0
 11
-48.27529264299955
 21
-1711.750217248941
 31
0.0
  0
LINE
  5
490
330
1F
100
AcDbEntity
  8
レバー
  6
Continuous
 62
     7
370
     0
100
AcDbLine
 10
-48.27529264299955
 20
-1711.750217248941
 30
0.0
 11
-48.67573899839982
 21
-1711.750231218742
 31
0.0
  0
ARC
  5
491
330
1F
100
AcDbEntity
  8
レバー
  6
Continuous
 62
     7
370
     0
100
AcDbCircle
 10
-39.19991488070082
 20
-1724.250084082842
 30
0.0
 40
1.500000000000118
100
AcDbArc
 50
270.164192293
 51
0.000004253700026
  0
ARC
  5
492
330
1F
100
AcDbEntity
  8
レバー
  6
Continuous
 62
     7
370
     0
100
AcDbCircle
 10
-39.19991488070082
 20
-1713.250083509241
 30
0.0
 40
1.500000000000029
100
AcDbArc
 50
0.0084663275
 51
89.9162980715
  0
LINE
  5
493
330
1F
100
AcDbEntity
  8
レバー
  6
Continuous
 62
     7
370
     0
100
AcDbLine
 10
-149.681537204101
 20
-1725.736199879342
 30
0.0
 11
-149.5492358474993
 21
-1725.742990617842
 31
0.0
  0
LINE
  5
494
330
1F
100
AcDbEntity
  8
レバー
  6
Continuous
 62
     7
370
     0
100
AcDbLine
 10
-149.5492358474993
 20
-1725.742990617842
 30
0.0
 11
-149.1134946949001
 21
-1725.744923112242
 31
0.0
  0
LINE
  5
495
330
1F
100
AcDbEntity
  8
レバー
  6
Continuous
 62
     7
370
     0
100
AcDbLine
 10
-149.1134946949001
 20
-1725.744923112242
 30
0.0
 11
-148.3853010242996
 21
-1725.744578057242
 31
0.0
  0
LINE
  5
496
330
1F
100
AcDbEntity
  8
レバー
  6
Continuous
 62
     7
370
     0
100
AcDbLine
 10
-148.3853010242996
 20
-1725.744578057242
 30
0.0
 11
-147.3705147175994
 21
-1725.743326359642
 31
0.0
  0
LINE
  5
497
330
1F
100
AcDbEntity
  8
レバー
  6
Continuous
 62
     7
370
     0
100
AcDbLine
 10
-147.3705147175994
 20
-1725.743326359642
 30
0.0
 11
-146.1069870522996
 21
-1725.742017851442
 31
0.0
  0
LINE
  5
498
330
1F
100
AcDbEntity
  8
レバー
  6
Continuous
 62
     7
370
     0
100
AcDbLine
 10
-146.1069870522996
 20
-1725.742017851442
 30
0.0
 11
-144.7574568694998
 21
-1725.741664414542
 31
0.0
  0
LINE
  5
499
330
1F
100
AcDbEntity
  8
レバー
  6
Continuous
 62
     7
370
     0
100
AcDbLine
 10
-144.7574568694998
 20
-1725.741664414542
 30
0.0
 11
-141.9039394488999
 21
-1725.743641146742
 31
0.0
  0
LINE
  5
49A
330
1F
100
AcDbEntity
  8
レバー
  6
Continuous
 62
     7
370
     0
100
AcDbLine
 10
-141.9039394488999
 20
-1725.743641146742
 30
0.0
 11
-138.9221034727007
 21
-1725.748234895342
 31
0.0
  0
LINE
  5
49B
330
1F
100
AcDbEntity
  8
レバー
  6
Continuous
 62
     7
370
     0
100
AcDbLine
 10
-138.9221034727007
 20
-1725.748234895342
 30
0.0
 11
-135.9013810536996
 21
-1725.750421175042
 31
0.0
  0
LINE
  5
49C
330
1F
100
AcDbEntity
  8
レバー
  6
Continuous
 62
     7
370
     0
100
AcDbLine
 10
-135.9013810536996
 20
-1725.750421175042
 30
0.0
 11
-132.8587930431996
 21
-1725.750283804942
 31
0.0
  0
LINE
  5
49D
330
1F
100
AcDbEntity
  8
レバー
  6
Continuous
 62
     7
370
     0
100
AcDbLine
 10
-132.8587930431996
 20
-1725.750283804942
 30
0.0
 11
-129.7945108046997
 21
-1725.749837701441
 31
0.0
  0
LINE
  5
49E
330
1F
100
AcDbEntity
  8
レバー
  6
Continuous
 62
     7
370
     0
100
AcDbLine
 10
-129.7945108046997
 20
-1725.749837701441
 30
0.0
 11
-126.7087057015999
 21
-1725.749446545942
 31
0.0
  0
LINE
  5
49F
330
1F
100
AcDbEntity
  8
レバー
  6
Continuous
 62
     7
370
     0
100
AcDbLine
 10
-126.7087057015999
 20
-1725.749446545942
 30
0.0
 11
-122.7116144975997
 21
-1725.749022328542
 31
0.0
  0
LINE
  5
4A0
330
1F
100
AcDbEntity
  8
レバー
  6
Continuous
 62
     7
370
     0
100
AcDbLine
 10
-122.7116144975997
 20
-1725.749022328542
 30
0.0
 11
-118.3026291212994
 21
-1725.748654921742
 31
0.0
  0
LINE
  5
4A1
330
1F
100
AcDbEntity
  8
レバー
  6
Continuous
 62
     7
370
     0
100
AcDbLine
 10
-118.3026291212994
 20
-1725.748654921742
 30
0.0
 11
-113.3328683457012
 21
-1725.748355501542
 31
0.0
  0
LINE
  5
4A2
330
1F
100
AcDbEntity
  8
レバー
  6
Continuous
 62
     7
370
     0
100
AcDbLine
 10
-113.3328683457012
 20
-1725.748355501542
 30
0.0
 11
-107.8023284455998
 21
-1725.748151541942
 31
0.0
  0
LINE
  5
4A3
330
1F
100
AcDbEntity
  8
レバー
  6
Continuous
 62
     7
370
     0
100
AcDbLine
 10
-107.8023284455998
 20
-1725.748151541942
 30
0.0
 11
-101.7110131464
 21
-1725.748063531942
 31
0.0
  0
LINE
  5
4A4
330
1F
100
AcDbEntity
  8
レバー
  6
Continuous
 62
     7
370
     0
100
AcDbLine
 10
-101.7110131464
 20
-1725.748063531942
 30
0.0
 11
-95.0589187225998
 21
-1725.748105907142
 31
0.0
  0
LINE
  5
4A5
330
1F
100
AcDbEntity
  8
レバー
  6
Continuous
 62
     7
370
     0
100
AcDbLine
 10
-95.0589187225998
 20
-1725.748105907142
 30
0.0
 11
-87.84604144899987
 21
-1725.748280995741
 31
0.0
  0
LINE
  5
4A6
330
1F
100
AcDbEntity
  8
レバー
  6
Continuous
 62
     7
370
     0
100
AcDbLine
 10
-87.84604144899987
 20
-1725.748280995741
 30
0.0
 11
-79.26417214490016
 21
-1725.748612080942
 31
0.0
  0
LINE
  5
4A7
330
1F
100
AcDbEntity
  8
レバー
  6
Continuous
 62
     7
370
     0
100
AcDbLine
 10
-79.26417214490016
 20
-1725.748612080942
 30
0.0
 11
-70.00374121279947
 21
-1725.749049802542
 31
0.0
  0
LINE
  5
4A8
330
1F
100
AcDbEntity
  8
レバー
  6
Continuous
 62
     7
370
     0
100
AcDbLine
 10
-70.00374121279947
 20
-1725.749049802542
 30
0.0
 11
-60.0647561034998
 21
-1725.749521983142
 31
0.0
  0
LINE
  5
4A9
330
1F
100
AcDbEntity
  8
レバー
  6
Continuous
 62
     7
370
     0
100
AcDbLine
 10
-60.0647561034998
 20
-1725.749521983142
 30
0.0
 11
-49.44720191569985
 21
-1725.749918260841
 31
0.0
  0
LINE
  5
4AA
330
1F
100
AcDbEntity
  8
レバー
  6
Continuous
 62
     7
370
     0
100
AcDbLine
 10
-49.44720191569985
 20
-1725.749918260841
 30
0.0
 11
-39.19999373770025
 21
-1725.750069135142
 31
0.0
  0
LINE
  5
4AB
330
1F
100
AcDbEntity
  8
レバー
  6
Continuous
 62
     7
370
     0
100
AcDbLine
 10
-39.2000458917002
 20
-1711.750097573942
 30
0.0
 11
-48.92914814559987
 21
-1711.750234944042
 31
0.0
  0
LINE
  5
4AC
330
1F
100
AcDbEntity
  8
レバー
  6
Continuous
 62
     7
370
     0
100
AcDbLine
 10
-48.92914814559987
 20
-1711.750234944042
 30
0.0
 11
-59.11394280999986
 21
-1711.750604213442
 31
0.0
  0
LINE
  5
4AD
330
1F
100
AcDbEntity
  8
レバー
  6
Continuous
 62
     7
370
     0
100
AcDbLine
 10
-59.11394280999986
 20
-1711.750604213442
 30
0.0
 11
-68.70549244500012
 21
-1711.751054507942
 31
0.0
  0
LINE
  5
4AE
330
1F
100
AcDbEntity
  8
レバー
  6
Continuous
 62
     7
370
     0
100
AcDbLine
 10
-68.70549244500012
 20
-1711.751054507942
 30
0.0
 11
-77.70378959990097
 21
-1711.751485710242
 31
0.0
  0
LINE
  5
4AF
330
1F
100
AcDbEntity
  8
レバー
  6
Continuous
 62
     7
370
     0
100
AcDbLine
 10
-77.70378959990097
 20
-1711.751485710242
 30
0.0
 11
-86.10885662649963
 21
-1711.751828902642
 31
0.0
  0
LINE
  5
4B0
330
1F
100
AcDbEntity
  8
レバー
  6
Continuous
 62
     7
370
     0
100
AcDbLine
 10
-86.10885662649963
 20
-1711.751828902642
 30
0.0
 11
-93.92068979949954
 21
-1711.752042175542
 31
0.0
  0
LINE
  5
4B1
330
1F
100
AcDbEntity
  8
レバー
  6
Continuous
 62
     7
370
     0
100
AcDbLine
 10
-93.92068979949954
 20
-1711.752042175542
 30
0.0
 11
-100.7427915712998
 21
-1711.752106436742
 31
0.0
  0
LINE
  5
4B2
330
1F
100
AcDbEntity
  8
レバー
  6
Continuous
 62
     7
370
     0
100
AcDbLine
 10
-100.7427915712998
 20
-1711.752106436742
 30
0.0
 11
-107.0375375231995
 21
-1711.752035190542
 31
0.0
  0
LINE
  5
4B3
330
1F
100
AcDbEntity
  8
レバー
  6
Continuous
 62
     7
370
     0
100
AcDbLine
 10
-107.0375375231995
 20
-1711.752035190542
 30
0.0
 11
-112.8049276551997
 21
-1711.751837284542
 31
0.0
  0
LINE
  5
4B4
330
1F
100
AcDbEntity
  8
レバー
  6
Continuous
 62
     7
370
     0
100
AcDbLine
 10
-112.8049276551997
 20
-1711.751837284542
 30
0.0
 11
-118.0466681502003
 21
-1711.751531345042
 31
0.0
  0
LINE
  5
4B5
330
1F
100
AcDbEntity
  8
レバー
  6
Continuous
 62
     7
370
     0
100
AcDbLine
 10
-118.0466681502003
 20
-1711.751531345042
 30
0.0
 11
-122.8438250502998
 21
-1711.751133204642
 31
0.0
  0
LINE
  5
4B6
330
1F
100
AcDbEntity
  8
レバー
  6
Continuous
 62
     7
370
     0
100
AcDbLine
 10
-122.8438250502998
 20
-1711.751133204642
 30
0.0
 11
-127.4950045874999
 21
-1711.750628893542
 31
0.0
  0
LINE
  5
4B7
330
1F
100
AcDbEntity
  8
レバー
  6
Continuous
 62
     7
370
     0
100
AcDbLine
 10
-127.4950045874999
 20
-1711.750628893542
 30
0.0
 11
-131.6971078297996
 21
-1711.750066840342
 31
0.0
  0
LINE
  5
4B8
330
1F
100
AcDbEntity
  8
レバー
  6
Continuous
 62
     7
370
     0
100
AcDbLine
 10
-131.6971078297996
 20
-1711.750066840342
 30
0.0
 11
-135.4505371085
 21
-1711.749684998042
 31
0.0
  0
LINE
  5
4B9
330
1F
100
AcDbEntity
  8
レバー
  6
Continuous
 62
     7
370
     0
100
AcDbLine
 10
-135.4505371085
 20
-1711.749684998042
 30
0.0
 11
-137.4523944934998
 21
-1711.750400253842
 31
0.0
  0
LINE
  5
4BA
330
1F
100
AcDbEntity
  8
レバー
  6
Continuous
 62
     7
370
     0
100
AcDbLine
 10
-137.4523944934998
 20
-1711.750400253842
 30
0.0
 11
-139.2987619868003
 21
-1711.752403528642
 31
0.0
  0
LINE
  5
4BB
330
1F
100
AcDbEntity
  8
レバー
  6
Continuous
 62
     7
370
     0
100
AcDbLine
 10
-139.2987619868003
 20
-1711.752403528642
 30
0.0
 11
-141.3083819454999
 21
-1711.755690166042
 31
0.0
  0
LINE
  5
4BC
330
1F
100
AcDbEntity
  8
レバー
  6
Continuous
 62
     7
370
     0
100
AcDbLine
 10
-141.3083819454999
 20
-1711.755690166042
 30
0.0
 11
-143.7163173934999
 21
-1711.758256425342
 31
0.0
  0
LINE
  5
4BD
330
1F
100
AcDbEntity
  8
レバー
  6
Continuous
 62
     7
370
     0
100
AcDbLine
 10
-143.7163173934999
 20
-1711.758256425342
 30
0.0
 11
-145.2114775559997
 21
-1711.758744904042
 31
0.0
  0
LINE
  5
4BE
330
1F
100
AcDbEntity
  8
レバー
  6
Continuous
 62
     7
370
     0
100
AcDbLine
 10
-145.2114775559997
 20
-1711.758744904042
 30
0.0
 11
-146.7488275623995
 21
-1711.757995189442
 31
0.0
  0
LINE
  5
4BF
330
1F
100
AcDbEntity
  8
レバー
  6
Continuous
 62
     7
370
     0
100
AcDbLine
 10
-146.7488275623995
 20
-1711.757995189442
 30
0.0
 11
-148.2671273655004
 21
-1711.756793317641
 31
0.0
  0
LINE
  5
4C0
330
1F
100
AcDbEntity
  8
レバー
  6
Continuous
 62
     7
370
     0
100
AcDbLine
 10
-148.2671273655004
 20
-1711.756793317641
 30
0.0
 11
-149.3677988430997
 21
-1711.757657584942
 31
0.0
  0
LINE
  5
4C1
330
1F
100
AcDbEntity
  8
レバー
  6
Continuous
 62
     7
370
     0
100
AcDbLine
 10
-149.3677988430997
 20
-1711.757657584942
 30
0.0
 11
-149.8301236672992
 21
-1711.764247623542
 31
0.0
  0
LINE
  5
4C2
330
1F
100
AcDbEntity
  8
レバー
  6
Continuous
 62
     7
370
     0
100
AcDbLine
 10
-149.8301236672992
 20
-1711.764247623542
 30
0.0
 11
-149.8340431382994
 21
-1711.768327747742
 31
0.0
  0
ARC
  5
4C3
330
1F
100
AcDbEntity
  8
レバー
  6
Continuous
 62
     7
370
     0
100
AcDbCircle
 10
-39.19991488070082
 20
-1713.250083557542
 30
0.0
 40
1.500000000000118
100
AcDbArc
 50
359.9999957463
 51
90.17419294509996
  0
ARC
  5
4C4
330
1F
100
AcDbEntity
  8
レバー
  6
Continuous
 62
     7
370
     0
100
AcDbCircle
 10
-39.19991488070082
 20
-1724.250084131142
 30
0.0
 40
1.500000000000029
100
AcDbArc
 50
269.9105889113
 51
359.9915336725
  0
LINE
  5
4C5
330
1F
100
AcDbEntity
  8
レバー
  6
Continuous
 62
     7
370
     0
100
AcDbLine
 10
-144.7445282494999
 20
-1711.758592167142
 30
0.0
 11
-145.5075263759997
 21
-1710.971909110642
 31
0.0
  0
LINE
  5
4C6
330
1F
100
AcDbEntity
  8
レバー
  6
Continuous
 62
     7
370
     0
100
AcDbLine
 10
-145.5075263759997
 20
-1710.971909110642
 30
0.0
 11
-147.4775017953002
 21
-1709.603917786142
 31
0.0
  0
LINE
  5
4C7
330
1F
100
AcDbEntity
  8
レバー
  6
Continuous
 62
     7
370
     0
100
AcDbLine
 10
-147.4775017953002
 20
-1709.603917786142
 30
0.0
 11
-149.7250304339997
 21
-1708.587408998242
 31
0.0
  0
LINE
  5
4C8
330
1F
100
AcDbEntity
  8
レバー
  6
Continuous
 62
     7
370
     0
100
AcDbLine
 10
-149.7250304339997
 20
-1708.587408998242
 30
0.0
 11
-152.1637407379995
 21
-1707.961445675442
 31
0.0
  0
LINE
  5
4C9
330
1F
100
AcDbEntity
  8
レバー
  6
Continuous
 62
     7
370
     0
100
AcDbLine
 10
-152.1637407379995
 20
-1707.961445675442
 30
0.0
 11
-154.6999148806998
 21
-1707.750083879842
 31
0.0
  0
LINE
  5
4CA
330
1F
100
AcDbEntity
  8
レバー
  6
Continuous
 62
     7
370
     0
100
AcDbLine
 10
-154.6999148806998
 20
-1707.750083879842
 30
0.0
 11
-157.2360890234998
 21
-1707.961445675442
 31
0.0
  0
LINE
  5
4CB
330
1F
100
AcDbEntity
  8
レバー
  6
Continuous
 62
     7
370
     0
100
AcDbLine
 10
-157.2360890234998
 20
-1707.961445675442
 30
0.0
 11
-159.6747993273999
 21
-1708.587408998242
 31
0.0
  0
LINE
  5
4CC
330
1F
100
AcDbEntity
  8
レバー
  6
Continuous
 62
     7
370
     0
100
AcDbLine
 10
-159.6747993273999
 20
-1708.587408998242
 30
0.0
 11
-161.9223279660994
 21
-1709.603917786142
 31
0.0
  0
LINE
  5
4CD
330
1F
100
AcDbEntity
  8
レバー
  6
Continuous
 62
     7
370
     0
100
AcDbLine
 10
-161.9223279660994
 20
-1709.603917786142
 30
0.0
 11
-163.8923033854996
 21
-1710.971909110642
 31
0.0
  0
LINE
  5
4CE
330
1F
100
AcDbEntity
  8
レバー
  6
Continuous
 62
     7
370
     0
100
AcDbLine
 10
-163.8923033854996
 20
-1710.971909110642
 30
0.0
 11
-165.5090197702998
 21
-1712.638811209441
 31
0.0
  0
LINE
  5
4CF
330
1F
100
AcDbEntity
  8
レバー
  6
Continuous
 62
     7
370
     0
100
AcDbLine
 10
-165.5090197702998
 20
-1712.638811209441
 30
0.0
 11
-166.7103485918
 21
-1714.540565853242
 31
0.0
  0
LINE
  5
4D0
330
1F
100
AcDbEntity
  8
レバー
  6
Continuous
 62
     7
370
     0
100
AcDbLine
 10
-166.7103485918
 20
-1714.540565853242
 30
0.0
 11
-167.4501232585996
 21
-1716.604090296942
 31
0.0
  0
LINE
  5
4D1
330
1F
100
AcDbEntity
  8
レバー
  6
Continuous
 62
     7
370
     0
100
AcDbLine
 10
-167.4501232585996
 20
-1716.604090296942
 30
0.0
 11
-167.6999151488997
 21
-1718.750083820242
 31
0.0
  0
LINE
  5
4D2
330
1F
100
AcDbEntity
  8
レバー
  6
Continuous
 62
     7
370
     0
100
AcDbLine
 10
-167.6999151488997
 20
-1718.750083820242
 30
0.0
 11
-167.4501232585996
 21
-1720.896077343541
 31
0.0
  0
LINE
  5
4D3
330
1F
100
AcDbEntity
  8
レバー
  6
Continuous
 62
     7
370
     0
100
AcDbLine
 10
-167.4501232585996
 20
-1720.896077343541
 30
0.0
 11
-166.7103485918
 21
-1722.959601787142
 31
0.0
  0
LINE
  5
4D4
330
1F
100
AcDbEntity
  8
レバー
  6
Continuous
 62
     7
370
     0
100
AcDbLine
 10
-166.7103485918
 20
-1722.959601787142
 30
0.0
 11
-165.5090197702998
 21
-1724.861356430942
 31
0.0
  0
LINE
  5
4D5
330
1F
100
AcDbEntity
  8
レバー
  6
Continuous
 62
     7
370
     0
100
AcDbLine
 10
-165.5090197702998
 20
-1724.861356430942
 30
0.0
 11
-163.8923033854996
 21
-1726.528258529742
 31
0.0
  0
LINE
  5
4D6
330
1F
100
AcDbEntity
  8
レバー
  6
Continuous
 62
     7
370
     0
100
AcDbLine
 10
-163.8923033854996
 20
-1726.528258529742
 30
0.0
 11
-161.9223279660994
 21
-1727.896249854242
 31
0.0
  0
LINE
  5
4D7
330
1F
100
AcDbEntity
  8
レバー
  6
Continuous
 62
     7
370
     0
100
AcDbLine
 10
-161.9223279660994
 20
-1727.896249854242
 30
0.0
 11
-159.6747993273999
 21
-1728.912758642142
 31
0.0
  0
LINE
  5
4D8
330
1F
100
AcDbEntity
  8
レバー
  6
Continuous
 62
     7
370
     0
100
AcDbLine
 10
-159.6747993273999
 20
-1728.912758642142
 30
0.0
 11
-157.2360890234998
 21
-1729.538721964942
 31
0.0
  0
LINE
  5
4D9
330
1F
100
AcDbEntity
  8
レバー
  6
Continuous
 62
     7
370
     0
100
AcDbLine
 10
-157.2360890234998
 20
-1729.538721964942
 30
0.0
 11
-154.6999148806998
 21
-1729.750083760642
 31
0.0
  0
LINE
  5
4DA
330
1F
100
AcDbEntity
  8
レバー
  6
Continuous
 62
     7
370
     0
100
AcDbLine
 10
-154.6999148806998
 20
-1729.750083760642
 30
0.0
 11
-152.1637407379995
 21
-1729.538721964942
 31
0.0
  0
LINE
  5
4DB
330
1F
100
AcDbEntity
  8
レバー
  6
Continuous
 62
     7
370
     0
100
AcDbLine
 10
-152.1637407379995
 20
-1729.538721964942
 30
0.0
 11
-149.7250304339997
 21
-1728.912758642142
 31
0.0
  0
LINE
  5
4DC
330
1F
100
AcDbEntity
  8
レバー
  6
Continuous
 62
     7
370
     0
100
AcDbLine
 10
-149.7250304339997
 20
-1728.912758642142
 30
0.0
 11
-147.4775017953002
 21
-1727.896249854242
 31
0.0
  0
LINE
  5
4DD
330
1F
100
AcDbEntity
  8
レバー
  6
Continuous
 62
     7
370
     0
100
AcDbLine
 10
-147.4775017953002
 20
-1727.896249854242
 30
0.0
 11
-145.5075263759997
 21
-1726.528258529742
 31
0.0
  0
LINE
  5
4DE
330
1F
100
AcDbEntity
  8
レバー
  6
Continuous
 62
     7
370
     0
100
AcDbLine
 10
-145.5075263759997
 20
-1726.528258529742
 30
0.0
 11
-144.7446232444008
 21
-1725.741673262142
 31
0.0
  0
LINE
  5
4DF
330
1F
100
AcDbEntity
  8
レバー
  6
Continuous
 62
     7
370
     0
100
AcDbLine
 10
-37.69991619199971
 20
-1718.749922686342
 30
0.0
 11
-37.69991619199971
 21
-1724.247059320342
 31
0.0
  0
LINE
  5
4E0
330
1F
100
AcDbEntity
  8
レバー
  6
Continuous
 62
     7
370
     0
100
AcDbLine
 10
-37.69991619199971
 20
-1718.749922686342
 30
0.0
 11
-37.69991619199971
 21
-1713.256838266942
 31
0.0
  0
ARC
  5
4E1
330
1F
100
AcDbEntity
  8
レバー
  6
Continuous
 62
     7
370
     0
100
AcDbCircle
 10
-154.6999148806998
 20
-1718.750083820242
 30
0.0
 40
24.55
100
AcDbArc
 50
16.5995243249
 51
343.3673588443
  0
LINE
  5
4E2
330
1F
100
AcDbEntity
  8
レバー
  6
JWW_CENTER1
 62
   120
370
     5
100
AcDbLine
 10
-2339.497492526957
 20
-1718.750083820242
 30
0.0
 11
-2422.523444264809
 21
-1718.750083820242
 31
0.0
  0
LINE
  5
4E3
330
1F
100
AcDbEntity
  8
レバー
  6
JWW_CENTER1
 62
   120
370
     5
100
AcDbLine
 10
-2386.299671069995
 20
-1662.293123226451
 30
0.0
 11
-2386.299671069995
 21
-1762.136876514715
 31
0.0
  0
LINE
  5
4E4
330
1F
100
AcDbEntity
  8
レバー
  6
Continuous
 62
     7
370
     0
100
AcDbLine
 10
-2270.799749926995
 20
-1711.750097108342
 30
0.0
 11
-2279.875048832295
 21
-1711.750217248941
 31
0.0
  0
LINE
  5
4E5
330
1F
100
AcDbEntity
  8
レバー
  6
Continuous
 62
     7
370
     0
100
AcDbLine
 10
-2279.875048832295
 20
-1711.750217248941
 30
0.0
 11
-2280.275495187695
 21
-1711.750231218742
 31
0.0
  0
ARC
  5
4E6
330
1F
100
AcDbEntity
  8
レバー
  6
Continuous
 62
     7
370
     0
100
AcDbCircle
 10
-2270.799671069995
 20
-1724.250084082842
 30
0.0
 40
1.500000000000118
100
AcDbArc
 50
270.164192293
 51
0.000004253700026
  0
ARC
  5
4E7
330
1F
100
AcDbEntity
  8
レバー
  6
Continuous
 62
     7
370
     0
100
AcDbCircle
 10
-2270.799671069995
 20
-1713.250083509241
 30
0.0
 40
1.500000000000029
100
AcDbArc
 50
0.0084663275
 51
89.9162980715
  0
LINE
  5
4E8
330
1F
100
AcDbEntity
  8
レバー
  6
Continuous
 62
     7
370
     0
100
AcDbLine
 10
-2381.281293393396
 20
-1725.736199879342
 30
0.0
 11
-2381.148992036795
 21
-1725.742990617842
 31
0.0
  0
LINE
  5
4E9
330
1F
100
AcDbEntity
  8
レバー
  6
Continuous
 62
     7
370
     0
100
AcDbLine
 10
-2381.148992036795
 20
-1725.742990617842
 30
0.0
 11
-2380.713250884196
 21
-1725.744923112242
 31
0.0
  0
LINE
  5
4EA
330
1F
100
AcDbEntity
  8
レバー
  6
Continuous
 62
     7
370
     0
100
AcDbLine
 10
-2380.713250884196
 20
-1725.744923112242
 30
0.0
 11
-2379.985057213595
 21
-1725.744578057242
 31
0.0
  0
LINE
  5
4EB
330
1F
100
AcDbEntity
  8
レバー
  6
Continuous
 62
     7
370
     0
100
AcDbLine
 10
-2379.985057213595
 20
-1725.744578057242
 30
0.0
 11
-2378.970270906895
 21
-1725.743326359642
 31
0.0
  0
LINE
  5
4EC
330
1F
100
AcDbEntity
  8
レバー
  6
Continuous
 62
     7
370
     0
100
AcDbLine
 10
-2378.970270906895
 20
-1725.743326359642
 30
0.0
 11
-2377.706743241595
 21
-1725.742017851442
 31
0.0
  0
LINE
  5
4ED
330
1F
100
AcDbEntity
  8
レバー
  6
Continuous
 62
     7
370
     0
100
AcDbLine
 10
-2377.706743241595
 20
-1725.742017851442
 30
0.0
 11
-2376.357213058795
 21
-1725.741664414542
 31
0.0
  0
LINE
  5
4EE
330
1F
100
AcDbEntity
  8
レバー
  6
Continuous
 62
     7
370
     0
100
AcDbLine
 10
-2376.357213058795
 20
-1725.741664414542
 30
0.0
 11
-2373.503695638195
 21
-1725.743641146742
 31
0.0
  0
LINE
  5
4EF
330
1F
100
AcDbEntity
  8
レバー
  6
Continuous
 62
     7
370
     0
100
AcDbLine
 10
-2373.503695638195
 20
-1725.743641146742
 30
0.0
 11
-2370.521859661995
 21
-1725.748234895342
 31
0.0
  0
LINE
  5
4F0
330
1F
100
AcDbEntity
  8
レバー
  6
Continuous
 62
     7
370
     0
100
AcDbLine
 10
-2370.521859661995
 20
-1725.748234895342
 30
0.0
 11
-2367.501137242995
 21
-1725.750421175042
 31
0.0
  0
LINE
  5
4F1
330
1F
100
AcDbEntity
  8
レバー
  6
Continuous
 62
     7
370
     0
100
AcDbLine
 10
-2367.501137242995
 20
-1725.750421175042
 30
0.0
 11
-2364.458549232495
 21
-1725.750283804942
 31
0.0
  0
LINE
  5
4F2
330
1F
100
AcDbEntity
  8
レバー
  6
Continuous
 62
     7
370
     0
100
AcDbLine
 10
-2364.458549232495
 20
-1725.750283804942
 30
0.0
 11
-2361.394266993995
 21
-1725.749837701441
 31
0.0
  0
LINE
  5
4F3
330
1F
100
AcDbEntity
  8
レバー
  6
Continuous
 62
     7
370
     0
100
AcDbLine
 10
-2361.394266993995
 20
-1725.749837701441
 30
0.0
 11
-2358.308461890895
 21
-1725.749446545942
 31
0.0
  0
LINE
  5
4F4
330
1F
100
AcDbEntity
  8
レバー
  6
Continuous
 62
     7
370
     0
100
AcDbLine
 10
-2358.308461890895
 20
-1725.749446545942
 30
0.0
 11
-2354.311370686895
 21
-1725.749022328542
 31
0.0
  0
LINE
  5
4F5
330
1F
100
AcDbEntity
  8
レバー
  6
Continuous
 62
     7
370
     0
100
AcDbLine
 10
-2354.311370686895
 20
-1725.749022328542
 30
0.0
 11
-2349.902385310595
 21
-1725.748654921742
 31
0.0
  0
LINE
  5
4F6
330
1F
100
AcDbEntity
  8
レバー
  6
Continuous
 62
     7
370
     0
100
AcDbLine
 10
-2349.902385310595
 20
-1725.748654921742
 30
0.0
 11
-2344.932624534996
 21
-1725.748355501542
 31
0.0
  0
LINE
  5
4F7
330
1F
100
AcDbEntity
  8
レバー
  6
Continuous
 62
     7
370
     0
100
AcDbLine
 10
-2344.932624534996
 20
-1725.748355501542
 30
0.0
 11
-2339.402084634895
 21
-1725.748151541942
 31
0.0
  0
LINE
  5
4F8
330
1F
100
AcDbEntity
  8
レバー
  6
Continuous
 62
     7
370
     0
100
AcDbLine
 10
-2339.402084634895
 20
-1725.748151541942
 30
0.0
 11
-2333.310769335696
 21
-1725.748063531942
 31
0.0
  0
LINE
  5
4F9
330
1F
100
AcDbEntity
  8
レバー
  6
Continuous
 62
     7
370
     0
100
AcDbLine
 10
-2333.310769335696
 20
-1725.748063531942
 30
0.0
 11
-2326.658674911895
 21
-1725.748105907142
 31
0.0
  0
LINE
  5
4FA
330
1F
100
AcDbEntity
  8
レバー
  6
Continuous
 62
     7
370
     0
100
AcDbLine
 10
-2326.658674911895
 20
-1725.748105907142
 30
0.0
 11
-2319.445797638295
 21
-1725.748280995741
 31
0.0
  0
LINE
  5
4FB
330
1F
100
AcDbEntity
  8
レバー
  6
Continuous
 62
     7
370
     0
100
AcDbLine
 10
-2319.445797638295
 20
-1725.748280995741
 30
0.0
 11
-2310.863928334195
 21
-1725.748612080942
 31
0.0
  0
LINE
  5
4FC
330
1F
100
AcDbEntity
  8
レバー
  6
Continuous
 62
     7
370
     0
100
AcDbLine
 10
-2310.863928334195
 20
-1725.748612080942
 30
0.0
 11
-2301.603497402095
 21
-1725.749049802542
 31
0.0
  0
LINE
  5
4FD
330
1F
100
AcDbEntity
  8
レバー
  6
Continuous
 62
     7
370
     0
100
AcDbLine
 10
-2301.603497402095
 20
-1725.749049802542
 30
0.0
 11
-2291.664512292795
 21
-1725.749521983142
 31
0.0
  0
LINE
  5
4FE
330
1F
100
AcDbEntity
  8
レバー
  6
Continuous
 62
     7
370
     0
100
AcDbLine
 10
-2291.664512292795
 20
-1725.749521983142
 30
0.0
 11
-2281.046958104995
 21
-1725.749918260841
 31
0.0
  0
LINE
  5
4FF
330
1F
100
AcDbEntity
  8
レバー
  6
Continuous
 62
     7
370
     0
100
AcDbLine
 10
-2281.046958104995
 20
-1725.749918260841
 30
0.0
 11
-2270.799749926995
 21
-1725.750069135142
 31
0.0
  0
LINE
  5
500
330
1F
100
AcDbEntity
  8
レバー
  6
Continuous
 62
     7
370
     0
100
AcDbLine
 10
-2270.799802080996
 20
-1711.750097573942
 30
0.0
 11
-2280.528904334895
 21
-1711.750234944042
 31
0.0
  0
LINE
  5
501
330
1F
100
AcDbEntity
  8
レバー
  6
Continuous
 62
     7
370
     0
100
AcDbLine
 10
-2280.528904334895
 20
-1711.750234944042
 30
0.0
 11
-2290.713698999295
 21
-1711.750604213442
 31
0.0
  0
LINE
  5
502
330
1F
100
AcDbEntity
  8
レバー
  6
Continuous
 62
     7
370
     0
100
AcDbLine
 10
-2290.713698999295
 20
-1711.750604213442
 30
0.0
 11
-2300.305248634295
 21
-1711.751054507942
 31
0.0
  0
LINE
  5
503
330
1F
100
AcDbEntity
  8
レバー
  6
Continuous
 62
     7
370
     0
100
AcDbLine
 10
-2300.305248634295
 20
-1711.751054507942
 30
0.0
 11
-2309.303545789196
 21
-1711.751485710242
 31
0.0
  0
LINE
  5
504
330
1F
100
AcDbEntity
  8
レバー
  6
Continuous
 62
     7
370
     0
100
AcDbLine
 10
-2309.303545789196
 20
-1711.751485710242
 30
0.0
 11
-2317.708612815795
 21
-1711.751828902642
 31
0.0
  0
LINE
  5
505
330
1F
100
AcDbEntity
  8
レバー
  6
Continuous
 62
     7
370
     0
100
AcDbLine
 10
-2317.708612815795
 20
-1711.751828902642
 30
0.0
 11
-2325.520445988795
 21
-1711.752042175542
 31
0.0
  0
LINE
  5
506
330
1F
100
AcDbEntity
  8
レバー
  6
Continuous
 62
     7
370
     0
100
AcDbLine
 10
-2325.520445988795
 20
-1711.752042175542
 30
0.0
 11
-2332.342547760595
 21
-1711.752106436742
 31
0.0
  0
LINE
  5
507
330
1F
100
AcDbEntity
  8
レバー
  6
Continuous
 62
     7
370
     0
100
AcDbLine
 10
-2332.342547760595
 20
-1711.752106436742
 30
0.0
 11
-2338.637293712495
 21
-1711.752035190542
 31
0.0
  0
LINE
  5
508
330
1F
100
AcDbEntity
  8
レバー
  6
Continuous
 62
     7
370
     0
100
AcDbLine
 10
-2338.637293712495
 20
-1711.752035190542
 30
0.0
 11
-2344.404683844495
 21
-1711.751837284542
 31
0.0
  0
LINE
  5
509
330
1F
100
AcDbEntity
  8
レバー
  6
Continuous
 62
     7
370
     0
100
AcDbLine
 10
-2344.404683844495
 20
-1711.751837284542
 30
0.0
 11
-2349.646424339495
 21
-1711.751531345042
 31
0.0
  0
LINE
  5
50A
330
1F
100
AcDbEntity
  8
レバー
  6
Continuous
 62
     7
370
     0
100
AcDbLine
 10
-2349.646424339495
 20
-1711.751531345042
 30
0.0
 11
-2354.443581239595
 21
-1711.751133204642
 31
0.0
  0
LINE
  5
50B
330
1F
100
AcDbEntity
  8
レバー
  6
Continuous
 62
     7
370
     0
100
AcDbLine
 10
-2354.443581239595
 20
-1711.751133204642
 30
0.0
 11
-2359.094760776795
 21
-1711.750628893542
 31
0.0
  0
LINE
  5
50C
330
1F
100
AcDbEntity
  8
レバー
  6
Continuous
 62
     7
370
     0
100
AcDbLine
 10
-2359.094760776795
 20
-1711.750628893542
 30
0.0
 11
-2363.296864019095
 21
-1711.750066840342
 31
0.0
  0
LINE
  5
50D
330
1F
100
AcDbEntity
  8
レバー
  6
Continuous
 62
     7
370
     0
100
AcDbLine
 10
-2363.296864019095
 20
-1711.750066840342
 30
0.0
 11
-2367.050293297795
 21
-1711.749684998042
 31
0.0
  0
LINE
  5
50E
330
1F
100
AcDbEntity
  8
レバー
  6
Continuous
 62
     7
370
     0
100
AcDbLine
 10
-2367.050293297795
 20
-1711.749684998042
 30
0.0
 11
-2369.052150682795
 21
-1711.750400253842
 31
0.0
  0
LINE
  5
50F
330
1F
100
AcDbEntity
  8
レバー
  6
Continuous
 62
     7
370
     0
100
AcDbLine
 10
-2369.052150682795
 20
-1711.750400253842
 30
0.0
 11
-2370.898518176096
 21
-1711.752403528642
 31
0.0
  0
LINE
  5
510
330
1F
100
AcDbEntity
  8
レバー
  6
Continuous
 62
     7
370
     0
100
AcDbLine
 10
-2370.898518176096
 20
-1711.752403528642
 30
0.0
 11
-2372.908138134796
 21
-1711.755690166042
 31
0.0
  0
LINE
  5
511
330
1F
100
AcDbEntity
  8
レバー
  6
Continuous
 62
     7
370
     0
100
AcDbLine
 10
-2372.908138134796
 20
-1711.755690166042
 30
0.0
 11
-2375.316073582796
 21
-1711.758256425342
 31
0.0
  0
LINE
  5
512
330
1F
100
AcDbEntity
  8
レバー
  6
Continuous
 62
     7
370
     0
100
AcDbLine
 10
-2375.316073582796
 20
-1711.758256425342
 30
0.0
 11
-2376.811233745295
 21
-1711.758744904042
 31
0.0
  0
LINE
  5
513
330
1F
100
AcDbEntity
  8
レバー
  6
Continuous
 62
     7
370
     0
100
AcDbLine
 10
-2376.811233745295
 20
-1711.758744904042
 30
0.0
 11
-2378.348583751695
 21
-1711.757995189442
 31
0.0
  0
LINE
  5
514
330
1F
100
AcDbEntity
  8
レバー
  6
Continuous
 62
     7
370
     0
100
AcDbLine
 10
-2378.348583751695
 20
-1711.757995189442
 30
0.0
 11
-2379.866883554796
 21
-1711.756793317641
 31
0.0
  0
LINE
  5
515
330
1F
100
AcDbEntity
  8
レバー
  6
Continuous
 62
     7
370
     0
100
AcDbLine
 10
-2379.866883554796
 20
-1711.756793317641
 30
0.0
 11
-2380.967555032395
 21
-1711.757657584942
 31
0.0
  0
LINE
  5
516
330
1F
100
AcDbEntity
  8
レバー
  6
Continuous
 62
     7
370
     0
100
AcDbLine
 10
-2380.967555032395
 20
-1711.757657584942
 30
0.0
 11
-2381.429879856595
 21
-1711.764247623542
 31
0.0
  0
LINE
  5
517
330
1F
100
AcDbEntity
  8
レバー
  6
Continuous
 62
     7
370
     0
100
AcDbLine
 10
-2381.429879856595
 20
-1711.764247623542
 30
0.0
 11
-2381.433799327595
 21
-1711.768327747742
 31
0.0
  0
ARC
  5
518
330
1F
100
AcDbEntity
  8
レバー
  6
Continuous
 62
     7
370
     0
100
AcDbCircle
 10
-2270.799671069995
 20
-1713.250083557542
 30
0.0
 40
1.500000000000118
100
AcDbArc
 50
359.9999957463
 51
90.17419294509996
  0
ARC
  5
519
330
1F
100
AcDbEntity
  8
レバー
  6
Continuous
 62
     7
370
     0
100
AcDbCircle
 10
-2270.799671069995
 20
-1724.250084131142
 30
0.0
 40
1.500000000000029
100
AcDbArc
 50
269.9105889113
 51
359.9915336725
  0
LINE
  5
51A
330
1F
100
AcDbEntity
  8
レバー
  6
Continuous
 62
     7
370
     0
100
AcDbLine
 10
-2376.344284438796
 20
-1711.758592167142
 30
0.0
 11
-2377.107282565295
 21
-1710.971909110642
 31
0.0
  0
LINE
  5
51B
330
1F
100
AcDbEntity
  8
レバー
  6
Continuous
 62
     7
370
     0
100
AcDbLine
 10
-2377.107282565295
 20
-1710.971909110642
 30
0.0
 11
-2379.077257984596
 21
-1709.603917786142
 31
0.0
  0
LINE
  5
51C
330
1F
100
AcDbEntity
  8
レバー
  6
Continuous
 62
     7
370
     0
100
AcDbLine
 10
-2379.077257984596
 20
-1709.603917786142
 30
0.0
 11
-2381.324786623295
 21
-1708.587408998242
 31
0.0
  0
LINE
  5
51D
330
1F
100
AcDbEntity
  8
レバー
  6
Continuous
 62
     7
370
     0
100
AcDbLine
 10
-2381.324786623295
 20
-1708.587408998242
 30
0.0
 11
-2383.763496927295
 21
-1707.961445675442
 31
0.0
  0
LINE
  5
51E
330
1F
100
AcDbEntity
  8
レバー
  6
Continuous
 62
     7
370
     0
100
AcDbLine
 10
-2383.763496927295
 20
-1707.961445675442
 30
0.0
 11
-2386.299671069995
 21
-1707.750083879842
 31
0.0
  0
LINE
  5
51F
330
1F
100
AcDbEntity
  8
レバー
  6
Continuous
 62
     7
370
     0
100
AcDbLine
 10
-2386.299671069995
 20
-1707.750083879842
 30
0.0
 11
-2388.835845212795
 21
-1707.961445675442
 31
0.0
  0
LINE
  5
520
330
1F
100
AcDbEntity
  8
レバー
  6
Continuous
 62
     7
370
     0
100
AcDbLine
 10
-2388.835845212795
 20
-1707.961445675442
 30
0.0
 11
-2391.274555516695
 21
-1708.587408998242
 31
0.0
  0
LINE
  5
521
330
1F
100
AcDbEntity
  8
レバー
  6
Continuous
 62
     7
370
     0
100
AcDbLine
 10
-2391.274555516695
 20
-1708.587408998242
 30
0.0
 11
-2393.522084155395
 21
-1709.603917786142
 31
0.0
  0
LINE
  5
522
330
1F
100
AcDbEntity
  8
レバー
  6
Continuous
 62
     7
370
     0
100
AcDbLine
 10
-2393.522084155395
 20
-1709.603917786142
 30
0.0
 11
-2395.492059574795
 21
-1710.971909110642
 31
0.0
  0
LINE
  5
523
330
1F
100
AcDbEntity
  8
レバー
  6
Continuous
 62
     7
370
     0
100
AcDbLine
 10
-2395.492059574795
 20
-1710.971909110642
 30
0.0
 11
-2397.108775959595
 21
-1712.638811209441
 31
0.0
  0
LINE
  5
524
330
1F
100
AcDbEntity
  8
レバー
  6
Continuous
 62
     7
370
     0
100
AcDbLine
 10
-2397.108775959595
 20
-1712.638811209441
 30
0.0
 11
-2398.310104781096
 21
-1714.540565853242
 31
0.0
  0
LINE
  5
525
330
1F
100
AcDbEntity
  8
レバー
  6
Continuous
 62
     7
370
     0
100
AcDbLine
 10
-2398.310104781096
 20
-1714.540565853242
 30
0.0
 11
-2399.049879447895
 21
-1716.604090296942
 31
0.0
  0
LINE
  5
526
330
1F
100
AcDbEntity
  8
レバー
  6
Continuous
 62
     7
370
     0
100
AcDbLine
 10
-2399.049879447895
 20
-1716.604090296942
 30
0.0
 11
-2399.299671338195
 21
-1718.750083820242
 31
0.0
  0
LINE
  5
527
330
1F
100
AcDbEntity
  8
レバー
  6
Continuous
 62
     7
370
     0
100
AcDbLine
 10
-2399.299671338195
 20
-1718.750083820242
 30
0.0
 11
-2399.049879447895
 21
-1720.896077343541
 31
0.0
  0
LINE
  5
528
330
1F
100
AcDbEntity
  8
レバー
  6
Continuous
 62
     7
370
     0
100
AcDbLine
 10
-2399.049879447895
 20
-1720.896077343541
 30
0.0
 11
-2398.310104781096
 21
-1722.959601787142
 31
0.0
  0
LINE
  5
529
330
1F
100
AcDbEntity
  8
レバー
  6
Continuous
 62
     7
370
     0
100
AcDbLine
 10
-2398.310104781096
 20
-1722.959601787142
 30
0.0
 11
-2397.108775959595
 21
-1724.861356430942
 31
0.0
  0
LINE
  5
52A
330
1F
100
AcDbEntity
  8
レバー
  6
Continuous
 62
     7
370
     0
100
AcDbLine
 10
-2397.108775959595
 20
-1724.861356430942
 30
0.0
 11
-2395.492059574795
 21
-1726.528258529742
 31
0.0
  0
LINE
  5
52B
330
1F
100
AcDbEntity
  8
レバー
  6
Continuous
 62
     7
370
     0
100
AcDbLine
 10
-2395.492059574795
 20
-1726.528258529742
 30
0.0
 11
-2393.522084155395
 21
-1727.896249854242
 31
0.0
  0
LINE
  5
52C
330
1F
100
AcDbEntity
  8
レバー
  6
Continuous
 62
     7
370
     0
100
AcDbLine
 10
-2393.522084155395
 20
-1727.896249854242
 30
0.0
 11
-2391.274555516695
 21
-1728.912758642142
 31
0.0
  0
LINE
  5
52D
330
1F
100
AcDbEntity
  8
レバー
  6
Continuous
 62
     7
370
     0
100
AcDbLine
 10
-2391.274555516695
 20
-1728.912758642142
 30
0.0
 11
-2388.835845212795
 21
-1729.538721964942
 31
0.0
  0
LINE
  5
52E
330
1F
100
AcDbEntity
  8
レバー
  6
Continuous
 62
     7
370
     0
100
AcDbLine
 10
-2388.835845212795
 20
-1729.538721964942
 30
0.0
 11
-2386.299671069995
 21
-1729.750083760642
 31
0.0
  0
LINE
  5
52F
330
1F
100
AcDbEntity
  8
レバー
  6
Continuous
 62
     7
370
     0
100
AcDbLine
 10
-2386.299671069995
 20
-1729.750083760642
 30
0.0
 11
-2383.763496927295
 21
-1729.538721964942
 31
0.0
  0
LINE
  5
530
330
1F
100
AcDbEntity
  8
レバー
  6
Continuous
 62
     7
370
     0
100
AcDbLine
 10
-2383.763496927295
 20
-1729.538721964942
 30
0.0
 11
-2381.324786623295
 21
-1728.912758642142
 31
0.0
  0
LINE
  5
531
330
1F
100
AcDbEntity
  8
レバー
  6
Continuous
 62
     7
370
     0
100
AcDbLine
 10
-2381.324786623295
 20
-1728.912758642142
 30
0.0
 11
-2379.077257984596
 21
-1727.896249854242
 31
0.0
  0
LINE
  5
532
330
1F
100
AcDbEntity
  8
レバー
  6
Continuous
 62
     7
370
     0
100
AcDbLine
 10
-2379.077257984596
 20
-1727.896249854242
 30
0.0
 11
-2377.107282565295
 21
-1726.528258529742
 31
0.0
  0
LINE
  5
533
330
1F
100
AcDbEntity
  8
レバー
  6
Continuous
 62
     7
370
     0
100
AcDbLine
 10
-2377.107282565295
 20
-1726.528258529742
 30
0.0
 11
-2376.344379433695
 21
-1725.741673262142
 31
0.0
  0
LINE
  5
534
330
1F
100
AcDbEntity
  8
レバー
  6
Continuous
 62
     7
370
     0
100
AcDbLine
 10
-2269.299672381295
 20
-1718.749922686342
 30
0.0
 11
-2269.299672381295
 21
-1724.247059320342
 31
0.0
  0
LINE
  5
535
330
1F
100
AcDbEntity
  8
レバー
  6
Continuous
 62
     7
370
     0
100
AcDbLine
 10
-2269.299672381295
 20
-1718.749922686342
 30
0.0
 11
-2269.299672381295
 21
-1713.256838266942
 31
0.0
  0
ARC
  5
536
330
1F
100
AcDbEntity
  8
レバー
  6
Continuous
 62
     7
370
     0
100
AcDbCircle
 10
-2386.299671069995
 20
-1718.750083820242
 30
0.0
 40
24.55
100
AcDbArc
 50
16.5995243249
 51
343.3673588443
  0
LINE
  5
537
330
1F
100
AcDbEntity
  8
レバー
  6
JWW_CENTER1
 62
   120
370
     5
100
AcDbLine
 10
-4571.097619875986
 20
-1718.750083820242
 30
0.0
 11
-4654.123571613838
 21
-1718.750083820242
 31
0.0
  0
LINE
  5
538
330
1F
100
AcDbEntity
  8
レバー
  6
JWW_CENTER1
 62
   120
370
     5
100
AcDbLine
 10
-4617.899798419025
 20
-1662.293123226451
 30
0.0
 11
-4617.899798419025
 21
-1762.136876514715
 31
0.0
  0
LINE
  5
539
330
1F
100
AcDbEntity
  8
レバー
  6
Continuous
 62
     7
370
     0
100
AcDbLine
 10
-4502.399877276025
 20
-1711.750097108342
 30
0.0
 11
-4511.475176181325
 21
-1711.750217248941
 31
0.0
  0
LINE
  5
53A
330
1F
100
AcDbEntity
  8
レバー
  6
Continuous
 62
     7
370
     0
100
AcDbLine
 10
-4511.475176181325
 20
-1711.750217248941
 30
0.0
 11
-4511.875622536725
 21
-1711.750231218742
 31
0.0
  0
ARC
  5
53B
330
1F
100
AcDbEntity
  8
レバー
  6
Continuous
 62
     7
370
     0
100
AcDbCircle
 10
-4502.399798419026
 20
-1724.250084082842
 30
0.0
 40
1.500000000000118
100
AcDbArc
 50
270.164192293
 51
0.000004253700026
  0
ARC
  5
53C
330
1F
100
AcDbEntity
  8
レバー
  6
Continuous
 62
     7
370
     0
100
AcDbCircle
 10
-4502.399798419026
 20
-1713.250083509241
 30
0.0
 40
1.500000000000029
100
AcDbArc
 50
0.0084663275
 51
89.9162980715
  0
LINE
  5
53D
330
1F
100
AcDbEntity
  8
レバー
  6
Continuous
 62
     7
370
     0
100
AcDbLine
 10
-4612.881420742426
 20
-1725.736199879342
 30
0.0
 11
-4612.749119385824
 21
-1725.742990617842
 31
0.0
  0
LINE
  5
53E
330
1F
100
AcDbEntity
  8
レバー
  6
Continuous
 62
     7
370
     0
100
AcDbLine
 10
-4612.749119385824
 20
-1725.742990617842
 30
0.0
 11
-4612.313378233225
 21
-1725.744923112242
 31
0.0
  0
LINE
  5
53F
330
1F
100
AcDbEntity
  8
レバー
  6
Continuous
 62
     7
370
     0
100
AcDbLine
 10
-4612.313378233225
 20
-1725.744923112242
 30
0.0
 11
-4611.585184562625
 21
-1725.744578057242
 31
0.0
  0
LINE
  5
540
330
1F
100
AcDbEntity
  8
レバー
  6
Continuous
 62
     7
370
     0
100
AcDbLine
 10
-4611.585184562625
 20
-1725.744578057242
 30
0.0
 11
-4610.570398255924
 21
-1725.743326359642
 31
0.0
  0
LINE
  5
541
330
1F
100
AcDbEntity
  8
レバー
  6
Continuous
 62
     7
370
     0
100
AcDbLine
 10
-4610.570398255924
 20
-1725.743326359642
 30
0.0
 11
-4609.306870590624
 21
-1725.742017851442
 31
0.0
  0
LINE
  5
542
330
1F
100
AcDbEntity
  8
レバー
  6
Continuous
 62
     7
370
     0
100
AcDbLine
 10
-4609.306870590624
 20
-1725.742017851442
 30
0.0
 11
-4607.957340407825
 21
-1725.741664414542
 31
0.0
  0
LINE
  5
543
330
1F
100
AcDbEntity
  8
レバー
  6
Continuous
 62
     7
370
     0
100
AcDbLine
 10
-4607.957340407825
 20
-1725.741664414542
 30
0.0
 11
-4605.103822987225
 21
-1725.743641146742
 31
0.0
  0
LINE
  5
544
330
1F
100
AcDbEntity
  8
レバー
  6
Continuous
 62
     7
370
     0
100
AcDbLine
 10
-4605.103822987225
 20
-1725.743641146742
 30
0.0
 11
-4602.121987011025
 21
-1725.748234895342
 31
0.0
  0
LINE
  5
545
330
1F
100
AcDbEntity
  8
レバー
  6
Continuous
 62
     7
370
     0
100
AcDbLine
 10
-4602.121987011025
 20
-1725.748234895342
 30
0.0
 11
-4599.101264592025
 21
-1725.750421175042
 31
0.0
  0
LINE
  5
546
330
1F
100
AcDbEntity
  8
レバー
  6
Continuous
 62
     7
370
     0
100
AcDbLine
 10
-4599.101264592025
 20
-1725.750421175042
 30
0.0
 11
-4596.058676581525
 21
-1725.750283804942
 31
0.0
  0
LINE
  5
547
330
1F
100
AcDbEntity
  8
レバー
  6
Continuous
 62
     7
370
     0
100
AcDbLine
 10
-4596.058676581525
 20
-1725.750283804942
 30
0.0
 11
-4592.994394343024
 21
-1725.749837701441
 31
0.0
  0
LINE
  5
548
330
1F
100
AcDbEntity
  8
レバー
  6
Continuous
 62
     7
370
     0
100
AcDbLine
 10
-4592.994394343024
 20
-1725.749837701441
 30
0.0
 11
-4589.908589239925
 21
-1725.749446545942
 31
0.0
  0
LINE
  5
549
330
1F
100
AcDbEntity
  8
レバー
  6
Continuous
 62
     7
370
     0
100
AcDbLine
 10
-4589.908589239925
 20
-1725.749446545942
 30
0.0
 11
-4585.911498035925
 21
-1725.749022328542
 31
0.0
  0
LINE
  5
54A
330
1F
100
AcDbEntity
  8
レバー
  6
Continuous
 62
     7
370
     0
100
AcDbLine
 10
-4585.911498035925
 20
-1725.749022328542
 30
0.0
 11
-4581.502512659625
 21
-1725.748654921742
 31
0.0
  0
LINE
  5
54B
330
1F
100
AcDbEntity
  8
レバー
  6
Continuous
 62
     7
370
     0
100
AcDbLine
 10
-4581.502512659625
 20
-1725.748654921742
 30
0.0
 11
-4576.532751884026
 21
-1725.748355501542
 31
0.0
  0
LINE
  5
54C
330
1F
100
AcDbEntity
  8
レバー
  6
Continuous
 62
     7
370
     0
100
AcDbLine
 10
-4576.532751884026
 20
-1725.748355501542
 30
0.0
 11
-4571.002211983925
 21
-1725.748151541942
 31
0.0
  0
LINE
  5
54D
330
1F
100
AcDbEntity
  8
レバー
  6
Continuous
 62
     7
370
     0
100
AcDbLine
 10
-4571.002211983925
 20
-1725.748151541942
 30
0.0
 11
-4564.910896684725
 21
-1725.748063531942
 31
0.0
  0
LINE
  5
54E
330
1F
100
AcDbEntity
  8
レバー
  6
Continuous
 62
     7
370
     0
100
AcDbLine
 10
-4564.910896684725
 20
-1725.748063531942
 30
0.0
 11
-4558.258802260925
 21
-1725.748105907142
 31
0.0
  0
LINE
  5
54F
330
1F
100
AcDbEntity
  8
レバー
  6
Continuous
 62
     7
370
     0
100
AcDbLine
 10
-4558.258802260925
 20
-1725.748105907142
 30
0.0
 11
-4551.045924987325
 21
-1725.748280995741
 31
0.0
  0
LINE
  5
550
330
1F
100
AcDbEntity
  8
レバー
  6
Continuous
 62
     7
370
     0
100
AcDbLine
 10
-4551.045924987325
 20
-1725.748280995741
 30
0.0
 11
-4542.464055683226
 21
-1725.748612080942
 31
0.0
  0
LINE
  5
551
330
1F
100
AcDbEntity
  8
レバー
  6
Continuous
 62
     7
370
     0
100
AcDbLine
 10
-4542.464055683226
 20
-1725.748612080942
 30
0.0
 11
-4533.203624751124
 21
-1725.749049802542
 31
0.0
  0
LINE
  5
552
330
1F
100
AcDbEntity
  8
レバー
  6
Continuous
 62
     7
370
     0
100
AcDbLine
 10
-4533.203624751124
 20
-1725.749049802542
 30
0.0
 11
-4523.264639641825
 21
-1725.749521983142
 31
0.0
  0
LINE
  5
553
330
1F
100
AcDbEntity
  8
レバー
  6
Continuous
 62
     7
370
     0
100
AcDbLine
 10
-4523.264639641825
 20
-1725.749521983142
 30
0.0
 11
-4512.647085454025
 21
-1725.749918260841
 31
0.0
  0
LINE
  5
554
330
1F
100
AcDbEntity
  8
レバー
  6
Continuous
 62
     7
370
     0
100
AcDbLine
 10
-4512.647085454025
 20
-1725.749918260841
 30
0.0
 11
-4502.399877276025
 21
-1725.750069135142
 31
0.0
  0
LINE
  5
555
330
1F
100
AcDbEntity
  8
レバー
  6
Continuous
 62
     7
370
     0
100
AcDbLine
 10
-4502.399929430026
 20
-1711.750097573942
 30
0.0
 11
-4512.129031683925
 21
-1711.750234944042
 31
0.0
  0
LINE
  5
556
330
1F
100
AcDbEntity
  8
レバー
  6
Continuous
 62
     7
370
     0
100
AcDbLine
 10
-4512.129031683925
 20
-1711.750234944042
 30
0.0
 11
-4522.313826348325
 21
-1711.750604213442
 31
0.0
  0
LINE
  5
557
330
1F
100
AcDbEntity
  8
レバー
  6
Continuous
 62
     7
370
     0
100
AcDbLine
 10
-4522.313826348325
 20
-1711.750604213442
 30
0.0
 11
-4531.905375983325
 21
-1711.751054507942
 31
0.0
  0
LINE
  5
558
330
1F
100
AcDbEntity
  8
レバー
  6
Continuous
 62
     7
370
     0
100
AcDbLine
 10
-4531.905375983325
 20
-1711.751054507942
 30
0.0
 11
-4540.903673138226
 21
-1711.751485710242
 31
0.0
  0
LINE
  5
559
330
1F
100
AcDbEntity
  8
レバー
  6
Continuous
 62
     7
370
     0
100
AcDbLine
 10
-4540.903673138226
 20
-1711.751485710242
 30
0.0
 11
-4549.308740164824
 21
-1711.751828902642
 31
0.0
  0
LINE
  5
55A
330
1F
100
AcDbEntity
  8
レバー
  6
Continuous
 62
     7
370
     0
100
AcDbLine
 10
-4549.308740164824
 20
-1711.751828902642
 30
0.0
 11
-4557.120573337825
 21
-1711.752042175542
 31
0.0
  0
LINE
  5
55B
330
1F
100
AcDbEntity
  8
レバー
  6
Continuous
 62
     7
370
     0
100
AcDbLine
 10
-4557.120573337825
 20
-1711.752042175542
 30
0.0
 11
-4563.942675109625
 21
-1711.752106436742
 31
0.0
  0
LINE
  5
55C
330
1F
100
AcDbEntity
  8
レバー
  6
Continuous
 62
     7
370
     0
100
AcDbLine
 10
-4563.942675109625
 20
-1711.752106436742
 30
0.0
 11
-4570.237421061524
 21
-1711.752035190542
 31
0.0
  0
LINE
  5
55D
330
1F
100
AcDbEntity
  8
レバー
  6
Continuous
 62
     7
370
     0
100
AcDbLine
 10
-4570.237421061524
 20
-1711.752035190542
 30
0.0
 11
-4576.004811193525
 21
-1711.751837284542
 31
0.0
  0
LINE
  5
55E
330
1F
100
AcDbEntity
  8
レバー
  6
Continuous
 62
     7
370
     0
100
AcDbLine
 10
-4576.004811193525
 20
-1711.751837284542
 30
0.0
 11
-4581.246551688525
 21
-1711.751531345042
 31
0.0
  0
LINE
  5
55F
330
1F
100
AcDbEntity
  8
レバー
  6
Continuous
 62
     7
370
     0
100
AcDbLine
 10
-4581.246551688525
 20
-1711.751531345042
 30
0.0
 11
-4586.043708588625
 21
-1711.751133204642
 31
0.0
  0
LINE
  5
560
330
1F
100
AcDbEntity
  8
レバー
  6
Continuous
 62
     7
370
     0
100
AcDbLine
 10
-4586.043708588625
 20
-1711.751133204642
 30
0.0
 11
-4590.694888125825
 21
-1711.750628893542
 31
0.0
  0
LINE
  5
561
330
1F
100
AcDbEntity
  8
レバー
  6
Continuous
 62
     7
370
     0
100
AcDbLine
 10
-4590.694888125825
 20
-1711.750628893542
 30
0.0
 11
-4594.896991368125
 21
-1711.750066840342
 31
0.0
  0
LINE
  5
562
330
1F
100
AcDbEntity
  8
レバー
  6
Continuous
 62
     7
370
     0
100
AcDbLine
 10
-4594.896991368125
 20
-1711.750066840342
 30
0.0
 11
-4598.650420646825
 21
-1711.749684998042
 31
0.0
  0
LINE
  5
563
330
1F
100
AcDbEntity
  8
レバー
  6
Continuous
 62
     7
370
     0
100
AcDbLine
 10
-4598.650420646825
 20
-1711.749684998042
 30
0.0
 11
-4600.652278031825
 21
-1711.750400253842
 31
0.0
  0
LINE
  5
564
330
1F
100
AcDbEntity
  8
レバー
  6
Continuous
 62
     7
370
     0
100
AcDbLine
 10
-4600.652278031825
 20
-1711.750400253842
 30
0.0
 11
-4602.498645525126
 21
-1711.752403528642
 31
0.0
  0
LINE
  5
565
330
1F
100
AcDbEntity
  8
レバー
  6
Continuous
 62
     7
370
     0
100
AcDbLine
 10
-4602.498645525126
 20
-1711.752403528642
 30
0.0
 11
-4604.508265483825
 21
-1711.755690166042
 31
0.0
  0
LINE
  5
566
330
1F
100
AcDbEntity
  8
レバー
  6
Continuous
 62
     7
370
     0
100
AcDbLine
 10
-4604.508265483825
 20
-1711.755690166042
 30
0.0
 11
-4606.916200931825
 21
-1711.758256425342
 31
0.0
  0
LINE
  5
567
330
1F
100
AcDbEntity
  8
レバー
  6
Continuous
 62
     7
370
     0
100
AcDbLine
 10
-4606.916200931825
 20
-1711.758256425342
 30
0.0
 11
-4608.411361094325
 21
-1711.758744904042
 31
0.0
  0
LINE
  5
568
330
1F
100
AcDbEntity
  8
レバー
  6
Continuous
 62
     7
370
     0
100
AcDbLine
 10
-4608.411361094325
 20
-1711.758744904042
 30
0.0
 11
-4609.948711100725
 21
-1711.757995189442
 31
0.0
  0
LINE
  5
569
330
1F
100
AcDbEntity
  8
レバー
  6
Continuous
 62
     7
370
     0
100
AcDbLine
 10
-4609.948711100725
 20
-1711.757995189442
 30
0.0
 11
-4611.467010903825
 21
-1711.756793317641
 31
0.0
  0
LINE
  5
56A
330
1F
100
AcDbEntity
  8
レバー
  6
Continuous
 62
     7
370
     0
100
AcDbLine
 10
-4611.467010903825
 20
-1711.756793317641
 30
0.0
 11
-4612.567682381425
 21
-1711.757657584942
 31
0.0
  0
LINE
  5
56B
330
1F
100
AcDbEntity
  8
レバー
  6
Continuous
 62
     7
370
     0
100
AcDbLine
 10
-4612.567682381425
 20
-1711.757657584942
 30
0.0
 11
-4613.030007205624
 21
-1711.764247623542
 31
0.0
  0
LINE
  5
56C
330
1F
100
AcDbEntity
  8
レバー
  6
Continuous
 62
     7
370
     0
100
AcDbLine
 10
-4613.030007205624
 20
-1711.764247623542
 30
0.0
 11
-4613.033926676624
 21
-1711.768327747742
 31
0.0
  0
ARC
  5
56D
330
1F
100
AcDbEntity
  8
レバー
  6
Continuous
 62
     7
370
     0
100
AcDbCircle
 10
-4502.399798419026
 20
-1713.250083557542
 30
0.0
 40
1.500000000000118
100
AcDbArc
 50
359.9999957463
 51
90.17419294509996
  0
ARC
  5
56E
330
1F
100
AcDbEntity
  8
レバー
  6
Continuous
 62
     7
370
     0
100
AcDbCircle
 10
-4502.399798419026
 20
-1724.250084131142
 30
0.0
 40
1.500000000000029
100
AcDbArc
 50
269.9105889113
 51
359.9915336725
  0
LINE
  5
56F
330
1F
100
AcDbEntity
  8
レバー
  6
Continuous
 62
     7
370
     0
100
AcDbLine
 10
-4607.944411787825
 20
-1711.758592167142
 30
0.0
 11
-4608.707409914325
 21
-1710.971909110642
 31
0.0
  0
LINE
  5
570
330
1F
100
AcDbEntity
  8
レバー
  6
Continuous
 62
     7
370
     0
100
AcDbLine
 10
-4608.707409914325
 20
-1710.971909110642
 30
0.0
 11
-4610.677385333625
 21
-1709.603917786142
 31
0.0
  0
LINE
  5
571
330
1F
100
AcDbEntity
  8
レバー
  6
Continuous
 62
     7
370
     0
100
AcDbLine
 10
-4610.677385333625
 20
-1709.603917786142
 30
0.0
 11
-4612.924913972325
 21
-1708.587408998242
 31
0.0
  0
LINE
  5
572
330
1F
100
AcDbEntity
  8
レバー
  6
Continuous
 62
     7
370
     0
100
AcDbLine
 10
-4612.924913972325
 20
-1708.587408998242
 30
0.0
 11
-4615.363624276325
 21
-1707.961445675442
 31
0.0
  0
LINE
  5
573
330
1F
100
AcDbEntity
  8
レバー
  6
Continuous
 62
     7
370
     0
100
AcDbLine
 10
-4615.363624276325
 20
-1707.961445675442
 30
0.0
 11
-4617.899798419025
 21
-1707.750083879842
 31
0.0
  0
LINE
  5
574
330
1F
100
AcDbEntity
  8
レバー
  6
Continuous
 62
     7
370
     0
100
AcDbLine
 10
-4617.899798419025
 20
-1707.750083879842
 30
0.0
 11
-4620.435972561825
 21
-1707.961445675442
 31
0.0
  0
LINE
  5
575
330
1F
100
AcDbEntity
  8
レバー
  6
Continuous
 62
     7
370
     0
100
AcDbLine
 10
-4620.435972561825
 20
-1707.961445675442
 30
0.0
 11
-4622.874682865725
 21
-1708.587408998242
 31
0.0
  0
LINE
  5
576
330
1F
100
AcDbEntity
  8
レバー
  6
Continuous
 62
     7
370
     0
100
AcDbLine
 10
-4622.874682865725
 20
-1708.587408998242
 30
0.0
 11
-4625.122211504425
 21
-1709.603917786142
 31
0.0
  0
LINE
  5
577
330
1F
100
AcDbEntity
  8
レバー
  6
Continuous
 62
     7
370
     0
100
AcDbLine
 10
-4625.122211504425
 20
-1709.603917786142
 30
0.0
 11
-4627.092186923825
 21
-1710.971909110642
 31
0.0
  0
LINE
  5
578
330
1F
100
AcDbEntity
  8
レバー
  6
Continuous
 62
     7
370
     0
100
AcDbLine
 10
-4627.092186923825
 20
-1710.971909110642
 30
0.0
 11
-4628.708903308625
 21
-1712.638811209441
 31
0.0
  0
LINE
  5
579
330
1F
100
AcDbEntity
  8
レバー
  6
Continuous
 62
     7
370
     0
100
AcDbLine
 10
-4628.708903308625
 20
-1712.638811209441
 30
0.0
 11
-4629.910232130125
 21
-1714.540565853242
 31
0.0
  0
LINE
  5
57A
330
1F
100
AcDbEntity
  8
レバー
  6
Continuous
 62
     7
370
     0
100
AcDbLine
 10
-4629.910232130125
 20
-1714.540565853242
 30
0.0
 11
-4630.650006796925
 21
-1716.604090296942
 31
0.0
  0
LINE
  5
57B
330
1F
100
AcDbEntity
  8
レバー
  6
Continuous
 62
     7
370
     0
100
AcDbLine
 10
-4630.650006796925
 20
-1716.604090296942
 30
0.0
 11
-4630.899798687225
 21
-1718.750083820242
 31
0.0
  0
LINE
  5
57C
330
1F
100
AcDbEntity
  8
レバー
  6
Continuous
 62
     7
370
     0
100
AcDbLine
 10
-4630.899798687225
 20
-1718.750083820242
 30
0.0
 11
-4630.650006796925
 21
-1720.896077343541
 31
0.0
  0
LINE
  5
57D
330
1F
100
AcDbEntity
  8
レバー
  6
Continuous
 62
     7
370
     0
100
AcDbLine
 10
-4630.650006796925
 20
-1720.896077343541
 30
0.0
 11
-4629.910232130125
 21
-1722.959601787142
 31
0.0
  0
LINE
  5
57E
330
1F
100
AcDbEntity
  8
レバー
  6
Continuous
 62
     7
370
     0
100
AcDbLine
 10
-4629.910232130125
 20
-1722.959601787142
 30
0.0
 11
-4628.708903308625
 21
-1724.861356430942
 31
0.0
  0
LINE
  5
57F
330
1F
100
AcDbEntity
  8
レバー
  6
Continuous
 62
     7
370
     0
100
AcDbLine
 10
-4628.708903308625
 20
-1724.861356430942
 30
0.0
 11
-4627.092186923825
 21
-1726.528258529742
 31
0.0
  0
LINE
  5
580
330
1F
100
AcDbEntity
  8
レバー
  6
Continuous
 62
     7
370
     0
100
AcDbLine
 10
-4627.092186923825
 20
-1726.528258529742
 30
0.0
 11
-4625.122211504425
 21
-1727.896249854242
 31
0.0
  0
LINE
  5
581
330
1F
100
AcDbEntity
  8
レバー
  6
Continuous
 62
     7
370
     0
100
AcDbLine
 10
-4625.122211504425
 20
-1727.896249854242
 30
0.0
 11
-4622.874682865725
 21
-1728.912758642142
 31
0.0
  0
LINE
  5
582
330
1F
100
AcDbEntity
  8
レバー
  6
Continuous
 62
     7
370
     0
100
AcDbLine
 10
-4622.874682865725
 20
-1728.912758642142
 30
0.0
 11
-4620.435972561825
 21
-1729.538721964942
 31
0.0
  0
LINE
  5
583
330
1F
100
AcDbEntity
  8
レバー
  6
Continuous
 62
     7
370
     0
100
AcDbLine
 10
-4620.435972561825
 20
-1729.538721964942
 30
0.0
 11
-4617.899798419025
 21
-1729.750083760642
 31
0.0
  0
LINE
  5
584
330
1F
100
AcDbEntity
  8
レバー
  6
Continuous
 62
     7
370
     0
100
AcDbLine
 10
-4617.899798419025
 20
-1729.750083760642
 30
0.0
 11
-4615.363624276325
 21
-1729.538721964942
 31
0.0
  0
LINE
  5
585
330
1F
100
AcDbEntity
  8
レバー
  6
Continuous
 62
     7
370
     0
100
AcDbLine
 10
-4615.363624276325
 20
-1729.538721964942
 30
0.0
 11
-4612.924913972325
 21
-1728.912758642142
 31
0.0
  0
LINE
  5
586
330
1F
100
AcDbEntity
  8
レバー
  6
Continuous
 62
     7
370
     0
100
AcDbLine
 10
-4612.924913972325
 20
-1728.912758642142
 30
0.0
 11
-4610.677385333625
 21
-1727.896249854242
 31
0.0
  0
LINE
  5
587
330
1F
100
AcDbEntity
  8
レバー
  6
Continuous
 62
     7
370
     0
100
AcDbLine
 10
-4610.677385333625
 20
-1727.896249854242
 30
0.0
 11
-4608.707409914325
 21
-1726.528258529742
 31
0.0
  0
LINE
  5
588
330
1F
100
AcDbEntity
  8
レバー
  6
Continuous
 62
     7
370
     0
100
AcDbLine
 10
-4608.707409914325
 20
-1726.528258529742
 30
0.0
 11
-4607.944506782726
 21
-1725.741673262142
 31
0.0
  0
LINE
  5
589
330
1F
100
AcDbEntity
  8
レバー
  6
Continuous
 62
     7
370
     0
100
AcDbLine
 10
-4500.899799730325
 20
-1718.749922686342
 30
0.0
 11
-4500.899799730325
 21
-1724.247059320342
 31
0.0
  0
LINE
  5
58A
330
1F
100
AcDbEntity
  8
レバー
  6
Continuous
 62
     7
370
     0
100
AcDbLine
 10
-4500.899799730325
 20
-1718.749922686342
 30
0.0
 11
-4500.899799730325
 21
-1713.256838266942
 31
0.0
  0
ARC
  5
58B
330
1F
100
AcDbEntity
  8
レバー
  6
Continuous
 62
     7
370
     0
100
AcDbCircle
 10
-4617.899798419025
 20
-1718.750083820242
 30
0.0
 40
24.55
100
AcDbArc
 50
16.5995243249
 51
343.3673588443
  0
ENDSEC
  0
SECTION
  2
OBJECTS
  0
DICTIONARY
  5
C
330
0
100
AcDbDictionary
281
     1
  3
ACAD_GROUP
350
D
  3
ACAD_LAYOUT
350
1A
  3
ACAD_MATERIAL
350
3B
  3
ACAD_MLEADERSTYLE
350
58D
  3
ACAD_MLINESTYLE
350
17
  3
ACAD_PLOTSETTINGS
350
19
  3
ACAD_PLOTSTYLENAME
350
E
  3
ACAD_TABLESTYLE
350
58C
  3
ACAD_VISUALSTYLE
350
2A
  0
DICTIONARY
  5
D
102
{ACAD_REACTORS
330
C
102
}
330
C
100
AcDbDictionary
281
     1
  0
DICTIONARY
  5
1A
102
{ACAD_REACTORS
330
C
102
}
330
C
100
AcDbDictionary
281
     1
  3
Layout1
350
1E
  3
Layout2
350
26
  3
Model
350
22
  0
DICTIONARY
  5
3B
102
{ACAD_REACTORS
330
C
102
}
330
C
100
AcDbDictionary
281
     1
  3
ByBlock
350
3D
  3
ByLayer
350
3C
  3
Global
350
3E
  0
DICTIONARY
  5
58D
102
{ACAD_REACTORS
330
C
102
}
330
C
100
AcDbDictionary
281
     1
  0
DICTIONARY
  5
17
102
{ACAD_REACTORS
330
C
102
}
330
C
100
AcDbDictionary
281
     1
  3
Standard
350
18
  0
DICTIONARY
  5
19
102
{ACAD_REACTORS
330
C
102
}
330
C
100
AcDbDictionary
281
     1
  0
ACDBDICTIONARYWDFLT
  5
E
102
{ACAD_REACTORS
330
C
102
}
330
C
100
AcDbDictionary
281
     1
  3
Normal
350
F
100
AcDbDictionaryWithDefault
340
F
  0
DICTIONARY
  5
58C
102
{ACAD_REACTORS
330
C
102
}
330
C
100
AcDbDictionary
281
     1
  0
DICTIONARY
  5
2A
102
{ACAD_REACTORS
330
C
102
}
330
C
100
AcDbDictionary
281
     1
  3
2dWireframe
350
2F
  3
3D Hidden
350
31
  3
3dWireframe
350
30
  3
Basic
350
32
  3
Brighten
350
36
  3
ColorChange
350
3A
  3
Conceptual
350
34
  3
Dim
350
35
  3
Facepattern
350
39
  3
Flat
350
2B
  3
FlatWithEdges
350
2C
  3
Gouraud
350
2D
  3
GouraudWithEdges
350
2E
  3
Linepattern
350
38
  3
Realistic
350
33
  3
Thicken
350
37
  0
LAYOUT
  5
1E
102
{ACAD_REACTORS
330
1A
102
}
330
1A
100
AcDbPlotSettings
  1

  2
none_device
  4

  6

 40
0.0
 41
0.0
 42
0.0
 43
0.0
 44
0.0
 45
0.0
 46
0.0
 47
0.0
 48
0.0
 49
0.0
140
0.0
141
0.0
142
1.0
143
1.0
 70
   688
 72
     0
 73
     0
 74
     5
  7

 75
    16
 76
     0
 77
     5
 78
   300
147
1.0
148
0.0
149
0.0
100
AcDbLayout
  1
Layout1
 70
     1
 71
     1
 10
0.0
 20
0.0
 11
420.0
 21
297.0
 12
0.0
 22
0.0
 32
0.0
 14
1.000000000000000E+20
 24
1.000000000000000E+20
 34
1.000000000000000E+20
 15
-1.000000000000000E+20
 25
-1.000000000000000E+20
 35
-1.000000000000000E+20
146
0.0
 13
0.0
 23
0.0
 33
0.0
 16
1.0
 26
0.0
 36
0.0
 17
0.0
 27
1.0
 37
0.0
 76
     0
330
1B
  0
LAYOUT
  5
26
102
{ACAD_REACTORS
330
1A
102
}
330
1A
100
AcDbPlotSettings
  1

  2
none_device
  4

  6

 40
0.0
 41
0.0
 42
0.0
 43
0.0
 44
0.0
 45
0.0
 46
0.0
 47
0.0
 48
0.0
 49
0.0
140
0.0
141
0.0
142
1.0
143
1.0
 70
   688
 72
     0
 73
     0
 74
     5
  7

 75
    16
 76
     0
 77
     5
 78
   300
147
1.0
148
0.0
149
0.0
100
AcDbLayout
  1
Layout2
 70
     1
 71
     2
 10
0.0
 20
0.0
 11
0.0
 21
0.0
 12
0.0
 22
0.0
 32
0.0
 14
0.0
 24
0.0
 34
0.0
 15
0.0
 25
0.0
 35
0.0
146
0.0
 13
0.0
 23
0.0
 33
0.0
 16
1.0
 26
0.0
 36
0.0
 17
0.0
 27
1.0
 37
0.0
 76
     0
330
23
  0
LAYOUT
  5
22
102
{ACAD_REACTORS
330
1A
102
}
330
1A
100
AcDbPlotSettings
  1

  2
none_device
  4

  6

 40
0.0
 41
0.0
 42
0.0
 43
0.0
 44
0.0
 45
0.0
 46
0.0
 47
0.0
 48
0.0
 49
0.0
140
0.0
141
0.0
142
1.0
143
1.0
 70
  1712
 72
     0
 73
     0
 74
     0
  7

 75
     0
 76
     0
 77
     5
 78
   300
147
1.0
148
0.0
149
0.0
100
AcDbLayout
  1
Model
 70
     1
 71
     0
 10
-6300.0
 20
-4455.0
 11
6300.0
 21
4455.0
 12
0.0
 22
0.0
 32
0.0
 14
-6300.0
 24
-4455.0
 34
0.0
 15
6300.0
 25
4455.0
 35
0.0
146
0.0
 13
0.0
 23
0.0
 33
0.0
 16
1.0
 26
0.0
 36
0.0
 17
0.0
 27
1.0
 37
0.0
 76
     0
330
1F
331
29
  0
MATERIAL
  5
3D
102
{ACAD_REACTORS
330
3B
102
}
330
3B
100
AcDbMaterial
  1
ByBlock
 72
     1
 94
      127
  0
MATERIAL
  5
3C
102
{ACAD_REACTORS
330
3B
102
}
330
3B
100
AcDbMaterial
  1
ByLayer
 72
     1
 94
      127
  0
MATERIAL
  5
3E
102
{ACAD_REACTORS
330
3B
102
}
330
3B
100
AcDbMaterial
  1
Global
 72
     1
 94
      127
  0
MLINESTYLE
  5
18
102
{ACAD_REACTORS
330
17
102
}
330
17
100
AcDbMlineStyle
  2
Standard
 70
     0
  3

 62
   256
 51
90.0
 52
90.0
 71
     2
 49
0.5
 62
   256
  6
BYLAYER
 49
-0.5
 62
   256
  6
BYLAYER
  0
ACDBPLACEHOLDER
  5
F
102
{ACAD_REACTORS
330
E
102
}
330
E
  0
VISUALSTYLE
  5
2F
102
{ACAD_REACTORS
330
2A
102
}
330
2A
100
AcDbVisualStyle
  2
2dWireframe
 70
     4
177
     2
291
     0
 71
     0
176
     1
 72
     2
176
     1
 73
     0
176
     1
 90
        0
176
     1
 40
-0.6
176
     1
 41
-30.0
176
     1
 62
     5
 63
     7
421
 16777215
176
     1
 74
     1
176
     1
 91
        4
176
     1
 64
     7
176
     1
 65
   257
176
     1
 75
     1
176
     1
175
     1
176
     1
 42
1.0
176
     1
 92
        0
176
     1
 66
   257
176
     1
 43
1.0
176
     1
 76
     1
176
     1
 77
     6
176
     1
 78
     2
176
     1
 67
     7
176
     1
 79
     5
176
     1
170
     0
176
     1
171
     0
176
     1
290
     0
176
     1
 93
        1
176
     1
 44
0.0
176
     1
173
     0
176
     1
  0
VISUALSTYLE
  5
31
102
{ACAD_REACTORS
330
2A
102
}
330
2A
100
AcDbVisualStyle
  2
3D Hidden
 70
     6
177
     2
291
     0
 71
     1
176
     1
 72
     2
176
     1
 73
     2
176
     1
 90
        0
176
     1
 40
-0.6
176
     1
 41
-30.0
176
     1
 62
     5
 63
     7
421
 16777215
176
     1
 74
     2
176
     1
 91
        2
176
     1
 64
     7
176
     1
 65
   257
176
     1
 75
     2
176
     1
175
     1
176
     1
 42
40.0
176
     1
 92
        0
176
     1
 66
   257
176
     1
 43
1.0
176
     1
 76
     1
176
     1
 77
     6
176
     1
 78
     2
176
     1
 67
     7
176
     1
 79
     3
176
     1
170
     0
176
     1
171
     0
176
     1
290
     0
176
     1
 93
        1
176
     1
 44
0.0
176
     1
173
     0
176
     1
  0
VISUALSTYLE
  5
30
102
{ACAD_REACTORS
330
2A
102
}
330
2A
100
AcDbVisualStyle
  2
3dWireframe
 70
     5
177
     2
291
     0
 71
     0
176
     1
 72
     2
176
     1
 73
     0
176
     1
 90
        0
176
     1
 40
-0.6
176
     1
 41
-30.0
176
     1
 62
     5
 63
     7
421
 16777215
176
     1
 74
     1
176
     1
 91
        4
176
     1
 64
     7
176
     1
 65
   257
176
     1
 75
     1
176
     1
175
     1
176
     1
 42
1.0
176
     1
 92
        0
176
     1
 66
   257
176
     1
 43
1.0
176
     1
 76
     1
176
     1
 77
     6
176
     1
 78
     2
176
     1
 67
     7
176
     1
 79
     5
176
     1
170
     0
176
     1
171
     0
176
     1
290
     0
176
     1
 93
        1
176
     1
 44
0.0
176
     1
173
     0
176
     1
  0
VISUALSTYLE
  5
32
102
{ACAD_REACTORS
330
2A
102
}
330
2A
100
AcDbVisualStyle
  2
Basic
 70
     7
177
     2
291
     1
 71
     1
176
     1
 72
     0
176
     1
 73
     1
176
     1
 90
        0
176
     1
 40
-0.6
176
     1
 41
-30.0
176
     1
 62
     5
 63
     7
421
 16777215
176
     1
 74
     0
176
     1
 91
        4
176
     1
 64
     7
176
     1
 65
   257
176
     1
 75
     1
176
     1
175
     1
176
     1
 42
1.0
176
     1
 92
        8
176
     1
 66
     7
176
     1
 43
1.0
176
     1
 76
     1
176
     1
 77
     6
176
     1
 78
     2
176
     1
 67
     7
176
     1
 79
     5
176
     1
170
     0
176
     1
171
     0
176
     1
290
     0
176
     1
 93
        1
176
     1
 44
0.0
176
     1
173
     0
176
     1
  0
VISUALSTYLE
  5
36
102
{ACAD_REACTORS
330
2A
102
}
330
2A
100
AcDbVisualStyle
  2
Brighten
 70
    12
177
     2
291
     1
 71
     2
176
     1
 72
     2
176
     1
 73
     0
176
     1
 90
        0
176
     1
 40
-0.6
176
     1
 41
-30.0
176
     1
 62
     5
 63
     7
421
 16777215
176
     1
 74
     1
176
     1
 91
        4
176
     1
 64
     7
176
     1
 65
   257
176
     1
 75
     1
176
     1
175
     1
176
     1
 42
1.0
176
     1
 92
        8
176
     1
 66
     7
176
     1
 43
1.0
176
     1
 76
     1
176
     1
 77
     6
176
     1
 78
     2
176
     1
 67
     7
176
     1
 79
     5
176
     1
170
     0
176
     1
171
     0
176
     1
290
     0
176
     1
 93
        1
176
     1
 44
50.0
176
     1
173
     0
176
     1
  0
VISUALSTYLE
  5
3A
102
{ACAD_REACTORS
330
2A
102
}
330
2A
100
AcDbVisualStyle
  2
ColorChange
 70
    16
177
     2
291
     1
 71
     2
176
     1
 72
     2
176
     1
 73
     3
176
     1
 90
        0
176
     1
 40
-0.6
176
     1
 41
-30.0
176
     1
 62
     5
 63
     8
421
  8421504
176
     1
 74
     1
176
     1
 91
        4
176
     1
 64
     7
176
     1
 65
   257
176
     1
 75
     1
176
     1
175
     1
176
     1
 42
1.0
176
     1
 92
        8
176
     1
 66
     8
424
  8421504
176
     1
 43
1.0
176
     1
 76
     1
176
     1
 77
     6
176
     1
 78
     2
176
     1
 67
     7
176
     1
 79
     5
176
     1
170
     0
176
     1
171
     0
176
     1
290
     0
176
     1
 93
        1
176
     1
 44
0.0
176
     1
173
     0
176
     1
  0
VISUALSTYLE
  5
34
102
{ACAD_REACTORS
330
2A
102
}
330
2A
100
AcDbVisualStyle
  2
Conceptual
 70
     9
177
     2
291
     0
 71
     3
176
     1
 72
     2
176
     1
 73
     0
176
     1
 90
        0
176
     1
 40
-0.6
176
     1
 41
-30.0
176
     1
 62
     5
 63
     7
421
 16777215
176
     1
 74
     2
176
     1
 91
        2
176
     1
 64
     7
176
     1
 65
   257
176
     1
 75
     1
176
     1
175
     1
176
     1
 42
40.0
176
     1
 92
        8
176
     1
 66
     7
176
     1
 43
1.0
176
     1
 76
     1
176
     1
 77
     6
176
     1
 78
     2
176
     1
 67
     7
176
     1
 79
     3
176
     1
170
     0
176
     1
171
     0
176
     1
290
     0
176
     1
 93
        1
176
     1
 44
0.0
176
     1
173
     0
176
     1
  0
VISUALSTYLE
  5
35
102
{ACAD_REACTORS
330
2A
102
}
330
2A
100
AcDbVisualStyle
  2
Dim
 70
    11
177
     2
291
     1
 71
     2
176
     1
 72
     2
176
     1
 73
     0
176
     1
 90
        0
176
     1
 40
-0.6
176
     1
 41
-30.0
176
     1
 62
     5
 63
     7
421
 16777215
176
     1
 74
     1
176
     1
 91
        4
176
     1
 64
     7
176
     1
 65
   257
176
     1
 75
     1
176
     1
175
     1
176
     1
 42
1.0
176
     1
 92
        8
176
     1
 66
     7
176
     1
 43
1.0
176
     1
 76
     1
176
     1
 77
     6
176
     1
 78
     2
176
     1
 67
     7
176
     1
 79
     5
176
     1
170
     0
176
     1
171
     0
176
     1
290
     0
176
     1
 93
        1
176
     1
 44
-50.0
176
     1
173
     0
176
     1
  0
VISUALSTYLE
  5
39
102
{ACAD_REACTORS
330
2A
102
}
330
2A
100
AcDbVisualStyle
  2
Facepattern
 70
    15
177
     2
291
     1
 71
     2
176
     1
 72
     2
176
     1
 73
     0
176
     1
 90
        0
176
     1
 40
-0.6
176
     1
 41
-30.0
176
     1
 62
     5
 63
     7
421
 16777215
176
     1
 74
     1
176
     1
 91
        4
176
     1
 64
     7
176
     1
 65
   257
176
     1
 75
     1
176
     1
175
     1
176
     1
 42
1.0
176
     1
 92
        8
176
     1
 66
     7
176
     1
 43
1.0
176
     1
 76
     1
176
     1
 77
     6
176
     1
 78
     2
176
     1
 67
     7
176
     1
 79
     5
176
     1
170
     0
176
     1
171
     0
176
     1
290
     0
176
     1
 93
        1
176
     1
 44
0.0
176
     1
173
     0
176
     1
  0
VISUALSTYLE
  5
2B
102
{ACAD_REACTORS
330
2A
102
}
330
2A
100
AcDbVisualStyle
  2
Flat
 70
     0
177
     2
291
     1
 71
     2
176
     1
 72
     1
176
     1
 73
     1
176
     1
 90
        2
176
     1
 40
-0.6
176
     1
 41
30.0
176
     1
 62
     5
 63
     7
421
 16777215
176
     1
 74
     0
176
     1
 91
        4
176
     1
 64
     7
176
     1
 65
   257
176
     1
 75
     1
176
     1
175
     1
176
     1
 42
1.0
176
     1
 92
        8
176
     1
 66
     7
176
     1
 43
1.0
176
     1
 76
     1
176
     1
 77
     6
176
     1
 78
     2
176
     1
 67
     7
176
     1
 79
     5
176
     1
170
     0
176
     1
171
     0
176
     1
290
     0
176
     1
 93
       13
176
     1
 44
0.0
176
     1
173
     0
176
     1
  0
VISUALSTYLE
  5
2C
102
{ACAD_REACTORS
330
2A
102
}
330
2A
100
AcDbVisualStyle
  2
FlatWithEdges
 70
     1
177
     2
291
     1
 71
     2
176
     1
 72
     1
176
     1
 73
     1
176
     1
 90
        2
176
     1
 40
-0.6
176
     1
 41
30.0
176
     1
 62
     5
 63
     7
421
 16777215
176
     1
 74
     1
176
     1
 91
        4
176
     1
 64
     7
176
     1
 65
   257
176
     1
 75
     1
176
     1
175
     1
176
     1
 42
1.0
176
     1
 92
        0
176
     1
 66
   257
176
     1
 43
1.0
176
     1
 76
     1
176
     1
 77
     6
176
     1
 78
     2
176
     1
 67
     7
176
     1
 79
     5
176
     1
170
     0
176
     1
171
     0
176
     1
290
     0
176
     1
 93
       13
176
     1
 44
0.0
176
     1
173
     0
176
     1
  0
VISUALSTYLE
  5
2D
102
{ACAD_REACTORS
330
2A
102
}
330
2A
100
AcDbVisualStyle
  2
Gouraud
 70
     2
177
     2
291
     1
 71
     2
176
     1
 72
     2
176
     1
 73
     1
176
     1
 90
        2
176
     1
 40
-0.6
176
     1
 41
30.0
176
     1
 62
     5
 63
     7
421
 16777215
176
     1
 74
     0
176
     1
 91
        4
176
     1
 64
     7
176
     1
 65
   257
176
     1
 75
     1
176
     1
175
     1
176
     1
 42
1.0
176
     1
 92
        0
176
     1
 66
     7
176
     1
 43
1.0
176
     1
 76
     1
176
     1
 77
     6
176
     1
 78
     2
176
     1
 67
     7
176
     1
 79
     5
176
     1
170
     0
176
     1
171
     0
176
     1
290
     0
176
     1
 93
       13
176
     1
 44
0.0
176
     1
173
     0
176
     1
  0
VISUALSTYLE
  5
2E
102
{ACAD_REACTORS
330
2A
102
}
330
2A
100
AcDbVisualStyle
  2
GouraudWithEdges
 70
     3
177
     2
291
     1
 71
     2
176
     1
 72
     2
176
     1
 73
     1
176
     1
 90
        2
176
     1
 40
-0.6
176
     1
 41
30.0
176
     1
 62
     5
 63
     7
421
 16777215
176
     1
 74
     1
176
     1
 91
        4
176
     1
 64
     7
176
     1
 65
   257
176
     1
 75
     1
176
     1
175
     1
176
     1
 42
1.0
176
     1
 92
        0
176
     1
 66
   257
176
     1
 43
1.0
176
     1
 76
     1
176
     1
 77
     6
176
     1
 78
     2
176
     1
 67
     7
176
     1
 79
     5
176
     1
170
     0
176
     1
171
     0
176
     1
290
     0
176
     1
 93
       13
176
     1
 44
0.0
176
     1
173
     0
176
     1
  0
VISUALSTYLE
  5
38
102
{ACAD_REACTORS
330
2A
102
}
330
2A
100
AcDbVisualStyle
  2
Linepattern
 70
    14
177
     2
291
     1
 71
     2
176
     1
 72
     2
176
     1
 73
     0
176
     1
 90
        0
176
     1
 40
-0.6
176
     1
 41
-30.0
176
     1
 62
     5
 63
     7
421
 16777215
176
     1
 74
     1
176
     1
 91
        4
176
     1
 64
     7
176
     1
 65
   257
176
     1
 75
     7
176
     1
175
     7
176
     1
 42
1.0
176
     1
 92
        8
176
     1
 66
     7
176
     1
 43
1.0
176
     1
 76
     1
176
     1
 77
     6
176
     1
 78
     2
176
     1
 67
     7
176
     1
 79
     5
176
     1
170
     0
176
     1
171
     0
176
     1
290
     0
176
     1
 93
        1
176
     1
 44
0.0
176
     1
173
     0
176
     1
  0
VISUALSTYLE
  5
33
102
{ACAD_REACTORS
330
2A
102
}
330
2A
100
AcDbVisualStyle
  2
Realistic
 70
     8
177
     2
291
     0
 71
     2
176
     1
 72
     2
176
     1
 73
     0
176
     1
 90
        0
176
     1
 40
-0.6
176
     1
 41
-30.0
176
     1
 62
     5
 63
     7
421
 16777215
176
     1
 74
     1
176
     1
 91
        0
176
     1
 64
     7
176
     1
 65
   257
176
     1
 75
     1
176
     1
175
     1
176
     1
 42
1.0
176
     1
 92
        8
176
     1
 66
     8
424
  7895160
176
     1
 43
1.0
176
     1
 76
     1
176
     1
 77
     6
176
     1
 78
     2
176
     1
 67
     7
176
     1
 79
     5
176
     1
170
     0
176
     1
171
     0
176
     1
290
     0
176
     1
 93
       13
176
     1
 44
0.0
176
     1
173
     0
176
     1
  0
VISUALSTYLE
  5
37
102
{ACAD_REACTORS
330
2A
102
}
330
2A
100
AcDbVisualStyle
  2
Thicken
 70
    13
177
     2
291
     1
 71
     2
176
     1
 72
     2
176
     1
 73
     0
176
     1
 90
        0
176
     1
 40
-0.6
176
     1
 41
-30.0
176
     1
 62
     5
 63
     7
421
 16777215
176
     1
 74
     1
176
     1
 91
        4
176
     1
 64
     7
176
     1
 65
   257
176
     1
 75
     1
176
     1
175
     1
176
     1
 42
1.0
176
     1
 92
       12
176
     1
 66
     7
176
     1
 43
1.0
176
     1
 76
     1
176
     1
 77
     6
176
     1
 78
     2
176
     1
 67
     7
176
     1
 79
     5
176
     1
170
     0
176
     1
171
     0
176
     1
290
     0
176
     1
 93
        1
176
     1
 44
0.0
176
     1
173
     0
176
     1
  0
ENDSEC
  0
EOF
