  0
SECTION
  2
HEADER
  9
$ACADVER
  1
AC1024
  9
$ACADMAINTVER
 70
     6
  9
$DWGCODEPAGE
  3
ANSI_932
  9
$INSBASE
 10
0.0
 20
0.0
 30
0.0
  9
$EXTMIN
 10
-6300.0
 20
-4455.0
 30
0.0
  9
$EXTMAX
 10
6300.0
 20
4455.0
 30
0.0
  9
$LIMMIN
 10
-6300.0
 20
-4455.0
  9
$LIMMAX
 10
6300.0
 20
4455.0
  9
$ORTHOMODE
 70
     0
  9
$REGENMODE
 70
     1
  9
$FILLMODE
 70
     1
  9
$QTEXTMODE
 70
     0
  9
$MIRRTEXT
 70
     1
  9
$LTSCALE
 40
30.0
  9
$ATTMODE
 70
     1
  9
$TEXTSIZE
 40
2.5
  9
$TRACEWID
 40
1.0
  9
$TEXTSTYLE
  7
Standard
  9
$CLAYER
  8
0
  9
$CELTYPE
  6
ByLayer
  9
$CECOLOR
 62
   256
  9
$CELTSCALE
 40
1.0
  9
$DISPSILH
 70
     0
  9
$DIMSCALE
 40
1.0
  9
$DIMASZ
 40
2.5
  9
$DIMEXO
 40
0.625
  9
$DIMDLI
 40
3.75
  9
$DIMRND
 40
0.0
  9
$DIMDLE
 40
0.0
  9
$DIMEXE
 40
1.25
  9
$DIMTP
 40
0.0
  9
$DIMTM
 40
0.0
  9
$DIMTXT
 40
2.5
  9
$DIMCEN
 40
2.5
  9
$DIMTSZ
 40
0.0
  9
$DIMTOL
 70
     0
  9
$DIMLIM
 70
     0
  9
$DIMTIH
 70
     0
  9
$DIMTOH
 70
     0
  9
$DIMSE1
 70
     0
  9
$DIMSE2
 70
     0
  9
$DIMTAD
 70
     1
  9
$DIMZIN
 70
     8
  9
$DIMBLK
  1

  9
$DIMASO
 70
     1
  9
$DIMSHO
 70
     1
  9
$DIMPOST
  1

  9
$DIMAPOST
  1

  9
$DIMALT
 70
     0
  9
$DIMALTD
 70
     3
  9
$DIMALTF
 40
0.03937007874016
  9
$DIMLFAC
 40
1.0
  9
$DIMTOFL
 70
     1
  9
$DIMTVP
 40
0.0
  9
$DIMTIX
 70
     0
  9
$DIMSOXD
 70
     0
  9
$DIMSAH
 70
     0
  9
$DIMBLK1
  1

  9
$DIMBLK2
  1

  9
$DIMSTYLE
  2
ISO-25
  9
$DIMCLRD
 70
     0
  9
$DIMCLRE
 70
     0
  9
$DIMCLRT
 70
     0
  9
$DIMTFAC
 40
1.0
  9
$DIMGAP
 40
0.625
  9
$DIMJUST
 70
     0
  9
$DIMSD1
 70
     0
  9
$DIMSD2
 70
     0
  9
$DIMTOLJ
 70
     0
  9
$DIMTZIN
 70
     8
  9
$DIMALTZ
 70
     0
  9
$DIMALTTZ
 70
     0
  9
$DIMUPT
 70
     0
  9
$DIMDEC
 70
     2
  9
$DIMTDEC
 70
     2
  9
$DIMALTU
 70
     2
  9
$DIMALTTD
 70
     3
  9
$DIMTXSTY
  7
Standard
  9
$DIMAUNIT
 70
     0
  9
$DIMADEC
 70
     0
  9
$DIMALTRND
 40
0.0
  9
$DIMAZIN
 70
     0
  9
$DIMDSEP
 70
    44
  9
$DIMATFIT
 70
     3
  9
$DIMFRAC
 70
     0
  9
$DIMLDRBLK
  1

  9
$DIMLUNIT
 70
     2
  9
$DIMLWD
 70
    -2
  9
$DIMLWE
 70
    -2
  9
$DIMTMOVE
 70
     0
  9
$DIMFXL
 40
1.0
  9
$DIMFXLON
 70
     0
  9
$DIMJOGANG
 40
0.7853981633974483
  9
$DIMTFILL
 70
     0
  9
$DIMTFILLCLR
 70
     0
  9
$DIMARCSYM
 70
     0
  9
$DIMLTYPE
  6

  9
$DIMLTEX1
  6

  9
$DIMLTEX2
  6

  9
$DIMTXTDIRECTION
 70
     0
  9
$LUNITS
 70
     2
  9
$LUPREC
 70
     4
  9
$SKETCHINC
 40
1.0
  9
$FILLETRAD
 40
10.0
  9
$AUNITS
 70
     0
  9
$AUPREC
 70
     0
  9
$MENU
  1
.
  9
$ELEVATION
 40
0.0
  9
$PELEVATION
 40
0.0
  9
$THICKNESS
 40
0.0
  9
$LIMCHECK
 70
     0
  9
$CHAMFERA
 40
10.0
  9
$CHAMFERB
 40
10.0
  9
$CHAMFERC
 40
20.0
  9
$CHAMFERD
 40
0.0
  9
$SKPOLY
 70
     0
  9
$TDCREATE
 40
2459380.633066169
  9
$TDUCREATE
 40
2459380.258066169
  9
$TDUPDATE
 40
2459380.633066181
  9
$TDUUPDATE
 40
2459380.258066181
  9
$TDINDWG
 40
0.0000000116
  9
$TDUSRTIMER
 40
0.0000000116
  9
$USRTIMER
 70
     1
  9
$ANGBASE
 50
0.0
  9
$ANGDIR
 70
     0
  9
$PDMODE
 70
     0
  9
$PDSIZE
 40
0.0
  9
$PLINEWID
 40
0.0
  9
$SPLFRAME
 70
     0
  9
$SPLINETYPE
 70
     6
  9
$SPLINESEGS
 70
     8
  9
$HANDSEED
  5
268
  9
$SURFTAB1
 70
     6
  9
$SURFTAB2
 70
     6
  9
$SURFTYPE
 70
     6
  9
$SURFU
 70
     6
  9
$SURFV
 70
     6
  9
$UCSBASE
  2

  9
$UCSNAME
  2

  9
$UCSORG
 10
0.0
 20
0.0
 30
0.0
  9
$UCSXDIR
 10
1.0
 20
0.0
 30
0.0
  9
$UCSYDIR
 10
0.0
 20
1.0
 30
0.0
  9
$UCSORTHOREF
  2

  9
$UCSORTHOVIEW
 70
     0
  9
$UCSORGTOP
 10
0.0
 20
0.0
 30
0.0
  9
$UCSORGBOTTOM
 10
0.0
 20
0.0
 30
0.0
  9
$UCSORGLEFT
 10
0.0
 20
0.0
 30
0.0
  9
$UCSORGRIGHT
 10
0.0
 20
0.0
 30
0.0
  9
$UCSORGFRONT
 10
0.0
 20
0.0
 30
0.0
  9
$UCSORGBACK
 10
0.0
 20
0.0
 30
0.0
  9
$PUCSBASE
  2

  9
$PUCSNAME
  2

  9
$PUCSORG
 10
0.0
 20
0.0
 30
0.0
  9
$PUCSXDIR
 10
1.0
 20
0.0
 30
0.0
  9
$PUCSYDIR
 10
0.0
 20
1.0
 30
0.0
  9
$PUCSORTHOREF
  2

  9
$PUCSORTHOVIEW
 70
     0
  9
$PUCSORGTOP
 10
0.0
 20
0.0
 30
0.0
  9
$PUCSORGBOTTOM
 10
0.0
 20
0.0
 30
0.0
  9
$PUCSORGLEFT
 10
0.0
 20
0.0
 30
0.0
  9
$PUCSORGRIGHT
 10
0.0
 20
0.0
 30
0.0
  9
$PUCSORGFRONT
 10
0.0
 20
0.0
 30
0.0
  9
$PUCSORGBACK
 10
0.0
 20
0.0
 30
0.0
  9
$USERI1
 70
     0
  9
$USERI2
 70
     0
  9
$USERI3
 70
     0
  9
$USERI4
 70
     0
  9
$USERI5
 70
     0
  9
$USERR1
 40
0.0
  9
$USERR2
 40
0.0
  9
$USERR3
 40
0.0
  9
$USERR4
 40
0.0
  9
$USERR5
 40
0.0
  9
$WORLDVIEW
 70
     1
  9
$SHADEDGE
 70
     3
  9
$SHADEDIF
 70
    70
  9
$TILEMODE
 70
     1
  9
$MAXACTVP
 70
    64
  9
$PINSBASE
 10
0.0
 20
0.0
 30
0.0
  9
$PLIMCHECK
 70
     0
  9
$PEXTMIN
 10
1.000000000000000E+20
 20
1.000000000000000E+20
 30
1.000000000000000E+20
  9
$PEXTMAX
 10
-1.000000000000000E+20
 20
-1.000000000000000E+20
 30
-1.000000000000000E+20
  9
$PLIMMIN
 10
0.0
 20
0.0
  9
$PLIMMAX
 10
420.0
 20
297.0
  9
$UNITMODE
 70
     0
  9
$VISRETAIN
 70
     1
  9
$PLINEGEN
 70
     0
  9
$PSLTSCALE
 70
     1
  9
$TREEDEPTH
 70
  3020
  9
$CMLSTYLE
  2
Standard
  9
$CMLJUST
 70
     0
  9
$CMLSCALE
 40
20.0
  9
$PROXYGRAPHICS
 70
     1
  9
$MEASUREMENT
 70
     1
  9
$CELWEIGHT
370
    -1
  9
$ENDCAPS
280
     0
  9
$JOINSTYLE
280
     0
  9
$LWDISPLAY
290
     0
  9
$INSUNITS
 70
     4
  9
$HYPERLINKBASE
  1

  9
$STYLESHEET
  1

  9
$XEDIT
290
     1
  9
$CEPSNTYPE
380
     0
  9
$PSTYLEMODE
290
     1
  9
$FINGERPRINTGUID
  2
{C0404F55-EC06-4043-A591-FEC2467092D4}
  9
$VERSIONGUID
  2
{FAEB1C32-E019-11D5-929B-00C0DF256EC4}
  9
$EXTNAMES
290
     1
  9
$PSVPSCALE
 40
0.0
  9
$OLESTARTUP
290
     0
  9
$SORTENTS
280
   127
  9
$INDEXCTL
280
     0
  9
$HIDETEXT
280
     1
  9
$XCLIPFRAME
280
     2
  9
$HALOGAP
280
     0
  9
$OBSCOLOR
 70
   257
  9
$OBSLTYPE
280
     0
  9
$INTERSECTIONDISPLAY
280
     0
  9
$INTERSECTIONCOLOR
 70
   257
  9
$DIMASSOC
280
     2
  9
$PROJECTNAME
  1

  9
$CAMERADISPLAY
290
     0
  9
$LENSLENGTH
 40
50.0
  9
$CAMERAHEIGHT
 40
0.0
  9
$STEPSPERSEC
 40
2.0
  9
$STEPSIZE
 40
6.0
  9
$3DDWFPREC
 40
2.0
  9
$PSOLWIDTH
 40
5.0
  9
$PSOLHEIGHT
 40
80.0
  9
$LOFTANG1
 40
1.570796326794897
  9
$LOFTANG2
 40
1.570796326794897
  9
$LOFTMAG1
 40
0.0
  9
$LOFTMAG2
 40
0.0
  9
$LOFTPARAM
 70
     7
  9
$LOFTNORMALS
280
     1
  9
$LATITUDE
 40
37.795
  9
$LONGITUDE
 40
-122.394
  9
$NORTHDIRECTION
 40
0.0
  9
$TIMEZONE
 70
 -8000
  9
$LIGHTGLYPHDISPLAY
280
     1
  9
$TILEMODELIGHTSYNCH
280
     1
  9
$SOLIDHIST
280
     1
  9
$SHOWHIST
280
     1
  9
$DWFFRAME
280
     2
  9
$DGNFRAME
280
     2
  9
$REALWORLDSCALE
290
     1
  9
$INTERFERECOLOR
 62
   256
  9
$CSHADOW
280
     0
  9
$SHADOWPLANELOCATION
 40
0.0
  0
ENDSEC
  0
SECTION
  2
CLASSES
  0
CLASS
  1
ACDBDICTIONARYWDFLT
  2
AcDbDictionaryWithDefault
  3
ObjectDBX Classes
 90
        0
 91
        4
280
     0
281
     0
  0
CLASS
  1
VISUALSTYLE
  2
AcDbVisualStyle
  3
ObjectDBX Classes
 90
     4095
 91
        4
280
     0
281
     0
  0
CLASS
  1
MATERIAL
  2
AcDbMaterial
  3
ObjectDBX Classes
 90
     1153
 91
        4
280
     0
281
     0
  0
ENDSEC
  0
SECTION
  2
TABLES
  0
TABLE
  2
VPORT
  5
8
330
0
100
AcDbSymbolTable
 70
     1
  0
VPORT
  5
29
330
8
100
AcDbSymbolTableRecord
100
AcDbViewportTableRecord
  2
*Active
 70
     0
 10
0.0
 20
0.0
 11
1.0
 21
1.0
 12
0.0
 22
0.0
 13
0.0
 23
0.0
 14
10.0
 24
10.0
 15
10.0
 25
10.0
 16
0.0
 26
0.0
 36
1.0
 17
0.0
 27
0.0
 37
0.0
 40
9801.0
 41
1.414141414141414
 42
50.0
 43
0.0
 44
0.0
 50
0.0
 51
0.0
 71
     0
 72
 10000
 73
     1
 74
     3
 75
     0
 76
     0
 77
     0
 78
     0
281
     0
 65
     1
110
0.0
120
0.0
130
0.0
111
1.0
121
0.0
131
0.0
112
0.0
122
1.0
132
0.0
 79
     0
146
0.0
 60
     3
 61
     5
292
     1
282
     1
141
0.0
142
0.0
 63
   250
  0
ENDTAB
  0
TABLE
  2
LTYPE
  5
5
330
0
100
AcDbSymbolTable
 70
     4
  0
LTYPE
  5
14
330
5
100
AcDbSymbolTableRecord
100
AcDbLinetypeTableRecord
  2
ByBlock
 70
     0
  3

 72
    65
 73
     0
 40
0.0
  0
LTYPE
  5
15
330
5
100
AcDbSymbolTableRecord
100
AcDbLinetypeTableRecord
  2
ByLayer
 70
     0
  3

 72
    65
 73
     0
 40
0.0
  0
LTYPE
  5
16
330
5
100
AcDbSymbolTableRecord
100
AcDbLinetypeTableRecord
  2
Continuous
 70
     0
  3
Solid line
 72
    65
 73
     0
 40
0.0
  0
LTYPE
  5
3F
330
5
100
AcDbSymbolTableRecord
100
AcDbLinetypeTableRecord
  2
JWW_HOJO
 70
     0
  3
  -   -   -   -   -   -   -   - 
 72
    65
 73
     2
 40
1.693333333333333
 49
-1.27
 74
     0
 49
0.4233333333333333
 74
     0
  0
LTYPE
  5
40
330
5
100
AcDbSymbolTableRecord
100
AcDbLinetypeTableRecord
  2
JWW_CENTER1
 70
     0
  3
-----  --  ----------  --  -----
 72
    65
 73
     4
 40
6.773333333333333
 49
4.233333333333333
 74
     0
 49
-0.8466666666666667
 74
     0
 49
0.8466666666666667
 74
     0
 49
-0.8466666666666667
 74
     0
  0
LTYPE
  5
41
330
5
100
AcDbSymbolTableRecord
100
AcDbLinetypeTableRecord
  2
JWW_CENTER2
 70
     0
  3
-------------  --  -------------
 72
    65
 73
     4
 40
13.54666666666667
 49
11.00666666666667
 74
     0
 49
-0.8466666666666667
 74
     0
 49
0.8466666666666667
 74
     0
 49
-0.8466666666666667
 74
     0
  0
ENDTAB
  0
TABLE
  2
LAYER
  5
2
330
0
100
AcDbSymbolTable
 70
    12
  0
LAYER
  5
10
330
2
100
AcDbSymbolTableRecord
100
AcDbLayerTableRecord
  2
0
 70
     0
 62
     7
  6
Continuous
370
    -3
390
F
347
3E
  0
LAYER
  5
42
330
2
100
AcDbSymbolTableRecord
100
AcDbLayerTableRecord
  2
0-0_補助線
 70
     0
 62
     7
  6
Continuous
370
    -3
390
F
347
3E
  0
LAYER
  5
43
330
2
100
AcDbSymbolTableRecord
100
AcDbLayerTableRecord
  2
F-1_枠
 70
     0
 62
     7
  6
Continuous
370
    -3
390
F
347
3E
  0
LAYER
  5
44
330
2
100
AcDbSymbolTableRecord
100
AcDbLayerTableRecord
  2
F-0_補助線
 70
     0
 62
     7
  6
Continuous
370
    -3
390
F
347
3E
  0
LAYER
  5
45
330
2
100
AcDbSymbolTableRecord
100
AcDbLayerTableRecord
  2
0-4_枠
 70
     0
 62
     7
  6
Continuous
370
    -3
390
F
347
3E
  0
LAYER
  5
46
330
2
100
AcDbSymbolTableRecord
100
AcDbLayerTableRecord
  2
0-B_寸法
 70
     0
 62
     7
  6
Continuous
370
    -3
390
F
347
3E
  0
LAYER
  5
47
330
2
100
AcDbSymbolTableRecord
100
AcDbLayerTableRecord
  2
F-A_文字
 70
     0
 62
     7
  6
Continuous
370
    -3
390
F
347
3E
  0
LAYER
  5
48
330
2
100
AcDbSymbolTableRecord
100
AcDbLayerTableRecord
  2
0-A_文字
 70
     0
 62
     7
  6
Continuous
370
    -3
390
F
347
3E
  0
LAYER
  5
49
330
2
100
AcDbSymbolTableRecord
100
AcDbLayerTableRecord
  2
レバー
 70
     0
 62
     7
  6
Continuous
370
    -3
390
F
347
3E
  0
LAYER
  5
4A
330
2
100
AcDbSymbolTableRecord
100
AcDbLayerTableRecord
  2
0-7
 70
     0
 62
     7
  6
Continuous
370
    -3
390
F
347
3E
  0
LAYER
  5
4B
330
2
100
AcDbSymbolTableRecord
100
AcDbLayerTableRecord
  2
0-2_扉
 70
     0
 62
     7
  6
Continuous
370
    -3
390
F
347
3E
  0
LAYER
  5
4C
330
2
100
AcDbSymbolTableRecord
100
AcDbLayerTableRecord
  2
0-C_ハッチ
 70
     0
 62
     7
  6
Continuous
370
    -3
390
F
347
3E
  0
ENDTAB
  0
TABLE
  2
STYLE
  5
3
330
0
100
AcDbSymbolTable
 70
     1
  0
STYLE
  5
11
330
3
100
AcDbSymbolTableRecord
100
AcDbTextStyleTableRecord
  2
Standard
 70
     0
 40
0.0
 41
1.0
 50
0.0
 71
     0
 42
2.5
  3
txt
  4

  0
ENDTAB
  0
TABLE
  2
VIEW
  5
6
330
0
100
AcDbSymbolTable
 70
     0
  0
ENDTAB
  0
TABLE
  2
UCS
  5
7
330
0
100
AcDbSymbolTable
 70
     0
  0
ENDTAB
  0
TABLE
  2
APPID
  5
9
330
0
100
AcDbSymbolTable
 70
     1
  0
APPID
  5
12
330
9
100
AcDbSymbolTableRecord
100
AcDbRegAppTableRecord
  2
ACAD
 70
     0
  0
ENDTAB
  0
TABLE
  2
DIMSTYLE
  5
A
330
0
100
AcDbSymbolTable
 70
     1
100
AcDbDimStyleTable
  0
DIMSTYLE
105
27
330
A
100
AcDbSymbolTableRecord
100
AcDbDimStyleTableRecord
  2
ISO-25
 70
     0
 41
2.5
 42
0.625
 43
3.75
 44
1.25
 73
     0
 74
     0
 77
     1
 78
     8
140
2.5
141
2.5
143
0.03937007874016
147
0.625
171
     3
172
     1
178
     0
271
     2
272
     2
274
     3
278
    44
283
     0
284
     8
340
11
  0
ENDTAB
  0
TABLE
  2
BLOCK_RECORD
  5
1
330
0
100
AcDbSymbolTable
 70
     1
  0
BLOCK_RECORD
  5
1F
330
1
100
AcDbSymbolTableRecord
100
AcDbBlockTableRecord
  2
*Model_Space
340
22
 70
     0
280
     1
281
     0
  0
BLOCK_RECORD
  5
1B
330
1
100
AcDbSymbolTableRecord
100
AcDbBlockTableRecord
  2
*Paper_Space
340
1E
 70
     0
280
     1
281
     0
  0
BLOCK_RECORD
  5
23
330
1
100
AcDbSymbolTableRecord
100
AcDbBlockTableRecord
  2
*Paper_Space0
340
26
 70
     0
280
     1
281
     0
  0
ENDTAB
  0
ENDSEC
  0
SECTION
  2
BLOCKS
  0
BLOCK
  5
20
330
1F
100
AcDbEntity
  8
0
100
AcDbBlockBegin
  2
*Model_Space
 70
     0
 10
0.0
 20
0.0
 30
0.0
  3
*Model_Space
  1

  0
ENDBLK
  5
21
330
1F
100
AcDbEntity
  8
0
100
AcDbBlockEnd
  0
BLOCK
  5
1C
330
1B
100
AcDbEntity
 67
     1
  8
0
100
AcDbBlockBegin
  2
*Paper_Space
 70
     0
 10
0.0
 20
0.0
 30
0.0
  3
*Paper_Space
  1

  0
ENDBLK
  5
1D
330
1B
100
AcDbEntity
 67
     1
  8
0
100
AcDbBlockEnd
  0
BLOCK
  5
24
330
23
100
AcDbEntity
  8
0
100
AcDbBlockBegin
  2
*Paper_Space0
 70
     0
 10
0.0
 20
0.0
 30
0.0
  3
*Paper_Space0
  1

  0
ENDBLK
  5
25
330
23
100
AcDbEntity
  8
0
100
AcDbBlockEnd
  0
ENDSEC
  0
SECTION
  2
ENTITIES
  0
LINE
  5
4D
330
1F
100
AcDbEntity
  8
0-0_補助線
  6
JWW_HOJO
 62
   120
370
     5
100
AcDbLine
 10
-5999.99998453501
 20
670.5001831054692
 30
0.0
 11
5699.998762800888
 21
670.5001831054692
 31
0.0
  0
LINE
  5
4E
330
1F
100
AcDbEntity
  8
0-0_補助線
  6
JWW_HOJO
 62
   120
370
     5
100
AcDbLine
 10
-5999.99998453501
 20
790.5001831054692
 30
0.0
 11
5699.998762800888
 21
790.5001831054692
 31
0.0
  0
LINE
  5
4F
330
1F
100
AcDbEntity
  8
0-0_補助線
  6
JWW_HOJO
 62
   120
370
     5
100
AcDbLine
 10
-3138.399798419025
 20
4174.999769056166
 30
0.0
 11
-3138.399798419025
 21
-3790.000179909371
 31
0.0
  0
LINE
  5
50
330
1F
100
AcDbEntity
  8
F-1_枠
  6
Continuous
 62
   200
370
    20
100
AcDbLine
 10
-5999.999752560178
 20
4174.999769056166
 30
0.0
 11
5699.998762800888
 21
4174.999769056166
 31
0.0
  0
LINE
  5
51
330
1F
100
AcDbEntity
  8
F-0_補助線
  6
JWW_HOJO
 62
   120
370
     5
100
AcDbLine
 10
-6300.0
 20
-4455.0
 30
0.0
 11
-6300.0
 21
4424.999604096284
 31
0.0
  0
LINE
  5
52
330
1F
100
AcDbEntity
  8
F-0_補助線
  6
JWW_HOJO
 62
   120
370
     5
100
AcDbLine
 10
5999.999010240709
 20
4424.999604096284
 30
0.0
 11
5999.999010240709
 21
-4455.0
 31
0.0
  0
LINE
  5
53
330
1F
100
AcDbEntity
  8
F-0_補助線
  6
JWW_HOJO
 62
   120
370
     5
100
AcDbLine
 10
5999.999010240709
 20
-4455.0
 30
0.0
 11
-6300.0
 21
-4455.0
 31
0.0
  0
LINE
  5
54
330
1F
100
AcDbEntity
  8
F-1_枠
  6
Continuous
 62
   200
370
    20
100
AcDbLine
 10
-5999.999752560178
 20
4164.999983504013
 30
0.0
 11
5699.998762800888
 21
4164.999983504013
 31
0.0
  0
LINE
  5
55
330
1F
100
AcDbEntity
  8
F-1_枠
  6
Continuous
 62
   200
370
    20
100
AcDbLine
 10
-5999.999752560178
 20
4169.999505120355
 30
0.0
 11
5699.998762800888
 21
4169.999505120355
 31
0.0
  0
LINE
  5
56
330
1F
100
AcDbEntity
  8
F-1_枠
  6
Continuous
 62
   200
370
    20
100
AcDbLine
 10
5689.998977248734
 20
4174.999769056166
 30
0.0
 11
5689.998977248734
 21
-4205.000164959882
 31
0.0
  0
LINE
  5
57
330
1F
100
AcDbEntity
  8
F-1_枠
  6
Continuous
 62
   200
370
    20
100
AcDbLine
 10
5694.998498865077
 20
4174.999769056166
 30
0.0
 11
5694.998498865077
 21
-4205.000164959882
 31
0.0
  0
LINE
  5
58
330
1F
100
AcDbEntity
  8
F-1_枠
  6
Continuous
 62
   200
370
    20
100
AcDbLine
 10
5699.998762800888
 20
4174.999769056166
 30
0.0
 11
5699.998762800888
 21
-4205.000164959882
 31
0.0
  0
LINE
  5
59
330
1F
100
AcDbEntity
  8
F-1_枠
  6
Continuous
 62
   200
370
    20
100
AcDbLine
 10
-5989.999990205507
 20
4174.999769056166
 30
0.0
 11
-5989.999990205507
 21
-4205.000164959882
 31
0.0
  0
LINE
  5
5A
330
1F
100
AcDbEntity
  8
F-1_枠
  6
Continuous
 62
   200
370
    20
100
AcDbLine
 10
-5994.999975771518
 20
4174.999769056166
 30
0.0
 11
-5994.999975771518
 21
-4205.000164959882
 31
0.0
  0
LINE
  5
5B
330
1F
100
AcDbEntity
  8
F-1_枠
  6
Continuous
 62
   200
370
    20
100
AcDbLine
 10
-5999.99998453501
 20
4174.999769056166
 30
0.0
 11
-5999.99998453501
 21
-4205.000164959882
 31
0.0
  0
LINE
  5
5C
330
1F
100
AcDbEntity
  8
F-1_枠
  6
Continuous
 62
   200
370
    20
100
AcDbLine
 10
-5490.000018557986
 20
4174.999769056166
 30
0.0
 11
-5490.000018557986
 21
-3790.000179909372
 31
0.0
  0
LINE
  5
5D
330
1F
100
AcDbEntity
  8
F-0_補助線
  6
JWW_HOJO
 62
   120
370
     5
100
AcDbLine
 10
-6300.0
 20
4424.999604096284
 30
0.0
 11
5999.999010240709
 21
4424.999604096284
 31
0.0
  0
LINE
  5
5E
330
1F
100
AcDbEntity
  8
F-0_補助線
  6
JWW_HOJO
 62
     7
370
     9
100
AcDbLine
 10
849.9995876002961
 20
-3795.000003092998
 30
0.0
 11
849.9995876002961
 21
-4195.000008247994
 31
0.0
  0
LINE
  5
5F
330
1F
100
AcDbEntity
  8
F-0_補助線
  6
JWW_HOJO
 62
     7
370
     9
100
AcDbLine
 10
349.9999175200594
 20
-3795.000003092998
 30
0.0
 11
349.9999175200594
 21
-4195.000008247994
 31
0.0
  0
LINE
  5
60
330
1F
100
AcDbEntity
  8
F-1_枠
  6
Continuous
 62
   200
370
    20
100
AcDbLine
 10
5699.998762800888
 20
-4205.000002577498
 30
0.0
 11
-5999.999752560178
 21
-4205.000002577498
 31
0.0
  0
LINE
  5
61
330
1F
100
AcDbEntity
  8
F-1_枠
  6
Continuous
 62
   200
370
    20
100
AcDbLine
 10
5699.998762800888
 20
-4199.999993814004
 30
0.0
 11
-5999.999752560178
 21
-4199.999993814004
 31
0.0
  0
LINE
  5
62
330
1F
100
AcDbEntity
  8
F-1_枠
  6
Continuous
 62
   200
370
    20
100
AcDbLine
 10
5699.998762800888
 20
-4195.000008247994
 30
0.0
 11
-5999.999752560178
 21
-4195.000008247994
 31
0.0
  0
LINE
  5
63
330
1F
100
AcDbEntity
  8
F-1_枠
  6
Continuous
 62
   200
370
    20
100
AcDbLine
 10
4189.999224688556
 20
-3795.000003092998
 30
0.0
 11
4189.999224688556
 21
-4195.000008247994
 31
0.0
  0
LINE
  5
64
330
1F
100
AcDbEntity
  8
F-1_枠
  6
Continuous
 62
   200
370
    20
100
AcDbLine
 10
2689.998729808911
 20
-3795.000003092998
 30
0.0
 11
2689.998729808911
 21
-4195.000008247994
 31
0.0
  0
LINE
  5
65
330
1F
100
AcDbEntity
  8
F-1_枠
  6
Continuous
 62
   200
370
    20
100
AcDbLine
 10
-150.0001237199109
 20
-3795.000003092998
 30
0.0
 11
-150.0001237199109
 21
-4195.000008247994
 31
0.0
  0
LINE
  5
66
330
1F
100
AcDbEntity
  8
F-1_枠
  6
Continuous
 62
   200
370
    20
100
AcDbLine
 10
-150.0001237199109
 20
-3994.999936078046
 30
0.0
 11
5689.998977248734
 21
-3995.005364289155
 31
0.0
  0
LINE
  5
67
330
1F
100
AcDbEntity
  8
F-0_補助線
  6
JWW_HOJO
 62
     7
370
     9
100
AcDbLine
 10
-5989.999990205507
 20
-3994.99993607839
 30
0.0
 11
-150.0001237199109
 21
-3994.99993607839
 31
0.0
  0
LINE
  5
68
330
1F
100
AcDbEntity
  8
F-0_補助線
  6
JWW_HOJO
 62
     7
370
     9
100
AcDbLine
 10
-5989.999990205507
 20
-3904.99993607839
 30
0.0
 11
-150.0001237199109
 21
-3904.99993607839
 31
0.0
  0
LINE
  5
69
330
1F
100
AcDbEntity
  8
F-0_補助線
  6
JWW_HOJO
 62
     7
370
     9
100
AcDbLine
 10
-5989.999990205507
 20
-4084.99993607839
 30
0.0
 11
-150.0001237199109
 21
-4084.99993607839
 31
0.0
  0
LINE
  5
6A
330
1F
100
AcDbEntity
  8
F-0_補助線
  6
JWW_HOJO
 62
     7
370
     9
100
AcDbLine
 10
-150.0002584955388
 20
-4139.999739777983
 30
0.0
 11
5689.998842473105
 21
-4140.005167989091
 31
0.0
  0
LINE
  5
6B
330
1F
100
AcDbEntity
  8
F-0_補助線
  6
JWW_HOJO
 62
     7
370
     9
100
AcDbLine
 10
-150.0001748415872
 20
-4049.999739778022
 30
0.0
 11
5689.998926127057
 21
-4050.005167989131
 31
0.0
  0
LINE
  5
6C
330
1F
100
AcDbEntity
  8
F-0_補助線
  6
JWW_HOJO
 62
     7
370
     9
100
AcDbLine
 10
-150.0000725978671
 20
-3939.99973721807
 30
0.0
 11
5689.999028370777
 21
-3940.005165429179
 31
0.0
  0
LINE
  5
6D
330
1F
100
AcDbEntity
  8
F-0_補助線
  6
JWW_HOJO
 62
     7
370
     9
100
AcDbLine
 10
-149.9999889439155
 20
-3849.999737218109
 30
0.0
 11
5689.999112024728
 21
-3850.005165429218
 31
0.0
  0
LINE
  5
6E
330
1F
100
AcDbEntity
  8
F-0_補助線
  6
JWW_HOJO
 62
     7
370
     9
100
AcDbLine
 10
2779.998729808911
 20
-3795.000003092998
 30
0.0
 11
2779.998729808911
 21
-4195.000008247994
 31
0.0
  0
LINE
  5
6F
330
1F
100
AcDbEntity
  8
F-0_補助線
  6
JWW_HOJO
 62
     7
370
     9
100
AcDbLine
 10
-60.0001237199109
 20
-3795.000003092998
 30
0.0
 11
-60.0001237199109
 21
-4195.000008247994
 31
0.0
  0
LINE
  5
70
330
1F
100
AcDbEntity
  8
F-0_補助線
  6
JWW_HOJO
 62
     7
370
     9
100
AcDbLine
 10
4279.999224688556
 20
-3795.000003092998
 30
0.0
 11
4279.999224688556
 21
-4195.000008247994
 31
0.0
  0
LINE
  5
71
330
1F
100
AcDbEntity
  8
F-0_補助線
  6
JWW_HOJO
 62
     7
370
     9
100
AcDbLine
 10
-5247.547376752838
 20
-3795.000003092999
 30
0.0
 11
-5247.547376752838
 21
-4205.000164959882
 31
0.0
  0
LINE
  5
72
330
1F
100
AcDbEntity
  8
F-0_補助線
  6
JWW_HOJO
 62
     7
370
     9
100
AcDbLine
 10
-210.0001237199109
 20
-3795.000003092998
 30
0.0
 11
-210.0001237199109
 21
-4195.000008247994
 31
0.0
  0
LINE
  5
73
330
1F
100
AcDbEntity
  8
0-0_補助線
  6
JWW_HOJO
 62
     7
370
     9
100
AcDbLine
 10
-5490.000018557986
 20
3465.000148463894
 30
0.0
 11
5689.998977248734
 21
3465.000148463894
 31
0.0
  0
LINE
  5
74
330
1F
100
AcDbEntity
  8
0-0_補助線
  6
JWW_HOJO
 62
     7
370
     9
100
AcDbLine
 10
-5490.000018557986
 20
1418.000148463893
 30
0.0
 11
5689.998977248734
 21
1418.000148463893
 31
0.0
  0
LINE
  5
75
330
1F
100
AcDbEntity
  8
0-0_補助線
  6
JWW_HOJO
 62
   120
370
     5
100
AcDbLine
 10
-5490.000018557986
 20
1368.000148463894
 30
0.0
 11
5689.998977248734
 21
1368.000148463894
 31
0.0
  0
LINE
  5
76
330
1F
100
AcDbEntity
  8
0-0_補助線
  6
JWW_HOJO
 62
     7
370
     9
100
AcDbLine
 10
-5490.000018557986
 20
-2701.250083820241
 30
0.0
 11
5699.998762800888
 21
-2701.250083820241
 31
0.0
  0
LINE
  5
77
330
1F
100
AcDbEntity
  8
0-0_補助線
  6
JWW_HOJO
 62
   120
370
     5
100
AcDbLine
 10
-5490.000018557986
 20
-2751.250083820241
 30
0.0
 11
5699.998762800888
 21
-2751.250083820241
 31
0.0
  0
LINE
  5
78
330
1F
100
AcDbEntity
  8
0-0_補助線
  6
JWW_HOJO
 62
     7
370
     9
100
AcDbLine
 10
-5490.000018557986
 20
1168.000148463894
 30
0.0
 11
5689.998977248734
 21
1168.000148463894
 31
0.0
  0
LINE
  5
79
330
1F
100
AcDbEntity
  8
0-0_補助線
  6
JWW_HOJO
 62
     7
370
     9
100
AcDbLine
 10
-5490.000018557986
 20
-2951.250083820241
 30
0.0
 11
5699.998762800888
 21
-2951.250083820241
 31
0.0
  0
LINE
  5
7A
330
1F
100
AcDbEntity
  8
0-0_補助線
  6
JWW_HOJO
 62
     7
370
     9
100
AcDbLine
 10
-5490.000018557986
 20
-454.2500838202386
 30
0.0
 11
5699.998762800888
 21
-454.2500838202386
 31
0.0
  0
LINE
  5
7B
330
1F
100
AcDbEntity
  8
F-1_枠
  6
Continuous
 62
   200
370
    20
100
AcDbLine
 10
5699.998762800888
 20
-3795.000003092998
 30
0.0
 11
-5999.99998453501
 21
-3795.000003092998
 31
0.0
  0
LINE
  5
7C
330
1F
100
AcDbEntity
  8
F-1_枠
  6
Continuous
 62
   200
370
    20
100
AcDbLine
 10
-5999.99998453501
 20
3964.999818544131
 30
0.0
 11
5699.998762800888
 21
3964.999818544131
 31
0.0
  0
LINE
  5
7D
330
1F
100
AcDbEntity
  8
F-1_枠
  6
Continuous
 62
   200
370
    20
100
AcDbLine
 10
5699.998762800888
 20
-3790.000017526987
 30
0.0
 11
-5999.99998453501
 21
-3790.000017526987
 31
0.0
  0
LINE
  5
7E
330
1F
100
AcDbEntity
  8
F-1_枠
  6
Continuous
 62
   200
370
    20
100
AcDbLine
 10
1204.8000851193
 20
4174.999769056166
 30
0.0
 11
1204.8000851193
 21
-3790.000179909372
 31
0.0
  0
LINE
  5
7F
330
1F
100
AcDbEntity
  8
F-1_枠
  6
Continuous
 62
   200
370
    20
100
AcDbLine
 10
-1026.799671069995
 20
4174.999769056166
 30
0.0
 11
-1026.799671069995
 21
-3790.000179909372
 31
0.0
  0
LINE
  5
80
330
1F
100
AcDbEntity
  8
F-1_枠
  6
Continuous
 62
   200
370
    20
100
AcDbLine
 10
3436.400212468328
 20
4174.999769056166
 30
0.0
 11
3436.400212468328
 21
-3790.000179909372
 31
0.0
  0
LINE
  5
81
330
1F
100
AcDbEntity
  8
F-1_枠
  6
Continuous
 62
   200
370
    20
100
AcDbLine
 10
-3258.399798419025
 20
4174.999769056166
 30
0.0
 11
-3258.399798419025
 21
-3790.000179909372
 31
0.0
  0
LINE
  5
82
330
1F
100
AcDbEntity
  8
0-4_枠
  6
Continuous
 62
    92
370
    13
100
AcDbLine
 10
-2441.799671069996
 20
1433.000148463893
 30
0.0
 11
-1711.799671069995
 21
1433.000148463893
 31
0.0
  0
LINE
  5
83
330
1F
100
AcDbEntity
  8
0-4_枠
  6
Continuous
 62
    92
370
    13
100
AcDbLine
 10
-2465.799671069994
 20
3465.000148463894
 30
0.0
 11
-1687.799671069996
 21
3465.000148463894
 31
0.0
  0
LINE
  5
84
330
1F
100
AcDbEntity
  8
0-4_枠
  6
Continuous
 62
    92
370
    13
100
AcDbLine
 10
-2441.799671069996
 20
3441.000148463893
 30
0.0
 11
-1711.799671069995
 21
3441.000148463893
 31
0.0
  0
LINE
  5
85
330
1F
100
AcDbEntity
  8
0-4_枠
  6
Continuous
 62
    92
370
    13
100
AcDbLine
 10
-1711.799671069995
 20
1418.000148463893
 30
0.0
 11
-1711.799671069995
 21
3441.000148463893
 31
0.0
  0
LINE
  5
86
330
1F
100
AcDbEntity
  8
0-4_枠
  6
Continuous
 62
    92
370
    13
100
AcDbLine
 10
-1687.799671069996
 20
1418.000148463893
 30
0.0
 11
-1687.799671069996
 21
3465.000148463894
 31
0.0
  0
LINE
  5
87
330
1F
100
AcDbEntity
  8
0-4_枠
  6
Continuous
 62
    92
370
    13
100
AcDbLine
 10
-2465.799671069994
 20
1418.000148463893
 30
0.0
 11
-1687.799671069996
 21
1418.000148463893
 31
0.0
  0
LWPOLYLINE
  5
88
330
1F
100
AcDbEntity
  8
0-B_寸法
  6
Continuous
 62
     7
370
     9
100
AcDbPolyline
 90
        4
 70
     1
 43
3.0
 10
1698.900212468327
 20
1443.000148463894
 42
0.4142135623731
 10
1697.400212468327
 20
1444.500148463894
 42
0.4142135623731
 10
1695.900212468327
 20
1443.000148463894
 42
0.4142135623731
 10
1697.400212468327
 20
1441.500148463894
 42
0.4142135623731
  0
LWPOLYLINE
  5
89
330
1F
100
AcDbEntity
  8
0-B_寸法
  6
Continuous
 62
     7
370
     9
100
AcDbPolyline
 90
        4
 70
     1
 43
3.0
 10
1698.900212468327
 20
3438.000148463894
 42
0.4142135623731
 10
1697.400212468327
 20
3439.500148463894
 42
0.4142135623731
 10
1695.900212468327
 20
3438.000148463894
 42
0.4142135623731
 10
1697.400212468327
 20
3436.500148463895
 42
0.4142135623731
  0
LWPOLYLINE
  5
8A
330
1F
100
AcDbEntity
  8
0-B_寸法
  6
Continuous
 62
     7
370
     9
100
AcDbPolyline
 90
        4
 70
     1
 43
3.0
 10
-532.6999148807008
 20
1443.000148463894
 42
0.4142135623731
 10
-534.1999148807008
 20
1444.500148463894
 42
0.4142135623731
 10
-535.6999148807008
 20
1443.000148463894
 42
0.4142135623731
 10
-534.1999148807008
 20
1441.500148463894
 42
0.4142135623731
  0
LWPOLYLINE
  5
8B
330
1F
100
AcDbEntity
  8
0-B_寸法
  6
Continuous
 62
     7
370
     9
100
AcDbPolyline
 90
        4
 70
     1
 43
3.0
 10
-532.6999148807008
 20
3438.000148463894
 42
0.4142135623731
 10
-534.1999148807008
 20
3439.500148463894
 42
0.4142135623731
 10
-535.6999148807008
 20
3438.000148463894
 42
0.4142135623731
 10
-534.1999148807008
 20
3436.500148463895
 42
0.4142135623731
  0
LWPOLYLINE
  5
8C
330
1F
100
AcDbEntity
  8
0-B_寸法
  6
Continuous
 62
     7
370
     9
100
AcDbPolyline
 90
        4
 70
     1
 43
3.0
 10
-2764.299671069994
 20
1443.000148463894
 42
0.4142135623731
 10
-2765.799671069994
 20
1444.500148463894
 42
0.4142135623731
 10
-2767.299671069994
 20
1443.000148463894
 42
0.4142135623731
 10
-2765.799671069994
 20
1441.500148463894
 42
0.4142135623731
  0
LWPOLYLINE
  5
8D
330
1F
100
AcDbEntity
  8
0-B_寸法
  6
Continuous
 62
     7
370
     9
100
AcDbPolyline
 90
        4
 70
     1
 43
3.0
 10
-2764.299671069994
 20
3438.000148463894
 42
0.4142135623731
 10
-2765.799671069994
 20
3439.500148463894
 42
0.4142135623731
 10
-2767.299671069994
 20
3438.000148463894
 42
0.4142135623731
 10
-2765.799671069994
 20
3436.500148463895
 42
0.4142135623731
  0
LINE
  5
8E
330
1F
100
AcDbEntity
  8
0-B_寸法
  6
Continuous
 62
   120
370
     5
100
AcDbLine
 10
1697.400212468327
 20
1443.000148463894
 30
0.0
 11
1947.400212468328
 21
1443.000148463894
 31
0.0
  0
LINE
  5
8F
330
1F
100
AcDbEntity
  8
0-B_寸法
  6
Continuous
 62
   120
370
     5
100
AcDbLine
 10
1697.400212468327
 20
3438.000148463894
 30
0.0
 11
1947.400212468328
 21
3438.000148463894
 31
0.0
  0
LINE
  5
90
330
1F
100
AcDbEntity
  8
0-B_寸法
  6
Continuous
 62
   120
370
     5
100
AcDbLine
 10
1697.400212468327
 20
3438.000148463894
 30
0.0
 11
1697.400212468327
 21
1443.000148463894
 31
0.0
  0
LINE
  5
91
330
1F
100
AcDbEntity
  8
0-B_寸法
  6
Continuous
 62
   120
370
     5
100
AcDbLine
 10
-534.1999148807008
 20
1443.000148463894
 30
0.0
 11
-284.1999148807014
 21
1443.000148463894
 31
0.0
  0
LINE
  5
92
330
1F
100
AcDbEntity
  8
0-B_寸法
  6
Continuous
 62
   120
370
     5
100
AcDbLine
 10
-534.1999148807008
 20
3438.000148463894
 30
0.0
 11
-284.1999148807014
 21
3438.000148463894
 31
0.0
  0
LINE
  5
93
330
1F
100
AcDbEntity
  8
0-B_寸法
  6
Continuous
 62
   120
370
     5
100
AcDbLine
 10
-534.1999148807008
 20
3438.000148463894
 30
0.0
 11
-534.1999148807008
 21
1443.000148463894
 31
0.0
  0
LINE
  5
94
330
1F
100
AcDbEntity
  8
0-B_寸法
  6
Continuous
 62
   120
370
     5
100
AcDbLine
 10
-2765.799671069994
 20
1443.000148463894
 30
0.0
 11
-2515.799671069997
 21
1443.000148463894
 31
0.0
  0
LINE
  5
95
330
1F
100
AcDbEntity
  8
0-B_寸法
  6
Continuous
 62
   120
370
     5
100
AcDbLine
 10
-2765.799671069994
 20
3438.000148463894
 30
0.0
 11
-2515.799671069997
 21
3438.000148463894
 31
0.0
  0
LINE
  5
96
330
1F
100
AcDbEntity
  8
0-B_寸法
  6
Continuous
 62
   120
370
     5
100
AcDbLine
 10
-2765.799671069994
 20
3438.000148463894
 30
0.0
 11
-2765.799671069994
 21
1443.000148463894
 31
0.0
  0
LINE
  5
97
330
1F
100
AcDbEntity
  8
0-4_枠
  6
Continuous
 62
    92
370
    13
100
AcDbLine
 10
2021.400212468329
 20
1433.000148463893
 30
0.0
 11
2708.400212468328
 21
1433.000148463893
 31
0.0
  0
LINE
  5
98
330
1F
100
AcDbEntity
  8
0-4_枠
  6
Continuous
 62
    92
370
    13
100
AcDbLine
 10
1997.400212468327
 20
3465.000148463894
 30
0.0
 11
2732.400212468327
 21
3465.000148463894
 31
0.0
  0
LINE
  5
99
330
1F
100
AcDbEntity
  8
0-4_枠
  6
Continuous
 62
    92
370
    13
100
AcDbLine
 10
2021.400212468329
 20
3441.000148463893
 30
0.0
 11
2708.400212468328
 21
3441.000148463893
 31
0.0
  0
LINE
  5
9A
330
1F
100
AcDbEntity
  8
0-4_枠
  6
Continuous
 62
    92
370
    13
100
AcDbLine
 10
2708.400212468328
 20
1418.000148463893
 30
0.0
 11
2708.400212468328
 21
3441.000148463893
 31
0.0
  0
LINE
  5
9B
330
1F
100
AcDbEntity
  8
0-4_枠
  6
Continuous
 62
    92
370
    13
100
AcDbLine
 10
2732.400212468327
 20
1418.000148463893
 30
0.0
 11
2732.400212468327
 21
3465.000148463894
 31
0.0
  0
LINE
  5
9C
330
1F
100
AcDbEntity
  8
0-4_枠
  6
Continuous
 62
    92
370
    13
100
AcDbLine
 10
1997.400212468327
 20
1418.000148463893
 30
0.0
 11
2732.400212468327
 21
1418.000148463893
 31
0.0
  0
LINE
  5
9D
330
1F
100
AcDbEntity
  8
0-4_枠
  6
Continuous
 62
    92
370
    13
100
AcDbLine
 10
1997.400212468327
 20
1418.000148463893
 30
0.0
 11
1997.400212468327
 21
3465.000148463894
 31
0.0
  0
LINE
  5
9E
330
1F
100
AcDbEntity
  8
0-4_枠
  6
Continuous
 62
    92
370
    13
100
AcDbLine
 10
2021.400212468329
 20
1418.000148463893
 30
0.0
 11
2021.400212468329
 21
3441.000148463893
 31
0.0
  0
LINE
  5
9F
330
1F
100
AcDbEntity
  8
0-4_枠
  6
Continuous
 62
    92
370
    13
100
AcDbLine
 10
-210.1999148807005
 20
1433.000148463893
 30
0.0
 11
499.8000851192984
 21
1433.000148463893
 31
0.0
  0
LINE
  5
A0
330
1F
100
AcDbEntity
  8
0-4_枠
  6
Continuous
 62
    92
370
    13
100
AcDbLine
 10
-234.1999148807008
 20
3465.000148463894
 30
0.0
 11
523.8000851192996
 21
3465.000148463894
 31
0.0
  0
LINE
  5
A1
330
1F
100
AcDbEntity
  8
0-4_枠
  6
Continuous
 62
    92
370
    13
100
AcDbLine
 10
-210.1999148807005
 20
3441.000148463893
 30
0.0
 11
499.8000851192984
 21
3441.000148463893
 31
0.0
  0
LINE
  5
A2
330
1F
100
AcDbEntity
  8
0-4_枠
  6
Continuous
 62
    92
370
    13
100
AcDbLine
 10
499.8000851192984
 20
1418.000148463893
 30
0.0
 11
499.8000851192984
 21
3441.000148463893
 31
0.0
  0
LINE
  5
A3
330
1F
100
AcDbEntity
  8
0-4_枠
  6
Continuous
 62
    92
370
    13
100
AcDbLine
 10
523.8000851192996
 20
1418.000148463893
 30
0.0
 11
523.8000851192996
 21
3465.000148463894
 31
0.0
  0
LINE
  5
A4
330
1F
100
AcDbEntity
  8
0-4_枠
  6
Continuous
 62
    92
370
    13
100
AcDbLine
 10
-234.1999148807008
 20
1418.000148463893
 30
0.0
 11
523.8000851192996
 21
1418.000148463893
 31
0.0
  0
LINE
  5
A5
330
1F
100
AcDbEntity
  8
0-4_枠
  6
Continuous
 62
    92
370
    13
100
AcDbLine
 10
-234.1999148807008
 20
1418.000148463893
 30
0.0
 11
-234.1999148807008
 21
3465.000148463894
 31
0.0
  0
LINE
  5
A6
330
1F
100
AcDbEntity
  8
0-4_枠
  6
Continuous
 62
    92
370
    13
100
AcDbLine
 10
-210.1999148807005
 20
1418.000148463893
 30
0.0
 11
-210.1999148807005
 21
3441.000148463893
 31
0.0
  0
LINE
  5
A7
330
1F
100
AcDbEntity
  8
0-4_枠
  6
Continuous
 62
    92
370
    13
100
AcDbLine
 10
-2465.799671069994
 20
1418.000148463893
 30
0.0
 11
-2465.799671069994
 21
3465.000148463894
 31
0.0
  0
LINE
  5
A8
330
1F
100
AcDbEntity
  8
0-4_枠
  6
Continuous
 62
    92
370
    13
100
AcDbLine
 10
-2441.799671069996
 20
1418.000148463893
 30
0.0
 11
-2441.799671069996
 21
3441.000148463893
 31
0.0
  0
LWPOLYLINE
  5
A9
330
1F
100
AcDbEntity
  8
0-B_寸法
  6
Continuous
 62
     7
370
     9
100
AcDbPolyline
 90
        4
 70
     1
 43
3.0
 10
-1712.299671069996
 20
1168.000148463894
 42
0.4142135623731
 10
-1713.799671069996
 20
1169.500148463894
 42
0.4142135623731
 10
-1715.299671069996
 20
1168.000148463894
 42
0.4142135623731
 10
-1713.799671069996
 20
1166.500148463894
 42
0.4142135623731
  0
LINE
  5
AA
330
1F
100
AcDbEntity
  8
0-B_寸法
  6
Continuous
 62
   120
370
     5
100
AcDbLine
 10
-1713.799671069996
 20
1168.000148463894
 30
0.0
 11
-1713.799671069996
 21
1368.000148463894
 31
0.0
  0
LINE
  5
AB
330
1F
100
AcDbEntity
  8
0-B_寸法
  6
Continuous
 62
   120
370
     5
100
AcDbLine
 10
-2436.799671069995
 20
1168.000148463894
 30
0.0
 11
-1713.799671069996
 21
1168.000148463894
 31
0.0
  0
LWPOLYLINE
  5
AC
330
1F
100
AcDbEntity
  8
0-B_寸法
  6
Continuous
 62
     7
370
     9
100
AcDbPolyline
 90
        4
 70
     1
 43
3.0
 10
2707.900212468327
 20
1168.000148463894
 42
0.4142135623731
 10
2706.400212468327
 20
1169.500148463894
 42
0.4142135623731
 10
2704.900212468327
 20
1168.000148463894
 42
0.4142135623731
 10
2706.400212468327
 20
1166.500148463894
 42
0.4142135623731
  0
LWPOLYLINE
  5
AD
330
1F
100
AcDbEntity
  8
0-B_寸法
  6
Continuous
 62
     7
370
     9
100
AcDbPolyline
 90
        4
 70
     1
 43
3.0
 10
2027.900212468328
 20
1168.000148463894
 42
0.4142135623731
 10
2026.400212468328
 20
1169.500148463894
 42
0.4142135623731
 10
2024.900212468328
 20
1168.000148463894
 42
0.4142135623731
 10
2026.400212468328
 20
1166.500148463894
 42
0.4142135623731
  0
LWPOLYLINE
  5
AE
330
1F
100
AcDbEntity
  8
0-B_寸法
  6
Continuous
 62
     7
370
     9
100
AcDbPolyline
 90
        4
 70
     1
 43
3.0
 10
499.3000851192985
 20
1168.000148463894
 42
0.4142135623731
 10
497.8000851192985
 20
1169.500148463894
 42
0.4142135623731
 10
496.3000851192985
 20
1168.000148463894
 42
0.4142135623731
 10
497.8000851192985
 20
1166.500148463894
 42
0.4142135623731
  0
LWPOLYLINE
  5
AF
330
1F
100
AcDbEntity
  8
0-B_寸法
  6
Continuous
 62
     7
370
     9
100
AcDbPolyline
 90
        4
 70
     1
 43
3.0
 10
-203.6999148806999
 20
1168.000148463894
 42
0.4142135623731
 10
-205.1999148806999
 20
1169.500148463894
 42
0.4142135623731
 10
-206.6999148806999
 20
1168.000148463894
 42
0.4142135623731
 10
-205.1999148806999
 20
1166.500148463894
 42
0.4142135623731
  0
LWPOLYLINE
  5
B0
330
1F
100
AcDbEntity
  8
0-B_寸法
  6
Continuous
 62
     7
370
     9
100
AcDbPolyline
 90
        4
 70
     1
 43
3.0
 10
-2435.299671069995
 20
1168.000148463894
 42
0.4142135623731
 10
-2436.799671069995
 20
1169.500148463894
 42
0.4142135623731
 10
-2438.299671069995
 20
1168.000148463894
 42
0.4142135623731
 10
-2436.799671069995
 20
1166.500148463894
 42
0.4142135623731
  0
LINE
  5
B1
330
1F
100
AcDbEntity
  8
0-B_寸法
  6
Continuous
 62
   120
370
     5
100
AcDbLine
 10
2706.400212468327
 20
1168.000148463894
 30
0.0
 11
2706.400212468327
 21
1368.000148463894
 31
0.0
  0
LINE
  5
B2
330
1F
100
AcDbEntity
  8
0-B_寸法
  6
Continuous
 62
   120
370
     5
100
AcDbLine
 10
2026.400212468328
 20
1168.000148463894
 30
0.0
 11
2706.400212468327
 21
1168.000148463894
 31
0.0
  0
LINE
  5
B3
330
1F
100
AcDbEntity
  8
0-B_寸法
  6
Continuous
 62
   120
370
     5
100
AcDbLine
 10
2026.400212468328
 20
1168.000148463894
 30
0.0
 11
2026.400212468328
 21
1368.000148463894
 31
0.0
  0
LINE
  5
B4
330
1F
100
AcDbEntity
  8
0-B_寸法
  6
Continuous
 62
   120
370
     5
100
AcDbLine
 10
497.8000851192985
 20
1168.000148463894
 30
0.0
 11
497.8000851192985
 21
1368.000148463894
 31
0.0
  0
LINE
  5
B5
330
1F
100
AcDbEntity
  8
0-B_寸法
  6
Continuous
 62
   120
370
     5
100
AcDbLine
 10
-205.1999148806999
 20
1168.000148463894
 30
0.0
 11
497.8000851192985
 21
1168.000148463894
 31
0.0
  0
LINE
  5
B6
330
1F
100
AcDbEntity
  8
0-B_寸法
  6
Continuous
 62
   120
370
     5
100
AcDbLine
 10
-205.1999148806999
 20
1168.000148463894
 30
0.0
 11
-205.1999148806999
 21
1368.000148463894
 31
0.0
  0
LINE
  5
B7
330
1F
100
AcDbEntity
  8
0-B_寸法
  6
Continuous
 62
   120
370
     5
100
AcDbLine
 10
-2436.799671069995
 20
1168.000148463894
 30
0.0
 11
-2436.799671069995
 21
1368.000148463894
 31
0.0
  0
LINE
  5
B8
330
1F
100
AcDbEntity
  8
0-0_補助線
  6
JWW_HOJO
 62
     7
370
     9
100
AcDbLine
 10
-4697.399798419023
 20
3964.999818544131
 30
0.0
 11
-4697.399798419023
 21
-3790.000179909372
 31
0.0
  0
LINE
  5
B9
330
1F
100
AcDbEntity
  8
0-0_補助線
  6
JWW_HOJO
 62
   120
370
     5
100
AcDbLine
 10
-4747.399798419023
 20
3964.999818544131
 30
0.0
 11
-4747.399798419023
 21
-3790.000179909372
 31
0.0
  0
LINE
  5
BA
330
1F
100
AcDbEntity
  8
0-0_補助線
  6
JWW_HOJO
 62
     7
370
     9
100
AcDbLine
 10
-2465.799671069994
 20
3964.999818544131
 30
0.0
 11
-2465.799671069994
 21
-3790.000179909372
 31
0.0
  0
LINE
  5
BB
330
1F
100
AcDbEntity
  8
0-0_補助線
  6
JWW_HOJO
 62
   120
370
     5
100
AcDbLine
 10
-2515.799671069995
 20
3964.999818544131
 30
0.0
 11
-2515.799671069995
 21
-3790.000179909372
 31
0.0
  0
LINE
  5
BC
330
1F
100
AcDbEntity
  8
0-0_補助線
  6
JWW_HOJO
 62
     7
370
     9
100
AcDbLine
 10
-234.1999148807008
 20
3964.999818544131
 30
0.0
 11
-234.1999148807008
 21
-3790.000179909372
 31
0.0
  0
LINE
  5
BD
330
1F
100
AcDbEntity
  8
0-0_補助線
  6
JWW_HOJO
 62
   120
370
     5
100
AcDbLine
 10
-284.1999148807014
 20
3964.999818544131
 30
0.0
 11
-284.1999148807014
 21
-3790.000179909372
 31
0.0
  0
LINE
  5
BE
330
1F
100
AcDbEntity
  8
0-0_補助線
  6
JWW_HOJO
 62
     7
370
     9
100
AcDbLine
 10
1997.400212468327
 20
3964.999818544131
 30
0.0
 11
1997.400212468327
 21
-3790.000179909372
 31
0.0
  0
LINE
  5
BF
330
1F
100
AcDbEntity
  8
0-0_補助線
  6
JWW_HOJO
 62
   120
370
     5
100
AcDbLine
 10
1947.400212468327
 20
3964.999818544131
 30
0.0
 11
1947.400212468327
 21
-3790.000179909372
 31
0.0
  0
LINE
  5
C0
330
1F
100
AcDbEntity
  8
F-A_文字
  6
Continuous
 62
     7
370
     9
100
AcDbLine
 10
3436.400212468328
 20
-3790.000017526987
 30
0.0
 11
5689.998977248734
 21
184.5000148463899
 31
0.0
  0
LINE
  5
C1
330
1F
100
AcDbEntity
  8
F-A_文字
  6
Continuous
 62
     7
370
     9
100
AcDbLine
 10
3436.400212468328
 20
190.499951130636
 30
0.0
 11
5689.998977248734
 21
4164.999983504013
 31
0.0
  0
MTEXT
  5
C2
330
1F
100
AcDbEntity
  8
0-B_寸法
  6
Continuous
 62
     7
370
    70
100
AcDbMText
 10
-2780.799671069994
 20
2225.325148463893
 30
0.0
 40
57.14999999999999
 41
412.5
 46
0.0
 71
     7
 72
     1
  1
{\fＭＳ ゴシック|b0|i0|c128|p49;ＤＨ＝1,995}
 11
6.123031769111886E-17
 21
1.0
 31
0.0
 73
     1
 44
1.0
  0
MTEXT
  5
C3
330
1F
100
AcDbEntity
  8
0-B_寸法
  6
Continuous
 62
     7
370
    70
100
AcDbMText
 10
-549.1999148807008
 20
2225.325148463893
 30
0.0
 40
57.14999999999999
 41
412.5
 46
0.0
 71
     7
 72
     1
  1
{\fＭＳ ゴシック|b0|i0|c128|p49;ＤＨ＝1,995}
 11
6.123031769111886E-17
 21
1.0
 31
0.0
 73
     1
 44
1.0
  0
MTEXT
  5
C4
330
1F
100
AcDbEntity
  8
0-B_寸法
  6
Continuous
 62
     7
370
    70
100
AcDbMText
 10
1682.400212468327
 20
2225.325148463893
 30
0.0
 40
57.14999999999999
 41
412.5
 46
0.0
 71
     7
 72
     1
  1
{\fＭＳ ゴシック|b0|i0|c128|p49;ＤＨ＝1,995}
 11
6.123031769111886E-17
 21
1.0
 31
0.0
 73
     1
 44
1.0
  0
MTEXT
  5
C5
330
1F
100
AcDbEntity
  8
0-B_寸法
  6
Continuous
 62
     7
370
    70
100
AcDbMText
 10
-2244.549671069994
 20
1174.075148463894
 30
0.0
 40
57.15
 41
337.5
 46
0.0
 71
     7
 72
     1
  1
{\fＭＳ ゴシック|b0|i0|c128|p49;ＤＷ＝723}
 73
     1
 44
1.0
  0
MTEXT
  5
C6
330
1F
100
AcDbEntity
  8
0-B_寸法
  6
Continuous
 62
     7
370
    70
100
AcDbMText
 10
-22.4499148807007
 20
1174.075148463894
 30
0.0
 40
57.15
 41
337.5
 46
0.0
 71
     7
 72
     1
  1
{\fＭＳ ゴシック|b0|i0|c128|p49;ＤＷ＝703}
 73
     1
 44
1.0
  0
MTEXT
  5
C7
330
1F
100
AcDbEntity
  8
0-B_寸法
  6
Continuous
 62
     7
370
    70
100
AcDbMText
 10
2197.650212468327
 20
1174.075148463894
 30
0.0
 40
57.15
 41
337.5
 46
0.0
 71
     7
 72
     1
  1
{\fＭＳ ゴシック|b0|i0|c128|p49;ＤＷ＝680}
 73
     1
 44
1.0
  0
MTEXT
  5
C8
330
1F
100
AcDbEntity
  8
F-A_文字
  6
Continuous
 62
     7
370
     9
100
AcDbMText
 10
-5890.000004381747
 20
4018.575148463894
 30
0.0
 40
57.15
 41
300.0
 46
0.0
 71
     7
 72
     1
  1
{\fＭＳ ゴシック|b0|i0|c128|p49;デザイン}
 73
     1
 44
1.0
  0
MTEXT
  5
C9
330
1F
100
AcDbEntity
  8
F-A_文字
  6
Continuous
 62
     7
370
     9
100
AcDbMText
 10
-5852.500004381747
 20
2031.325062684755
 30
0.0
 40
57.15
 41
225.0
 46
0.0
 71
     7
 72
     1
  1
{\fＭＳ ゴシック|b0|i0|c128|p49;姿　図}
 73
     1
 44
1.0
  0
MTEXT
  5
CA
330
1F
100
AcDbEntity
  8
F-A_文字
  6
Continuous
 62
     7
370
     9
100
AcDbMText
 10
-5890.000004381747
 20
38.07493236644844
 30
0.0
 40
57.15
 41
300.0
 46
0.0
 71
     7
 72
     1
  1
{\fＭＳ ゴシック|b0|i0|c128|p49;デザイン}
 73
     1
 44
1.0
  0
MTEXT
  5
CB
330
1F
100
AcDbEntity
  8
F-A_文字
  6
Continuous
 62
     7
370
     9
100
AcDbMText
 10
-5852.500004381747
 20
-1949.175091552734
 30
0.0
 40
57.15
 41
225.0
 46
0.0
 71
     7
 72
     1
  1
{\fＭＳ ゴシック|b0|i0|c128|p49;姿　図}
 73
     1
 44
1.0
  0
MTEXT
  5
CC
330
1F
100
AcDbEntity
  8
F-A_文字
  6
Continuous
 62
     7
370
     0
100
AcDbMText
 10
-60.0001237199109
 20
-3887.139820871936
 30
0.0
 40
45.72
 41
180.0
 46
0.0
 71
     7
 72
     1
  1
{\fＭＳ ゴシック|b0|i0|c128|p49;図面名}
 73
     1
 44
1.0
  0
MTEXT
  5
CD
330
1F
100
AcDbEntity
  8
F-A_文字
  6
Continuous
 62
     7
370
     0
100
AcDbMText
 10
2779.998729808911
 20
-3887.142460617774
 30
0.0
 40
45.72
 41
300.0
 46
0.0
 71
     7
 72
     1
  1
{\fＭＳ ゴシック|b0|i0|c128|p49;ＳＣＡＬＥ}
 73
     1
 44
1.0
  0
MTEXT
  5
CE
330
1F
100
AcDbEntity
  8
F-A_文字
  6
Continuous
 62
     7
370
     0
100
AcDbMText
 10
4279.999224688556
 20
-3887.143854850754
 30
0.0
 40
45.72
 41
240.0
 46
0.0
 71
     7
 72
     1
  1
{\fＭＳ ゴシック|b0|i0|c128|p49;ＤＡＴＥ}
 73
     1
 44
1.0
  0
MTEXT
  5
CF
330
1F
100
AcDbEntity
  8
F-A_文字
  6
Continuous
 62
     7
370
     0
100
AcDbMText
 10
1180.417701903719
 20
-3946.423911599839
 30
0.0
 40
77.15249999999999
 41
405.0
 46
0.0
 71
     7
 72
     1
  1
{\fＭＳ ゴシック|b0|i0|c128|p49;建具姿図}
 73
     1
 44
1.0
  0
MTEXT
  5
D0
330
1F
100
AcDbEntity
  8
F-A_文字
  6
Continuous
 62
     7
370
     0
100
AcDbMText
 10
349.9999175200594
 20
-3946.496666872502
 30
0.0
 40
78.58125
 41
412.5
 46
0.0
 71
     7
 72
     1
  1
{\fＭＳ ゴシック|b0|i0|c128|p49;DOORETUS}
 73
     1
 44
1.0
  0
MTEXT
  5
D1
330
1F
100
AcDbEntity
  8
F-A_文字
  6
Continuous
 62
     7
370
     0
100
AcDbMText
 10
2779.998729808911
 20
-4087.14246317786
 30
0.0
 40
45.72
 41
240.0
 46
0.0
 71
     7
 72
     1
  1
{\fＭＳ ゴシック|b0|i0|c128|p49;ＦＩＬＥ}
 73
     1
 44
1.0
  0
MTEXT
  5
D2
330
1F
100
AcDbEntity
  8
F-A_文字
  6
Continuous
 62
     7
370
     0
100
AcDbMText
 10
4279.999224688556
 20
-4087.143857410839
 30
0.0
 40
45.72
 41
180.0
 46
0.0
 71
     7
 72
     1
  1
{\fＭＳ ゴシック|b0|i0|c128|p49;ＮＯ．}
 73
     1
 44
1.0
  0
MTEXT
  5
D3
330
1F
100
AcDbEntity
  8
F-A_文字
  6
Continuous
 62
     7
370
     0
100
AcDbMText
 10
1234.998729808911
 20
-4096.140669266149
 30
0.0
 40
45.72
 41
120.0
 46
0.0
 71
     7
 72
     1
  1
{\fＭＳ ゴシック|b0|i0|c128|p49;株式}
 73
     1
 44
1.0
  0
MTEXT
  5
D4
330
1F
100
AcDbEntity
  8
F-A_文字
  6
Continuous
 62
     7
370
     9
100
AcDbMText
 10
4936.249033580831
 20
-4147.857012699985
 30
0.0
 40
74.295
 41
97.5
 46
0.0
 71
     7
 72
     1
  1
{\fＭＳ ゴシック|b0|i0|c128|p49;01}
 73
     1
 44
1.0
  0
MTEXT
  5
D5
330
1F
100
AcDbEntity
  8
F-A_文字
  6
Continuous
 62
     7
370
     0
100
AcDbMText
 10
1444.998729808911
 20
-4164.281754523929
 30
0.0
 40
101.44125
 41
1065.0
 46
0.0
 71
     7
 72
     1
  1
{\fＭＳ ゴシック|b0|i0|c128|p49;ウッドワン・・・}
 73
     1
 44
1.0
  0
MTEXT
  5
D6
330
1F
100
AcDbEntity
  8
F-A_文字
  6
Continuous
 62
     7
370
     0
100
AcDbMText
 10
1234.998729808911
 20
-4168.140669266187
 30
0.0
 40
45.72
 41
120.0
 46
0.0
 71
     7
 72
     1
  1
{\fＭＳ ゴシック|b0|i0|c128|p49;会社}
 73
     1
 44
1.0
  0
MTEXT
  5
D7
330
1F
100
AcDbEntity
  8
F-A_文字
  6
Continuous
 62
     7
370
     0
100
AcDbMText
 10
5608.403311109712
 20
-4314.841419020919
 30
0.0
 40
68.58
 41
90.0
 46
0.0
 71
     7
 72
     1
  1
{\fＭＳ ゴシック|b0|i0|c128|p49;）}
 73
     1
 44
1.0
  0
MTEXT
  5
D8
330
1F
100
AcDbEntity
  8
F-A_文字
  6
Continuous
 62
     7
370
     0
100
AcDbMText
 10
5190.195950842071
 20
-4316.235443869856
 30
0.0
 40
68.58
 41
45.0
 46
0.0
 71
     7
 72
     1
  1
{\fＭＳ ゴシック|b0|i0|c128|p49;,}
 73
     1
 44
1.0
  0
MTEXT
  5
D9
330
1F
100
AcDbEntity
  8
F-A_文字
  6
Continuous
 62
     7
370
     0
100
AcDbMText
 10
4923.937261915373
 20
-4314.771967288282
 30
0.0
 40
74.295
 41
97.5
 46
0.0
 71
     7
 72
     1
  1
{\fＭＳ ゴシック|b0|i0|c128|p49;$y}
 73
     1
 44
1.0
  0
MTEXT
  5
DA
330
1F
100
AcDbEntity
  8
F-A_文字
  6
Continuous
 62
     7
370
     0
100
AcDbMText
 10
5078.673982954195
 20
-4314.771967288282
 30
0.0
 40
74.295
 41
97.5
 46
0.0
 71
     7
 72
     1
  1
{\fＭＳ ゴシック|b0|i0|c128|p49;$m}
 73
     1
 44
1.0
  0
MTEXT
  5
DB
330
1F
100
AcDbEntity
  8
F-A_文字
  6
Continuous
 62
     7
370
     0
100
AcDbMText
 10
5233.410715437103
 20
-4314.771967288282
 30
0.0
 40
74.295
 41
97.5
 46
0.0
 71
     7
 72
     1
  1
{\fＭＳ ゴシック|b0|i0|c128|p49;$d}
 73
     1
 44
1.0
  0
MTEXT
  5
DC
330
1F
100
AcDbEntity
  8
F-A_文字
  6
Continuous
 62
     7
370
     0
100
AcDbMText
 10
5388.147447920011
 20
-4314.771967288282
 30
0.0
 40
74.295
 41
195.0
 46
0.0
 71
     7
 72
     1
  1
{\fＭＳ ゴシック|b0|i0|c128|p49;印刷}
 73
     1
 44
1.0
  0
MTEXT
  5
DD
330
1F
100
AcDbEntity
  8
F-A_文字
  6
Continuous
 62
     7
370
     0
100
AcDbMText
 10
4784.033374252999
 20
-4319.023493567732
 30
0.0
 40
68.58
 41
90.0
 46
0.0
 71
     7
 72
     1
  1
{\fＭＳ ゴシック|b0|i0|c128|p49;（}
 73
     1
 44
1.0
  0
MTEXT
  5
DE
330
1F
100
AcDbEntity
  8
F-A_文字
  6
Continuous
 62
     7
370
     0
100
AcDbMText
 10
5031.277143812345
 20
-4319.023493567732
 30
0.0
 40
68.58
 41
45.0
 46
0.0
 71
     7
 72
     1
  1
{\fＭＳ ゴシック|b0|i0|c128|p49;,}
 73
     1
 44
1.0
  0
LINE
  5
DF
330
1F
100
AcDbEntity
  8
0-0_補助線
  6
JWW_HOJO
 62
   120
370
     5
100
AcDbLine
 10
-5999.99998453501
 20
550.5001831054688
 30
0.0
 11
5699.998762800888
 21
550.5001831054688
 31
0.0
  0
LINE
  5
E0
330
1F
100
AcDbEntity
  8
0-0_補助線
  6
JWW_HOJO
 62
   120
370
     5
100
AcDbLine
 10
-5999.99998453501
 20
430.5001831054688
 30
0.0
 11
5699.998762800888
 21
430.5001831054688
 31
0.0
  0
LINE
  5
E1
330
1F
100
AcDbEntity
  8
0-0_補助線
  6
JWW_HOJO
 62
   120
370
     5
100
AcDbLine
 10
-5999.99998453501
 20
310.5001831054688
 30
0.0
 11
5699.998762800888
 21
310.5001831054688
 31
0.0
  0
LINE
  5
E2
330
1F
100
AcDbEntity
  8
0-0_補助線
  6
JWW_HOJO
 62
   120
370
     5
100
AcDbLine
 10
-906.7996710699953
 20
4174.999769056166
 30
0.0
 11
-906.7996710699953
 21
-3790.000179909371
 31
0.0
  0
LINE
  5
E3
330
1F
100
AcDbEntity
  8
0-0_補助線
  6
JWW_HOJO
 62
   120
370
     5
100
AcDbLine
 10
1324.8000851193
 20
4174.999769056166
 30
0.0
 11
1324.8000851193
 21
-3790.000179909371
 31
0.0
  0
LINE
  5
E4
330
1F
100
AcDbEntity
  8
0-0_補助線
  6
JWW_HOJO
 62
   120
370
     5
100
AcDbLine
 10
3556.400212468328
 20
4174.999769056166
 30
0.0
 11
3556.400212468328
 21
-3790.000179909371
 31
0.0
  0
LINE
  5
E5
330
1F
100
AcDbEntity
  8
0-0_補助線
  6
JWW_HOJO
 62
   120
370
     5
100
AcDbLine
 10
5699.998762800888
 20
-3310.000017526988
 30
0.0
 11
-5999.99998453501
 21
-3310.000017526988
 31
0.0
  0
LINE
  5
E6
330
1F
100
AcDbEntity
  8
0-0_補助線
  6
JWW_HOJO
 62
   120
370
     5
100
AcDbLine
 10
5699.998762800888
 20
-3430.000017526988
 30
0.0
 11
-5999.99998453501
 21
-3430.000017526988
 31
0.0
  0
LINE
  5
E7
330
1F
100
AcDbEntity
  8
0-0_補助線
  6
JWW_HOJO
 62
   120
370
     5
100
AcDbLine
 10
5699.998762800888
 20
-3550.000017526988
 30
0.0
 11
-5999.99998453501
 21
-3550.000017526988
 31
0.0
  0
LINE
  5
E8
330
1F
100
AcDbEntity
  8
0-0_補助線
  6
JWW_HOJO
 62
   120
370
     5
100
AcDbLine
 10
5699.998762800888
 20
-3670.000017526988
 30
0.0
 11
-5999.99998453501
 21
-3670.000017526988
 31
0.0
  0
LINE
  5
E9
330
1F
100
AcDbEntity
  8
0-0_補助線
  6
JWW_HOJO
 62
   120
370
     5
100
AcDbLine
 10
-5370.000018557986
 20
4174.999769056166
 30
0.0
 11
-5370.000018557986
 21
-3790.000179909371
 31
0.0
  0
MTEXT
  5
EA
330
1F
100
AcDbEntity
  8
0-A_文字
  6
Continuous
 62
     7
370
     9
100
AcDbMText
 10
-3138.399798419025
 20
661.5751831054688
 30
0.0
 40
57.15000000000003
 41
900.0
 46
0.0
 71
     7
 72
     1
  1
{\fＭＳ ゴシック|b0|i0|c128|p49;枠外幅 778mm（DW=723mm）}
 73
     1
 44
1.0
  0
MTEXT
  5
EB
330
1F
100
AcDbEntity
  8
0-A_文字
  6
Continuous
 62
     7
370
     9
100
AcDbMText
 10
-906.7996710699953
 20
661.5751831054688
 30
0.0
 40
57.15000000000003
 41
900.0
 46
0.0
 71
     7
 72
     1
  1
{\fＭＳ ゴシック|b0|i0|c128|p49;枠外幅 758mm（DW=703mm）}
 73
     1
 44
1.0
  0
MTEXT
  5
EC
330
1F
100
AcDbEntity
  8
0-A_文字
  6
Continuous
 62
     7
370
     9
100
AcDbMText
 10
1324.8000851193
 20
661.5751831054688
 30
0.0
 40
57.15000000000003
 41
900.0
 46
0.0
 71
     7
 72
     1
  1
{\fＭＳ ゴシック|b0|i0|c128|p49;枠外幅 735mm（DW=680mm）}
 73
     1
 44
1.0
  0
MTEXT
  5
ED
330
1F
100
AcDbEntity
  8
F-A_文字
  6
Continuous
 62
     7
370
     0
100
AcDbMText
 10
3383.748977248734
 20
-3946.426865907308
 30
0.0
 40
77.15249999999999
 41
202.5
 46
0.0
 71
     7
 72
     1
  1
{\fＭＳ ゴシック|b0|i0|c128|p49;1/30}
 73
     1
 44
1.0
  0
MTEXT
  5
EE
330
1F
100
AcDbEntity
  8
F-A_文字
  6
Continuous
 62
     7
370
     0
100
AcDbMText
 10
4778.749126529666
 20
-3938.071010139966
 30
0.0
 40
78.86699999999999
 41
517.5
 46
0.0
 71
     7
 72
     1
  1
{\fＭＳ ゴシック|b0|i0|c128|p49;2021.04.01}
 73
     1
 44
1.0
  0
LINE
  5
EF
330
1F
100
AcDbEntity
  8
レバー
  6
JWW_CENTER1
 62
   120
370
     5
100
AcDbLine
 10
2123.702391011367
 20
2400.500247439824
 30
0.0
 11
2040.676439273515
 21
2400.500247439824
 31
0.0
  0
LINE
  5
F0
330
1F
100
AcDbEntity
  8
レバー
  6
JWW_CENTER1
 62
   120
370
     5
100
AcDbLine
 10
2076.900212468328
 20
2456.957208033614
 30
0.0
 11
2076.900212468328
 21
2357.11345474535
 31
0.0
  0
LINE
  5
F1
330
1F
100
AcDbEntity
  8
レバー
  6
Continuous
 62
     7
370
     0
100
AcDbLine
 10
2192.400133611328
 20
2407.500234151723
 30
0.0
 11
2183.324834706028
 21
2407.500114011124
 31
0.0
  0
LINE
  5
F2
330
1F
100
AcDbEntity
  8
レバー
  6
Continuous
 62
     7
370
     0
100
AcDbLine
 10
2183.324834706028
 20
2407.500114011124
 30
0.0
 11
2182.924388350628
 21
2407.500100041324
 31
0.0
  0
ARC
  5
F3
330
1F
100
AcDbEntity
  8
レバー
  6
Continuous
 62
     7
370
     0
100
AcDbCircle
 10
2192.400212468328
 20
2395.000247177223
 30
0.0
 40
1.500000000000118
100
AcDbArc
 50
270.164192293
 51
0.000004253700026
  0
ARC
  5
F4
330
1F
100
AcDbEntity
  8
レバー
  6
Continuous
 62
     7
370
     0
100
AcDbCircle
 10
2192.400212468328
 20
2406.000247750823
 30
0.0
 40
1.500000000000029
100
AcDbArc
 50
0.0084663275
 51
89.9162980715
  0
LINE
  5
F5
330
1F
100
AcDbEntity
  8
レバー
  6
Continuous
 62
     7
370
     0
100
AcDbLine
 10
2081.918590144928
 20
2393.514131380724
 30
0.0
 11
2082.050891501528
 21
2393.507340642224
 31
0.0
  0
LINE
  5
F6
330
1F
100
AcDbEntity
  8
レバー
  6
Continuous
 62
     7
370
     0
100
AcDbLine
 10
2082.050891501528
 20
2393.507340642224
 30
0.0
 11
2082.486632654128
 21
2393.505408147823
 31
0.0
  0
LINE
  5
F7
330
1F
100
AcDbEntity
  8
レバー
  6
Continuous
 62
     7
370
     0
100
AcDbLine
 10
2082.486632654128
 20
2393.505408147823
 30
0.0
 11
2083.214826324729
 21
2393.505753202823
 31
0.0
  0
LINE
  5
F8
330
1F
100
AcDbEntity
  8
レバー
  6
Continuous
 62
     7
370
     0
100
AcDbLine
 10
2083.214826324729
 20
2393.505753202823
 30
0.0
 11
2084.229612631428
 21
2393.507004900424
 31
0.0
  0
LINE
  5
F9
330
1F
100
AcDbEntity
  8
レバー
  6
Continuous
 62
     7
370
     0
100
AcDbLine
 10
2084.229612631428
 20
2393.507004900424
 30
0.0
 11
2085.493140296728
 21
2393.508313408624
 31
0.0
  0
LINE
  5
FA
330
1F
100
AcDbEntity
  8
レバー
  6
Continuous
 62
     7
370
     0
100
AcDbLine
 10
2085.493140296728
 20
2393.508313408624
 30
0.0
 11
2086.842670479528
 21
2393.508666845523
 31
0.0
  0
LINE
  5
FB
330
1F
100
AcDbEntity
  8
レバー
  6
Continuous
 62
     7
370
     0
100
AcDbLine
 10
2086.842670479528
 20
2393.508666845523
 30
0.0
 11
2089.696187900128
 21
2393.506690113323
 31
0.0
  0
LINE
  5
FC
330
1F
100
AcDbEntity
  8
レバー
  6
Continuous
 62
     7
370
     0
100
AcDbLine
 10
2089.696187900128
 20
2393.506690113323
 30
0.0
 11
2092.678023876328
 21
2393.502096364723
 31
0.0
  0
LINE
  5
FD
330
1F
100
AcDbEntity
  8
レバー
  6
Continuous
 62
     7
370
     0
100
AcDbLine
 10
2092.678023876328
 20
2393.502096364723
 30
0.0
 11
2095.698746295328
 21
2393.499910085023
 31
0.0
  0
LINE
  5
FE
330
1F
100
AcDbEntity
  8
レバー
  6
Continuous
 62
     7
370
     0
100
AcDbLine
 10
2095.698746295328
 20
2393.499910085023
 30
0.0
 11
2098.741334305828
 21
2393.500047455124
 31
0.0
  0
LINE
  5
FF
330
1F
100
AcDbEntity
  8
レバー
  6
Continuous
 62
     7
370
     0
100
AcDbLine
 10
2098.741334305828
 20
2393.500047455124
 30
0.0
 11
2101.805616544329
 21
2393.500493558623
 31
0.0
  0
LINE
  5
100
330
1F
100
AcDbEntity
  8
レバー
  6
Continuous
 62
     7
370
     0
100
AcDbLine
 10
2101.805616544329
 20
2393.500493558623
 30
0.0
 11
2104.891421647428
 21
2393.500884714124
 31
0.0
  0
LINE
  5
101
330
1F
100
AcDbEntity
  8
レバー
  6
Continuous
 62
     7
370
     0
100
AcDbLine
 10
2104.891421647428
 20
2393.500884714124
 30
0.0
 11
2108.888512851428
 21
2393.501308931524
 31
0.0
  0
LINE
  5
102
330
1F
100
AcDbEntity
  8
レバー
  6
Continuous
 62
     7
370
     0
100
AcDbLine
 10
2108.888512851428
 20
2393.501308931524
 30
0.0
 11
2113.297498227728
 21
2393.501676338324
 31
0.0
  0
LINE
  5
103
330
1F
100
AcDbEntity
  8
レバー
  6
Continuous
 62
     7
370
     0
100
AcDbLine
 10
2113.297498227728
 20
2393.501676338324
 30
0.0
 11
2118.267259003328
 21
2393.501975758524
 31
0.0
  0
LINE
  5
104
330
1F
100
AcDbEntity
  8
レバー
  6
Continuous
 62
     7
370
     0
100
AcDbLine
 10
2118.267259003328
 20
2393.501975758524
 30
0.0
 11
2123.797798903428
 21
2393.502179718124
 31
0.0
  0
LINE
  5
105
330
1F
100
AcDbEntity
  8
レバー
  6
Continuous
 62
     7
370
     0
100
AcDbLine
 10
2123.797798903428
 20
2393.502179718124
 30
0.0
 11
2129.889114202629
 21
2393.502267728124
 31
0.0
  0
LINE
  5
106
330
1F
100
AcDbEntity
  8
レバー
  6
Continuous
 62
     7
370
     0
100
AcDbLine
 10
2129.889114202629
 20
2393.502267728124
 30
0.0
 11
2136.541208626428
 21
2393.502225352924
 31
0.0
  0
LINE
  5
107
330
1F
100
AcDbEntity
  8
レバー
  6
Continuous
 62
     7
370
     0
100
AcDbLine
 10
2136.541208626428
 20
2393.502225352924
 30
0.0
 11
2143.754085900028
 21
2393.502050264323
 31
0.0
  0
LINE
  5
108
330
1F
100
AcDbEntity
  8
レバー
  6
Continuous
 62
     7
370
     0
100
AcDbLine
 10
2143.754085900028
 20
2393.502050264323
 30
0.0
 11
2152.335955204128
 21
2393.501719179123
 31
0.0
  0
LINE
  5
109
330
1F
100
AcDbEntity
  8
レバー
  6
Continuous
 62
     7
370
     0
100
AcDbLine
 10
2152.335955204128
 20
2393.501719179123
 30
0.0
 11
2161.596386136228
 21
2393.501281457524
 31
0.0
  0
LINE
  5
10A
330
1F
100
AcDbEntity
  8
レバー
  6
Continuous
 62
     7
370
     0
100
AcDbLine
 10
2161.596386136228
 20
2393.501281457524
 30
0.0
 11
2171.535371245528
 21
2393.500809276924
 31
0.0
  0
LINE
  5
10B
330
1F
100
AcDbEntity
  8
レバー
  6
Continuous
 62
     7
370
     0
100
AcDbLine
 10
2171.535371245528
 20
2393.500809276924
 30
0.0
 11
2182.152925433328
 21
2393.500412999223
 31
0.0
  0
LINE
  5
10C
330
1F
100
AcDbEntity
  8
レバー
  6
Continuous
 62
     7
370
     0
100
AcDbLine
 10
2182.152925433328
 20
2393.500412999223
 30
0.0
 11
2192.400133611328
 21
2393.500262124924
 31
0.0
  0
LINE
  5
10D
330
1F
100
AcDbEntity
  8
レバー
  6
Continuous
 62
     7
370
     0
100
AcDbLine
 10
2192.400081457328
 20
2407.500233686123
 30
0.0
 11
2182.670979203428
 21
2407.500096316024
 31
0.0
  0
LINE
  5
10E
330
1F
100
AcDbEntity
  8
レバー
  6
Continuous
 62
     7
370
     0
100
AcDbLine
 10
2182.670979203428
 20
2407.500096316024
 30
0.0
 11
2172.486184539028
 21
2407.499727046624
 31
0.0
  0
LINE
  5
10F
330
1F
100
AcDbEntity
  8
レバー
  6
Continuous
 62
     7
370
     0
100
AcDbLine
 10
2172.486184539028
 20
2407.499727046624
 30
0.0
 11
2162.894634904028
 21
2407.499276752123
 31
0.0
  0
LINE
  5
110
330
1F
100
AcDbEntity
  8
レバー
  6
Continuous
 62
     7
370
     0
100
AcDbLine
 10
2162.894634904028
 20
2407.499276752123
 30
0.0
 11
2153.896337749128
 21
2407.498845549824
 31
0.0
  0
LINE
  5
111
330
1F
100
AcDbEntity
  8
レバー
  6
Continuous
 62
     7
370
     0
100
AcDbLine
 10
2153.896337749128
 20
2407.498845549824
 30
0.0
 11
2145.491270722528
 21
2407.498502357424
 31
0.0
  0
LINE
  5
112
330
1F
100
AcDbEntity
  8
レバー
  6
Continuous
 62
     7
370
     0
100
AcDbLine
 10
2145.491270722528
 20
2407.498502357424
 30
0.0
 11
2137.679437549528
 21
2407.498289084523
 31
0.0
  0
LINE
  5
113
330
1F
100
AcDbEntity
  8
レバー
  6
Continuous
 62
     7
370
     0
100
AcDbLine
 10
2137.679437549528
 20
2407.498289084523
 30
0.0
 11
2130.857335777728
 21
2407.498224823324
 31
0.0
  0
LINE
  5
114
330
1F
100
AcDbEntity
  8
レバー
  6
Continuous
 62
     7
370
     0
100
AcDbLine
 10
2130.857335777728
 20
2407.498224823324
 30
0.0
 11
2124.562589825828
 21
2407.498296069524
 31
0.0
  0
LINE
  5
115
330
1F
100
AcDbEntity
  8
レバー
  6
Continuous
 62
     7
370
     0
100
AcDbLine
 10
2124.562589825828
 20
2407.498296069524
 30
0.0
 11
2118.795199693828
 21
2407.498493975524
 31
0.0
  0
LINE
  5
116
330
1F
100
AcDbEntity
  8
レバー
  6
Continuous
 62
     7
370
     0
100
AcDbLine
 10
2118.795199693828
 20
2407.498493975524
 30
0.0
 11
2113.553459198828
 21
2407.498799915023
 31
0.0
  0
LINE
  5
117
330
1F
100
AcDbEntity
  8
レバー
  6
Continuous
 62
     7
370
     0
100
AcDbLine
 10
2113.553459198828
 20
2407.498799915023
 30
0.0
 11
2108.756302298728
 21
2407.499198055424
 31
0.0
  0
LINE
  5
118
330
1F
100
AcDbEntity
  8
レバー
  6
Continuous
 62
     7
370
     0
100
AcDbLine
 10
2108.756302298728
 20
2407.499198055424
 30
0.0
 11
2104.105122761528
 21
2407.499702366523
 31
0.0
  0
LINE
  5
119
330
1F
100
AcDbEntity
  8
レバー
  6
Continuous
 62
     7
370
     0
100
AcDbLine
 10
2104.105122761528
 20
2407.499702366523
 30
0.0
 11
2099.903019519229
 21
2407.500264419724
 31
0.0
  0
LINE
  5
11A
330
1F
100
AcDbEntity
  8
レバー
  6
Continuous
 62
     7
370
     0
100
AcDbLine
 10
2099.903019519229
 20
2407.500264419724
 30
0.0
 11
2096.149590240529
 21
2407.500646262023
 31
0.0
  0
LINE
  5
11B
330
1F
100
AcDbEntity
  8
レバー
  6
Continuous
 62
     7
370
     0
100
AcDbLine
 10
2096.149590240529
 20
2407.500646262023
 30
0.0
 11
2094.147732855528
 21
2407.499931006224
 31
0.0
  0
LINE
  5
11C
330
1F
100
AcDbEntity
  8
レバー
  6
Continuous
 62
     7
370
     0
100
AcDbLine
 10
2094.147732855528
 20
2407.499931006224
 30
0.0
 11
2092.301365362228
 21
2407.497927731423
 31
0.0
  0
LINE
  5
11D
330
1F
100
AcDbEntity
  8
レバー
  6
Continuous
 62
     7
370
     0
100
AcDbLine
 10
2092.301365362228
 20
2407.497927731423
 30
0.0
 11
2090.291745403528
 21
2407.494641094023
 31
0.0
  0
LINE
  5
11E
330
1F
100
AcDbEntity
  8
レバー
  6
Continuous
 62
     7
370
     0
100
AcDbLine
 10
2090.291745403528
 20
2407.494641094023
 30
0.0
 11
2087.883809955528
 21
2407.492074834723
 31
0.0
  0
LINE
  5
11F
330
1F
100
AcDbEntity
  8
レバー
  6
Continuous
 62
     7
370
     0
100
AcDbLine
 10
2087.883809955528
 20
2407.492074834723
 30
0.0
 11
2086.388649793028
 21
2407.491586356024
 31
0.0
  0
LINE
  5
120
330
1F
100
AcDbEntity
  8
レバー
  6
Continuous
 62
     7
370
     0
100
AcDbLine
 10
2086.388649793028
 20
2407.491586356024
 30
0.0
 11
2084.851299786628
 21
2407.492336070623
 31
0.0
  0
LINE
  5
121
330
1F
100
AcDbEntity
  8
レバー
  6
Continuous
 62
     7
370
     0
100
AcDbLine
 10
2084.851299786628
 20
2407.492336070623
 30
0.0
 11
2083.332999983528
 21
2407.493537942424
 31
0.0
  0
LINE
  5
122
330
1F
100
AcDbEntity
  8
レバー
  6
Continuous
 62
     7
370
     0
100
AcDbLine
 10
2083.332999983528
 20
2407.493537942424
 30
0.0
 11
2082.232328505928
 21
2407.492673675123
 31
0.0
  0
LINE
  5
123
330
1F
100
AcDbEntity
  8
レバー
  6
Continuous
 62
     7
370
     0
100
AcDbLine
 10
2082.232328505928
 20
2407.492673675123
 30
0.0
 11
2081.770003681728
 21
2407.486083636524
 31
0.0
  0
LINE
  5
124
330
1F
100
AcDbEntity
  8
レバー
  6
Continuous
 62
     7
370
     0
100
AcDbLine
 10
2081.770003681728
 20
2407.486083636524
 30
0.0
 11
2081.766084210728
 21
2407.482003512324
 31
0.0
  0
ARC
  5
125
330
1F
100
AcDbEntity
  8
レバー
  6
Continuous
 62
     7
370
     0
100
AcDbCircle
 10
2192.400212468328
 20
2406.000247702524
 30
0.0
 40
1.500000000000118
100
AcDbArc
 50
359.9999957463
 51
90.17419294509996
  0
ARC
  5
126
330
1F
100
AcDbEntity
  8
レバー
  6
Continuous
 62
     7
370
     0
100
AcDbCircle
 10
2192.400212468328
 20
2395.000247128923
 30
0.0
 40
1.500000000000029
100
AcDbArc
 50
269.9105889113
 51
359.9915336725
  0
LINE
  5
127
330
1F
100
AcDbEntity
  8
レバー
  6
Continuous
 62
     7
370
     0
100
AcDbLine
 10
2086.855599099528
 20
2407.491739092924
 30
0.0
 11
2086.092600973028
 21
2408.278422149424
 31
0.0
  0
LINE
  5
128
330
1F
100
AcDbEntity
  8
レバー
  6
Continuous
 62
     7
370
     0
100
AcDbLine
 10
2086.092600973028
 20
2408.278422149424
 30
0.0
 11
2084.122625553729
 21
2409.646413473924
 31
0.0
  0
LINE
  5
129
330
1F
100
AcDbEntity
  8
レバー
  6
Continuous
 62
     7
370
     0
100
AcDbLine
 10
2084.122625553729
 20
2409.646413473924
 30
0.0
 11
2081.875096915028
 21
2410.662922261823
 31
0.0
  0
LINE
  5
12A
330
1F
100
AcDbEntity
  8
レバー
  6
Continuous
 62
     7
370
     0
100
AcDbLine
 10
2081.875096915028
 20
2410.662922261823
 30
0.0
 11
2079.436386611028
 21
2411.288885584624
 31
0.0
  0
LINE
  5
12B
330
1F
100
AcDbEntity
  8
レバー
  6
Continuous
 62
     7
370
     0
100
AcDbLine
 10
2079.436386611028
 20
2411.288885584624
 30
0.0
 11
2076.900212468328
 21
2411.500247380224
 31
0.0
  0
LINE
  5
12C
330
1F
100
AcDbEntity
  8
レバー
  6
Continuous
 62
     7
370
     0
100
AcDbLine
 10
2076.900212468328
 20
2411.500247380224
 30
0.0
 11
2074.364038325528
 21
2411.288885584624
 31
0.0
  0
LINE
  5
12D
330
1F
100
AcDbEntity
  8
レバー
  6
Continuous
 62
     7
370
     0
100
AcDbLine
 10
2074.364038325528
 20
2411.288885584624
 30
0.0
 11
2071.925328021628
 21
2410.662922261823
 31
0.0
  0
LINE
  5
12E
330
1F
100
AcDbEntity
  8
レバー
  6
Continuous
 62
     7
370
     0
100
AcDbLine
 10
2071.925328021628
 20
2410.662922261823
 30
0.0
 11
2069.677799382928
 21
2409.646413473924
 31
0.0
  0
LINE
  5
12F
330
1F
100
AcDbEntity
  8
レバー
  6
Continuous
 62
     7
370
     0
100
AcDbLine
 10
2069.677799382928
 20
2409.646413473924
 30
0.0
 11
2067.707823963528
 21
2408.278422149424
 31
0.0
  0
LINE
  5
130
330
1F
100
AcDbEntity
  8
レバー
  6
Continuous
 62
     7
370
     0
100
AcDbLine
 10
2067.707823963528
 20
2408.278422149424
 30
0.0
 11
2066.091107578728
 21
2406.611520050623
 31
0.0
  0
LINE
  5
131
330
1F
100
AcDbEntity
  8
レバー
  6
Continuous
 62
     7
370
     0
100
AcDbLine
 10
2066.091107578728
 20
2406.611520050623
 30
0.0
 11
2064.889778757228
 21
2404.709765406824
 31
0.0
  0
LINE
  5
132
330
1F
100
AcDbEntity
  8
レバー
  6
Continuous
 62
     7
370
     0
100
AcDbLine
 10
2064.889778757228
 20
2404.709765406824
 30
0.0
 11
2064.150004090428
 21
2402.646240963124
 31
0.0
  0
LINE
  5
133
330
1F
100
AcDbEntity
  8
レバー
  6
Continuous
 62
     7
370
     0
100
AcDbLine
 10
2064.150004090428
 20
2402.646240963124
 30
0.0
 11
2063.900212200128
 21
2400.500247439824
 31
0.0
  0
LINE
  5
134
330
1F
100
AcDbEntity
  8
レバー
  6
Continuous
 62
     7
370
     0
100
AcDbLine
 10
2063.900212200128
 20
2400.500247439824
 30
0.0
 11
2064.150004090428
 21
2398.354253916524
 31
0.0
  0
LINE
  5
135
330
1F
100
AcDbEntity
  8
レバー
  6
Continuous
 62
     7
370
     0
100
AcDbLine
 10
2064.150004090428
 20
2398.354253916524
 30
0.0
 11
2064.889778757228
 21
2396.290729472924
 31
0.0
  0
LINE
  5
136
330
1F
100
AcDbEntity
  8
レバー
  6
Continuous
 62
     7
370
     0
100
AcDbLine
 10
2064.889778757228
 20
2396.290729472924
 30
0.0
 11
2066.091107578728
 21
2394.388974829123
 31
0.0
  0
LINE
  5
137
330
1F
100
AcDbEntity
  8
レバー
  6
Continuous
 62
     7
370
     0
100
AcDbLine
 10
2066.091107578728
 20
2394.388974829123
 30
0.0
 11
2067.707823963528
 21
2392.722072730324
 31
0.0
  0
LINE
  5
138
330
1F
100
AcDbEntity
  8
レバー
  6
Continuous
 62
     7
370
     0
100
AcDbLine
 10
2067.707823963528
 20
2392.722072730324
 30
0.0
 11
2069.677799382928
 21
2391.354081405823
 31
0.0
  0
LINE
  5
139
330
1F
100
AcDbEntity
  8
レバー
  6
Continuous
 62
     7
370
     0
100
AcDbLine
 10
2069.677799382928
 20
2391.354081405823
 30
0.0
 11
2071.925328021628
 21
2390.337572617923
 31
0.0
  0
LINE
  5
13A
330
1F
100
AcDbEntity
  8
レバー
  6
Continuous
 62
     7
370
     0
100
AcDbLine
 10
2071.925328021628
 20
2390.337572617923
 30
0.0
 11
2074.364038325528
 21
2389.711609295124
 31
0.0
  0
LINE
  5
13B
330
1F
100
AcDbEntity
  8
レバー
  6
Continuous
 62
     7
370
     0
100
AcDbLine
 10
2074.364038325528
 20
2389.711609295124
 30
0.0
 11
2076.900212468328
 21
2389.500247499424
 31
0.0
  0
LINE
  5
13C
330
1F
100
AcDbEntity
  8
レバー
  6
Continuous
 62
     7
370
     0
100
AcDbLine
 10
2076.900212468328
 20
2389.500247499424
 30
0.0
 11
2079.436386611028
 21
2389.711609295124
 31
0.0
  0
LINE
  5
13D
330
1F
100
AcDbEntity
  8
レバー
  6
Continuous
 62
     7
370
     0
100
AcDbLine
 10
2079.436386611028
 20
2389.711609295124
 30
0.0
 11
2081.875096915028
 21
2390.337572617923
 31
0.0
  0
LINE
  5
13E
330
1F
100
AcDbEntity
  8
レバー
  6
Continuous
 62
     7
370
     0
100
AcDbLine
 10
2081.875096915028
 20
2390.337572617923
 30
0.0
 11
2084.122625553729
 21
2391.354081405823
 31
0.0
  0
LINE
  5
13F
330
1F
100
AcDbEntity
  8
レバー
  6
Continuous
 62
     7
370
     0
100
AcDbLine
 10
2084.122625553729
 20
2391.354081405823
 30
0.0
 11
2086.092600973028
 21
2392.722072730324
 31
0.0
  0
LINE
  5
140
330
1F
100
AcDbEntity
  8
レバー
  6
Continuous
 62
     7
370
     0
100
AcDbLine
 10
2086.092600973028
 20
2392.722072730324
 30
0.0
 11
2086.855504104628
 21
2393.508657997924
 31
0.0
  0
LINE
  5
141
330
1F
100
AcDbEntity
  8
レバー
  6
Continuous
 62
     7
370
     0
100
AcDbLine
 10
2193.900211157028
 20
2400.500408573724
 30
0.0
 11
2193.900211157028
 21
2395.003271939723
 31
0.0
  0
LINE
  5
142
330
1F
100
AcDbEntity
  8
レバー
  6
Continuous
 62
     7
370
     0
100
AcDbLine
 10
2193.900211157028
 20
2400.500408573724
 30
0.0
 11
2193.900211157028
 21
2405.993492993124
 31
0.0
  0
ARC
  5
143
330
1F
100
AcDbEntity
  8
レバー
  6
Continuous
 62
     7
370
     0
100
AcDbCircle
 10
2076.900212468328
 20
2400.500247439824
 30
0.0
 40
24.55
100
AcDbArc
 50
16.5995243249
 51
343.3673588443
  0
LINE
  5
144
330
1F
100
AcDbEntity
  8
レバー
  6
JWW_CENTER1
 62
   120
370
     5
100
AcDbLine
 10
-107.8977363376615
 20
2400.500247439824
 30
0.0
 11
-190.9236880755134
 21
2400.500247439824
 31
0.0
  0
LINE
  5
145
330
1F
100
AcDbEntity
  8
レバー
  6
JWW_CENTER1
 62
   120
370
     5
100
AcDbLine
 10
-154.6999148806998
 20
2456.957208033614
 30
0.0
 11
-154.6999148806998
 21
2357.11345474535
 31
0.0
  0
LINE
  5
146
330
1F
100
AcDbEntity
  8
レバー
  6
Continuous
 62
     7
370
     0
100
AcDbLine
 10
-39.19999373769996
 20
2407.500234151723
 30
0.0
 11
-48.27529264299984
 21
2407.500114011124
 31
0.0
  0
LINE
  5
147
330
1F
100
AcDbEntity
  8
レバー
  6
Continuous
 62
     7
370
     0
100
AcDbLine
 10
-48.27529264299984
 20
2407.500114011124
 30
0.0
 11
-48.67573899839982
 21
2407.500100041324
 31
0.0
  0
ARC
  5
148
330
1F
100
AcDbEntity
  8
レバー
  6
Continuous
 62
     7
370
     0
100
AcDbCircle
 10
-39.19991488069967
 20
2395.000247177223
 30
0.0
 40
1.500000000000118
100
AcDbArc
 50
270.164192293
 51
0.000004253700026
  0
ARC
  5
149
330
1F
100
AcDbEntity
  8
レバー
  6
Continuous
 62
     7
370
     0
100
AcDbCircle
 10
-39.19991488069967
 20
2406.000247750823
 30
0.0
 40
1.500000000000029
100
AcDbArc
 50
0.0084663275
 51
89.9162980715
  0
LINE
  5
14A
330
1F
100
AcDbEntity
  8
レバー
  6
Continuous
 62
     7
370
     0
100
AcDbLine
 10
-149.6815372040999
 20
2393.514131380724
 30
0.0
 11
-149.5492358474996
 21
2393.507340642224
 31
0.0
  0
LINE
  5
14B
330
1F
100
AcDbEntity
  8
レバー
  6
Continuous
 62
     7
370
     0
100
AcDbLine
 10
-149.5492358474996
 20
2393.507340642224
 30
0.0
 11
-149.1134946949001
 21
2393.505408147823
 31
0.0
  0
LINE
  5
14C
330
1F
100
AcDbEntity
  8
レバー
  6
Continuous
 62
     7
370
     0
100
AcDbLine
 10
-149.1134946949001
 20
2393.505408147823
 30
0.0
 11
-148.3853010242996
 21
2393.505753202823
 31
0.0
  0
LINE
  5
14D
330
1F
100
AcDbEntity
  8
レバー
  6
Continuous
 62
     7
370
     0
100
AcDbLine
 10
-148.3853010242996
 20
2393.505753202823
 30
0.0
 11
-147.3705147175997
 21
2393.507004900424
 31
0.0
  0
LINE
  5
14E
330
1F
100
AcDbEntity
  8
レバー
  6
Continuous
 62
     7
370
     0
100
AcDbLine
 10
-147.3705147175997
 20
2393.507004900424
 30
0.0
 11
-146.1069870522999
 21
2393.508313408624
 31
0.0
  0
LINE
  5
14F
330
1F
100
AcDbEntity
  8
レバー
  6
Continuous
 62
     7
370
     0
100
AcDbLine
 10
-146.1069870522999
 20
2393.508313408624
 30
0.0
 11
-144.7574568695
 21
2393.508666845523
 31
0.0
  0
LINE
  5
150
330
1F
100
AcDbEntity
  8
レバー
  6
Continuous
 62
     7
370
     0
100
AcDbLine
 10
-144.7574568695
 20
2393.508666845523
 30
0.0
 11
-141.9039394488999
 21
2393.506690113323
 31
0.0
  0
LINE
  5
151
330
1F
100
AcDbEntity
  8
レバー
  6
Continuous
 62
     7
370
     0
100
AcDbLine
 10
-141.9039394488999
 20
2393.506690113323
 30
0.0
 11
-138.9221034727001
 21
2393.502096364723
 31
0.0
  0
LINE
  5
152
330
1F
100
AcDbEntity
  8
レバー
  6
Continuous
 62
     7
370
     0
100
AcDbLine
 10
-138.9221034727001
 20
2393.502096364723
 30
0.0
 11
-135.9013810536999
 21
2393.499910085023
 31
0.0
  0
LINE
  5
153
330
1F
100
AcDbEntity
  8
レバー
  6
Continuous
 62
     7
370
     0
100
AcDbLine
 10
-135.9013810536999
 20
2393.499910085023
 30
0.0
 11
-132.8587930431996
 21
2393.500047455124
 31
0.0
  0
LINE
  5
154
330
1F
100
AcDbEntity
  8
レバー
  6
Continuous
 62
     7
370
     0
100
AcDbLine
 10
-132.8587930431996
 20
2393.500047455124
 30
0.0
 11
-129.7945108046997
 21
2393.500493558623
 31
0.0
  0
LINE
  5
155
330
1F
100
AcDbEntity
  8
レバー
  6
Continuous
 62
     7
370
     0
100
AcDbLine
 10
-129.7945108046997
 20
2393.500493558623
 30
0.0
 11
-126.7087057015999
 21
2393.500884714124
 31
0.0
  0
LINE
  5
156
330
1F
100
AcDbEntity
  8
レバー
  6
Continuous
 62
     7
370
     0
100
AcDbLine
 10
-126.7087057015999
 20
2393.500884714124
 30
0.0
 11
-122.7116144975997
 21
2393.501308931524
 31
0.0
  0
LINE
  5
157
330
1F
100
AcDbEntity
  8
レバー
  6
Continuous
 62
     7
370
     0
100
AcDbLine
 10
-122.7116144975997
 20
2393.501308931524
 30
0.0
 11
-118.3026291212997
 21
2393.501676338324
 31
0.0
  0
LINE
  5
158
330
1F
100
AcDbEntity
  8
レバー
  6
Continuous
 62
     7
370
     0
100
AcDbLine
 10
-118.3026291212997
 20
2393.501676338324
 30
0.0
 11
-113.3328683457
 21
2393.501975758524
 31
0.0
  0
LINE
  5
159
330
1F
100
AcDbEntity
  8
レバー
  6
Continuous
 62
     7
370
     0
100
AcDbLine
 10
-113.3328683457
 20
2393.501975758524
 30
0.0
 11
-107.8023284455998
 21
2393.502179718124
 31
0.0
  0
LINE
  5
15A
330
1F
100
AcDbEntity
  8
レバー
  6
Continuous
 62
     7
370
     0
100
AcDbLine
 10
-107.8023284455998
 20
2393.502179718124
 30
0.0
 11
-101.7110131463997
 21
2393.502267728124
 31
0.0
  0
LINE
  5
15B
330
1F
100
AcDbEntity
  8
レバー
  6
Continuous
 62
     7
370
     0
100
AcDbLine
 10
-101.7110131463997
 20
2393.502267728124
 30
0.0
 11
-95.0589187225998
 21
2393.502225352924
 31
0.0
  0
LINE
  5
15C
330
1F
100
AcDbEntity
  8
レバー
  6
Continuous
 62
     7
370
     0
100
AcDbLine
 10
-95.0589187225998
 20
2393.502225352924
 30
0.0
 11
-87.84604144899987
 21
2393.502050264323
 31
0.0
  0
LINE
  5
15D
330
1F
100
AcDbEntity
  8
レバー
  6
Continuous
 62
     7
370
     0
100
AcDbLine
 10
-87.84604144899987
 20
2393.502050264323
 30
0.0
 11
-79.26417214489986
 21
2393.501719179123
 31
0.0
  0
LINE
  5
15E
330
1F
100
AcDbEntity
  8
レバー
  6
Continuous
 62
     7
370
     0
100
AcDbLine
 10
-79.26417214489986
 20
2393.501719179123
 30
0.0
 11
-70.00374121279977
 21
2393.501281457524
 31
0.0
  0
LINE
  5
15F
330
1F
100
AcDbEntity
  8
レバー
  6
Continuous
 62
     7
370
     0
100
AcDbLine
 10
-70.00374121279977
 20
2393.501281457524
 30
0.0
 11
-60.0647561034998
 21
2393.500809276924
 31
0.0
  0
LINE
  5
160
330
1F
100
AcDbEntity
  8
レバー
  6
Continuous
 62
     7
370
     0
100
AcDbLine
 10
-60.0647561034998
 20
2393.500809276924
 30
0.0
 11
-49.44720191569985
 21
2393.500412999223
 31
0.0
  0
LINE
  5
161
330
1F
100
AcDbEntity
  8
レバー
  6
Continuous
 62
     7
370
     0
100
AcDbLine
 10
-49.44720191569985
 20
2393.500412999223
 30
0.0
 11
-39.19999373769996
 21
2393.500262124924
 31
0.0
  0
LINE
  5
162
330
1F
100
AcDbEntity
  8
レバー
  6
Continuous
 62
     7
370
     0
100
AcDbLine
 10
-39.20004589169991
 20
2407.500233686123
 30
0.0
 11
-48.92914814559987
 21
2407.500096316024
 31
0.0
  0
LINE
  5
163
330
1F
100
AcDbEntity
  8
レバー
  6
Continuous
 62
     7
370
     0
100
AcDbLine
 10
-48.92914814559987
 20
2407.500096316024
 30
0.0
 11
-59.11394280999986
 21
2407.499727046624
 31
0.0
  0
LINE
  5
164
330
1F
100
AcDbEntity
  8
レバー
  6
Continuous
 62
     7
370
     0
100
AcDbLine
 10
-59.11394280999986
 20
2407.499727046624
 30
0.0
 11
-68.70549244499982
 21
2407.499276752123
 31
0.0
  0
LINE
  5
165
330
1F
100
AcDbEntity
  8
レバー
  6
Continuous
 62
     7
370
     0
100
AcDbLine
 10
-68.70549244499982
 20
2407.499276752123
 30
0.0
 11
-77.70378959989982
 21
2407.498845549824
 31
0.0
  0
LINE
  5
166
330
1F
100
AcDbEntity
  8
レバー
  6
Continuous
 62
     7
370
     0
100
AcDbLine
 10
-77.70378959989982
 20
2407.498845549824
 30
0.0
 11
-86.10885662649991
 21
2407.498502357424
 31
0.0
  0
LINE
  5
167
330
1F
100
AcDbEntity
  8
レバー
  6
Continuous
 62
     7
370
     0
100
AcDbLine
 10
-86.10885662649991
 20
2407.498502357424
 30
0.0
 11
-93.92068979949983
 21
2407.498289084523
 31
0.0
  0
LINE
  5
168
330
1F
100
AcDbEntity
  8
レバー
  6
Continuous
 62
     7
370
     0
100
AcDbLine
 10
-93.92068979949983
 20
2407.498289084523
 30
0.0
 11
-100.7427915712998
 21
2407.498224823324
 31
0.0
  0
LINE
  5
169
330
1F
100
AcDbEntity
  8
レバー
  6
Continuous
 62
     7
370
     0
100
AcDbLine
 10
-100.7427915712998
 20
2407.498224823324
 30
0.0
 11
-107.0375375231998
 21
2407.498296069524
 31
0.0
  0
LINE
  5
16A
330
1F
100
AcDbEntity
  8
レバー
  6
Continuous
 62
     7
370
     0
100
AcDbLine
 10
-107.0375375231998
 20
2407.498296069524
 30
0.0
 11
-112.8049276551997
 21
2407.498493975524
 31
0.0
  0
LINE
  5
16B
330
1F
100
AcDbEntity
  8
レバー
  6
Continuous
 62
     7
370
     0
100
AcDbLine
 10
-112.8049276551997
 20
2407.498493975524
 30
0.0
 11
-118.0466681501997
 21
2407.498799915023
 31
0.0
  0
LINE
  5
16C
330
1F
100
AcDbEntity
  8
レバー
  6
Continuous
 62
     7
370
     0
100
AcDbLine
 10
-118.0466681501997
 20
2407.498799915023
 30
0.0
 11
-122.8438250503001
 21
2407.499198055424
 31
0.0
  0
LINE
  5
16D
330
1F
100
AcDbEntity
  8
レバー
  6
Continuous
 62
     7
370
     0
100
AcDbLine
 10
-122.8438250503001
 20
2407.499198055424
 30
0.0
 11
-127.4950045874999
 21
2407.499702366523
 31
0.0
  0
LINE
  5
16E
330
1F
100
AcDbEntity
  8
レバー
  6
Continuous
 62
     7
370
     0
100
AcDbLine
 10
-127.4950045874999
 20
2407.499702366523
 30
0.0
 11
-131.6971078297996
 21
2407.500264419724
 31
0.0
  0
LINE
  5
16F
330
1F
100
AcDbEntity
  8
レバー
  6
Continuous
 62
     7
370
     0
100
AcDbLine
 10
-131.6971078297996
 20
2407.500264419724
 30
0.0
 11
-135.4505371084997
 21
2407.500646262023
 31
0.0
  0
LINE
  5
170
330
1F
100
AcDbEntity
  8
レバー
  6
Continuous
 62
     7
370
     0
100
AcDbLine
 10
-135.4505371084997
 20
2407.500646262023
 30
0.0
 11
-137.4523944934998
 21
2407.499931006224
 31
0.0
  0
LINE
  5
171
330
1F
100
AcDbEntity
  8
レバー
  6
Continuous
 62
     7
370
     0
100
AcDbLine
 10
-137.4523944934998
 20
2407.499931006224
 30
0.0
 11
-139.2987619868001
 21
2407.497927731423
 31
0.0
  0
LINE
  5
172
330
1F
100
AcDbEntity
  8
レバー
  6
Continuous
 62
     7
370
     0
100
AcDbLine
 10
-139.2987619868001
 20
2407.497927731423
 30
0.0
 11
-141.3083819454999
 21
2407.494641094023
 31
0.0
  0
LINE
  5
173
330
1F
100
AcDbEntity
  8
レバー
  6
Continuous
 62
     7
370
     0
100
AcDbLine
 10
-141.3083819454999
 20
2407.494641094023
 30
0.0
 11
-143.7163173934999
 21
2407.492074834723
 31
0.0
  0
LINE
  5
174
330
1F
100
AcDbEntity
  8
レバー
  6
Continuous
 62
     7
370
     0
100
AcDbLine
 10
-143.7163173934999
 20
2407.492074834723
 30
0.0
 11
-145.211477556
 21
2407.491586356024
 31
0.0
  0
LINE
  5
175
330
1F
100
AcDbEntity
  8
レバー
  6
Continuous
 62
     7
370
     0
100
AcDbLine
 10
-145.211477556
 20
2407.491586356024
 30
0.0
 11
-146.7488275623998
 21
2407.492336070623
 31
0.0
  0
LINE
  5
176
330
1F
100
AcDbEntity
  8
レバー
  6
Continuous
 62
     7
370
     0
100
AcDbLine
 10
-146.7488275623998
 20
2407.492336070623
 30
0.0
 11
-148.2671273655001
 21
2407.493537942424
 31
0.0
  0
LINE
  5
177
330
1F
100
AcDbEntity
  8
レバー
  6
Continuous
 62
     7
370
     0
100
AcDbLine
 10
-148.2671273655001
 20
2407.493537942424
 30
0.0
 11
-149.3677988431
 21
2407.492673675123
 31
0.0
  0
LINE
  5
178
330
1F
100
AcDbEntity
  8
レバー
  6
Continuous
 62
     7
370
     0
100
AcDbLine
 10
-149.3677988431
 20
2407.492673675123
 30
0.0
 11
-149.8301236672995
 21
2407.486083636524
 31
0.0
  0
LINE
  5
179
330
1F
100
AcDbEntity
  8
レバー
  6
Continuous
 62
     7
370
     0
100
AcDbLine
 10
-149.8301236672995
 20
2407.486083636524
 30
0.0
 11
-149.8340431382996
 21
2407.482003512324
 31
0.0
  0
ARC
  5
17A
330
1F
100
AcDbEntity
  8
レバー
  6
Continuous
 62
     7
370
     0
100
AcDbCircle
 10
-39.19991488069967
 20
2406.000247702524
 30
0.0
 40
1.500000000000118
100
AcDbArc
 50
359.9999957463
 51
90.17419294509996
  0
ARC
  5
17B
330
1F
100
AcDbEntity
  8
レバー
  6
Continuous
 62
     7
370
     0
100
AcDbCircle
 10
-39.19991488069967
 20
2395.000247128923
 30
0.0
 40
1.500000000000029
100
AcDbArc
 50
269.9105889113
 51
359.9915336725
  0
LINE
  5
17C
330
1F
100
AcDbEntity
  8
レバー
  6
Continuous
 62
     7
370
     0
100
AcDbLine
 10
-144.7445282494999
 20
2407.491739092924
 30
0.0
 11
-145.507526376
 21
2408.278422149424
 31
0.0
  0
LINE
  5
17D
330
1F
100
AcDbEntity
  8
レバー
  6
Continuous
 62
     7
370
     0
100
AcDbLine
 10
-145.507526376
 20
2408.278422149424
 30
0.0
 11
-147.4775017952999
 21
2409.646413473924
 31
0.0
  0
LINE
  5
17E
330
1F
100
AcDbEntity
  8
レバー
  6
Continuous
 62
     7
370
     0
100
AcDbLine
 10
-147.4775017952999
 20
2409.646413473924
 30
0.0
 11
-149.7250304339997
 21
2410.662922261823
 31
0.0
  0
LINE
  5
17F
330
1F
100
AcDbEntity
  8
レバー
  6
Continuous
 62
     7
370
     0
100
AcDbLine
 10
-149.7250304339997
 20
2410.662922261823
 30
0.0
 11
-152.1637407379995
 21
2411.288885584624
 31
0.0
  0
LINE
  5
180
330
1F
100
AcDbEntity
  8
レバー
  6
Continuous
 62
     7
370
     0
100
AcDbLine
 10
-152.1637407379995
 20
2411.288885584624
 30
0.0
 11
-154.6999148806998
 21
2411.500247380224
 31
0.0
  0
LINE
  5
181
330
1F
100
AcDbEntity
  8
レバー
  6
Continuous
 62
     7
370
     0
100
AcDbLine
 10
-154.6999148806998
 20
2411.500247380224
 30
0.0
 11
-157.2360890235001
 21
2411.288885584624
 31
0.0
  0
LINE
  5
182
330
1F
100
AcDbEntity
  8
レバー
  6
Continuous
 62
     7
370
     0
100
AcDbLine
 10
-157.2360890235001
 20
2411.288885584624
 30
0.0
 11
-159.6747993273999
 21
2410.662922261823
 31
0.0
  0
LINE
  5
183
330
1F
100
AcDbEntity
  8
レバー
  6
Continuous
 62
     7
370
     0
100
AcDbLine
 10
-159.6747993273999
 20
2410.662922261823
 30
0.0
 11
-161.9223279660997
 21
2409.646413473924
 31
0.0
  0
LINE
  5
184
330
1F
100
AcDbEntity
  8
レバー
  6
Continuous
 62
     7
370
     0
100
AcDbLine
 10
-161.9223279660997
 20
2409.646413473924
 30
0.0
 11
-163.8923033854996
 21
2408.278422149424
 31
0.0
  0
LINE
  5
185
330
1F
100
AcDbEntity
  8
レバー
  6
Continuous
 62
     7
370
     0
100
AcDbLine
 10
-163.8923033854996
 20
2408.278422149424
 30
0.0
 11
-165.5090197702998
 21
2406.611520050623
 31
0.0
  0
LINE
  5
186
330
1F
100
AcDbEntity
  8
レバー
  6
Continuous
 62
     7
370
     0
100
AcDbLine
 10
-165.5090197702998
 20
2406.611520050623
 30
0.0
 11
-166.7103485918
 21
2404.709765406824
 31
0.0
  0
LINE
  5
187
330
1F
100
AcDbEntity
  8
レバー
  6
Continuous
 62
     7
370
     0
100
AcDbLine
 10
-166.7103485918
 20
2404.709765406824
 30
0.0
 11
-167.4501232585999
 21
2402.646240963124
 31
0.0
  0
LINE
  5
188
330
1F
100
AcDbEntity
  8
レバー
  6
Continuous
 62
     7
370
     0
100
AcDbLine
 10
-167.4501232585999
 20
2402.646240963124
 30
0.0
 11
-167.6999151488997
 21
2400.500247439824
 31
0.0
  0
LINE
  5
189
330
1F
100
AcDbEntity
  8
レバー
  6
Continuous
 62
     7
370
     0
100
AcDbLine
 10
-167.6999151488997
 20
2400.500247439824
 30
0.0
 11
-167.4501232585999
 21
2398.354253916524
 31
0.0
  0
LINE
  5
18A
330
1F
100
AcDbEntity
  8
レバー
  6
Continuous
 62
     7
370
     0
100
AcDbLine
 10
-167.4501232585999
 20
2398.354253916524
 30
0.0
 11
-166.7103485918
 21
2396.290729472924
 31
0.0
  0
LINE
  5
18B
330
1F
100
AcDbEntity
  8
レバー
  6
Continuous
 62
     7
370
     0
100
AcDbLine
 10
-166.7103485918
 20
2396.290729472924
 30
0.0
 11
-165.5090197702998
 21
2394.388974829123
 31
0.0
  0
LINE
  5
18C
330
1F
100
AcDbEntity
  8
レバー
  6
Continuous
 62
     7
370
     0
100
AcDbLine
 10
-165.5090197702998
 20
2394.388974829123
 30
0.0
 11
-163.8923033854996
 21
2392.722072730324
 31
0.0
  0
LINE
  5
18D
330
1F
100
AcDbEntity
  8
レバー
  6
Continuous
 62
     7
370
     0
100
AcDbLine
 10
-163.8923033854996
 20
2392.722072730324
 30
0.0
 11
-161.9223279660997
 21
2391.354081405823
 31
0.0
  0
LINE
  5
18E
330
1F
100
AcDbEntity
  8
レバー
  6
Continuous
 62
     7
370
     0
100
AcDbLine
 10
-161.9223279660997
 20
2391.354081405823
 30
0.0
 11
-159.6747993273999
 21
2390.337572617923
 31
0.0
  0
LINE
  5
18F
330
1F
100
AcDbEntity
  8
レバー
  6
Continuous
 62
     7
370
     0
100
AcDbLine
 10
-159.6747993273999
 20
2390.337572617923
 30
0.0
 11
-157.2360890235001
 21
2389.711609295124
 31
0.0
  0
LINE
  5
190
330
1F
100
AcDbEntity
  8
レバー
  6
Continuous
 62
     7
370
     0
100
AcDbLine
 10
-157.2360890235001
 20
2389.711609295124
 30
0.0
 11
-154.6999148806998
 21
2389.500247499424
 31
0.0
  0
LINE
  5
191
330
1F
100
AcDbEntity
  8
レバー
  6
Continuous
 62
     7
370
     0
100
AcDbLine
 10
-154.6999148806998
 20
2389.500247499424
 30
0.0
 11
-152.1637407379995
 21
2389.711609295124
 31
0.0
  0
LINE
  5
192
330
1F
100
AcDbEntity
  8
レバー
  6
Continuous
 62
     7
370
     0
100
AcDbLine
 10
-152.1637407379995
 20
2389.711609295124
 30
0.0
 11
-149.7250304339997
 21
2390.337572617923
 31
0.0
  0
LINE
  5
193
330
1F
100
AcDbEntity
  8
レバー
  6
Continuous
 62
     7
370
     0
100
AcDbLine
 10
-149.7250304339997
 20
2390.337572617923
 30
0.0
 11
-147.4775017952999
 21
2391.354081405823
 31
0.0
  0
LINE
  5
194
330
1F
100
AcDbEntity
  8
レバー
  6
Continuous
 62
     7
370
     0
100
AcDbLine
 10
-147.4775017952999
 20
2391.354081405823
 30
0.0
 11
-145.507526376
 21
2392.722072730324
 31
0.0
  0
LINE
  5
195
330
1F
100
AcDbEntity
  8
レバー
  6
Continuous
 62
     7
370
     0
100
AcDbLine
 10
-145.507526376
 20
2392.722072730324
 30
0.0
 11
-144.7446232443997
 21
2393.508657997924
 31
0.0
  0
LINE
  5
196
330
1F
100
AcDbEntity
  8
レバー
  6
Continuous
 62
     7
370
     0
100
AcDbLine
 10
-37.69991619199971
 20
2400.500408573724
 30
0.0
 11
-37.69991619199971
 21
2395.003271939723
 31
0.0
  0
LINE
  5
197
330
1F
100
AcDbEntity
  8
レバー
  6
Continuous
 62
     7
370
     0
100
AcDbLine
 10
-37.69991619199971
 20
2400.500408573724
 30
0.0
 11
-37.69991619199971
 21
2405.993492993124
 31
0.0
  0
ARC
  5
198
330
1F
100
AcDbEntity
  8
レバー
  6
Continuous
 62
     7
370
     0
100
AcDbCircle
 10
-154.6999148806998
 20
2400.500247439824
 30
0.0
 40
24.55
100
AcDbArc
 50
16.5995243249
 51
343.3673588443
  0
LINE
  5
199
330
1F
100
AcDbEntity
  8
レバー
  6
JWW_CENTER1
 62
   120
370
     5
100
AcDbLine
 10
-2339.497492526957
 20
2400.500247439824
 30
0.0
 11
-2422.523444264809
 21
2400.500247439824
 31
0.0
  0
LINE
  5
19A
330
1F
100
AcDbEntity
  8
レバー
  6
JWW_CENTER1
 62
   120
370
     5
100
AcDbLine
 10
-2386.299671069995
 20
2456.957208033614
 30
0.0
 11
-2386.299671069995
 21
2357.11345474535
 31
0.0
  0
LINE
  5
19B
330
1F
100
AcDbEntity
  8
レバー
  6
Continuous
 62
     7
370
     0
100
AcDbLine
 10
-2270.799749926995
 20
2407.500234151723
 30
0.0
 11
-2279.875048832295
 21
2407.500114011124
 31
0.0
  0
LINE
  5
19C
330
1F
100
AcDbEntity
  8
レバー
  6
Continuous
 62
     7
370
     0
100
AcDbLine
 10
-2279.875048832295
 20
2407.500114011124
 30
0.0
 11
-2280.275495187695
 21
2407.500100041324
 31
0.0
  0
ARC
  5
19D
330
1F
100
AcDbEntity
  8
レバー
  6
Continuous
 62
     7
370
     0
100
AcDbCircle
 10
-2270.799671069995
 20
2395.000247177223
 30
0.0
 40
1.500000000000118
100
AcDbArc
 50
270.164192293
 51
0.000004253700026
  0
ARC
  5
19E
330
1F
100
AcDbEntity
  8
レバー
  6
Continuous
 62
     7
370
     0
100
AcDbCircle
 10
-2270.799671069995
 20
2406.000247750823
 30
0.0
 40
1.500000000000029
100
AcDbArc
 50
0.0084663275
 51
89.9162980715
  0
LINE
  5
19F
330
1F
100
AcDbEntity
  8
レバー
  6
Continuous
 62
     7
370
     0
100
AcDbLine
 10
-2381.281293393395
 20
2393.514131380724
 30
0.0
 11
-2381.148992036795
 21
2393.507340642224
 31
0.0
  0
LINE
  5
1A0
330
1F
100
AcDbEntity
  8
レバー
  6
Continuous
 62
     7
370
     0
100
AcDbLine
 10
-2381.148992036795
 20
2393.507340642224
 30
0.0
 11
-2380.713250884196
 21
2393.505408147823
 31
0.0
  0
LINE
  5
1A1
330
1F
100
AcDbEntity
  8
レバー
  6
Continuous
 62
     7
370
     0
100
AcDbLine
 10
-2380.713250884196
 20
2393.505408147823
 30
0.0
 11
-2379.985057213595
 21
2393.505753202823
 31
0.0
  0
LINE
  5
1A2
330
1F
100
AcDbEntity
  8
レバー
  6
Continuous
 62
     7
370
     0
100
AcDbLine
 10
-2379.985057213595
 20
2393.505753202823
 30
0.0
 11
-2378.970270906895
 21
2393.507004900424
 31
0.0
  0
LINE
  5
1A3
330
1F
100
AcDbEntity
  8
レバー
  6
Continuous
 62
     7
370
     0
100
AcDbLine
 10
-2378.970270906895
 20
2393.507004900424
 30
0.0
 11
-2377.706743241596
 21
2393.508313408624
 31
0.0
  0
LINE
  5
1A4
330
1F
100
AcDbEntity
  8
レバー
  6
Continuous
 62
     7
370
     0
100
AcDbLine
 10
-2377.706743241596
 20
2393.508313408624
 30
0.0
 11
-2376.357213058795
 21
2393.508666845523
 31
0.0
  0
LINE
  5
1A5
330
1F
100
AcDbEntity
  8
レバー
  6
Continuous
 62
     7
370
     0
100
AcDbLine
 10
-2376.357213058795
 20
2393.508666845523
 30
0.0
 11
-2373.503695638195
 21
2393.506690113323
 31
0.0
  0
LINE
  5
1A6
330
1F
100
AcDbEntity
  8
レバー
  6
Continuous
 62
     7
370
     0
100
AcDbLine
 10
-2373.503695638195
 20
2393.506690113323
 30
0.0
 11
-2370.521859661996
 21
2393.502096364723
 31
0.0
  0
LINE
  5
1A7
330
1F
100
AcDbEntity
  8
レバー
  6
Continuous
 62
     7
370
     0
100
AcDbLine
 10
-2370.521859661996
 20
2393.502096364723
 30
0.0
 11
-2367.501137242995
 21
2393.499910085023
 31
0.0
  0
LINE
  5
1A8
330
1F
100
AcDbEntity
  8
レバー
  6
Continuous
 62
     7
370
     0
100
AcDbLine
 10
-2367.501137242995
 20
2393.499910085023
 30
0.0
 11
-2364.458549232495
 21
2393.500047455124
 31
0.0
  0
LINE
  5
1A9
330
1F
100
AcDbEntity
  8
レバー
  6
Continuous
 62
     7
370
     0
100
AcDbLine
 10
-2364.458549232495
 20
2393.500047455124
 30
0.0
 11
-2361.394266993995
 21
2393.500493558623
 31
0.0
  0
LINE
  5
1AA
330
1F
100
AcDbEntity
  8
レバー
  6
Continuous
 62
     7
370
     0
100
AcDbLine
 10
-2361.394266993995
 20
2393.500493558623
 30
0.0
 11
-2358.308461890895
 21
2393.500884714124
 31
0.0
  0
LINE
  5
1AB
330
1F
100
AcDbEntity
  8
レバー
  6
Continuous
 62
     7
370
     0
100
AcDbLine
 10
-2358.308461890895
 20
2393.500884714124
 30
0.0
 11
-2354.311370686895
 21
2393.501308931524
 31
0.0
  0
LINE
  5
1AC
330
1F
100
AcDbEntity
  8
レバー
  6
Continuous
 62
     7
370
     0
100
AcDbLine
 10
-2354.311370686895
 20
2393.501308931524
 30
0.0
 11
-2349.902385310595
 21
2393.501676338324
 31
0.0
  0
LINE
  5
1AD
330
1F
100
AcDbEntity
  8
レバー
  6
Continuous
 62
     7
370
     0
100
AcDbLine
 10
-2349.902385310595
 20
2393.501676338324
 30
0.0
 11
-2344.932624534995
 21
2393.501975758524
 31
0.0
  0
LINE
  5
1AE
330
1F
100
AcDbEntity
  8
レバー
  6
Continuous
 62
     7
370
     0
100
AcDbLine
 10
-2344.932624534995
 20
2393.501975758524
 30
0.0
 11
-2339.402084634895
 21
2393.502179718124
 31
0.0
  0
LINE
  5
1AF
330
1F
100
AcDbEntity
  8
レバー
  6
Continuous
 62
     7
370
     0
100
AcDbLine
 10
-2339.402084634895
 20
2393.502179718124
 30
0.0
 11
-2333.310769335695
 21
2393.502267728124
 31
0.0
  0
LINE
  5
1B0
330
1F
100
AcDbEntity
  8
レバー
  6
Continuous
 62
     7
370
     0
100
AcDbLine
 10
-2333.310769335695
 20
2393.502267728124
 30
0.0
 11
-2326.658674911895
 21
2393.502225352924
 31
0.0
  0
LINE
  5
1B1
330
1F
100
AcDbEntity
  8
レバー
  6
Continuous
 62
     7
370
     0
100
AcDbLine
 10
-2326.658674911895
 20
2393.502225352924
 30
0.0
 11
-2319.445797638295
 21
2393.502050264323
 31
0.0
  0
LINE
  5
1B2
330
1F
100
AcDbEntity
  8
レバー
  6
Continuous
 62
     7
370
     0
100
AcDbLine
 10
-2319.445797638295
 20
2393.502050264323
 30
0.0
 11
-2310.863928334195
 21
2393.501719179123
 31
0.0
  0
LINE
  5
1B3
330
1F
100
AcDbEntity
  8
レバー
  6
Continuous
 62
     7
370
     0
100
AcDbLine
 10
-2310.863928334195
 20
2393.501719179123
 30
0.0
 11
-2301.603497402095
 21
2393.501281457524
 31
0.0
  0
LINE
  5
1B4
330
1F
100
AcDbEntity
  8
レバー
  6
Continuous
 62
     7
370
     0
100
AcDbLine
 10
-2301.603497402095
 20
2393.501281457524
 30
0.0
 11
-2291.664512292795
 21
2393.500809276924
 31
0.0
  0
LINE
  5
1B5
330
1F
100
AcDbEntity
  8
レバー
  6
Continuous
 62
     7
370
     0
100
AcDbLine
 10
-2291.664512292795
 20
2393.500809276924
 30
0.0
 11
-2281.046958104995
 21
2393.500412999223
 31
0.0
  0
LINE
  5
1B6
330
1F
100
AcDbEntity
  8
レバー
  6
Continuous
 62
     7
370
     0
100
AcDbLine
 10
-2281.046958104995
 20
2393.500412999223
 30
0.0
 11
-2270.799749926995
 21
2393.500262124924
 31
0.0
  0
LINE
  5
1B7
330
1F
100
AcDbEntity
  8
レバー
  6
Continuous
 62
     7
370
     0
100
AcDbLine
 10
-2270.799802080995
 20
2407.500233686123
 30
0.0
 11
-2280.528904334895
 21
2407.500096316024
 31
0.0
  0
LINE
  5
1B8
330
1F
100
AcDbEntity
  8
レバー
  6
Continuous
 62
     7
370
     0
100
AcDbLine
 10
-2280.528904334895
 20
2407.500096316024
 30
0.0
 11
-2290.713698999295
 21
2407.499727046624
 31
0.0
  0
LINE
  5
1B9
330
1F
100
AcDbEntity
  8
レバー
  6
Continuous
 62
     7
370
     0
100
AcDbLine
 10
-2290.713698999295
 20
2407.499727046624
 30
0.0
 11
-2300.305248634295
 21
2407.499276752123
 31
0.0
  0
LINE
  5
1BA
330
1F
100
AcDbEntity
  8
レバー
  6
Continuous
 62
     7
370
     0
100
AcDbLine
 10
-2300.305248634295
 20
2407.499276752123
 30
0.0
 11
-2309.303545789195
 21
2407.498845549824
 31
0.0
  0
LINE
  5
1BB
330
1F
100
AcDbEntity
  8
レバー
  6
Continuous
 62
     7
370
     0
100
AcDbLine
 10
-2309.303545789195
 20
2407.498845549824
 30
0.0
 11
-2317.708612815795
 21
2407.498502357424
 31
0.0
  0
LINE
  5
1BC
330
1F
100
AcDbEntity
  8
レバー
  6
Continuous
 62
     7
370
     0
100
AcDbLine
 10
-2317.708612815795
 20
2407.498502357424
 30
0.0
 11
-2325.520445988795
 21
2407.498289084523
 31
0.0
  0
LINE
  5
1BD
330
1F
100
AcDbEntity
  8
レバー
  6
Continuous
 62
     7
370
     0
100
AcDbLine
 10
-2325.520445988795
 20
2407.498289084523
 30
0.0
 11
-2332.342547760595
 21
2407.498224823324
 31
0.0
  0
LINE
  5
1BE
330
1F
100
AcDbEntity
  8
レバー
  6
Continuous
 62
     7
370
     0
100
AcDbLine
 10
-2332.342547760595
 20
2407.498224823324
 30
0.0
 11
-2338.637293712495
 21
2407.498296069524
 31
0.0
  0
LINE
  5
1BF
330
1F
100
AcDbEntity
  8
レバー
  6
Continuous
 62
     7
370
     0
100
AcDbLine
 10
-2338.637293712495
 20
2407.498296069524
 30
0.0
 11
-2344.404683844495
 21
2407.498493975524
 31
0.0
  0
LINE
  5
1C0
330
1F
100
AcDbEntity
  8
レバー
  6
Continuous
 62
     7
370
     0
100
AcDbLine
 10
-2344.404683844495
 20
2407.498493975524
 30
0.0
 11
-2349.646424339495
 21
2407.498799915023
 31
0.0
  0
LINE
  5
1C1
330
1F
100
AcDbEntity
  8
レバー
  6
Continuous
 62
     7
370
     0
100
AcDbLine
 10
-2349.646424339495
 20
2407.498799915023
 30
0.0
 11
-2354.443581239595
 21
2407.499198055424
 31
0.0
  0
LINE
  5
1C2
330
1F
100
AcDbEntity
  8
レバー
  6
Continuous
 62
     7
370
     0
100
AcDbLine
 10
-2354.443581239595
 20
2407.499198055424
 30
0.0
 11
-2359.094760776795
 21
2407.499702366523
 31
0.0
  0
LINE
  5
1C3
330
1F
100
AcDbEntity
  8
レバー
  6
Continuous
 62
     7
370
     0
100
AcDbLine
 10
-2359.094760776795
 20
2407.499702366523
 30
0.0
 11
-2363.296864019095
 21
2407.500264419724
 31
0.0
  0
LINE
  5
1C4
330
1F
100
AcDbEntity
  8
レバー
  6
Continuous
 62
     7
370
     0
100
AcDbLine
 10
-2363.296864019095
 20
2407.500264419724
 30
0.0
 11
-2367.050293297795
 21
2407.500646262023
 31
0.0
  0
LINE
  5
1C5
330
1F
100
AcDbEntity
  8
レバー
  6
Continuous
 62
     7
370
     0
100
AcDbLine
 10
-2367.050293297795
 20
2407.500646262023
 30
0.0
 11
-2369.052150682795
 21
2407.499931006224
 31
0.0
  0
LINE
  5
1C6
330
1F
100
AcDbEntity
  8
レバー
  6
Continuous
 62
     7
370
     0
100
AcDbLine
 10
-2369.052150682795
 20
2407.499931006224
 30
0.0
 11
-2370.898518176095
 21
2407.497927731423
 31
0.0
  0
LINE
  5
1C7
330
1F
100
AcDbEntity
  8
レバー
  6
Continuous
 62
     7
370
     0
100
AcDbLine
 10
-2370.898518176095
 20
2407.497927731423
 30
0.0
 11
-2372.908138134795
 21
2407.494641094023
 31
0.0
  0
LINE
  5
1C8
330
1F
100
AcDbEntity
  8
レバー
  6
Continuous
 62
     7
370
     0
100
AcDbLine
 10
-2372.908138134795
 20
2407.494641094023
 30
0.0
 11
-2375.316073582795
 21
2407.492074834723
 31
0.0
  0
LINE
  5
1C9
330
1F
100
AcDbEntity
  8
レバー
  6
Continuous
 62
     7
370
     0
100
AcDbLine
 10
-2375.316073582795
 20
2407.492074834723
 30
0.0
 11
-2376.811233745295
 21
2407.491586356024
 31
0.0
  0
LINE
  5
1CA
330
1F
100
AcDbEntity
  8
レバー
  6
Continuous
 62
     7
370
     0
100
AcDbLine
 10
-2376.811233745295
 20
2407.491586356024
 30
0.0
 11
-2378.348583751696
 21
2407.492336070623
 31
0.0
  0
LINE
  5
1CB
330
1F
100
AcDbEntity
  8
レバー
  6
Continuous
 62
     7
370
     0
100
AcDbLine
 10
-2378.348583751696
 20
2407.492336070623
 30
0.0
 11
-2379.866883554795
 21
2407.493537942424
 31
0.0
  0
LINE
  5
1CC
330
1F
100
AcDbEntity
  8
レバー
  6
Continuous
 62
     7
370
     0
100
AcDbLine
 10
-2379.866883554795
 20
2407.493537942424
 30
0.0
 11
-2380.967555032395
 21
2407.492673675123
 31
0.0
  0
LINE
  5
1CD
330
1F
100
AcDbEntity
  8
レバー
  6
Continuous
 62
     7
370
     0
100
AcDbLine
 10
-2380.967555032395
 20
2407.492673675123
 30
0.0
 11
-2381.429879856595
 21
2407.486083636524
 31
0.0
  0
LINE
  5
1CE
330
1F
100
AcDbEntity
  8
レバー
  6
Continuous
 62
     7
370
     0
100
AcDbLine
 10
-2381.429879856595
 20
2407.486083636524
 30
0.0
 11
-2381.433799327595
 21
2407.482003512324
 31
0.0
  0
ARC
  5
1CF
330
1F
100
AcDbEntity
  8
レバー
  6
Continuous
 62
     7
370
     0
100
AcDbCircle
 10
-2270.799671069995
 20
2406.000247702524
 30
0.0
 40
1.500000000000118
100
AcDbArc
 50
359.9999957463
 51
90.17419294509996
  0
ARC
  5
1D0
330
1F
100
AcDbEntity
  8
レバー
  6
Continuous
 62
     7
370
     0
100
AcDbCircle
 10
-2270.799671069995
 20
2395.000247128923
 30
0.0
 40
1.500000000000029
100
AcDbArc
 50
269.9105889113
 51
359.9915336725
  0
LINE
  5
1D1
330
1F
100
AcDbEntity
  8
レバー
  6
Continuous
 62
     7
370
     0
100
AcDbLine
 10
-2376.344284438796
 20
2407.491739092924
 30
0.0
 11
-2377.107282565295
 21
2408.278422149424
 31
0.0
  0
LINE
  5
1D2
330
1F
100
AcDbEntity
  8
レバー
  6
Continuous
 62
     7
370
     0
100
AcDbLine
 10
-2377.107282565295
 20
2408.278422149424
 30
0.0
 11
-2379.077257984595
 21
2409.646413473924
 31
0.0
  0
LINE
  5
1D3
330
1F
100
AcDbEntity
  8
レバー
  6
Continuous
 62
     7
370
     0
100
AcDbLine
 10
-2379.077257984595
 20
2409.646413473924
 30
0.0
 11
-2381.324786623295
 21
2410.662922261823
 31
0.0
  0
LINE
  5
1D4
330
1F
100
AcDbEntity
  8
レバー
  6
Continuous
 62
     7
370
     0
100
AcDbLine
 10
-2381.324786623295
 20
2410.662922261823
 30
0.0
 11
-2383.763496927295
 21
2411.288885584624
 31
0.0
  0
LINE
  5
1D5
330
1F
100
AcDbEntity
  8
レバー
  6
Continuous
 62
     7
370
     0
100
AcDbLine
 10
-2383.763496927295
 20
2411.288885584624
 30
0.0
 11
-2386.299671069995
 21
2411.500247380224
 31
0.0
  0
LINE
  5
1D6
330
1F
100
AcDbEntity
  8
レバー
  6
Continuous
 62
     7
370
     0
100
AcDbLine
 10
-2386.299671069995
 20
2411.500247380224
 30
0.0
 11
-2388.835845212795
 21
2411.288885584624
 31
0.0
  0
LINE
  5
1D7
330
1F
100
AcDbEntity
  8
レバー
  6
Continuous
 62
     7
370
     0
100
AcDbLine
 10
-2388.835845212795
 20
2411.288885584624
 30
0.0
 11
-2391.274555516695
 21
2410.662922261823
 31
0.0
  0
LINE
  5
1D8
330
1F
100
AcDbEntity
  8
レバー
  6
Continuous
 62
     7
370
     0
100
AcDbLine
 10
-2391.274555516695
 20
2410.662922261823
 30
0.0
 11
-2393.522084155395
 21
2409.646413473924
 31
0.0
  0
LINE
  5
1D9
330
1F
100
AcDbEntity
  8
レバー
  6
Continuous
 62
     7
370
     0
100
AcDbLine
 10
-2393.522084155395
 20
2409.646413473924
 30
0.0
 11
-2395.492059574795
 21
2408.278422149424
 31
0.0
  0
LINE
  5
1DA
330
1F
100
AcDbEntity
  8
レバー
  6
Continuous
 62
     7
370
     0
100
AcDbLine
 10
-2395.492059574795
 20
2408.278422149424
 30
0.0
 11
-2397.108775959595
 21
2406.611520050623
 31
0.0
  0
LINE
  5
1DB
330
1F
100
AcDbEntity
  8
レバー
  6
Continuous
 62
     7
370
     0
100
AcDbLine
 10
-2397.108775959595
 20
2406.611520050623
 30
0.0
 11
-2398.310104781095
 21
2404.709765406824
 31
0.0
  0
LINE
  5
1DC
330
1F
100
AcDbEntity
  8
レバー
  6
Continuous
 62
     7
370
     0
100
AcDbLine
 10
-2398.310104781095
 20
2404.709765406824
 30
0.0
 11
-2399.049879447895
 21
2402.646240963124
 31
0.0
  0
LINE
  5
1DD
330
1F
100
AcDbEntity
  8
レバー
  6
Continuous
 62
     7
370
     0
100
AcDbLine
 10
-2399.049879447895
 20
2402.646240963124
 30
0.0
 11
-2399.299671338195
 21
2400.500247439824
 31
0.0
  0
LINE
  5
1DE
330
1F
100
AcDbEntity
  8
レバー
  6
Continuous
 62
     7
370
     0
100
AcDbLine
 10
-2399.299671338195
 20
2400.500247439824
 30
0.0
 11
-2399.049879447895
 21
2398.354253916524
 31
0.0
  0
LINE
  5
1DF
330
1F
100
AcDbEntity
  8
レバー
  6
Continuous
 62
     7
370
     0
100
AcDbLine
 10
-2399.049879447895
 20
2398.354253916524
 30
0.0
 11
-2398.310104781095
 21
2396.290729472924
 31
0.0
  0
LINE
  5
1E0
330
1F
100
AcDbEntity
  8
レバー
  6
Continuous
 62
     7
370
     0
100
AcDbLine
 10
-2398.310104781095
 20
2396.290729472924
 30
0.0
 11
-2397.108775959595
 21
2394.388974829123
 31
0.0
  0
LINE
  5
1E1
330
1F
100
AcDbEntity
  8
レバー
  6
Continuous
 62
     7
370
     0
100
AcDbLine
 10
-2397.108775959595
 20
2394.388974829123
 30
0.0
 11
-2395.492059574795
 21
2392.722072730324
 31
0.0
  0
LINE
  5
1E2
330
1F
100
AcDbEntity
  8
レバー
  6
Continuous
 62
     7
370
     0
100
AcDbLine
 10
-2395.492059574795
 20
2392.722072730324
 30
0.0
 11
-2393.522084155395
 21
2391.354081405823
 31
0.0
  0
LINE
  5
1E3
330
1F
100
AcDbEntity
  8
レバー
  6
Continuous
 62
     7
370
     0
100
AcDbLine
 10
-2393.522084155395
 20
2391.354081405823
 30
0.0
 11
-2391.274555516695
 21
2390.337572617923
 31
0.0
  0
LINE
  5
1E4
330
1F
100
AcDbEntity
  8
レバー
  6
Continuous
 62
     7
370
     0
100
AcDbLine
 10
-2391.274555516695
 20
2390.337572617923
 30
0.0
 11
-2388.835845212795
 21
2389.711609295124
 31
0.0
  0
LINE
  5
1E5
330
1F
100
AcDbEntity
  8
レバー
  6
Continuous
 62
     7
370
     0
100
AcDbLine
 10
-2388.835845212795
 20
2389.711609295124
 30
0.0
 11
-2386.299671069995
 21
2389.500247499424
 31
0.0
  0
LINE
  5
1E6
330
1F
100
AcDbEntity
  8
レバー
  6
Continuous
 62
     7
370
     0
100
AcDbLine
 10
-2386.299671069995
 20
2389.500247499424
 30
0.0
 11
-2383.763496927295
 21
2389.711609295124
 31
0.0
  0
LINE
  5
1E7
330
1F
100
AcDbEntity
  8
レバー
  6
Continuous
 62
     7
370
     0
100
AcDbLine
 10
-2383.763496927295
 20
2389.711609295124
 30
0.0
 11
-2381.324786623295
 21
2390.337572617923
 31
0.0
  0
LINE
  5
1E8
330
1F
100
AcDbEntity
  8
レバー
  6
Continuous
 62
     7
370
     0
100
AcDbLine
 10
-2381.324786623295
 20
2390.337572617923
 30
0.0
 11
-2379.077257984595
 21
2391.354081405823
 31
0.0
  0
LINE
  5
1E9
330
1F
100
AcDbEntity
  8
レバー
  6
Continuous
 62
     7
370
     0
100
AcDbLine
 10
-2379.077257984595
 20
2391.354081405823
 30
0.0
 11
-2377.107282565295
 21
2392.722072730324
 31
0.0
  0
LINE
  5
1EA
330
1F
100
AcDbEntity
  8
レバー
  6
Continuous
 62
     7
370
     0
100
AcDbLine
 10
-2377.107282565295
 20
2392.722072730324
 30
0.0
 11
-2376.344379433695
 21
2393.508657997924
 31
0.0
  0
LINE
  5
1EB
330
1F
100
AcDbEntity
  8
レバー
  6
Continuous
 62
     7
370
     0
100
AcDbLine
 10
-2269.299672381295
 20
2400.500408573724
 30
0.0
 11
-2269.299672381295
 21
2395.003271939723
 31
0.0
  0
LINE
  5
1EC
330
1F
100
AcDbEntity
  8
レバー
  6
Continuous
 62
     7
370
     0
100
AcDbLine
 10
-2269.299672381295
 20
2400.500408573724
 30
0.0
 11
-2269.299672381295
 21
2405.993492993124
 31
0.0
  0
ARC
  5
1ED
330
1F
100
AcDbEntity
  8
レバー
  6
Continuous
 62
     7
370
     0
100
AcDbCircle
 10
-2386.299671069995
 20
2400.500247439824
 30
0.0
 40
24.55
100
AcDbArc
 50
16.5995243249
 51
343.3673588443
  0
LINE
  5
1EE
330
1F
100
AcDbEntity
  8
0-7
  6
JWW_CENTER2
 62
     7
370
     9
100
AcDbLine
 10
-1713.799671069996
 20
2440.500148463894
 30
0.0
 11
-2436.799671069995
 21
1443.000148463894
 31
0.0
  0
LINE
  5
1EF
330
1F
100
AcDbEntity
  8
0-7
  6
JWW_CENTER2
 62
     7
370
     9
100
AcDbLine
 10
-2436.799671069995
 20
3438.000148463894
 30
0.0
 11
-1713.799671069996
 21
2440.500148463894
 31
0.0
  0
LINE
  5
1F0
330
1F
100
AcDbEntity
  8
0-7
  6
JWW_CENTER2
 62
     7
370
     9
100
AcDbLine
 10
2706.400212468327
 20
2440.500148463894
 30
0.0
 11
2026.400212468328
 21
1443.000148463894
 31
0.0
  0
LINE
  5
1F1
330
1F
100
AcDbEntity
  8
0-7
  6
JWW_CENTER2
 62
     7
370
     9
100
AcDbLine
 10
2026.400212468328
 20
3438.000148463894
 30
0.0
 11
2706.400212468327
 21
2440.500148463894
 31
0.0
  0
LINE
  5
1F2
330
1F
100
AcDbEntity
  8
0-7
  6
JWW_CENTER2
 62
     7
370
     9
100
AcDbLine
 10
497.8000851192985
 20
2440.500148463894
 30
0.0
 11
-205.1999148806999
 21
1443.000148463894
 31
0.0
  0
LINE
  5
1F3
330
1F
100
AcDbEntity
  8
0-7
  6
JWW_CENTER2
 62
     7
370
     9
100
AcDbLine
 10
-205.1999148806999
 20
3438.000148463894
 30
0.0
 11
497.8000851192985
 21
2440.500148463894
 31
0.0
  0
LINE
  5
1F4
330
1F
100
AcDbEntity
  8
F-1_枠
  6
Continuous
 62
   200
370
    20
100
AcDbLine
 10
-5999.99998453501
 20
190.5001831054688
 30
0.0
 11
5689.998977248734
 21
190.5001831054688
 31
0.0
  0
LINE
  5
1F5
330
1F
100
AcDbEntity
  8
F-1_枠
  6
Continuous
 62
   200
370
    20
100
AcDbLine
 10
-5999.99998453501
 20
-15.50015011349217
 30
0.0
 11
5689.998977248734
 21
-15.50015011349217
 31
0.0
  0
LINE
  5
1F6
330
1F
100
AcDbEntity
  8
F-0_補助線
  6
JWW_HOJO
 62
   200
370
    20
100
AcDbLine
 10
-5999.99998453501
 20
84.49993236644843
 30
0.0
 11
5689.998977248734
 21
84.49993236644843
 31
0.0
  0
LINE
  5
1F7
330
1F
100
AcDbEntity
  8
F-1_枠
  6
Continuous
 62
   200
370
    20
100
AcDbLine
 10
-5999.99998453501
 20
184.5000148463899
 30
0.0
 11
5689.998977248734
 21
184.5000148463899
 31
0.0
  0
LINE
  5
1F8
330
1F
100
AcDbEntity
  8
F-1_枠
  6
Continuous
 62
   200
370
    20
100
AcDbLine
 10
-5999.99998453501
 20
187.5000989759289
 30
0.0
 11
5689.998977248734
 21
187.5000989759289
 31
0.0
  0
LINE
  5
1F9
330
1F
100
AcDbEntity
  8
F-0_補助線
  6
JWW_HOJO
 62
   200
370
    20
100
AcDbLine
 10
-5999.99998453501
 20
4064.999901024072
 30
0.0
 11
5689.998977248734
 21
4064.999901024072
 31
0.0
  0
MTEXT
  5
1FA
330
1F
100
AcDbEntity
  8
0-A_文字
  6
Continuous
 62
     7
370
     9
100
AcDbMText
 10
-3138.399798419025
 20
421.5751831054687
 30
0.0
 40
57.15000000000001
 41
1050.0
 46
0.0
 71
     7
 72
     1
  1
{\fＭＳ ゴシック|b0|i0|c128|p49;ハイドアの対応はありません。}
 73
     1
 44
1.0
  0
MTEXT
  5
1FB
330
1F
100
AcDbEntity
  8
0-A_文字
  6
Continuous
 62
     7
370
     9
100
AcDbMText
 10
-906.7996710699953
 20
421.5751831054687
 30
0.0
 40
57.15000000000001
 41
1050.0
 46
0.0
 71
     7
 72
     1
  1
{\fＭＳ ゴシック|b0|i0|c128|p49;ハイドアの対応はありません。}
 73
     1
 44
1.0
  0
MTEXT
  5
1FC
330
1F
100
AcDbEntity
  8
0-A_文字
  6
Continuous
 62
     7
370
     9
100
AcDbMText
 10
1324.8000851193
 20
421.5751831054687
 30
0.0
 40
57.15000000000001
 41
1050.0
 46
0.0
 71
     7
 72
     1
  1
{\fＭＳ ゴシック|b0|i0|c128|p49;ハイドアの対応はありません。}
 73
     1
 44
1.0
  0
LINE
  5
1FD
330
1F
100
AcDbEntity
  8
F-A_文字
  6
Continuous
 62
     7
370
     9
100
AcDbLine
 10
-5490.000018557986
 20
-3790.000017526987
 30
0.0
 11
-3258.399798419025
 21
184.5000148463899
 31
0.0
  0
LINE
  5
1FE
330
1F
100
AcDbEntity
  8
F-A_文字
  6
Continuous
 62
     7
370
     9
100
AcDbLine
 10
-3258.399798419025
 20
-3790.000017526987
 30
0.0
 11
-1026.799671069995
 21
184.5000148463899
 31
0.0
  0
LINE
  5
1FF
330
1F
100
AcDbEntity
  8
F-A_文字
  6
Continuous
 62
     7
370
     9
100
AcDbLine
 10
-1026.799671069995
 20
-3790.000017526987
 30
0.0
 11
1204.8000851193
 21
184.5000148463899
 31
0.0
  0
LINE
  5
200
330
1F
100
AcDbEntity
  8
F-A_文字
  6
Continuous
 62
     7
370
     9
100
AcDbLine
 10
1204.8000851193
 20
-3790.000017526987
 30
0.0
 11
3436.400212468328
 21
184.5000148463899
 31
0.0
  0
MTEXT
  5
201
330
1F
100
AcDbEntity
  8
F-A_文字
  6
Continuous
 62
     7
370
     0
100
AcDbMText
 10
-5239.999990205507
 20
-4045.352123578391
 30
0.0
 40
79.295625
 41
1665.0
 46
0.0
 71
     7
 72
     1
  1
{\fＭＳ ゴシック|b0|i0|c128|p49;ドレタス　シングルドア　Ｂ－ＴＲ}
 73
     1
 44
1.0
  0
MTEXT
  5
202
330
1F
100
AcDbEntity
  8
0-A_文字
  6
Continuous
 62
     7
370
     9
100
AcDbMText
 10
-2345.099781139475
 20
4013.576151024072
 30
0.0
 40
77.15249999999999
 41
405.0
 46
0.0
 71
     7
 72
     1
  1
{\fＭＳ ゴシック|b0|i0|c128|p49;Ｂ－ＴＲ}
 73
     1
 44
1.0
  0
MTEXT
  5
203
330
1F
100
AcDbEntity
  8
0-A_文字
  6
Continuous
 62
     7
370
     9
100
AcDbMText
 10
-113.500024950182
 20
4013.576151024072
 30
0.0
 40
77.15249999999999
 41
405.0
 46
0.0
 71
     7
 72
     1
  1
{\fＭＳ ゴシック|b0|i0|c128|p49;Ｂ－ＴＲ}
 73
     1
 44
1.0
  0
MTEXT
  5
204
330
1F
100
AcDbEntity
  8
0-A_文字
  6
Continuous
 62
     7
370
     9
100
AcDbMText
 10
2118.100102398846
 20
4013.576151024072
 30
0.0
 40
77.15249999999999
 41
405.0
 46
0.0
 71
     7
 72
     1
  1
{\fＭＳ ゴシック|b0|i0|c128|p49;Ｂ－ＴＲ}
 73
     1
 44
1.0
  0
LINE
  5
205
330
1F
100
AcDbEntity
  8
F-A_文字
  6
Continuous
 62
     7
370
     9
100
AcDbLine
 10
-5490.000018557986
 20
190.4999511306352
 30
0.0
 11
-3258.399798419025
 21
4164.999983504013
 31
0.0
  0
LINE
  5
206
330
1F
100
AcDbEntity
  8
0-2_扉
  6
Continuous
 62
     7
370
     9
100
AcDbLine
 10
-2436.799671069995
 20
1443.000148463894
 30
0.0
 11
-2436.799671069995
 21
3438.000148463894
 31
0.0
  0
LINE
  5
207
330
1F
100
AcDbEntity
  8
0-2_扉
  6
Continuous
 62
     7
370
     9
100
AcDbLine
 10
-2436.799671069995
 20
3438.000148463894
 30
0.0
 11
-1713.799671069996
 21
3438.000148463894
 31
0.0
  0
LINE
  5
208
330
1F
100
AcDbEntity
  8
0-2_扉
  6
Continuous
 62
     7
370
     9
100
AcDbLine
 10
-2436.799671069995
 20
1443.000148463894
 30
0.0
 11
-1713.799671069996
 21
1443.000148463894
 31
0.0
  0
LINE
  5
209
330
1F
100
AcDbEntity
  8
0-2_扉
  6
Continuous
 62
     7
370
     9
100
AcDbLine
 10
-1713.799671069996
 20
1443.000148463894
 30
0.0
 11
-1713.799671069996
 21
3438.000148463894
 31
0.0
  0
LINE
  5
20A
330
1F
100
AcDbEntity
  8
0-2_扉
  6
Continuous
 62
     7
370
     9
100
AcDbLine
 10
-2434.799671069996
 20
1443.000148463894
 30
0.0
 11
-2434.799671069996
 21
3438.000148463894
 31
0.0
  0
LINE
  5
20B
330
1F
100
AcDbEntity
  8
0-2_扉
  6
Continuous
 62
     7
370
     9
100
AcDbLine
 10
-1713.799671069996
 20
1443.000148463894
 30
0.0
 11
-1713.799671069996
 21
3438.000148463894
 31
0.0
  0
LINE
  5
20C
330
1F
100
AcDbEntity
  8
0-2_扉
  6
Continuous
 62
     7
370
     9
100
AcDbLine
 10
-1743.799671069996
 20
1443.000148463894
 30
0.0
 11
-1743.799671069996
 21
3438.000148463894
 31
0.0
  0
LINE
  5
20D
330
1F
100
AcDbEntity
  8
0-2_扉
  6
Continuous
 62
     7
370
     9
100
AcDbLine
 10
-2326.799671069995
 20
2458.000148463894
 30
0.0
 11
-1743.799671069996
 21
2458.000148463894
 31
0.0
  0
LINE
  5
20E
330
1F
100
AcDbEntity
  8
0-2_扉
  6
Continuous
 62
     7
370
     9
100
AcDbLine
 10
-2326.799671069995
 20
2293.000148463894
 30
0.0
 11
-1743.799671069996
 21
2293.000148463894
 31
0.0
  0
LINE
  5
20F
330
1F
100
AcDbEntity
  8
0-2_扉
  6
Continuous
 62
     7
370
     9
100
AcDbLine
 10
-205.1999148806999
 20
1443.000148463894
 30
0.0
 11
-205.1999148806999
 21
3438.000148463894
 31
0.0
  0
LINE
  5
210
330
1F
100
AcDbEntity
  8
0-2_扉
  6
Continuous
 62
     7
370
     9
100
AcDbLine
 10
-205.1999148806999
 20
3438.000148463894
 30
0.0
 11
497.8000851192997
 21
3438.000148463894
 31
0.0
  0
LINE
  5
211
330
1F
100
AcDbEntity
  8
0-2_扉
  6
Continuous
 62
     7
370
     9
100
AcDbLine
 10
-205.1999148806999
 20
1443.000148463894
 30
0.0
 11
497.8000851192997
 21
1443.000148463894
 31
0.0
  0
LINE
  5
212
330
1F
100
AcDbEntity
  8
0-2_扉
  6
Continuous
 62
     7
370
     9
100
AcDbLine
 10
497.8000851192997
 20
1443.000148463894
 30
0.0
 11
497.8000851192997
 21
3438.000148463894
 31
0.0
  0
LINE
  5
213
330
1F
100
AcDbEntity
  8
0-2_扉
  6
Continuous
 62
     7
370
     9
100
AcDbLine
 10
-203.1999148807006
 20
1443.000148463894
 30
0.0
 11
-203.1999148807006
 21
3438.000148463894
 31
0.0
  0
LINE
  5
214
330
1F
100
AcDbEntity
  8
0-2_扉
  6
Continuous
 62
     7
370
     9
100
AcDbLine
 10
467.8000851192997
 20
1443.000148463894
 30
0.0
 11
467.8000851192997
 21
3438.000148463894
 31
0.0
  0
LINE
  5
215
330
1F
100
AcDbEntity
  8
0-2_扉
  6
Continuous
 62
     7
370
     9
100
AcDbLine
 10
-95.19991488069991
 20
2458.000148463894
 30
0.0
 11
467.8000851192997
 21
2458.000148463894
 31
0.0
  0
LINE
  5
216
330
1F
100
AcDbEntity
  8
0-2_扉
  6
Continuous
 62
     7
370
     9
100
AcDbLine
 10
-95.19991488069991
 20
2293.000148463894
 30
0.0
 11
467.8000851192997
 21
2293.000148463894
 31
0.0
  0
LINE
  5
217
330
1F
100
AcDbEntity
  8
0-2_扉
  6
Continuous
 62
     7
370
     9
100
AcDbLine
 10
2026.400212468328
 20
1443.000148463894
 30
0.0
 11
2026.400212468328
 21
3438.000148463894
 31
0.0
  0
LINE
  5
218
330
1F
100
AcDbEntity
  8
0-2_扉
  6
Continuous
 62
     7
370
     9
100
AcDbLine
 10
2026.400212468328
 20
3438.000148463894
 30
0.0
 11
2706.400212468328
 21
3438.000148463894
 31
0.0
  0
LINE
  5
219
330
1F
100
AcDbEntity
  8
0-2_扉
  6
Continuous
 62
     7
370
     9
100
AcDbLine
 10
2026.400212468328
 20
1443.000148463894
 30
0.0
 11
2706.400212468328
 21
1443.000148463894
 31
0.0
  0
LINE
  5
21A
330
1F
100
AcDbEntity
  8
0-2_扉
  6
Continuous
 62
     7
370
     9
100
AcDbLine
 10
2706.400212468328
 20
1443.000148463894
 30
0.0
 11
2706.400212468328
 21
3438.000148463894
 31
0.0
  0
LINE
  5
21B
330
1F
100
AcDbEntity
  8
0-2_扉
  6
Continuous
 62
     7
370
     9
100
AcDbLine
 10
2028.400212468328
 20
1443.000148463894
 30
0.0
 11
2028.400212468328
 21
3438.000148463894
 31
0.0
  0
LINE
  5
21C
330
1F
100
AcDbEntity
  8
0-2_扉
  6
Continuous
 62
     7
370
     9
100
AcDbLine
 10
2706.400212468328
 20
1443.000148463894
 30
0.0
 11
2706.400212468328
 21
3438.000148463894
 31
0.0
  0
LINE
  5
21D
330
1F
100
AcDbEntity
  8
0-2_扉
  6
Continuous
 62
     7
370
     9
100
AcDbLine
 10
2676.400212468328
 20
1443.000148463894
 30
0.0
 11
2676.400212468328
 21
3438.000148463894
 31
0.0
  0
LINE
  5
21E
330
1F
100
AcDbEntity
  8
0-2_扉
  6
Continuous
 62
     7
370
     9
100
AcDbLine
 10
2136.400212468328
 20
2458.000148463894
 30
0.0
 11
2676.400212468328
 21
2458.000148463894
 31
0.0
  0
LINE
  5
21F
330
1F
100
AcDbEntity
  8
0-2_扉
  6
Continuous
 62
     7
370
     9
100
AcDbLine
 10
2136.400212468328
 20
2293.000148463894
 30
0.0
 11
2676.400212468328
 21
2293.000148463894
 31
0.0
  0
LINE
  5
220
330
1F
100
AcDbEntity
  8
0-C_ハッチ
  6
Continuous
 62
   120
370
     5
100
AcDbLine
 10
-2289.441887337012
 20
2458.000148463894
 30
0.0
 11
-2326.799671069995
 21
2425.462723922265
 31
0.0
  0
LINE
  5
221
330
1F
100
AcDbEntity
  8
0-C_ハッチ
  6
Continuous
 62
   120
370
     5
100
AcDbLine
 10
-2213.312980703331
 20
2458.000148463894
 30
0.0
 11
-2271.015701132108
 21
2407.742940348507
 31
0.0
  0
LINE
  5
222
330
1F
100
AcDbEntity
  8
0-C_ハッチ
  6
Continuous
 62
   120
370
     5
100
AcDbLine
 10
-1743.799671069995
 20
2402.790342216603
 30
0.0
 11
-1869.855078711993
 21
2293.000148463894
 31
0.0
  0
LINE
  5
223
330
1F
100
AcDbEntity
  8
0-C_ハッチ
  6
Continuous
 62
   120
370
     5
100
AcDbLine
 10
-2137.184074069648
 20
2458.000148463894
 30
0.0
 11
-2326.62851851409
 21
2293.000148463894
 31
0.0
  0
LINE
  5
224
330
1F
100
AcDbEntity
  8
0-C_ハッチ
  6
Continuous
 62
   120
370
     5
100
AcDbLine
 10
-2099.119620752805
 20
2458.000148463894
 30
0.0
 11
-2288.564065197251
 21
2293.000148463894
 31
0.0
  0
LINE
  5
225
330
1F
100
AcDbEntity
  8
0-C_ハッチ
  6
Continuous
 62
   120
370
     5
100
AcDbLine
 10
-2061.055167435964
 20
2458.000148463894
 30
0.0
 11
-2250.49961188041
 21
2293.000148463894
 31
0.0
  0
LINE
  5
226
330
1F
100
AcDbEntity
  8
0-C_ハッチ
  6
Continuous
 62
   120
370
     5
100
AcDbLine
 10
-2022.990714119123
 20
2458.000148463894
 30
0.0
 11
-2212.435158563565
 21
2293.000148463894
 31
0.0
  0
LINE
  5
227
330
1F
100
AcDbEntity
  8
0-C_ハッチ
  6
Continuous
 62
   120
370
     5
100
AcDbLine
 10
-1984.926260802282
 20
2458.000148463894
 30
0.0
 11
-2174.370705246723
 21
2293.000148463894
 31
0.0
  0
LINE
  5
228
330
1F
100
AcDbEntity
  8
0-C_ハッチ
  6
Continuous
 62
   120
370
     5
100
AcDbLine
 10
-1946.86180748544
 20
2458.000148463894
 30
0.0
 11
-2136.306251929881
 21
2293.000148463894
 31
0.0
  0
LINE
  5
229
330
1F
100
AcDbEntity
  8
0-C_ハッチ
  6
Continuous
 62
   120
370
     5
100
AcDbLine
 10
-1908.7973541686
 20
2458.000148463894
 30
0.0
 11
-2098.24179861304
 21
2293.000148463894
 31
0.0
  0
LINE
  5
22A
330
1F
100
AcDbEntity
  8
0-C_ハッチ
  6
Continuous
 62
   120
370
     5
100
AcDbLine
 10
-1870.732900851758
 20
2458.000148463894
 30
0.0
 11
-2060.177345296199
 21
2293.000148463894
 31
0.0
  0
LINE
  5
22B
330
1F
100
AcDbEntity
  8
0-C_ハッチ
  6
Continuous
 62
   120
370
     5
100
AcDbLine
 10
-1832.668447534917
 20
2458.000148463894
 30
0.0
 11
-2022.112891979358
 21
2293.000148463894
 31
0.0
  0
LINE
  5
22C
330
1F
100
AcDbEntity
  8
0-C_ハッチ
  6
Continuous
 62
   120
370
     5
100
AcDbLine
 10
-1794.603994218076
 20
2458.000148463894
 30
0.0
 11
-1984.048438662517
 21
2293.000148463894
 31
0.0
  0
LINE
  5
22D
330
1F
100
AcDbEntity
  8
0-C_ハッチ
  6
Continuous
 62
   120
370
     5
100
AcDbLine
 10
-1756.539540901234
 20
2458.000148463894
 30
0.0
 11
-1945.983985345675
 21
2293.000148463894
 31
0.0
  0
LINE
  5
22E
330
1F
100
AcDbEntity
  8
0-C_ハッチ
  6
Continuous
 62
   120
370
     5
100
AcDbLine
 10
-2287.368075298418
 20
2393.500549945592
 30
0.0
 11
-2326.799671069995
 21
2359.15690201551
 31
0.0
  0
LINE
  5
22F
330
1F
100
AcDbEntity
  8
0-C_ハッチ
  6
Continuous
 62
   120
370
     5
100
AcDbLine
 10
-2175.24852738649
 20
2458.000148463894
 30
0.0
 11
-2326.799671069995
 21
2326.00399106213
 31
0.0
  0
LINE
  5
230
330
1F
100
AcDbEntity
  8
0-C_ハッチ
  6
Continuous
 62
   120
370
     5
100
AcDbLine
 10
-2251.377434020171
 20
2458.000148463894
 30
0.0
 11
-2309.328124429616
 21
2407.526966494378
 31
0.0
  0
LINE
  5
231
330
1F
100
AcDbEntity
  8
0-C_ハッチ
  6
Continuous
 62
   120
370
     5
100
AcDbLine
 10
-1743.799671069995
 20
2435.943253169982
 30
0.0
 11
-1907.919532028835
 21
2293.000148463894
 31
0.0
  0
LINE
  5
232
330
1F
100
AcDbEntity
  8
0-C_ハッチ
  6
Continuous
 62
   120
370
     5
100
AcDbLine
 10
-1743.799671069995
 20
2303.331609356468
 30
0.0
 11
-1755.661718761469
 21
2293.000148463894
 31
0.0
  0
LINE
  5
233
330
1F
100
AcDbEntity
  8
0-C_ハッチ
  6
Continuous
 62
   120
370
     5
100
AcDbLine
 10
-1743.799671069995
 20
2336.484520309846
 30
0.0
 11
-1793.72617207831
 21
2293.000148463894
 31
0.0
  0
LINE
  5
234
330
1F
100
AcDbEntity
  8
0-C_ハッチ
  6
Continuous
 62
   120
370
     5
100
AcDbLine
 10
-1743.799671069995
 20
2369.637431263225
 30
0.0
 11
-1831.790625395151
 21
2293.000148463894
 31
0.0
  0
LINE
  5
235
330
1F
100
AcDbEntity
  8
0-C_ハッチ
  6
Continuous
 62
   120
370
     5
100
AcDbLine
 10
-57.84213114771661
 20
2458.000148463894
 30
0.0
 11
-95.19991488069991
 21
2425.462723922265
 31
0.0
  0
LINE
  5
236
330
1F
100
AcDbEntity
  8
0-C_ハッチ
  6
Continuous
 62
   120
370
     5
100
AcDbLine
 10
18.28677548596431
 20
2458.000148463894
 30
0.0
 11
-39.41594494281305
 21
2407.742940348507
 31
0.0
  0
LINE
  5
237
330
1F
100
AcDbEntity
  8
0-C_ハッチ
  6
Continuous
 62
   120
370
     5
100
AcDbLine
 10
94.41568211964778
 20
2458.000148463894
 30
0.0
 11
-95.0287623247948
 21
2293.000148463894
 31
0.0
  0
LINE
  5
238
330
1F
100
AcDbEntity
  8
0-C_ハッチ
  6
Continuous
 62
   120
370
     5
100
AcDbLine
 10
132.4801354364899
 20
2458.000148463894
 30
0.0
 11
-56.96430900795605
 21
2293.000148463894
 31
0.0
  0
LINE
  5
239
330
1F
100
AcDbEntity
  8
0-C_ハッチ
  6
Continuous
 62
   120
370
     5
100
AcDbLine
 10
170.5445887533312
 20
2458.000148463894
 30
0.0
 11
-18.89985569111474
 21
2293.000148463894
 31
0.0
  0
LINE
  5
23A
330
1F
100
AcDbEntity
  8
0-C_ハッチ
  6
Continuous
 62
   120
370
     5
100
AcDbLine
 10
208.6090420701725
 20
2458.000148463894
 30
0.0
 11
19.16459762572998
 21
2293.000148463894
 31
0.0
  0
LINE
  5
23B
330
1F
100
AcDbEntity
  8
0-C_ハッチ
  6
Continuous
 62
   120
370
     5
100
AcDbLine
 10
246.673495387013
 20
2458.000148463894
 30
0.0
 11
57.22905094257214
 21
2293.000148463894
 31
0.0
  0
LINE
  5
23C
330
1F
100
AcDbEntity
  8
0-C_ハッチ
  6
Continuous
 62
   120
370
     5
100
AcDbLine
 10
284.7379487038552
 20
2458.000148463894
 30
0.0
 11
95.2935042594143
 21
2293.000148463894
 31
0.0
  0
LINE
  5
23D
330
1F
100
AcDbEntity
  8
0-C_ハッチ
  6
Continuous
 62
   120
370
     5
100
AcDbLine
 10
322.8024020206956
 20
2458.000148463894
 30
0.0
 11
133.3579575762547
 21
2293.000148463894
 31
0.0
  0
LINE
  5
23E
330
1F
100
AcDbEntity
  8
0-C_ハッチ
  6
Continuous
 62
   120
370
     5
100
AcDbLine
 10
360.8668553375369
 20
2458.000148463894
 30
0.0
 11
171.422410893096
 21
2293.000148463894
 31
0.0
  0
LINE
  5
23F
330
1F
100
AcDbEntity
  8
0-C_ハッチ
  6
Continuous
 62
   120
370
     5
100
AcDbLine
 10
398.9313086543787
 20
2458.000148463894
 30
0.0
 11
209.4868642099374
 21
2293.000148463894
 31
0.0
  0
LINE
  5
240
330
1F
100
AcDbEntity
  8
0-C_ハッチ
  6
Continuous
 62
   120
370
     5
100
AcDbLine
 10
436.9957619712195
 20
2458.000148463894
 30
0.0
 11
247.5513175267778
 21
2293.000148463894
 31
0.0
  0
LINE
  5
241
330
1F
100
AcDbEntity
  8
0-C_ハッチ
  6
Continuous
 62
   120
370
     5
100
AcDbLine
 10
-55.76831910912262
 20
2393.500549945592
 30
0.0
 11
-95.19991488069991
 21
2359.15690201551
 31
0.0
  0
LINE
  5
242
330
1F
100
AcDbEntity
  8
0-C_ハッチ
  6
Continuous
 62
   120
370
     5
100
AcDbLine
 10
56.35122880280561
 20
2458.000148463894
 30
0.0
 11
-95.19991488069991
 21
2326.00399106213
 31
0.0
  0
LINE
  5
243
330
1F
100
AcDbEntity
  8
0-C_ハッチ
  6
Continuous
 62
   120
370
     5
100
AcDbLine
 10
-19.77767783087615
 20
2458.000148463894
 30
0.0
 11
-77.72836824032112
 21
2407.526966494378
 31
0.0
  0
LINE
  5
244
330
1F
100
AcDbEntity
  8
0-C_ハッチ
  6
Continuous
 62
   120
370
     5
100
AcDbLine
 10
2173.757996201311
 20
2458.000148463894
 30
0.0
 11
2136.400212468328
 21
2425.462723922265
 31
0.0
  0
LINE
  5
245
330
1F
100
AcDbEntity
  8
0-C_ハッチ
  6
Continuous
 62
   120
370
     5
100
AcDbLine
 10
2249.886902834993
 20
2458.000148463894
 30
0.0
 11
2192.184182406215
 21
2407.742940348507
 31
0.0
  0
LINE
  5
246
330
1F
100
AcDbEntity
  8
0-C_ハッチ
  6
Continuous
 62
   120
370
     5
100
AcDbLine
 10
2326.015809468676
 20
2458.000148463894
 30
0.0
 11
2136.571365024233
 21
2293.000148463894
 31
0.0
  0
LINE
  5
247
330
1F
100
AcDbEntity
  8
0-C_ハッチ
  6
Continuous
 62
   120
370
     5
100
AcDbLine
 10
2364.080262785518
 20
2458.000148463894
 30
0.0
 11
2174.635818341072
 21
2293.000148463894
 31
0.0
  0
LINE
  5
248
330
1F
100
AcDbEntity
  8
0-C_ハッチ
  6
Continuous
 62
   120
370
     5
100
AcDbLine
 10
2402.144716102359
 20
2458.000148463894
 30
0.0
 11
2212.700271657914
 21
2293.000148463894
 31
0.0
  0
LINE
  5
249
330
1F
100
AcDbEntity
  8
0-C_ハッチ
  6
Continuous
 62
   120
370
     5
100
AcDbLine
 10
2440.209169419201
 20
2458.000148463894
 30
0.0
 11
2250.764724974758
 21
2293.000148463894
 31
0.0
  0
LINE
  5
24A
330
1F
100
AcDbEntity
  8
0-C_ハッチ
  6
Continuous
 62
   120
370
     5
100
AcDbLine
 10
2478.273622736041
 20
2458.000148463894
 30
0.0
 11
2288.8291782916
 21
2293.000148463894
 31
0.0
  0
LINE
  5
24B
330
1F
100
AcDbEntity
  8
0-C_ハッチ
  6
Continuous
 62
   120
370
     5
100
AcDbLine
 10
2516.338076052883
 20
2458.000148463894
 30
0.0
 11
2326.893631608442
 21
2293.000148463894
 31
0.0
  0
LINE
  5
24C
330
1F
100
AcDbEntity
  8
0-C_ハッチ
  6
Continuous
 62
   120
370
     5
100
AcDbLine
 10
2554.402529369724
 20
2458.000148463894
 30
0.0
 11
2364.958084925283
 21
2293.000148463894
 31
0.0
  0
LINE
  5
24D
330
1F
100
AcDbEntity
  8
0-C_ハッチ
  6
Continuous
 62
   120
370
     5
100
AcDbLine
 10
2592.466982686565
 20
2458.000148463894
 30
0.0
 11
2403.022538242124
 21
2293.000148463894
 31
0.0
  0
LINE
  5
24E
330
1F
100
AcDbEntity
  8
0-C_ハッチ
  6
Continuous
 62
   120
370
     5
100
AcDbLine
 10
2630.531436003407
 20
2458.000148463894
 30
0.0
 11
2441.086991558966
 21
2293.000148463894
 31
0.0
  0
LINE
  5
24F
330
1F
100
AcDbEntity
  8
0-C_ハッチ
  6
Continuous
 62
   120
370
     5
100
AcDbLine
 10
2668.595889320248
 20
2458.000148463894
 30
0.0
 11
2479.151444875806
 21
2293.000148463894
 31
0.0
  0
LINE
  5
250
330
1F
100
AcDbEntity
  8
0-C_ハッチ
  6
Continuous
 62
   120
370
     5
100
AcDbLine
 10
2175.831808239906
 20
2393.500549945592
 30
0.0
 11
2136.400212468328
 21
2359.15690201551
 31
0.0
  0
LINE
  5
251
330
1F
100
AcDbEntity
  8
0-C_ハッチ
  6
Continuous
 62
   120
370
     5
100
AcDbLine
 10
2287.951356151834
 20
2458.000148463894
 30
0.0
 11
2136.400212468328
 21
2326.00399106213
 31
0.0
  0
LINE
  5
252
330
1F
100
AcDbEntity
  8
0-C_ハッチ
  6
Continuous
 62
   120
370
     5
100
AcDbLine
 10
2211.822449518152
 20
2458.000148463894
 30
0.0
 11
2153.871759108707
 21
2407.526966494378
 31
0.0
  0
LINE
  5
253
330
1F
100
AcDbEntity
  8
0-C_ハッチ
  6
Continuous
 62
   120
370
     5
100
AcDbLine
 10
467.8000851192997
 20
2451.67680928465
 30
0.0
 11
285.61577084362
 21
2293.000148463894
 31
0.0
  0
LINE
  5
254
330
1F
100
AcDbEntity
  8
0-C_ハッチ
  6
Continuous
 62
   120
370
     5
100
AcDbLine
 10
467.8000851192997
 20
2319.065165471136
 30
0.0
 11
437.8735841109852
 21
2293.000148463894
 31
0.0
  0
LINE
  5
255
330
1F
100
AcDbEntity
  8
0-C_ハッチ
  6
Continuous
 62
   120
370
     5
100
AcDbLine
 10
467.8000851192997
 20
2385.370987377893
 30
0.0
 11
361.7446774773021
 21
2293.000148463894
 31
0.0
  0
LINE
  5
256
330
1F
100
AcDbEntity
  8
0-C_ハッチ
  6
Continuous
 62
   120
370
     5
100
AcDbLine
 10
467.8000851192997
 20
2418.523898331272
 30
0.0
 11
323.6802241604605
 21
2293.000148463894
 31
0.0
  0
LINE
  5
257
330
1F
100
AcDbEntity
  8
0-C_ハッチ
  6
Continuous
 62
   120
370
     5
100
AcDbLine
 10
467.8000851192997
 20
2352.218076424514
 30
0.0
 11
399.8091307941439
 21
2293.000148463894
 31
0.0
  0
LINE
  5
258
330
1F
100
AcDbEntity
  8
0-C_ハッチ
  6
Continuous
 62
   120
370
     5
100
AcDbLine
 10
2676.400212468328
 20
2431.644551220134
 30
0.0
 11
2517.215898192648
 21
2293.000148463894
 31
0.0
  0
LINE
  5
259
330
1F
100
AcDbEntity
  8
0-C_ハッチ
  6
Continuous
 62
   120
370
     5
100
AcDbLine
 10
2676.400212468328
 20
2299.03290740662
 30
0.0
 11
2669.473711460013
 21
2293.000148463894
 31
0.0
  0
LINE
  5
25A
330
1F
100
AcDbEntity
  8
0-C_ハッチ
  6
Continuous
 62
   120
370
     5
100
AcDbLine
 10
2676.400212468328
 20
2365.338729313377
 30
0.0
 11
2593.34480482633
 21
2293.000148463894
 31
0.0
  0
LINE
  5
25B
330
1F
100
AcDbEntity
  8
0-C_ハッチ
  6
Continuous
 62
   120
370
     5
100
AcDbLine
 10
2676.400212468328
 20
2398.491640266756
 30
0.0
 11
2555.280351509489
 21
2293.000148463894
 31
0.0
  0
LINE
  5
25C
330
1F
100
AcDbEntity
  8
0-C_ハッチ
  6
Continuous
 62
   120
370
     5
100
AcDbLine
 10
2676.400212468328
 20
2332.185818359998
 30
0.0
 11
2631.409258143172
 21
2293.000148463894
 31
0.0
  0
LINE
  5
25D
330
1F
100
AcDbEntity
  8
0-2_扉
  6
Continuous
 62
     7
370
     9
100
AcDbLine
 10
-2326.799671069995
 20
1443.000148463894
 30
0.0
 11
-2326.799671069995
 21
2393.502226251098
 31
0.0
  0
LINE
  5
25E
330
1F
100
AcDbEntity
  8
0-2_扉
  6
Continuous
 62
     7
370
     9
100
AcDbLine
 10
-2326.799671069995
 20
2407.498277034786
 30
0.0
 11
-2326.799671069995
 21
3438.000148463894
 31
0.0
  0
LINE
  5
25F
330
1F
100
AcDbEntity
  8
0-2_扉
  6
Continuous
 62
     7
370
     9
100
AcDbLine
 10
-95.19991488069991
 20
1443.000148463894
 30
0.0
 11
-95.19991488069991
 21
2393.502226251098
 31
0.0
  0
LINE
  5
260
330
1F
100
AcDbEntity
  8
0-2_扉
  6
Continuous
 62
     7
370
     9
100
AcDbLine
 10
-95.19991488069991
 20
2407.498277034786
 30
0.0
 11
-95.19991488069991
 21
3438.000148463894
 31
0.0
  0
LINE
  5
261
330
1F
100
AcDbEntity
  8
0-2_扉
  6
Continuous
 62
     7
370
     9
100
AcDbLine
 10
2136.400212468328
 20
1443.000148463894
 30
0.0
 11
2136.400212468328
 21
2393.502226251098
 31
0.0
  0
LINE
  5
262
330
1F
100
AcDbEntity
  8
0-2_扉
  6
Continuous
 62
     7
370
     9
100
AcDbLine
 10
2136.400212468328
 20
2407.498289084523
 30
0.0
 11
2136.400212468328
 21
3438.000148463894
 31
0.0
  0
MTEXT
  5
263
330
1F
100
AcDbEntity
  8
0-A_文字
  6
Continuous
 62
     7
370
     9
100
AcDbMText
 10
-3138.399798419025
 20
541.5751831054688
 30
0.0
 40
57.15
 41
600.0
 46
0.0
 71
     7
 72
     1
  1
{\fＭＳ ゴシック|b0|i0|c128|p49;乳半合わせガラス}
 73
     1
 44
1.0
  0
MTEXT
  5
264
330
1F
100
AcDbEntity
  8
0-A_文字
  6
Continuous
 62
     7
370
     9
100
AcDbMText
 10
-906.7996710699953
 20
541.5751831054688
 30
0.0
 40
57.15
 41
600.0
 46
0.0
 71
     7
 72
     1
  1
{\fＭＳ ゴシック|b0|i0|c128|p49;乳半合わせガラス}
 73
     1
 44
1.0
  0
MTEXT
  5
265
330
1F
100
AcDbEntity
  8
0-A_文字
  6
Continuous
 62
     7
370
     9
100
AcDbMText
 10
1324.8000851193
 20
541.5751831054688
 30
0.0
 40
57.15
 41
600.0
 46
0.0
 71
     7
 72
     1
  1
{\fＭＳ ゴシック|b0|i0|c128|p49;乳半合わせガラス}
 73
     1
 44
1.0
  0
ENDSEC
  0
SECTION
  2
OBJECTS
  0
DICTIONARY
  5
C
330
0
100
AcDbDictionary
281
     1
  3
ACAD_GROUP
350
D
  3
ACAD_LAYOUT
350
1A
  3
ACAD_MATERIAL
350
3B
  3
ACAD_MLEADERSTYLE
350
267
  3
ACAD_MLINESTYLE
350
17
  3
ACAD_PLOTSETTINGS
350
19
  3
ACAD_PLOTSTYLENAME
350
E
  3
ACAD_TABLESTYLE
350
266
  3
ACAD_VISUALSTYLE
350
2A
  0
DICTIONARY
  5
D
102
{ACAD_REACTORS
330
C
102
}
330
C
100
AcDbDictionary
281
     1
  0
DICTIONARY
  5
1A
102
{ACAD_REACTORS
330
C
102
}
330
C
100
AcDbDictionary
281
     1
  3
Layout1
350
1E
  3
Layout2
350
26
  3
Model
350
22
  0
DICTIONARY
  5
3B
102
{ACAD_REACTORS
330
C
102
}
330
C
100
AcDbDictionary
281
     1
  3
ByBlock
350
3D
  3
ByLayer
350
3C
  3
Global
350
3E
  0
DICTIONARY
  5
267
102
{ACAD_REACTORS
330
C
102
}
330
C
100
AcDbDictionary
281
     1
  0
DICTIONARY
  5
17
102
{ACAD_REACTORS
330
C
102
}
330
C
100
AcDbDictionary
281
     1
  3
Standard
350
18
  0
DICTIONARY
  5
19
102
{ACAD_REACTORS
330
C
102
}
330
C
100
AcDbDictionary
281
     1
  0
ACDBDICTIONARYWDFLT
  5
E
102
{ACAD_REACTORS
330
C
102
}
330
C
100
AcDbDictionary
281
     1
  3
Normal
350
F
100
AcDbDictionaryWithDefault
340
F
  0
DICTIONARY
  5
266
102
{ACAD_REACTORS
330
C
102
}
330
C
100
AcDbDictionary
281
     1
  0
DICTIONARY
  5
2A
102
{ACAD_REACTORS
330
C
102
}
330
C
100
AcDbDictionary
281
     1
  3
2dWireframe
350
2F
  3
3D Hidden
350
31
  3
3dWireframe
350
30
  3
Basic
350
32
  3
Brighten
350
36
  3
ColorChange
350
3A
  3
Conceptual
350
34
  3
Dim
350
35
  3
Facepattern
350
39
  3
Flat
350
2B
  3
FlatWithEdges
350
2C
  3
Gouraud
350
2D
  3
GouraudWithEdges
350
2E
  3
Linepattern
350
38
  3
Realistic
350
33
  3
Thicken
350
37
  0
LAYOUT
  5
1E
102
{ACAD_REACTORS
330
1A
102
}
330
1A
100
AcDbPlotSettings
  1

  2
none_device
  4

  6

 40
0.0
 41
0.0
 42
0.0
 43
0.0
 44
0.0
 45
0.0
 46
0.0
 47
0.0
 48
0.0
 49
0.0
140
0.0
141
0.0
142
1.0
143
1.0
 70
   688
 72
     0
 73
     0
 74
     5
  7

 75
    16
 76
     0
 77
     5
 78
   300
147
1.0
148
0.0
149
0.0
100
AcDbLayout
  1
Layout1
 70
     1
 71
     1
 10
0.0
 20
0.0
 11
420.0
 21
297.0
 12
0.0
 22
0.0
 32
0.0
 14
1.000000000000000E+20
 24
1.000000000000000E+20
 34
1.000000000000000E+20
 15
-1.000000000000000E+20
 25
-1.000000000000000E+20
 35
-1.000000000000000E+20
146
0.0
 13
0.0
 23
0.0
 33
0.0
 16
1.0
 26
0.0
 36
0.0
 17
0.0
 27
1.0
 37
0.0
 76
     0
330
1B
  0
LAYOUT
  5
26
102
{ACAD_REACTORS
330
1A
102
}
330
1A
100
AcDbPlotSettings
  1

  2
none_device
  4

  6

 40
0.0
 41
0.0
 42
0.0
 43
0.0
 44
0.0
 45
0.0
 46
0.0
 47
0.0
 48
0.0
 49
0.0
140
0.0
141
0.0
142
1.0
143
1.0
 70
   688
 72
     0
 73
     0
 74
     5
  7

 75
    16
 76
     0
 77
     5
 78
   300
147
1.0
148
0.0
149
0.0
100
AcDbLayout
  1
Layout2
 70
     1
 71
     2
 10
0.0
 20
0.0
 11
0.0
 21
0.0
 12
0.0
 22
0.0
 32
0.0
 14
0.0
 24
0.0
 34
0.0
 15
0.0
 25
0.0
 35
0.0
146
0.0
 13
0.0
 23
0.0
 33
0.0
 16
1.0
 26
0.0
 36
0.0
 17
0.0
 27
1.0
 37
0.0
 76
     0
330
23
  0
LAYOUT
  5
22
102
{ACAD_REACTORS
330
1A
102
}
330
1A
100
AcDbPlotSettings
  1

  2
none_device
  4

  6

 40
0.0
 41
0.0
 42
0.0
 43
0.0
 44
0.0
 45
0.0
 46
0.0
 47
0.0
 48
0.0
 49
0.0
140
0.0
141
0.0
142
1.0
143
1.0
 70
  1712
 72
     0
 73
     0
 74
     0
  7

 75
     0
 76
     0
 77
     5
 78
   300
147
1.0
148
0.0
149
0.0
100
AcDbLayout
  1
Model
 70
     1
 71
     0
 10
-6300.0
 20
-4455.0
 11
6300.0
 21
4455.0
 12
0.0
 22
0.0
 32
0.0
 14
-6300.0
 24
-4455.0
 34
0.0
 15
6300.0
 25
4455.0
 35
0.0
146
0.0
 13
0.0
 23
0.0
 33
0.0
 16
1.0
 26
0.0
 36
0.0
 17
0.0
 27
1.0
 37
0.0
 76
     0
330
1F
331
29
  0
MATERIAL
  5
3D
102
{ACAD_REACTORS
330
3B
102
}
330
3B
100
AcDbMaterial
  1
ByBlock
 72
     1
 94
      127
  0
MATERIAL
  5
3C
102
{ACAD_REACTORS
330
3B
102
}
330
3B
100
AcDbMaterial
  1
ByLayer
 72
     1
 94
      127
  0
MATERIAL
  5
3E
102
{ACAD_REACTORS
330
3B
102
}
330
3B
100
AcDbMaterial
  1
Global
 72
     1
 94
      127
  0
MLINESTYLE
  5
18
102
{ACAD_REACTORS
330
17
102
}
330
17
100
AcDbMlineStyle
  2
Standard
 70
     0
  3

 62
   256
 51
90.0
 52
90.0
 71
     2
 49
0.5
 62
   256
  6
BYLAYER
 49
-0.5
 62
   256
  6
BYLAYER
  0
ACDBPLACEHOLDER
  5
F
102
{ACAD_REACTORS
330
E
102
}
330
E
  0
VISUALSTYLE
  5
2F
102
{ACAD_REACTORS
330
2A
102
}
330
2A
100
AcDbVisualStyle
  2
2dWireframe
 70
     4
177
     2
291
     0
 71
     0
176
     1
 72
     2
176
     1
 73
     0
176
     1
 90
        0
176
     1
 40
-0.6
176
     1
 41
-30.0
176
     1
 62
     5
 63
     7
421
 16777215
176
     1
 74
     1
176
     1
 91
        4
176
     1
 64
     7
176
     1
 65
   257
176
     1
 75
     1
176
     1
175
     1
176
     1
 42
1.0
176
     1
 92
        0
176
     1
 66
   257
176
     1
 43
1.0
176
     1
 76
     1
176
     1
 77
     6
176
     1
 78
     2
176
     1
 67
     7
176
     1
 79
     5
176
     1
170
     0
176
     1
171
     0
176
     1
290
     0
176
     1
 93
        1
176
     1
 44
0.0
176
     1
173
     0
176
     1
  0
VISUALSTYLE
  5
31
102
{ACAD_REACTORS
330
2A
102
}
330
2A
100
AcDbVisualStyle
  2
3D Hidden
 70
     6
177
     2
291
     0
 71
     1
176
     1
 72
     2
176
     1
 73
     2
176
     1
 90
        0
176
     1
 40
-0.6
176
     1
 41
-30.0
176
     1
 62
     5
 63
     7
421
 16777215
176
     1
 74
     2
176
     1
 91
        2
176
     1
 64
     7
176
     1
 65
   257
176
     1
 75
     2
176
     1
175
     1
176
     1
 42
40.0
176
     1
 92
        0
176
     1
 66
   257
176
     1
 43
1.0
176
     1
 76
     1
176
     1
 77
     6
176
     1
 78
     2
176
     1
 67
     7
176
     1
 79
     3
176
     1
170
     0
176
     1
171
     0
176
     1
290
     0
176
     1
 93
        1
176
     1
 44
0.0
176
     1
173
     0
176
     1
  0
VISUALSTYLE
  5
30
102
{ACAD_REACTORS
330
2A
102
}
330
2A
100
AcDbVisualStyle
  2
3dWireframe
 70
     5
177
     2
291
     0
 71
     0
176
     1
 72
     2
176
     1
 73
     0
176
     1
 90
        0
176
     1
 40
-0.6
176
     1
 41
-30.0
176
     1
 62
     5
 63
     7
421
 16777215
176
     1
 74
     1
176
     1
 91
        4
176
     1
 64
     7
176
     1
 65
   257
176
     1
 75
     1
176
     1
175
     1
176
     1
 42
1.0
176
     1
 92
        0
176
     1
 66
   257
176
     1
 43
1.0
176
     1
 76
     1
176
     1
 77
     6
176
     1
 78
     2
176
     1
 67
     7
176
     1
 79
     5
176
     1
170
     0
176
     1
171
     0
176
     1
290
     0
176
     1
 93
        1
176
     1
 44
0.0
176
     1
173
     0
176
     1
  0
VISUALSTYLE
  5
32
102
{ACAD_REACTORS
330
2A
102
}
330
2A
100
AcDbVisualStyle
  2
Basic
 70
     7
177
     2
291
     1
 71
     1
176
     1
 72
     0
176
     1
 73
     1
176
     1
 90
        0
176
     1
 40
-0.6
176
     1
 41
-30.0
176
     1
 62
     5
 63
     7
421
 16777215
176
     1
 74
     0
176
     1
 91
        4
176
     1
 64
     7
176
     1
 65
   257
176
     1
 75
     1
176
     1
175
     1
176
     1
 42
1.0
176
     1
 92
        8
176
     1
 66
     7
176
     1
 43
1.0
176
     1
 76
     1
176
     1
 77
     6
176
     1
 78
     2
176
     1
 67
     7
176
     1
 79
     5
176
     1
170
     0
176
     1
171
     0
176
     1
290
     0
176
     1
 93
        1
176
     1
 44
0.0
176
     1
173
     0
176
     1
  0
VISUALSTYLE
  5
36
102
{ACAD_REACTORS
330
2A
102
}
330
2A
100
AcDbVisualStyle
  2
Brighten
 70
    12
177
     2
291
     1
 71
     2
176
     1
 72
     2
176
     1
 73
     0
176
     1
 90
        0
176
     1
 40
-0.6
176
     1
 41
-30.0
176
     1
 62
     5
 63
     7
421
 16777215
176
     1
 74
     1
176
     1
 91
        4
176
     1
 64
     7
176
     1
 65
   257
176
     1
 75
     1
176
     1
175
     1
176
     1
 42
1.0
176
     1
 92
        8
176
     1
 66
     7
176
     1
 43
1.0
176
     1
 76
     1
176
     1
 77
     6
176
     1
 78
     2
176
     1
 67
     7
176
     1
 79
     5
176
     1
170
     0
176
     1
171
     0
176
     1
290
     0
176
     1
 93
        1
176
     1
 44
50.0
176
     1
173
     0
176
     1
  0
VISUALSTYLE
  5
3A
102
{ACAD_REACTORS
330
2A
102
}
330
2A
100
AcDbVisualStyle
  2
ColorChange
 70
    16
177
     2
291
     1
 71
     2
176
     1
 72
     2
176
     1
 73
     3
176
     1
 90
        0
176
     1
 40
-0.6
176
     1
 41
-30.0
176
     1
 62
     5
 63
     8
421
  8421504
176
     1
 74
     1
176
     1
 91
        4
176
     1
 64
     7
176
     1
 65
   257
176
     1
 75
     1
176
     1
175
     1
176
     1
 42
1.0
176
     1
 92
        8
176
     1
 66
     8
424
  8421504
176
     1
 43
1.0
176
     1
 76
     1
176
     1
 77
     6
176
     1
 78
     2
176
     1
 67
     7
176
     1
 79
     5
176
     1
170
     0
176
     1
171
     0
176
     1
290
     0
176
     1
 93
        1
176
     1
 44
0.0
176
     1
173
     0
176
     1
  0
VISUALSTYLE
  5
34
102
{ACAD_REACTORS
330
2A
102
}
330
2A
100
AcDbVisualStyle
  2
Conceptual
 70
     9
177
     2
291
     0
 71
     3
176
     1
 72
     2
176
     1
 73
     0
176
     1
 90
        0
176
     1
 40
-0.6
176
     1
 41
-30.0
176
     1
 62
     5
 63
     7
421
 16777215
176
     1
 74
     2
176
     1
 91
        2
176
     1
 64
     7
176
     1
 65
   257
176
     1
 75
     1
176
     1
175
     1
176
     1
 42
40.0
176
     1
 92
        8
176
     1
 66
     7
176
     1
 43
1.0
176
     1
 76
     1
176
     1
 77
     6
176
     1
 78
     2
176
     1
 67
     7
176
     1
 79
     3
176
     1
170
     0
176
     1
171
     0
176
     1
290
     0
176
     1
 93
        1
176
     1
 44
0.0
176
     1
173
     0
176
     1
  0
VISUALSTYLE
  5
35
102
{ACAD_REACTORS
330
2A
102
}
330
2A
100
AcDbVisualStyle
  2
Dim
 70
    11
177
     2
291
     1
 71
     2
176
     1
 72
     2
176
     1
 73
     0
176
     1
 90
        0
176
     1
 40
-0.6
176
     1
 41
-30.0
176
     1
 62
     5
 63
     7
421
 16777215
176
     1
 74
     1
176
     1
 91
        4
176
     1
 64
     7
176
     1
 65
   257
176
     1
 75
     1
176
     1
175
     1
176
     1
 42
1.0
176
     1
 92
        8
176
     1
 66
     7
176
     1
 43
1.0
176
     1
 76
     1
176
     1
 77
     6
176
     1
 78
     2
176
     1
 67
     7
176
     1
 79
     5
176
     1
170
     0
176
     1
171
     0
176
     1
290
     0
176
     1
 93
        1
176
     1
 44
-50.0
176
     1
173
     0
176
     1
  0
VISUALSTYLE
  5
39
102
{ACAD_REACTORS
330
2A
102
}
330
2A
100
AcDbVisualStyle
  2
Facepattern
 70
    15
177
     2
291
     1
 71
     2
176
     1
 72
     2
176
     1
 73
     0
176
     1
 90
        0
176
     1
 40
-0.6
176
     1
 41
-30.0
176
     1
 62
     5
 63
     7
421
 16777215
176
     1
 74
     1
176
     1
 91
        4
176
     1
 64
     7
176
     1
 65
   257
176
     1
 75
     1
176
     1
175
     1
176
     1
 42
1.0
176
     1
 92
        8
176
     1
 66
     7
176
     1
 43
1.0
176
     1
 76
     1
176
     1
 77
     6
176
     1
 78
     2
176
     1
 67
     7
176
     1
 79
     5
176
     1
170
     0
176
     1
171
     0
176
     1
290
     0
176
     1
 93
        1
176
     1
 44
0.0
176
     1
173
     0
176
     1
  0
VISUALSTYLE
  5
2B
102
{ACAD_REACTORS
330
2A
102
}
330
2A
100
AcDbVisualStyle
  2
Flat
 70
     0
177
     2
291
     1
 71
     2
176
     1
 72
     1
176
     1
 73
     1
176
     1
 90
        2
176
     1
 40
-0.6
176
     1
 41
30.0
176
     1
 62
     5
 63
     7
421
 16777215
176
     1
 74
     0
176
     1
 91
        4
176
     1
 64
     7
176
     1
 65
   257
176
     1
 75
     1
176
     1
175
     1
176
     1
 42
1.0
176
     1
 92
        8
176
     1
 66
     7
176
     1
 43
1.0
176
     1
 76
     1
176
     1
 77
     6
176
     1
 78
     2
176
     1
 67
     7
176
     1
 79
     5
176
     1
170
     0
176
     1
171
     0
176
     1
290
     0
176
     1
 93
       13
176
     1
 44
0.0
176
     1
173
     0
176
     1
  0
VISUALSTYLE
  5
2C
102
{ACAD_REACTORS
330
2A
102
}
330
2A
100
AcDbVisualStyle
  2
FlatWithEdges
 70
     1
177
     2
291
     1
 71
     2
176
     1
 72
     1
176
     1
 73
     1
176
     1
 90
        2
176
     1
 40
-0.6
176
     1
 41
30.0
176
     1
 62
     5
 63
     7
421
 16777215
176
     1
 74
     1
176
     1
 91
        4
176
     1
 64
     7
176
     1
 65
   257
176
     1
 75
     1
176
     1
175
     1
176
     1
 42
1.0
176
     1
 92
        0
176
     1
 66
   257
176
     1
 43
1.0
176
     1
 76
     1
176
     1
 77
     6
176
     1
 78
     2
176
     1
 67
     7
176
     1
 79
     5
176
     1
170
     0
176
     1
171
     0
176
     1
290
     0
176
     1
 93
       13
176
     1
 44
0.0
176
     1
173
     0
176
     1
  0
VISUALSTYLE
  5
2D
102
{ACAD_REACTORS
330
2A
102
}
330
2A
100
AcDbVisualStyle
  2
Gouraud
 70
     2
177
     2
291
     1
 71
     2
176
     1
 72
     2
176
     1
 73
     1
176
     1
 90
        2
176
     1
 40
-0.6
176
     1
 41
30.0
176
     1
 62
     5
 63
     7
421
 16777215
176
     1
 74
     0
176
     1
 91
        4
176
     1
 64
     7
176
     1
 65
   257
176
     1
 75
     1
176
     1
175
     1
176
     1
 42
1.0
176
     1
 92
        0
176
     1
 66
     7
176
     1
 43
1.0
176
     1
 76
     1
176
     1
 77
     6
176
     1
 78
     2
176
     1
 67
     7
176
     1
 79
     5
176
     1
170
     0
176
     1
171
     0
176
     1
290
     0
176
     1
 93
       13
176
     1
 44
0.0
176
     1
173
     0
176
     1
  0
VISUALSTYLE
  5
2E
102
{ACAD_REACTORS
330
2A
102
}
330
2A
100
AcDbVisualStyle
  2
GouraudWithEdges
 70
     3
177
     2
291
     1
 71
     2
176
     1
 72
     2
176
     1
 73
     1
176
     1
 90
        2
176
     1
 40
-0.6
176
     1
 41
30.0
176
     1
 62
     5
 63
     7
421
 16777215
176
     1
 74
     1
176
     1
 91
        4
176
     1
 64
     7
176
     1
 65
   257
176
     1
 75
     1
176
     1
175
     1
176
     1
 42
1.0
176
     1
 92
        0
176
     1
 66
   257
176
     1
 43
1.0
176
     1
 76
     1
176
     1
 77
     6
176
     1
 78
     2
176
     1
 67
     7
176
     1
 79
     5
176
     1
170
     0
176
     1
171
     0
176
     1
290
     0
176
     1
 93
       13
176
     1
 44
0.0
176
     1
173
     0
176
     1
  0
VISUALSTYLE
  5
38
102
{ACAD_REACTORS
330
2A
102
}
330
2A
100
AcDbVisualStyle
  2
Linepattern
 70
    14
177
     2
291
     1
 71
     2
176
     1
 72
     2
176
     1
 73
     0
176
     1
 90
        0
176
     1
 40
-0.6
176
     1
 41
-30.0
176
     1
 62
     5
 63
     7
421
 16777215
176
     1
 74
     1
176
     1
 91
        4
176
     1
 64
     7
176
     1
 65
   257
176
     1
 75
     7
176
     1
175
     7
176
     1
 42
1.0
176
     1
 92
        8
176
     1
 66
     7
176
     1
 43
1.0
176
     1
 76
     1
176
     1
 77
     6
176
     1
 78
     2
176
     1
 67
     7
176
     1
 79
     5
176
     1
170
     0
176
     1
171
     0
176
     1
290
     0
176
     1
 93
        1
176
     1
 44
0.0
176
     1
173
     0
176
     1
  0
VISUALSTYLE
  5
33
102
{ACAD_REACTORS
330
2A
102
}
330
2A
100
AcDbVisualStyle
  2
Realistic
 70
     8
177
     2
291
     0
 71
     2
176
     1
 72
     2
176
     1
 73
     0
176
     1
 90
        0
176
     1
 40
-0.6
176
     1
 41
-30.0
176
     1
 62
     5
 63
     7
421
 16777215
176
     1
 74
     1
176
     1
 91
        0
176
     1
 64
     7
176
     1
 65
   257
176
     1
 75
     1
176
     1
175
     1
176
     1
 42
1.0
176
     1
 92
        8
176
     1
 66
     8
424
  7895160
176
     1
 43
1.0
176
     1
 76
     1
176
     1
 77
     6
176
     1
 78
     2
176
     1
 67
     7
176
     1
 79
     5
176
     1
170
     0
176
     1
171
     0
176
     1
290
     0
176
     1
 93
       13
176
     1
 44
0.0
176
     1
173
     0
176
     1
  0
VISUALSTYLE
  5
37
102
{ACAD_REACTORS
330
2A
102
}
330
2A
100
AcDbVisualStyle
  2
Thicken
 70
    13
177
     2
291
     1
 71
     2
176
     1
 72
     2
176
     1
 73
     0
176
     1
 90
        0
176
     1
 40
-0.6
176
     1
 41
-30.0
176
     1
 62
     5
 63
     7
421
 16777215
176
     1
 74
     1
176
     1
 91
        4
176
     1
 64
     7
176
     1
 65
   257
176
     1
 75
     1
176
     1
175
     1
176
     1
 42
1.0
176
     1
 92
       12
176
     1
 66
     7
176
     1
 43
1.0
176
     1
 76
     1
176
     1
 77
     6
176
     1
 78
     2
176
     1
 67
     7
176
     1
 79
     5
176
     1
170
     0
176
     1
171
     0
176
     1
290
     0
176
     1
 93
        1
176
     1
 44
0.0
176
     1
173
     0
176
     1
  0
ENDSEC
  0
EOF
