  0
SECTION
  2
HEADER
  9
$ACADVER
  1
AC1024
  9
$ACADMAINTVER
 70
     6
  9
$DWGCODEPAGE
  3
ANSI_932
  9
$INSBASE
 10
0.0
 20
0.0
 30
0.0
  9
$EXTMIN
 10
-6300.0
 20
-4455.0
 30
0.0
  9
$EXTMAX
 10
6300.0
 20
4455.0
 30
0.0
  9
$LIMMIN
 10
-6300.0
 20
-4455.0
  9
$LIMMAX
 10
6300.0
 20
4455.0
  9
$ORTHOMODE
 70
     0
  9
$REGENMODE
 70
     1
  9
$FILLMODE
 70
     1
  9
$QTEXTMODE
 70
     0
  9
$MIRRTEXT
 70
     1
  9
$LTSCALE
 40
30.0
  9
$ATTMODE
 70
     1
  9
$TEXTSIZE
 40
2.5
  9
$TRACEWID
 40
1.0
  9
$TEXTSTYLE
  7
Standard
  9
$CLAYER
  8
0
  9
$CELTYPE
  6
ByLayer
  9
$CECOLOR
 62
   256
  9
$CELTSCALE
 40
1.0
  9
$DISPSILH
 70
     0
  9
$DIMSCALE
 40
1.0
  9
$DIMASZ
 40
2.5
  9
$DIMEXO
 40
0.625
  9
$DIMDLI
 40
3.75
  9
$DIMRND
 40
0.0
  9
$DIMDLE
 40
0.0
  9
$DIMEXE
 40
1.25
  9
$DIMTP
 40
0.0
  9
$DIMTM
 40
0.0
  9
$DIMTXT
 40
2.5
  9
$DIMCEN
 40
2.5
  9
$DIMTSZ
 40
0.0
  9
$DIMTOL
 70
     0
  9
$DIMLIM
 70
     0
  9
$DIMTIH
 70
     0
  9
$DIMTOH
 70
     0
  9
$DIMSE1
 70
     0
  9
$DIMSE2
 70
     0
  9
$DIMTAD
 70
     1
  9
$DIMZIN
 70
     8
  9
$DIMBLK
  1

  9
$DIMASO
 70
     1
  9
$DIMSHO
 70
     1
  9
$DIMPOST
  1

  9
$DIMAPOST
  1

  9
$DIMALT
 70
     0
  9
$DIMALTD
 70
     3
  9
$DIMALTF
 40
0.03937007874016
  9
$DIMLFAC
 40
1.0
  9
$DIMTOFL
 70
     1
  9
$DIMTVP
 40
0.0
  9
$DIMTIX
 70
     0
  9
$DIMSOXD
 70
     0
  9
$DIMSAH
 70
     0
  9
$DIMBLK1
  1

  9
$DIMBLK2
  1

  9
$DIMSTYLE
  2
ISO-25
  9
$DIMCLRD
 70
     0
  9
$DIMCLRE
 70
     0
  9
$DIMCLRT
 70
     0
  9
$DIMTFAC
 40
1.0
  9
$DIMGAP
 40
0.625
  9
$DIMJUST
 70
     0
  9
$DIMSD1
 70
     0
  9
$DIMSD2
 70
     0
  9
$DIMTOLJ
 70
     0
  9
$DIMTZIN
 70
     8
  9
$DIMALTZ
 70
     0
  9
$DIMALTTZ
 70
     0
  9
$DIMUPT
 70
     0
  9
$DIMDEC
 70
     2
  9
$DIMTDEC
 70
     2
  9
$DIMALTU
 70
     2
  9
$DIMALTTD
 70
     3
  9
$DIMTXSTY
  7
Standard
  9
$DIMAUNIT
 70
     0
  9
$DIMADEC
 70
     0
  9
$DIMALTRND
 40
0.0
  9
$DIMAZIN
 70
     0
  9
$DIMDSEP
 70
    44
  9
$DIMATFIT
 70
     3
  9
$DIMFRAC
 70
     0
  9
$DIMLDRBLK
  1

  9
$DIMLUNIT
 70
     2
  9
$DIMLWD
 70
    -2
  9
$DIMLWE
 70
    -2
  9
$DIMTMOVE
 70
     0
  9
$DIMFXL
 40
1.0
  9
$DIMFXLON
 70
     0
  9
$DIMJOGANG
 40
0.7853981633974483
  9
$DIMTFILL
 70
     0
  9
$DIMTFILLCLR
 70
     0
  9
$DIMARCSYM
 70
     0
  9
$DIMLTYPE
  6

  9
$DIMLTEX1
  6

  9
$DIMLTEX2
  6

  9
$DIMTXTDIRECTION
 70
     0
  9
$LUNITS
 70
     2
  9
$LUPREC
 70
     4
  9
$SKETCHINC
 40
1.0
  9
$FILLETRAD
 40
10.0
  9
$AUNITS
 70
     0
  9
$AUPREC
 70
     0
  9
$MENU
  1
.
  9
$ELEVATION
 40
0.0
  9
$PELEVATION
 40
0.0
  9
$THICKNESS
 40
0.0
  9
$LIMCHECK
 70
     0
  9
$CHAMFERA
 40
10.0
  9
$CHAMFERB
 40
10.0
  9
$CHAMFERC
 40
20.0
  9
$CHAMFERD
 40
0.0
  9
$SKPOLY
 70
     0
  9
$TDCREATE
 40
2459380.63283875
  9
$TDUCREATE
 40
2459380.25783875
  9
$TDUPDATE
 40
2459380.632838761
  9
$TDUUPDATE
 40
2459380.257838761
  9
$TDINDWG
 40
0.0000000116
  9
$TDUSRTIMER
 40
0.0000000116
  9
$USRTIMER
 70
     1
  9
$ANGBASE
 50
0.0
  9
$ANGDIR
 70
     0
  9
$PDMODE
 70
     0
  9
$PDSIZE
 40
0.0
  9
$PLINEWID
 40
0.0
  9
$SPLFRAME
 70
     0
  9
$SPLINETYPE
 70
     6
  9
$SPLINESEGS
 70
     8
  9
$HANDSEED
  5
3D2
  9
$SURFTAB1
 70
     6
  9
$SURFTAB2
 70
     6
  9
$SURFTYPE
 70
     6
  9
$SURFU
 70
     6
  9
$SURFV
 70
     6
  9
$UCSBASE
  2

  9
$UCSNAME
  2

  9
$UCSORG
 10
0.0
 20
0.0
 30
0.0
  9
$UCSXDIR
 10
1.0
 20
0.0
 30
0.0
  9
$UCSYDIR
 10
0.0
 20
1.0
 30
0.0
  9
$UCSORTHOREF
  2

  9
$UCSORTHOVIEW
 70
     0
  9
$UCSORGTOP
 10
0.0
 20
0.0
 30
0.0
  9
$UCSORGBOTTOM
 10
0.0
 20
0.0
 30
0.0
  9
$UCSORGLEFT
 10
0.0
 20
0.0
 30
0.0
  9
$UCSORGRIGHT
 10
0.0
 20
0.0
 30
0.0
  9
$UCSORGFRONT
 10
0.0
 20
0.0
 30
0.0
  9
$UCSORGBACK
 10
0.0
 20
0.0
 30
0.0
  9
$PUCSBASE
  2

  9
$PUCSNAME
  2

  9
$PUCSORG
 10
0.0
 20
0.0
 30
0.0
  9
$PUCSXDIR
 10
1.0
 20
0.0
 30
0.0
  9
$PUCSYDIR
 10
0.0
 20
1.0
 30
0.0
  9
$PUCSORTHOREF
  2

  9
$PUCSORTHOVIEW
 70
     0
  9
$PUCSORGTOP
 10
0.0
 20
0.0
 30
0.0
  9
$PUCSORGBOTTOM
 10
0.0
 20
0.0
 30
0.0
  9
$PUCSORGLEFT
 10
0.0
 20
0.0
 30
0.0
  9
$PUCSORGRIGHT
 10
0.0
 20
0.0
 30
0.0
  9
$PUCSORGFRONT
 10
0.0
 20
0.0
 30
0.0
  9
$PUCSORGBACK
 10
0.0
 20
0.0
 30
0.0
  9
$USERI1
 70
     0
  9
$USERI2
 70
     0
  9
$USERI3
 70
     0
  9
$USERI4
 70
     0
  9
$USERI5
 70
     0
  9
$USERR1
 40
0.0
  9
$USERR2
 40
0.0
  9
$USERR3
 40
0.0
  9
$USERR4
 40
0.0
  9
$USERR5
 40
0.0
  9
$WORLDVIEW
 70
     1
  9
$SHADEDGE
 70
     3
  9
$SHADEDIF
 70
    70
  9
$TILEMODE
 70
     1
  9
$MAXACTVP
 70
    64
  9
$PINSBASE
 10
0.0
 20
0.0
 30
0.0
  9
$PLIMCHECK
 70
     0
  9
$PEXTMIN
 10
1.000000000000000E+20
 20
1.000000000000000E+20
 30
1.000000000000000E+20
  9
$PEXTMAX
 10
-1.000000000000000E+20
 20
-1.000000000000000E+20
 30
-1.000000000000000E+20
  9
$PLIMMIN
 10
0.0
 20
0.0
  9
$PLIMMAX
 10
420.0
 20
297.0
  9
$UNITMODE
 70
     0
  9
$VISRETAIN
 70
     1
  9
$PLINEGEN
 70
     0
  9
$PSLTSCALE
 70
     1
  9
$TREEDEPTH
 70
  3020
  9
$CMLSTYLE
  2
Standard
  9
$CMLJUST
 70
     0
  9
$CMLSCALE
 40
20.0
  9
$PROXYGRAPHICS
 70
     1
  9
$MEASUREMENT
 70
     1
  9
$CELWEIGHT
370
    -1
  9
$ENDCAPS
280
     0
  9
$JOINSTYLE
280
     0
  9
$LWDISPLAY
290
     0
  9
$INSUNITS
 70
     4
  9
$HYPERLINKBASE
  1

  9
$STYLESHEET
  1

  9
$XEDIT
290
     1
  9
$CEPSNTYPE
380
     0
  9
$PSTYLEMODE
290
     1
  9
$FINGERPRINTGUID
  2
{38ED757E-7FB7-42B8-80A0-0038AFDAD19D}
  9
$VERSIONGUID
  2
{FAEB1C32-E019-11D5-929B-00C0DF256EC4}
  9
$EXTNAMES
290
     1
  9
$PSVPSCALE
 40
0.0
  9
$OLESTARTUP
290
     0
  9
$SORTENTS
280
   127
  9
$INDEXCTL
280
     0
  9
$HIDETEXT
280
     1
  9
$XCLIPFRAME
280
     2
  9
$HALOGAP
280
     0
  9
$OBSCOLOR
 70
   257
  9
$OBSLTYPE
280
     0
  9
$INTERSECTIONDISPLAY
280
     0
  9
$INTERSECTIONCOLOR
 70
   257
  9
$DIMASSOC
280
     2
  9
$PROJECTNAME
  1

  9
$CAMERADISPLAY
290
     0
  9
$LENSLENGTH
 40
50.0
  9
$CAMERAHEIGHT
 40
0.0
  9
$STEPSPERSEC
 40
2.0
  9
$STEPSIZE
 40
6.0
  9
$3DDWFPREC
 40
2.0
  9
$PSOLWIDTH
 40
5.0
  9
$PSOLHEIGHT
 40
80.0
  9
$LOFTANG1
 40
1.570796326794897
  9
$LOFTANG2
 40
1.570796326794897
  9
$LOFTMAG1
 40
0.0
  9
$LOFTMAG2
 40
0.0
  9
$LOFTPARAM
 70
     7
  9
$LOFTNORMALS
280
     1
  9
$LATITUDE
 40
37.795
  9
$LONGITUDE
 40
-122.394
  9
$NORTHDIRECTION
 40
0.0
  9
$TIMEZONE
 70
 -8000
  9
$LIGHTGLYPHDISPLAY
280
     1
  9
$TILEMODELIGHTSYNCH
280
     1
  9
$SOLIDHIST
280
     1
  9
$SHOWHIST
280
     1
  9
$DWFFRAME
280
     2
  9
$DGNFRAME
280
     2
  9
$REALWORLDSCALE
290
     1
  9
$INTERFERECOLOR
 62
   256
  9
$CSHADOW
280
     0
  9
$SHADOWPLANELOCATION
 40
0.0
  0
ENDSEC
  0
SECTION
  2
CLASSES
  0
CLASS
  1
ACDBDICTIONARYWDFLT
  2
AcDbDictionaryWithDefault
  3
ObjectDBX Classes
 90
        0
 91
        4
280
     0
281
     0
  0
CLASS
  1
VISUALSTYLE
  2
AcDbVisualStyle
  3
ObjectDBX Classes
 90
     4095
 91
        4
280
     0
281
     0
  0
CLASS
  1
MATERIAL
  2
AcDbMaterial
  3
ObjectDBX Classes
 90
     1153
 91
        4
280
     0
281
     0
  0
ENDSEC
  0
SECTION
  2
TABLES
  0
TABLE
  2
VPORT
  5
8
330
0
100
AcDbSymbolTable
 70
     1
  0
VPORT
  5
29
330
8
100
AcDbSymbolTableRecord
100
AcDbViewportTableRecord
  2
*Active
 70
     0
 10
0.0
 20
0.0
 11
1.0
 21
1.0
 12
0.0
 22
0.0
 13
0.0
 23
0.0
 14
10.0
 24
10.0
 15
10.0
 25
10.0
 16
0.0
 26
0.0
 36
1.0
 17
0.0
 27
0.0
 37
0.0
 40
9801.0
 41
1.414141414141414
 42
50.0
 43
0.0
 44
0.0
 50
0.0
 51
0.0
 71
     0
 72
 10000
 73
     1
 74
     3
 75
     0
 76
     0
 77
     0
 78
     0
281
     0
 65
     1
110
0.0
120
0.0
130
0.0
111
1.0
121
0.0
131
0.0
112
0.0
122
1.0
132
0.0
 79
     0
146
0.0
 60
     3
 61
     5
292
     1
282
     1
141
0.0
142
0.0
 63
   250
  0
ENDTAB
  0
TABLE
  2
LTYPE
  5
5
330
0
100
AcDbSymbolTable
 70
     4
  0
LTYPE
  5
14
330
5
100
AcDbSymbolTableRecord
100
AcDbLinetypeTableRecord
  2
ByBlock
 70
     0
  3

 72
    65
 73
     0
 40
0.0
  0
LTYPE
  5
15
330
5
100
AcDbSymbolTableRecord
100
AcDbLinetypeTableRecord
  2
ByLayer
 70
     0
  3

 72
    65
 73
     0
 40
0.0
  0
LTYPE
  5
16
330
5
100
AcDbSymbolTableRecord
100
AcDbLinetypeTableRecord
  2
Continuous
 70
     0
  3
Solid line
 72
    65
 73
     0
 40
0.0
  0
LTYPE
  5
3F
330
5
100
AcDbSymbolTableRecord
100
AcDbLinetypeTableRecord
  2
JWW_HOJO
 70
     0
  3
  -   -   -   -   -   -   -   - 
 72
    65
 73
     2
 40
1.693333333333333
 49
-1.27
 74
     0
 49
0.4233333333333333
 74
     0
  0
LTYPE
  5
40
330
5
100
AcDbSymbolTableRecord
100
AcDbLinetypeTableRecord
  2
JWW_CENTER1
 70
     0
  3
-----  --  ----------  --  -----
 72
    65
 73
     4
 40
6.773333333333333
 49
4.233333333333333
 74
     0
 49
-0.8466666666666667
 74
     0
 49
0.8466666666666667
 74
     0
 49
-0.8466666666666667
 74
     0
  0
LTYPE
  5
41
330
5
100
AcDbSymbolTableRecord
100
AcDbLinetypeTableRecord
  2
JWW_CENTER2
 70
     0
  3
-------------  --  -------------
 72
    65
 73
     4
 40
13.54666666666667
 49
11.00666666666667
 74
     0
 49
-0.8466666666666667
 74
     0
 49
0.8466666666666667
 74
     0
 49
-0.8466666666666667
 74
     0
  0
ENDTAB
  0
TABLE
  2
LAYER
  5
2
330
0
100
AcDbSymbolTable
 70
    12
  0
LAYER
  5
10
330
2
100
AcDbSymbolTableRecord
100
AcDbLayerTableRecord
  2
0
 70
     0
 62
     7
  6
Continuous
370
    -3
390
F
347
3E
  0
LAYER
  5
42
330
2
100
AcDbSymbolTableRecord
100
AcDbLayerTableRecord
  2
0-C_ハッチ
 70
     0
 62
     7
  6
Continuous
370
    -3
390
F
347
3E
  0
LAYER
  5
43
330
2
100
AcDbSymbolTableRecord
100
AcDbLayerTableRecord
  2
0-0_補助線
 70
     0
 62
     7
  6
Continuous
370
    -3
390
F
347
3E
  0
LAYER
  5
44
330
2
100
AcDbSymbolTableRecord
100
AcDbLayerTableRecord
  2
0-B_寸法
 70
     0
 62
     7
  6
Continuous
370
    -3
390
F
347
3E
  0
LAYER
  5
45
330
2
100
AcDbSymbolTableRecord
100
AcDbLayerTableRecord
  2
0-4_枠
 70
     0
 62
     7
  6
Continuous
370
    -3
390
F
347
3E
  0
LAYER
  5
46
330
2
100
AcDbSymbolTableRecord
100
AcDbLayerTableRecord
  2
F-1_枠
 70
     0
 62
     7
  6
Continuous
370
    -3
390
F
347
3E
  0
LAYER
  5
47
330
2
100
AcDbSymbolTableRecord
100
AcDbLayerTableRecord
  2
F-0_補助線
 70
     0
 62
     7
  6
Continuous
370
    -3
390
F
347
3E
  0
LAYER
  5
48
330
2
100
AcDbSymbolTableRecord
100
AcDbLayerTableRecord
  2
F-A_文字
 70
     0
 62
     7
  6
Continuous
370
    -3
390
F
347
3E
  0
LAYER
  5
49
330
2
100
AcDbSymbolTableRecord
100
AcDbLayerTableRecord
  2
0-A_文字
 70
     0
 62
     7
  6
Continuous
370
    -3
390
F
347
3E
  0
LAYER
  5
4A
330
2
100
AcDbSymbolTableRecord
100
AcDbLayerTableRecord
  2
レバー
 70
     0
 62
     7
  6
Continuous
370
    -3
390
F
347
3E
  0
LAYER
  5
4B
330
2
100
AcDbSymbolTableRecord
100
AcDbLayerTableRecord
  2
0-7
 70
     0
 62
     7
  6
Continuous
370
    -3
390
F
347
3E
  0
LAYER
  5
4C
330
2
100
AcDbSymbolTableRecord
100
AcDbLayerTableRecord
  2
0-2_扉
 70
     0
 62
     7
  6
Continuous
370
    -3
390
F
347
3E
  0
ENDTAB
  0
TABLE
  2
STYLE
  5
3
330
0
100
AcDbSymbolTable
 70
     1
  0
STYLE
  5
11
330
3
100
AcDbSymbolTableRecord
100
AcDbTextStyleTableRecord
  2
Standard
 70
     0
 40
0.0
 41
1.0
 50
0.0
 71
     0
 42
2.5
  3
txt
  4

  0
ENDTAB
  0
TABLE
  2
VIEW
  5
6
330
0
100
AcDbSymbolTable
 70
     0
  0
ENDTAB
  0
TABLE
  2
UCS
  5
7
330
0
100
AcDbSymbolTable
 70
     0
  0
ENDTAB
  0
TABLE
  2
APPID
  5
9
330
0
100
AcDbSymbolTable
 70
     1
  0
APPID
  5
12
330
9
100
AcDbSymbolTableRecord
100
AcDbRegAppTableRecord
  2
ACAD
 70
     0
  0
ENDTAB
  0
TABLE
  2
DIMSTYLE
  5
A
330
0
100
AcDbSymbolTable
 70
     1
100
AcDbDimStyleTable
  0
DIMSTYLE
105
27
330
A
100
AcDbSymbolTableRecord
100
AcDbDimStyleTableRecord
  2
ISO-25
 70
     0
 41
2.5
 42
0.625
 43
3.75
 44
1.25
 73
     0
 74
     0
 77
     1
 78
     8
140
2.5
141
2.5
143
0.03937007874016
147
0.625
171
     3
172
     1
178
     0
271
     2
272
     2
274
     3
278
    44
283
     0
284
     8
340
11
  0
ENDTAB
  0
TABLE
  2
BLOCK_RECORD
  5
1
330
0
100
AcDbSymbolTable
 70
     1
  0
BLOCK_RECORD
  5
1F
330
1
100
AcDbSymbolTableRecord
100
AcDbBlockTableRecord
  2
*Model_Space
340
22
 70
     0
280
     1
281
     0
  0
BLOCK_RECORD
  5
1B
330
1
100
AcDbSymbolTableRecord
100
AcDbBlockTableRecord
  2
*Paper_Space
340
1E
 70
     0
280
     1
281
     0
  0
BLOCK_RECORD
  5
23
330
1
100
AcDbSymbolTableRecord
100
AcDbBlockTableRecord
  2
*Paper_Space0
340
26
 70
     0
280
     1
281
     0
  0
ENDTAB
  0
ENDSEC
  0
SECTION
  2
BLOCKS
  0
BLOCK
  5
20
330
1F
100
AcDbEntity
  8
0
100
AcDbBlockBegin
  2
*Model_Space
 70
     0
 10
0.0
 20
0.0
 30
0.0
  3
*Model_Space
  1

  0
ENDBLK
  5
21
330
1F
100
AcDbEntity
  8
0
100
AcDbBlockEnd
  0
BLOCK
  5
1C
330
1B
100
AcDbEntity
 67
     1
  8
0
100
AcDbBlockBegin
  2
*Paper_Space
 70
     0
 10
0.0
 20
0.0
 30
0.0
  3
*Paper_Space
  1

  0
ENDBLK
  5
1D
330
1B
100
AcDbEntity
 67
     1
  8
0
100
AcDbBlockEnd
  0
BLOCK
  5
24
330
23
100
AcDbEntity
  8
0
100
AcDbBlockBegin
  2
*Paper_Space0
 70
     0
 10
0.0
 20
0.0
 30
0.0
  3
*Paper_Space0
  1

  0
ENDBLK
  5
25
330
23
100
AcDbEntity
  8
0
100
AcDbBlockEnd
  0
ENDSEC
  0
SECTION
  2
ENTITIES
  0
LINE
  5
4D
330
1F
100
AcDbEntity
  8
0-C_ハッチ
  6
Continuous
 62
   120
370
     5
100
AcDbLine
 10
-4379.865260981218
 20
3302.999950512036
 30
0.0
 11
-4558.399938634926
 21
3137.690063795639
 31
0.0
  0
LINE
  5
4E
330
1F
100
AcDbEntity
  8
0-0_補助線
  6
JWW_HOJO
 62
   120
370
     5
100
AcDbLine
 10
-5999.99998453501
 20
670.5001831054692
 30
0.0
 11
5699.998762800888
 21
670.5001831054692
 31
0.0
  0
LINE
  5
4F
330
1F
100
AcDbEntity
  8
0-0_補助線
  6
JWW_HOJO
 62
   120
370
     5
100
AcDbLine
 10
-5999.99998453501
 20
790.5001831054692
 30
0.0
 11
5699.998762800888
 21
790.5001831054692
 31
0.0
  0
LINE
  5
50
330
1F
100
AcDbEntity
  8
0-0_補助線
  6
JWW_HOJO
 62
   120
370
     5
100
AcDbLine
 10
-3138.399798419025
 20
4174.999769056166
 30
0.0
 11
-3138.399798419025
 21
-3790.000179909371
 31
0.0
  0
LWPOLYLINE
  5
51
330
1F
100
AcDbEntity
  8
0-B_寸法
  6
Continuous
 62
     7
370
     9
100
AcDbPolyline
 90
        4
 70
     1
 43
3.0
 10
-4995.899798419022
 20
1443.000148463894
 42
0.4142135623731
 10
-4997.399798419023
 20
1444.500148463894
 42
0.4142135623731
 10
-4998.899798419023
 20
1443.000148463894
 42
0.4142135623731
 10
-4997.399798419023
 20
1441.500148463894
 42
0.4142135623731
  0
LWPOLYLINE
  5
52
330
1F
100
AcDbEntity
  8
0-B_寸法
  6
Continuous
 62
     7
370
     9
100
AcDbPolyline
 90
        4
 70
     1
 43
3.0
 10
-4995.899798419022
 20
3438.000148463894
 42
0.4142135623731
 10
-4997.399798419023
 20
3439.500148463894
 42
0.4142135623731
 10
-4998.899798419023
 20
3438.000148463894
 42
0.4142135623731
 10
-4997.399798419023
 20
3436.500148463895
 42
0.4142135623731
  0
LINE
  5
53
330
1F
100
AcDbEntity
  8
0-B_寸法
  6
Continuous
 62
   120
370
     5
100
AcDbLine
 10
-4997.399798419023
 20
1443.000148463894
 30
0.0
 11
-4747.399798419025
 21
1443.000148463894
 31
0.0
  0
LINE
  5
54
330
1F
100
AcDbEntity
  8
0-B_寸法
  6
Continuous
 62
   120
370
     5
100
AcDbLine
 10
-4997.399798419023
 20
3438.000148463894
 30
0.0
 11
-4747.399798419025
 21
3438.000148463894
 31
0.0
  0
LINE
  5
55
330
1F
100
AcDbEntity
  8
0-B_寸法
  6
Continuous
 62
   120
370
     5
100
AcDbLine
 10
-4997.399798419023
 20
3438.000148463894
 30
0.0
 11
-4997.399798419023
 21
1443.000148463894
 31
0.0
  0
LINE
  5
56
330
1F
100
AcDbEntity
  8
0-4_枠
  6
Continuous
 62
    92
370
    13
100
AcDbLine
 10
-4673.399798419024
 20
1433.000148463893
 30
0.0
 11
-3873.399798419025
 21
1433.000148463893
 31
0.0
  0
LINE
  5
57
330
1F
100
AcDbEntity
  8
0-4_枠
  6
Continuous
 62
    92
370
    13
100
AcDbLine
 10
-4697.399798419023
 20
3465.000148463894
 30
0.0
 11
-3849.399798419023
 21
3465.000148463894
 31
0.0
  0
LINE
  5
58
330
1F
100
AcDbEntity
  8
0-4_枠
  6
Continuous
 62
    92
370
    13
100
AcDbLine
 10
-4673.399798419024
 20
3441.000148463893
 30
0.0
 11
-3873.399798419025
 21
3441.000148463893
 31
0.0
  0
LINE
  5
59
330
1F
100
AcDbEntity
  8
0-4_枠
  6
Continuous
 62
    92
370
    13
100
AcDbLine
 10
-3873.399798419025
 20
1418.000148463893
 30
0.0
 11
-3873.399798419025
 21
3441.000148463893
 31
0.0
  0
LINE
  5
5A
330
1F
100
AcDbEntity
  8
0-4_枠
  6
Continuous
 62
    92
370
    13
100
AcDbLine
 10
-3849.399798419023
 20
1418.000148463893
 30
0.0
 11
-3849.399798419023
 21
3465.000148463894
 31
0.0
  0
LINE
  5
5B
330
1F
100
AcDbEntity
  8
0-4_枠
  6
Continuous
 62
    92
370
    13
100
AcDbLine
 10
-4697.399798419023
 20
1418.000148463893
 30
0.0
 11
-3849.399798419023
 21
1418.000148463893
 31
0.0
  0
LINE
  5
5C
330
1F
100
AcDbEntity
  8
0-4_枠
  6
Continuous
 62
    92
370
    13
100
AcDbLine
 10
-4697.399798419023
 20
1418.000148463893
 30
0.0
 11
-4697.399798419023
 21
3465.000148463894
 31
0.0
  0
LINE
  5
5D
330
1F
100
AcDbEntity
  8
0-4_枠
  6
Continuous
 62
    92
370
    13
100
AcDbLine
 10
-4673.399798419024
 20
1418.000148463893
 30
0.0
 11
-4673.399798419024
 21
3441.000148463893
 31
0.0
  0
LWPOLYLINE
  5
5E
330
1F
100
AcDbEntity
  8
0-B_寸法
  6
Continuous
 62
     7
370
     9
100
AcDbPolyline
 90
        4
 70
     1
 43
3.0
 10
-3873.899798419023
 20
1168.000148463894
 42
0.4142135623731
 10
-3875.399798419023
 20
1169.500148463894
 42
0.4142135623731
 10
-3876.899798419024
 20
1168.000148463894
 42
0.4142135623731
 10
-3875.399798419023
 20
1166.500148463894
 42
0.4142135623731
  0
LWPOLYLINE
  5
5F
330
1F
100
AcDbEntity
  8
0-B_寸法
  6
Continuous
 62
     7
370
     9
100
AcDbPolyline
 90
        4
 70
     1
 43
3.0
 10
-4666.899798419025
 20
1168.000148463894
 42
0.4142135623731
 10
-4668.399798419025
 20
1169.500148463894
 42
0.4142135623731
 10
-4669.899798419026
 20
1168.000148463894
 42
0.4142135623731
 10
-4668.399798419025
 20
1166.500148463894
 42
0.4142135623731
  0
LINE
  5
60
330
1F
100
AcDbEntity
  8
0-B_寸法
  6
Continuous
 62
   120
370
     5
100
AcDbLine
 10
-3875.399798419023
 20
1168.000148463894
 30
0.0
 11
-3875.399798419023
 21
1368.000148463894
 31
0.0
  0
LINE
  5
61
330
1F
100
AcDbEntity
  8
0-B_寸法
  6
Continuous
 62
   120
370
     5
100
AcDbLine
 10
-4668.399798419025
 20
1168.000148463894
 30
0.0
 11
-3875.399798419023
 21
1168.000148463894
 31
0.0
  0
LINE
  5
62
330
1F
100
AcDbEntity
  8
0-B_寸法
  6
Continuous
 62
   120
370
     5
100
AcDbLine
 10
-4668.399798419025
 20
1168.000148463894
 30
0.0
 11
-4668.399798419025
 21
1368.000148463894
 31
0.0
  0
MTEXT
  5
63
330
1F
100
AcDbEntity
  8
0-B_寸法
  6
Continuous
 62
     7
370
    70
100
AcDbMText
 10
-5012.399798419023
 20
2225.325148463893
 30
0.0
 40
57.14999999999999
 41
412.5
 46
0.0
 71
     7
 72
     1
  1
{\fＭＳ ゴシック|b0|i0|c128|p49;ＤＨ＝1,995}
 11
6.123031769111886E-17
 21
1.0
 31
0.0
 73
     1
 44
1.0
  0
MTEXT
  5
64
330
1F
100
AcDbEntity
  8
0-B_寸法
  6
Continuous
 62
     7
370
    70
100
AcDbMText
 10
-4440.649798419025
 20
1174.075148463894
 30
0.0
 40
57.15
 41
337.5
 46
0.0
 71
     7
 72
     1
  1
{\fＭＳ ゴシック|b0|i0|c128|p49;ＤＷ＝793}
 73
     1
 44
1.0
  0
LINE
  5
65
330
1F
100
AcDbEntity
  8
F-1_枠
  6
Continuous
 62
   200
370
    20
100
AcDbLine
 10
-5999.999752560178
 20
4174.999769056166
 30
0.0
 11
5699.998762800888
 21
4174.999769056166
 31
0.0
  0
LINE
  5
66
330
1F
100
AcDbEntity
  8
F-0_補助線
  6
JWW_HOJO
 62
   120
370
     5
100
AcDbLine
 10
-6300.0
 20
-4455.0
 30
0.0
 11
-6300.0
 21
4424.999604096284
 31
0.0
  0
LINE
  5
67
330
1F
100
AcDbEntity
  8
F-0_補助線
  6
JWW_HOJO
 62
   120
370
     5
100
AcDbLine
 10
5999.999010240709
 20
4424.999604096284
 30
0.0
 11
5999.999010240709
 21
-4455.0
 31
0.0
  0
LINE
  5
68
330
1F
100
AcDbEntity
  8
F-0_補助線
  6
JWW_HOJO
 62
   120
370
     5
100
AcDbLine
 10
5999.999010240709
 20
-4455.0
 30
0.0
 11
-6300.0
 21
-4455.0
 31
0.0
  0
LINE
  5
69
330
1F
100
AcDbEntity
  8
F-1_枠
  6
Continuous
 62
   200
370
    20
100
AcDbLine
 10
-5999.999752560178
 20
4164.999983504013
 30
0.0
 11
5699.998762800888
 21
4164.999983504013
 31
0.0
  0
LINE
  5
6A
330
1F
100
AcDbEntity
  8
F-1_枠
  6
Continuous
 62
   200
370
    20
100
AcDbLine
 10
-5999.999752560178
 20
4169.999505120355
 30
0.0
 11
5699.998762800888
 21
4169.999505120355
 31
0.0
  0
LINE
  5
6B
330
1F
100
AcDbEntity
  8
F-1_枠
  6
Continuous
 62
   200
370
    20
100
AcDbLine
 10
5689.998977248734
 20
4174.999769056166
 30
0.0
 11
5689.998977248734
 21
-4205.000164959882
 31
0.0
  0
LINE
  5
6C
330
1F
100
AcDbEntity
  8
F-1_枠
  6
Continuous
 62
   200
370
    20
100
AcDbLine
 10
5694.998498865077
 20
4174.999769056166
 30
0.0
 11
5694.998498865077
 21
-4205.000164959882
 31
0.0
  0
LINE
  5
6D
330
1F
100
AcDbEntity
  8
F-1_枠
  6
Continuous
 62
   200
370
    20
100
AcDbLine
 10
5699.998762800888
 20
4174.999769056166
 30
0.0
 11
5699.998762800888
 21
-4205.000164959882
 31
0.0
  0
LINE
  5
6E
330
1F
100
AcDbEntity
  8
F-1_枠
  6
Continuous
 62
   200
370
    20
100
AcDbLine
 10
-5989.999990205507
 20
4174.999769056166
 30
0.0
 11
-5989.999990205507
 21
-4205.000164959882
 31
0.0
  0
LINE
  5
6F
330
1F
100
AcDbEntity
  8
F-1_枠
  6
Continuous
 62
   200
370
    20
100
AcDbLine
 10
-5994.999975771518
 20
4174.999769056166
 30
0.0
 11
-5994.999975771518
 21
-4205.000164959882
 31
0.0
  0
LINE
  5
70
330
1F
100
AcDbEntity
  8
F-1_枠
  6
Continuous
 62
   200
370
    20
100
AcDbLine
 10
-5999.99998453501
 20
4174.999769056166
 30
0.0
 11
-5999.99998453501
 21
-4205.000164959882
 31
0.0
  0
LINE
  5
71
330
1F
100
AcDbEntity
  8
F-1_枠
  6
Continuous
 62
   200
370
    20
100
AcDbLine
 10
-5490.000018557986
 20
4174.999769056166
 30
0.0
 11
-5490.000018557986
 21
-3790.000179909372
 31
0.0
  0
LINE
  5
72
330
1F
100
AcDbEntity
  8
F-0_補助線
  6
JWW_HOJO
 62
   120
370
     5
100
AcDbLine
 10
-6300.0
 20
4424.999604096284
 30
0.0
 11
5999.999010240709
 21
4424.999604096284
 31
0.0
  0
LINE
  5
73
330
1F
100
AcDbEntity
  8
F-0_補助線
  6
JWW_HOJO
 62
     7
370
     9
100
AcDbLine
 10
849.9995876002961
 20
-3795.000003092998
 30
0.0
 11
849.9995876002961
 21
-4195.000008247994
 31
0.0
  0
LINE
  5
74
330
1F
100
AcDbEntity
  8
F-0_補助線
  6
JWW_HOJO
 62
     7
370
     9
100
AcDbLine
 10
349.9999175200594
 20
-3795.000003092998
 30
0.0
 11
349.9999175200594
 21
-4195.000008247994
 31
0.0
  0
LINE
  5
75
330
1F
100
AcDbEntity
  8
F-1_枠
  6
Continuous
 62
   200
370
    20
100
AcDbLine
 10
5699.998762800888
 20
-4205.000002577498
 30
0.0
 11
-5999.999752560178
 21
-4205.000002577498
 31
0.0
  0
LINE
  5
76
330
1F
100
AcDbEntity
  8
F-1_枠
  6
Continuous
 62
   200
370
    20
100
AcDbLine
 10
5699.998762800888
 20
-4199.999993814004
 30
0.0
 11
-5999.999752560178
 21
-4199.999993814004
 31
0.0
  0
LINE
  5
77
330
1F
100
AcDbEntity
  8
F-1_枠
  6
Continuous
 62
   200
370
    20
100
AcDbLine
 10
5699.998762800888
 20
-4195.000008247994
 30
0.0
 11
-5999.999752560178
 21
-4195.000008247994
 31
0.0
  0
LINE
  5
78
330
1F
100
AcDbEntity
  8
F-1_枠
  6
Continuous
 62
   200
370
    20
100
AcDbLine
 10
4189.999224688556
 20
-3795.000003092998
 30
0.0
 11
4189.999224688556
 21
-4195.000008247994
 31
0.0
  0
LINE
  5
79
330
1F
100
AcDbEntity
  8
F-1_枠
  6
Continuous
 62
   200
370
    20
100
AcDbLine
 10
2689.998729808911
 20
-3795.000003092998
 30
0.0
 11
2689.998729808911
 21
-4195.000008247994
 31
0.0
  0
LINE
  5
7A
330
1F
100
AcDbEntity
  8
F-1_枠
  6
Continuous
 62
   200
370
    20
100
AcDbLine
 10
-150.0001237199109
 20
-3795.000003092998
 30
0.0
 11
-150.0001237199109
 21
-4195.000008247994
 31
0.0
  0
LINE
  5
7B
330
1F
100
AcDbEntity
  8
F-1_枠
  6
Continuous
 62
   200
370
    20
100
AcDbLine
 10
-150.0001237199109
 20
-3994.999936078046
 30
0.0
 11
5689.998977248734
 21
-3995.005364289155
 31
0.0
  0
LINE
  5
7C
330
1F
100
AcDbEntity
  8
F-0_補助線
  6
JWW_HOJO
 62
     7
370
     9
100
AcDbLine
 10
-5989.999990205507
 20
-3994.99993607839
 30
0.0
 11
-150.0001237199109
 21
-3994.99993607839
 31
0.0
  0
LINE
  5
7D
330
1F
100
AcDbEntity
  8
F-0_補助線
  6
JWW_HOJO
 62
     7
370
     9
100
AcDbLine
 10
-5989.999990205507
 20
-3904.99993607839
 30
0.0
 11
-150.0001237199109
 21
-3904.99993607839
 31
0.0
  0
LINE
  5
7E
330
1F
100
AcDbEntity
  8
F-0_補助線
  6
JWW_HOJO
 62
     7
370
     9
100
AcDbLine
 10
-5989.999990205507
 20
-4084.99993607839
 30
0.0
 11
-150.0001237199109
 21
-4084.99993607839
 31
0.0
  0
LINE
  5
7F
330
1F
100
AcDbEntity
  8
F-0_補助線
  6
JWW_HOJO
 62
     7
370
     9
100
AcDbLine
 10
-150.0002584955388
 20
-4139.999739777983
 30
0.0
 11
5689.998842473105
 21
-4140.005167989091
 31
0.0
  0
LINE
  5
80
330
1F
100
AcDbEntity
  8
F-0_補助線
  6
JWW_HOJO
 62
     7
370
     9
100
AcDbLine
 10
-150.0001748415872
 20
-4049.999739778022
 30
0.0
 11
5689.998926127057
 21
-4050.005167989131
 31
0.0
  0
LINE
  5
81
330
1F
100
AcDbEntity
  8
F-0_補助線
  6
JWW_HOJO
 62
     7
370
     9
100
AcDbLine
 10
-150.0000725978671
 20
-3939.99973721807
 30
0.0
 11
5689.999028370777
 21
-3940.005165429179
 31
0.0
  0
LINE
  5
82
330
1F
100
AcDbEntity
  8
F-0_補助線
  6
JWW_HOJO
 62
     7
370
     9
100
AcDbLine
 10
-149.9999889439155
 20
-3849.999737218109
 30
0.0
 11
5689.999112024728
 21
-3850.005165429218
 31
0.0
  0
LINE
  5
83
330
1F
100
AcDbEntity
  8
F-0_補助線
  6
JWW_HOJO
 62
     7
370
     9
100
AcDbLine
 10
2779.998729808911
 20
-3795.000003092998
 30
0.0
 11
2779.998729808911
 21
-4195.000008247994
 31
0.0
  0
LINE
  5
84
330
1F
100
AcDbEntity
  8
F-0_補助線
  6
JWW_HOJO
 62
     7
370
     9
100
AcDbLine
 10
-60.0001237199109
 20
-3795.000003092998
 30
0.0
 11
-60.0001237199109
 21
-4195.000008247994
 31
0.0
  0
LINE
  5
85
330
1F
100
AcDbEntity
  8
F-0_補助線
  6
JWW_HOJO
 62
     7
370
     9
100
AcDbLine
 10
4279.999224688556
 20
-3795.000003092998
 30
0.0
 11
4279.999224688556
 21
-4195.000008247994
 31
0.0
  0
LINE
  5
86
330
1F
100
AcDbEntity
  8
F-0_補助線
  6
JWW_HOJO
 62
     7
370
     9
100
AcDbLine
 10
-5247.547376752838
 20
-3795.000003092999
 30
0.0
 11
-5247.547376752838
 21
-4205.000164959882
 31
0.0
  0
LINE
  5
87
330
1F
100
AcDbEntity
  8
F-0_補助線
  6
JWW_HOJO
 62
     7
370
     9
100
AcDbLine
 10
-210.0001237199109
 20
-3795.000003092998
 30
0.0
 11
-210.0001237199109
 21
-4195.000008247994
 31
0.0
  0
LINE
  5
88
330
1F
100
AcDbEntity
  8
0-0_補助線
  6
JWW_HOJO
 62
     7
370
     9
100
AcDbLine
 10
-5490.000018557986
 20
3465.000148463894
 30
0.0
 11
5689.998977248734
 21
3465.000148463894
 31
0.0
  0
LINE
  5
89
330
1F
100
AcDbEntity
  8
0-0_補助線
  6
JWW_HOJO
 62
     7
370
     9
100
AcDbLine
 10
-5490.000018557986
 20
1418.000148463893
 30
0.0
 11
5689.998977248734
 21
1418.000148463893
 31
0.0
  0
LINE
  5
8A
330
1F
100
AcDbEntity
  8
0-0_補助線
  6
JWW_HOJO
 62
   120
370
     5
100
AcDbLine
 10
-5490.000018557986
 20
1368.000148463894
 30
0.0
 11
5689.998977248734
 21
1368.000148463894
 31
0.0
  0
LINE
  5
8B
330
1F
100
AcDbEntity
  8
0-0_補助線
  6
JWW_HOJO
 62
     7
370
     9
100
AcDbLine
 10
-5490.000018557986
 20
-2701.250083820241
 30
0.0
 11
5699.998762800888
 21
-2701.250083820241
 31
0.0
  0
LINE
  5
8C
330
1F
100
AcDbEntity
  8
0-0_補助線
  6
JWW_HOJO
 62
   120
370
     5
100
AcDbLine
 10
-5490.000018557986
 20
-2751.250083820241
 30
0.0
 11
5699.998762800888
 21
-2751.250083820241
 31
0.0
  0
LINE
  5
8D
330
1F
100
AcDbEntity
  8
0-0_補助線
  6
JWW_HOJO
 62
     7
370
     9
100
AcDbLine
 10
-5490.000018557986
 20
1168.000148463894
 30
0.0
 11
5689.998977248734
 21
1168.000148463894
 31
0.0
  0
LINE
  5
8E
330
1F
100
AcDbEntity
  8
0-0_補助線
  6
JWW_HOJO
 62
     7
370
     9
100
AcDbLine
 10
-5490.000018557986
 20
-2951.250083820241
 30
0.0
 11
5699.998762800888
 21
-2951.250083820241
 31
0.0
  0
LINE
  5
8F
330
1F
100
AcDbEntity
  8
0-0_補助線
  6
JWW_HOJO
 62
     7
370
     9
100
AcDbLine
 10
-5490.000018557986
 20
-454.2500838202386
 30
0.0
 11
5699.998762800888
 21
-454.2500838202386
 31
0.0
  0
LINE
  5
90
330
1F
100
AcDbEntity
  8
F-1_枠
  6
Continuous
 62
   200
370
    20
100
AcDbLine
 10
5699.998762800888
 20
-3795.000003092998
 30
0.0
 11
-5999.99998453501
 21
-3795.000003092998
 31
0.0
  0
LINE
  5
91
330
1F
100
AcDbEntity
  8
F-1_枠
  6
Continuous
 62
   200
370
    20
100
AcDbLine
 10
-5999.99998453501
 20
3964.999818544131
 30
0.0
 11
5699.998762800888
 21
3964.999818544131
 31
0.0
  0
LINE
  5
92
330
1F
100
AcDbEntity
  8
F-1_枠
  6
Continuous
 62
   200
370
    20
100
AcDbLine
 10
5699.998762800888
 20
-3790.000017526987
 30
0.0
 11
-5999.99998453501
 21
-3790.000017526987
 31
0.0
  0
LINE
  5
93
330
1F
100
AcDbEntity
  8
F-1_枠
  6
Continuous
 62
   200
370
    20
100
AcDbLine
 10
1204.8000851193
 20
4174.999769056166
 30
0.0
 11
1204.8000851193
 21
-3790.000179909372
 31
0.0
  0
LINE
  5
94
330
1F
100
AcDbEntity
  8
F-1_枠
  6
Continuous
 62
   200
370
    20
100
AcDbLine
 10
-1026.799671069995
 20
4174.999769056166
 30
0.0
 11
-1026.799671069995
 21
-3790.000179909372
 31
0.0
  0
LINE
  5
95
330
1F
100
AcDbEntity
  8
F-1_枠
  6
Continuous
 62
   200
370
    20
100
AcDbLine
 10
3436.400212468328
 20
4174.999769056166
 30
0.0
 11
3436.400212468328
 21
-3790.000179909372
 31
0.0
  0
LINE
  5
96
330
1F
100
AcDbEntity
  8
F-1_枠
  6
Continuous
 62
   200
370
    20
100
AcDbLine
 10
-3258.399798419025
 20
4174.999769056166
 30
0.0
 11
-3258.399798419025
 21
-3790.000179909372
 31
0.0
  0
LINE
  5
97
330
1F
100
AcDbEntity
  8
0-4_枠
  6
Continuous
 62
    92
370
    13
100
AcDbLine
 10
-2441.799671069996
 20
1433.000148463893
 30
0.0
 11
-1711.799671069995
 21
1433.000148463893
 31
0.0
  0
LINE
  5
98
330
1F
100
AcDbEntity
  8
0-4_枠
  6
Continuous
 62
    92
370
    13
100
AcDbLine
 10
-2465.799671069994
 20
3465.000148463894
 30
0.0
 11
-1687.799671069996
 21
3465.000148463894
 31
0.0
  0
LINE
  5
99
330
1F
100
AcDbEntity
  8
0-4_枠
  6
Continuous
 62
    92
370
    13
100
AcDbLine
 10
-2441.799671069996
 20
3441.000148463893
 30
0.0
 11
-1711.799671069995
 21
3441.000148463893
 31
0.0
  0
LINE
  5
9A
330
1F
100
AcDbEntity
  8
0-4_枠
  6
Continuous
 62
    92
370
    13
100
AcDbLine
 10
-1711.799671069995
 20
1418.000148463893
 30
0.0
 11
-1711.799671069995
 21
3441.000148463893
 31
0.0
  0
LINE
  5
9B
330
1F
100
AcDbEntity
  8
0-4_枠
  6
Continuous
 62
    92
370
    13
100
AcDbLine
 10
-1687.799671069996
 20
1418.000148463893
 30
0.0
 11
-1687.799671069996
 21
3465.000148463894
 31
0.0
  0
LINE
  5
9C
330
1F
100
AcDbEntity
  8
0-4_枠
  6
Continuous
 62
    92
370
    13
100
AcDbLine
 10
-2465.799671069994
 20
1418.000148463893
 30
0.0
 11
-1687.799671069996
 21
1418.000148463893
 31
0.0
  0
LWPOLYLINE
  5
9D
330
1F
100
AcDbEntity
  8
0-B_寸法
  6
Continuous
 62
     7
370
     9
100
AcDbPolyline
 90
        4
 70
     1
 43
3.0
 10
1698.900212468327
 20
1443.000148463894
 42
0.4142135623731
 10
1697.400212468327
 20
1444.500148463894
 42
0.4142135623731
 10
1695.900212468327
 20
1443.000148463894
 42
0.4142135623731
 10
1697.400212468327
 20
1441.500148463894
 42
0.4142135623731
  0
LWPOLYLINE
  5
9E
330
1F
100
AcDbEntity
  8
0-B_寸法
  6
Continuous
 62
     7
370
     9
100
AcDbPolyline
 90
        4
 70
     1
 43
3.0
 10
1698.900212468327
 20
3438.000148463894
 42
0.4142135623731
 10
1697.400212468327
 20
3439.500148463894
 42
0.4142135623731
 10
1695.900212468327
 20
3438.000148463894
 42
0.4142135623731
 10
1697.400212468327
 20
3436.500148463895
 42
0.4142135623731
  0
LWPOLYLINE
  5
9F
330
1F
100
AcDbEntity
  8
0-B_寸法
  6
Continuous
 62
     7
370
     9
100
AcDbPolyline
 90
        4
 70
     1
 43
3.0
 10
-532.6999148807008
 20
1443.000148463894
 42
0.4142135623731
 10
-534.1999148807008
 20
1444.500148463894
 42
0.4142135623731
 10
-535.6999148807008
 20
1443.000148463894
 42
0.4142135623731
 10
-534.1999148807008
 20
1441.500148463894
 42
0.4142135623731
  0
LWPOLYLINE
  5
A0
330
1F
100
AcDbEntity
  8
0-B_寸法
  6
Continuous
 62
     7
370
     9
100
AcDbPolyline
 90
        4
 70
     1
 43
3.0
 10
-532.6999148807008
 20
3438.000148463894
 42
0.4142135623731
 10
-534.1999148807008
 20
3439.500148463894
 42
0.4142135623731
 10
-535.6999148807008
 20
3438.000148463894
 42
0.4142135623731
 10
-534.1999148807008
 20
3436.500148463895
 42
0.4142135623731
  0
LWPOLYLINE
  5
A1
330
1F
100
AcDbEntity
  8
0-B_寸法
  6
Continuous
 62
     7
370
     9
100
AcDbPolyline
 90
        4
 70
     1
 43
3.0
 10
-2764.299671069994
 20
1443.000148463894
 42
0.4142135623731
 10
-2765.799671069994
 20
1444.500148463894
 42
0.4142135623731
 10
-2767.299671069994
 20
1443.000148463894
 42
0.4142135623731
 10
-2765.799671069994
 20
1441.500148463894
 42
0.4142135623731
  0
LWPOLYLINE
  5
A2
330
1F
100
AcDbEntity
  8
0-B_寸法
  6
Continuous
 62
     7
370
     9
100
AcDbPolyline
 90
        4
 70
     1
 43
3.0
 10
-2764.299671069994
 20
3438.000148463894
 42
0.4142135623731
 10
-2765.799671069994
 20
3439.500148463894
 42
0.4142135623731
 10
-2767.299671069994
 20
3438.000148463894
 42
0.4142135623731
 10
-2765.799671069994
 20
3436.500148463895
 42
0.4142135623731
  0
LINE
  5
A3
330
1F
100
AcDbEntity
  8
0-B_寸法
  6
Continuous
 62
   120
370
     5
100
AcDbLine
 10
1697.400212468327
 20
1443.000148463894
 30
0.0
 11
1947.400212468328
 21
1443.000148463894
 31
0.0
  0
LINE
  5
A4
330
1F
100
AcDbEntity
  8
0-B_寸法
  6
Continuous
 62
   120
370
     5
100
AcDbLine
 10
1697.400212468327
 20
3438.000148463894
 30
0.0
 11
1947.400212468328
 21
3438.000148463894
 31
0.0
  0
LINE
  5
A5
330
1F
100
AcDbEntity
  8
0-B_寸法
  6
Continuous
 62
   120
370
     5
100
AcDbLine
 10
1697.400212468327
 20
3438.000148463894
 30
0.0
 11
1697.400212468327
 21
1443.000148463894
 31
0.0
  0
LINE
  5
A6
330
1F
100
AcDbEntity
  8
0-B_寸法
  6
Continuous
 62
   120
370
     5
100
AcDbLine
 10
-534.1999148807008
 20
1443.000148463894
 30
0.0
 11
-284.1999148807014
 21
1443.000148463894
 31
0.0
  0
LINE
  5
A7
330
1F
100
AcDbEntity
  8
0-B_寸法
  6
Continuous
 62
   120
370
     5
100
AcDbLine
 10
-534.1999148807008
 20
3438.000148463894
 30
0.0
 11
-284.1999148807014
 21
3438.000148463894
 31
0.0
  0
LINE
  5
A8
330
1F
100
AcDbEntity
  8
0-B_寸法
  6
Continuous
 62
   120
370
     5
100
AcDbLine
 10
-534.1999148807008
 20
3438.000148463894
 30
0.0
 11
-534.1999148807008
 21
1443.000148463894
 31
0.0
  0
LINE
  5
A9
330
1F
100
AcDbEntity
  8
0-B_寸法
  6
Continuous
 62
   120
370
     5
100
AcDbLine
 10
-2765.799671069994
 20
1443.000148463894
 30
0.0
 11
-2515.799671069997
 21
1443.000148463894
 31
0.0
  0
LINE
  5
AA
330
1F
100
AcDbEntity
  8
0-B_寸法
  6
Continuous
 62
   120
370
     5
100
AcDbLine
 10
-2765.799671069994
 20
3438.000148463894
 30
0.0
 11
-2515.799671069997
 21
3438.000148463894
 31
0.0
  0
LINE
  5
AB
330
1F
100
AcDbEntity
  8
0-B_寸法
  6
Continuous
 62
   120
370
     5
100
AcDbLine
 10
-2765.799671069994
 20
3438.000148463894
 30
0.0
 11
-2765.799671069994
 21
1443.000148463894
 31
0.0
  0
LINE
  5
AC
330
1F
100
AcDbEntity
  8
0-4_枠
  6
Continuous
 62
    92
370
    13
100
AcDbLine
 10
2021.400212468329
 20
1433.000148463893
 30
0.0
 11
2708.400212468328
 21
1433.000148463893
 31
0.0
  0
LINE
  5
AD
330
1F
100
AcDbEntity
  8
0-4_枠
  6
Continuous
 62
    92
370
    13
100
AcDbLine
 10
1997.400212468327
 20
3465.000148463894
 30
0.0
 11
2732.400212468327
 21
3465.000148463894
 31
0.0
  0
LINE
  5
AE
330
1F
100
AcDbEntity
  8
0-4_枠
  6
Continuous
 62
    92
370
    13
100
AcDbLine
 10
2021.400212468329
 20
3441.000148463893
 30
0.0
 11
2708.400212468328
 21
3441.000148463893
 31
0.0
  0
LINE
  5
AF
330
1F
100
AcDbEntity
  8
0-4_枠
  6
Continuous
 62
    92
370
    13
100
AcDbLine
 10
2708.400212468328
 20
1418.000148463893
 30
0.0
 11
2708.400212468328
 21
3441.000148463893
 31
0.0
  0
LINE
  5
B0
330
1F
100
AcDbEntity
  8
0-4_枠
  6
Continuous
 62
    92
370
    13
100
AcDbLine
 10
2732.400212468327
 20
1418.000148463893
 30
0.0
 11
2732.400212468327
 21
3465.000148463894
 31
0.0
  0
LINE
  5
B1
330
1F
100
AcDbEntity
  8
0-4_枠
  6
Continuous
 62
    92
370
    13
100
AcDbLine
 10
1997.400212468327
 20
1418.000148463893
 30
0.0
 11
2732.400212468327
 21
1418.000148463893
 31
0.0
  0
LINE
  5
B2
330
1F
100
AcDbEntity
  8
0-4_枠
  6
Continuous
 62
    92
370
    13
100
AcDbLine
 10
1997.400212468327
 20
1418.000148463893
 30
0.0
 11
1997.400212468327
 21
3465.000148463894
 31
0.0
  0
LINE
  5
B3
330
1F
100
AcDbEntity
  8
0-4_枠
  6
Continuous
 62
    92
370
    13
100
AcDbLine
 10
2021.400212468329
 20
1418.000148463893
 30
0.0
 11
2021.400212468329
 21
3441.000148463893
 31
0.0
  0
LINE
  5
B4
330
1F
100
AcDbEntity
  8
0-4_枠
  6
Continuous
 62
    92
370
    13
100
AcDbLine
 10
-210.1999148807005
 20
1433.000148463893
 30
0.0
 11
499.8000851192984
 21
1433.000148463893
 31
0.0
  0
LINE
  5
B5
330
1F
100
AcDbEntity
  8
0-4_枠
  6
Continuous
 62
    92
370
    13
100
AcDbLine
 10
-234.1999148807008
 20
3465.000148463894
 30
0.0
 11
523.8000851192996
 21
3465.000148463894
 31
0.0
  0
LINE
  5
B6
330
1F
100
AcDbEntity
  8
0-4_枠
  6
Continuous
 62
    92
370
    13
100
AcDbLine
 10
-210.1999148807005
 20
3441.000148463893
 30
0.0
 11
499.8000851192984
 21
3441.000148463893
 31
0.0
  0
LINE
  5
B7
330
1F
100
AcDbEntity
  8
0-4_枠
  6
Continuous
 62
    92
370
    13
100
AcDbLine
 10
499.8000851192984
 20
1418.000148463893
 30
0.0
 11
499.8000851192984
 21
3441.000148463893
 31
0.0
  0
LINE
  5
B8
330
1F
100
AcDbEntity
  8
0-4_枠
  6
Continuous
 62
    92
370
    13
100
AcDbLine
 10
523.8000851192996
 20
1418.000148463893
 30
0.0
 11
523.8000851192996
 21
3465.000148463894
 31
0.0
  0
LINE
  5
B9
330
1F
100
AcDbEntity
  8
0-4_枠
  6
Continuous
 62
    92
370
    13
100
AcDbLine
 10
-234.1999148807008
 20
1418.000148463893
 30
0.0
 11
523.8000851192996
 21
1418.000148463893
 31
0.0
  0
LINE
  5
BA
330
1F
100
AcDbEntity
  8
0-4_枠
  6
Continuous
 62
    92
370
    13
100
AcDbLine
 10
-234.1999148807008
 20
1418.000148463893
 30
0.0
 11
-234.1999148807008
 21
3465.000148463894
 31
0.0
  0
LINE
  5
BB
330
1F
100
AcDbEntity
  8
0-4_枠
  6
Continuous
 62
    92
370
    13
100
AcDbLine
 10
-210.1999148807005
 20
1418.000148463893
 30
0.0
 11
-210.1999148807005
 21
3441.000148463893
 31
0.0
  0
LINE
  5
BC
330
1F
100
AcDbEntity
  8
0-4_枠
  6
Continuous
 62
    92
370
    13
100
AcDbLine
 10
-2465.799671069994
 20
1418.000148463893
 30
0.0
 11
-2465.799671069994
 21
3465.000148463894
 31
0.0
  0
LINE
  5
BD
330
1F
100
AcDbEntity
  8
0-4_枠
  6
Continuous
 62
    92
370
    13
100
AcDbLine
 10
-2441.799671069996
 20
1418.000148463893
 30
0.0
 11
-2441.799671069996
 21
3441.000148463893
 31
0.0
  0
LWPOLYLINE
  5
BE
330
1F
100
AcDbEntity
  8
0-B_寸法
  6
Continuous
 62
     7
370
     9
100
AcDbPolyline
 90
        4
 70
     1
 43
3.0
 10
-1712.299671069996
 20
1168.000148463894
 42
0.4142135623731
 10
-1713.799671069996
 20
1169.500148463894
 42
0.4142135623731
 10
-1715.299671069996
 20
1168.000148463894
 42
0.4142135623731
 10
-1713.799671069996
 20
1166.500148463894
 42
0.4142135623731
  0
LINE
  5
BF
330
1F
100
AcDbEntity
  8
0-B_寸法
  6
Continuous
 62
   120
370
     5
100
AcDbLine
 10
-1713.799671069996
 20
1168.000148463894
 30
0.0
 11
-1713.799671069996
 21
1368.000148463894
 31
0.0
  0
LINE
  5
C0
330
1F
100
AcDbEntity
  8
0-B_寸法
  6
Continuous
 62
   120
370
     5
100
AcDbLine
 10
-2436.799671069995
 20
1168.000148463894
 30
0.0
 11
-1713.799671069996
 21
1168.000148463894
 31
0.0
  0
LWPOLYLINE
  5
C1
330
1F
100
AcDbEntity
  8
0-B_寸法
  6
Continuous
 62
     7
370
     9
100
AcDbPolyline
 90
        4
 70
     1
 43
3.0
 10
2707.900212468327
 20
1168.000148463894
 42
0.4142135623731
 10
2706.400212468327
 20
1169.500148463894
 42
0.4142135623731
 10
2704.900212468327
 20
1168.000148463894
 42
0.4142135623731
 10
2706.400212468327
 20
1166.500148463894
 42
0.4142135623731
  0
LWPOLYLINE
  5
C2
330
1F
100
AcDbEntity
  8
0-B_寸法
  6
Continuous
 62
     7
370
     9
100
AcDbPolyline
 90
        4
 70
     1
 43
3.0
 10
2027.900212468328
 20
1168.000148463894
 42
0.4142135623731
 10
2026.400212468328
 20
1169.500148463894
 42
0.4142135623731
 10
2024.900212468328
 20
1168.000148463894
 42
0.4142135623731
 10
2026.400212468328
 20
1166.500148463894
 42
0.4142135623731
  0
LWPOLYLINE
  5
C3
330
1F
100
AcDbEntity
  8
0-B_寸法
  6
Continuous
 62
     7
370
     9
100
AcDbPolyline
 90
        4
 70
     1
 43
3.0
 10
499.3000851192985
 20
1168.000148463894
 42
0.4142135623731
 10
497.8000851192985
 20
1169.500148463894
 42
0.4142135623731
 10
496.3000851192985
 20
1168.000148463894
 42
0.4142135623731
 10
497.8000851192985
 20
1166.500148463894
 42
0.4142135623731
  0
LWPOLYLINE
  5
C4
330
1F
100
AcDbEntity
  8
0-B_寸法
  6
Continuous
 62
     7
370
     9
100
AcDbPolyline
 90
        4
 70
     1
 43
3.0
 10
-203.6999148806999
 20
1168.000148463894
 42
0.4142135623731
 10
-205.1999148806999
 20
1169.500148463894
 42
0.4142135623731
 10
-206.6999148806999
 20
1168.000148463894
 42
0.4142135623731
 10
-205.1999148806999
 20
1166.500148463894
 42
0.4142135623731
  0
LWPOLYLINE
  5
C5
330
1F
100
AcDbEntity
  8
0-B_寸法
  6
Continuous
 62
     7
370
     9
100
AcDbPolyline
 90
        4
 70
     1
 43
3.0
 10
-2435.299671069995
 20
1168.000148463894
 42
0.4142135623731
 10
-2436.799671069995
 20
1169.500148463894
 42
0.4142135623731
 10
-2438.299671069995
 20
1168.000148463894
 42
0.4142135623731
 10
-2436.799671069995
 20
1166.500148463894
 42
0.4142135623731
  0
LINE
  5
C6
330
1F
100
AcDbEntity
  8
0-B_寸法
  6
Continuous
 62
   120
370
     5
100
AcDbLine
 10
2706.400212468327
 20
1168.000148463894
 30
0.0
 11
2706.400212468327
 21
1368.000148463894
 31
0.0
  0
LINE
  5
C7
330
1F
100
AcDbEntity
  8
0-B_寸法
  6
Continuous
 62
   120
370
     5
100
AcDbLine
 10
2026.400212468328
 20
1168.000148463894
 30
0.0
 11
2706.400212468327
 21
1168.000148463894
 31
0.0
  0
LINE
  5
C8
330
1F
100
AcDbEntity
  8
0-B_寸法
  6
Continuous
 62
   120
370
     5
100
AcDbLine
 10
2026.400212468328
 20
1168.000148463894
 30
0.0
 11
2026.400212468328
 21
1368.000148463894
 31
0.0
  0
LINE
  5
C9
330
1F
100
AcDbEntity
  8
0-B_寸法
  6
Continuous
 62
   120
370
     5
100
AcDbLine
 10
497.8000851192985
 20
1168.000148463894
 30
0.0
 11
497.8000851192985
 21
1368.000148463894
 31
0.0
  0
LINE
  5
CA
330
1F
100
AcDbEntity
  8
0-B_寸法
  6
Continuous
 62
   120
370
     5
100
AcDbLine
 10
-205.1999148806999
 20
1168.000148463894
 30
0.0
 11
497.8000851192985
 21
1168.000148463894
 31
0.0
  0
LINE
  5
CB
330
1F
100
AcDbEntity
  8
0-B_寸法
  6
Continuous
 62
   120
370
     5
100
AcDbLine
 10
-205.1999148806999
 20
1168.000148463894
 30
0.0
 11
-205.1999148806999
 21
1368.000148463894
 31
0.0
  0
LINE
  5
CC
330
1F
100
AcDbEntity
  8
0-B_寸法
  6
Continuous
 62
   120
370
     5
100
AcDbLine
 10
-2436.799671069995
 20
1168.000148463894
 30
0.0
 11
-2436.799671069995
 21
1368.000148463894
 31
0.0
  0
LINE
  5
CD
330
1F
100
AcDbEntity
  8
0-0_補助線
  6
JWW_HOJO
 62
     7
370
     9
100
AcDbLine
 10
-4697.399798419023
 20
3964.999818544131
 30
0.0
 11
-4697.399798419023
 21
-3790.000179909372
 31
0.0
  0
LINE
  5
CE
330
1F
100
AcDbEntity
  8
0-0_補助線
  6
JWW_HOJO
 62
   120
370
     5
100
AcDbLine
 10
-4747.399798419023
 20
3964.999818544131
 30
0.0
 11
-4747.399798419023
 21
-3790.000179909372
 31
0.0
  0
LINE
  5
CF
330
1F
100
AcDbEntity
  8
0-0_補助線
  6
JWW_HOJO
 62
     7
370
     9
100
AcDbLine
 10
-2465.799671069994
 20
3964.999818544131
 30
0.0
 11
-2465.799671069994
 21
-3790.000179909372
 31
0.0
  0
LINE
  5
D0
330
1F
100
AcDbEntity
  8
0-0_補助線
  6
JWW_HOJO
 62
   120
370
     5
100
AcDbLine
 10
-2515.799671069995
 20
3964.999818544131
 30
0.0
 11
-2515.799671069995
 21
-3790.000179909372
 31
0.0
  0
LINE
  5
D1
330
1F
100
AcDbEntity
  8
0-0_補助線
  6
JWW_HOJO
 62
     7
370
     9
100
AcDbLine
 10
-234.1999148807008
 20
3964.999818544131
 30
0.0
 11
-234.1999148807008
 21
-3790.000179909372
 31
0.0
  0
LINE
  5
D2
330
1F
100
AcDbEntity
  8
0-0_補助線
  6
JWW_HOJO
 62
   120
370
     5
100
AcDbLine
 10
-284.1999148807014
 20
3964.999818544131
 30
0.0
 11
-284.1999148807014
 21
-3790.000179909372
 31
0.0
  0
LINE
  5
D3
330
1F
100
AcDbEntity
  8
0-0_補助線
  6
JWW_HOJO
 62
     7
370
     9
100
AcDbLine
 10
1997.400212468327
 20
3964.999818544131
 30
0.0
 11
1997.400212468327
 21
-3790.000179909372
 31
0.0
  0
LINE
  5
D4
330
1F
100
AcDbEntity
  8
0-0_補助線
  6
JWW_HOJO
 62
   120
370
     5
100
AcDbLine
 10
1947.400212468327
 20
3964.999818544131
 30
0.0
 11
1947.400212468327
 21
-3790.000179909372
 31
0.0
  0
LINE
  5
D5
330
1F
100
AcDbEntity
  8
F-A_文字
  6
Continuous
 62
     7
370
     9
100
AcDbLine
 10
3436.400212468328
 20
-3790.000017526987
 30
0.0
 11
5689.998977248734
 21
184.5000148463899
 31
0.0
  0
LINE
  5
D6
330
1F
100
AcDbEntity
  8
F-A_文字
  6
Continuous
 62
     7
370
     9
100
AcDbLine
 10
3436.400212468328
 20
190.499951130636
 30
0.0
 11
5689.998977248734
 21
4164.999983504013
 31
0.0
  0
MTEXT
  5
D7
330
1F
100
AcDbEntity
  8
0-B_寸法
  6
Continuous
 62
     7
370
    70
100
AcDbMText
 10
-2780.799671069994
 20
2225.325148463893
 30
0.0
 40
57.14999999999999
 41
412.5
 46
0.0
 71
     7
 72
     1
  1
{\fＭＳ ゴシック|b0|i0|c128|p49;ＤＨ＝1,995}
 11
6.123031769111886E-17
 21
1.0
 31
0.0
 73
     1
 44
1.0
  0
MTEXT
  5
D8
330
1F
100
AcDbEntity
  8
0-B_寸法
  6
Continuous
 62
     7
370
    70
100
AcDbMText
 10
-549.1999148807008
 20
2225.325148463893
 30
0.0
 40
57.14999999999999
 41
412.5
 46
0.0
 71
     7
 72
     1
  1
{\fＭＳ ゴシック|b0|i0|c128|p49;ＤＨ＝1,995}
 11
6.123031769111886E-17
 21
1.0
 31
0.0
 73
     1
 44
1.0
  0
MTEXT
  5
D9
330
1F
100
AcDbEntity
  8
0-B_寸法
  6
Continuous
 62
     7
370
    70
100
AcDbMText
 10
1682.400212468327
 20
2225.325148463893
 30
0.0
 40
57.14999999999999
 41
412.5
 46
0.0
 71
     7
 72
     1
  1
{\fＭＳ ゴシック|b0|i0|c128|p49;ＤＨ＝1,995}
 11
6.123031769111886E-17
 21
1.0
 31
0.0
 73
     1
 44
1.0
  0
MTEXT
  5
DA
330
1F
100
AcDbEntity
  8
0-B_寸法
  6
Continuous
 62
     7
370
    70
100
AcDbMText
 10
-2244.549671069994
 20
1174.075148463894
 30
0.0
 40
57.15
 41
337.5
 46
0.0
 71
     7
 72
     1
  1
{\fＭＳ ゴシック|b0|i0|c128|p49;ＤＷ＝723}
 73
     1
 44
1.0
  0
MTEXT
  5
DB
330
1F
100
AcDbEntity
  8
0-B_寸法
  6
Continuous
 62
     7
370
    70
100
AcDbMText
 10
-22.4499148807007
 20
1174.075148463894
 30
0.0
 40
57.15
 41
337.5
 46
0.0
 71
     7
 72
     1
  1
{\fＭＳ ゴシック|b0|i0|c128|p49;ＤＷ＝703}
 73
     1
 44
1.0
  0
MTEXT
  5
DC
330
1F
100
AcDbEntity
  8
0-B_寸法
  6
Continuous
 62
     7
370
    70
100
AcDbMText
 10
2197.650212468327
 20
1174.075148463894
 30
0.0
 40
57.15
 41
337.5
 46
0.0
 71
     7
 72
     1
  1
{\fＭＳ ゴシック|b0|i0|c128|p49;ＤＷ＝680}
 73
     1
 44
1.0
  0
MTEXT
  5
DD
330
1F
100
AcDbEntity
  8
F-A_文字
  6
Continuous
 62
     7
370
     9
100
AcDbMText
 10
-5890.000004381747
 20
4018.575148463894
 30
0.0
 40
57.15
 41
300.0
 46
0.0
 71
     7
 72
     1
  1
{\fＭＳ ゴシック|b0|i0|c128|p49;デザイン}
 73
     1
 44
1.0
  0
MTEXT
  5
DE
330
1F
100
AcDbEntity
  8
F-A_文字
  6
Continuous
 62
     7
370
     9
100
AcDbMText
 10
-5852.500004381747
 20
2031.325062684755
 30
0.0
 40
57.15
 41
225.0
 46
0.0
 71
     7
 72
     1
  1
{\fＭＳ ゴシック|b0|i0|c128|p49;姿　図}
 73
     1
 44
1.0
  0
MTEXT
  5
DF
330
1F
100
AcDbEntity
  8
F-A_文字
  6
Continuous
 62
     7
370
     9
100
AcDbMText
 10
-5890.000004381747
 20
38.07493236644844
 30
0.0
 40
57.15
 41
300.0
 46
0.0
 71
     7
 72
     1
  1
{\fＭＳ ゴシック|b0|i0|c128|p49;デザイン}
 73
     1
 44
1.0
  0
MTEXT
  5
E0
330
1F
100
AcDbEntity
  8
F-A_文字
  6
Continuous
 62
     7
370
     9
100
AcDbMText
 10
-5852.500004381747
 20
-1949.175091552734
 30
0.0
 40
57.15
 41
225.0
 46
0.0
 71
     7
 72
     1
  1
{\fＭＳ ゴシック|b0|i0|c128|p49;姿　図}
 73
     1
 44
1.0
  0
MTEXT
  5
E1
330
1F
100
AcDbEntity
  8
F-A_文字
  6
Continuous
 62
     7
370
     0
100
AcDbMText
 10
-60.0001237199109
 20
-3887.139820871936
 30
0.0
 40
45.72
 41
180.0
 46
0.0
 71
     7
 72
     1
  1
{\fＭＳ ゴシック|b0|i0|c128|p49;図面名}
 73
     1
 44
1.0
  0
MTEXT
  5
E2
330
1F
100
AcDbEntity
  8
F-A_文字
  6
Continuous
 62
     7
370
     0
100
AcDbMText
 10
2779.998729808911
 20
-3887.142460617774
 30
0.0
 40
45.72
 41
300.0
 46
0.0
 71
     7
 72
     1
  1
{\fＭＳ ゴシック|b0|i0|c128|p49;ＳＣＡＬＥ}
 73
     1
 44
1.0
  0
MTEXT
  5
E3
330
1F
100
AcDbEntity
  8
F-A_文字
  6
Continuous
 62
     7
370
     0
100
AcDbMText
 10
4279.999224688556
 20
-3887.143854850754
 30
0.0
 40
45.72
 41
240.0
 46
0.0
 71
     7
 72
     1
  1
{\fＭＳ ゴシック|b0|i0|c128|p49;ＤＡＴＥ}
 73
     1
 44
1.0
  0
MTEXT
  5
E4
330
1F
100
AcDbEntity
  8
F-A_文字
  6
Continuous
 62
     7
370
     0
100
AcDbMText
 10
1180.417701903719
 20
-3946.423911599839
 30
0.0
 40
77.15249999999999
 41
405.0
 46
0.0
 71
     7
 72
     1
  1
{\fＭＳ ゴシック|b0|i0|c128|p49;建具姿図}
 73
     1
 44
1.0
  0
MTEXT
  5
E5
330
1F
100
AcDbEntity
  8
F-A_文字
  6
Continuous
 62
     7
370
     0
100
AcDbMText
 10
349.9999175200594
 20
-3946.496666872502
 30
0.0
 40
78.58125
 41
412.5
 46
0.0
 71
     7
 72
     1
  1
{\fＭＳ ゴシック|b0|i0|c128|p49;DOORETUS}
 73
     1
 44
1.0
  0
MTEXT
  5
E6
330
1F
100
AcDbEntity
  8
F-A_文字
  6
Continuous
 62
     7
370
     0
100
AcDbMText
 10
2779.998729808911
 20
-4087.14246317786
 30
0.0
 40
45.72
 41
240.0
 46
0.0
 71
     7
 72
     1
  1
{\fＭＳ ゴシック|b0|i0|c128|p49;ＦＩＬＥ}
 73
     1
 44
1.0
  0
MTEXT
  5
E7
330
1F
100
AcDbEntity
  8
F-A_文字
  6
Continuous
 62
     7
370
     0
100
AcDbMText
 10
4279.999224688556
 20
-4087.143857410839
 30
0.0
 40
45.72
 41
180.0
 46
0.0
 71
     7
 72
     1
  1
{\fＭＳ ゴシック|b0|i0|c128|p49;ＮＯ．}
 73
     1
 44
1.0
  0
MTEXT
  5
E8
330
1F
100
AcDbEntity
  8
F-A_文字
  6
Continuous
 62
     7
370
     0
100
AcDbMText
 10
1234.998729808911
 20
-4096.140669266149
 30
0.0
 40
45.72
 41
120.0
 46
0.0
 71
     7
 72
     1
  1
{\fＭＳ ゴシック|b0|i0|c128|p49;株式}
 73
     1
 44
1.0
  0
MTEXT
  5
E9
330
1F
100
AcDbEntity
  8
F-A_文字
  6
Continuous
 62
     7
370
     9
100
AcDbMText
 10
4936.249033580831
 20
-4147.857012699985
 30
0.0
 40
74.295
 41
97.5
 46
0.0
 71
     7
 72
     1
  1
{\fＭＳ ゴシック|b0|i0|c128|p49;01}
 73
     1
 44
1.0
  0
MTEXT
  5
EA
330
1F
100
AcDbEntity
  8
F-A_文字
  6
Continuous
 62
     7
370
     0
100
AcDbMText
 10
1444.998729808911
 20
-4164.281754523929
 30
0.0
 40
101.44125
 41
1065.0
 46
0.0
 71
     7
 72
     1
  1
{\fＭＳ ゴシック|b0|i0|c128|p49;ウッドワン・・・}
 73
     1
 44
1.0
  0
MTEXT
  5
EB
330
1F
100
AcDbEntity
  8
F-A_文字
  6
Continuous
 62
     7
370
     0
100
AcDbMText
 10
1234.998729808911
 20
-4168.140669266187
 30
0.0
 40
45.72
 41
120.0
 46
0.0
 71
     7
 72
     1
  1
{\fＭＳ ゴシック|b0|i0|c128|p49;会社}
 73
     1
 44
1.0
  0
MTEXT
  5
EC
330
1F
100
AcDbEntity
  8
F-A_文字
  6
Continuous
 62
     7
370
     0
100
AcDbMText
 10
5608.403311109712
 20
-4314.841419020919
 30
0.0
 40
68.58
 41
90.0
 46
0.0
 71
     7
 72
     1
  1
{\fＭＳ ゴシック|b0|i0|c128|p49;）}
 73
     1
 44
1.0
  0
MTEXT
  5
ED
330
1F
100
AcDbEntity
  8
F-A_文字
  6
Continuous
 62
     7
370
     0
100
AcDbMText
 10
5190.195950842071
 20
-4316.235443869856
 30
0.0
 40
68.58
 41
45.0
 46
0.0
 71
     7
 72
     1
  1
{\fＭＳ ゴシック|b0|i0|c128|p49;,}
 73
     1
 44
1.0
  0
MTEXT
  5
EE
330
1F
100
AcDbEntity
  8
F-A_文字
  6
Continuous
 62
     7
370
     0
100
AcDbMText
 10
4923.937261915373
 20
-4314.771967288282
 30
0.0
 40
74.295
 41
97.5
 46
0.0
 71
     7
 72
     1
  1
{\fＭＳ ゴシック|b0|i0|c128|p49;$y}
 73
     1
 44
1.0
  0
MTEXT
  5
EF
330
1F
100
AcDbEntity
  8
F-A_文字
  6
Continuous
 62
     7
370
     0
100
AcDbMText
 10
5078.673982954195
 20
-4314.771967288282
 30
0.0
 40
74.295
 41
97.5
 46
0.0
 71
     7
 72
     1
  1
{\fＭＳ ゴシック|b0|i0|c128|p49;$m}
 73
     1
 44
1.0
  0
MTEXT
  5
F0
330
1F
100
AcDbEntity
  8
F-A_文字
  6
Continuous
 62
     7
370
     0
100
AcDbMText
 10
5233.410715437103
 20
-4314.771967288282
 30
0.0
 40
74.295
 41
97.5
 46
0.0
 71
     7
 72
     1
  1
{\fＭＳ ゴシック|b0|i0|c128|p49;$d}
 73
     1
 44
1.0
  0
MTEXT
  5
F1
330
1F
100
AcDbEntity
  8
F-A_文字
  6
Continuous
 62
     7
370
     0
100
AcDbMText
 10
5388.147447920011
 20
-4314.771967288282
 30
0.0
 40
74.295
 41
195.0
 46
0.0
 71
     7
 72
     1
  1
{\fＭＳ ゴシック|b0|i0|c128|p49;印刷}
 73
     1
 44
1.0
  0
MTEXT
  5
F2
330
1F
100
AcDbEntity
  8
F-A_文字
  6
Continuous
 62
     7
370
     0
100
AcDbMText
 10
4784.033374252999
 20
-4319.023493567732
 30
0.0
 40
68.58
 41
90.0
 46
0.0
 71
     7
 72
     1
  1
{\fＭＳ ゴシック|b0|i0|c128|p49;（}
 73
     1
 44
1.0
  0
MTEXT
  5
F3
330
1F
100
AcDbEntity
  8
F-A_文字
  6
Continuous
 62
     7
370
     0
100
AcDbMText
 10
5031.277143812345
 20
-4319.023493567732
 30
0.0
 40
68.58
 41
45.0
 46
0.0
 71
     7
 72
     1
  1
{\fＭＳ ゴシック|b0|i0|c128|p49;,}
 73
     1
 44
1.0
  0
LINE
  5
F4
330
1F
100
AcDbEntity
  8
0-0_補助線
  6
JWW_HOJO
 62
   120
370
     5
100
AcDbLine
 10
-5999.99998453501
 20
550.5001831054688
 30
0.0
 11
5699.998762800888
 21
550.5001831054688
 31
0.0
  0
LINE
  5
F5
330
1F
100
AcDbEntity
  8
0-0_補助線
  6
JWW_HOJO
 62
   120
370
     5
100
AcDbLine
 10
-5999.99998453501
 20
430.5001831054688
 30
0.0
 11
5699.998762800888
 21
430.5001831054688
 31
0.0
  0
LINE
  5
F6
330
1F
100
AcDbEntity
  8
0-0_補助線
  6
JWW_HOJO
 62
   120
370
     5
100
AcDbLine
 10
-5999.99998453501
 20
310.5001831054688
 30
0.0
 11
5699.998762800888
 21
310.5001831054688
 31
0.0
  0
LINE
  5
F7
330
1F
100
AcDbEntity
  8
0-0_補助線
  6
JWW_HOJO
 62
   120
370
     5
100
AcDbLine
 10
-906.7996710699953
 20
4174.999769056166
 30
0.0
 11
-906.7996710699953
 21
-3790.000179909371
 31
0.0
  0
LINE
  5
F8
330
1F
100
AcDbEntity
  8
0-0_補助線
  6
JWW_HOJO
 62
   120
370
     5
100
AcDbLine
 10
1324.8000851193
 20
4174.999769056166
 30
0.0
 11
1324.8000851193
 21
-3790.000179909371
 31
0.0
  0
LINE
  5
F9
330
1F
100
AcDbEntity
  8
0-0_補助線
  6
JWW_HOJO
 62
   120
370
     5
100
AcDbLine
 10
3556.400212468328
 20
4174.999769056166
 30
0.0
 11
3556.400212468328
 21
-3790.000179909371
 31
0.0
  0
LINE
  5
FA
330
1F
100
AcDbEntity
  8
0-0_補助線
  6
JWW_HOJO
 62
   120
370
     5
100
AcDbLine
 10
5699.998762800888
 20
-3310.000017526988
 30
0.0
 11
-5999.99998453501
 21
-3310.000017526988
 31
0.0
  0
LINE
  5
FB
330
1F
100
AcDbEntity
  8
0-0_補助線
  6
JWW_HOJO
 62
   120
370
     5
100
AcDbLine
 10
5699.998762800888
 20
-3430.000017526988
 30
0.0
 11
-5999.99998453501
 21
-3430.000017526988
 31
0.0
  0
LINE
  5
FC
330
1F
100
AcDbEntity
  8
0-0_補助線
  6
JWW_HOJO
 62
   120
370
     5
100
AcDbLine
 10
5699.998762800888
 20
-3550.000017526988
 30
0.0
 11
-5999.99998453501
 21
-3550.000017526988
 31
0.0
  0
LINE
  5
FD
330
1F
100
AcDbEntity
  8
0-0_補助線
  6
JWW_HOJO
 62
   120
370
     5
100
AcDbLine
 10
5699.998762800888
 20
-3670.000017526988
 30
0.0
 11
-5999.99998453501
 21
-3670.000017526988
 31
0.0
  0
LINE
  5
FE
330
1F
100
AcDbEntity
  8
0-0_補助線
  6
JWW_HOJO
 62
   120
370
     5
100
AcDbLine
 10
-5370.000018557986
 20
4174.999769056166
 30
0.0
 11
-5370.000018557986
 21
-3790.000179909371
 31
0.0
  0
MTEXT
  5
FF
330
1F
100
AcDbEntity
  8
0-A_文字
  6
Continuous
 62
     7
370
     9
100
AcDbMText
 10
-5370.000018557986
 20
661.5751831054688
 30
0.0
 40
57.15000000000003
 41
900.0
 46
0.0
 71
     7
 72
     1
  1
{\fＭＳ ゴシック|b0|i0|c128|p49;枠外幅 848mm（DW=793mm）}
 73
     1
 44
1.0
  0
MTEXT
  5
100
330
1F
100
AcDbEntity
  8
0-A_文字
  6
Continuous
 62
     7
370
     9
100
AcDbMText
 10
-3138.399798419025
 20
661.5751831054688
 30
0.0
 40
57.15000000000003
 41
900.0
 46
0.0
 71
     7
 72
     1
  1
{\fＭＳ ゴシック|b0|i0|c128|p49;枠外幅 778mm（DW=723mm）}
 73
     1
 44
1.0
  0
MTEXT
  5
101
330
1F
100
AcDbEntity
  8
0-A_文字
  6
Continuous
 62
     7
370
     9
100
AcDbMText
 10
-906.7996710699953
 20
661.5751831054688
 30
0.0
 40
57.15000000000003
 41
900.0
 46
0.0
 71
     7
 72
     1
  1
{\fＭＳ ゴシック|b0|i0|c128|p49;枠外幅 758mm（DW=703mm）}
 73
     1
 44
1.0
  0
MTEXT
  5
102
330
1F
100
AcDbEntity
  8
0-A_文字
  6
Continuous
 62
     7
370
     9
100
AcDbMText
 10
1324.8000851193
 20
661.5751831054688
 30
0.0
 40
57.15000000000003
 41
900.0
 46
0.0
 71
     7
 72
     1
  1
{\fＭＳ ゴシック|b0|i0|c128|p49;枠外幅 735mm（DW=680mm）}
 73
     1
 44
1.0
  0
MTEXT
  5
103
330
1F
100
AcDbEntity
  8
F-A_文字
  6
Continuous
 62
     7
370
     0
100
AcDbMText
 10
3383.748977248734
 20
-3946.426865907308
 30
0.0
 40
77.15249999999999
 41
202.5
 46
0.0
 71
     7
 72
     1
  1
{\fＭＳ ゴシック|b0|i0|c128|p49;1/30}
 73
     1
 44
1.0
  0
MTEXT
  5
104
330
1F
100
AcDbEntity
  8
F-A_文字
  6
Continuous
 62
     7
370
     0
100
AcDbMText
 10
4778.749126529666
 20
-3938.071010139966
 30
0.0
 40
78.86699999999999
 41
517.5
 46
0.0
 71
     7
 72
     1
  1
{\fＭＳ ゴシック|b0|i0|c128|p49;2021.04.01}
 73
     1
 44
1.0
  0
LINE
  5
105
330
1F
100
AcDbEntity
  8
レバー
  6
JWW_CENTER1
 62
   120
370
     5
100
AcDbLine
 10
2123.702391011367
 20
2400.500247439824
 30
0.0
 11
2040.676439273515
 21
2400.500247439824
 31
0.0
  0
LINE
  5
106
330
1F
100
AcDbEntity
  8
レバー
  6
JWW_CENTER1
 62
   120
370
     5
100
AcDbLine
 10
2076.900212468328
 20
2456.957208033614
 30
0.0
 11
2076.900212468328
 21
2357.11345474535
 31
0.0
  0
LINE
  5
107
330
1F
100
AcDbEntity
  8
レバー
  6
Continuous
 62
     7
370
     0
100
AcDbLine
 10
2192.400133611328
 20
2407.500234151723
 30
0.0
 11
2183.324834706028
 21
2407.500114011124
 31
0.0
  0
LINE
  5
108
330
1F
100
AcDbEntity
  8
レバー
  6
Continuous
 62
     7
370
     0
100
AcDbLine
 10
2183.324834706028
 20
2407.500114011124
 30
0.0
 11
2182.924388350628
 21
2407.500100041324
 31
0.0
  0
ARC
  5
109
330
1F
100
AcDbEntity
  8
レバー
  6
Continuous
 62
     7
370
     0
100
AcDbCircle
 10
2192.400212468328
 20
2395.000247177223
 30
0.0
 40
1.500000000000118
100
AcDbArc
 50
270.164192293
 51
0.000004253700026
  0
ARC
  5
10A
330
1F
100
AcDbEntity
  8
レバー
  6
Continuous
 62
     7
370
     0
100
AcDbCircle
 10
2192.400212468328
 20
2406.000247750823
 30
0.0
 40
1.500000000000029
100
AcDbArc
 50
0.0084663275
 51
89.9162980715
  0
LINE
  5
10B
330
1F
100
AcDbEntity
  8
レバー
  6
Continuous
 62
     7
370
     0
100
AcDbLine
 10
2081.918590144928
 20
2393.514131380724
 30
0.0
 11
2082.050891501528
 21
2393.507340642224
 31
0.0
  0
LINE
  5
10C
330
1F
100
AcDbEntity
  8
レバー
  6
Continuous
 62
     7
370
     0
100
AcDbLine
 10
2082.050891501528
 20
2393.507340642224
 30
0.0
 11
2082.486632654128
 21
2393.505408147823
 31
0.0
  0
LINE
  5
10D
330
1F
100
AcDbEntity
  8
レバー
  6
Continuous
 62
     7
370
     0
100
AcDbLine
 10
2082.486632654128
 20
2393.505408147823
 30
0.0
 11
2083.214826324729
 21
2393.505753202823
 31
0.0
  0
LINE
  5
10E
330
1F
100
AcDbEntity
  8
レバー
  6
Continuous
 62
     7
370
     0
100
AcDbLine
 10
2083.214826324729
 20
2393.505753202823
 30
0.0
 11
2084.229612631428
 21
2393.507004900424
 31
0.0
  0
LINE
  5
10F
330
1F
100
AcDbEntity
  8
レバー
  6
Continuous
 62
     7
370
     0
100
AcDbLine
 10
2084.229612631428
 20
2393.507004900424
 30
0.0
 11
2085.493140296728
 21
2393.508313408624
 31
0.0
  0
LINE
  5
110
330
1F
100
AcDbEntity
  8
レバー
  6
Continuous
 62
     7
370
     0
100
AcDbLine
 10
2085.493140296728
 20
2393.508313408624
 30
0.0
 11
2086.842670479528
 21
2393.508666845523
 31
0.0
  0
LINE
  5
111
330
1F
100
AcDbEntity
  8
レバー
  6
Continuous
 62
     7
370
     0
100
AcDbLine
 10
2086.842670479528
 20
2393.508666845523
 30
0.0
 11
2089.696187900128
 21
2393.506690113323
 31
0.0
  0
LINE
  5
112
330
1F
100
AcDbEntity
  8
レバー
  6
Continuous
 62
     7
370
     0
100
AcDbLine
 10
2089.696187900128
 20
2393.506690113323
 30
0.0
 11
2092.678023876328
 21
2393.502096364723
 31
0.0
  0
LINE
  5
113
330
1F
100
AcDbEntity
  8
レバー
  6
Continuous
 62
     7
370
     0
100
AcDbLine
 10
2092.678023876328
 20
2393.502096364723
 30
0.0
 11
2095.698746295328
 21
2393.499910085023
 31
0.0
  0
LINE
  5
114
330
1F
100
AcDbEntity
  8
レバー
  6
Continuous
 62
     7
370
     0
100
AcDbLine
 10
2095.698746295328
 20
2393.499910085023
 30
0.0
 11
2098.741334305828
 21
2393.500047455124
 31
0.0
  0
LINE
  5
115
330
1F
100
AcDbEntity
  8
レバー
  6
Continuous
 62
     7
370
     0
100
AcDbLine
 10
2098.741334305828
 20
2393.500047455124
 30
0.0
 11
2101.805616544329
 21
2393.500493558623
 31
0.0
  0
LINE
  5
116
330
1F
100
AcDbEntity
  8
レバー
  6
Continuous
 62
     7
370
     0
100
AcDbLine
 10
2101.805616544329
 20
2393.500493558623
 30
0.0
 11
2104.891421647428
 21
2393.500884714124
 31
0.0
  0
LINE
  5
117
330
1F
100
AcDbEntity
  8
レバー
  6
Continuous
 62
     7
370
     0
100
AcDbLine
 10
2104.891421647428
 20
2393.500884714124
 30
0.0
 11
2108.888512851428
 21
2393.501308931524
 31
0.0
  0
LINE
  5
118
330
1F
100
AcDbEntity
  8
レバー
  6
Continuous
 62
     7
370
     0
100
AcDbLine
 10
2108.888512851428
 20
2393.501308931524
 30
0.0
 11
2113.297498227728
 21
2393.501676338324
 31
0.0
  0
LINE
  5
119
330
1F
100
AcDbEntity
  8
レバー
  6
Continuous
 62
     7
370
     0
100
AcDbLine
 10
2113.297498227728
 20
2393.501676338324
 30
0.0
 11
2118.267259003328
 21
2393.501975758524
 31
0.0
  0
LINE
  5
11A
330
1F
100
AcDbEntity
  8
レバー
  6
Continuous
 62
     7
370
     0
100
AcDbLine
 10
2118.267259003328
 20
2393.501975758524
 30
0.0
 11
2123.797798903428
 21
2393.502179718124
 31
0.0
  0
LINE
  5
11B
330
1F
100
AcDbEntity
  8
レバー
  6
Continuous
 62
     7
370
     0
100
AcDbLine
 10
2123.797798903428
 20
2393.502179718124
 30
0.0
 11
2129.889114202629
 21
2393.502267728124
 31
0.0
  0
LINE
  5
11C
330
1F
100
AcDbEntity
  8
レバー
  6
Continuous
 62
     7
370
     0
100
AcDbLine
 10
2129.889114202629
 20
2393.502267728124
 30
0.0
 11
2136.541208626428
 21
2393.502225352924
 31
0.0
  0
LINE
  5
11D
330
1F
100
AcDbEntity
  8
レバー
  6
Continuous
 62
     7
370
     0
100
AcDbLine
 10
2136.541208626428
 20
2393.502225352924
 30
0.0
 11
2143.754085900028
 21
2393.502050264323
 31
0.0
  0
LINE
  5
11E
330
1F
100
AcDbEntity
  8
レバー
  6
Continuous
 62
     7
370
     0
100
AcDbLine
 10
2143.754085900028
 20
2393.502050264323
 30
0.0
 11
2152.335955204128
 21
2393.501719179123
 31
0.0
  0
LINE
  5
11F
330
1F
100
AcDbEntity
  8
レバー
  6
Continuous
 62
     7
370
     0
100
AcDbLine
 10
2152.335955204128
 20
2393.501719179123
 30
0.0
 11
2161.596386136228
 21
2393.501281457524
 31
0.0
  0
LINE
  5
120
330
1F
100
AcDbEntity
  8
レバー
  6
Continuous
 62
     7
370
     0
100
AcDbLine
 10
2161.596386136228
 20
2393.501281457524
 30
0.0
 11
2171.535371245528
 21
2393.500809276924
 31
0.0
  0
LINE
  5
121
330
1F
100
AcDbEntity
  8
レバー
  6
Continuous
 62
     7
370
     0
100
AcDbLine
 10
2171.535371245528
 20
2393.500809276924
 30
0.0
 11
2182.152925433328
 21
2393.500412999223
 31
0.0
  0
LINE
  5
122
330
1F
100
AcDbEntity
  8
レバー
  6
Continuous
 62
     7
370
     0
100
AcDbLine
 10
2182.152925433328
 20
2393.500412999223
 30
0.0
 11
2192.400133611328
 21
2393.500262124924
 31
0.0
  0
LINE
  5
123
330
1F
100
AcDbEntity
  8
レバー
  6
Continuous
 62
     7
370
     0
100
AcDbLine
 10
2192.400081457328
 20
2407.500233686123
 30
0.0
 11
2182.670979203428
 21
2407.500096316024
 31
0.0
  0
LINE
  5
124
330
1F
100
AcDbEntity
  8
レバー
  6
Continuous
 62
     7
370
     0
100
AcDbLine
 10
2182.670979203428
 20
2407.500096316024
 30
0.0
 11
2172.486184539028
 21
2407.499727046624
 31
0.0
  0
LINE
  5
125
330
1F
100
AcDbEntity
  8
レバー
  6
Continuous
 62
     7
370
     0
100
AcDbLine
 10
2172.486184539028
 20
2407.499727046624
 30
0.0
 11
2162.894634904028
 21
2407.499276752123
 31
0.0
  0
LINE
  5
126
330
1F
100
AcDbEntity
  8
レバー
  6
Continuous
 62
     7
370
     0
100
AcDbLine
 10
2162.894634904028
 20
2407.499276752123
 30
0.0
 11
2153.896337749128
 21
2407.498845549824
 31
0.0
  0
LINE
  5
127
330
1F
100
AcDbEntity
  8
レバー
  6
Continuous
 62
     7
370
     0
100
AcDbLine
 10
2153.896337749128
 20
2407.498845549824
 30
0.0
 11
2145.491270722528
 21
2407.498502357424
 31
0.0
  0
LINE
  5
128
330
1F
100
AcDbEntity
  8
レバー
  6
Continuous
 62
     7
370
     0
100
AcDbLine
 10
2145.491270722528
 20
2407.498502357424
 30
0.0
 11
2137.679437549528
 21
2407.498289084523
 31
0.0
  0
LINE
  5
129
330
1F
100
AcDbEntity
  8
レバー
  6
Continuous
 62
     7
370
     0
100
AcDbLine
 10
2137.679437549528
 20
2407.498289084523
 30
0.0
 11
2130.857335777728
 21
2407.498224823324
 31
0.0
  0
LINE
  5
12A
330
1F
100
AcDbEntity
  8
レバー
  6
Continuous
 62
     7
370
     0
100
AcDbLine
 10
2130.857335777728
 20
2407.498224823324
 30
0.0
 11
2124.562589825828
 21
2407.498296069524
 31
0.0
  0
LINE
  5
12B
330
1F
100
AcDbEntity
  8
レバー
  6
Continuous
 62
     7
370
     0
100
AcDbLine
 10
2124.562589825828
 20
2407.498296069524
 30
0.0
 11
2118.795199693828
 21
2407.498493975524
 31
0.0
  0
LINE
  5
12C
330
1F
100
AcDbEntity
  8
レバー
  6
Continuous
 62
     7
370
     0
100
AcDbLine
 10
2118.795199693828
 20
2407.498493975524
 30
0.0
 11
2113.553459198828
 21
2407.498799915023
 31
0.0
  0
LINE
  5
12D
330
1F
100
AcDbEntity
  8
レバー
  6
Continuous
 62
     7
370
     0
100
AcDbLine
 10
2113.553459198828
 20
2407.498799915023
 30
0.0
 11
2108.756302298728
 21
2407.499198055424
 31
0.0
  0
LINE
  5
12E
330
1F
100
AcDbEntity
  8
レバー
  6
Continuous
 62
     7
370
     0
100
AcDbLine
 10
2108.756302298728
 20
2407.499198055424
 30
0.0
 11
2104.105122761528
 21
2407.499702366523
 31
0.0
  0
LINE
  5
12F
330
1F
100
AcDbEntity
  8
レバー
  6
Continuous
 62
     7
370
     0
100
AcDbLine
 10
2104.105122761528
 20
2407.499702366523
 30
0.0
 11
2099.903019519229
 21
2407.500264419724
 31
0.0
  0
LINE
  5
130
330
1F
100
AcDbEntity
  8
レバー
  6
Continuous
 62
     7
370
     0
100
AcDbLine
 10
2099.903019519229
 20
2407.500264419724
 30
0.0
 11
2096.149590240529
 21
2407.500646262023
 31
0.0
  0
LINE
  5
131
330
1F
100
AcDbEntity
  8
レバー
  6
Continuous
 62
     7
370
     0
100
AcDbLine
 10
2096.149590240529
 20
2407.500646262023
 30
0.0
 11
2094.147732855528
 21
2407.499931006224
 31
0.0
  0
LINE
  5
132
330
1F
100
AcDbEntity
  8
レバー
  6
Continuous
 62
     7
370
     0
100
AcDbLine
 10
2094.147732855528
 20
2407.499931006224
 30
0.0
 11
2092.301365362228
 21
2407.497927731423
 31
0.0
  0
LINE
  5
133
330
1F
100
AcDbEntity
  8
レバー
  6
Continuous
 62
     7
370
     0
100
AcDbLine
 10
2092.301365362228
 20
2407.497927731423
 30
0.0
 11
2090.291745403528
 21
2407.494641094023
 31
0.0
  0
LINE
  5
134
330
1F
100
AcDbEntity
  8
レバー
  6
Continuous
 62
     7
370
     0
100
AcDbLine
 10
2090.291745403528
 20
2407.494641094023
 30
0.0
 11
2087.883809955528
 21
2407.492074834723
 31
0.0
  0
LINE
  5
135
330
1F
100
AcDbEntity
  8
レバー
  6
Continuous
 62
     7
370
     0
100
AcDbLine
 10
2087.883809955528
 20
2407.492074834723
 30
0.0
 11
2086.388649793028
 21
2407.491586356024
 31
0.0
  0
LINE
  5
136
330
1F
100
AcDbEntity
  8
レバー
  6
Continuous
 62
     7
370
     0
100
AcDbLine
 10
2086.388649793028
 20
2407.491586356024
 30
0.0
 11
2084.851299786628
 21
2407.492336070623
 31
0.0
  0
LINE
  5
137
330
1F
100
AcDbEntity
  8
レバー
  6
Continuous
 62
     7
370
     0
100
AcDbLine
 10
2084.851299786628
 20
2407.492336070623
 30
0.0
 11
2083.332999983528
 21
2407.493537942424
 31
0.0
  0
LINE
  5
138
330
1F
100
AcDbEntity
  8
レバー
  6
Continuous
 62
     7
370
     0
100
AcDbLine
 10
2083.332999983528
 20
2407.493537942424
 30
0.0
 11
2082.232328505928
 21
2407.492673675123
 31
0.0
  0
LINE
  5
139
330
1F
100
AcDbEntity
  8
レバー
  6
Continuous
 62
     7
370
     0
100
AcDbLine
 10
2082.232328505928
 20
2407.492673675123
 30
0.0
 11
2081.770003681728
 21
2407.486083636524
 31
0.0
  0
LINE
  5
13A
330
1F
100
AcDbEntity
  8
レバー
  6
Continuous
 62
     7
370
     0
100
AcDbLine
 10
2081.770003681728
 20
2407.486083636524
 30
0.0
 11
2081.766084210728
 21
2407.482003512324
 31
0.0
  0
ARC
  5
13B
330
1F
100
AcDbEntity
  8
レバー
  6
Continuous
 62
     7
370
     0
100
AcDbCircle
 10
2192.400212468328
 20
2406.000247702524
 30
0.0
 40
1.500000000000118
100
AcDbArc
 50
359.9999957463
 51
90.17419294509996
  0
ARC
  5
13C
330
1F
100
AcDbEntity
  8
レバー
  6
Continuous
 62
     7
370
     0
100
AcDbCircle
 10
2192.400212468328
 20
2395.000247128923
 30
0.0
 40
1.500000000000029
100
AcDbArc
 50
269.9105889113
 51
359.9915336725
  0
LINE
  5
13D
330
1F
100
AcDbEntity
  8
レバー
  6
Continuous
 62
     7
370
     0
100
AcDbLine
 10
2086.855599099528
 20
2407.491739092924
 30
0.0
 11
2086.092600973028
 21
2408.278422149424
 31
0.0
  0
LINE
  5
13E
330
1F
100
AcDbEntity
  8
レバー
  6
Continuous
 62
     7
370
     0
100
AcDbLine
 10
2086.092600973028
 20
2408.278422149424
 30
0.0
 11
2084.122625553729
 21
2409.646413473924
 31
0.0
  0
LINE
  5
13F
330
1F
100
AcDbEntity
  8
レバー
  6
Continuous
 62
     7
370
     0
100
AcDbLine
 10
2084.122625553729
 20
2409.646413473924
 30
0.0
 11
2081.875096915028
 21
2410.662922261823
 31
0.0
  0
LINE
  5
140
330
1F
100
AcDbEntity
  8
レバー
  6
Continuous
 62
     7
370
     0
100
AcDbLine
 10
2081.875096915028
 20
2410.662922261823
 30
0.0
 11
2079.436386611028
 21
2411.288885584624
 31
0.0
  0
LINE
  5
141
330
1F
100
AcDbEntity
  8
レバー
  6
Continuous
 62
     7
370
     0
100
AcDbLine
 10
2079.436386611028
 20
2411.288885584624
 30
0.0
 11
2076.900212468328
 21
2411.500247380224
 31
0.0
  0
LINE
  5
142
330
1F
100
AcDbEntity
  8
レバー
  6
Continuous
 62
     7
370
     0
100
AcDbLine
 10
2076.900212468328
 20
2411.500247380224
 30
0.0
 11
2074.364038325528
 21
2411.288885584624
 31
0.0
  0
LINE
  5
143
330
1F
100
AcDbEntity
  8
レバー
  6
Continuous
 62
     7
370
     0
100
AcDbLine
 10
2074.364038325528
 20
2411.288885584624
 30
0.0
 11
2071.925328021628
 21
2410.662922261823
 31
0.0
  0
LINE
  5
144
330
1F
100
AcDbEntity
  8
レバー
  6
Continuous
 62
     7
370
     0
100
AcDbLine
 10
2071.925328021628
 20
2410.662922261823
 30
0.0
 11
2069.677799382928
 21
2409.646413473924
 31
0.0
  0
LINE
  5
145
330
1F
100
AcDbEntity
  8
レバー
  6
Continuous
 62
     7
370
     0
100
AcDbLine
 10
2069.677799382928
 20
2409.646413473924
 30
0.0
 11
2067.707823963528
 21
2408.278422149424
 31
0.0
  0
LINE
  5
146
330
1F
100
AcDbEntity
  8
レバー
  6
Continuous
 62
     7
370
     0
100
AcDbLine
 10
2067.707823963528
 20
2408.278422149424
 30
0.0
 11
2066.091107578728
 21
2406.611520050623
 31
0.0
  0
LINE
  5
147
330
1F
100
AcDbEntity
  8
レバー
  6
Continuous
 62
     7
370
     0
100
AcDbLine
 10
2066.091107578728
 20
2406.611520050623
 30
0.0
 11
2064.889778757228
 21
2404.709765406824
 31
0.0
  0
LINE
  5
148
330
1F
100
AcDbEntity
  8
レバー
  6
Continuous
 62
     7
370
     0
100
AcDbLine
 10
2064.889778757228
 20
2404.709765406824
 30
0.0
 11
2064.150004090428
 21
2402.646240963124
 31
0.0
  0
LINE
  5
149
330
1F
100
AcDbEntity
  8
レバー
  6
Continuous
 62
     7
370
     0
100
AcDbLine
 10
2064.150004090428
 20
2402.646240963124
 30
0.0
 11
2063.900212200128
 21
2400.500247439824
 31
0.0
  0
LINE
  5
14A
330
1F
100
AcDbEntity
  8
レバー
  6
Continuous
 62
     7
370
     0
100
AcDbLine
 10
2063.900212200128
 20
2400.500247439824
 30
0.0
 11
2064.150004090428
 21
2398.354253916524
 31
0.0
  0
LINE
  5
14B
330
1F
100
AcDbEntity
  8
レバー
  6
Continuous
 62
     7
370
     0
100
AcDbLine
 10
2064.150004090428
 20
2398.354253916524
 30
0.0
 11
2064.889778757228
 21
2396.290729472924
 31
0.0
  0
LINE
  5
14C
330
1F
100
AcDbEntity
  8
レバー
  6
Continuous
 62
     7
370
     0
100
AcDbLine
 10
2064.889778757228
 20
2396.290729472924
 30
0.0
 11
2066.091107578728
 21
2394.388974829123
 31
0.0
  0
LINE
  5
14D
330
1F
100
AcDbEntity
  8
レバー
  6
Continuous
 62
     7
370
     0
100
AcDbLine
 10
2066.091107578728
 20
2394.388974829123
 30
0.0
 11
2067.707823963528
 21
2392.722072730324
 31
0.0
  0
LINE
  5
14E
330
1F
100
AcDbEntity
  8
レバー
  6
Continuous
 62
     7
370
     0
100
AcDbLine
 10
2067.707823963528
 20
2392.722072730324
 30
0.0
 11
2069.677799382928
 21
2391.354081405823
 31
0.0
  0
LINE
  5
14F
330
1F
100
AcDbEntity
  8
レバー
  6
Continuous
 62
     7
370
     0
100
AcDbLine
 10
2069.677799382928
 20
2391.354081405823
 30
0.0
 11
2071.925328021628
 21
2390.337572617923
 31
0.0
  0
LINE
  5
150
330
1F
100
AcDbEntity
  8
レバー
  6
Continuous
 62
     7
370
     0
100
AcDbLine
 10
2071.925328021628
 20
2390.337572617923
 30
0.0
 11
2074.364038325528
 21
2389.711609295124
 31
0.0
  0
LINE
  5
151
330
1F
100
AcDbEntity
  8
レバー
  6
Continuous
 62
     7
370
     0
100
AcDbLine
 10
2074.364038325528
 20
2389.711609295124
 30
0.0
 11
2076.900212468328
 21
2389.500247499424
 31
0.0
  0
LINE
  5
152
330
1F
100
AcDbEntity
  8
レバー
  6
Continuous
 62
     7
370
     0
100
AcDbLine
 10
2076.900212468328
 20
2389.500247499424
 30
0.0
 11
2079.436386611028
 21
2389.711609295124
 31
0.0
  0
LINE
  5
153
330
1F
100
AcDbEntity
  8
レバー
  6
Continuous
 62
     7
370
     0
100
AcDbLine
 10
2079.436386611028
 20
2389.711609295124
 30
0.0
 11
2081.875096915028
 21
2390.337572617923
 31
0.0
  0
LINE
  5
154
330
1F
100
AcDbEntity
  8
レバー
  6
Continuous
 62
     7
370
     0
100
AcDbLine
 10
2081.875096915028
 20
2390.337572617923
 30
0.0
 11
2084.122625553729
 21
2391.354081405823
 31
0.0
  0
LINE
  5
155
330
1F
100
AcDbEntity
  8
レバー
  6
Continuous
 62
     7
370
     0
100
AcDbLine
 10
2084.122625553729
 20
2391.354081405823
 30
0.0
 11
2086.092600973028
 21
2392.722072730324
 31
0.0
  0
LINE
  5
156
330
1F
100
AcDbEntity
  8
レバー
  6
Continuous
 62
     7
370
     0
100
AcDbLine
 10
2086.092600973028
 20
2392.722072730324
 30
0.0
 11
2086.855504104628
 21
2393.508657997924
 31
0.0
  0
LINE
  5
157
330
1F
100
AcDbEntity
  8
レバー
  6
Continuous
 62
     7
370
     0
100
AcDbLine
 10
2193.900211157028
 20
2400.500408573724
 30
0.0
 11
2193.900211157028
 21
2395.003271939723
 31
0.0
  0
LINE
  5
158
330
1F
100
AcDbEntity
  8
レバー
  6
Continuous
 62
     7
370
     0
100
AcDbLine
 10
2193.900211157028
 20
2400.500408573724
 30
0.0
 11
2193.900211157028
 21
2405.993492993124
 31
0.0
  0
ARC
  5
159
330
1F
100
AcDbEntity
  8
レバー
  6
Continuous
 62
     7
370
     0
100
AcDbCircle
 10
2076.900212468328
 20
2400.500247439824
 30
0.0
 40
24.55
100
AcDbArc
 50
16.5995243249
 51
343.3673588443
  0
LINE
  5
15A
330
1F
100
AcDbEntity
  8
レバー
  6
JWW_CENTER1
 62
   120
370
     5
100
AcDbLine
 10
-107.8977363376615
 20
2400.500247439824
 30
0.0
 11
-190.9236880755134
 21
2400.500247439824
 31
0.0
  0
LINE
  5
15B
330
1F
100
AcDbEntity
  8
レバー
  6
JWW_CENTER1
 62
   120
370
     5
100
AcDbLine
 10
-154.6999148806998
 20
2456.957208033614
 30
0.0
 11
-154.6999148806998
 21
2357.11345474535
 31
0.0
  0
LINE
  5
15C
330
1F
100
AcDbEntity
  8
レバー
  6
Continuous
 62
     7
370
     0
100
AcDbLine
 10
-39.19999373769996
 20
2407.500234151723
 30
0.0
 11
-48.27529264299984
 21
2407.500114011124
 31
0.0
  0
LINE
  5
15D
330
1F
100
AcDbEntity
  8
レバー
  6
Continuous
 62
     7
370
     0
100
AcDbLine
 10
-48.27529264299984
 20
2407.500114011124
 30
0.0
 11
-48.67573899839982
 21
2407.500100041324
 31
0.0
  0
ARC
  5
15E
330
1F
100
AcDbEntity
  8
レバー
  6
Continuous
 62
     7
370
     0
100
AcDbCircle
 10
-39.19991488069967
 20
2395.000247177223
 30
0.0
 40
1.500000000000118
100
AcDbArc
 50
270.164192293
 51
0.000004253700026
  0
ARC
  5
15F
330
1F
100
AcDbEntity
  8
レバー
  6
Continuous
 62
     7
370
     0
100
AcDbCircle
 10
-39.19991488069967
 20
2406.000247750823
 30
0.0
 40
1.500000000000029
100
AcDbArc
 50
0.0084663275
 51
89.9162980715
  0
LINE
  5
160
330
1F
100
AcDbEntity
  8
レバー
  6
Continuous
 62
     7
370
     0
100
AcDbLine
 10
-149.6815372040999
 20
2393.514131380724
 30
0.0
 11
-149.5492358474996
 21
2393.507340642224
 31
0.0
  0
LINE
  5
161
330
1F
100
AcDbEntity
  8
レバー
  6
Continuous
 62
     7
370
     0
100
AcDbLine
 10
-149.5492358474996
 20
2393.507340642224
 30
0.0
 11
-149.1134946949001
 21
2393.505408147823
 31
0.0
  0
LINE
  5
162
330
1F
100
AcDbEntity
  8
レバー
  6
Continuous
 62
     7
370
     0
100
AcDbLine
 10
-149.1134946949001
 20
2393.505408147823
 30
0.0
 11
-148.3853010242996
 21
2393.505753202823
 31
0.0
  0
LINE
  5
163
330
1F
100
AcDbEntity
  8
レバー
  6
Continuous
 62
     7
370
     0
100
AcDbLine
 10
-148.3853010242996
 20
2393.505753202823
 30
0.0
 11
-147.3705147175997
 21
2393.507004900424
 31
0.0
  0
LINE
  5
164
330
1F
100
AcDbEntity
  8
レバー
  6
Continuous
 62
     7
370
     0
100
AcDbLine
 10
-147.3705147175997
 20
2393.507004900424
 30
0.0
 11
-146.1069870522999
 21
2393.508313408624
 31
0.0
  0
LINE
  5
165
330
1F
100
AcDbEntity
  8
レバー
  6
Continuous
 62
     7
370
     0
100
AcDbLine
 10
-146.1069870522999
 20
2393.508313408624
 30
0.0
 11
-144.7574568695
 21
2393.508666845523
 31
0.0
  0
LINE
  5
166
330
1F
100
AcDbEntity
  8
レバー
  6
Continuous
 62
     7
370
     0
100
AcDbLine
 10
-144.7574568695
 20
2393.508666845523
 30
0.0
 11
-141.9039394488999
 21
2393.506690113323
 31
0.0
  0
LINE
  5
167
330
1F
100
AcDbEntity
  8
レバー
  6
Continuous
 62
     7
370
     0
100
AcDbLine
 10
-141.9039394488999
 20
2393.506690113323
 30
0.0
 11
-138.9221034727001
 21
2393.502096364723
 31
0.0
  0
LINE
  5
168
330
1F
100
AcDbEntity
  8
レバー
  6
Continuous
 62
     7
370
     0
100
AcDbLine
 10
-138.9221034727001
 20
2393.502096364723
 30
0.0
 11
-135.9013810536999
 21
2393.499910085023
 31
0.0
  0
LINE
  5
169
330
1F
100
AcDbEntity
  8
レバー
  6
Continuous
 62
     7
370
     0
100
AcDbLine
 10
-135.9013810536999
 20
2393.499910085023
 30
0.0
 11
-132.8587930431996
 21
2393.500047455124
 31
0.0
  0
LINE
  5
16A
330
1F
100
AcDbEntity
  8
レバー
  6
Continuous
 62
     7
370
     0
100
AcDbLine
 10
-132.8587930431996
 20
2393.500047455124
 30
0.0
 11
-129.7945108046997
 21
2393.500493558623
 31
0.0
  0
LINE
  5
16B
330
1F
100
AcDbEntity
  8
レバー
  6
Continuous
 62
     7
370
     0
100
AcDbLine
 10
-129.7945108046997
 20
2393.500493558623
 30
0.0
 11
-126.7087057015999
 21
2393.500884714124
 31
0.0
  0
LINE
  5
16C
330
1F
100
AcDbEntity
  8
レバー
  6
Continuous
 62
     7
370
     0
100
AcDbLine
 10
-126.7087057015999
 20
2393.500884714124
 30
0.0
 11
-122.7116144975997
 21
2393.501308931524
 31
0.0
  0
LINE
  5
16D
330
1F
100
AcDbEntity
  8
レバー
  6
Continuous
 62
     7
370
     0
100
AcDbLine
 10
-122.7116144975997
 20
2393.501308931524
 30
0.0
 11
-118.3026291212997
 21
2393.501676338324
 31
0.0
  0
LINE
  5
16E
330
1F
100
AcDbEntity
  8
レバー
  6
Continuous
 62
     7
370
     0
100
AcDbLine
 10
-118.3026291212997
 20
2393.501676338324
 30
0.0
 11
-113.3328683457
 21
2393.501975758524
 31
0.0
  0
LINE
  5
16F
330
1F
100
AcDbEntity
  8
レバー
  6
Continuous
 62
     7
370
     0
100
AcDbLine
 10
-113.3328683457
 20
2393.501975758524
 30
0.0
 11
-107.8023284455998
 21
2393.502179718124
 31
0.0
  0
LINE
  5
170
330
1F
100
AcDbEntity
  8
レバー
  6
Continuous
 62
     7
370
     0
100
AcDbLine
 10
-107.8023284455998
 20
2393.502179718124
 30
0.0
 11
-101.7110131463997
 21
2393.502267728124
 31
0.0
  0
LINE
  5
171
330
1F
100
AcDbEntity
  8
レバー
  6
Continuous
 62
     7
370
     0
100
AcDbLine
 10
-101.7110131463997
 20
2393.502267728124
 30
0.0
 11
-95.0589187225998
 21
2393.502225352924
 31
0.0
  0
LINE
  5
172
330
1F
100
AcDbEntity
  8
レバー
  6
Continuous
 62
     7
370
     0
100
AcDbLine
 10
-95.0589187225998
 20
2393.502225352924
 30
0.0
 11
-87.84604144899987
 21
2393.502050264323
 31
0.0
  0
LINE
  5
173
330
1F
100
AcDbEntity
  8
レバー
  6
Continuous
 62
     7
370
     0
100
AcDbLine
 10
-87.84604144899987
 20
2393.502050264323
 30
0.0
 11
-79.26417214489986
 21
2393.501719179123
 31
0.0
  0
LINE
  5
174
330
1F
100
AcDbEntity
  8
レバー
  6
Continuous
 62
     7
370
     0
100
AcDbLine
 10
-79.26417214489986
 20
2393.501719179123
 30
0.0
 11
-70.00374121279977
 21
2393.501281457524
 31
0.0
  0
LINE
  5
175
330
1F
100
AcDbEntity
  8
レバー
  6
Continuous
 62
     7
370
     0
100
AcDbLine
 10
-70.00374121279977
 20
2393.501281457524
 30
0.0
 11
-60.0647561034998
 21
2393.500809276924
 31
0.0
  0
LINE
  5
176
330
1F
100
AcDbEntity
  8
レバー
  6
Continuous
 62
     7
370
     0
100
AcDbLine
 10
-60.0647561034998
 20
2393.500809276924
 30
0.0
 11
-49.44720191569985
 21
2393.500412999223
 31
0.0
  0
LINE
  5
177
330
1F
100
AcDbEntity
  8
レバー
  6
Continuous
 62
     7
370
     0
100
AcDbLine
 10
-49.44720191569985
 20
2393.500412999223
 30
0.0
 11
-39.19999373769996
 21
2393.500262124924
 31
0.0
  0
LINE
  5
178
330
1F
100
AcDbEntity
  8
レバー
  6
Continuous
 62
     7
370
     0
100
AcDbLine
 10
-39.20004589169991
 20
2407.500233686123
 30
0.0
 11
-48.92914814559987
 21
2407.500096316024
 31
0.0
  0
LINE
  5
179
330
1F
100
AcDbEntity
  8
レバー
  6
Continuous
 62
     7
370
     0
100
AcDbLine
 10
-48.92914814559987
 20
2407.500096316024
 30
0.0
 11
-59.11394280999986
 21
2407.499727046624
 31
0.0
  0
LINE
  5
17A
330
1F
100
AcDbEntity
  8
レバー
  6
Continuous
 62
     7
370
     0
100
AcDbLine
 10
-59.11394280999986
 20
2407.499727046624
 30
0.0
 11
-68.70549244499982
 21
2407.499276752123
 31
0.0
  0
LINE
  5
17B
330
1F
100
AcDbEntity
  8
レバー
  6
Continuous
 62
     7
370
     0
100
AcDbLine
 10
-68.70549244499982
 20
2407.499276752123
 30
0.0
 11
-77.70378959989982
 21
2407.498845549824
 31
0.0
  0
LINE
  5
17C
330
1F
100
AcDbEntity
  8
レバー
  6
Continuous
 62
     7
370
     0
100
AcDbLine
 10
-77.70378959989982
 20
2407.498845549824
 30
0.0
 11
-86.10885662649991
 21
2407.498502357424
 31
0.0
  0
LINE
  5
17D
330
1F
100
AcDbEntity
  8
レバー
  6
Continuous
 62
     7
370
     0
100
AcDbLine
 10
-86.10885662649991
 20
2407.498502357424
 30
0.0
 11
-93.92068979949983
 21
2407.498289084523
 31
0.0
  0
LINE
  5
17E
330
1F
100
AcDbEntity
  8
レバー
  6
Continuous
 62
     7
370
     0
100
AcDbLine
 10
-93.92068979949983
 20
2407.498289084523
 30
0.0
 11
-100.7427915712998
 21
2407.498224823324
 31
0.0
  0
LINE
  5
17F
330
1F
100
AcDbEntity
  8
レバー
  6
Continuous
 62
     7
370
     0
100
AcDbLine
 10
-100.7427915712998
 20
2407.498224823324
 30
0.0
 11
-107.0375375231998
 21
2407.498296069524
 31
0.0
  0
LINE
  5
180
330
1F
100
AcDbEntity
  8
レバー
  6
Continuous
 62
     7
370
     0
100
AcDbLine
 10
-107.0375375231998
 20
2407.498296069524
 30
0.0
 11
-112.8049276551997
 21
2407.498493975524
 31
0.0
  0
LINE
  5
181
330
1F
100
AcDbEntity
  8
レバー
  6
Continuous
 62
     7
370
     0
100
AcDbLine
 10
-112.8049276551997
 20
2407.498493975524
 30
0.0
 11
-118.0466681501997
 21
2407.498799915023
 31
0.0
  0
LINE
  5
182
330
1F
100
AcDbEntity
  8
レバー
  6
Continuous
 62
     7
370
     0
100
AcDbLine
 10
-118.0466681501997
 20
2407.498799915023
 30
0.0
 11
-122.8438250503001
 21
2407.499198055424
 31
0.0
  0
LINE
  5
183
330
1F
100
AcDbEntity
  8
レバー
  6
Continuous
 62
     7
370
     0
100
AcDbLine
 10
-122.8438250503001
 20
2407.499198055424
 30
0.0
 11
-127.4950045874999
 21
2407.499702366523
 31
0.0
  0
LINE
  5
184
330
1F
100
AcDbEntity
  8
レバー
  6
Continuous
 62
     7
370
     0
100
AcDbLine
 10
-127.4950045874999
 20
2407.499702366523
 30
0.0
 11
-131.6971078297996
 21
2407.500264419724
 31
0.0
  0
LINE
  5
185
330
1F
100
AcDbEntity
  8
レバー
  6
Continuous
 62
     7
370
     0
100
AcDbLine
 10
-131.6971078297996
 20
2407.500264419724
 30
0.0
 11
-135.4505371084997
 21
2407.500646262023
 31
0.0
  0
LINE
  5
186
330
1F
100
AcDbEntity
  8
レバー
  6
Continuous
 62
     7
370
     0
100
AcDbLine
 10
-135.4505371084997
 20
2407.500646262023
 30
0.0
 11
-137.4523944934998
 21
2407.499931006224
 31
0.0
  0
LINE
  5
187
330
1F
100
AcDbEntity
  8
レバー
  6
Continuous
 62
     7
370
     0
100
AcDbLine
 10
-137.4523944934998
 20
2407.499931006224
 30
0.0
 11
-139.2987619868001
 21
2407.497927731423
 31
0.0
  0
LINE
  5
188
330
1F
100
AcDbEntity
  8
レバー
  6
Continuous
 62
     7
370
     0
100
AcDbLine
 10
-139.2987619868001
 20
2407.497927731423
 30
0.0
 11
-141.3083819454999
 21
2407.494641094023
 31
0.0
  0
LINE
  5
189
330
1F
100
AcDbEntity
  8
レバー
  6
Continuous
 62
     7
370
     0
100
AcDbLine
 10
-141.3083819454999
 20
2407.494641094023
 30
0.0
 11
-143.7163173934999
 21
2407.492074834723
 31
0.0
  0
LINE
  5
18A
330
1F
100
AcDbEntity
  8
レバー
  6
Continuous
 62
     7
370
     0
100
AcDbLine
 10
-143.7163173934999
 20
2407.492074834723
 30
0.0
 11
-145.211477556
 21
2407.491586356024
 31
0.0
  0
LINE
  5
18B
330
1F
100
AcDbEntity
  8
レバー
  6
Continuous
 62
     7
370
     0
100
AcDbLine
 10
-145.211477556
 20
2407.491586356024
 30
0.0
 11
-146.7488275623998
 21
2407.492336070623
 31
0.0
  0
LINE
  5
18C
330
1F
100
AcDbEntity
  8
レバー
  6
Continuous
 62
     7
370
     0
100
AcDbLine
 10
-146.7488275623998
 20
2407.492336070623
 30
0.0
 11
-148.2671273655001
 21
2407.493537942424
 31
0.0
  0
LINE
  5
18D
330
1F
100
AcDbEntity
  8
レバー
  6
Continuous
 62
     7
370
     0
100
AcDbLine
 10
-148.2671273655001
 20
2407.493537942424
 30
0.0
 11
-149.3677988431
 21
2407.492673675123
 31
0.0
  0
LINE
  5
18E
330
1F
100
AcDbEntity
  8
レバー
  6
Continuous
 62
     7
370
     0
100
AcDbLine
 10
-149.3677988431
 20
2407.492673675123
 30
0.0
 11
-149.8301236672995
 21
2407.486083636524
 31
0.0
  0
LINE
  5
18F
330
1F
100
AcDbEntity
  8
レバー
  6
Continuous
 62
     7
370
     0
100
AcDbLine
 10
-149.8301236672995
 20
2407.486083636524
 30
0.0
 11
-149.8340431382996
 21
2407.482003512324
 31
0.0
  0
ARC
  5
190
330
1F
100
AcDbEntity
  8
レバー
  6
Continuous
 62
     7
370
     0
100
AcDbCircle
 10
-39.19991488069967
 20
2406.000247702524
 30
0.0
 40
1.500000000000118
100
AcDbArc
 50
359.9999957463
 51
90.17419294509996
  0
ARC
  5
191
330
1F
100
AcDbEntity
  8
レバー
  6
Continuous
 62
     7
370
     0
100
AcDbCircle
 10
-39.19991488069967
 20
2395.000247128923
 30
0.0
 40
1.500000000000029
100
AcDbArc
 50
269.9105889113
 51
359.9915336725
  0
LINE
  5
192
330
1F
100
AcDbEntity
  8
レバー
  6
Continuous
 62
     7
370
     0
100
AcDbLine
 10
-144.7445282494999
 20
2407.491739092924
 30
0.0
 11
-145.507526376
 21
2408.278422149424
 31
0.0
  0
LINE
  5
193
330
1F
100
AcDbEntity
  8
レバー
  6
Continuous
 62
     7
370
     0
100
AcDbLine
 10
-145.507526376
 20
2408.278422149424
 30
0.0
 11
-147.4775017952999
 21
2409.646413473924
 31
0.0
  0
LINE
  5
194
330
1F
100
AcDbEntity
  8
レバー
  6
Continuous
 62
     7
370
     0
100
AcDbLine
 10
-147.4775017952999
 20
2409.646413473924
 30
0.0
 11
-149.7250304339997
 21
2410.662922261823
 31
0.0
  0
LINE
  5
195
330
1F
100
AcDbEntity
  8
レバー
  6
Continuous
 62
     7
370
     0
100
AcDbLine
 10
-149.7250304339997
 20
2410.662922261823
 30
0.0
 11
-152.1637407379995
 21
2411.288885584624
 31
0.0
  0
LINE
  5
196
330
1F
100
AcDbEntity
  8
レバー
  6
Continuous
 62
     7
370
     0
100
AcDbLine
 10
-152.1637407379995
 20
2411.288885584624
 30
0.0
 11
-154.6999148806998
 21
2411.500247380224
 31
0.0
  0
LINE
  5
197
330
1F
100
AcDbEntity
  8
レバー
  6
Continuous
 62
     7
370
     0
100
AcDbLine
 10
-154.6999148806998
 20
2411.500247380224
 30
0.0
 11
-157.2360890235001
 21
2411.288885584624
 31
0.0
  0
LINE
  5
198
330
1F
100
AcDbEntity
  8
レバー
  6
Continuous
 62
     7
370
     0
100
AcDbLine
 10
-157.2360890235001
 20
2411.288885584624
 30
0.0
 11
-159.6747993273999
 21
2410.662922261823
 31
0.0
  0
LINE
  5
199
330
1F
100
AcDbEntity
  8
レバー
  6
Continuous
 62
     7
370
     0
100
AcDbLine
 10
-159.6747993273999
 20
2410.662922261823
 30
0.0
 11
-161.9223279660997
 21
2409.646413473924
 31
0.0
  0
LINE
  5
19A
330
1F
100
AcDbEntity
  8
レバー
  6
Continuous
 62
     7
370
     0
100
AcDbLine
 10
-161.9223279660997
 20
2409.646413473924
 30
0.0
 11
-163.8923033854996
 21
2408.278422149424
 31
0.0
  0
LINE
  5
19B
330
1F
100
AcDbEntity
  8
レバー
  6
Continuous
 62
     7
370
     0
100
AcDbLine
 10
-163.8923033854996
 20
2408.278422149424
 30
0.0
 11
-165.5090197702998
 21
2406.611520050623
 31
0.0
  0
LINE
  5
19C
330
1F
100
AcDbEntity
  8
レバー
  6
Continuous
 62
     7
370
     0
100
AcDbLine
 10
-165.5090197702998
 20
2406.611520050623
 30
0.0
 11
-166.7103485918
 21
2404.709765406824
 31
0.0
  0
LINE
  5
19D
330
1F
100
AcDbEntity
  8
レバー
  6
Continuous
 62
     7
370
     0
100
AcDbLine
 10
-166.7103485918
 20
2404.709765406824
 30
0.0
 11
-167.4501232585999
 21
2402.646240963124
 31
0.0
  0
LINE
  5
19E
330
1F
100
AcDbEntity
  8
レバー
  6
Continuous
 62
     7
370
     0
100
AcDbLine
 10
-167.4501232585999
 20
2402.646240963124
 30
0.0
 11
-167.6999151488997
 21
2400.500247439824
 31
0.0
  0
LINE
  5
19F
330
1F
100
AcDbEntity
  8
レバー
  6
Continuous
 62
     7
370
     0
100
AcDbLine
 10
-167.6999151488997
 20
2400.500247439824
 30
0.0
 11
-167.4501232585999
 21
2398.354253916524
 31
0.0
  0
LINE
  5
1A0
330
1F
100
AcDbEntity
  8
レバー
  6
Continuous
 62
     7
370
     0
100
AcDbLine
 10
-167.4501232585999
 20
2398.354253916524
 30
0.0
 11
-166.7103485918
 21
2396.290729472924
 31
0.0
  0
LINE
  5
1A1
330
1F
100
AcDbEntity
  8
レバー
  6
Continuous
 62
     7
370
     0
100
AcDbLine
 10
-166.7103485918
 20
2396.290729472924
 30
0.0
 11
-165.5090197702998
 21
2394.388974829123
 31
0.0
  0
LINE
  5
1A2
330
1F
100
AcDbEntity
  8
レバー
  6
Continuous
 62
     7
370
     0
100
AcDbLine
 10
-165.5090197702998
 20
2394.388974829123
 30
0.0
 11
-163.8923033854996
 21
2392.722072730324
 31
0.0
  0
LINE
  5
1A3
330
1F
100
AcDbEntity
  8
レバー
  6
Continuous
 62
     7
370
     0
100
AcDbLine
 10
-163.8923033854996
 20
2392.722072730324
 30
0.0
 11
-161.9223279660997
 21
2391.354081405823
 31
0.0
  0
LINE
  5
1A4
330
1F
100
AcDbEntity
  8
レバー
  6
Continuous
 62
     7
370
     0
100
AcDbLine
 10
-161.9223279660997
 20
2391.354081405823
 30
0.0
 11
-159.6747993273999
 21
2390.337572617923
 31
0.0
  0
LINE
  5
1A5
330
1F
100
AcDbEntity
  8
レバー
  6
Continuous
 62
     7
370
     0
100
AcDbLine
 10
-159.6747993273999
 20
2390.337572617923
 30
0.0
 11
-157.2360890235001
 21
2389.711609295124
 31
0.0
  0
LINE
  5
1A6
330
1F
100
AcDbEntity
  8
レバー
  6
Continuous
 62
     7
370
     0
100
AcDbLine
 10
-157.2360890235001
 20
2389.711609295124
 30
0.0
 11
-154.6999148806998
 21
2389.500247499424
 31
0.0
  0
LINE
  5
1A7
330
1F
100
AcDbEntity
  8
レバー
  6
Continuous
 62
     7
370
     0
100
AcDbLine
 10
-154.6999148806998
 20
2389.500247499424
 30
0.0
 11
-152.1637407379995
 21
2389.711609295124
 31
0.0
  0
LINE
  5
1A8
330
1F
100
AcDbEntity
  8
レバー
  6
Continuous
 62
     7
370
     0
100
AcDbLine
 10
-152.1637407379995
 20
2389.711609295124
 30
0.0
 11
-149.7250304339997
 21
2390.337572617923
 31
0.0
  0
LINE
  5
1A9
330
1F
100
AcDbEntity
  8
レバー
  6
Continuous
 62
     7
370
     0
100
AcDbLine
 10
-149.7250304339997
 20
2390.337572617923
 30
0.0
 11
-147.4775017952999
 21
2391.354081405823
 31
0.0
  0
LINE
  5
1AA
330
1F
100
AcDbEntity
  8
レバー
  6
Continuous
 62
     7
370
     0
100
AcDbLine
 10
-147.4775017952999
 20
2391.354081405823
 30
0.0
 11
-145.507526376
 21
2392.722072730324
 31
0.0
  0
LINE
  5
1AB
330
1F
100
AcDbEntity
  8
レバー
  6
Continuous
 62
     7
370
     0
100
AcDbLine
 10
-145.507526376
 20
2392.722072730324
 30
0.0
 11
-144.7446232443997
 21
2393.508657997924
 31
0.0
  0
LINE
  5
1AC
330
1F
100
AcDbEntity
  8
レバー
  6
Continuous
 62
     7
370
     0
100
AcDbLine
 10
-37.69991619199971
 20
2400.500408573724
 30
0.0
 11
-37.69991619199971
 21
2395.003271939723
 31
0.0
  0
LINE
  5
1AD
330
1F
100
AcDbEntity
  8
レバー
  6
Continuous
 62
     7
370
     0
100
AcDbLine
 10
-37.69991619199971
 20
2400.500408573724
 30
0.0
 11
-37.69991619199971
 21
2405.993492993124
 31
0.0
  0
ARC
  5
1AE
330
1F
100
AcDbEntity
  8
レバー
  6
Continuous
 62
     7
370
     0
100
AcDbCircle
 10
-154.6999148806998
 20
2400.500247439824
 30
0.0
 40
24.55
100
AcDbArc
 50
16.5995243249
 51
343.3673588443
  0
LINE
  5
1AF
330
1F
100
AcDbEntity
  8
レバー
  6
JWW_CENTER1
 62
   120
370
     5
100
AcDbLine
 10
-2339.497492526957
 20
2400.500247439824
 30
0.0
 11
-2422.523444264809
 21
2400.500247439824
 31
0.0
  0
LINE
  5
1B0
330
1F
100
AcDbEntity
  8
レバー
  6
JWW_CENTER1
 62
   120
370
     5
100
AcDbLine
 10
-2386.299671069995
 20
2456.957208033614
 30
0.0
 11
-2386.299671069995
 21
2357.11345474535
 31
0.0
  0
LINE
  5
1B1
330
1F
100
AcDbEntity
  8
レバー
  6
Continuous
 62
     7
370
     0
100
AcDbLine
 10
-2270.799749926995
 20
2407.500234151723
 30
0.0
 11
-2279.875048832295
 21
2407.500114011124
 31
0.0
  0
LINE
  5
1B2
330
1F
100
AcDbEntity
  8
レバー
  6
Continuous
 62
     7
370
     0
100
AcDbLine
 10
-2279.875048832295
 20
2407.500114011124
 30
0.0
 11
-2280.275495187695
 21
2407.500100041324
 31
0.0
  0
ARC
  5
1B3
330
1F
100
AcDbEntity
  8
レバー
  6
Continuous
 62
     7
370
     0
100
AcDbCircle
 10
-2270.799671069995
 20
2395.000247177223
 30
0.0
 40
1.500000000000118
100
AcDbArc
 50
270.164192293
 51
0.000004253700026
  0
ARC
  5
1B4
330
1F
100
AcDbEntity
  8
レバー
  6
Continuous
 62
     7
370
     0
100
AcDbCircle
 10
-2270.799671069995
 20
2406.000247750823
 30
0.0
 40
1.500000000000029
100
AcDbArc
 50
0.0084663275
 51
89.9162980715
  0
LINE
  5
1B5
330
1F
100
AcDbEntity
  8
レバー
  6
Continuous
 62
     7
370
     0
100
AcDbLine
 10
-2381.281293393395
 20
2393.514131380724
 30
0.0
 11
-2381.148992036795
 21
2393.507340642224
 31
0.0
  0
LINE
  5
1B6
330
1F
100
AcDbEntity
  8
レバー
  6
Continuous
 62
     7
370
     0
100
AcDbLine
 10
-2381.148992036795
 20
2393.507340642224
 30
0.0
 11
-2380.713250884196
 21
2393.505408147823
 31
0.0
  0
LINE
  5
1B7
330
1F
100
AcDbEntity
  8
レバー
  6
Continuous
 62
     7
370
     0
100
AcDbLine
 10
-2380.713250884196
 20
2393.505408147823
 30
0.0
 11
-2379.985057213595
 21
2393.505753202823
 31
0.0
  0
LINE
  5
1B8
330
1F
100
AcDbEntity
  8
レバー
  6
Continuous
 62
     7
370
     0
100
AcDbLine
 10
-2379.985057213595
 20
2393.505753202823
 30
0.0
 11
-2378.970270906895
 21
2393.507004900424
 31
0.0
  0
LINE
  5
1B9
330
1F
100
AcDbEntity
  8
レバー
  6
Continuous
 62
     7
370
     0
100
AcDbLine
 10
-2378.970270906895
 20
2393.507004900424
 30
0.0
 11
-2377.706743241596
 21
2393.508313408624
 31
0.0
  0
LINE
  5
1BA
330
1F
100
AcDbEntity
  8
レバー
  6
Continuous
 62
     7
370
     0
100
AcDbLine
 10
-2377.706743241596
 20
2393.508313408624
 30
0.0
 11
-2376.357213058795
 21
2393.508666845523
 31
0.0
  0
LINE
  5
1BB
330
1F
100
AcDbEntity
  8
レバー
  6
Continuous
 62
     7
370
     0
100
AcDbLine
 10
-2376.357213058795
 20
2393.508666845523
 30
0.0
 11
-2373.503695638195
 21
2393.506690113323
 31
0.0
  0
LINE
  5
1BC
330
1F
100
AcDbEntity
  8
レバー
  6
Continuous
 62
     7
370
     0
100
AcDbLine
 10
-2373.503695638195
 20
2393.506690113323
 30
0.0
 11
-2370.521859661996
 21
2393.502096364723
 31
0.0
  0
LINE
  5
1BD
330
1F
100
AcDbEntity
  8
レバー
  6
Continuous
 62
     7
370
     0
100
AcDbLine
 10
-2370.521859661996
 20
2393.502096364723
 30
0.0
 11
-2367.501137242995
 21
2393.499910085023
 31
0.0
  0
LINE
  5
1BE
330
1F
100
AcDbEntity
  8
レバー
  6
Continuous
 62
     7
370
     0
100
AcDbLine
 10
-2367.501137242995
 20
2393.499910085023
 30
0.0
 11
-2364.458549232495
 21
2393.500047455124
 31
0.0
  0
LINE
  5
1BF
330
1F
100
AcDbEntity
  8
レバー
  6
Continuous
 62
     7
370
     0
100
AcDbLine
 10
-2364.458549232495
 20
2393.500047455124
 30
0.0
 11
-2361.394266993995
 21
2393.500493558623
 31
0.0
  0
LINE
  5
1C0
330
1F
100
AcDbEntity
  8
レバー
  6
Continuous
 62
     7
370
     0
100
AcDbLine
 10
-2361.394266993995
 20
2393.500493558623
 30
0.0
 11
-2358.308461890895
 21
2393.500884714124
 31
0.0
  0
LINE
  5
1C1
330
1F
100
AcDbEntity
  8
レバー
  6
Continuous
 62
     7
370
     0
100
AcDbLine
 10
-2358.308461890895
 20
2393.500884714124
 30
0.0
 11
-2354.311370686895
 21
2393.501308931524
 31
0.0
  0
LINE
  5
1C2
330
1F
100
AcDbEntity
  8
レバー
  6
Continuous
 62
     7
370
     0
100
AcDbLine
 10
-2354.311370686895
 20
2393.501308931524
 30
0.0
 11
-2349.902385310595
 21
2393.501676338324
 31
0.0
  0
LINE
  5
1C3
330
1F
100
AcDbEntity
  8
レバー
  6
Continuous
 62
     7
370
     0
100
AcDbLine
 10
-2349.902385310595
 20
2393.501676338324
 30
0.0
 11
-2344.932624534995
 21
2393.501975758524
 31
0.0
  0
LINE
  5
1C4
330
1F
100
AcDbEntity
  8
レバー
  6
Continuous
 62
     7
370
     0
100
AcDbLine
 10
-2344.932624534995
 20
2393.501975758524
 30
0.0
 11
-2339.402084634895
 21
2393.502179718124
 31
0.0
  0
LINE
  5
1C5
330
1F
100
AcDbEntity
  8
レバー
  6
Continuous
 62
     7
370
     0
100
AcDbLine
 10
-2339.402084634895
 20
2393.502179718124
 30
0.0
 11
-2333.310769335695
 21
2393.502267728124
 31
0.0
  0
LINE
  5
1C6
330
1F
100
AcDbEntity
  8
レバー
  6
Continuous
 62
     7
370
     0
100
AcDbLine
 10
-2333.310769335695
 20
2393.502267728124
 30
0.0
 11
-2326.658674911895
 21
2393.502225352924
 31
0.0
  0
LINE
  5
1C7
330
1F
100
AcDbEntity
  8
レバー
  6
Continuous
 62
     7
370
     0
100
AcDbLine
 10
-2326.658674911895
 20
2393.502225352924
 30
0.0
 11
-2319.445797638295
 21
2393.502050264323
 31
0.0
  0
LINE
  5
1C8
330
1F
100
AcDbEntity
  8
レバー
  6
Continuous
 62
     7
370
     0
100
AcDbLine
 10
-2319.445797638295
 20
2393.502050264323
 30
0.0
 11
-2310.863928334195
 21
2393.501719179123
 31
0.0
  0
LINE
  5
1C9
330
1F
100
AcDbEntity
  8
レバー
  6
Continuous
 62
     7
370
     0
100
AcDbLine
 10
-2310.863928334195
 20
2393.501719179123
 30
0.0
 11
-2301.603497402095
 21
2393.501281457524
 31
0.0
  0
LINE
  5
1CA
330
1F
100
AcDbEntity
  8
レバー
  6
Continuous
 62
     7
370
     0
100
AcDbLine
 10
-2301.603497402095
 20
2393.501281457524
 30
0.0
 11
-2291.664512292795
 21
2393.500809276924
 31
0.0
  0
LINE
  5
1CB
330
1F
100
AcDbEntity
  8
レバー
  6
Continuous
 62
     7
370
     0
100
AcDbLine
 10
-2291.664512292795
 20
2393.500809276924
 30
0.0
 11
-2281.046958104995
 21
2393.500412999223
 31
0.0
  0
LINE
  5
1CC
330
1F
100
AcDbEntity
  8
レバー
  6
Continuous
 62
     7
370
     0
100
AcDbLine
 10
-2281.046958104995
 20
2393.500412999223
 30
0.0
 11
-2270.799749926995
 21
2393.500262124924
 31
0.0
  0
LINE
  5
1CD
330
1F
100
AcDbEntity
  8
レバー
  6
Continuous
 62
     7
370
     0
100
AcDbLine
 10
-2270.799802080995
 20
2407.500233686123
 30
0.0
 11
-2280.528904334895
 21
2407.500096316024
 31
0.0
  0
LINE
  5
1CE
330
1F
100
AcDbEntity
  8
レバー
  6
Continuous
 62
     7
370
     0
100
AcDbLine
 10
-2280.528904334895
 20
2407.500096316024
 30
0.0
 11
-2290.713698999295
 21
2407.499727046624
 31
0.0
  0
LINE
  5
1CF
330
1F
100
AcDbEntity
  8
レバー
  6
Continuous
 62
     7
370
     0
100
AcDbLine
 10
-2290.713698999295
 20
2407.499727046624
 30
0.0
 11
-2300.305248634295
 21
2407.499276752123
 31
0.0
  0
LINE
  5
1D0
330
1F
100
AcDbEntity
  8
レバー
  6
Continuous
 62
     7
370
     0
100
AcDbLine
 10
-2300.305248634295
 20
2407.499276752123
 30
0.0
 11
-2309.303545789195
 21
2407.498845549824
 31
0.0
  0
LINE
  5
1D1
330
1F
100
AcDbEntity
  8
レバー
  6
Continuous
 62
     7
370
     0
100
AcDbLine
 10
-2309.303545789195
 20
2407.498845549824
 30
0.0
 11
-2317.708612815795
 21
2407.498502357424
 31
0.0
  0
LINE
  5
1D2
330
1F
100
AcDbEntity
  8
レバー
  6
Continuous
 62
     7
370
     0
100
AcDbLine
 10
-2317.708612815795
 20
2407.498502357424
 30
0.0
 11
-2325.520445988795
 21
2407.498289084523
 31
0.0
  0
LINE
  5
1D3
330
1F
100
AcDbEntity
  8
レバー
  6
Continuous
 62
     7
370
     0
100
AcDbLine
 10
-2325.520445988795
 20
2407.498289084523
 30
0.0
 11
-2332.342547760595
 21
2407.498224823324
 31
0.0
  0
LINE
  5
1D4
330
1F
100
AcDbEntity
  8
レバー
  6
Continuous
 62
     7
370
     0
100
AcDbLine
 10
-2332.342547760595
 20
2407.498224823324
 30
0.0
 11
-2338.637293712495
 21
2407.498296069524
 31
0.0
  0
LINE
  5
1D5
330
1F
100
AcDbEntity
  8
レバー
  6
Continuous
 62
     7
370
     0
100
AcDbLine
 10
-2338.637293712495
 20
2407.498296069524
 30
0.0
 11
-2344.404683844495
 21
2407.498493975524
 31
0.0
  0
LINE
  5
1D6
330
1F
100
AcDbEntity
  8
レバー
  6
Continuous
 62
     7
370
     0
100
AcDbLine
 10
-2344.404683844495
 20
2407.498493975524
 30
0.0
 11
-2349.646424339495
 21
2407.498799915023
 31
0.0
  0
LINE
  5
1D7
330
1F
100
AcDbEntity
  8
レバー
  6
Continuous
 62
     7
370
     0
100
AcDbLine
 10
-2349.646424339495
 20
2407.498799915023
 30
0.0
 11
-2354.443581239595
 21
2407.499198055424
 31
0.0
  0
LINE
  5
1D8
330
1F
100
AcDbEntity
  8
レバー
  6
Continuous
 62
     7
370
     0
100
AcDbLine
 10
-2354.443581239595
 20
2407.499198055424
 30
0.0
 11
-2359.094760776795
 21
2407.499702366523
 31
0.0
  0
LINE
  5
1D9
330
1F
100
AcDbEntity
  8
レバー
  6
Continuous
 62
     7
370
     0
100
AcDbLine
 10
-2359.094760776795
 20
2407.499702366523
 30
0.0
 11
-2363.296864019095
 21
2407.500264419724
 31
0.0
  0
LINE
  5
1DA
330
1F
100
AcDbEntity
  8
レバー
  6
Continuous
 62
     7
370
     0
100
AcDbLine
 10
-2363.296864019095
 20
2407.500264419724
 30
0.0
 11
-2367.050293297795
 21
2407.500646262023
 31
0.0
  0
LINE
  5
1DB
330
1F
100
AcDbEntity
  8
レバー
  6
Continuous
 62
     7
370
     0
100
AcDbLine
 10
-2367.050293297795
 20
2407.500646262023
 30
0.0
 11
-2369.052150682795
 21
2407.499931006224
 31
0.0
  0
LINE
  5
1DC
330
1F
100
AcDbEntity
  8
レバー
  6
Continuous
 62
     7
370
     0
100
AcDbLine
 10
-2369.052150682795
 20
2407.499931006224
 30
0.0
 11
-2370.898518176095
 21
2407.497927731423
 31
0.0
  0
LINE
  5
1DD
330
1F
100
AcDbEntity
  8
レバー
  6
Continuous
 62
     7
370
     0
100
AcDbLine
 10
-2370.898518176095
 20
2407.497927731423
 30
0.0
 11
-2372.908138134795
 21
2407.494641094023
 31
0.0
  0
LINE
  5
1DE
330
1F
100
AcDbEntity
  8
レバー
  6
Continuous
 62
     7
370
     0
100
AcDbLine
 10
-2372.908138134795
 20
2407.494641094023
 30
0.0
 11
-2375.316073582795
 21
2407.492074834723
 31
0.0
  0
LINE
  5
1DF
330
1F
100
AcDbEntity
  8
レバー
  6
Continuous
 62
     7
370
     0
100
AcDbLine
 10
-2375.316073582795
 20
2407.492074834723
 30
0.0
 11
-2376.811233745295
 21
2407.491586356024
 31
0.0
  0
LINE
  5
1E0
330
1F
100
AcDbEntity
  8
レバー
  6
Continuous
 62
     7
370
     0
100
AcDbLine
 10
-2376.811233745295
 20
2407.491586356024
 30
0.0
 11
-2378.348583751696
 21
2407.492336070623
 31
0.0
  0
LINE
  5
1E1
330
1F
100
AcDbEntity
  8
レバー
  6
Continuous
 62
     7
370
     0
100
AcDbLine
 10
-2378.348583751696
 20
2407.492336070623
 30
0.0
 11
-2379.866883554795
 21
2407.493537942424
 31
0.0
  0
LINE
  5
1E2
330
1F
100
AcDbEntity
  8
レバー
  6
Continuous
 62
     7
370
     0
100
AcDbLine
 10
-2379.866883554795
 20
2407.493537942424
 30
0.0
 11
-2380.967555032395
 21
2407.492673675123
 31
0.0
  0
LINE
  5
1E3
330
1F
100
AcDbEntity
  8
レバー
  6
Continuous
 62
     7
370
     0
100
AcDbLine
 10
-2380.967555032395
 20
2407.492673675123
 30
0.0
 11
-2381.429879856595
 21
2407.486083636524
 31
0.0
  0
LINE
  5
1E4
330
1F
100
AcDbEntity
  8
レバー
  6
Continuous
 62
     7
370
     0
100
AcDbLine
 10
-2381.429879856595
 20
2407.486083636524
 30
0.0
 11
-2381.433799327595
 21
2407.482003512324
 31
0.0
  0
ARC
  5
1E5
330
1F
100
AcDbEntity
  8
レバー
  6
Continuous
 62
     7
370
     0
100
AcDbCircle
 10
-2270.799671069995
 20
2406.000247702524
 30
0.0
 40
1.500000000000118
100
AcDbArc
 50
359.9999957463
 51
90.17419294509996
  0
ARC
  5
1E6
330
1F
100
AcDbEntity
  8
レバー
  6
Continuous
 62
     7
370
     0
100
AcDbCircle
 10
-2270.799671069995
 20
2395.000247128923
 30
0.0
 40
1.500000000000029
100
AcDbArc
 50
269.9105889113
 51
359.9915336725
  0
LINE
  5
1E7
330
1F
100
AcDbEntity
  8
レバー
  6
Continuous
 62
     7
370
     0
100
AcDbLine
 10
-2376.344284438796
 20
2407.491739092924
 30
0.0
 11
-2377.107282565295
 21
2408.278422149424
 31
0.0
  0
LINE
  5
1E8
330
1F
100
AcDbEntity
  8
レバー
  6
Continuous
 62
     7
370
     0
100
AcDbLine
 10
-2377.107282565295
 20
2408.278422149424
 30
0.0
 11
-2379.077257984595
 21
2409.646413473924
 31
0.0
  0
LINE
  5
1E9
330
1F
100
AcDbEntity
  8
レバー
  6
Continuous
 62
     7
370
     0
100
AcDbLine
 10
-2379.077257984595
 20
2409.646413473924
 30
0.0
 11
-2381.324786623295
 21
2410.662922261823
 31
0.0
  0
LINE
  5
1EA
330
1F
100
AcDbEntity
  8
レバー
  6
Continuous
 62
     7
370
     0
100
AcDbLine
 10
-2381.324786623295
 20
2410.662922261823
 30
0.0
 11
-2383.763496927295
 21
2411.288885584624
 31
0.0
  0
LINE
  5
1EB
330
1F
100
AcDbEntity
  8
レバー
  6
Continuous
 62
     7
370
     0
100
AcDbLine
 10
-2383.763496927295
 20
2411.288885584624
 30
0.0
 11
-2386.299671069995
 21
2411.500247380224
 31
0.0
  0
LINE
  5
1EC
330
1F
100
AcDbEntity
  8
レバー
  6
Continuous
 62
     7
370
     0
100
AcDbLine
 10
-2386.299671069995
 20
2411.500247380224
 30
0.0
 11
-2388.835845212795
 21
2411.288885584624
 31
0.0
  0
LINE
  5
1ED
330
1F
100
AcDbEntity
  8
レバー
  6
Continuous
 62
     7
370
     0
100
AcDbLine
 10
-2388.835845212795
 20
2411.288885584624
 30
0.0
 11
-2391.274555516695
 21
2410.662922261823
 31
0.0
  0
LINE
  5
1EE
330
1F
100
AcDbEntity
  8
レバー
  6
Continuous
 62
     7
370
     0
100
AcDbLine
 10
-2391.274555516695
 20
2410.662922261823
 30
0.0
 11
-2393.522084155395
 21
2409.646413473924
 31
0.0
  0
LINE
  5
1EF
330
1F
100
AcDbEntity
  8
レバー
  6
Continuous
 62
     7
370
     0
100
AcDbLine
 10
-2393.522084155395
 20
2409.646413473924
 30
0.0
 11
-2395.492059574795
 21
2408.278422149424
 31
0.0
  0
LINE
  5
1F0
330
1F
100
AcDbEntity
  8
レバー
  6
Continuous
 62
     7
370
     0
100
AcDbLine
 10
-2395.492059574795
 20
2408.278422149424
 30
0.0
 11
-2397.108775959595
 21
2406.611520050623
 31
0.0
  0
LINE
  5
1F1
330
1F
100
AcDbEntity
  8
レバー
  6
Continuous
 62
     7
370
     0
100
AcDbLine
 10
-2397.108775959595
 20
2406.611520050623
 30
0.0
 11
-2398.310104781095
 21
2404.709765406824
 31
0.0
  0
LINE
  5
1F2
330
1F
100
AcDbEntity
  8
レバー
  6
Continuous
 62
     7
370
     0
100
AcDbLine
 10
-2398.310104781095
 20
2404.709765406824
 30
0.0
 11
-2399.049879447895
 21
2402.646240963124
 31
0.0
  0
LINE
  5
1F3
330
1F
100
AcDbEntity
  8
レバー
  6
Continuous
 62
     7
370
     0
100
AcDbLine
 10
-2399.049879447895
 20
2402.646240963124
 30
0.0
 11
-2399.299671338195
 21
2400.500247439824
 31
0.0
  0
LINE
  5
1F4
330
1F
100
AcDbEntity
  8
レバー
  6
Continuous
 62
     7
370
     0
100
AcDbLine
 10
-2399.299671338195
 20
2400.500247439824
 30
0.0
 11
-2399.049879447895
 21
2398.354253916524
 31
0.0
  0
LINE
  5
1F5
330
1F
100
AcDbEntity
  8
レバー
  6
Continuous
 62
     7
370
     0
100
AcDbLine
 10
-2399.049879447895
 20
2398.354253916524
 30
0.0
 11
-2398.310104781095
 21
2396.290729472924
 31
0.0
  0
LINE
  5
1F6
330
1F
100
AcDbEntity
  8
レバー
  6
Continuous
 62
     7
370
     0
100
AcDbLine
 10
-2398.310104781095
 20
2396.290729472924
 30
0.0
 11
-2397.108775959595
 21
2394.388974829123
 31
0.0
  0
LINE
  5
1F7
330
1F
100
AcDbEntity
  8
レバー
  6
Continuous
 62
     7
370
     0
100
AcDbLine
 10
-2397.108775959595
 20
2394.388974829123
 30
0.0
 11
-2395.492059574795
 21
2392.722072730324
 31
0.0
  0
LINE
  5
1F8
330
1F
100
AcDbEntity
  8
レバー
  6
Continuous
 62
     7
370
     0
100
AcDbLine
 10
-2395.492059574795
 20
2392.722072730324
 30
0.0
 11
-2393.522084155395
 21
2391.354081405823
 31
0.0
  0
LINE
  5
1F9
330
1F
100
AcDbEntity
  8
レバー
  6
Continuous
 62
     7
370
     0
100
AcDbLine
 10
-2393.522084155395
 20
2391.354081405823
 30
0.0
 11
-2391.274555516695
 21
2390.337572617923
 31
0.0
  0
LINE
  5
1FA
330
1F
100
AcDbEntity
  8
レバー
  6
Continuous
 62
     7
370
     0
100
AcDbLine
 10
-2391.274555516695
 20
2390.337572617923
 30
0.0
 11
-2388.835845212795
 21
2389.711609295124
 31
0.0
  0
LINE
  5
1FB
330
1F
100
AcDbEntity
  8
レバー
  6
Continuous
 62
     7
370
     0
100
AcDbLine
 10
-2388.835845212795
 20
2389.711609295124
 30
0.0
 11
-2386.299671069995
 21
2389.500247499424
 31
0.0
  0
LINE
  5
1FC
330
1F
100
AcDbEntity
  8
レバー
  6
Continuous
 62
     7
370
     0
100
AcDbLine
 10
-2386.299671069995
 20
2389.500247499424
 30
0.0
 11
-2383.763496927295
 21
2389.711609295124
 31
0.0
  0
LINE
  5
1FD
330
1F
100
AcDbEntity
  8
レバー
  6
Continuous
 62
     7
370
     0
100
AcDbLine
 10
-2383.763496927295
 20
2389.711609295124
 30
0.0
 11
-2381.324786623295
 21
2390.337572617923
 31
0.0
  0
LINE
  5
1FE
330
1F
100
AcDbEntity
  8
レバー
  6
Continuous
 62
     7
370
     0
100
AcDbLine
 10
-2381.324786623295
 20
2390.337572617923
 30
0.0
 11
-2379.077257984595
 21
2391.354081405823
 31
0.0
  0
LINE
  5
1FF
330
1F
100
AcDbEntity
  8
レバー
  6
Continuous
 62
     7
370
     0
100
AcDbLine
 10
-2379.077257984595
 20
2391.354081405823
 30
0.0
 11
-2377.107282565295
 21
2392.722072730324
 31
0.0
  0
LINE
  5
200
330
1F
100
AcDbEntity
  8
レバー
  6
Continuous
 62
     7
370
     0
100
AcDbLine
 10
-2377.107282565295
 20
2392.722072730324
 30
0.0
 11
-2376.344379433695
 21
2393.508657997924
 31
0.0
  0
LINE
  5
201
330
1F
100
AcDbEntity
  8
レバー
  6
Continuous
 62
     7
370
     0
100
AcDbLine
 10
-2269.299672381295
 20
2400.500408573724
 30
0.0
 11
-2269.299672381295
 21
2395.003271939723
 31
0.0
  0
LINE
  5
202
330
1F
100
AcDbEntity
  8
レバー
  6
Continuous
 62
     7
370
     0
100
AcDbLine
 10
-2269.299672381295
 20
2400.500408573724
 30
0.0
 11
-2269.299672381295
 21
2405.993492993124
 31
0.0
  0
ARC
  5
203
330
1F
100
AcDbEntity
  8
レバー
  6
Continuous
 62
     7
370
     0
100
AcDbCircle
 10
-2386.299671069995
 20
2400.500247439824
 30
0.0
 40
24.55
100
AcDbArc
 50
16.5995243249
 51
343.3673588443
  0
LINE
  5
204
330
1F
100
AcDbEntity
  8
レバー
  6
JWW_CENTER1
 62
   120
370
     5
100
AcDbLine
 10
-4571.097619875986
 20
2400.5
 30
0.0
 11
-4654.123571613838
 21
2400.5
 31
0.0
  0
LINE
  5
205
330
1F
100
AcDbEntity
  8
レバー
  6
JWW_CENTER1
 62
   120
370
     5
100
AcDbLine
 10
-4617.899798419025
 20
2456.956960593791
 30
0.0
 11
-4617.899798419025
 21
2357.113207305528
 31
0.0
  0
LINE
  5
206
330
1F
100
AcDbEntity
  8
レバー
  6
Continuous
 62
     7
370
     0
100
AcDbLine
 10
-4502.399877276024
 20
2407.4999867119
 30
0.0
 11
-4511.475176181325
 21
2407.499866571301
 31
0.0
  0
LINE
  5
207
330
1F
100
AcDbEntity
  8
レバー
  6
Continuous
 62
     7
370
     0
100
AcDbLine
 10
-4511.475176181325
 20
2407.499866571301
 30
0.0
 11
-4511.875622536725
 21
2407.499852601501
 31
0.0
  0
ARC
  5
208
330
1F
100
AcDbEntity
  8
レバー
  6
Continuous
 62
     7
370
     0
100
AcDbCircle
 10
-4502.399798419025
 20
2394.999999737401
 30
0.0
 40
1.500000000000118
100
AcDbArc
 50
270.164192293
 51
0.000004253700026
  0
ARC
  5
209
330
1F
100
AcDbEntity
  8
レバー
  6
Continuous
 62
     7
370
     0
100
AcDbCircle
 10
-4502.399798419025
 20
2406.000000311001
 30
0.0
 40
1.500000000000029
100
AcDbArc
 50
0.0084663275
 51
89.9162980715
  0
LINE
  5
20A
330
1F
100
AcDbEntity
  8
レバー
  6
Continuous
 62
     7
370
     0
100
AcDbLine
 10
-4612.881420742426
 20
2393.513883940901
 30
0.0
 11
-4612.749119385824
 21
2393.5070932024
 31
0.0
  0
LINE
  5
20B
330
1F
100
AcDbEntity
  8
レバー
  6
Continuous
 62
     7
370
     0
100
AcDbLine
 10
-4612.749119385824
 20
2393.5070932024
 30
0.0
 11
-4612.313378233225
 21
2393.505160708
 31
0.0
  0
LINE
  5
20C
330
1F
100
AcDbEntity
  8
レバー
  6
Continuous
 62
     7
370
     0
100
AcDbLine
 10
-4612.313378233225
 20
2393.505160708
 30
0.0
 11
-4611.585184562625
 21
2393.505505763001
 31
0.0
  0
LINE
  5
20D
330
1F
100
AcDbEntity
  8
レバー
  6
Continuous
 62
     7
370
     0
100
AcDbLine
 10
-4611.585184562625
 20
2393.505505763001
 30
0.0
 11
-4610.570398255924
 21
2393.506757460601
 31
0.0
  0
LINE
  5
20E
330
1F
100
AcDbEntity
  8
レバー
  6
Continuous
 62
     7
370
     0
100
AcDbLine
 10
-4610.570398255924
 20
2393.506757460601
 30
0.0
 11
-4609.306870590624
 21
2393.5080659688
 31
0.0
  0
LINE
  5
20F
330
1F
100
AcDbEntity
  8
レバー
  6
Continuous
 62
     7
370
     0
100
AcDbLine
 10
-4609.306870590624
 20
2393.5080659688
 30
0.0
 11
-4607.957340407825
 21
2393.5084194057
 31
0.0
  0
LINE
  5
210
330
1F
100
AcDbEntity
  8
レバー
  6
Continuous
 62
     7
370
     0
100
AcDbLine
 10
-4607.957340407825
 20
2393.5084194057
 30
0.0
 11
-4605.103822987225
 21
2393.506442673501
 31
0.0
  0
LINE
  5
211
330
1F
100
AcDbEntity
  8
レバー
  6
Continuous
 62
     7
370
     0
100
AcDbLine
 10
-4605.103822987225
 20
2393.506442673501
 30
0.0
 11
-4602.121987011025
 21
2393.501848924901
 31
0.0
  0
LINE
  5
212
330
1F
100
AcDbEntity
  8
レバー
  6
Continuous
 62
     7
370
     0
100
AcDbLine
 10
-4602.121987011025
 20
2393.501848924901
 30
0.0
 11
-4599.101264592025
 21
2393.4996626452
 31
0.0
  0
LINE
  5
213
330
1F
100
AcDbEntity
  8
レバー
  6
Continuous
 62
     7
370
     0
100
AcDbLine
 10
-4599.101264592025
 20
2393.4996626452
 30
0.0
 11
-4596.058676581525
 21
2393.4998000153
 31
0.0
  0
LINE
  5
214
330
1F
100
AcDbEntity
  8
レバー
  6
Continuous
 62
     7
370
     0
100
AcDbLine
 10
-4596.058676581525
 20
2393.4998000153
 30
0.0
 11
-4592.994394343024
 21
2393.500246118801
 31
0.0
  0
LINE
  5
215
330
1F
100
AcDbEntity
  8
レバー
  6
Continuous
 62
     7
370
     0
100
AcDbLine
 10
-4592.994394343024
 20
2393.500246118801
 30
0.0
 11
-4589.908589239925
 21
2393.500637274301
 31
0.0
  0
LINE
  5
216
330
1F
100
AcDbEntity
  8
レバー
  6
Continuous
 62
     7
370
     0
100
AcDbLine
 10
-4589.908589239925
 20
2393.500637274301
 30
0.0
 11
-4585.911498035925
 21
2393.501061491701
 31
0.0
  0
LINE
  5
217
330
1F
100
AcDbEntity
  8
レバー
  6
Continuous
 62
     7
370
     0
100
AcDbLine
 10
-4585.911498035925
 20
2393.501061491701
 30
0.0
 11
-4581.502512659626
 21
2393.5014288985
 31
0.0
  0
LINE
  5
218
330
1F
100
AcDbEntity
  8
レバー
  6
Continuous
 62
     7
370
     0
100
AcDbLine
 10
-4581.502512659626
 20
2393.5014288985
 30
0.0
 11
-4576.532751884025
 21
2393.5017283187
 31
0.0
  0
LINE
  5
219
330
1F
100
AcDbEntity
  8
レバー
  6
Continuous
 62
     7
370
     0
100
AcDbLine
 10
-4576.532751884025
 20
2393.5017283187
 30
0.0
 11
-4571.002211983925
 21
2393.501932278301
 31
0.0
  0
LINE
  5
21A
330
1F
100
AcDbEntity
  8
レバー
  6
Continuous
 62
     7
370
     0
100
AcDbLine
 10
-4571.002211983925
 20
2393.501932278301
 30
0.0
 11
-4564.910896684725
 21
2393.502020288301
 31
0.0
  0
LINE
  5
21B
330
1F
100
AcDbEntity
  8
レバー
  6
Continuous
 62
     7
370
     0
100
AcDbLine
 10
-4564.910896684725
 20
2393.502020288301
 30
0.0
 11
-4558.258802260925
 21
2393.5019779131
 31
0.0
  0
LINE
  5
21C
330
1F
100
AcDbEntity
  8
レバー
  6
Continuous
 62
     7
370
     0
100
AcDbLine
 10
-4558.258802260925
 20
2393.5019779131
 30
0.0
 11
-4551.045924987325
 21
2393.501802824501
 31
0.0
  0
LINE
  5
21D
330
1F
100
AcDbEntity
  8
レバー
  6
Continuous
 62
     7
370
     0
100
AcDbLine
 10
-4551.045924987325
 20
2393.501802824501
 30
0.0
 11
-4542.464055683226
 21
2393.501471739301
 31
0.0
  0
LINE
  5
21E
330
1F
100
AcDbEntity
  8
レバー
  6
Continuous
 62
     7
370
     0
100
AcDbLine
 10
-4542.464055683226
 20
2393.501471739301
 30
0.0
 11
-4533.203624751124
 21
2393.5010340177
 31
0.0
  0
LINE
  5
21F
330
1F
100
AcDbEntity
  8
レバー
  6
Continuous
 62
     7
370
     0
100
AcDbLine
 10
-4533.203624751124
 20
2393.5010340177
 30
0.0
 11
-4523.264639641825
 21
2393.500561837101
 31
0.0
  0
LINE
  5
220
330
1F
100
AcDbEntity
  8
レバー
  6
Continuous
 62
     7
370
     0
100
AcDbLine
 10
-4523.264639641825
 20
2393.500561837101
 30
0.0
 11
-4512.647085454025
 21
2393.500165559401
 31
0.0
  0
LINE
  5
221
330
1F
100
AcDbEntity
  8
レバー
  6
Continuous
 62
     7
370
     0
100
AcDbLine
 10
-4512.647085454025
 20
2393.500165559401
 30
0.0
 11
-4502.399877276024
 21
2393.5000146851
 31
0.0
  0
LINE
  5
222
330
1F
100
AcDbEntity
  8
レバー
  6
Continuous
 62
     7
370
     0
100
AcDbLine
 10
-4502.399929430026
 20
2407.499986246301
 30
0.0
 11
-4512.129031683925
 21
2407.499848876201
 31
0.0
  0
LINE
  5
223
330
1F
100
AcDbEntity
  8
レバー
  6
Continuous
 62
     7
370
     0
100
AcDbLine
 10
-4512.129031683925
 20
2407.499848876201
 30
0.0
 11
-4522.313826348325
 21
2407.4994796068
 31
0.0
  0
LINE
  5
224
330
1F
100
AcDbEntity
  8
レバー
  6
Continuous
 62
     7
370
     0
100
AcDbLine
 10
-4522.313826348325
 20
2407.4994796068
 30
0.0
 11
-4531.905375983325
 21
2407.499029312301
 31
0.0
  0
LINE
  5
225
330
1F
100
AcDbEntity
  8
レバー
  6
Continuous
 62
     7
370
     0
100
AcDbLine
 10
-4531.905375983325
 20
2407.499029312301
 30
0.0
 11
-4540.903673138226
 21
2407.49859811
 31
0.0
  0
LINE
  5
226
330
1F
100
AcDbEntity
  8
レバー
  6
Continuous
 62
     7
370
     0
100
AcDbLine
 10
-4540.903673138226
 20
2407.49859811
 30
0.0
 11
-4549.308740164825
 21
2407.498254917601
 31
0.0
  0
LINE
  5
227
330
1F
100
AcDbEntity
  8
レバー
  6
Continuous
 62
     7
370
     0
100
AcDbLine
 10
-4549.308740164825
 20
2407.498254917601
 30
0.0
 11
-4557.120573337825
 21
2407.4980416447
 31
0.0
  0
LINE
  5
228
330
1F
100
AcDbEntity
  8
レバー
  6
Continuous
 62
     7
370
     0
100
AcDbLine
 10
-4557.120573337825
 20
2407.4980416447
 30
0.0
 11
-4563.942675109625
 21
2407.497977383501
 31
0.0
  0
LINE
  5
229
330
1F
100
AcDbEntity
  8
レバー
  6
Continuous
 62
     7
370
     0
100
AcDbLine
 10
-4563.942675109625
 20
2407.497977383501
 30
0.0
 11
-4570.237421061525
 21
2407.4980486297
 31
0.0
  0
LINE
  5
22A
330
1F
100
AcDbEntity
  8
レバー
  6
Continuous
 62
     7
370
     0
100
AcDbLine
 10
-4570.237421061525
 20
2407.4980486297
 30
0.0
 11
-4576.004811193525
 21
2407.498246535701
 31
0.0
  0
LINE
  5
22B
330
1F
100
AcDbEntity
  8
レバー
  6
Continuous
 62
     7
370
     0
100
AcDbLine
 10
-4576.004811193525
 20
2407.498246535701
 30
0.0
 11
-4581.246551688526
 21
2407.498552475201
 31
0.0
  0
LINE
  5
22C
330
1F
100
AcDbEntity
  8
レバー
  6
Continuous
 62
     7
370
     0
100
AcDbLine
 10
-4581.246551688526
 20
2407.498552475201
 30
0.0
 11
-4586.043708588626
 21
2407.498950615601
 31
0.0
  0
LINE
  5
22D
330
1F
100
AcDbEntity
  8
レバー
  6
Continuous
 62
     7
370
     0
100
AcDbLine
 10
-4586.043708588626
 20
2407.498950615601
 30
0.0
 11
-4590.694888125825
 21
2407.499454926701
 31
0.0
  0
LINE
  5
22E
330
1F
100
AcDbEntity
  8
レバー
  6
Continuous
 62
     7
370
     0
100
AcDbLine
 10
-4590.694888125825
 20
2407.499454926701
 30
0.0
 11
-4594.896991368125
 21
2407.5000169799
 31
0.0
  0
LINE
  5
22F
330
1F
100
AcDbEntity
  8
レバー
  6
Continuous
 62
     7
370
     0
100
AcDbLine
 10
-4594.896991368125
 20
2407.5000169799
 30
0.0
 11
-4598.650420646825
 21
2407.5003988222
 31
0.0
  0
LINE
  5
230
330
1F
100
AcDbEntity
  8
レバー
  6
Continuous
 62
     7
370
     0
100
AcDbLine
 10
-4598.650420646825
 20
2407.5003988222
 30
0.0
 11
-4600.652278031825
 21
2407.499683566401
 31
0.0
  0
LINE
  5
231
330
1F
100
AcDbEntity
  8
レバー
  6
Continuous
 62
     7
370
     0
100
AcDbLine
 10
-4600.652278031825
 20
2407.499683566401
 30
0.0
 11
-4602.498645525126
 21
2407.497680291601
 31
0.0
  0
LINE
  5
232
330
1F
100
AcDbEntity
  8
レバー
  6
Continuous
 62
     7
370
     0
100
AcDbLine
 10
-4602.498645525126
 20
2407.497680291601
 30
0.0
 11
-4604.508265483825
 21
2407.4943936542
 31
0.0
  0
LINE
  5
233
330
1F
100
AcDbEntity
  8
レバー
  6
Continuous
 62
     7
370
     0
100
AcDbLine
 10
-4604.508265483825
 20
2407.4943936542
 30
0.0
 11
-4606.916200931825
 21
2407.491827394901
 31
0.0
  0
LINE
  5
234
330
1F
100
AcDbEntity
  8
レバー
  6
Continuous
 62
     7
370
     0
100
AcDbLine
 10
-4606.916200931825
 20
2407.491827394901
 30
0.0
 11
-4608.411361094325
 21
2407.491338916201
 31
0.0
  0
LINE
  5
235
330
1F
100
AcDbEntity
  8
レバー
  6
Continuous
 62
     7
370
     0
100
AcDbLine
 10
-4608.411361094325
 20
2407.491338916201
 30
0.0
 11
-4609.948711100725
 21
2407.492088630801
 31
0.0
  0
LINE
  5
236
330
1F
100
AcDbEntity
  8
レバー
  6
Continuous
 62
     7
370
     0
100
AcDbLine
 10
-4609.948711100725
 20
2407.492088630801
 30
0.0
 11
-4611.467010903825
 21
2407.493290502601
 31
0.0
  0
LINE
  5
237
330
1F
100
AcDbEntity
  8
レバー
  6
Continuous
 62
     7
370
     0
100
AcDbLine
 10
-4611.467010903825
 20
2407.493290502601
 30
0.0
 11
-4612.567682381425
 21
2407.4924262353
 31
0.0
  0
LINE
  5
238
330
1F
100
AcDbEntity
  8
レバー
  6
Continuous
 62
     7
370
     0
100
AcDbLine
 10
-4612.567682381425
 20
2407.4924262353
 30
0.0
 11
-4613.030007205624
 21
2407.4858361967
 31
0.0
  0
LINE
  5
239
330
1F
100
AcDbEntity
  8
レバー
  6
Continuous
 62
     7
370
     0
100
AcDbLine
 10
-4613.030007205624
 20
2407.4858361967
 30
0.0
 11
-4613.033926676624
 21
2407.481756072501
 31
0.0
  0
ARC
  5
23A
330
1F
100
AcDbEntity
  8
レバー
  6
Continuous
 62
     7
370
     0
100
AcDbCircle
 10
-4502.399798419025
 20
2406.000000262701
 30
0.0
 40
1.500000000000118
100
AcDbArc
 50
359.9999957463
 51
90.17419294509996
  0
ARC
  5
23B
330
1F
100
AcDbEntity
  8
レバー
  6
Continuous
 62
     7
370
     0
100
AcDbCircle
 10
-4502.399798419025
 20
2394.999999689101
 30
0.0
 40
1.500000000000029
100
AcDbArc
 50
269.9105889113
 51
359.9915336725
  0
LINE
  5
23C
330
1F
100
AcDbEntity
  8
レバー
  6
Continuous
 62
     7
370
     0
100
AcDbLine
 10
-4607.944411787825
 20
2407.491491653101
 30
0.0
 11
-4608.707409914325
 21
2408.278174709601
 31
0.0
  0
LINE
  5
23D
330
1F
100
AcDbEntity
  8
レバー
  6
Continuous
 62
     7
370
     0
100
AcDbLine
 10
-4608.707409914325
 20
2408.278174709601
 30
0.0
 11
-4610.677385333625
 21
2409.646166034101
 31
0.0
  0
LINE
  5
23E
330
1F
100
AcDbEntity
  8
レバー
  6
Continuous
 62
     7
370
     0
100
AcDbLine
 10
-4610.677385333625
 20
2409.646166034101
 30
0.0
 11
-4612.924913972325
 21
2410.662674822001
 31
0.0
  0
LINE
  5
23F
330
1F
100
AcDbEntity
  8
レバー
  6
Continuous
 62
     7
370
     0
100
AcDbLine
 10
-4612.924913972325
 20
2410.662674822001
 30
0.0
 11
-4615.363624276325
 21
2411.288638144801
 31
0.0
  0
LINE
  5
240
330
1F
100
AcDbEntity
  8
レバー
  6
Continuous
 62
     7
370
     0
100
AcDbLine
 10
-4615.363624276325
 20
2411.288638144801
 30
0.0
 11
-4617.899798419025
 21
2411.4999999404
 31
0.0
  0
LINE
  5
241
330
1F
100
AcDbEntity
  8
レバー
  6
Continuous
 62
     7
370
     0
100
AcDbLine
 10
-4617.899798419025
 20
2411.4999999404
 30
0.0
 11
-4620.435972561825
 21
2411.288638144801
 31
0.0
  0
LINE
  5
242
330
1F
100
AcDbEntity
  8
レバー
  6
Continuous
 62
     7
370
     0
100
AcDbLine
 10
-4620.435972561825
 20
2411.288638144801
 30
0.0
 11
-4622.874682865725
 21
2410.662674822001
 31
0.0
  0
LINE
  5
243
330
1F
100
AcDbEntity
  8
レバー
  6
Continuous
 62
     7
370
     0
100
AcDbLine
 10
-4622.874682865725
 20
2410.662674822001
 30
0.0
 11
-4625.122211504425
 21
2409.646166034101
 31
0.0
  0
LINE
  5
244
330
1F
100
AcDbEntity
  8
レバー
  6
Continuous
 62
     7
370
     0
100
AcDbLine
 10
-4625.122211504425
 20
2409.646166034101
 30
0.0
 11
-4627.092186923825
 21
2408.278174709601
 31
0.0
  0
LINE
  5
245
330
1F
100
AcDbEntity
  8
レバー
  6
Continuous
 62
     7
370
     0
100
AcDbLine
 10
-4627.092186923825
 20
2408.278174709601
 30
0.0
 11
-4628.708903308625
 21
2406.611272610801
 31
0.0
  0
LINE
  5
246
330
1F
100
AcDbEntity
  8
レバー
  6
Continuous
 62
     7
370
     0
100
AcDbLine
 10
-4628.708903308625
 20
2406.611272610801
 30
0.0
 11
-4629.910232130125
 21
2404.709517967001
 31
0.0
  0
LINE
  5
247
330
1F
100
AcDbEntity
  8
レバー
  6
Continuous
 62
     7
370
     0
100
AcDbLine
 10
-4629.910232130125
 20
2404.709517967001
 30
0.0
 11
-4630.650006796925
 21
2402.645993523301
 31
0.0
  0
LINE
  5
248
330
1F
100
AcDbEntity
  8
レバー
  6
Continuous
 62
     7
370
     0
100
AcDbLine
 10
-4630.650006796925
 20
2402.645993523301
 30
0.0
 11
-4630.899798687225
 21
2400.5
 31
0.0
  0
LINE
  5
249
330
1F
100
AcDbEntity
  8
レバー
  6
Continuous
 62
     7
370
     0
100
AcDbLine
 10
-4630.899798687225
 20
2400.5
 30
0.0
 11
-4630.650006796925
 21
2398.354006476701
 31
0.0
  0
LINE
  5
24A
330
1F
100
AcDbEntity
  8
レバー
  6
Continuous
 62
     7
370
     0
100
AcDbLine
 10
-4630.650006796925
 20
2398.354006476701
 30
0.0
 11
-4629.910232130125
 21
2396.2904820331
 31
0.0
  0
LINE
  5
24B
330
1F
100
AcDbEntity
  8
レバー
  6
Continuous
 62
     7
370
     0
100
AcDbLine
 10
-4629.910232130125
 20
2396.2904820331
 30
0.0
 11
-4628.708903308625
 21
2394.388727389301
 31
0.0
  0
LINE
  5
24C
330
1F
100
AcDbEntity
  8
レバー
  6
Continuous
 62
     7
370
     0
100
AcDbLine
 10
-4628.708903308625
 20
2394.388727389301
 30
0.0
 11
-4627.092186923825
 21
2392.7218252905
 31
0.0
  0
LINE
  5
24D
330
1F
100
AcDbEntity
  8
レバー
  6
Continuous
 62
     7
370
     0
100
AcDbLine
 10
-4627.092186923825
 20
2392.7218252905
 30
0.0
 11
-4625.122211504425
 21
2391.353833966001
 31
0.0
  0
LINE
  5
24E
330
1F
100
AcDbEntity
  8
レバー
  6
Continuous
 62
     7
370
     0
100
AcDbLine
 10
-4625.122211504425
 20
2391.353833966001
 30
0.0
 11
-4622.874682865725
 21
2390.337325178101
 31
0.0
  0
LINE
  5
24F
330
1F
100
AcDbEntity
  8
レバー
  6
Continuous
 62
     7
370
     0
100
AcDbLine
 10
-4622.874682865725
 20
2390.337325178101
 30
0.0
 11
-4620.435972561825
 21
2389.711361855301
 31
0.0
  0
LINE
  5
250
330
1F
100
AcDbEntity
  8
レバー
  6
Continuous
 62
     7
370
     0
100
AcDbLine
 10
-4620.435972561825
 20
2389.711361855301
 30
0.0
 11
-4617.899798419025
 21
2389.500000059601
 31
0.0
  0
LINE
  5
251
330
1F
100
AcDbEntity
  8
レバー
  6
Continuous
 62
     7
370
     0
100
AcDbLine
 10
-4617.899798419025
 20
2389.500000059601
 30
0.0
 11
-4615.363624276325
 21
2389.711361855301
 31
0.0
  0
LINE
  5
252
330
1F
100
AcDbEntity
  8
レバー
  6
Continuous
 62
     7
370
     0
100
AcDbLine
 10
-4615.363624276325
 20
2389.711361855301
 30
0.0
 11
-4612.924913972325
 21
2390.337325178101
 31
0.0
  0
LINE
  5
253
330
1F
100
AcDbEntity
  8
レバー
  6
Continuous
 62
     7
370
     0
100
AcDbLine
 10
-4612.924913972325
 20
2390.337325178101
 30
0.0
 11
-4610.677385333625
 21
2391.353833966001
 31
0.0
  0
LINE
  5
254
330
1F
100
AcDbEntity
  8
レバー
  6
Continuous
 62
     7
370
     0
100
AcDbLine
 10
-4610.677385333625
 20
2391.353833966001
 30
0.0
 11
-4608.707409914325
 21
2392.7218252905
 31
0.0
  0
LINE
  5
255
330
1F
100
AcDbEntity
  8
レバー
  6
Continuous
 62
     7
370
     0
100
AcDbLine
 10
-4608.707409914325
 20
2392.7218252905
 30
0.0
 11
-4607.944506782726
 21
2393.5084105581
 31
0.0
  0
LINE
  5
256
330
1F
100
AcDbEntity
  8
レバー
  6
Continuous
 62
     7
370
     0
100
AcDbLine
 10
-4500.899799730325
 20
2400.500161133901
 30
0.0
 11
-4500.899799730325
 21
2395.003024499901
 31
0.0
  0
LINE
  5
257
330
1F
100
AcDbEntity
  8
レバー
  6
Continuous
 62
     7
370
     0
100
AcDbLine
 10
-4500.899799730325
 20
2400.500161133901
 30
0.0
 11
-4500.899799730325
 21
2405.993245553301
 31
0.0
  0
ARC
  5
258
330
1F
100
AcDbEntity
  8
レバー
  6
Continuous
 62
     7
370
     0
100
AcDbCircle
 10
-4617.899798419025
 20
2400.5
 30
0.0
 40
24.55
100
AcDbArc
 50
16.5995243249
 51
343.3673588443
  0
LINE
  5
259
330
1F
100
AcDbEntity
  8
0-7
  6
JWW_CENTER2
 62
     7
370
     9
100
AcDbLine
 10
-3875.399798419023
 20
2440.500148463894
 30
0.0
 11
-4668.399798419025
 21
1443.000148463894
 31
0.0
  0
LINE
  5
25A
330
1F
100
AcDbEntity
  8
0-7
  6
JWW_CENTER2
 62
     7
370
     9
100
AcDbLine
 10
-4668.399798419025
 20
3438.000148463894
 30
0.0
 11
-3875.399798419023
 21
2440.500148463894
 31
0.0
  0
LINE
  5
25B
330
1F
100
AcDbEntity
  8
0-7
  6
JWW_CENTER2
 62
     7
370
     9
100
AcDbLine
 10
-1713.799671069996
 20
2440.500148463894
 30
0.0
 11
-2436.799671069995
 21
1443.000148463894
 31
0.0
  0
LINE
  5
25C
330
1F
100
AcDbEntity
  8
0-7
  6
JWW_CENTER2
 62
     7
370
     9
100
AcDbLine
 10
-2436.799671069995
 20
3438.000148463894
 30
0.0
 11
-1713.799671069996
 21
2440.500148463894
 31
0.0
  0
LINE
  5
25D
330
1F
100
AcDbEntity
  8
0-7
  6
JWW_CENTER2
 62
     7
370
     9
100
AcDbLine
 10
2706.400212468327
 20
2440.500148463894
 30
0.0
 11
2026.400212468328
 21
1443.000148463894
 31
0.0
  0
LINE
  5
25E
330
1F
100
AcDbEntity
  8
0-7
  6
JWW_CENTER2
 62
     7
370
     9
100
AcDbLine
 10
2026.400212468328
 20
3438.000148463894
 30
0.0
 11
2706.400212468327
 21
2440.500148463894
 31
0.0
  0
LINE
  5
25F
330
1F
100
AcDbEntity
  8
0-7
  6
JWW_CENTER2
 62
     7
370
     9
100
AcDbLine
 10
497.8000851192985
 20
2440.500148463894
 30
0.0
 11
-205.1999148806999
 21
1443.000148463894
 31
0.0
  0
LINE
  5
260
330
1F
100
AcDbEntity
  8
0-7
  6
JWW_CENTER2
 62
     7
370
     9
100
AcDbLine
 10
-205.1999148806999
 20
3438.000148463894
 30
0.0
 11
497.8000851192985
 21
2440.500148463894
 31
0.0
  0
LINE
  5
261
330
1F
100
AcDbEntity
  8
F-1_枠
  6
Continuous
 62
   200
370
    20
100
AcDbLine
 10
-5999.99998453501
 20
190.5001831054688
 30
0.0
 11
5689.998977248734
 21
190.5001831054688
 31
0.0
  0
LINE
  5
262
330
1F
100
AcDbEntity
  8
F-1_枠
  6
Continuous
 62
   200
370
    20
100
AcDbLine
 10
-5999.99998453501
 20
-15.50015011349217
 30
0.0
 11
5689.998977248734
 21
-15.50015011349217
 31
0.0
  0
LINE
  5
263
330
1F
100
AcDbEntity
  8
F-0_補助線
  6
JWW_HOJO
 62
   200
370
    20
100
AcDbLine
 10
-5999.99998453501
 20
84.49993236644843
 30
0.0
 11
5689.998977248734
 21
84.49993236644843
 31
0.0
  0
LINE
  5
264
330
1F
100
AcDbEntity
  8
F-1_枠
  6
Continuous
 62
   200
370
    20
100
AcDbLine
 10
-5999.99998453501
 20
184.5000148463899
 30
0.0
 11
5689.998977248734
 21
184.5000148463899
 31
0.0
  0
LINE
  5
265
330
1F
100
AcDbEntity
  8
F-1_枠
  6
Continuous
 62
   200
370
    20
100
AcDbLine
 10
-5999.99998453501
 20
187.5000989759289
 30
0.0
 11
5689.998977248734
 21
187.5000989759289
 31
0.0
  0
LINE
  5
266
330
1F
100
AcDbEntity
  8
F-0_補助線
  6
JWW_HOJO
 62
   200
370
    20
100
AcDbLine
 10
-5999.99998453501
 20
4064.999901024072
 30
0.0
 11
5689.998977248734
 21
4064.999901024072
 31
0.0
  0
MTEXT
  5
267
330
1F
100
AcDbEntity
  8
F-A_文字
  6
Continuous
 62
     7
370
     0
100
AcDbMText
 10
-5239.999990205507
 20
-4045.352123578391
 30
0.0
 40
79.295625
 41
1665.0
 46
0.0
 71
     7
 72
     1
  1
{\fＭＳ ゴシック|b0|i0|c128|p49;ドレタス　シングルドア　Ｂ－ＤＩ}
 73
     1
 44
1.0
  0
MTEXT
  5
268
330
1F
100
AcDbEntity
  8
0-A_文字
  6
Continuous
 62
     7
370
     9
100
AcDbMText
 10
-4576.699908488504
 20
4013.576151024072
 30
0.0
 40
77.15249999999999
 41
405.0
 46
0.0
 71
     7
 72
     1
  1
{\fＭＳ ゴシック|b0|i0|c128|p49;Ｂ－ＤＩ}
 73
     1
 44
1.0
  0
MTEXT
  5
269
330
1F
100
AcDbEntity
  8
0-A_文字
  6
Continuous
 62
     7
370
     9
100
AcDbMText
 10
-2345.099781139475
 20
4013.576151024072
 30
0.0
 40
77.15249999999999
 41
405.0
 46
0.0
 71
     7
 72
     1
  1
{\fＭＳ ゴシック|b0|i0|c128|p49;Ｂ－ＤＩ}
 73
     1
 44
1.0
  0
MTEXT
  5
26A
330
1F
100
AcDbEntity
  8
0-A_文字
  6
Continuous
 62
     7
370
     9
100
AcDbMText
 10
-113.500024950182
 20
4013.576151024072
 30
0.0
 40
77.15249999999999
 41
405.0
 46
0.0
 71
     7
 72
     1
  1
{\fＭＳ ゴシック|b0|i0|c128|p49;Ｂ－ＤＩ}
 73
     1
 44
1.0
  0
MTEXT
  5
26B
330
1F
100
AcDbEntity
  8
0-A_文字
  6
Continuous
 62
     7
370
     9
100
AcDbMText
 10
2118.100102398846
 20
4013.576151024072
 30
0.0
 40
77.15249999999999
 41
405.0
 46
0.0
 71
     7
 72
     1
  1
{\fＭＳ ゴシック|b0|i0|c128|p49;Ｂ－ＤＩ}
 73
     1
 44
1.0
  0
MTEXT
  5
26C
330
1F
100
AcDbEntity
  8
0-A_文字
  6
Continuous
 62
     7
370
     9
100
AcDbMText
 10
-5370.000018557986
 20
541.5751831054688
 30
0.0
 40
57.15
 41
675.0
 46
0.0
 71
     7
 72
     1
  1
{\fＭＳ ゴシック|b0|i0|c128|p49;カスミ熱処理ガラス}
 73
     1
 44
1.0
  0
MTEXT
  5
26D
330
1F
100
AcDbEntity
  8
0-A_文字
  6
Continuous
 62
     7
370
     9
100
AcDbMText
 10
-3138.399798419025
 20
541.5751831054688
 30
0.0
 40
57.15
 41
675.0
 46
0.0
 71
     7
 72
     1
  1
{\fＭＳ ゴシック|b0|i0|c128|p49;カスミ熱処理ガラス}
 73
     1
 44
1.0
  0
MTEXT
  5
26E
330
1F
100
AcDbEntity
  8
0-A_文字
  6
Continuous
 62
     7
370
     9
100
AcDbMText
 10
-906.7996710699953
 20
541.5751831054688
 30
0.0
 40
57.15
 41
675.0
 46
0.0
 71
     7
 72
     1
  1
{\fＭＳ ゴシック|b0|i0|c128|p49;カスミ熱処理ガラス}
 73
     1
 44
1.0
  0
MTEXT
  5
26F
330
1F
100
AcDbEntity
  8
0-A_文字
  6
Continuous
 62
     7
370
     9
100
AcDbMText
 10
1324.8000851193
 20
541.5751831054688
 30
0.0
 40
57.15
 41
675.0
 46
0.0
 71
     7
 72
     1
  1
{\fＭＳ ゴシック|b0|i0|c128|p49;カスミ熱処理ガラス}
 73
     1
 44
1.0
  0
LINE
  5
270
330
1F
100
AcDbEntity
  8
0-2_扉
  6
Continuous
 62
     7
370
     9
100
AcDbLine
 10
-3875.399953481313
 20
1442.999999999999
 30
0.0
 11
-3875.399953481313
 21
3438.000148463894
 31
0.0
  0
LINE
  5
271
330
1F
100
AcDbEntity
  8
0-2_扉
  6
Continuous
 62
     7
370
     9
100
AcDbLine
 10
-4668.399798419025
 20
1442.999999999999
 30
0.0
 11
-4668.399798419025
 21
3438.000148463894
 31
0.0
  0
LINE
  5
272
330
1F
100
AcDbEntity
  8
0-2_扉
  6
Continuous
 62
     7
370
     9
100
AcDbLine
 10
-4668.399798419025
 20
1442.999999999999
 30
0.0
 11
-3875.399953481313
 21
1442.999999999999
 31
0.0
  0
LINE
  5
273
330
1F
100
AcDbEntity
  8
0-2_扉
  6
Continuous
 62
     7
370
     9
100
AcDbLine
 10
-4668.399798419025
 20
3438.000148463894
 30
0.0
 11
-3875.399953481313
 21
3438.000148463894
 31
0.0
  0
LINE
  5
274
330
1F
100
AcDbEntity
  8
0-2_扉
  6
Continuous
 62
     7
370
     9
100
AcDbLine
 10
-3985.399821513407
 20
1442.999999999999
 30
0.0
 11
-3985.399821513407
 21
3438.000148463894
 31
0.0
  0
LINE
  5
275
330
1F
100
AcDbEntity
  8
0-2_扉
  6
Continuous
 62
     7
370
     9
100
AcDbLine
 10
-4558.399806667019
 20
3302.999950512036
 30
0.0
 11
-3985.399821513407
 21
3302.999950512036
 31
0.0
  0
LINE
  5
276
330
1F
100
AcDbEntity
  8
0-2_扉
  6
Continuous
 62
     7
370
     9
100
AcDbLine
 10
-4316.899897394955
 20
3302.999950512036
 30
0.0
 11
-4316.899897394955
 21
2257.999719568202
 31
0.0
  0
LINE
  5
277
330
1F
100
AcDbEntity
  8
0-2_扉
  6
Continuous
 62
     7
370
     9
100
AcDbLine
 10
-4226.899897394955
 20
3302.999950512036
 30
0.0
 11
-4226.899897394955
 21
2257.999719568202
 31
0.0
  0
LINE
  5
278
330
1F
100
AcDbEntity
  8
0-2_扉
  6
Continuous
 62
     7
370
     9
100
AcDbLine
 10
-3985.399821513407
 20
2257.999719568202
 30
0.0
 11
-4558.399806667019
 21
2257.999719568202
 31
0.0
  0
LINE
  5
279
330
1F
100
AcDbEntity
  8
0-2_扉
  6
Continuous
 62
     7
370
     9
100
AcDbLine
 10
-4558.399806667019
 20
2153.002589870145
 30
0.0
 11
-3985.399821513407
 21
2153.002589870145
 31
0.0
  0
LINE
  5
27A
330
1F
100
AcDbEntity
  8
0-2_扉
  6
Continuous
 62
     7
370
     9
100
AcDbLine
 10
-4558.399806667019
 20
1592.999841638514
 30
0.0
 11
-3985.399821513407
 21
1592.999841638514
 31
0.0
  0
LINE
  5
27B
330
1F
100
AcDbEntity
  8
0-2_扉
  6
Continuous
 62
     7
370
     9
100
AcDbLine
 10
-2436.799671069995
 20
1443.000247439822
 30
0.0
 11
-2436.799671069995
 21
3438.000148463894
 31
0.0
  0
LINE
  5
27C
330
1F
100
AcDbEntity
  8
0-2_扉
  6
Continuous
 62
     7
370
     9
100
AcDbLine
 10
-1713.799562196473
 20
1443.000247439822
 30
0.0
 11
-1713.799562196473
 21
3438.000148463894
 31
0.0
  0
LINE
  5
27D
330
1F
100
AcDbEntity
  8
0-2_扉
  6
Continuous
 62
     7
370
     9
100
AcDbLine
 10
-2436.799671069995
 20
3438.000148463894
 30
0.0
 11
-1713.799562196473
 21
3438.000148463894
 31
0.0
  0
LINE
  5
27E
330
1F
100
AcDbEntity
  8
0-2_扉
  6
Continuous
 62
     7
370
     9
100
AcDbLine
 10
-2436.799671069995
 20
1443.000247439822
 30
0.0
 11
-1713.799562196473
 21
1443.000247439822
 31
0.0
  0
LINE
  5
27F
330
1F
100
AcDbEntity
  8
0-2_扉
  6
Continuous
 62
     7
370
     9
100
AcDbLine
 10
-1823.799430228567
 20
1443.000247439822
 30
0.0
 11
-1823.799430228567
 21
3438.000395903718
 31
0.0
  0
LINE
  5
280
330
1F
100
AcDbEntity
  8
0-2_扉
  6
Continuous
 62
     7
370
     9
100
AcDbLine
 10
-2326.799679317989
 20
3303.000197951859
 30
0.0
 11
-1823.799430228567
 21
3303.000197951859
 31
0.0
  0
LINE
  5
281
330
1F
100
AcDbEntity
  8
0-2_扉
  6
Continuous
 62
     7
370
     9
100
AcDbLine
 10
-2120.299770045924
 20
3303.000197951859
 30
0.0
 11
-2120.299770045924
 21
2258.000214447848
 31
0.0
  0
LINE
  5
282
330
1F
100
AcDbEntity
  8
0-2_扉
  6
Continuous
 62
     7
370
     9
100
AcDbLine
 10
-2030.299770045924
 20
3303.000197951859
 30
0.0
 11
-2030.299770045924
 21
2258.000214447848
 31
0.0
  0
LINE
  5
283
330
1F
100
AcDbEntity
  8
0-2_扉
  6
Continuous
 62
     7
370
     9
100
AcDbLine
 10
-2326.799679317989
 20
2258.000214447848
 30
0.0
 11
-1823.799430228567
 21
2258.000214447848
 31
0.0
  0
LINE
  5
284
330
1F
100
AcDbEntity
  8
0-2_扉
  6
Continuous
 62
     7
370
     9
100
AcDbLine
 10
-2326.799679317989
 20
2153.002713590057
 30
0.0
 11
-1823.799430228567
 21
2153.002713590057
 31
0.0
  0
LINE
  5
285
330
1F
100
AcDbEntity
  8
0-2_扉
  6
Continuous
 62
     7
370
     9
100
AcDbLine
 10
-2326.799679317989
 20
1593.000212798248
 30
0.0
 11
-1823.799430228567
 21
1593.000212798248
 31
0.0
  0
LINE
  5
286
330
1F
100
AcDbEntity
  8
0-2_扉
  6
Continuous
 62
     7
370
     9
100
AcDbLine
 10
-205.1999148806999
 20
1443.000247439822
 30
0.0
 11
-205.1999148806999
 21
3438.000148463894
 31
0.0
  0
LINE
  5
287
330
1F
100
AcDbEntity
  8
0-2_扉
  6
Continuous
 62
     7
370
     9
100
AcDbLine
 10
-205.1999148806999
 20
1443.000247439822
 30
0.0
 11
497.8000042889579
 21
1443.000247439822
 31
0.0
  0
LINE
  5
288
330
1F
100
AcDbEntity
  8
0-2_扉
  6
Continuous
 62
     7
370
     9
100
AcDbLine
 10
497.8000042889579
 20
1443.000247439822
 30
0.0
 11
497.8000042889579
 21
3438.000148463894
 31
0.0
  0
LINE
  5
289
330
1F
100
AcDbEntity
  8
0-2_扉
  6
Continuous
 62
     7
370
     9
100
AcDbLine
 10
-205.1999148806999
 20
3438.000148463894
 30
0.0
 11
497.8000042889579
 21
3438.000148463894
 31
0.0
  0
LINE
  5
28A
330
1F
100
AcDbEntity
  8
0-2_扉
  6
Continuous
 62
     7
370
     9
100
AcDbLine
 10
-95.19992312869417
 20
3303.000197951859
 30
0.0
 11
387.8001362568636
 21
3303.000197951859
 31
0.0
  0
LINE
  5
28B
330
1F
100
AcDbEntity
  8
0-2_扉
  6
Continuous
 62
     7
370
     9
100
AcDbLine
 10
387.8001362568636
 20
1443.000247439822
 30
0.0
 11
387.8001362568636
 21
3438.000395903718
 31
0.0
  0
LINE
  5
28C
330
1F
100
AcDbEntity
  8
0-2_扉
  6
Continuous
 62
     7
370
     9
100
AcDbLine
 10
-95.19992312869455
 20
2258.000214447848
 30
0.0
 11
387.8001362568627
 21
2258.000214447848
 31
0.0
  0
LINE
  5
28D
330
1F
100
AcDbEntity
  8
0-2_扉
  6
Continuous
 62
     7
370
     9
100
AcDbLine
 10
-95.19992312869455
 20
2153.002713590057
 30
0.0
 11
387.8001362568627
 21
2153.002713590057
 31
0.0
  0
LINE
  5
28E
330
1F
100
AcDbEntity
  8
0-2_扉
  6
Continuous
 62
     7
370
     9
100
AcDbLine
 10
101.3000768713059
 20
3303.000197951859
 30
0.0
 11
101.3000768713059
 21
2258.000214447848
 31
0.0
  0
LINE
  5
28F
330
1F
100
AcDbEntity
  8
0-2_扉
  6
Continuous
 62
     7
370
     9
100
AcDbLine
 10
191.3000768713061
 20
3303.000197951859
 30
0.0
 11
191.3000768713061
 21
2258.000214447848
 31
0.0
  0
LINE
  5
290
330
1F
100
AcDbEntity
  8
0-2_扉
  6
Continuous
 62
     7
370
     9
100
AcDbLine
 10
-95.19992312869417
 20
1593.000212798248
 30
0.0
 11
387.8001362568636
 21
1593.000212798248
 31
0.0
  0
LINE
  5
291
330
1F
100
AcDbEntity
  8
0-2_扉
  6
Continuous
 62
     7
370
     9
100
AcDbLine
 10
2026.400212468328
 20
1443.000247439822
 30
0.0
 11
2026.400212468328
 21
3438.000148463894
 31
0.0
  0
LINE
  5
292
330
1F
100
AcDbEntity
  8
0-2_扉
  6
Continuous
 62
     7
370
     9
100
AcDbLine
 10
2706.400228964316
 20
1443.000247439822
 30
0.0
 11
2706.400228964316
 21
3438.000148463894
 31
0.0
  0
LINE
  5
293
330
1F
100
AcDbEntity
  8
0-2_扉
  6
Continuous
 62
     7
370
     9
100
AcDbLine
 10
2026.400212468328
 20
3438.000148463894
 30
0.0
 11
2706.400228964316
 21
3438.000148463894
 31
0.0
  0
LINE
  5
294
330
1F
100
AcDbEntity
  8
0-2_扉
  6
Continuous
 62
     7
370
     9
100
AcDbLine
 10
2026.400212468328
 20
1443.000247439822
 30
0.0
 11
2706.400228964316
 21
1443.000247439822
 31
0.0
  0
LINE
  5
295
330
1F
100
AcDbEntity
  8
0-2_扉
  6
Continuous
 62
     7
370
     9
100
AcDbLine
 10
2596.400360932222
 20
1443.000247439822
 30
0.0
 11
2596.400360932222
 21
3438.000395903718
 31
0.0
  0
LINE
  5
296
330
1F
100
AcDbEntity
  8
0-2_扉
  6
Continuous
 62
     7
370
     9
100
AcDbLine
 10
2136.400204220334
 20
3303.000197951859
 30
0.0
 11
2596.400360932222
 21
3303.000197951859
 31
0.0
  0
LINE
  5
297
330
1F
100
AcDbEntity
  8
0-2_扉
  6
Continuous
 62
     7
370
     9
100
AcDbLine
 10
2321.400252883499
 20
3303.000197951859
 30
0.0
 11
2321.400252883499
 21
2258.000214447848
 31
0.0
  0
LINE
  5
298
330
1F
100
AcDbEntity
  8
0-2_扉
  6
Continuous
 62
     7
370
     9
100
AcDbLine
 10
2411.400252883499
 20
3303.000197951859
 30
0.0
 11
2411.400252883499
 21
2258.000214447848
 31
0.0
  0
LINE
  5
299
330
1F
100
AcDbEntity
  8
0-2_扉
  6
Continuous
 62
     7
370
     9
100
AcDbLine
 10
2136.400204220334
 20
2258.000214447848
 30
0.0
 11
2596.400360932222
 21
2258.000214447848
 31
0.0
  0
LINE
  5
29A
330
1F
100
AcDbEntity
  8
0-2_扉
  6
Continuous
 62
     7
370
     9
100
AcDbLine
 10
2136.400204220334
 20
2153.002713590057
 30
0.0
 11
2596.400360932222
 21
2153.002713590057
 31
0.0
  0
LINE
  5
29B
330
1F
100
AcDbEntity
  8
0-2_扉
  6
Continuous
 62
     7
370
     9
100
AcDbLine
 10
2136.400204220334
 20
1593.000212798248
 30
0.0
 11
2596.400360932222
 21
1593.000212798248
 31
0.0
  0
MTEXT
  5
29C
330
1F
100
AcDbEntity
  8
0-A_文字
  6
Continuous
 62
     7
370
     9
100
AcDbMText
 10
-5370.000018557986
 20
421.5751831054687
 30
0.0
 40
57.15000000000001
 41
1050.0
 46
0.0
 71
     7
 72
     1
  1
{\fＭＳ ゴシック|b0|i0|c128|p49;ハイドアの対応はありません。}
 73
     1
 44
1.0
  0
MTEXT
  5
29D
330
1F
100
AcDbEntity
  8
0-A_文字
  6
Continuous
 62
     7
370
     9
100
AcDbMText
 10
-3138.399798419025
 20
421.5751831054687
 30
0.0
 40
57.15000000000001
 41
1050.0
 46
0.0
 71
     7
 72
     1
  1
{\fＭＳ ゴシック|b0|i0|c128|p49;ハイドアの対応はありません。}
 73
     1
 44
1.0
  0
MTEXT
  5
29E
330
1F
100
AcDbEntity
  8
0-A_文字
  6
Continuous
 62
     7
370
     9
100
AcDbMText
 10
-906.7996710699953
 20
421.5751831054687
 30
0.0
 40
57.15000000000001
 41
1050.0
 46
0.0
 71
     7
 72
     1
  1
{\fＭＳ ゴシック|b0|i0|c128|p49;ハイドアの対応はありません。}
 73
     1
 44
1.0
  0
MTEXT
  5
29F
330
1F
100
AcDbEntity
  8
0-A_文字
  6
Continuous
 62
     7
370
     9
100
AcDbMText
 10
1324.8000851193
 20
421.5751831054687
 30
0.0
 40
57.15000000000001
 41
1050.0
 46
0.0
 71
     7
 72
     1
  1
{\fＭＳ ゴシック|b0|i0|c128|p49;ハイドアの対応はありません。}
 73
     1
 44
1.0
  0
LINE
  5
2A0
330
1F
100
AcDbEntity
  8
0-C_ハッチ
  6
Continuous
 62
   120
370
     5
100
AcDbLine
 10
-4490.255477939062
 20
3302.999950512036
 30
0.0
 11
-4558.399938634926
 21
3239.903227645495
 31
0.0
  0
LINE
  5
2A1
330
1F
100
AcDbEntity
  8
0-C_ハッチ
  6
Continuous
 62
   120
370
     5
100
AcDbLine
 10
-4453.458738953114
 20
3302.999950512036
 30
0.0
 11
-4558.399938634926
 21
3205.832173028877
 31
0.0
  0
LINE
  5
2A2
330
1F
100
AcDbEntity
  8
0-C_ハッチ
  6
Continuous
 62
   120
370
     5
100
AcDbLine
 10
-4416.661999967167
 20
3302.999950512036
 30
0.0
 11
-4558.399938634926
 21
3171.761118412257
 31
0.0
  0
LINE
  5
2A3
330
1F
100
AcDbEntity
  8
0-C_ハッチ
  6
Continuous
 62
   120
370
     5
100
AcDbLine
 10
-4527.05221692501
 20
3302.999950512036
 30
0.0
 11
-4558.399938634926
 21
3273.974282262114
 31
0.0
  0
LINE
  5
2A4
330
1F
100
AcDbEntity
  8
0-C_ハッチ
  6
Continuous
 62
   120
370
     5
100
AcDbLine
 10
-4515.799904972481
 20
2393.50028322678
 30
0.0
 11
-4558.399938634926
 21
2354.055807613405
 31
0.0
  0
LINE
  5
2A5
330
1F
100
AcDbEntity
  8
0-C_ハッチ
  6
Continuous
 62
   120
370
     5
100
AcDbLine
 10
-2258.655350590031
 20
3303.000197951859
 30
0.0
 11
-2326.799811285895
 21
3239.903475085318
 31
0.0
  0
LINE
  5
2A6
330
1F
100
AcDbEntity
  8
0-C_ハッチ
  6
Continuous
 62
   120
370
     5
100
AcDbLine
 10
-2221.858611604084
 20
3303.000197951859
 30
0.0
 11
-2326.799811285895
 21
3205.8324204687
 31
0.0
  0
LINE
  5
2A7
330
1F
100
AcDbEntity
  8
0-C_ハッチ
  6
Continuous
 62
   120
370
     5
100
AcDbLine
 10
-2185.061872618136
 20
3303.000197951859
 30
0.0
 11
-2326.799811285895
 21
3171.76136585208
 31
0.0
  0
LINE
  5
2A8
330
1F
100
AcDbEntity
  8
0-C_ハッチ
  6
Continuous
 62
   120
370
     5
100
AcDbLine
 10
-2148.265133632188
 20
3303.000197951859
 30
0.0
 11
-2326.799811285895
 21
3137.690311235462
 31
0.0
  0
LINE
  5
2A9
330
1F
100
AcDbEntity
  8
0-C_ハッチ
  6
Continuous
 62
   120
370
     5
100
AcDbLine
 10
-2295.452089575979
 20
3303.000197951859
 30
0.0
 11
-2326.799811285895
 21
3273.974529701937
 31
0.0
  0
LINE
  5
2AA
330
1F
100
AcDbEntity
  8
0-C_ハッチ
  6
Continuous
 62
   120
370
     5
100
AcDbLine
 10
-2284.19977762345
 20
2393.500530666603
 30
0.0
 11
-2326.799811285895
 21
2354.056055053228
 31
0.0
  0
LINE
  5
2AB
330
1F
100
AcDbEntity
  8
0-C_ハッチ
  6
Continuous
 62
   120
370
     5
100
AcDbLine
 10
-2120.299770045925
 20
3294.822998507706
 30
0.0
 11
-2326.799811285895
 21
3103.619256618842
 31
0.0
  0
LINE
  5
2AC
330
1F
100
AcDbEntity
  8
0-C_ハッチ
  6
Continuous
 62
   120
370
     5
100
AcDbLine
 10
-2120.299770045925
 20
3260.751943891088
 30
0.0
 11
-2326.799811285895
 21
3069.548202002224
 31
0.0
  0
LINE
  5
2AD
330
1F
100
AcDbEntity
  8
0-C_ハッチ
  6
Continuous
 62
   120
370
     5
100
AcDbLine
 10
-2120.299770045925
 20
3226.680889274468
 30
0.0
 11
-2326.799811285895
 21
3035.477147385605
 31
0.0
  0
LINE
  5
2AE
330
1F
100
AcDbEntity
  8
0-C_ハッチ
  6
Continuous
 62
   120
370
     5
100
AcDbLine
 10
-2001.078177688396
 20
3303.000197951859
 30
0.0
 11
-2030.299770045925
 21
3275.943167991184
 31
0.0
  0
LINE
  5
2AF
330
1F
100
AcDbEntity
  8
0-C_ハッチ
  6
Continuous
 62
   120
370
     5
100
AcDbLine
 10
-2120.299770045925
 20
3192.60983465785
 30
0.0
 11
-2326.799811285895
 21
3001.406092768986
 31
0.0
  0
LINE
  5
2B0
330
1F
100
AcDbEntity
  8
0-C_ハッチ
  6
Continuous
 62
   120
370
     5
100
AcDbLine
 10
-1964.281438702448
 20
3303.000197951859
 30
0.0
 11
-2030.299770045925
 21
3241.872113374565
 31
0.0
  0
LINE
  5
2B1
330
1F
100
AcDbEntity
  8
0-C_ハッチ
  6
Continuous
 62
   120
370
     5
100
AcDbLine
 10
-2120.299770045925
 20
3158.538780041231
 30
0.0
 11
-2326.799811285895
 21
2967.335038152368
 31
0.0
  0
LINE
  5
2B2
330
1F
100
AcDbEntity
  8
0-C_ハッチ
  6
Continuous
 62
   120
370
     5
100
AcDbLine
 10
-1927.4846997165
 20
3303.000197951859
 30
0.0
 11
-2030.299770045925
 21
3207.801058757947
 31
0.0
  0
LINE
  5
2B3
330
1F
100
AcDbEntity
  8
0-C_ハッチ
  6
Continuous
 62
   120
370
     5
100
AcDbLine
 10
-2120.299770045925
 20
3124.467725424613
 30
0.0
 11
-2326.799811285895
 21
2933.263983535749
 31
0.0
  0
LINE
  5
2B4
330
1F
100
AcDbEntity
  8
0-C_ハッチ
  6
Continuous
 62
   120
370
     5
100
AcDbLine
 10
-1890.687960730552
 20
3303.000197951859
 30
0.0
 11
-2030.299770045925
 21
3173.730004141328
 31
0.0
  0
LINE
  5
2B5
330
1F
100
AcDbEntity
  8
0-C_ハッチ
  6
Continuous
 62
   120
370
     5
100
AcDbLine
 10
-2120.299770045925
 20
3090.396670807993
 30
0.0
 11
-2326.799811285895
 21
2899.19292891913
 31
0.0
  0
LINE
  5
2B6
330
1F
100
AcDbEntity
  8
0-C_ハッチ
  6
Continuous
 62
   120
370
     5
100
AcDbLine
 10
-1853.891221744604
 20
3303.000197951859
 30
0.0
 11
-2030.299770045925
 21
3139.658949524709
 31
0.0
  0
LINE
  5
2B7
330
1F
100
AcDbEntity
  8
0-C_ハッチ
  6
Continuous
 62
   120
370
     5
100
AcDbLine
 10
-2120.299770045925
 20
3056.325616191374
 30
0.0
 11
-2326.799811285895
 21
2865.121874302511
 31
0.0
  0
LINE
  5
2B8
330
1F
100
AcDbEntity
  8
0-C_ハッチ
  6
Continuous
 62
   120
370
     5
100
AcDbLine
 10
-1823.799562196474
 20
3296.791791064991
 30
0.0
 11
-2030.299770045925
 21
3105.587894908089
 31
0.0
  0
LINE
  5
2B9
330
1F
100
AcDbEntity
  8
0-C_ハッチ
  6
Continuous
 62
   120
370
     5
100
AcDbLine
 10
-2120.299770045925
 20
3022.254561574755
 30
0.0
 11
-2326.799811285895
 21
2831.050819685892
 31
0.0
  0
LINE
  5
2BA
330
1F
100
AcDbEntity
  8
0-C_ハッチ
  6
Continuous
 62
   120
370
     5
100
AcDbLine
 10
-1823.799562196474
 20
3262.720736448372
 30
0.0
 11
-2030.299770045925
 21
3071.516840291471
 31
0.0
  0
LINE
  5
2BB
330
1F
100
AcDbEntity
  8
0-C_ハッチ
  6
Continuous
 62
   120
370
     5
100
AcDbLine
 10
-2120.299770045925
 20
2988.183506958136
 30
0.0
 11
-2326.799811285895
 21
2796.979765069273
 31
0.0
  0
LINE
  5
2BC
330
1F
100
AcDbEntity
  8
0-C_ハッチ
  6
Continuous
 62
   120
370
     5
100
AcDbLine
 10
-1823.799562196474
 20
3228.649681831753
 30
0.0
 11
-2030.299770045925
 21
3037.445785674852
 31
0.0
  0
LINE
  5
2BD
330
1F
100
AcDbEntity
  8
0-C_ハッチ
  6
Continuous
 62
   120
370
     5
100
AcDbLine
 10
-2120.299770045925
 20
2954.112452341518
 30
0.0
 11
-2326.799811285895
 21
2762.908710452654
 31
0.0
  0
LINE
  5
2BE
330
1F
100
AcDbEntity
  8
0-C_ハッチ
  6
Continuous
 62
   120
370
     5
100
AcDbLine
 10
-1823.799562196474
 20
3194.578627215134
 30
0.0
 11
-2030.299770045925
 21
3003.374731058233
 31
0.0
  0
LINE
  5
2BF
330
1F
100
AcDbEntity
  8
0-C_ハッチ
  6
Continuous
 62
   120
370
     5
100
AcDbLine
 10
-2120.299770045925
 20
2920.041397724899
 30
0.0
 11
-2326.799811285895
 21
2728.837655836035
 31
0.0
  0
LINE
  5
2C0
330
1F
100
AcDbEntity
  8
0-C_ハッチ
  6
Continuous
 62
   120
370
     5
100
AcDbLine
 10
-1823.799562196474
 20
3160.507572598515
 30
0.0
 11
-2030.299770045925
 21
2969.303676441614
 31
0.0
  0
LINE
  5
2C1
330
1F
100
AcDbEntity
  8
0-C_ハッチ
  6
Continuous
 62
   120
370
     5
100
AcDbLine
 10
-2120.299770045925
 20
2885.97034310828
 30
0.0
 11
-2326.799811285895
 21
2694.766601219417
 31
0.0
  0
LINE
  5
2C2
330
1F
100
AcDbEntity
  8
0-C_ハッチ
  6
Continuous
 62
   120
370
     5
100
AcDbLine
 10
-1823.799562196474
 20
3126.436517981896
 30
0.0
 11
-2030.299770045925
 21
2935.232621824995
 31
0.0
  0
LINE
  5
2C3
330
1F
100
AcDbEntity
  8
0-C_ハッチ
  6
Continuous
 62
   120
370
     5
100
AcDbLine
 10
-2120.299770045925
 20
2851.899288491661
 30
0.0
 11
-2326.799811285895
 21
2660.695546602798
 31
0.0
  0
LINE
  5
2C4
330
1F
100
AcDbEntity
  8
0-C_ハッチ
  6
Continuous
 62
   120
370
     5
100
AcDbLine
 10
-1823.799562196474
 20
3092.365463365278
 30
0.0
 11
-2030.299770045925
 21
2901.161567208377
 31
0.0
  0
LINE
  5
2C5
330
1F
100
AcDbEntity
  8
0-C_ハッチ
  6
Continuous
 62
   120
370
     5
100
AcDbLine
 10
-2120.299770045925
 20
2817.828233875042
 30
0.0
 11
-2326.799811285895
 21
2626.624491986179
 31
0.0
  0
LINE
  5
2C6
330
1F
100
AcDbEntity
  8
0-C_ハッチ
  6
Continuous
 62
   120
370
     5
100
AcDbLine
 10
-1823.799562196474
 20
3058.294408748658
 30
0.0
 11
-2030.299770045925
 21
2867.090512591757
 31
0.0
  0
LINE
  5
2C7
330
1F
100
AcDbEntity
  8
0-C_ハッチ
  6
Continuous
 62
   120
370
     5
100
AcDbLine
 10
-2120.299770045925
 20
2783.757179258423
 30
0.0
 11
-2326.799811285895
 21
2592.55343736956
 31
0.0
  0
LINE
  5
2C8
330
1F
100
AcDbEntity
  8
0-C_ハッチ
  6
Continuous
 62
   120
370
     5
100
AcDbLine
 10
-1823.799562196474
 20
3024.22335413204
 30
0.0
 11
-2030.299770045925
 21
2833.019457975139
 31
0.0
  0
LINE
  5
2C9
330
1F
100
AcDbEntity
  8
0-C_ハッチ
  6
Continuous
 62
   120
370
     5
100
AcDbLine
 10
-2120.299770045925
 20
2749.686124641805
 30
0.0
 11
-2326.799811285895
 21
2558.482382752941
 31
0.0
  0
LINE
  5
2CA
330
1F
100
AcDbEntity
  8
0-C_ハッチ
  6
Continuous
 62
   120
370
     5
100
AcDbLine
 10
-1823.799562196474
 20
2990.152299515421
 30
0.0
 11
-2030.299770045925
 21
2798.948403358519
 31
0.0
  0
LINE
  5
2CB
330
1F
100
AcDbEntity
  8
0-C_ハッチ
  6
Continuous
 62
   120
370
     5
100
AcDbLine
 10
-2120.299770045925
 20
2715.615070025186
 30
0.0
 11
-2326.799811285895
 21
2524.411328136322
 31
0.0
  0
LINE
  5
2CC
330
1F
100
AcDbEntity
  8
0-C_ハッチ
  6
Continuous
 62
   120
370
     5
100
AcDbLine
 10
-1823.799562196474
 20
2956.081244898802
 30
0.0
 11
-2030.299770045925
 21
2764.877348741901
 31
0.0
  0
LINE
  5
2CD
330
1F
100
AcDbEntity
  8
0-C_ハッチ
  6
Continuous
 62
   120
370
     5
100
AcDbLine
 10
-2120.299770045925
 20
2681.544015408567
 30
0.0
 11
-2326.799811285895
 21
2490.340273519704
 31
0.0
  0
LINE
  5
2CE
330
1F
100
AcDbEntity
  8
0-C_ハッチ
  6
Continuous
 62
   120
370
     5
100
AcDbLine
 10
-1823.799562196474
 20
2922.010190282183
 30
0.0
 11
-2030.299770045925
 21
2730.806294125281
 31
0.0
  0
LINE
  5
2CF
330
1F
100
AcDbEntity
  8
0-C_ハッチ
  6
Continuous
 62
   120
370
     5
100
AcDbLine
 10
-2120.299770045925
 20
2647.472960791947
 30
0.0
 11
-2326.799811285895
 21
2456.269218903084
 31
0.0
  0
LINE
  5
2D0
330
1F
100
AcDbEntity
  8
0-C_ハッチ
  6
Continuous
 62
   120
370
     5
100
AcDbLine
 10
-1823.799562196474
 20
2887.939135665564
 30
0.0
 11
-2030.299770045925
 21
2696.735239508663
 31
0.0
  0
LINE
  5
2D1
330
1F
100
AcDbEntity
  8
0-C_ハッチ
  6
Continuous
 62
   120
370
     5
100
AcDbLine
 10
-2120.299770045925
 20
2613.401906175329
 30
0.0
 11
-2326.799811285895
 21
2422.198164286466
 31
0.0
  0
LINE
  5
2D2
330
1F
100
AcDbEntity
  8
0-C_ハッチ
  6
Continuous
 62
   120
370
     5
100
AcDbLine
 10
-1823.799562196474
 20
2785.725971815707
 30
0.0
 11
-2030.299770045925
 21
2594.522075658807
 31
0.0
  0
LINE
  5
2D3
330
1F
100
AcDbEntity
  8
0-C_ハッチ
  6
Continuous
 62
   120
370
     5
100
AcDbLine
 10
-2120.299770045925
 20
2511.188742325472
 30
0.0
 11
-2326.799811285895
 21
2319.985000436609
 31
0.0
  0
LINE
  5
2D4
330
1F
100
AcDbEntity
  8
0-C_ハッチ
  6
Continuous
 62
   120
370
     5
100
AcDbLine
 10
-1823.799562196474
 20
2751.654917199089
 30
0.0
 11
-2030.299770045925
 21
2560.451021042188
 31
0.0
  0
LINE
  5
2D5
330
1F
100
AcDbEntity
  8
0-C_ハッチ
  6
Continuous
 62
   120
370
     5
100
AcDbLine
 10
-2120.299770045925
 20
2477.117687708854
 30
0.0
 11
-2326.799811285895
 21
2285.91394581999
 31
0.0
  0
LINE
  5
2D6
330
1F
100
AcDbEntity
  8
0-C_ハッチ
  6
Continuous
 62
   120
370
     5
100
AcDbLine
 10
-1823.799562196474
 20
2717.58386258247
 30
0.0
 11
-2030.299770045925
 21
2526.379966425569
 31
0.0
  0
LINE
  5
2D7
330
1F
100
AcDbEntity
  8
0-C_ハッチ
  6
Continuous
 62
   120
370
     5
100
AcDbLine
 10
-1823.799562196474
 20
2683.512807965851
 30
0.0
 11
-2030.299770045925
 21
2492.308911808951
 31
0.0
  0
LINE
  5
2D8
330
1F
100
AcDbEntity
  8
0-C_ハッチ
  6
Continuous
 62
   120
370
     5
100
AcDbLine
 10
-1823.799562196474
 20
2649.441753349232
 30
0.0
 11
-2030.299770045925
 21
2458.237857192331
 31
0.0
  0
LINE
  5
2D9
330
1F
100
AcDbEntity
  8
0-C_ハッチ
  6
Continuous
 62
   120
370
     5
100
AcDbLine
 10
-1823.799562196474
 20
2615.370698732614
 30
0.0
 11
-2030.299770045925
 21
2424.166802575713
 31
0.0
  0
LINE
  5
2DA
330
1F
100
AcDbEntity
  8
0-C_ハッチ
  6
Continuous
 62
   120
370
     5
100
AcDbLine
 10
-1823.799562196474
 20
2581.299644115994
 30
0.0
 11
-2030.299770045925
 21
2390.095747959093
 31
0.0
  0
LINE
  5
2DB
330
1F
100
AcDbEntity
  8
0-C_ハッチ
  6
Continuous
 62
   120
370
     5
100
AcDbLine
 10
-1823.799562196474
 20
2547.228589499377
 30
0.0
 11
-2030.299770045925
 21
2356.024693342475
 31
0.0
  0
LINE
  5
2DC
330
1F
100
AcDbEntity
  8
0-C_ハッチ
  6
Continuous
 62
   120
370
     5
100
AcDbLine
 10
-1823.799562196474
 20
2513.157534882757
 30
0.0
 11
-2030.299770045925
 21
2321.953638725857
 31
0.0
  0
LINE
  5
2DD
330
1F
100
AcDbEntity
  8
0-C_ハッチ
  6
Continuous
 62
   120
370
     5
100
AcDbLine
 10
-1823.799562196474
 20
2479.086480266139
 30
0.0
 11
-2030.299770045925
 21
2287.882584109238
 31
0.0
  0
LINE
  5
2DE
330
1F
100
AcDbEntity
  8
0-C_ハッチ
  6
Continuous
 62
   120
370
     5
100
AcDbLine
 10
-1823.799562196474
 20
2853.868081048945
 30
0.0
 11
-2030.299770045925
 21
2662.664184892044
 31
0.0
  0
LINE
  5
2DF
330
1F
100
AcDbEntity
  8
0-C_ハッチ
  6
Continuous
 62
   120
370
     5
100
AcDbLine
 10
-1823.799562196474
 20
2819.797026432327
 30
0.0
 11
-2030.299770045925
 21
2628.593130275426
 31
0.0
  0
LINE
  5
2E0
330
1F
100
AcDbEntity
  8
0-C_ハッチ
  6
Continuous
 62
   120
370
     5
100
AcDbLine
 10
-2120.299770045925
 20
2545.259796942091
 30
0.0
 11
-2269.654255066462
 21
2406.968607108259
 31
0.0
  0
LINE
  5
2E1
330
1F
100
AcDbEntity
  8
0-C_ハッチ
  6
Continuous
 62
   120
370
     5
100
AcDbLine
 10
-2120.299770045925
 20
2443.046633092235
 30
0.0
 11
-2320.149902181861
 21
2258.000214447848
 31
0.0
  0
LINE
  5
2E2
330
1F
100
AcDbEntity
  8
0-C_ハッチ
  6
Continuous
 62
   120
370
     5
100
AcDbLine
 10
-2120.299770045925
 20
2272.691360009141
 30
0.0
 11
-2136.166207252121
 21
2258.000214447848
 31
0.0
  0
LINE
  5
2E3
330
1F
100
AcDbEntity
  8
0-C_ハッチ
  6
Continuous
 62
   120
370
     5
100
AcDbLine
 10
-2120.299770045925
 20
2408.975578475616
 30
0.0
 11
-2283.353163195914
 21
2258.000214447848
 31
0.0
  0
LINE
  5
2E4
330
1F
100
AcDbEntity
  8
0-C_ハッチ
  6
Continuous
 62
   120
370
     5
100
AcDbLine
 10
-2120.299770045925
 20
2374.904523858997
 30
0.0
 11
-2246.556424209964
 21
2258.000214447848
 31
0.0
  0
LINE
  5
2E5
330
1F
100
AcDbEntity
  8
0-C_ハッチ
  6
Continuous
 62
   120
370
     5
100
AcDbLine
 10
-2120.299770045925
 20
2340.833469242379
 30
0.0
 11
-2209.759685224017
 21
2258.000214447848
 31
0.0
  0
LINE
  5
2E6
330
1F
100
AcDbEntity
  8
0-C_ハッチ
  6
Continuous
 62
   120
370
     5
100
AcDbLine
 10
-2120.299770045925
 20
2306.762414625759
 30
0.0
 11
-2172.962946238068
 21
2258.000214447848
 31
0.0
  0
LINE
  5
2E7
330
1F
100
AcDbEntity
  8
0-C_ハッチ
  6
Continuous
 62
   120
370
     5
100
AcDbLine
 10
-1823.799562196474
 20
2445.01542564952
 30
0.0
 11
-2025.775990294278
 21
2258.000214447848
 31
0.0
  0
LINE
  5
2E8
330
1F
100
AcDbEntity
  8
0-C_ハッチ
  6
Continuous
 62
   120
370
     5
100
AcDbLine
 10
-1823.799562196474
 20
2274.660152566425
 30
0.0
 11
-1841.792295364537
 21
2258.000214447848
 31
0.0
  0
LINE
  5
2E9
330
1F
100
AcDbEntity
  8
0-C_ハッチ
  6
Continuous
 62
   120
370
     5
100
AcDbLine
 10
-1823.799562196474
 20
2410.944371032901
 30
0.0
 11
-1988.97925130833
 21
2258.000214447848
 31
0.0
  0
LINE
  5
2EA
330
1F
100
AcDbEntity
  8
0-C_ハッチ
  6
Continuous
 62
   120
370
     5
100
AcDbLine
 10
-1823.799562196474
 20
2376.873316416282
 30
0.0
 11
-1952.182512322382
 21
2258.000214447848
 31
0.0
  0
LINE
  5
2EB
330
1F
100
AcDbEntity
  8
0-C_ハッチ
  6
Continuous
 62
   120
370
     5
100
AcDbLine
 10
-1823.799562196474
 20
2342.802261799663
 30
0.0
 11
-1915.385773336433
 21
2258.000214447848
 31
0.0
  0
LINE
  5
2EC
330
1F
100
AcDbEntity
  8
0-C_ハッチ
  6
Continuous
 62
   120
370
     5
100
AcDbLine
 10
-1823.799562196474
 20
2308.731207183044
 30
0.0
 11
-1878.589034350486
 21
2258.000214447848
 31
0.0
  0
LINE
  5
2ED
330
1F
100
AcDbEntity
  8
0-C_ハッチ
  6
Continuous
 62
   120
370
     5
100
AcDbLine
 10
-2120.299770045925
 20
2579.33085155871
 30
0.0
 11
-2305.878159257831
 21
2407.499009695831
 31
0.0
  0
LINE
  5
2EE
330
1F
100
AcDbEntity
  8
0-C_ハッチ
  6
Continuous
 62
   120
370
     5
100
AcDbLine
 10
-27.0555944007364
 20
3303.000197951859
 30
0.0
 11
-95.20005509660021
 21
3239.903475085318
 31
0.0
  0
LINE
  5
2EF
330
1F
100
AcDbEntity
  8
0-C_ハッチ
  6
Continuous
 62
   120
370
     5
100
AcDbLine
 10
9.741144585210883
 20
3303.000197951859
 30
0.0
 11
-95.20005509660021
 21
3205.8324204687
 31
0.0
  0
LINE
  5
2F0
330
1F
100
AcDbEntity
  8
0-C_ハッチ
  6
Continuous
 62
   120
370
     5
100
AcDbLine
 10
46.53788357115902
 20
3303.000197951859
 30
0.0
 11
-95.20005509660021
 21
3171.76136585208
 31
0.0
  0
LINE
  5
2F1
330
1F
100
AcDbEntity
  8
0-C_ハッチ
  6
Continuous
 62
   120
370
     5
100
AcDbLine
 10
83.33462255710717
 20
3303.000197951859
 30
0.0
 11
-95.20005509660021
 21
3137.690311235462
 31
0.0
  0
LINE
  5
2F2
330
1F
100
AcDbEntity
  8
0-C_ハッチ
  6
Continuous
 62
   120
370
     5
100
AcDbLine
 10
-63.85233338668454
 20
3303.000197951859
 30
0.0
 11
-95.20005509660021
 21
3273.974529701937
 31
0.0
  0
LINE
  5
2F3
330
1F
100
AcDbEntity
  8
0-C_ハッチ
  6
Continuous
 62
   120
370
     5
100
AcDbLine
 10
-52.6000214341556
 20
2393.500530666603
 30
0.0
 11
-95.20005509660021
 21
2354.056055053228
 31
0.0
  0
LINE
  5
2F4
330
1F
100
AcDbEntity
  8
0-C_ハッチ
  6
Continuous
 62
   120
370
     5
100
AcDbLine
 10
2204.544532948292
 20
3303.000197951859
 30
0.0
 11
2136.400072252428
 21
3239.903475085318
 31
0.0
  0
LINE
  5
2F5
330
1F
100
AcDbEntity
  8
0-C_ハッチ
  6
Continuous
 62
   120
370
     5
100
AcDbLine
 10
2241.341271934239
 20
3303.000197951859
 30
0.0
 11
2136.400072252428
 21
3205.8324204687
 31
0.0
  0
LINE
  5
2F6
330
1F
100
AcDbEntity
  8
0-C_ハッチ
  6
Continuous
 62
   120
370
     5
100
AcDbLine
 10
2278.138010920187
 20
3303.000197951859
 30
0.0
 11
2136.400072252428
 21
3171.76136585208
 31
0.0
  0
LINE
  5
2F7
330
1F
100
AcDbEntity
  8
0-C_ハッチ
  6
Continuous
 62
   120
370
     5
100
AcDbLine
 10
2314.934749906135
 20
3303.000197951859
 30
0.0
 11
2136.400072252428
 21
3137.690311235462
 31
0.0
  0
LINE
  5
2F8
330
1F
100
AcDbEntity
  8
0-C_ハッチ
  6
Continuous
 62
   120
370
     5
100
AcDbLine
 10
2167.747793962344
 20
3303.000197951859
 30
0.0
 11
2136.400072252428
 21
3273.974529701937
 31
0.0
  0
LINE
  5
2F9
330
1F
100
AcDbEntity
  8
0-C_ハッチ
  6
Continuous
 62
   120
370
     5
100
AcDbLine
 10
2179.000105914873
 20
2393.500530666603
 30
0.0
 11
2136.400072252428
 21
2354.056055053228
 31
0.0
  0
LINE
  5
2FA
330
1F
100
AcDbEntity
  8
0-2_扉
  6
Continuous
 62
     7
370
     9
100
AcDbLine
 10
2136.400204220334
 20
1443.000247439822
 30
0.0
 11
2136.400204220334
 21
2393.502225352924
 31
0.0
  0
LINE
  5
2FB
330
1F
100
AcDbEntity
  8
0-2_扉
  6
Continuous
 62
     7
370
     9
100
AcDbLine
 10
2136.400204220334
 20
2407.498224823324
 30
0.0
 11
2136.400204220334
 21
3438.000395903718
 31
0.0
  0
LINE
  5
2FC
330
1F
100
AcDbEntity
  8
0-2_扉
  6
Continuous
 62
     7
370
     9
100
AcDbLine
 10
-95.19992312869437
 20
1443.000247439822
 30
0.0
 11
-95.19992312869437
 21
2393.502225352924
 31
0.0
  0
LINE
  5
2FD
330
1F
100
AcDbEntity
  8
0-2_扉
  6
Continuous
 62
     7
370
     9
100
AcDbLine
 10
-95.19992312869437
 20
2407.498277034708
 30
0.0
 11
-95.19992312869437
 21
3438.000395903718
 31
0.0
  0
LINE
  5
2FE
330
1F
100
AcDbEntity
  8
0-2_扉
  6
Continuous
 62
     7
370
     9
100
AcDbLine
 10
-95.19992312869417
 20
2258.000214447847
 30
0.0
 11
-95.19992312869417
 21
2393.502225352924
 31
0.0
  0
LINE
  5
2FF
330
1F
100
AcDbEntity
  8
0-2_扉
  6
Continuous
 62
     7
370
     9
100
AcDbLine
 10
-2326.799679317989
 20
1443.000247439822
 30
0.0
 11
-2326.799679317989
 21
2393.502226251151
 31
0.0
  0
LINE
  5
300
330
1F
100
AcDbEntity
  8
0-2_扉
  6
Continuous
 62
     7
370
     9
100
AcDbLine
 10
-2326.799679317989
 20
2407.498277034708
 30
0.0
 11
-2326.799679317989
 21
3438.000395903718
 31
0.0
  0
LINE
  5
301
330
1F
100
AcDbEntity
  8
0-2_扉
  6
Continuous
 62
     7
370
     9
100
AcDbLine
 10
-4558.399806667019
 20
1442.999999999999
 30
0.0
 11
-4558.399806667019
 21
2393.5019779131
 31
0.0
  0
LINE
  5
302
330
1F
100
AcDbEntity
  8
0-2_扉
  6
Continuous
 62
     7
370
     9
100
AcDbLine
 10
-4558.399806667019
 20
2407.498029594885
 30
0.0
 11
-4558.399806667019
 21
3438.000148463894
 31
0.0
  0
LINE
  5
303
330
1F
100
AcDbEntity
  8
0-C_ハッチ
  6
Continuous
 62
   120
370
     5
100
AcDbLine
 10
-4316.899897394955
 20
2305.098519976726
 30
0.0
 11
-4367.766334601151
 21
2257.999967008025
 31
0.0
  0
LINE
  5
304
330
1F
100
AcDbEntity
  8
0-C_ハッチ
  6
Continuous
 62
   120
370
     5
100
AcDbLine
 10
-4316.899897394955
 20
3293.159103858673
 30
0.0
 11
-4558.399938634926
 21
3069.547954562401
 31
0.0
  0
LINE
  5
305
330
1F
100
AcDbEntity
  8
0-C_ハッチ
  6
Continuous
 62
   120
370
     5
100
AcDbLine
 10
-4316.899897394955
 20
3259.088049242054
 30
0.0
 11
-4558.399938634926
 21
3035.476899945783
 31
0.0
  0
LINE
  5
306
330
1F
100
AcDbEntity
  8
0-C_ハッチ
  6
Continuous
 62
   120
370
     5
100
AcDbLine
 10
-4316.899897394955
 20
3225.016994625435
 30
0.0
 11
-4558.399938634926
 21
3001.405845329164
 31
0.0
  0
LINE
  5
307
330
1F
100
AcDbEntity
  8
0-C_ハッチ
  6
Continuous
 62
   120
370
     5
100
AcDbLine
 10
-4316.899897394955
 20
3190.945940008816
 30
0.0
 11
-4558.399938634926
 21
2967.334790712545
 31
0.0
  0
LINE
  5
308
330
1F
100
AcDbEntity
  8
0-C_ハッチ
  6
Continuous
 62
   120
370
     5
100
AcDbLine
 10
-4316.899897394955
 20
3156.874885392198
 30
0.0
 11
-4558.399938634926
 21
2933.263736095926
 31
0.0
  0
LINE
  5
309
330
1F
100
AcDbEntity
  8
0-C_ハッチ
  6
Continuous
 62
   120
370
     5
100
AcDbLine
 10
-4316.899897394955
 20
3122.803830775579
 30
0.0
 11
-4558.399938634926
 21
2899.192681479307
 31
0.0
  0
LINE
  5
30A
330
1F
100
AcDbEntity
  8
0-C_ハッチ
  6
Continuous
 62
   120
370
     5
100
AcDbLine
 10
-4316.899897394955
 20
3088.73277615896
 30
0.0
 11
-4558.399938634926
 21
2865.121626862688
 31
0.0
  0
LINE
  5
30B
330
1F
100
AcDbEntity
  8
0-C_ハッチ
  6
Continuous
 62
   120
370
     5
100
AcDbLine
 10
-4316.899897394955
 20
3054.661721542341
 30
0.0
 11
-4558.399938634926
 21
2831.050572246069
 31
0.0
  0
LINE
  5
30C
330
1F
100
AcDbEntity
  8
0-C_ハッチ
  6
Continuous
 62
   120
370
     5
100
AcDbLine
 10
-4316.899897394955
 20
3020.590666925722
 30
0.0
 11
-4558.399938634926
 21
2796.979517629451
 31
0.0
  0
LINE
  5
30D
330
1F
100
AcDbEntity
  8
0-C_ハッチ
  6
Continuous
 62
   120
370
     5
100
AcDbLine
 10
-4316.899897394955
 20
2986.519612309104
 30
0.0
 11
-4558.399938634926
 21
2762.908463012832
 31
0.0
  0
LINE
  5
30E
330
1F
100
AcDbEntity
  8
0-C_ハッチ
  6
Continuous
 62
   120
370
     5
100
AcDbLine
 10
-4316.899897394955
 20
2952.448557692484
 30
0.0
 11
-4558.399938634926
 21
2728.837408396213
 31
0.0
  0
LINE
  5
30F
330
1F
100
AcDbEntity
  8
0-C_ハッチ
  6
Continuous
 62
   120
370
     5
100
AcDbLine
 10
-4316.899897394955
 20
2918.377503075866
 30
0.0
 11
-4558.399938634926
 21
2694.766353779594
 31
0.0
  0
LINE
  5
310
330
1F
100
AcDbEntity
  8
0-C_ハッチ
  6
Continuous
 62
   120
370
     5
100
AcDbLine
 10
-4316.899897394955
 20
2884.306448459246
 30
0.0
 11
-4558.399938634926
 21
2660.695299162976
 31
0.0
  0
LINE
  5
311
330
1F
100
AcDbEntity
  8
0-C_ハッチ
  6
Continuous
 62
   120
370
     5
100
AcDbLine
 10
-4316.899897394955
 20
2850.235393842628
 30
0.0
 11
-4558.399938634926
 21
2626.624244546357
 31
0.0
  0
LINE
  5
312
330
1F
100
AcDbEntity
  8
0-C_ハッチ
  6
Continuous
 62
   120
370
     5
100
AcDbLine
 10
-4316.899897394955
 20
2816.164339226008
 30
0.0
 11
-4558.399938634926
 21
2592.553189929738
 31
0.0
  0
LINE
  5
313
330
1F
100
AcDbEntity
  8
0-C_ハッチ
  6
Continuous
 62
   120
370
     5
100
AcDbLine
 10
-4316.899897394955
 20
2782.093284609391
 30
0.0
 11
-4558.399938634926
 21
2558.482135313119
 31
0.0
  0
LINE
  5
314
330
1F
100
AcDbEntity
  8
0-C_ハッチ
  6
Continuous
 62
   120
370
     5
100
AcDbLine
 10
-4316.899897394955
 20
2748.022229992771
 30
0.0
 11
-4558.399938634926
 21
2524.411080696499
 31
0.0
  0
LINE
  5
315
330
1F
100
AcDbEntity
  8
0-C_ハッチ
  6
Continuous
 62
   120
370
     5
100
AcDbLine
 10
-4316.899897394955
 20
2713.951175376153
 30
0.0
 11
-4558.399938634926
 21
2490.340026079881
 31
0.0
  0
LINE
  5
316
330
1F
100
AcDbEntity
  8
0-C_ハッチ
  6
Continuous
 62
   120
370
     5
100
AcDbLine
 10
-4316.899897394955
 20
2679.880120759532
 30
0.0
 11
-4558.399938634926
 21
2456.268971463261
 31
0.0
  0
LINE
  5
317
330
1F
100
AcDbEntity
  8
0-C_ハッチ
  6
Continuous
 62
   120
370
     5
100
AcDbLine
 10
-4316.899897394955
 20
2645.809066142915
 30
0.0
 11
-4558.399938634926
 21
2422.197916846643
 31
0.0
  0
LINE
  5
318
330
1F
100
AcDbEntity
  8
0-C_ハッチ
  6
Continuous
 62
   120
370
     5
100
AcDbLine
 10
-4316.899897394955
 20
2543.595902293058
 30
0.0
 11
-4558.399938634926
 21
2319.984752996786
 31
0.0
  0
LINE
  5
319
330
1F
100
AcDbEntity
  8
0-C_ハッチ
  6
Continuous
 62
   120
370
     5
100
AcDbLine
 10
-4316.899897394955
 20
2509.52484767644
 30
0.0
 11
-4558.399938634926
 21
2285.913698380168
 31
0.0
  0
LINE
  5
31A
330
1F
100
AcDbEntity
  8
0-C_ハッチ
  6
Continuous
 62
   120
370
     5
100
AcDbLine
 10
-4316.899897394955
 20
2577.666956909677
 30
0.0
 11
-4501.254382415493
 21
2406.968359668436
 31
0.0
  0
LINE
  5
31B
330
1F
100
AcDbEntity
  8
0-C_ハッチ
  6
Continuous
 62
   120
370
     5
100
AcDbLine
 10
-4316.899897394955
 20
2475.45379305982
 30
0.0
 11
-4551.750029530892
 21
2257.999967008025
 31
0.0
  0
LINE
  5
31C
330
1F
100
AcDbEntity
  8
0-C_ハッチ
  6
Continuous
 62
   120
370
     5
100
AcDbLine
 10
-4316.899897394955
 20
2441.382738443202
 30
0.0
 11
-4514.953290544944
 21
2257.999967008025
 31
0.0
  0
LINE
  5
31D
330
1F
100
AcDbEntity
  8
0-C_ハッチ
  6
Continuous
 62
   120
370
     5
100
AcDbLine
 10
-4316.899897394955
 20
2407.311683826583
 30
0.0
 11
-4478.156551558995
 21
2257.999967008025
 31
0.0
  0
LINE
  5
31E
330
1F
100
AcDbEntity
  8
0-C_ハッチ
  6
Continuous
 62
   120
370
     5
100
AcDbLine
 10
-4316.899897394955
 20
2373.240629209964
 30
0.0
 11
-4441.359812573048
 21
2257.999967008025
 31
0.0
  0
LINE
  5
31F
330
1F
100
AcDbEntity
  8
0-C_ハッチ
  6
Continuous
 62
   120
370
     5
100
AcDbLine
 10
-4316.899897394955
 20
2339.169574593345
 30
0.0
 11
-4404.563073587099
 21
2257.999967008025
 31
0.0
  0
LINE
  5
320
330
1F
100
AcDbEntity
  8
0-C_ハッチ
  6
Continuous
 62
   120
370
     5
100
AcDbLine
 10
-4343.06852199527
 20
3302.999950512036
 30
0.0
 11
-4558.399938634926
 21
3103.61900917902
 31
0.0
  0
LINE
  5
321
330
1F
100
AcDbEntity
  8
0-C_ハッチ
  6
Continuous
 62
   120
370
     5
100
AcDbLine
 10
-4316.899897394955
 20
2611.738011526295
 30
0.0
 11
-4537.478286606863
 21
2407.498762256007
 31
0.0
  0
LINE
  5
322
330
1F
100
AcDbEntity
  8
0-C_ハッチ
  6
Continuous
 62
   120
370
     5
100
AcDbLine
 10
-4552.594962182709
 20
2393.501840426521
 30
0.0
 11
-4558.399806667019
 21
2388.126984422528
 31
0.0
  0
LINE
  5
323
330
1F
100
AcDbEntity
  8
0-C_ハッチ
  6
Continuous
 62
   120
370
     5
100
AcDbLine
 10
-4316.899897394955
 20
2271.027465360107
 30
0.0
 11
-4330.969862850212
 21
2257.999719568202
 31
0.0
  0
LINE
  5
324
330
1F
100
AcDbEntity
  8
0-C_ハッチ
  6
Continuous
 62
   120
370
     5
100
AcDbLine
 10
-4195.881566051478
 20
3302.999950512036
 30
0.0
 11
-4226.899897394955
 21
3274.279273342151
 31
0.0
  0
LINE
  5
325
330
1F
100
AcDbEntity
  8
0-C_ハッチ
  6
Continuous
 62
   120
370
     5
100
AcDbLine
 10
-4159.084827065531
 20
3302.999950512036
 30
0.0
 11
-4226.899897394955
 21
3240.208218725532
 31
0.0
  0
LINE
  5
326
330
1F
100
AcDbEntity
  8
0-C_ハッチ
  6
Continuous
 62
   120
370
     5
100
AcDbLine
 10
-4122.288088079582
 20
3302.999950512036
 30
0.0
 11
-4226.899897394955
 21
3206.137164108913
 31
0.0
  0
LINE
  5
327
330
1F
100
AcDbEntity
  8
0-C_ハッチ
  6
Continuous
 62
   120
370
     5
100
AcDbLine
 10
-4085.491349093635
 20
3302.999950512036
 30
0.0
 11
-4226.899897394955
 21
3172.066109492294
 31
0.0
  0
LINE
  5
328
330
1F
100
AcDbEntity
  8
0-C_ハッチ
  6
Continuous
 62
   120
370
     5
100
AcDbLine
 10
-3985.399821513407
 20
2339.474597748913
 30
0.0
 11
-4073.392422713568
 21
2257.999967008025
 31
0.0
  0
LINE
  5
329
330
1F
100
AcDbEntity
  8
0-C_ハッチ
  6
Continuous
 62
   120
370
     5
100
AcDbLine
 10
-3985.399821513407
 20
2475.75881621539
 30
0.0
 11
-4220.57937865736
 21
2257.999967008025
 31
0.0
  0
LINE
  5
32A
330
1F
100
AcDbEntity
  8
0-C_ハッチ
  6
Continuous
 62
   120
370
     5
100
AcDbLine
 10
-3985.399821513407
 20
2441.687761598771
 30
0.0
 11
-4183.782639671413
 21
2257.999967008025
 31
0.0
  0
LINE
  5
32B
330
1F
100
AcDbEntity
  8
0-C_ハッチ
  6
Continuous
 62
   120
370
     5
100
AcDbLine
 10
-3985.399821513407
 20
2407.616706982153
 30
0.0
 11
-4146.985900685464
 21
2257.999967008025
 31
0.0
  0
LINE
  5
32C
330
1F
100
AcDbEntity
  8
0-C_ハッチ
  6
Continuous
 62
   120
370
     5
100
AcDbLine
 10
-3985.399821513407
 20
2373.545652365533
 30
0.0
 11
-4110.189161699516
 21
2257.999967008025
 31
0.0
  0
LINE
  5
32D
330
1F
100
AcDbEntity
  8
0-C_ハッチ
  6
Continuous
 62
   120
370
     5
100
AcDbLine
 10
-3985.399821513407
 20
2509.829870832009
 30
0.0
 11
-4226.899897394955
 21
2286.218689460204
 31
0.0
  0
LINE
  5
32E
330
1F
100
AcDbEntity
  8
0-C_ハッチ
  6
Continuous
 62
   120
370
     5
100
AcDbLine
 10
-3985.399821513407
 20
3293.464127014242
 30
0.0
 11
-4226.899897394955
 21
3069.852945642437
 31
0.0
  0
LINE
  5
32F
330
1F
100
AcDbEntity
  8
0-C_ハッチ
  6
Continuous
 62
   120
370
     5
100
AcDbLine
 10
-3985.399821513407
 20
3259.393072397624
 30
0.0
 11
-4226.899897394955
 21
3035.781891025818
 31
0.0
  0
LINE
  5
330
330
1F
100
AcDbEntity
  8
0-C_ハッチ
  6
Continuous
 62
   120
370
     5
100
AcDbLine
 10
-3985.399821513407
 20
3225.322017781005
 30
0.0
 11
-4226.899897394955
 21
3001.7108364092
 31
0.0
  0
LINE
  5
331
330
1F
100
AcDbEntity
  8
0-C_ハッチ
  6
Continuous
 62
   120
370
     5
100
AcDbLine
 10
-3985.399821513407
 20
3191.250963164386
 30
0.0
 11
-4226.899897394955
 21
2967.639781792581
 31
0.0
  0
LINE
  5
332
330
1F
100
AcDbEntity
  8
0-C_ハッチ
  6
Continuous
 62
   120
370
     5
100
AcDbLine
 10
-3985.399821513407
 20
3157.179908547767
 30
0.0
 11
-4226.899897394955
 21
2933.568727175962
 31
0.0
  0
LINE
  5
333
330
1F
100
AcDbEntity
  8
0-C_ハッチ
  6
Continuous
 62
   120
370
     5
100
AcDbLine
 10
-3985.399821513407
 20
3123.108853931148
 30
0.0
 11
-4226.899897394955
 21
2899.497672559343
 31
0.0
  0
LINE
  5
334
330
1F
100
AcDbEntity
  8
0-C_ハッチ
  6
Continuous
 62
   120
370
     5
100
AcDbLine
 10
-3985.399821513407
 20
3089.037799314529
 30
0.0
 11
-4226.899897394955
 21
2865.426617942724
 31
0.0
  0
LINE
  5
335
330
1F
100
AcDbEntity
  8
0-C_ハッチ
  6
Continuous
 62
   120
370
     5
100
AcDbLine
 10
-3985.399821513407
 20
3054.96674469791
 30
0.0
 11
-4226.899897394955
 21
2831.355563326105
 31
0.0
  0
LINE
  5
336
330
1F
100
AcDbEntity
  8
0-C_ハッチ
  6
Continuous
 62
   120
370
     5
100
AcDbLine
 10
-3985.399821513407
 20
3020.895690081292
 30
0.0
 11
-4226.899897394955
 21
2797.284508709487
 31
0.0
  0
LINE
  5
337
330
1F
100
AcDbEntity
  8
0-C_ハッチ
  6
Continuous
 62
   120
370
     5
100
AcDbLine
 10
-3985.399821513407
 20
2986.824635464673
 30
0.0
 11
-4226.899897394955
 21
2763.213454092867
 31
0.0
  0
LINE
  5
338
330
1F
100
AcDbEntity
  8
0-C_ハッチ
  6
Continuous
 62
   120
370
     5
100
AcDbLine
 10
-3985.399821513407
 20
2952.753580848054
 30
0.0
 11
-4226.899897394955
 21
2729.142399476249
 31
0.0
  0
LINE
  5
339
330
1F
100
AcDbEntity
  8
0-C_ハッチ
  6
Continuous
 62
   120
370
     5
100
AcDbLine
 10
-3985.399821513407
 20
2850.540416998197
 30
0.0
 11
-4226.899897394955
 21
2626.929235626392
 31
0.0
  0
LINE
  5
33A
330
1F
100
AcDbEntity
  8
0-C_ハッチ
  6
Continuous
 62
   120
370
     5
100
AcDbLine
 10
-3985.399821513407
 20
2816.469362381579
 30
0.0
 11
-4226.899897394955
 21
2592.858181009773
 31
0.0
  0
LINE
  5
33B
330
1F
100
AcDbEntity
  8
0-C_ハッチ
  6
Continuous
 62
   120
370
     5
100
AcDbLine
 10
-3985.399821513407
 20
2782.39830776496
 30
0.0
 11
-4226.899897394955
 21
2558.787126393154
 31
0.0
  0
LINE
  5
33C
330
1F
100
AcDbEntity
  8
0-C_ハッチ
  6
Continuous
 62
   120
370
     5
100
AcDbLine
 10
-3985.399821513407
 20
2748.327253148341
 30
0.0
 11
-4226.899897394955
 21
2524.716071776536
 31
0.0
  0
LINE
  5
33D
330
1F
100
AcDbEntity
  8
0-C_ハッチ
  6
Continuous
 62
   120
370
     5
100
AcDbLine
 10
-3985.399821513407
 20
2714.256198531722
 30
0.0
 11
-4226.899897394955
 21
2490.645017159917
 31
0.0
  0
LINE
  5
33E
330
1F
100
AcDbEntity
  8
0-C_ハッチ
  6
Continuous
 62
   120
370
     5
100
AcDbLine
 10
-3985.399821513407
 20
2680.185143915103
 30
0.0
 11
-4226.899897394955
 21
2456.573962543298
 31
0.0
  0
LINE
  5
33F
330
1F
100
AcDbEntity
  8
0-C_ハッチ
  6
Continuous
 62
   120
370
     5
100
AcDbLine
 10
-3985.399821513407
 20
2646.114089298484
 30
0.0
 11
-4226.899897394955
 21
2422.502907926679
 31
0.0
  0
LINE
  5
340
330
1F
100
AcDbEntity
  8
0-C_ハッチ
  6
Continuous
 62
   120
370
     5
100
AcDbLine
 10
-3985.399821513407
 20
2612.043034681866
 30
0.0
 11
-4226.899897394955
 21
2388.43185331006
 31
0.0
  0
LINE
  5
341
330
1F
100
AcDbEntity
  8
0-C_ハッチ
  6
Continuous
 62
   120
370
     5
100
AcDbLine
 10
-3985.399821513407
 20
2577.971980065247
 30
0.0
 11
-4226.899897394955
 21
2354.360798693442
 31
0.0
  0
LINE
  5
342
330
1F
100
AcDbEntity
  8
0-C_ハッチ
  6
Continuous
 62
   120
370
     5
100
AcDbLine
 10
-3985.399821513407
 20
2543.900925448628
 30
0.0
 11
-4226.899897394955
 21
2320.289744076823
 31
0.0
  0
LINE
  5
343
330
1F
100
AcDbEntity
  8
0-C_ハッチ
  6
Continuous
 62
   120
370
     5
100
AcDbLine
 10
-3985.399821513407
 20
2918.682526231435
 30
0.0
 11
-4226.899897394955
 21
2695.071344859629
 31
0.0
  0
LINE
  5
344
330
1F
100
AcDbEntity
  8
0-C_ハッチ
  6
Continuous
 62
   120
370
     5
100
AcDbLine
 10
-3985.399821513407
 20
2884.611471614816
 30
0.0
 11
-4226.899897394955
 21
2661.000290243011
 31
0.0
  0
LINE
  5
345
330
1F
100
AcDbEntity
  8
0-C_ハッチ
  6
Continuous
 62
   120
370
     5
100
AcDbLine
 10
-4048.694610107686
 20
3302.999950512036
 30
0.0
 11
-4226.899897394955
 21
3137.995054875675
 31
0.0
  0
LINE
  5
346
330
1F
100
AcDbEntity
  8
0-C_ハッチ
  6
Continuous
 62
   120
370
     5
100
AcDbLine
 10
-4011.897871121738
 20
3302.999950512036
 30
0.0
 11
-4226.899897394955
 21
3103.924000259056
 31
0.0
  0
LINE
  5
347
330
1F
100
AcDbEntity
  8
0-C_ハッチ
  6
Continuous
 62
   120
370
     5
100
AcDbLine
 10
-3985.399821513407
 20
2271.332488515677
 30
0.0
 11
-3999.79921197668
 21
2257.999719568202
 31
0.0
  0
LINE
  5
348
330
1F
100
AcDbEntity
  8
0-C_ハッチ
  6
Continuous
 62
   120
370
     5
100
AcDbLine
 10
-3985.399821513407
 20
2305.403543132295
 30
0.0
 11
-4036.595950962628
 21
2257.999719568202
 31
0.0
  0
LINE
  5
349
330
1F
100
AcDbEntity
  8
0-C_ハッチ
  6
Continuous
 62
   120
370
     5
100
AcDbLine
 10
101.3000768713059
 20
3285.563823255794
 30
0.0
 11
-95.20005509660021
 21
3103.619256618842
 31
0.0
  0
LINE
  5
34A
330
1F
100
AcDbEntity
  8
0-C_ハッチ
  6
Continuous
 62
   120
370
     5
100
AcDbLine
 10
101.3000768713059
 20
2263.432184757229
 30
0.0
 11
95.43354893717381
 21
2258.000214447848
 31
0.0
  0
LINE
  5
34B
330
1F
100
AcDbEntity
  8
0-C_ハッチ
  6
Continuous
 62
   120
370
     5
100
AcDbLine
 10
101.3000768713059
 20
3251.492768639176
 30
0.0
 11
-95.20005509660021
 21
3069.548202002224
 31
0.0
  0
LINE
  5
34C
330
1F
100
AcDbEntity
  8
0-C_ハッチ
  6
Continuous
 62
   120
370
     5
100
AcDbLine
 10
101.3000768713059
 20
3217.421714022557
 30
0.0
 11
-95.20005509660021
 21
3035.477147385605
 31
0.0
  0
LINE
  5
34D
330
1F
100
AcDbEntity
  8
0-C_ハッチ
  6
Continuous
 62
   120
370
     5
100
AcDbLine
 10
101.3000768713059
 20
3183.350659405938
 30
0.0
 11
-95.20005509660021
 21
3001.406092768986
 31
0.0
  0
LINE
  5
34E
330
1F
100
AcDbEntity
  8
0-C_ハッチ
  6
Continuous
 62
   120
370
     5
100
AcDbLine
 10
101.3000768713059
 20
3149.279604789319
 30
0.0
 11
-95.20005509660021
 21
2967.335038152368
 31
0.0
  0
LINE
  5
34F
330
1F
100
AcDbEntity
  8
0-C_ハッチ
  6
Continuous
 62
   120
370
     5
100
AcDbLine
 10
101.3000768713059
 20
3115.208550172701
 30
0.0
 11
-95.20005509660021
 21
2933.263983535749
 31
0.0
  0
LINE
  5
350
330
1F
100
AcDbEntity
  8
0-C_ハッチ
  6
Continuous
 62
   120
370
     5
100
AcDbLine
 10
101.3000768713059
 20
3081.137495556082
 30
0.0
 11
-95.20005509660021
 21
2899.19292891913
 31
0.0
  0
LINE
  5
351
330
1F
100
AcDbEntity
  8
0-C_ハッチ
  6
Continuous
 62
   120
370
     5
100
AcDbLine
 10
101.3000768713059
 20
3047.066440939463
 30
0.0
 11
-95.20005509660021
 21
2865.121874302511
 31
0.0
  0
LINE
  5
352
330
1F
100
AcDbEntity
  8
0-C_ハッチ
  6
Continuous
 62
   120
370
     5
100
AcDbLine
 10
101.3000768713059
 20
3012.995386322844
 30
0.0
 11
-95.20005509660021
 21
2831.050819685892
 31
0.0
  0
LINE
  5
353
330
1F
100
AcDbEntity
  8
0-C_ハッチ
  6
Continuous
 62
   120
370
     5
100
AcDbLine
 10
101.3000768713059
 20
2978.924331706225
 30
0.0
 11
-95.20005509660021
 21
2796.979765069273
 31
0.0
  0
LINE
  5
354
330
1F
100
AcDbEntity
  8
0-C_ハッチ
  6
Continuous
 62
   120
370
     5
100
AcDbLine
 10
101.3000768713059
 20
2944.853277089606
 30
0.0
 11
-95.20005509660021
 21
2762.908710452654
 31
0.0
  0
LINE
  5
355
330
1F
100
AcDbEntity
  8
0-C_ハッチ
  6
Continuous
 62
   120
370
     5
100
AcDbLine
 10
101.3000768713059
 20
2910.782222472987
 30
0.0
 11
-95.20005509660021
 21
2728.837655836035
 31
0.0
  0
LINE
  5
356
330
1F
100
AcDbEntity
  8
0-C_ハッチ
  6
Continuous
 62
   120
370
     5
100
AcDbLine
 10
101.3000768713059
 20
2876.711167856369
 30
0.0
 11
-95.20005509660021
 21
2694.766601219417
 31
0.0
  0
LINE
  5
357
330
1F
100
AcDbEntity
  8
0-C_ハッチ
  6
Continuous
 62
   120
370
     5
100
AcDbLine
 10
101.3000768713059
 20
2842.64011323975
 30
0.0
 11
-95.20005509660021
 21
2660.695546602798
 31
0.0
  0
LINE
  5
358
330
1F
100
AcDbEntity
  8
0-C_ハッチ
  6
Continuous
 62
   120
370
     5
100
AcDbLine
 10
101.3000768713059
 20
2808.569058623131
 30
0.0
 11
-95.20005509660021
 21
2626.624491986179
 31
0.0
  0
LINE
  5
359
330
1F
100
AcDbEntity
  8
0-C_ハッチ
  6
Continuous
 62
   120
370
     5
100
AcDbLine
 10
101.3000768713059
 20
2774.498004006512
 30
0.0
 11
-95.20005509660021
 21
2592.55343736956
 31
0.0
  0
LINE
  5
35A
330
1F
100
AcDbEntity
  8
0-C_ハッチ
  6
Continuous
 62
   120
370
     5
100
AcDbLine
 10
101.3000768713059
 20
2740.426949389893
 30
0.0
 11
-95.20005509660021
 21
2558.482382752941
 31
0.0
  0
LINE
  5
35B
330
1F
100
AcDbEntity
  8
0-C_ハッチ
  6
Continuous
 62
   120
370
     5
100
AcDbLine
 10
101.3000768713059
 20
2706.355894773274
 30
0.0
 11
-95.20005509660021
 21
2524.411328136322
 31
0.0
  0
LINE
  5
35C
330
1F
100
AcDbEntity
  8
0-C_ハッチ
  6
Continuous
 62
   120
370
     5
100
AcDbLine
 10
101.3000768713059
 20
2672.284840156655
 30
0.0
 11
-95.20005509660021
 21
2490.340273519704
 31
0.0
  0
LINE
  5
35D
330
1F
100
AcDbEntity
  8
0-C_ハッチ
  6
Continuous
 62
   120
370
     5
100
AcDbLine
 10
101.3000768713059
 20
2638.213785540035
 30
0.0
 11
-95.20005509660021
 21
2456.269218903084
 31
0.0
  0
LINE
  5
35E
330
1F
100
AcDbEntity
  8
0-C_ハッチ
  6
Continuous
 62
   120
370
     5
100
AcDbLine
 10
101.3000768713059
 20
2604.142730923418
 30
0.0
 11
-95.20005509660021
 21
2422.198164286466
 31
0.0
  0
LINE
  5
35F
330
1F
100
AcDbEntity
  8
0-C_ハッチ
  6
Continuous
 62
   120
370
     5
100
AcDbLine
 10
101.3000768713059
 20
2501.929567073561
 30
0.0
 11
-95.20005509660021
 21
2319.985000436609
 31
0.0
  0
LINE
  5
360
330
1F
100
AcDbEntity
  8
0-C_ハッチ
  6
Continuous
 62
   120
370
     5
100
AcDbLine
 10
101.3000768713059
 20
2467.858512456942
 30
0.0
 11
-95.20005509660021
 21
2285.91394581999
 31
0.0
  0
LINE
  5
361
330
1F
100
AcDbEntity
  8
0-C_ハッチ
  6
Continuous
 62
   120
370
     5
100
AcDbLine
 10
101.3000768713059
 20
2536.00062169018
 30
0.0
 11
-38.05449887716717
 21
2406.968607108259
 31
0.0
  0
LINE
  5
362
330
1F
100
AcDbEntity
  8
0-C_ハッチ
  6
Continuous
 62
   120
370
     5
100
AcDbLine
 10
101.3000768713059
 20
2433.787457840323
 30
0.0
 11
-88.55014599256603
 21
2258.000214447848
 31
0.0
  0
LINE
  5
363
330
1F
100
AcDbEntity
  8
0-C_ハッチ
  6
Continuous
 62
   120
370
     5
100
AcDbLine
 10
101.3000768713059
 20
2399.716403223705
 30
0.0
 11
-51.75340700661875
 21
2258.000214447848
 31
0.0
  0
LINE
  5
364
330
1F
100
AcDbEntity
  8
0-C_ハッチ
  6
Continuous
 62
   120
370
     5
100
AcDbLine
 10
101.3000768713059
 20
2365.645348607085
 30
0.0
 11
-14.95666802066976
 21
2258.000214447848
 31
0.0
  0
LINE
  5
365
330
1F
100
AcDbEntity
  8
0-C_ハッチ
  6
Continuous
 62
   120
370
     5
100
AcDbLine
 10
101.3000768713059
 20
2331.574293990467
 30
0.0
 11
21.84007096527753
 21
2258.000214447848
 31
0.0
  0
LINE
  5
366
330
1F
100
AcDbEntity
  8
0-C_ハッチ
  6
Continuous
 62
   120
370
     5
100
AcDbLine
 10
101.3000768713059
 20
2297.503239373847
 30
0.0
 11
58.63680995122652
 21
2258.000214447848
 31
0.0
  0
LINE
  5
367
330
1F
100
AcDbEntity
  8
0-C_ハッチ
  6
Continuous
 62
   120
370
     5
100
AcDbLine
 10
101.3000768713059
 20
2570.071676306798
 30
0.0
 11
-74.27840306853622
 21
2407.499009695831
 31
0.0
  0
LINE
  5
368
330
1F
100
AcDbEntity
  8
0-C_ハッチ
  6
Continuous
 62
   120
370
     5
100
AcDbLine
 10
230.5215785008989
 20
3303.000197951859
 30
0.0
 11
191.3000768713061
 21
3266.683992739272
 31
0.0
  0
LINE
  5
369
330
1F
100
AcDbEntity
  8
0-C_ハッチ
  6
Continuous
 62
   120
370
     5
100
AcDbLine
 10
267.318317486847
 20
3303.000197951859
 30
0.0
 11
191.3000768713061
 21
3232.612938122654
 31
0.0
  0
LINE
  5
36A
330
1F
100
AcDbEntity
  8
0-C_ハッチ
  6
Continuous
 62
   120
370
     5
100
AcDbLine
 10
304.1150564727943
 20
3303.000197951859
 30
0.0
 11
191.3000768713061
 21
3198.541883506035
 31
0.0
  0
LINE
  5
36B
330
1F
100
AcDbEntity
  8
0-C_ハッチ
  6
Continuous
 62
   120
370
     5
100
AcDbLine
 10
340.9117954587429
 20
3303.000197951859
 30
0.0
 11
191.3000768713061
 21
3164.470828889417
 31
0.0
  0
LINE
  5
36C
330
1F
100
AcDbEntity
  8
0-C_ハッチ
  6
Continuous
 62
   120
370
     5
100
AcDbLine
 10
377.7085344446909
 20
3303.000197951859
 30
0.0
 11
191.3000768713061
 21
3130.399774272797
 31
0.0
  0
LINE
  5
36D
330
1F
100
AcDbEntity
  8
0-C_ハッチ
  6
Continuous
 62
   120
370
     5
100
AcDbLine
 10
387.8001362568636
 20
3278.273219087252
 30
0.0
 11
191.3000768713061
 21
3096.328719656178
 31
0.0
  0
LINE
  5
36E
330
1F
100
AcDbEntity
  8
0-C_ハッチ
  6
Continuous
 62
   120
370
     5
100
AcDbLine
 10
387.8001362568636
 20
2290.212635205306
 30
0.0
 11
353.0107218388091
 21
2258.000214447848
 31
0.0
  0
LINE
  5
36F
330
1F
100
AcDbEntity
  8
0-C_ハッチ
  6
Continuous
 62
   120
370
     5
100
AcDbLine
 10
387.8001362568636
 20
2426.496853671781
 30
0.0
 11
205.8237658950174
 21
2258.000214447848
 31
0.0
  0
LINE
  5
370
330
1F
100
AcDbEntity
  8
0-C_ハッチ
  6
Continuous
 62
   120
370
     5
100
AcDbLine
 10
387.8001362568636
 20
2392.425799055162
 30
0.0
 11
242.6205048809647
 21
2258.000214447848
 31
0.0
  0
LINE
  5
371
330
1F
100
AcDbEntity
  8
0-C_ハッチ
  6
Continuous
 62
   120
370
     5
100
AcDbLine
 10
387.8001362568636
 20
2358.354744438544
 30
0.0
 11
279.4172438669128
 21
2258.000214447848
 31
0.0
  0
LINE
  5
372
330
1F
100
AcDbEntity
  8
0-C_ハッチ
  6
Continuous
 62
   120
370
     5
100
AcDbLine
 10
387.8001362568636
 20
2324.283689821924
 30
0.0
 11
316.2139828528614
 21
2258.000214447848
 31
0.0
  0
LINE
  5
373
330
1F
100
AcDbEntity
  8
0-C_ハッチ
  6
Continuous
 62
   120
370
     5
100
AcDbLine
 10
387.8001362568636
 20
2460.5679082884
 30
0.0
 11
191.3000768713061
 21
2278.623408857327
 31
0.0
  0
LINE
  5
374
330
1F
100
AcDbEntity
  8
0-C_ハッチ
  6
Continuous
 62
   120
370
     5
100
AcDbLine
 10
387.8001362568636
 20
3244.202164470633
 30
0.0
 11
191.3000768713061
 21
3062.257665039559
 31
0.0
  0
LINE
  5
375
330
1F
100
AcDbEntity
  8
0-C_ハッチ
  6
Continuous
 62
   120
370
     5
100
AcDbLine
 10
387.8001362568636
 20
3210.131109854014
 30
0.0
 11
191.3000768713061
 21
3028.186610422941
 31
0.0
  0
LINE
  5
376
330
1F
100
AcDbEntity
  8
0-C_ハッチ
  6
Continuous
 62
   120
370
     5
100
AcDbLine
 10
387.8001362568636
 20
3176.060055237395
 30
0.0
 11
191.3000768713061
 21
2994.115555806322
 31
0.0
  0
LINE
  5
377
330
1F
100
AcDbEntity
  8
0-C_ハッチ
  6
Continuous
 62
   120
370
     5
100
AcDbLine
 10
387.8001362568636
 20
3141.989000620776
 30
0.0
 11
191.3000768713061
 21
2960.044501189703
 31
0.0
  0
LINE
  5
378
330
1F
100
AcDbEntity
  8
0-C_ハッチ
  6
Continuous
 62
   120
370
     5
100
AcDbLine
 10
387.8001362568636
 20
3107.917946004157
 30
0.0
 11
191.3000768713061
 21
2925.973446573084
 31
0.0
  0
LINE
  5
379
330
1F
100
AcDbEntity
  8
0-C_ハッチ
  6
Continuous
 62
   120
370
     5
100
AcDbLine
 10
387.8001362568636
 20
3073.846891387539
 30
0.0
 11
191.3000768713061
 21
2891.902391956466
 31
0.0
  0
LINE
  5
37A
330
1F
100
AcDbEntity
  8
0-C_ハッチ
  6
Continuous
 62
   120
370
     5
100
AcDbLine
 10
387.8001362568636
 20
3039.775836770919
 30
0.0
 11
191.3000768713061
 21
2857.831337339846
 31
0.0
  0
LINE
  5
37B
330
1F
100
AcDbEntity
  8
0-C_ハッチ
  6
Continuous
 62
   120
370
     5
100
AcDbLine
 10
387.8001362568636
 20
3005.704782154301
 30
0.0
 11
191.3000768713061
 21
2823.760282723228
 31
0.0
  0
LINE
  5
37C
330
1F
100
AcDbEntity
  8
0-C_ハッチ
  6
Continuous
 62
   120
370
     5
100
AcDbLine
 10
387.8001362568636
 20
2971.633727537682
 30
0.0
 11
191.3000768713061
 21
2789.689228106608
 31
0.0
  0
LINE
  5
37D
330
1F
100
AcDbEntity
  8
0-C_ハッチ
  6
Continuous
 62
   120
370
     5
100
AcDbLine
 10
387.8001362568636
 20
2937.562672921063
 30
0.0
 11
191.3000768713061
 21
2755.61817348999
 31
0.0
  0
LINE
  5
37E
330
1F
100
AcDbEntity
  8
0-C_ハッチ
  6
Continuous
 62
   120
370
     5
100
AcDbLine
 10
387.8001362568636
 20
2903.491618304444
 30
0.0
 11
191.3000768713061
 21
2721.54711887337
 31
0.0
  0
LINE
  5
37F
330
1F
100
AcDbEntity
  8
0-C_ハッチ
  6
Continuous
 62
   120
370
     5
100
AcDbLine
 10
387.8001362568636
 20
2869.420563687826
 30
0.0
 11
191.3000768713061
 21
2687.476064256752
 31
0.0
  0
LINE
  5
380
330
1F
100
AcDbEntity
  8
0-C_ハッチ
  6
Continuous
 62
   120
370
     5
100
AcDbLine
 10
387.8001362568636
 20
2767.207399837968
 30
0.0
 11
191.3000768713061
 21
2585.262900406896
 31
0.0
  0
LINE
  5
381
330
1F
100
AcDbEntity
  8
0-C_ハッチ
  6
Continuous
 62
   120
370
     5
100
AcDbLine
 10
387.8001362568636
 20
2733.13634522135
 30
0.0
 11
191.3000768713061
 21
2551.191845790277
 31
0.0
  0
LINE
  5
382
330
1F
100
AcDbEntity
  8
0-C_ハッチ
  6
Continuous
 62
   120
370
     5
100
AcDbLine
 10
387.8001362568636
 20
2699.065290604731
 30
0.0
 11
191.3000768713061
 21
2517.120791173658
 31
0.0
  0
LINE
  5
383
330
1F
100
AcDbEntity
  8
0-C_ハッチ
  6
Continuous
 62
   120
370
     5
100
AcDbLine
 10
387.8001362568636
 20
2664.994235988112
 30
0.0
 11
191.3000768713061
 21
2483.04973655704
 31
0.0
  0
LINE
  5
384
330
1F
100
AcDbEntity
  8
0-C_ハッチ
  6
Continuous
 62
   120
370
     5
100
AcDbLine
 10
387.8001362568636
 20
2630.923181371494
 30
0.0
 11
191.3000768713061
 21
2448.97868194042
 31
0.0
  0
LINE
  5
385
330
1F
100
AcDbEntity
  8
0-C_ハッチ
  6
Continuous
 62
   120
370
     5
100
AcDbLine
 10
387.8001362568636
 20
2596.852126754874
 30
0.0
 11
191.3000768713061
 21
2414.907627323802
 31
0.0
  0
LINE
  5
386
330
1F
100
AcDbEntity
  8
0-C_ハッチ
  6
Continuous
 62
   120
370
     5
100
AcDbLine
 10
387.8001362568636
 20
2562.781072138255
 30
0.0
 11
191.3000768713061
 21
2380.836572707182
 31
0.0
  0
LINE
  5
387
330
1F
100
AcDbEntity
  8
0-C_ハッチ
  6
Continuous
 62
   120
370
     5
100
AcDbLine
 10
387.8001362568636
 20
2528.710017521637
 30
0.0
 11
191.3000768713061
 21
2346.765518090564
 31
0.0
  0
LINE
  5
388
330
1F
100
AcDbEntity
  8
0-C_ハッチ
  6
Continuous
 62
   120
370
     5
100
AcDbLine
 10
387.8001362568636
 20
2494.638962905019
 30
0.0
 11
191.3000768713061
 21
2312.694463473946
 31
0.0
  0
LINE
  5
389
330
1F
100
AcDbEntity
  8
0-C_ハッチ
  6
Continuous
 62
   120
370
     5
100
AcDbLine
 10
387.8001362568636
 20
2835.349509071206
 30
0.0
 11
191.3000768713061
 21
2653.405009640133
 31
0.0
  0
LINE
  5
38A
330
1F
100
AcDbEntity
  8
0-C_ハッチ
  6
Continuous
 62
   120
370
     5
100
AcDbLine
 10
387.8001362568636
 20
2801.278454454588
 30
0.0
 11
191.3000768713061
 21
2619.333955023515
 31
0.0
  0
LINE
  5
38B
330
1F
100
AcDbEntity
  8
0-C_ハッチ
  6
Continuous
 62
   120
370
     5
100
AcDbLine
 10
2321.400252883499
 20
3274.915720166132
 30
0.0
 11
2136.400072252428
 21
3103.619256618842
 31
0.0
  0
LINE
  5
38C
330
1F
100
AcDbEntity
  8
0-C_ハッチ
  6
Continuous
 62
   120
370
     5
100
AcDbLine
 10
2321.400252883499
 20
2286.855136284185
 30
0.0
 11
2290.236937300255
 21
2258.000214447848
 31
0.0
  0
LINE
  5
38D
330
1F
100
AcDbEntity
  8
0-C_ハッチ
  6
Continuous
 62
   120
370
     5
100
AcDbLine
 10
2321.400252883499
 20
3240.844665549514
 30
0.0
 11
2136.400072252428
 21
3069.548202002224
 31
0.0
  0
LINE
  5
38E
330
1F
100
AcDbEntity
  8
0-C_ハッチ
  6
Continuous
 62
   120
370
     5
100
AcDbLine
 10
2321.400252883499
 20
3206.773610932895
 30
0.0
 11
2136.400072252428
 21
3035.477147385605
 31
0.0
  0
LINE
  5
38F
330
1F
100
AcDbEntity
  8
0-C_ハッチ
  6
Continuous
 62
   120
370
     5
100
AcDbLine
 10
2321.400252883499
 20
3172.702556316277
 30
0.0
 11
2136.400072252428
 21
3001.406092768986
 31
0.0
  0
LINE
  5
390
330
1F
100
AcDbEntity
  8
0-C_ハッチ
  6
Continuous
 62
   120
370
     5
100
AcDbLine
 10
2321.400252883499
 20
3138.631501699657
 30
0.0
 11
2136.400072252428
 21
2967.335038152368
 31
0.0
  0
LINE
  5
391
330
1F
100
AcDbEntity
  8
0-C_ハッチ
  6
Continuous
 62
   120
370
     5
100
AcDbLine
 10
2321.400252883499
 20
3104.560447083039
 30
0.0
 11
2136.400072252428
 21
2933.263983535749
 31
0.0
  0
LINE
  5
392
330
1F
100
AcDbEntity
  8
0-C_ハッチ
  6
Continuous
 62
   120
370
     5
100
AcDbLine
 10
2321.400252883499
 20
3070.48939246642
 30
0.0
 11
2136.400072252428
 21
2899.19292891913
 31
0.0
  0
LINE
  5
393
330
1F
100
AcDbEntity
  8
0-C_ハッチ
  6
Continuous
 62
   120
370
     5
100
AcDbLine
 10
2321.400252883499
 20
3036.418337849801
 30
0.0
 11
2136.400072252428
 21
2865.121874302511
 31
0.0
  0
LINE
  5
394
330
1F
100
AcDbEntity
  8
0-C_ハッチ
  6
Continuous
 62
   120
370
     5
100
AcDbLine
 10
2321.400252883499
 20
3002.347283233182
 30
0.0
 11
2136.400072252428
 21
2831.050819685892
 31
0.0
  0
LINE
  5
395
330
1F
100
AcDbEntity
  8
0-C_ハッチ
  6
Continuous
 62
   120
370
     5
100
AcDbLine
 10
2321.400252883499
 20
2968.276228616563
 30
0.0
 11
2136.400072252428
 21
2796.979765069273
 31
0.0
  0
LINE
  5
396
330
1F
100
AcDbEntity
  8
0-C_ハッチ
  6
Continuous
 62
   120
370
     5
100
AcDbLine
 10
2321.400252883499
 20
2934.205173999944
 30
0.0
 11
2136.400072252428
 21
2762.908710452654
 31
0.0
  0
LINE
  5
397
330
1F
100
AcDbEntity
  8
0-C_ハッチ
  6
Continuous
 62
   120
370
     5
100
AcDbLine
 10
2321.400252883499
 20
2900.134119383325
 30
0.0
 11
2136.400072252428
 21
2728.837655836035
 31
0.0
  0
LINE
  5
398
330
1F
100
AcDbEntity
  8
0-C_ハッチ
  6
Continuous
 62
   120
370
     5
100
AcDbLine
 10
2321.400252883499
 20
2866.063064766707
 30
0.0
 11
2136.400072252428
 21
2694.766601219417
 31
0.0
  0
LINE
  5
399
330
1F
100
AcDbEntity
  8
0-C_ハッチ
  6
Continuous
 62
   120
370
     5
100
AcDbLine
 10
2321.400252883499
 20
2831.992010150088
 30
0.0
 11
2136.400072252428
 21
2660.695546602798
 31
0.0
  0
LINE
  5
39A
330
1F
100
AcDbEntity
  8
0-C_ハッチ
  6
Continuous
 62
   120
370
     5
100
AcDbLine
 10
2321.400252883499
 20
2797.920955533469
 30
0.0
 11
2136.400072252428
 21
2626.624491986179
 31
0.0
  0
LINE
  5
39B
330
1F
100
AcDbEntity
  8
0-C_ハッチ
  6
Continuous
 62
   120
370
     5
100
AcDbLine
 10
2321.400252883499
 20
2763.849900916849
 30
0.0
 11
2136.400072252428
 21
2592.55343736956
 31
0.0
  0
LINE
  5
39C
330
1F
100
AcDbEntity
  8
0-C_ハッチ
  6
Continuous
 62
   120
370
     5
100
AcDbLine
 10
2321.400252883499
 20
2729.778846300231
 30
0.0
 11
2136.400072252428
 21
2558.482382752941
 31
0.0
  0
LINE
  5
39D
330
1F
100
AcDbEntity
  8
0-C_ハッチ
  6
Continuous
 62
   120
370
     5
100
AcDbLine
 10
2321.400252883499
 20
2695.707791683612
 30
0.0
 11
2136.400072252428
 21
2524.411328136322
 31
0.0
  0
LINE
  5
39E
330
1F
100
AcDbEntity
  8
0-C_ハッチ
  6
Continuous
 62
   120
370
     5
100
AcDbLine
 10
2321.400252883499
 20
2661.636737066994
 30
0.0
 11
2136.400072252428
 21
2490.340273519704
 31
0.0
  0
LINE
  5
39F
330
1F
100
AcDbEntity
  8
0-C_ハッチ
  6
Continuous
 62
   120
370
     5
100
AcDbLine
 10
2321.400252883499
 20
2627.565682450374
 30
0.0
 11
2136.400072252428
 21
2456.269218903084
 31
0.0
  0
LINE
  5
3A0
330
1F
100
AcDbEntity
  8
0-C_ハッチ
  6
Continuous
 62
   120
370
     5
100
AcDbLine
 10
2321.400252883499
 20
2593.494627833756
 30
0.0
 11
2136.400072252428
 21
2422.198164286466
 31
0.0
  0
LINE
  5
3A1
330
1F
100
AcDbEntity
  8
0-C_ハッチ
  6
Continuous
 62
   120
370
     5
100
AcDbLine
 10
2321.400252883499
 20
2491.281463983899
 30
0.0
 11
2136.400072252428
 21
2319.985000436609
 31
0.0
  0
LINE
  5
3A2
330
1F
100
AcDbEntity
  8
0-C_ハッチ
  6
Continuous
 62
   120
370
     5
100
AcDbLine
 10
2321.400252883499
 20
2457.210409367281
 30
0.0
 11
2136.400072252428
 21
2285.91394581999
 31
0.0
  0
LINE
  5
3A3
330
1F
100
AcDbEntity
  8
0-C_ハッチ
  6
Continuous
 62
   120
370
     5
100
AcDbLine
 10
2321.400252883499
 20
2525.352518600518
 30
0.0
 11
2193.545628471861
 21
2406.968607108259
 31
0.0
  0
LINE
  5
3A4
330
1F
100
AcDbEntity
  8
0-C_ハッチ
  6
Continuous
 62
   120
370
     5
100
AcDbLine
 10
2321.400252883499
 20
2423.139354750661
 30
0.0
 11
2143.049981356462
 21
2258.000214447848
 31
0.0
  0
LINE
  5
3A5
330
1F
100
AcDbEntity
  8
0-C_ハッチ
  6
Continuous
 62
   120
370
     5
100
AcDbLine
 10
2321.400252883499
 20
2389.068300134043
 30
0.0
 11
2179.846720342409
 21
2258.000214447848
 31
0.0
  0
LINE
  5
3A6
330
1F
100
AcDbEntity
  8
0-C_ハッチ
  6
Continuous
 62
   120
370
     5
100
AcDbLine
 10
2321.400252883499
 20
2354.997245517423
 30
0.0
 11
2216.643459328358
 21
2258.000214447848
 31
0.0
  0
LINE
  5
3A7
330
1F
100
AcDbEntity
  8
0-C_ハッチ
  6
Continuous
 62
   120
370
     5
100
AcDbLine
 10
2321.400252883499
 20
2320.926190900805
 30
0.0
 11
2253.440198314306
 21
2258.000214447848
 31
0.0
  0
LINE
  5
3A8
330
1F
100
AcDbEntity
  8
0-C_ハッチ
  6
Continuous
 62
   120
370
     5
100
AcDbLine
 10
2321.400252883499
 20
2559.423573217136
 30
0.0
 11
2157.321724280492
 21
2407.499009695831
 31
0.0
  0
LINE
  5
3A9
330
1F
100
AcDbEntity
  8
0-C_ハッチ
  6
Continuous
 62
   120
370
     5
100
AcDbLine
 10
2462.121705849927
 20
3303.000197951859
 30
0.0
 11
2411.400252883499
 21
3256.03588964961
 31
0.0
  0
LINE
  5
3AA
330
1F
100
AcDbEntity
  8
0-C_ハッチ
  6
Continuous
 62
   120
370
     5
100
AcDbLine
 10
2498.918444835875
 20
3303.000197951859
 30
0.0
 11
2411.400252883499
 21
3221.964835032992
 31
0.0
  0
LINE
  5
3AB
330
1F
100
AcDbEntity
  8
0-C_ハッチ
  6
Continuous
 62
   120
370
     5
100
AcDbLine
 10
2535.715183821822
 20
3303.000197951859
 30
0.0
 11
2411.400252883499
 21
3187.893780416373
 31
0.0
  0
LINE
  5
3AC
330
1F
100
AcDbEntity
  8
0-C_ハッチ
  6
Continuous
 62
   120
370
     5
100
AcDbLine
 10
2572.511922807771
 20
3303.000197951859
 30
0.0
 11
2411.400252883499
 21
3153.822725799754
 31
0.0
  0
LINE
  5
3AD
330
1F
100
AcDbEntity
  8
0-C_ハッチ
  6
Continuous
 62
   120
370
     5
100
AcDbLine
 10
2596.400360932222
 20
3291.048067524546
 30
0.0
 11
2411.400252883499
 21
3119.751671183135
 31
0.0
  0
LINE
  5
3AE
330
1F
100
AcDbEntity
  8
0-C_ハッチ
  6
Continuous
 62
   120
370
     5
100
AcDbLine
 10
2596.400360932222
 20
2302.9874836426
 30
0.0
 11
2547.814110201889
 21
2258.000214447848
 31
0.0
  0
LINE
  5
3AF
330
1F
100
AcDbEntity
  8
0-C_ハッチ
  6
Continuous
 62
   120
370
     5
100
AcDbLine
 10
2596.400360932222
 20
2405.200647492456
 30
0.0
 11
2437.423893244046
 21
2258.000214447848
 31
0.0
  0
LINE
  5
3B0
330
1F
100
AcDbEntity
  8
0-C_ハッチ
  6
Continuous
 62
   120
370
     5
100
AcDbLine
 10
2596.400360932222
 20
2371.129592875838
 30
0.0
 11
2474.220632229993
 21
2258.000214447848
 31
0.0
  0
LINE
  5
3B1
330
1F
100
AcDbEntity
  8
0-C_ハッチ
  6
Continuous
 62
   120
370
     5
100
AcDbLine
 10
2596.400360932222
 20
2337.058538259219
 30
0.0
 11
2511.017371215941
 21
2258.000214447848
 31
0.0
  0
LINE
  5
3B2
330
1F
100
AcDbEntity
  8
0-C_ハッチ
  6
Continuous
 62
   120
370
     5
100
AcDbLine
 10
2596.400360932222
 20
2439.271702109076
 30
0.0
 11
2411.400252883499
 21
2267.975305767664
 31
0.0
  0
LINE
  5
3B3
330
1F
100
AcDbEntity
  8
0-C_ハッチ
  6
Continuous
 62
   120
370
     5
100
AcDbLine
 10
2596.400360932222
 20
3256.977012907928
 30
0.0
 11
2411.400252883499
 21
3085.680616566516
 31
0.0
  0
LINE
  5
3B4
330
1F
100
AcDbEntity
  8
0-C_ハッチ
  6
Continuous
 62
   120
370
     5
100
AcDbLine
 10
2596.400360932222
 20
3222.905958291309
 30
0.0
 11
2411.400252883499
 21
3051.609561949897
 31
0.0
  0
LINE
  5
3B5
330
1F
100
AcDbEntity
  8
0-C_ハッチ
  6
Continuous
 62
   120
370
     5
100
AcDbLine
 10
2596.400360932222
 20
3188.83490367469
 30
0.0
 11
2411.400252883499
 21
3017.538507333278
 31
0.0
  0
LINE
  5
3B6
330
1F
100
AcDbEntity
  8
0-C_ハッチ
  6
Continuous
 62
   120
370
     5
100
AcDbLine
 10
2596.400360932222
 20
3154.763849058071
 30
0.0
 11
2411.400252883499
 21
2983.467452716659
 31
0.0
  0
LINE
  5
3B7
330
1F
100
AcDbEntity
  8
0-C_ハッチ
  6
Continuous
 62
   120
370
     5
100
AcDbLine
 10
2596.400360932222
 20
3120.692794441452
 30
0.0
 11
2411.400252883499
 21
2949.396398100041
 31
0.0
  0
LINE
  5
3B8
330
1F
100
AcDbEntity
  8
0-C_ハッチ
  6
Continuous
 62
   120
370
     5
100
AcDbLine
 10
2596.400360932222
 20
3086.621739824834
 30
0.0
 11
2411.400252883499
 21
2915.325343483422
 31
0.0
  0
LINE
  5
3B9
330
1F
100
AcDbEntity
  8
0-C_ハッチ
  6
Continuous
 62
   120
370
     5
100
AcDbLine
 10
2596.400360932222
 20
3052.550685208215
 30
0.0
 11
2411.400252883499
 21
2881.254288866804
 31
0.0
  0
LINE
  5
3BA
330
1F
100
AcDbEntity
  8
0-C_ハッチ
  6
Continuous
 62
   120
370
     5
100
AcDbLine
 10
2596.400360932222
 20
3018.479630591596
 30
0.0
 11
2411.400252883499
 21
2847.183234250184
 31
0.0
  0
LINE
  5
3BB
330
1F
100
AcDbEntity
  8
0-C_ハッチ
  6
Continuous
 62
   120
370
     5
100
AcDbLine
 10
2596.400360932222
 20
2984.408575974977
 30
0.0
 11
2411.400252883499
 21
2813.112179633565
 31
0.0
  0
LINE
  5
3BC
330
1F
100
AcDbEntity
  8
0-C_ハッチ
  6
Continuous
 62
   120
370
     5
100
AcDbLine
 10
2596.400360932222
 20
2950.337521358358
 30
0.0
 11
2411.400252883499
 21
2779.041125016946
 31
0.0
  0
LINE
  5
3BD
330
1F
100
AcDbEntity
  8
0-C_ハッチ
  6
Continuous
 62
   120
370
     5
100
AcDbLine
 10
2596.400360932222
 20
2916.266466741739
 30
0.0
 11
2411.400252883499
 21
2744.970070400328
 31
0.0
  0
LINE
  5
3BE
330
1F
100
AcDbEntity
  8
0-C_ハッチ
  6
Continuous
 62
   120
370
     5
100
AcDbLine
 10
2596.400360932222
 20
2882.19541212512
 30
0.0
 11
2411.400252883499
 21
2710.899015783708
 31
0.0
  0
LINE
  5
3BF
330
1F
100
AcDbEntity
  8
0-C_ハッチ
  6
Continuous
 62
   120
370
     5
100
AcDbLine
 10
2596.400360932222
 20
2848.124357508502
 30
0.0
 11
2411.400252883499
 21
2676.82796116709
 31
0.0
  0
LINE
  5
3C0
330
1F
100
AcDbEntity
  8
0-C_ハッチ
  6
Continuous
 62
   120
370
     5
100
AcDbLine
 10
2596.400360932222
 20
2745.911193658645
 30
0.0
 11
2411.400252883499
 21
2574.614797317233
 31
0.0
  0
LINE
  5
3C1
330
1F
100
AcDbEntity
  8
0-C_ハッチ
  6
Continuous
 62
   120
370
     5
100
AcDbLine
 10
2596.400360932222
 20
2711.840139042026
 30
0.0
 11
2411.400252883499
 21
2540.543742700615
 31
0.0
  0
LINE
  5
3C2
330
1F
100
AcDbEntity
  8
0-C_ハッチ
  6
Continuous
 62
   120
370
     5
100
AcDbLine
 10
2596.400360932222
 20
2677.769084425407
 30
0.0
 11
2411.400252883499
 21
2506.472688083996
 31
0.0
  0
LINE
  5
3C3
330
1F
100
AcDbEntity
  8
0-C_ハッチ
  6
Continuous
 62
   120
370
     5
100
AcDbLine
 10
2596.400360932222
 20
2643.698029808789
 30
0.0
 11
2411.400252883499
 21
2472.401633467377
 31
0.0
  0
LINE
  5
3C4
330
1F
100
AcDbEntity
  8
0-C_ハッチ
  6
Continuous
 62
   120
370
     5
100
AcDbLine
 10
2596.400360932222
 20
2609.626975192169
 30
0.0
 11
2411.400252883499
 21
2438.330578850758
 31
0.0
  0
LINE
  5
3C5
330
1F
100
AcDbEntity
  8
0-C_ハッチ
  6
Continuous
 62
   120
370
     5
100
AcDbLine
 10
2596.400360932222
 20
2575.555920575551
 30
0.0
 11
2411.400252883499
 21
2404.259524234139
 31
0.0
  0
LINE
  5
3C6
330
1F
100
AcDbEntity
  8
0-C_ハッチ
  6
Continuous
 62
   120
370
     5
100
AcDbLine
 10
2596.400360932222
 20
2541.484865958932
 30
0.0
 11
2411.400252883499
 21
2370.18846961752
 31
0.0
  0
LINE
  5
3C7
330
1F
100
AcDbEntity
  8
0-C_ハッチ
  6
Continuous
 62
   120
370
     5
100
AcDbLine
 10
2596.400360932222
 20
2507.413811342313
 30
0.0
 11
2411.400252883499
 21
2336.117415000902
 31
0.0
  0
LINE
  5
3C8
330
1F
100
AcDbEntity
  8
0-C_ハッチ
  6
Continuous
 62
   120
370
     5
100
AcDbLine
 10
2596.400360932222
 20
2473.342756725695
 30
0.0
 11
2411.400252883499
 21
2302.046360384283
 31
0.0
  0
LINE
  5
3C9
330
1F
100
AcDbEntity
  8
0-C_ハッチ
  6
Continuous
 62
   120
370
     5
100
AcDbLine
 10
2596.400360932222
 20
2814.053302891883
 30
0.0
 11
2411.400252883499
 21
2642.75690655047
 31
0.0
  0
LINE
  5
3CA
330
1F
100
AcDbEntity
  8
0-C_ハッチ
  6
Continuous
 62
   120
370
     5
100
AcDbLine
 10
2596.400360932222
 20
2779.982248275264
 30
0.0
 11
2411.400252883499
 21
2608.685851933852
 31
0.0
  0
LINE
  5
3CB
330
1F
100
AcDbEntity
  8
0-C_ハッチ
  6
Continuous
 62
   120
370
     5
100
AcDbLine
 10
2596.400360932222
 20
2268.916429025981
 30
0.0
 11
2584.610849187837
 21
2258.000214447848
 31
0.0
  0
LINE
  5
3CC
330
1F
100
AcDbEntity
  8
F-A_文字
  6
Continuous
 62
     7
370
     9
100
AcDbLine
 10
-5490.000018557986
 20
-3790.000017526987
 30
0.0
 11
-3258.399798419025
 21
184.5000148463899
 31
0.0
  0
LINE
  5
3CD
330
1F
100
AcDbEntity
  8
F-A_文字
  6
Continuous
 62
     7
370
     9
100
AcDbLine
 10
-3258.399798419025
 20
-3790.000017526987
 30
0.0
 11
-1026.799671069995
 21
184.5000148463899
 31
0.0
  0
LINE
  5
3CE
330
1F
100
AcDbEntity
  8
F-A_文字
  6
Continuous
 62
     7
370
     9
100
AcDbLine
 10
-1026.799671069995
 20
-3790.000017526987
 30
0.0
 11
1204.8000851193
 21
184.5000148463899
 31
0.0
  0
LINE
  5
3CF
330
1F
100
AcDbEntity
  8
F-A_文字
  6
Continuous
 62
     7
370
     9
100
AcDbLine
 10
1204.8000851193
 20
-3790.000017526987
 30
0.0
 11
3436.400212468328
 21
184.5000148463899
 31
0.0
  0
ENDSEC
  0
SECTION
  2
OBJECTS
  0
DICTIONARY
  5
C
330
0
100
AcDbDictionary
281
     1
  3
ACAD_GROUP
350
D
  3
ACAD_LAYOUT
350
1A
  3
ACAD_MATERIAL
350
3B
  3
ACAD_MLEADERSTYLE
350
3D1
  3
ACAD_MLINESTYLE
350
17
  3
ACAD_PLOTSETTINGS
350
19
  3
ACAD_PLOTSTYLENAME
350
E
  3
ACAD_TABLESTYLE
350
3D0
  3
ACAD_VISUALSTYLE
350
2A
  0
DICTIONARY
  5
D
102
{ACAD_REACTORS
330
C
102
}
330
C
100
AcDbDictionary
281
     1
  0
DICTIONARY
  5
1A
102
{ACAD_REACTORS
330
C
102
}
330
C
100
AcDbDictionary
281
     1
  3
Layout1
350
1E
  3
Layout2
350
26
  3
Model
350
22
  0
DICTIONARY
  5
3B
102
{ACAD_REACTORS
330
C
102
}
330
C
100
AcDbDictionary
281
     1
  3
ByBlock
350
3D
  3
ByLayer
350
3C
  3
Global
350
3E
  0
DICTIONARY
  5
3D1
102
{ACAD_REACTORS
330
C
102
}
330
C
100
AcDbDictionary
281
     1
  0
DICTIONARY
  5
17
102
{ACAD_REACTORS
330
C
102
}
330
C
100
AcDbDictionary
281
     1
  3
Standard
350
18
  0
DICTIONARY
  5
19
102
{ACAD_REACTORS
330
C
102
}
330
C
100
AcDbDictionary
281
     1
  0
ACDBDICTIONARYWDFLT
  5
E
102
{ACAD_REACTORS
330
C
102
}
330
C
100
AcDbDictionary
281
     1
  3
Normal
350
F
100
AcDbDictionaryWithDefault
340
F
  0
DICTIONARY
  5
3D0
102
{ACAD_REACTORS
330
C
102
}
330
C
100
AcDbDictionary
281
     1
  0
DICTIONARY
  5
2A
102
{ACAD_REACTORS
330
C
102
}
330
C
100
AcDbDictionary
281
     1
  3
2dWireframe
350
2F
  3
3D Hidden
350
31
  3
3dWireframe
350
30
  3
Basic
350
32
  3
Brighten
350
36
  3
ColorChange
350
3A
  3
Conceptual
350
34
  3
Dim
350
35
  3
Facepattern
350
39
  3
Flat
350
2B
  3
FlatWithEdges
350
2C
  3
Gouraud
350
2D
  3
GouraudWithEdges
350
2E
  3
Linepattern
350
38
  3
Realistic
350
33
  3
Thicken
350
37
  0
LAYOUT
  5
1E
102
{ACAD_REACTORS
330
1A
102
}
330
1A
100
AcDbPlotSettings
  1

  2
none_device
  4

  6

 40
0.0
 41
0.0
 42
0.0
 43
0.0
 44
0.0
 45
0.0
 46
0.0
 47
0.0
 48
0.0
 49
0.0
140
0.0
141
0.0
142
1.0
143
1.0
 70
   688
 72
     0
 73
     0
 74
     5
  7

 75
    16
 76
     0
 77
     5
 78
   300
147
1.0
148
0.0
149
0.0
100
AcDbLayout
  1
Layout1
 70
     1
 71
     1
 10
0.0
 20
0.0
 11
420.0
 21
297.0
 12
0.0
 22
0.0
 32
0.0
 14
1.000000000000000E+20
 24
1.000000000000000E+20
 34
1.000000000000000E+20
 15
-1.000000000000000E+20
 25
-1.000000000000000E+20
 35
-1.000000000000000E+20
146
0.0
 13
0.0
 23
0.0
 33
0.0
 16
1.0
 26
0.0
 36
0.0
 17
0.0
 27
1.0
 37
0.0
 76
     0
330
1B
  0
LAYOUT
  5
26
102
{ACAD_REACTORS
330
1A
102
}
330
1A
100
AcDbPlotSettings
  1

  2
none_device
  4

  6

 40
0.0
 41
0.0
 42
0.0
 43
0.0
 44
0.0
 45
0.0
 46
0.0
 47
0.0
 48
0.0
 49
0.0
140
0.0
141
0.0
142
1.0
143
1.0
 70
   688
 72
     0
 73
     0
 74
     5
  7

 75
    16
 76
     0
 77
     5
 78
   300
147
1.0
148
0.0
149
0.0
100
AcDbLayout
  1
Layout2
 70
     1
 71
     2
 10
0.0
 20
0.0
 11
0.0
 21
0.0
 12
0.0
 22
0.0
 32
0.0
 14
0.0
 24
0.0
 34
0.0
 15
0.0
 25
0.0
 35
0.0
146
0.0
 13
0.0
 23
0.0
 33
0.0
 16
1.0
 26
0.0
 36
0.0
 17
0.0
 27
1.0
 37
0.0
 76
     0
330
23
  0
LAYOUT
  5
22
102
{ACAD_REACTORS
330
1A
102
}
330
1A
100
AcDbPlotSettings
  1

  2
none_device
  4

  6

 40
0.0
 41
0.0
 42
0.0
 43
0.0
 44
0.0
 45
0.0
 46
0.0
 47
0.0
 48
0.0
 49
0.0
140
0.0
141
0.0
142
1.0
143
1.0
 70
  1712
 72
     0
 73
     0
 74
     0
  7

 75
     0
 76
     0
 77
     5
 78
   300
147
1.0
148
0.0
149
0.0
100
AcDbLayout
  1
Model
 70
     1
 71
     0
 10
-6300.0
 20
-4455.0
 11
6300.0
 21
4455.0
 12
0.0
 22
0.0
 32
0.0
 14
-6300.0
 24
-4455.0
 34
0.0
 15
6300.0
 25
4455.0
 35
0.0
146
0.0
 13
0.0
 23
0.0
 33
0.0
 16
1.0
 26
0.0
 36
0.0
 17
0.0
 27
1.0
 37
0.0
 76
     0
330
1F
331
29
  0
MATERIAL
  5
3D
102
{ACAD_REACTORS
330
3B
102
}
330
3B
100
AcDbMaterial
  1
ByBlock
 72
     1
 94
      127
  0
MATERIAL
  5
3C
102
{ACAD_REACTORS
330
3B
102
}
330
3B
100
AcDbMaterial
  1
ByLayer
 72
     1
 94
      127
  0
MATERIAL
  5
3E
102
{ACAD_REACTORS
330
3B
102
}
330
3B
100
AcDbMaterial
  1
Global
 72
     1
 94
      127
  0
MLINESTYLE
  5
18
102
{ACAD_REACTORS
330
17
102
}
330
17
100
AcDbMlineStyle
  2
Standard
 70
     0
  3

 62
   256
 51
90.0
 52
90.0
 71
     2
 49
0.5
 62
   256
  6
BYLAYER
 49
-0.5
 62
   256
  6
BYLAYER
  0
ACDBPLACEHOLDER
  5
F
102
{ACAD_REACTORS
330
E
102
}
330
E
  0
VISUALSTYLE
  5
2F
102
{ACAD_REACTORS
330
2A
102
}
330
2A
100
AcDbVisualStyle
  2
2dWireframe
 70
     4
177
     2
291
     0
 71
     0
176
     1
 72
     2
176
     1
 73
     0
176
     1
 90
        0
176
     1
 40
-0.6
176
     1
 41
-30.0
176
     1
 62
     5
 63
     7
421
 16777215
176
     1
 74
     1
176
     1
 91
        4
176
     1
 64
     7
176
     1
 65
   257
176
     1
 75
     1
176
     1
175
     1
176
     1
 42
1.0
176
     1
 92
        0
176
     1
 66
   257
176
     1
 43
1.0
176
     1
 76
     1
176
     1
 77
     6
176
     1
 78
     2
176
     1
 67
     7
176
     1
 79
     5
176
     1
170
     0
176
     1
171
     0
176
     1
290
     0
176
     1
 93
        1
176
     1
 44
0.0
176
     1
173
     0
176
     1
  0
VISUALSTYLE
  5
31
102
{ACAD_REACTORS
330
2A
102
}
330
2A
100
AcDbVisualStyle
  2
3D Hidden
 70
     6
177
     2
291
     0
 71
     1
176
     1
 72
     2
176
     1
 73
     2
176
     1
 90
        0
176
     1
 40
-0.6
176
     1
 41
-30.0
176
     1
 62
     5
 63
     7
421
 16777215
176
     1
 74
     2
176
     1
 91
        2
176
     1
 64
     7
176
     1
 65
   257
176
     1
 75
     2
176
     1
175
     1
176
     1
 42
40.0
176
     1
 92
        0
176
     1
 66
   257
176
     1
 43
1.0
176
     1
 76
     1
176
     1
 77
     6
176
     1
 78
     2
176
     1
 67
     7
176
     1
 79
     3
176
     1
170
     0
176
     1
171
     0
176
     1
290
     0
176
     1
 93
        1
176
     1
 44
0.0
176
     1
173
     0
176
     1
  0
VISUALSTYLE
  5
30
102
{ACAD_REACTORS
330
2A
102
}
330
2A
100
AcDbVisualStyle
  2
3dWireframe
 70
     5
177
     2
291
     0
 71
     0
176
     1
 72
     2
176
     1
 73
     0
176
     1
 90
        0
176
     1
 40
-0.6
176
     1
 41
-30.0
176
     1
 62
     5
 63
     7
421
 16777215
176
     1
 74
     1
176
     1
 91
        4
176
     1
 64
     7
176
     1
 65
   257
176
     1
 75
     1
176
     1
175
     1
176
     1
 42
1.0
176
     1
 92
        0
176
     1
 66
   257
176
     1
 43
1.0
176
     1
 76
     1
176
     1
 77
     6
176
     1
 78
     2
176
     1
 67
     7
176
     1
 79
     5
176
     1
170
     0
176
     1
171
     0
176
     1
290
     0
176
     1
 93
        1
176
     1
 44
0.0
176
     1
173
     0
176
     1
  0
VISUALSTYLE
  5
32
102
{ACAD_REACTORS
330
2A
102
}
330
2A
100
AcDbVisualStyle
  2
Basic
 70
     7
177
     2
291
     1
 71
     1
176
     1
 72
     0
176
     1
 73
     1
176
     1
 90
        0
176
     1
 40
-0.6
176
     1
 41
-30.0
176
     1
 62
     5
 63
     7
421
 16777215
176
     1
 74
     0
176
     1
 91
        4
176
     1
 64
     7
176
     1
 65
   257
176
     1
 75
     1
176
     1
175
     1
176
     1
 42
1.0
176
     1
 92
        8
176
     1
 66
     7
176
     1
 43
1.0
176
     1
 76
     1
176
     1
 77
     6
176
     1
 78
     2
176
     1
 67
     7
176
     1
 79
     5
176
     1
170
     0
176
     1
171
     0
176
     1
290
     0
176
     1
 93
        1
176
     1
 44
0.0
176
     1
173
     0
176
     1
  0
VISUALSTYLE
  5
36
102
{ACAD_REACTORS
330
2A
102
}
330
2A
100
AcDbVisualStyle
  2
Brighten
 70
    12
177
     2
291
     1
 71
     2
176
     1
 72
     2
176
     1
 73
     0
176
     1
 90
        0
176
     1
 40
-0.6
176
     1
 41
-30.0
176
     1
 62
     5
 63
     7
421
 16777215
176
     1
 74
     1
176
     1
 91
        4
176
     1
 64
     7
176
     1
 65
   257
176
     1
 75
     1
176
     1
175
     1
176
     1
 42
1.0
176
     1
 92
        8
176
     1
 66
     7
176
     1
 43
1.0
176
     1
 76
     1
176
     1
 77
     6
176
     1
 78
     2
176
     1
 67
     7
176
     1
 79
     5
176
     1
170
     0
176
     1
171
     0
176
     1
290
     0
176
     1
 93
        1
176
     1
 44
50.0
176
     1
173
     0
176
     1
  0
VISUALSTYLE
  5
3A
102
{ACAD_REACTORS
330
2A
102
}
330
2A
100
AcDbVisualStyle
  2
ColorChange
 70
    16
177
     2
291
     1
 71
     2
176
     1
 72
     2
176
     1
 73
     3
176
     1
 90
        0
176
     1
 40
-0.6
176
     1
 41
-30.0
176
     1
 62
     5
 63
     8
421
  8421504
176
     1
 74
     1
176
     1
 91
        4
176
     1
 64
     7
176
     1
 65
   257
176
     1
 75
     1
176
     1
175
     1
176
     1
 42
1.0
176
     1
 92
        8
176
     1
 66
     8
424
  8421504
176
     1
 43
1.0
176
     1
 76
     1
176
     1
 77
     6
176
     1
 78
     2
176
     1
 67
     7
176
     1
 79
     5
176
     1
170
     0
176
     1
171
     0
176
     1
290
     0
176
     1
 93
        1
176
     1
 44
0.0
176
     1
173
     0
176
     1
  0
VISUALSTYLE
  5
34
102
{ACAD_REACTORS
330
2A
102
}
330
2A
100
AcDbVisualStyle
  2
Conceptual
 70
     9
177
     2
291
     0
 71
     3
176
     1
 72
     2
176
     1
 73
     0
176
     1
 90
        0
176
     1
 40
-0.6
176
     1
 41
-30.0
176
     1
 62
     5
 63
     7
421
 16777215
176
     1
 74
     2
176
     1
 91
        2
176
     1
 64
     7
176
     1
 65
   257
176
     1
 75
     1
176
     1
175
     1
176
     1
 42
40.0
176
     1
 92
        8
176
     1
 66
     7
176
     1
 43
1.0
176
     1
 76
     1
176
     1
 77
     6
176
     1
 78
     2
176
     1
 67
     7
176
     1
 79
     3
176
     1
170
     0
176
     1
171
     0
176
     1
290
     0
176
     1
 93
        1
176
     1
 44
0.0
176
     1
173
     0
176
     1
  0
VISUALSTYLE
  5
35
102
{ACAD_REACTORS
330
2A
102
}
330
2A
100
AcDbVisualStyle
  2
Dim
 70
    11
177
     2
291
     1
 71
     2
176
     1
 72
     2
176
     1
 73
     0
176
     1
 90
        0
176
     1
 40
-0.6
176
     1
 41
-30.0
176
     1
 62
     5
 63
     7
421
 16777215
176
     1
 74
     1
176
     1
 91
        4
176
     1
 64
     7
176
     1
 65
   257
176
     1
 75
     1
176
     1
175
     1
176
     1
 42
1.0
176
     1
 92
        8
176
     1
 66
     7
176
     1
 43
1.0
176
     1
 76
     1
176
     1
 77
     6
176
     1
 78
     2
176
     1
 67
     7
176
     1
 79
     5
176
     1
170
     0
176
     1
171
     0
176
     1
290
     0
176
     1
 93
        1
176
     1
 44
-50.0
176
     1
173
     0
176
     1
  0
VISUALSTYLE
  5
39
102
{ACAD_REACTORS
330
2A
102
}
330
2A
100
AcDbVisualStyle
  2
Facepattern
 70
    15
177
     2
291
     1
 71
     2
176
     1
 72
     2
176
     1
 73
     0
176
     1
 90
        0
176
     1
 40
-0.6
176
     1
 41
-30.0
176
     1
 62
     5
 63
     7
421
 16777215
176
     1
 74
     1
176
     1
 91
        4
176
     1
 64
     7
176
     1
 65
   257
176
     1
 75
     1
176
     1
175
     1
176
     1
 42
1.0
176
     1
 92
        8
176
     1
 66
     7
176
     1
 43
1.0
176
     1
 76
     1
176
     1
 77
     6
176
     1
 78
     2
176
     1
 67
     7
176
     1
 79
     5
176
     1
170
     0
176
     1
171
     0
176
     1
290
     0
176
     1
 93
        1
176
     1
 44
0.0
176
     1
173
     0
176
     1
  0
VISUALSTYLE
  5
2B
102
{ACAD_REACTORS
330
2A
102
}
330
2A
100
AcDbVisualStyle
  2
Flat
 70
     0
177
     2
291
     1
 71
     2
176
     1
 72
     1
176
     1
 73
     1
176
     1
 90
        2
176
     1
 40
-0.6
176
     1
 41
30.0
176
     1
 62
     5
 63
     7
421
 16777215
176
     1
 74
     0
176
     1
 91
        4
176
     1
 64
     7
176
     1
 65
   257
176
     1
 75
     1
176
     1
175
     1
176
     1
 42
1.0
176
     1
 92
        8
176
     1
 66
     7
176
     1
 43
1.0
176
     1
 76
     1
176
     1
 77
     6
176
     1
 78
     2
176
     1
 67
     7
176
     1
 79
     5
176
     1
170
     0
176
     1
171
     0
176
     1
290
     0
176
     1
 93
       13
176
     1
 44
0.0
176
     1
173
     0
176
     1
  0
VISUALSTYLE
  5
2C
102
{ACAD_REACTORS
330
2A
102
}
330
2A
100
AcDbVisualStyle
  2
FlatWithEdges
 70
     1
177
     2
291
     1
 71
     2
176
     1
 72
     1
176
     1
 73
     1
176
     1
 90
        2
176
     1
 40
-0.6
176
     1
 41
30.0
176
     1
 62
     5
 63
     7
421
 16777215
176
     1
 74
     1
176
     1
 91
        4
176
     1
 64
     7
176
     1
 65
   257
176
     1
 75
     1
176
     1
175
     1
176
     1
 42
1.0
176
     1
 92
        0
176
     1
 66
   257
176
     1
 43
1.0
176
     1
 76
     1
176
     1
 77
     6
176
     1
 78
     2
176
     1
 67
     7
176
     1
 79
     5
176
     1
170
     0
176
     1
171
     0
176
     1
290
     0
176
     1
 93
       13
176
     1
 44
0.0
176
     1
173
     0
176
     1
  0
VISUALSTYLE
  5
2D
102
{ACAD_REACTORS
330
2A
102
}
330
2A
100
AcDbVisualStyle
  2
Gouraud
 70
     2
177
     2
291
     1
 71
     2
176
     1
 72
     2
176
     1
 73
     1
176
     1
 90
        2
176
     1
 40
-0.6
176
     1
 41
30.0
176
     1
 62
     5
 63
     7
421
 16777215
176
     1
 74
     0
176
     1
 91
        4
176
     1
 64
     7
176
     1
 65
   257
176
     1
 75
     1
176
     1
175
     1
176
     1
 42
1.0
176
     1
 92
        0
176
     1
 66
     7
176
     1
 43
1.0
176
     1
 76
     1
176
     1
 77
     6
176
     1
 78
     2
176
     1
 67
     7
176
     1
 79
     5
176
     1
170
     0
176
     1
171
     0
176
     1
290
     0
176
     1
 93
       13
176
     1
 44
0.0
176
     1
173
     0
176
     1
  0
VISUALSTYLE
  5
2E
102
{ACAD_REACTORS
330
2A
102
}
330
2A
100
AcDbVisualStyle
  2
GouraudWithEdges
 70
     3
177
     2
291
     1
 71
     2
176
     1
 72
     2
176
     1
 73
     1
176
     1
 90
        2
176
     1
 40
-0.6
176
     1
 41
30.0
176
     1
 62
     5
 63
     7
421
 16777215
176
     1
 74
     1
176
     1
 91
        4
176
     1
 64
     7
176
     1
 65
   257
176
     1
 75
     1
176
     1
175
     1
176
     1
 42
1.0
176
     1
 92
        0
176
     1
 66
   257
176
     1
 43
1.0
176
     1
 76
     1
176
     1
 77
     6
176
     1
 78
     2
176
     1
 67
     7
176
     1
 79
     5
176
     1
170
     0
176
     1
171
     0
176
     1
290
     0
176
     1
 93
       13
176
     1
 44
0.0
176
     1
173
     0
176
     1
  0
VISUALSTYLE
  5
38
102
{ACAD_REACTORS
330
2A
102
}
330
2A
100
AcDbVisualStyle
  2
Linepattern
 70
    14
177
     2
291
     1
 71
     2
176
     1
 72
     2
176
     1
 73
     0
176
     1
 90
        0
176
     1
 40
-0.6
176
     1
 41
-30.0
176
     1
 62
     5
 63
     7
421
 16777215
176
     1
 74
     1
176
     1
 91
        4
176
     1
 64
     7
176
     1
 65
   257
176
     1
 75
     7
176
     1
175
     7
176
     1
 42
1.0
176
     1
 92
        8
176
     1
 66
     7
176
     1
 43
1.0
176
     1
 76
     1
176
     1
 77
     6
176
     1
 78
     2
176
     1
 67
     7
176
     1
 79
     5
176
     1
170
     0
176
     1
171
     0
176
     1
290
     0
176
     1
 93
        1
176
     1
 44
0.0
176
     1
173
     0
176
     1
  0
VISUALSTYLE
  5
33
102
{ACAD_REACTORS
330
2A
102
}
330
2A
100
AcDbVisualStyle
  2
Realistic
 70
     8
177
     2
291
     0
 71
     2
176
     1
 72
     2
176
     1
 73
     0
176
     1
 90
        0
176
     1
 40
-0.6
176
     1
 41
-30.0
176
     1
 62
     5
 63
     7
421
 16777215
176
     1
 74
     1
176
     1
 91
        0
176
     1
 64
     7
176
     1
 65
   257
176
     1
 75
     1
176
     1
175
     1
176
     1
 42
1.0
176
     1
 92
        8
176
     1
 66
     8
424
  7895160
176
     1
 43
1.0
176
     1
 76
     1
176
     1
 77
     6
176
     1
 78
     2
176
     1
 67
     7
176
     1
 79
     5
176
     1
170
     0
176
     1
171
     0
176
     1
290
     0
176
     1
 93
       13
176
     1
 44
0.0
176
     1
173
     0
176
     1
  0
VISUALSTYLE
  5
37
102
{ACAD_REACTORS
330
2A
102
}
330
2A
100
AcDbVisualStyle
  2
Thicken
 70
    13
177
     2
291
     1
 71
     2
176
     1
 72
     2
176
     1
 73
     0
176
     1
 90
        0
176
     1
 40
-0.6
176
     1
 41
-30.0
176
     1
 62
     5
 63
     7
421
 16777215
176
     1
 74
     1
176
     1
 91
        4
176
     1
 64
     7
176
     1
 65
   257
176
     1
 75
     1
176
     1
175
     1
176
     1
 42
1.0
176
     1
 92
       12
176
     1
 66
     7
176
     1
 43
1.0
176
     1
 76
     1
176
     1
 77
     6
176
     1
 78
     2
176
     1
 67
     7
176
     1
 79
     5
176
     1
170
     0
176
     1
171
     0
176
     1
290
     0
176
     1
 93
        1
176
     1
 44
0.0
176
     1
173
     0
176
     1
  0
ENDSEC
  0
EOF
