  0
SECTION
  2
HEADER
  9
$ACADVER
  1
AC1024
  9
$ACADMAINTVER
 70
     6
  9
$DWGCODEPAGE
  3
ANSI_932
  9
$INSBASE
 10
0.0
 20
0.0
 30
0.0
  9
$EXTMIN
 10
-4200.0
 20
-2970.0
 30
0.0
  9
$EXTMAX
 10
4200.0
 20
2970.0
 30
0.0
  9
$LIMMIN
 10
-4200.0
 20
-2970.0
  9
$LIMMAX
 10
4200.0
 20
2970.0
  9
$ORTHOMODE
 70
     0
  9
$REGENMODE
 70
     1
  9
$FILLMODE
 70
     1
  9
$QTEXTMODE
 70
     0
  9
$MIRRTEXT
 70
     1
  9
$LTSCALE
 40
20.0
  9
$ATTMODE
 70
     1
  9
$TEXTSIZE
 40
2.5
  9
$TRACEWID
 40
1.0
  9
$TEXTSTYLE
  7
Standard
  9
$CLAYER
  8
0
  9
$CELTYPE
  6
ByLayer
  9
$CECOLOR
 62
   256
  9
$CELTSCALE
 40
1.0
  9
$DISPSILH
 70
     0
  9
$DIMSCALE
 40
1.0
  9
$DIMASZ
 40
2.5
  9
$DIMEXO
 40
0.625
  9
$DIMDLI
 40
3.75
  9
$DIMRND
 40
0.0
  9
$DIMDLE
 40
0.0
  9
$DIMEXE
 40
1.25
  9
$DIMTP
 40
0.0
  9
$DIMTM
 40
0.0
  9
$DIMTXT
 40
2.5
  9
$DIMCEN
 40
2.5
  9
$DIMTSZ
 40
0.0
  9
$DIMTOL
 70
     0
  9
$DIMLIM
 70
     0
  9
$DIMTIH
 70
     0
  9
$DIMTOH
 70
     0
  9
$DIMSE1
 70
     0
  9
$DIMSE2
 70
     0
  9
$DIMTAD
 70
     1
  9
$DIMZIN
 70
     8
  9
$DIMBLK
  1

  9
$DIMASO
 70
     1
  9
$DIMSHO
 70
     1
  9
$DIMPOST
  1

  9
$DIMAPOST
  1

  9
$DIMALT
 70
     0
  9
$DIMALTD
 70
     3
  9
$DIMALTF
 40
0.03937007874016
  9
$DIMLFAC
 40
1.0
  9
$DIMTOFL
 70
     1
  9
$DIMTVP
 40
0.0
  9
$DIMTIX
 70
     0
  9
$DIMSOXD
 70
     0
  9
$DIMSAH
 70
     0
  9
$DIMBLK1
  1

  9
$DIMBLK2
  1

  9
$DIMSTYLE
  2
ISO-25
  9
$DIMCLRD
 70
     0
  9
$DIMCLRE
 70
     0
  9
$DIMCLRT
 70
     0
  9
$DIMTFAC
 40
1.0
  9
$DIMGAP
 40
0.625
  9
$DIMJUST
 70
     0
  9
$DIMSD1
 70
     0
  9
$DIMSD2
 70
     0
  9
$DIMTOLJ
 70
     0
  9
$DIMTZIN
 70
     8
  9
$DIMALTZ
 70
     0
  9
$DIMALTTZ
 70
     0
  9
$DIMUPT
 70
     0
  9
$DIMDEC
 70
     2
  9
$DIMTDEC
 70
     2
  9
$DIMALTU
 70
     2
  9
$DIMALTTD
 70
     3
  9
$DIMTXSTY
  7
Standard
  9
$DIMAUNIT
 70
     0
  9
$DIMADEC
 70
     0
  9
$DIMALTRND
 40
0.0
  9
$DIMAZIN
 70
     0
  9
$DIMDSEP
 70
    44
  9
$DIMATFIT
 70
     3
  9
$DIMFRAC
 70
     0
  9
$DIMLDRBLK
  1

  9
$DIMLUNIT
 70
     2
  9
$DIMLWD
 70
    -2
  9
$DIMLWE
 70
    -2
  9
$DIMTMOVE
 70
     0
  9
$DIMFXL
 40
1.0
  9
$DIMFXLON
 70
     0
  9
$DIMJOGANG
 40
0.7853981633974483
  9
$DIMTFILL
 70
     0
  9
$DIMTFILLCLR
 70
     0
  9
$DIMARCSYM
 70
     0
  9
$DIMLTYPE
  6

  9
$DIMLTEX1
  6

  9
$DIMLTEX2
  6

  9
$DIMTXTDIRECTION
 70
     0
  9
$LUNITS
 70
     2
  9
$LUPREC
 70
     4
  9
$SKETCHINC
 40
1.0
  9
$FILLETRAD
 40
10.0
  9
$AUNITS
 70
     0
  9
$AUPREC
 70
     0
  9
$MENU
  1
.
  9
$ELEVATION
 40
0.0
  9
$PELEVATION
 40
0.0
  9
$THICKNESS
 40
0.0
  9
$LIMCHECK
 70
     0
  9
$CHAMFERA
 40
0.0
  9
$CHAMFERB
 40
0.0
  9
$CHAMFERC
 40
0.0
  9
$CHAMFERD
 40
0.0
  9
$SKPOLY
 70
     0
  9
$TDCREATE
 40
2458516.691762431
  9
$TDUCREATE
 40
2458516.316762431
  9
$TDUPDATE
 40
2458516.691762604
  9
$TDUUPDATE
 40
2458516.316762604
  9
$TDINDWG
 40
0.0000000116
  9
$TDUSRTIMER
 40
0.0000000116
  9
$USRTIMER
 70
     1
  9
$ANGBASE
 50
0.0
  9
$ANGDIR
 70
     0
  9
$PDMODE
 70
     0
  9
$PDSIZE
 40
0.0
  9
$PLINEWID
 40
0.0
  9
$SPLFRAME
 70
     0
  9
$SPLINETYPE
 70
     6
  9
$SPLINESEGS
 70
     8
  9
$HANDSEED
  5
3C6
  9
$SURFTAB1
 70
     6
  9
$SURFTAB2
 70
     6
  9
$SURFTYPE
 70
     6
  9
$SURFU
 70
     6
  9
$SURFV
 70
     6
  9
$UCSBASE
  2

  9
$UCSNAME
  2

  9
$UCSORG
 10
0.0
 20
0.0
 30
0.0
  9
$UCSXDIR
 10
1.0
 20
0.0
 30
0.0
  9
$UCSYDIR
 10
0.0
 20
1.0
 30
0.0
  9
$UCSORTHOREF
  2

  9
$UCSORTHOVIEW
 70
     0
  9
$UCSORGTOP
 10
0.0
 20
0.0
 30
0.0
  9
$UCSORGBOTTOM
 10
0.0
 20
0.0
 30
0.0
  9
$UCSORGLEFT
 10
0.0
 20
0.0
 30
0.0
  9
$UCSORGRIGHT
 10
0.0
 20
0.0
 30
0.0
  9
$UCSORGFRONT
 10
0.0
 20
0.0
 30
0.0
  9
$UCSORGBACK
 10
0.0
 20
0.0
 30
0.0
  9
$PUCSBASE
  2

  9
$PUCSNAME
  2

  9
$PUCSORG
 10
0.0
 20
0.0
 30
0.0
  9
$PUCSXDIR
 10
1.0
 20
0.0
 30
0.0
  9
$PUCSYDIR
 10
0.0
 20
1.0
 30
0.0
  9
$PUCSORTHOREF
  2

  9
$PUCSORTHOVIEW
 70
     0
  9
$PUCSORGTOP
 10
0.0
 20
0.0
 30
0.0
  9
$PUCSORGBOTTOM
 10
0.0
 20
0.0
 30
0.0
  9
$PUCSORGLEFT
 10
0.0
 20
0.0
 30
0.0
  9
$PUCSORGRIGHT
 10
0.0
 20
0.0
 30
0.0
  9
$PUCSORGFRONT
 10
0.0
 20
0.0
 30
0.0
  9
$PUCSORGBACK
 10
0.0
 20
0.0
 30
0.0
  9
$USERI1
 70
     0
  9
$USERI2
 70
     0
  9
$USERI3
 70
     0
  9
$USERI4
 70
     0
  9
$USERI5
 70
     0
  9
$USERR1
 40
0.0
  9
$USERR2
 40
0.0
  9
$USERR3
 40
0.0
  9
$USERR4
 40
0.0
  9
$USERR5
 40
0.0
  9
$WORLDVIEW
 70
     1
  9
$SHADEDGE
 70
     3
  9
$SHADEDIF
 70
    70
  9
$TILEMODE
 70
     1
  9
$MAXACTVP
 70
    64
  9
$PINSBASE
 10
0.0
 20
0.0
 30
0.0
  9
$PLIMCHECK
 70
     0
  9
$PEXTMIN
 10
1.000000000000000E+20
 20
1.000000000000000E+20
 30
1.000000000000000E+20
  9
$PEXTMAX
 10
-1.000000000000000E+20
 20
-1.000000000000000E+20
 30
-1.000000000000000E+20
  9
$PLIMMIN
 10
0.0
 20
0.0
  9
$PLIMMAX
 10
420.0
 20
297.0
  9
$UNITMODE
 70
     0
  9
$VISRETAIN
 70
     1
  9
$PLINEGEN
 70
     0
  9
$PSLTSCALE
 70
     1
  9
$TREEDEPTH
 70
  3020
  9
$CMLSTYLE
  2
Standard
  9
$CMLJUST
 70
     0
  9
$CMLSCALE
 40
20.0
  9
$PROXYGRAPHICS
 70
     1
  9
$MEASUREMENT
 70
     1
  9
$CELWEIGHT
370
    -1
  9
$ENDCAPS
280
     0
  9
$JOINSTYLE
280
     0
  9
$LWDISPLAY
290
     0
  9
$INSUNITS
 70
     4
  9
$HYPERLINKBASE
  1

  9
$STYLESHEET
  1

  9
$XEDIT
290
     1
  9
$CEPSNTYPE
380
     0
  9
$PSTYLEMODE
290
     1
  9
$FINGERPRINTGUID
  2
{2C4D24D1-04F7-4615-BE37-CB14A4C63E74}
  9
$VERSIONGUID
  2
{FAEB1C32-E019-11D5-929B-00C0DF256EC4}
  9
$EXTNAMES
290
     1
  9
$PSVPSCALE
 40
0.0
  9
$OLESTARTUP
290
     0
  9
$SORTENTS
280
   127
  9
$INDEXCTL
280
     0
  9
$HIDETEXT
280
     1
  9
$XCLIPFRAME
280
     2
  9
$HALOGAP
280
     0
  9
$OBSCOLOR
 70
   257
  9
$OBSLTYPE
280
     0
  9
$INTERSECTIONDISPLAY
280
     0
  9
$INTERSECTIONCOLOR
 70
   257
  9
$DIMASSOC
280
     2
  9
$PROJECTNAME
  1

  9
$CAMERADISPLAY
290
     0
  9
$LENSLENGTH
 40
50.0
  9
$CAMERAHEIGHT
 40
0.0
  9
$STEPSPERSEC
 40
2.0
  9
$STEPSIZE
 40
6.0
  9
$3DDWFPREC
 40
2.0
  9
$PSOLWIDTH
 40
5.0
  9
$PSOLHEIGHT
 40
80.0
  9
$LOFTANG1
 40
1.570796326794897
  9
$LOFTANG2
 40
1.570796326794897
  9
$LOFTMAG1
 40
0.0
  9
$LOFTMAG2
 40
0.0
  9
$LOFTPARAM
 70
     7
  9
$LOFTNORMALS
280
     1
  9
$LATITUDE
 40
37.795
  9
$LONGITUDE
 40
-122.394
  9
$NORTHDIRECTION
 40
0.0
  9
$TIMEZONE
 70
 -8000
  9
$LIGHTGLYPHDISPLAY
280
     1
  9
$TILEMODELIGHTSYNCH
280
     1
  9
$CMATERIAL
347
44
  9
$SOLIDHIST
280
     0
  9
$SHOWHIST
280
     1
  9
$DWFFRAME
280
     2
  9
$DGNFRAME
280
     2
  9
$REALWORLDSCALE
290
     1
  9
$INTERFERECOLOR
 62
   256
  9
$CSHADOW
280
     0
  9
$SHADOWPLANELOCATION
 40
0.0
  0
ENDSEC
  0
SECTION
  2
CLASSES
  0
CLASS
  1
ACDBDICTIONARYWDFLT
  2
AcDbDictionaryWithDefault
  3
ObjectDBX Classes
 90
        0
 91
        4
280
     0
281
     0
  0
CLASS
  1
VISUALSTYLE
  2
AcDbVisualStyle
  3
ObjectDBX Classes
 90
     4095
 91
        4
280
     0
281
     0
  0
CLASS
  1
MATERIAL
  2
AcDbMaterial
  3
ObjectDBX Classes
 90
     1153
 91
        4
280
     0
281
     0
  0
CLASS
  1
SCALE
  2
AcDbScale
  3
ObjectDBX Classes
 90
     1153
 91
        4
280
     0
281
     0
  0
CLASS
  1
TABLESTYLE
  2
AcDbTableStyle
  3
ObjectDBX Classes
 90
     4095
 91
        4
280
     0
281
     0
  0
CLASS
  1
MLEADERSTYLE
  2
AcDbMLeaderStyle
  3
ACDB_MLEADERSTYLE_CLASS
 90
     4095
 91
        4
280
     0
281
     0
  0
CLASS
  1
SUN
  2
AcDbSun
  3
SCENEOE
 90
     1153
 91
        4
280
     0
281
     0
  0
CLASS
  1
DICTIONARYVAR
  2
AcDbDictionaryVar
  3
ObjectDBX Classes
 90
        0
 91
        4
280
     0
281
     0
  0
CLASS
  1
CELLSTYLEMAP
  2
AcDbCellStyleMap
  3
ObjectDBX Classes
 90
     1152
 91
        4
280
     0
281
     0
  0
ENDSEC
  0
SECTION
  2
TABLES
  0
TABLE
  2
VPORT
  5
8
330
0
100
AcDbSymbolTable
 70
     1
  0
VPORT
  5
29
330
8
100
AcDbSymbolTableRecord
100
AcDbViewportTableRecord
  2
*Active
 70
     0
 10
0.0
 20
0.0
 11
1.0
 21
1.0
 12
0.0
 22
0.0
 13
0.0
 23
0.0
 14
10.0
 24
10.0
 15
10.0
 25
10.0
 16
0.0
 26
0.0
 36
1.0
 17
0.0
 27
0.0
 37
0.0
 40
6534.000000000001
 41
1.414141414141414
 42
50.0
 43
0.0
 44
0.0
 50
0.0
 51
0.0
 71
     0
 72
 10000
 73
     1
 74
     3
 75
     0
 76
     0
 77
     0
 78
     0
281
     0
 65
     1
110
0.0
120
0.0
130
0.0
111
1.0
121
0.0
131
0.0
112
0.0
122
1.0
132
0.0
 79
     0
146
0.0
348
2F
 60
     3
 61
     5
292
     1
282
     1
141
0.0
142
0.0
 63
   250
361
6D
  0
ENDTAB
  0
TABLE
  2
LTYPE
  5
5
330
0
100
AcDbSymbolTable
 70
     5
  0
LTYPE
  5
14
330
5
100
AcDbSymbolTableRecord
100
AcDbLinetypeTableRecord
  2
ByBlock
 70
     0
  3

 72
    65
 73
     0
 40
0.0
  0
LTYPE
  5
15
330
5
100
AcDbSymbolTableRecord
100
AcDbLinetypeTableRecord
  2
ByLayer
 70
     0
  3

 72
    65
 73
     0
 40
0.0
  0
LTYPE
  5
16
330
5
100
AcDbSymbolTableRecord
100
AcDbLinetypeTableRecord
  2
Continuous
 70
     0
  3
Solid line
 72
    65
 73
     0
 40
0.0
  0
LTYPE
  5
70
330
5
100
AcDbSymbolTableRecord
100
AcDbLinetypeTableRecord
  2
JWW_HOJO
 70
     0
  3
  -   -   -   -   -   -   -   - 
 72
    65
 73
     2
 40
1.693333333333333
 49
-1.27
 74
     0
 49
0.4233333333333333
 74
     0
  0
LTYPE
  5
71
330
5
100
AcDbSymbolTableRecord
100
AcDbLinetypeTableRecord
  2
JWW_DASHED2
 70
     0
  3
--    ----    ----    ----    --
 72
    65
 73
     2
 40
1.693333333333333
 49
0.8466666666666667
 74
     0
 49
-0.8466666666666667
 74
     0
  0
LTYPE
  5
72
330
5
100
AcDbSymbolTableRecord
100
AcDbLinetypeTableRecord
  2
JWW_CENTER1
 70
     0
  3
-----  --  ----------  --  -----
 72
    65
 73
     4
 40
3.386666666666667
 49
2.116666666666667
 74
     0
 49
-0.4233333333333333
 74
     0
 49
0.4233333333333333
 74
     0
 49
-0.4233333333333333
 74
     0
  0
LTYPE
  5
73
330
5
100
AcDbSymbolTableRecord
100
AcDbLinetypeTableRecord
  2
JWW_DASHED1
 70
     0
  3
-  --  --  --  --  --  --  --  -
 72
    65
 73
     2
 40
0.3386666666666667
 49
0.1693333333333333
 74
     0
 49
-0.1693333333333333
 74
     0
  0
ENDTAB
  0
TABLE
  2
LAYER
  5
2
330
0
100
AcDbSymbolTable
 70
    15
  0
LAYER
  5
10
330
2
100
AcDbSymbolTableRecord
100
AcDbLayerTableRecord
  2
0
 70
     0
 62
     7
  6
Continuous
370
    -3
390
F
347
46
  0
LAYER
  5
74
330
2
100
AcDbSymbolTableRecord
100
AcDbLayerTableRecord
  2
F-0_補助線
 70
     0
 62
     7
  6
Continuous
370
    -3
390
F
347
46
  0
LAYER
  5
75
330
2
100
AcDbSymbolTableRecord
100
AcDbLayerTableRecord
  2
F-1_枠
 70
     0
 62
     7
  6
Continuous
370
    -3
390
F
347
46
  0
LAYER
  5
76
330
2
100
AcDbSymbolTableRecord
100
AcDbLayerTableRecord
  2
F-A_文字
 70
     0
 62
     7
  6
Continuous
370
    -3
390
F
347
46
  0
LAYER
  5
77
330
2
100
AcDbSymbolTableRecord
100
AcDbLayerTableRecord
  2
0-A_文字
 70
     0
 62
     7
  6
Continuous
370
    -3
390
F
347
46
  0
LAYER
  5
78
330
2
100
AcDbSymbolTableRecord
100
AcDbLayerTableRecord
  2
0-B_寸法
 70
     0
 62
     7
  6
Continuous
370
    -3
390
F
347
46
  0
LAYER
  5
79
330
2
100
AcDbSymbolTableRecord
100
AcDbLayerTableRecord
  2
0-1_本体
 70
     0
 62
     7
  6
Continuous
370
    -3
390
F
347
46
  0
LAYER
  5
7A
330
2
100
AcDbSymbolTableRecord
100
AcDbLayerTableRecord
  2
0-4_棚
 70
     0
 62
     7
  6
Continuous
370
    -3
390
F
347
46
  0
LAYER
  5
7B
330
2
100
AcDbSymbolTableRecord
100
AcDbLayerTableRecord
  2
0-6_桟木
 70
     0
 62
     7
  6
Continuous
370
    -3
390
F
347
46
  0
LAYER
  5
7C
330
2
100
AcDbSymbolTableRecord
100
AcDbLayerTableRecord
  2
0-0_補助線
 70
     0
 62
     7
  6
Continuous
370
    -3
390
F
347
46
  0
LAYER
  5
7D
330
2
100
AcDbSymbolTableRecord
100
AcDbLayerTableRecord
  2
0-2_扉
 70
     0
 62
     7
  6
Continuous
370
    -3
390
F
347
46
  0
LAYER
  5
7E
330
2
100
AcDbSymbolTableRecord
100
AcDbLayerTableRecord
  2
0-9__
 70
     0
 62
     7
  6
Continuous
370
    -3
390
F
347
46
  0
LAYER
  5
7F
330
2
100
AcDbSymbolTableRecord
100
AcDbLayerTableRecord
  2
0-5_ダボ
 70
     0
 62
     7
  6
Continuous
370
    -3
390
F
347
46
  0
LAYER
  5
80
330
2
100
AcDbSymbolTableRecord
100
AcDbLayerTableRecord
  2
0-3_扉仕上
 70
     0
 62
     7
  6
Continuous
370
    -3
390
F
347
46
  0
LAYER
  5
81
330
2
100
AcDbSymbolTableRecord
100
AcDbLayerTableRecord
  2
0-7__
 70
     0
 62
     7
  6
Continuous
370
    -3
390
F
347
46
  0
ENDTAB
  0
TABLE
  2
STYLE
  5
3
330
0
100
AcDbSymbolTable
 70
     3
  0
STYLE
  5
11
330
3
100
AcDbSymbolTableRecord
100
AcDbTextStyleTableRecord
  2
Standard
 70
     0
 40
0.0
 41
1.0
 50
0.0
 71
     0
 42
2.5
  3
txt
  4

  0
STYLE
  5
6E
330
3
100
AcDbSymbolTableRecord
100
AcDbTextStyleTableRecord
  2
ＭＳ ゴシック
 70
     0
 40
1.0
 41
1.0
 50
0.0
 71
     0
 42
2.5
  3

  4

1001
ACAD
1000
MS Gothic
1071
    32817
  0
STYLE
  5
6F
330
3
100
AcDbSymbolTableRecord
100
AcDbTextStyleTableRecord
  2
HG明朝B
 70
     0
 40
1.0
 41
1.0
 50
0.0
 71
     0
 42
2.5
  3

  4

1001
ACAD
1000
HGMinchoB
1071
    32785
  0
ENDTAB
  0
TABLE
  2
VIEW
  5
6
330
0
100
AcDbSymbolTable
 70
     0
  0
ENDTAB
  0
TABLE
  2
UCS
  5
7
330
0
100
AcDbSymbolTable
 70
     0
  0
ENDTAB
  0
TABLE
  2
APPID
  5
9
330
0
100
AcDbSymbolTable
 70
     1
  0
APPID
  5
12
330
9
100
AcDbSymbolTableRecord
100
AcDbRegAppTableRecord
  2
ACAD
 70
     0
  0
ENDTAB
  0
TABLE
  2
DIMSTYLE
  5
A
330
0
100
AcDbSymbolTable
 70
     1
100
AcDbDimStyleTable
  0
DIMSTYLE
105
27
330
A
100
AcDbSymbolTableRecord
100
AcDbDimStyleTableRecord
  2
ISO-25
 70
     0
 41
2.5
 42
0.625
 43
3.75
 44
1.25
 73
     0
 74
     0
 77
     1
 78
     8
140
2.5
141
2.5
143
0.03937007874016
147
0.625
171
     3
172
     1
178
     0
271
     2
272
     2
274
     3
278
    44
283
     0
284
     8
340
11
  0
ENDTAB
  0
TABLE
  2
BLOCK_RECORD
  5
1
330
0
100
AcDbSymbolTable
 70
     1
  0
BLOCK_RECORD
  5
1F
330
1
100
AcDbSymbolTableRecord
100
AcDbBlockTableRecord
  2
*Model_Space
340
22
 70
     0
280
     1
281
     0
  0
BLOCK_RECORD
  5
1B
330
1
100
AcDbSymbolTableRecord
100
AcDbBlockTableRecord
  2
*Paper_Space
340
1E
 70
     0
280
     1
281
     0
  0
BLOCK_RECORD
  5
23
330
1
100
AcDbSymbolTableRecord
100
AcDbBlockTableRecord
  2
*Paper_Space0
340
26
 70
     0
280
     1
281
     0
  0
ENDTAB
  0
ENDSEC
  0
SECTION
  2
BLOCKS
  0
BLOCK
  5
20
330
1F
100
AcDbEntity
  8
0
100
AcDbBlockBegin
  2
*Model_Space
 70
     0
 10
0.0
 20
0.0
 30
0.0
  3
*Model_Space
  1

  0
ENDBLK
  5
21
330
1F
100
AcDbEntity
  8
0
100
AcDbBlockEnd
  0
BLOCK
  5
1C
330
1B
100
AcDbEntity
 67
     1
  8
0
100
AcDbBlockBegin
  2
*Paper_Space
 70
     0
 10
0.0
 20
0.0
 30
0.0
  3
*Paper_Space
  1

  0
ENDBLK
  5
1D
330
1B
100
AcDbEntity
 67
     1
  8
0
100
AcDbBlockEnd
  0
BLOCK
  5
24
330
23
100
AcDbEntity
  8
0
100
AcDbBlockBegin
  2
*Paper_Space0
 70
     0
 10
0.0
 20
0.0
 30
0.0
  3
*Paper_Space0
  1

  0
ENDBLK
  5
25
330
23
100
AcDbEntity
  8
0
100
AcDbBlockEnd
  0
ENDSEC
  0
SECTION
  2
ENTITIES
  0
LINE
  5
82
330
1F
100
AcDbEntity
  8
F-0_補助線
  6
JWW_HOJO
 62
   120
370
     5
100
AcDbLine
 10
-4093.387555624515
 20
-2970.0
 30
0.0
 11
-4093.387555624515
 21
2949.99973606419
 31
0.0
  0
LINE
  5
83
330
1F
100
AcDbEntity
  8
F-0_補助線
  6
JWW_HOJO
 62
   120
370
     5
100
AcDbLine
 10
-4093.387555624515
 20
2949.99973606419
 30
0.0
 11
4106.611784535958
 21
2949.99973606419
 31
0.0
  0
LINE
  5
84
330
1F
100
AcDbEntity
  8
F-0_補助線
  6
JWW_HOJO
 62
   120
370
     5
100
AcDbLine
 10
4106.611784535958
 20
2949.99973606419
 30
0.0
 11
4106.611784535958
 21
-2970.0
 31
0.0
  0
LINE
  5
85
330
1F
100
AcDbEntity
  8
F-0_補助線
  6
JWW_HOJO
 62
   120
370
     5
100
AcDbLine
 10
4106.611784535958
 20
-2970.0
 30
0.0
 11
-4093.387555624515
 21
-2970.0
 31
0.0
  0
LINE
  5
86
330
1F
100
AcDbEntity
  8
F-1_枠
  6
Continuous
 62
   200
370
    20
100
AcDbLine
 10
3906.611619576076
 20
2783.333179370777
 30
0.0
 11
3906.611619576076
 21
-2803.333443306588
 31
0.0
  0
LINE
  5
87
330
1F
100
AcDbEntity
  8
F-1_枠
  6
Continuous
 62
   200
370
    20
100
AcDbLine
 10
-3893.387545314522
 20
2783.333179370777
 30
0.0
 11
-3893.387545314522
 21
-2803.333443306588
 31
0.0
  0
LINE
  5
88
330
1F
100
AcDbEntity
  8
F-1_枠
  6
Continuous
 62
   200
370
    20
100
AcDbLine
 10
-3886.720882428186
 20
2783.333179370777
 30
0.0
 11
-3886.720882428186
 21
-2803.333443306588
 31
0.0
  0
LINE
  5
89
330
1F
100
AcDbEntity
  8
F-1_枠
  6
Continuous
 62
   200
370
    20
100
AcDbLine
 10
-3890.054206138861
 20
2783.333179370777
 30
0.0
 11
-3890.054206138861
 21
-2803.333443306588
 31
0.0
  0
LINE
  5
8A
330
1F
100
AcDbEntity
  8
F-1_枠
  6
Continuous
 62
   200
370
    20
100
AcDbLine
 10
3903.278110285536
 20
2783.333179370777
 30
0.0
 11
3903.278110285536
 21
-2803.333443306588
 31
0.0
  0
LINE
  5
8B
330
1F
100
AcDbEntity
  8
F-1_枠
  6
Continuous
 62
   200
370
    20
100
AcDbLine
 10
3899.945095874641
 20
2783.333179370777
 30
0.0
 11
3899.945095874641
 21
-2803.333443306588
 31
0.0
  0
LINE
  5
8C
330
1F
100
AcDbEntity
  8
F-1_枠
  6
Continuous
 62
   200
370
    20
100
AcDbLine
 10
-3893.387390664634
 20
2783.333179370777
 30
0.0
 11
3906.611619576076
 21
2783.333179370777
 31
0.0
  0
LINE
  5
8D
330
1F
100
AcDbEntity
  8
F-1_枠
  6
Continuous
 62
   200
370
    20
100
AcDbLine
 10
-3893.387390664634
 20
2776.666655669342
 30
0.0
 11
3906.611619576076
 21
2776.666655669342
 31
0.0
  0
LINE
  5
8E
330
1F
100
AcDbEntity
  8
F-1_枠
  6
Continuous
 62
   200
370
    20
100
AcDbLine
 10
-3893.387390664634
 20
2779.999670080237
 30
0.0
 11
3906.611619576076
 21
2779.999670080237
 31
0.0
  0
TEXT
  5
8F
330
1F
100
AcDbEntity
  8
F-A_文字
  6
Continuous
 62
     7
370
     0
100
AcDbText
 10
66.61236189554415
 20
-2581.026547247957
 30
0.0
 40
30.48
  1
図面名
 41
0.9999999999999999
  7
ＭＳ ゴシック
100
AcDbText
  0
LINE
  5
90
330
1F
100
AcDbEntity
  8
F-0_補助線
  6
JWW_HOJO
 62
     7
370
     9
100
AcDbLine
 10
673.2788361090155
 20
-2530.000002061998
 30
0.0
 11
673.2788361090155
 21
-2796.666672165329
 31
0.0
  0
LINE
  5
91
330
1F
100
AcDbEntity
  8
F-0_補助線
  6
JWW_HOJO
 62
     7
370
     9
100
AcDbLine
 10
339.945722722191
 20
-2530.000002061998
 30
0.0
 11
339.945722722191
 21
-2796.666672165329
 31
0.0
  0
LINE
  5
92
330
1F
100
AcDbEntity
  8
F-1_枠
  6
Continuous
 62
   200
370
    20
100
AcDbLine
 10
3906.611619576076
 20
-2803.333335051665
 30
0.0
 11
-3893.387390664634
 21
-2803.333335051665
 31
0.0
  0
LINE
  5
93
330
1F
100
AcDbEntity
  8
F-1_枠
  6
Continuous
 62
   200
370
    20
100
AcDbLine
 10
3906.611619576076
 20
-2799.999995876003
 30
0.0
 11
-3893.387390664634
 21
-2799.999995876003
 31
0.0
  0
LINE
  5
94
330
1F
100
AcDbEntity
  8
F-1_枠
  6
Continuous
 62
   200
370
    20
100
AcDbLine
 10
3906.611619576076
 20
-2796.666672165329
 30
0.0
 11
-3893.387390664634
 21
-2796.666672165329
 31
0.0
  0
LINE
  5
95
330
1F
100
AcDbEntity
  8
F-1_枠
  6
Continuous
 62
   200
370
    20
100
AcDbLine
 10
2899.945260834522
 20
-2530.000002061998
 30
0.0
 11
2899.945260834522
 21
-2796.666672165329
 31
0.0
  0
LINE
  5
96
330
1F
100
AcDbEntity
  8
F-1_枠
  6
Continuous
 62
   200
370
    20
100
AcDbLine
 10
1899.944930914759
 20
-2530.000002061998
 30
0.0
 11
1899.944930914759
 21
-2796.666672165329
 31
0.0
  0
LINE
  5
97
330
1F
100
AcDbEntity
  8
F-1_枠
  6
Continuous
 62
   200
370
    20
100
AcDbLine
 10
6.612361895544154
 20
-2530.000002061998
 30
0.0
 11
6.612361895544154
 21
-2796.666672165329
 31
0.0
  0
LINE
  5
98
330
1F
100
AcDbEntity
  8
F-1_枠
  6
Continuous
 62
   200
370
    20
100
AcDbLine
 10
6.612361895544154
 20
-2663.333290718697
 30
0.0
 11
3899.945095874641
 21
-2663.336909526103
 31
0.0
  0
LINE
  5
99
330
1F
100
AcDbEntity
  8
F-0_補助線
  6
JWW_HOJO
 62
     7
370
     9
100
AcDbLine
 10
-3886.720882428186
 20
-2663.333290718927
 30
0.0
 11
6.612361895544154
 21
-2663.333290718927
 31
0.0
  0
LINE
  5
9A
330
1F
100
AcDbEntity
  8
F-0_補助線
  6
JWW_HOJO
 62
     7
370
     9
100
AcDbLine
 10
-3886.720882428186
 20
-2603.333290718927
 30
0.0
 11
6.612361895544154
 21
-2603.333290718927
 31
0.0
  0
LINE
  5
9B
330
1F
100
AcDbEntity
  8
F-0_補助線
  6
JWW_HOJO
 62
     7
370
     9
100
AcDbLine
 10
-3886.720882428186
 20
-2723.333290718927
 30
0.0
 11
6.612361895544154
 21
-2723.333290718927
 31
0.0
  0
LINE
  5
9C
330
1F
100
AcDbEntity
  8
F-0_補助線
  6
JWW_HOJO
 62
     7
370
     9
100
AcDbLine
 10
6.612272045125565
 20
-2759.999826518655
 30
0.0
 11
3899.945006024222
 21
-2760.003445326061
 31
0.0
  0
LINE
  5
9D
330
1F
100
AcDbEntity
  8
F-0_補助線
  6
JWW_HOJO
 62
     7
370
     9
100
AcDbLine
 10
6.612327814426635
 20
-2699.999826518681
 30
0.0
 11
3899.945061793523
 21
-2700.003445326087
 31
0.0
  0
LINE
  5
9E
330
1F
100
AcDbEntity
  8
F-0_補助線
  6
JWW_HOJO
 62
     7
370
     9
100
AcDbLine
 10
6.612395976906669
 20
-2626.666491478713
 30
0.0
 11
3899.945129956002
 21
-2626.670110286119
 31
0.0
  0
LINE
  5
9F
330
1F
100
AcDbEntity
  8
F-0_補助線
  6
JWW_HOJO
 62
     7
370
     9
100
AcDbLine
 10
6.612451746207739
 20
-2566.66649147874
 30
0.0
 11
3899.945185725303
 21
-2566.670110286145
 31
0.0
  0
LINE
  5
A0
330
1F
100
AcDbEntity
  8
F-0_補助線
  6
JWW_HOJO
 62
     7
370
     9
100
AcDbLine
 10
1959.944930914759
 20
-2530.000002061998
 30
0.0
 11
1959.944930914759
 21
-2796.666672165329
 31
0.0
  0
LINE
  5
A1
330
1F
100
AcDbEntity
  8
F-0_補助線
  6
JWW_HOJO
 62
     7
370
     9
100
AcDbLine
 10
66.61236189554415
 20
-2530.000002061998
 30
0.0
 11
66.61236189554415
 21
-2796.666672165329
 31
0.0
  0
LINE
  5
A2
330
1F
100
AcDbEntity
  8
F-0_補助線
  6
JWW_HOJO
 62
     7
370
     9
100
AcDbLine
 10
2959.945260834522
 20
-2530.000002061998
 30
0.0
 11
2959.945260834522
 21
-2796.666672165329
 31
0.0
  0
TEXT
  5
A3
330
1F
100
AcDbEntity
  8
F-A_文字
  6
Continuous
 62
     7
370
     0
100
AcDbText
 10
1959.944930914759
 20
-2581.028307078516
 30
0.0
 40
30.48
  1
ＳＣＡＬＥ
 41
0.9999999999999999
  7
ＭＳ ゴシック
100
AcDbText
  0
TEXT
  5
A4
330
1F
100
AcDbEntity
  8
F-A_文字
  6
Continuous
 62
     7
370
     0
100
AcDbText
 10
2959.945260834522
 20
-2581.029236567169
 30
0.0
 40
30.48
  1
ＤＡＴＥ
 41
0.9999999999999998
  7
ＭＳ ゴシック
100
AcDbText
  0
TEXT
  5
A5
330
1F
100
AcDbEntity
  8
F-A_文字
  6
Continuous
 62
     7
370
     0
100
AcDbText
 10
893.5575789779642
 20
-2618.206774399892
 30
0.0
 40
45.72
  1
玄関収納
 41
1.125
  7
ＭＳ ゴシック
100
AcDbText
  0
TEXT
  5
A6
330
1F
100
AcDbEntity
  8
F-A_文字
  6
Continuous
 62
     7
370
     0
100
AcDbText
 10
339.945722722191
 20
-2618.731527915002
 30
0.0
 40
44.04000000000001
  1
ＭＵＫＵ　ＰＩＮＯＥＡＲＴＨ
 41
0.5952380952380951
  7
HG明朝B
100
AcDbText
  0
TEXT
  5
A7
330
1F
100
AcDbEntity
  8
F-A_文字
  6
Continuous
 62
     7
370
     0
100
AcDbText
 10
1959.944930914759
 20
-2714.361642118573
 30
0.0
 40
30.48
  1
ＦＩＬＥ
 41
0.9999999999999998
  7
ＭＳ ゴシック
100
AcDbText
  0
LINE
  5
A8
330
1F
100
AcDbEntity
  8
F-1_枠
  6
Continuous
 62
   200
370
    20
100
AcDbLine
 10
3906.611619576076
 20
-2530.000002061998
 30
0.0
 11
-3893.387390664634
 21
-2530.000002061998
 31
0.0
  0
LINE
  5
A9
330
1F
100
AcDbEntity
  8
F-1_枠
  6
Continuous
 62
   200
370
    20
100
AcDbLine
 10
3906.611619576076
 20
-2526.666678351325
 30
0.0
 11
-3893.387390664634
 21
-2526.666678351325
 31
0.0
  0
LINE
  5
AA
330
1F
100
AcDbEntity
  8
F-0_補助線
  6
JWW_HOJO
 62
     7
370
     9
100
AcDbLine
 10
-3391.752473459741
 20
-2530.000002061999
 30
0.0
 11
-3391.752473459741
 21
-2803.333443306588
 31
0.0
  0
LINE
  5
AB
330
1F
100
AcDbEntity
  8
F-0_補助線
  6
JWW_HOJO
 62
     7
370
     9
100
AcDbLine
 10
-33.38763810445585
 20
-2530.000002061998
 30
0.0
 11
-33.38763810445585
 21
-2796.666672165329
 31
0.0
  0
TEXT
  5
AC
330
1F
100
AcDbEntity
  8
F-A_文字
  6
Continuous
 62
     7
370
     0
100
AcDbText
 10
2959.945260834522
 20
-2714.362571607227
 30
0.0
 40
30.48
  1
ＮＯ．
 41
0.9999999999999999
  7
ＭＳ ゴシック
100
AcDbText
  0
TEXT
  5
AD
330
1F
100
AcDbEntity
  8
F-A_文字
  6
Continuous
 62
     7
370
     0
100
AcDbText
 10
929.9449309147587
 20
-2720.360446177432
 30
0.0
 40
30.48
  1
株式
 41
0.9999999999999998
  7
ＭＳ ゴシック
100
AcDbText
  0
TEXT
  5
AE
330
1F
100
AcDbEntity
  8
F-A_文字
  6
Continuous
 62
     7
370
     0
100
AcDbText
 10
1069.944930914759
 20
-2758.721586349285
 30
0.0
 40
60.96000000000001
  1
ウッドワン・・・
 41
1.109375
  7
ＭＳ ゴシック
100
AcDbText
  0
TEXT
  5
AF
330
1F
100
AcDbEntity
  8
F-A_文字
  6
Continuous
 62
     7
370
     0
100
AcDbText
 10
929.9449309147587
 20
-2768.360446177458
 30
0.0
 40
30.48
  1
会社
 41
0.9999999999999998
  7
ＭＳ ゴシック
100
AcDbText
  0
TEXT
  5
B0
330
1F
100
AcDbEntity
  8
F-A_文字
  6
Continuous
 62
     7
370
     0
100
AcDbText
 10
3845.547985115293
 20
-2860.960946013945
 30
0.0
 40
45.72
  1
）
  7
ＭＳ ゴシック
100
AcDbText
  0
TEXT
  5
B1
330
1F
100
AcDbEntity
  8
F-A_文字
  6
Continuous
 62
     7
370
     0
100
AcDbText
 10
3566.743078270199
 20
-2861.890295913237
 30
0.0
 40
45.72
  1
,
  7
ＭＳ ゴシック
100
AcDbText
  0
TEXT
  5
B2
330
1F
100
AcDbEntity
  8
F-A_文字
  6
Continuous
 62
     7
370
     0
100
AcDbText
 10
3389.2372856524
 20
-2862.819644858855
 30
0.0
 40
45.72
  1
$y
 41
1.083333333333333
  7
ＭＳ ゴシック
100
AcDbText
  0
TEXT
  5
B3
330
1F
100
AcDbEntity
  8
F-A_文字
  6
Continuous
 62
     7
370
     0
100
AcDbText
 10
3492.395099678281
 20
-2862.819644858855
 30
0.0
 40
45.72
  1
$m
 41
1.083333333333333
  7
ＭＳ ゴシック
100
AcDbText
  0
TEXT
  5
B4
330
1F
100
AcDbEntity
  8
F-A_文字
  6
Continuous
 62
     7
370
     0
100
AcDbText
 10
3595.552921333554
 20
-2862.819644858855
 30
0.0
 40
45.72
  1
$d
 41
1.083333333333333
  7
ＭＳ ゴシック
100
AcDbText
  0
TEXT
  5
B5
330
1F
100
AcDbEntity
  8
F-A_文字
  6
Continuous
 62
     7
370
     0
100
AcDbText
 10
3698.710742988826
 20
-2862.819644858855
 30
0.0
 40
45.72
  1
印刷
 41
1.083333333333333
  7
ＭＳ ゴシック
100
AcDbText
  0
TEXT
  5
B6
330
1F
100
AcDbEntity
  8
F-A_文字
  6
Continuous
 62
     7
370
     0
100
AcDbText
 10
3295.968027210818
 20
-2863.748995711821
 30
0.0
 40
45.72
  1
（
  7
ＭＳ ゴシック
100
AcDbText
  0
TEXT
  5
B7
330
1F
100
AcDbEntity
  8
F-A_文字
  6
Continuous
 62
     7
370
     0
100
AcDbText
 10
3460.797206917048
 20
-2863.748995711821
 30
0.0
 40
45.72
  1
,
  7
ＭＳ ゴシック
100
AcDbText
  0
TEXT
  5
B8
330
1F
100
AcDbEntity
  8
F-A_文字
  6
Continuous
 62
     7
370
     9
100
AcDbText
 10
3397.445178354582
 20
-2751.543008466656
 30
0.0
 40
45.72
  1
01
 41
1.083333333333333
  7
ＭＳ ゴシック
100
AcDbText
  0
TEXT
  5
B9
330
1F
100
AcDbEntity
  8
F-A_文字
  6
Continuous
 62
     7
370
     0
100
AcDbText
 10
2362.445095874641
 20
-2618.208743938205
 30
0.0
 40
45.72
  1
1/20
 41
1.125
  7
ＭＳ ゴシック
100
AcDbText
  0
TEXT
  5
BA
330
1F
100
AcDbEntity
  8
F-A_文字
  6
Continuous
 62
     7
370
     0
100
AcDbText
 10
-3391.752473459741
 20
-2684.873290718927
 30
0.0
 40
45.72
  1
ピノアース　玄関収納　組合せプラン　床置きタイプ　Ｂ－４０１
 41
1.161111111111111
  7
ＭＳ ゴシック
100
AcDbText
  0
LINE
  5
BB
330
1F
100
AcDbEntity
  8
0-A_文字
  6
Continuous
 62
     7
370
     9
100
AcDbLine
 10
-3743.332919558964
 20
2486.666787637478
 30
0.0
 11
-3743.332919558964
 21
2636.666787637478
 31
0.0
  0
LINE
  5
BC
330
1F
100
AcDbEntity
  8
0-A_文字
  6
Continuous
 62
     7
370
     9
100
AcDbLine
 10
-3743.332919558964
 20
2636.666787637478
 30
0.0
 11
-2563.109199698325
 21
2636.666787637478
 31
0.0
  0
LINE
  5
BD
330
1F
100
AcDbEntity
  8
0-A_文字
  6
Continuous
 62
     7
370
     9
100
AcDbLine
 10
-3743.332919558964
 20
2486.666787637478
 30
0.0
 11
-2563.109199698325
 21
2486.666787637478
 31
0.0
  0
LINE
  5
BE
330
1F
100
AcDbEntity
  8
0-A_文字
  6
Continuous
 62
     7
370
     9
100
AcDbLine
 10
-2563.109199698325
 20
2486.666787637478
 30
0.0
 11
-2563.109199698325
 21
2636.666787637478
 31
0.0
  0
TEXT
  5
BF
330
1F
100
AcDbEntity
  8
0-B_寸法
  6
Continuous
 62
     7
370
   211
100
AcDbText
 10
-462.9699653989177
 20
1128.736186244208
 30
0.0
 40
45.72
  1
24
 50
90.0
  7
ＭＳ ゴシック
100
AcDbText
  0
TEXT
  5
C0
330
1F
100
AcDbEntity
  8
0-B_寸法
  6
Continuous
 62
     7
370
   211
100
AcDbText
 10
-562.9699653989178
 20
1331.152132439451
 30
0.0
 40
45.72
  1
370
 50
90.0
  7
ＭＳ ゴシック
100
AcDbText
  0
LINE
  5
C1
330
1F
100
AcDbEntity
  8
0-B_寸法
  6
Continuous
 62
   120
370
     5
100
AcDbLine
 10
-444.5099653989178
 20
1561.151987274754
 30
0.0
 11
-444.5099653989178
 21
1191.152277604146
 31
0.0
  0
LWPOLYLINE
  5
C2
330
1F
100
AcDbEntity
  8
0-B_寸法
  6
Continuous
 62
     7
370
     9
100
AcDbPolyline
 90
        4
 70
     1
 43
4.0
 10
-442.5099653989178
 20
1191.152277604146
 42
0.4142135623731
 10
-444.5099653989178
 20
1193.152277604146
 42
0.4142135623731
 10
-446.5099653989178
 20
1191.152277604146
 42
0.4142135623731
 10
-444.5099653989178
 20
1189.152277604146
 42
0.4142135623731
  0
LINE
  5
C3
330
1F
100
AcDbEntity
  8
0-B_寸法
  6
Continuous
 62
   120
370
     5
100
AcDbLine
 10
-544.5099653989178
 20
1191.152277604146
 30
0.0
 11
-344.5099653989178
 21
1191.152277604146
 31
0.0
  0
LINE
  5
C4
330
1F
100
AcDbEntity
  8
0-B_寸法
  6
Continuous
 62
   120
370
     5
100
AcDbLine
 10
-544.5099653989178
 20
1561.151987274754
 30
0.0
 11
-544.5099653989178
 21
1191.152277604146
 31
0.0
  0
LWPOLYLINE
  5
C5
330
1F
100
AcDbEntity
  8
0-B_寸法
  6
Continuous
 62
     7
370
     9
100
AcDbPolyline
 90
        4
 70
     1
 43
4.0
 10
-542.5099653989178
 20
1191.152277604146
 42
0.4142135623731
 10
-544.5099653989178
 20
1193.152277604146
 42
0.4142135623731
 10
-546.5099653989178
 20
1191.152277604146
 42
0.4142135623731
 10
-544.5099653989178
 20
1189.152277604146
 42
0.4142135623731
  0
LINE
  5
C6
330
1F
100
AcDbEntity
  8
0-B_寸法
  6
Continuous
 62
   120
370
     5
100
AcDbLine
 10
-444.5099653989178
 20
1215.152277604147
 30
0.0
 11
-344.5099653989178
 21
1215.152277604147
 31
0.0
  0
LWPOLYLINE
  5
C7
330
1F
100
AcDbEntity
  8
0-B_寸法
  6
Continuous
 62
     7
370
     9
100
AcDbPolyline
 90
        4
 70
     1
 43
4.0
 10
-442.5099653989178
 20
1215.152277604147
 42
0.4142135623731
 10
-444.5099653989178
 20
1217.152277604147
 42
0.4142135623731
 10
-446.5099653989178
 20
1215.152277604147
 42
0.4142135623731
 10
-444.5099653989178
 20
1213.152277604147
 42
0.4142135623731
  0
LWPOLYLINE
  5
C8
330
1F
100
AcDbEntity
  8
0-B_寸法
  6
Continuous
 62
     7
370
     9
100
AcDbPolyline
 90
        4
 70
     1
 43
4.0
 10
-542.5099653989178
 20
1561.151987274754
 42
0.4142135623731
 10
-544.5099653989178
 20
1563.151987274754
 42
0.4142135623731
 10
-546.5099653989178
 20
1561.151987274754
 42
0.4142135623731
 10
-544.5099653989178
 20
1559.151987274754
 42
0.4142135623731
  0
TEXT
  5
C9
330
1F
100
AcDbEntity
  8
0-B_寸法
  6
Continuous
 62
     7
370
   211
100
AcDbText
 10
-462.9699653989177
 20
1200.651954282777
 30
0.0
 40
45.72
  1
1
 50
90.0
  7
ＭＳ ゴシック
100
AcDbText
  0
TEXT
  5
CA
330
1F
100
AcDbEntity
  8
0-B_寸法
  6
Continuous
 62
     7
370
   211
100
AcDbText
 10
-462.9699653989177
 20
1343.652132439451
 30
0.0
 40
45.72
  1
345
 50
90.0
  7
ＭＳ ゴシック
100
AcDbText
  0
LINE
  5
CB
330
1F
100
AcDbEntity
  8
0-B_寸法
  6
Continuous
 62
   120
370
     5
100
AcDbLine
 10
-444.5099653989178
 20
1216.152277604146
 30
0.0
 11
-344.5099653989178
 21
1216.152277604146
 31
0.0
  0
LINE
  5
CC
330
1F
100
AcDbEntity
  8
0-B_寸法
  6
Continuous
 62
   120
370
     5
100
AcDbLine
 10
-544.5099653989178
 20
1561.151987274754
 30
0.0
 11
-344.5099653989178
 21
1561.151987274754
 31
0.0
  0
LWPOLYLINE
  5
CD
330
1F
100
AcDbEntity
  8
0-B_寸法
  6
Continuous
 62
     7
370
     9
100
AcDbPolyline
 90
        4
 70
     1
 43
4.0
 10
-442.5099653989178
 20
1216.152277604146
 42
0.4142135623731
 10
-444.5099653989178
 20
1218.152277604146
 42
0.4142135623731
 10
-446.5099653989178
 20
1216.152277604146
 42
0.4142135623731
 10
-444.5099653989178
 20
1214.152277604146
 42
0.4142135623731
  0
LWPOLYLINE
  5
CE
330
1F
100
AcDbEntity
  8
0-B_寸法
  6
Continuous
 62
     7
370
     9
100
AcDbPolyline
 90
        4
 70
     1
 43
4.0
 10
-442.5099653989178
 20
1561.151987274754
 42
0.4142135623731
 10
-444.5099653989178
 20
1563.151987274754
 42
0.4142135623731
 10
-446.5099653989178
 20
1561.151987274754
 42
0.4142135623731
 10
-444.5099653989178
 20
1559.151987274754
 42
0.4142135623731
  0
LINE
  5
CF
330
1F
100
AcDbEntity
  8
0-B_寸法
  6
Continuous
 62
   120
370
     5
100
AcDbLine
 10
-544.5099653989178
 20
-1233.292859580916
 30
0.0
 11
-344.5099653989178
 21
-1233.292859580916
 31
0.0
  0
LINE
  5
D0
330
1F
100
AcDbEntity
  8
0-B_寸法
  6
Continuous
 62
   120
370
     5
100
AcDbLine
 10
-544.5099653989178
 20
-1169.292859580916
 30
0.0
 11
-344.5099653989178
 21
-1169.292859580916
 31
0.0
  0
LWPOLYLINE
  5
D1
330
1F
100
AcDbEntity
  8
0-B_寸法
  6
Continuous
 62
     7
370
     9
100
AcDbPolyline
 90
        4
 70
     1
 43
4.0
 10
-542.5099653989178
 20
-1233.292859580916
 42
0.4142135623731
 10
-544.5099653989178
 20
-1231.292859580916
 42
0.4142135623731
 10
-546.5099653989178
 20
-1233.292859580916
 42
0.4142135623731
 10
-544.5099653989178
 20
-1235.292859580916
 42
0.4142135623731
  0
LWPOLYLINE
  5
D2
330
1F
100
AcDbEntity
  8
0-B_寸法
  6
Continuous
 62
     7
370
     9
100
AcDbPolyline
 90
        4
 70
     1
 43
4.0
 10
-542.5099653989178
 20
-1169.292859580916
 42
0.4142135623731
 10
-544.5099653989178
 20
-1167.292859580916
 42
0.4142135623731
 10
-546.5099653989178
 20
-1169.292859580916
 42
0.4142135623731
 10
-544.5099653989178
 20
-1171.292859580916
 42
0.4142135623731
  0
LINE
  5
D3
330
1F
100
AcDbEntity
  8
0-B_寸法
  6
Continuous
 62
   120
370
     5
100
AcDbLine
 10
-544.5099653989178
 20
-1169.292859580916
 30
0.0
 11
-544.5099653989178
 21
-1233.292859580916
 31
0.0
  0
TEXT
  5
D4
330
1F
100
AcDbEntity
  8
0-B_寸法
  6
Continuous
 62
     7
370
   211
100
AcDbText
 10
-562.9699653989178
 20
-1231.292859580916
 30
0.0
 40
45.72
  1
64
 50
90.0
  7
ＭＳ ゴシック
100
AcDbText
  0
TEXT
  5
D5
330
1F
100
AcDbEntity
  8
0-B_寸法
  6
Continuous
 62
     7
370
   211
100
AcDbText
 10
-462.9699653989155
 20
-474.763566550248
 30
0.0
 40
45.72
  1
15
 50
90.0
  7
ＭＳ ゴシック
100
AcDbText
  0
LINE
  5
D6
330
1F
100
AcDbEntity
  8
0-B_寸法
  6
Continuous
 62
   120
370
     5
100
AcDbLine
 10
-544.5099653989155
 20
-1169.292859580916
 30
0.0
 11
-444.5099653989155
 21
-1169.292859580916
 31
0.0
  0
LWPOLYLINE
  5
D7
330
1F
100
AcDbEntity
  8
0-B_寸法
  6
Continuous
 62
     7
370
     9
100
AcDbPolyline
 90
        4
 70
     1
 43
4.0
 10
-542.5099653989155
 20
-1169.292859580916
 42
0.4142135623731
 10
-544.5099653989155
 20
-1167.292859580916
 42
0.4142135623731
 10
-546.5099653989155
 20
-1169.292859580916
 42
0.4142135623731
 10
-544.5099653989155
 20
-1171.292859580916
 42
0.4142135623731
  0
LINE
  5
D8
330
1F
100
AcDbEntity
  8
0-1_本体
  6
Continuous
 62
    92
370
    13
100
AcDbLine
 10
-294.5099653989155
 20
-1169.292859580916
 30
0.0
 11
501.4900346010836
 21
-1169.292859580916
 31
0.0
  0
LINE
  5
D9
330
1F
100
AcDbEntity
  8
0-4_棚
  6
Continuous
 62
    92
370
    13
100
AcDbLine
 10
-279.5099653989178
 20
1268.151987274754
 30
0.0
 11
486.4900346010836
 21
1268.151987274754
 31
0.0
  0
LINE
  5
DA
330
1F
100
AcDbEntity
  8
0-1_本体
  6
Continuous
 62
    40
370
    15
100
AcDbLine
 10
486.4900346010836
 20
1558.151987274754
 30
0.0
 11
486.4900346010836
 21
1216.151987274754
 31
0.0
  0
LINE
  5
DB
330
1F
100
AcDbEntity
  8
0-1_本体
  6
Continuous
 62
    40
370
    15
100
AcDbLine
 10
-279.5099653989178
 20
1558.151987274754
 30
0.0
 11
-279.5099653989178
 21
1216.151987274754
 31
0.0
  0
LINE
  5
DC
330
1F
100
AcDbEntity
  8
0-1_本体
  6
Continuous
 62
    40
370
    15
100
AcDbLine
 10
501.4900346010836
 20
1216.151987274754
 30
0.0
 11
501.4900346010836
 21
1561.151987274756
 31
0.0
  0
LINE
  5
DD
330
1F
100
AcDbEntity
  8
0-1_本体
  6
Continuous
 62
    40
370
    15
100
AcDbLine
 10
486.4900346010836
 20
1216.151987274754
 30
0.0
 11
501.4900346010836
 21
1216.151987274754
 31
0.0
  0
LINE
  5
DE
330
1F
100
AcDbEntity
  8
0-1_本体
  6
Continuous
 62
    40
370
    15
100
AcDbLine
 10
-294.5099653989178
 20
1216.151987274754
 30
0.0
 11
-294.5099653989178
 21
1561.151987274756
 31
0.0
  0
LINE
  5
DF
330
1F
100
AcDbEntity
  8
0-1_本体
  6
Continuous
 62
    40
370
    15
100
AcDbLine
 10
-279.5099653989178
 20
1216.151987274754
 30
0.0
 11
-294.5099653989178
 21
1216.151987274754
 31
0.0
  0
LINE
  5
E0
330
1F
100
AcDbEntity
  8
0-1_本体
  6
Continuous
 62
    92
370
    13
100
AcDbLine
 10
-279.5099653989155
 20
-1154.292859580916
 30
0.0
 11
486.4900346010836
 21
-1154.292859580916
 31
0.0
  0
LINE
  5
E1
330
1F
100
AcDbEntity
  8
0-6_桟木
  6
JWW_DASHED2
 62
     7
370
     9
100
AcDbLine
 10
486.4900346010836
 20
-1090.292859580915
 30
0.0
 11
-279.5099653989155
 21
-1090.292859580915
 31
0.0
  0
LINE
  5
E2
330
1F
100
AcDbEntity
  8
0-0_補助線
  6
JWW_HOJO
 62
   120
370
     5
100
AcDbLine
 10
-544.5099653989178
 20
1611.151987274756
 30
0.0
 11
-544.5099653989178
 21
938.1519872747543
 31
0.0
  0
LINE
  5
E3
330
1F
100
AcDbEntity
  8
0-0_補助線
  6
JWW_HOJO
 62
   120
370
     5
100
AcDbLine
 10
-344.5099653989178
 20
1611.151987274756
 30
0.0
 11
-344.5099653989178
 21
938.1519872747543
 31
0.0
  0
LINE
  5
E4
330
1F
100
AcDbEntity
  8
0-0_補助線
  6
JWW_HOJO
 62
   120
370
     5
100
AcDbLine
 10
-444.5099653989178
 20
1611.151987274756
 30
0.0
 11
-444.5099653989178
 21
938.1519872747543
 31
0.0
  0
LINE
  5
E5
330
1F
100
AcDbEntity
  8
0-4_棚
  6
Continuous
 62
    92
370
    13
100
AcDbLine
 10
-279.5099653989155
 20
-550.3144685031712
 30
0.0
 11
486.4900346010836
 21
-550.3144685031712
 31
0.0
  0
LINE
  5
E6
330
1F
100
AcDbEntity
  8
0-4_棚
  6
Continuous
 62
    92
370
    13
100
AcDbLine
 10
-279.5099653989155
 20
-562.3144685031713
 30
0.0
 11
486.4900346010836
 21
-562.3144685031713
 31
0.0
  0
LINE
  5
E7
330
1F
100
AcDbEntity
  8
0-4_棚
  6
Continuous
 62
    92
370
    13
100
AcDbLine
 10
-279.5099653989155
 20
-742.3144685031713
 30
0.0
 11
486.4900346010836
 21
-742.3144685031713
 31
0.0
  0
LINE
  5
E8
330
1F
100
AcDbEntity
  8
0-4_棚
  6
Continuous
 62
    92
370
    13
100
AcDbLine
 10
-279.5099653989155
 20
-754.3144685031714
 30
0.0
 11
486.4900346010836
 21
-754.3144685031714
 31
0.0
  0
LINE
  5
E9
330
1F
100
AcDbEntity
  8
0-4_棚
  6
Continuous
 62
    92
370
    13
100
AcDbLine
 10
-279.5099653989155
 20
-934.3153675467308
 30
0.0
 11
486.4900346010836
 21
-934.3153675467308
 31
0.0
  0
LINE
  5
EA
330
1F
100
AcDbEntity
  8
0-4_棚
  6
Continuous
 62
    92
370
    13
100
AcDbLine
 10
-279.5099653989155
 20
-946.3153675467305
 30
0.0
 11
486.4900346010836
 21
-946.3153675467305
 31
0.0
  0
LINE
  5
EB
330
1F
100
AcDbEntity
  8
0-0_補助線
  6
JWW_HOJO
 62
   120
370
     5
100
AcDbLine
 10
-444.5099653989155
 20
-408.2928595809159
 30
0.0
 11
-444.5099653989155
 21
-1563.792859580915
 31
0.0
  0
LINE
  5
EC
330
1F
100
AcDbEntity
  8
0-B_寸法
  6
Continuous
 62
   120
370
     5
100
AcDbLine
 10
-544.5099653989155
 20
-408.2928595809159
 30
0.0
 11
-344.509965259299
 21
-408.2928595809148
 31
0.0
  0
LWPOLYLINE
  5
ED
330
1F
100
AcDbEntity
  8
0-B_寸法
  6
Continuous
 62
     7
370
     9
100
AcDbPolyline
 90
        4
 70
     1
 43
4.0
 10
-542.5099653989155
 20
-408.2928595809159
 42
0.4142135623731
 10
-544.5099653989155
 20
-406.2928595809159
 42
0.4142135623731
 10
-546.5099653989155
 20
-408.2928595809159
 42
0.4142135623731
 10
-544.5099653989155
 20
-410.2928595809159
 42
0.4142135623731
  0
LINE
  5
EE
330
1F
100
AcDbEntity
  8
0-B_寸法
  6
Continuous
 62
   120
370
     5
100
AcDbLine
 10
-544.5099653989155
 20
-408.2928595809159
 30
0.0
 11
-544.5099653989155
 21
-1169.292859580916
 31
0.0
  0
LINE
  5
EF
330
1F
100
AcDbEntity
  8
0-1_本体
  6
Continuous
 62
    92
370
    13
100
AcDbLine
 10
-294.5099653989155
 20
-408.2928595809159
 30
0.0
 11
-294.5099653989155
 21
-1169.292859580916
 31
0.0
  0
LINE
  5
F0
330
1F
100
AcDbEntity
  8
0-1_本体
  6
Continuous
 62
    92
370
    13
100
AcDbLine
 10
486.4900346010836
 20
-1169.292859580916
 30
0.0
 11
486.4900346010836
 21
-408.2928595809159
 31
0.0
  0
LINE
  5
F1
330
1F
100
AcDbEntity
  8
0-1_本体
  6
Continuous
 62
    92
370
    13
100
AcDbLine
 10
-279.5099653989155
 20
-408.2928595809159
 30
0.0
 11
-279.5099653989155
 21
-1169.292859580916
 31
0.0
  0
LINE
  5
F2
330
1F
100
AcDbEntity
  8
0-6_桟木
  6
JWW_DASHED2
 62
     7
370
     9
100
AcDbLine
 10
486.4900346010836
 20
-487.2928595809157
 30
0.0
 11
-279.5099653989155
 21
-487.2928595809157
 31
0.0
  0
LINE
  5
F3
330
1F
100
AcDbEntity
  8
0-1_本体
  6
Continuous
 62
    92
370
    13
100
AcDbLine
 10
-279.5099653989155
 20
-423.2928595809159
 30
0.0
 11
486.4900346010836
 21
-423.2928595809159
 31
0.0
  0
TEXT
  5
F4
330
1F
100
AcDbEntity
  8
0-B_寸法
  6
Continuous
 62
     7
370
   211
100
AcDbText
 10
-562.9699653989155
 20
-833.7928793761014
 30
0.0
 40
45.72
  1
761
 50
90.0
  7
ＭＳ ゴシック
100
AcDbText
  0
LINE
  5
F5
330
1F
100
AcDbEntity
  8
0-B_寸法
  6
Continuous
 62
   120
370
     5
100
AcDbLine
 10
-444.5099653989155
 20
-1169.292859580916
 30
0.0
 11
-444.5099653989155
 21
-1154.292859580916
 31
0.0
  0
LWPOLYLINE
  5
F6
330
1F
100
AcDbEntity
  8
0-B_寸法
  6
Continuous
 62
     7
370
     9
100
AcDbPolyline
 90
        4
 70
     1
 43
4.0
 10
-442.5099653989155
 20
-1169.292859580916
 42
0.4142135623731
 10
-444.5099653989155
 20
-1167.292859580916
 42
0.4142135623731
 10
-446.5099653989155
 20
-1169.292859580916
 42
0.4142135623731
 10
-444.5099653989155
 20
-1171.292859580916
 42
0.4142135623731
  0
LWPOLYLINE
  5
F7
330
1F
100
AcDbEntity
  8
0-B_寸法
  6
Continuous
 62
     7
370
     9
100
AcDbPolyline
 90
        4
 70
     1
 43
4.0
 10
-442.5099653989155
 20
-1154.292859580916
 42
0.4142135623731
 10
-444.5099653989155
 20
-1152.292859580916
 42
0.4142135623731
 10
-446.5099653989155
 20
-1154.292859580916
 42
0.4142135623731
 10
-444.5099653989155
 20
-1156.292859580916
 42
0.4142135623731
  0
LINE
  5
F8
330
1F
100
AcDbEntity
  8
0-B_寸法
  6
Continuous
 62
   120
370
     5
100
AcDbLine
 10
-444.5099653989155
 20
-1169.292859580916
 30
0.0
 11
-344.5099653989155
 21
-1169.292859580916
 31
0.0
  0
LINE
  5
F9
330
1F
100
AcDbEntity
  8
0-B_寸法
  6
Continuous
 62
   120
370
     5
100
AcDbLine
 10
-444.5099653989155
 20
-1154.292859580916
 30
0.0
 11
-344.5099653989155
 21
-1154.292859580916
 31
0.0
  0
LINE
  5
FA
330
1F
100
AcDbEntity
  8
0-B_寸法
  6
Continuous
 62
   120
370
     5
100
AcDbLine
 10
-444.5099653989155
 20
-1154.292859580916
 30
0.0
 11
-444.5099653989155
 21
-423.2928595809159
 31
0.0
  0
LWPOLYLINE
  5
FB
330
1F
100
AcDbEntity
  8
0-B_寸法
  6
Continuous
 62
     7
370
     9
100
AcDbPolyline
 90
        4
 70
     1
 43
4.0
 10
-442.5099653989155
 20
-423.2928595809159
 42
0.4142135623731
 10
-444.5099653989155
 20
-421.2928595809159
 42
0.4142135623731
 10
-446.5099653989155
 20
-423.2928595809159
 42
0.4142135623731
 10
-444.5099653989155
 20
-425.2928595809159
 42
0.4142135623731
  0
LINE
  5
FC
330
1F
100
AcDbEntity
  8
0-B_寸法
  6
Continuous
 62
   120
370
     5
100
AcDbLine
 10
-444.5099653989155
 20
-423.2928595809159
 30
0.0
 11
-344.5099653989155
 21
-423.2928595809159
 31
0.0
  0
TEXT
  5
FD
330
1F
100
AcDbEntity
  8
0-B_寸法
  6
Continuous
 62
     7
370
   211
100
AcDbText
 10
-462.9699653989155
 20
-833.7928595809151
 30
0.0
 40
45.72
  1
731
 50
90.0
  7
ＭＳ ゴシック
100
AcDbText
  0
LINE
  5
FE
330
1F
100
AcDbEntity
  8
0-B_寸法
  6
Continuous
 62
   120
370
     5
100
AcDbLine
 10
-444.5099653989155
 20
-423.2928595809159
 30
0.0
 11
-444.5099653989155
 21
-408.2928595809159
 31
0.0
  0
LWPOLYLINE
  5
FF
330
1F
100
AcDbEntity
  8
0-B_寸法
  6
Continuous
 62
     7
370
     9
100
AcDbPolyline
 90
        4
 70
     1
 43
4.0
 10
-442.5099653989155
 20
-408.2928595809159
 42
0.4142135623731
 10
-444.5099653989155
 20
-406.2928595809159
 42
0.4142135623731
 10
-446.5099653989155
 20
-408.2928595809159
 42
0.4142135623731
 10
-444.5099653989155
 20
-410.2928595809159
 42
0.4142135623731
  0
TEXT
  5
100
330
1F
100
AcDbEntity
  8
0-B_寸法
  6
Continuous
 62
     7
370
   211
100
AcDbText
 10
-462.9699653989155
 20
-1162.674573590871
 30
0.0
 40
45.72
  1
15
 50
90.0
  7
ＭＳ ゴシック
100
AcDbText
  0
LINE
  5
101
330
1F
100
AcDbEntity
  8
0-0_補助線
  6
JWW_HOJO
 62
   120
370
     5
100
AcDbLine
 10
-344.5099653989155
 20
-226.2928595809149
 30
0.0
 11
-344.5099653989155
 21
-1563.792859580915
 31
0.0
  0
LINE
  5
102
330
1F
100
AcDbEntity
  8
0-0_補助線
  6
JWW_HOJO
 62
   120
370
     5
100
AcDbLine
 10
-544.5099653989155
 20
-326.2928595809154
 30
0.0
 11
-544.5099653989155
 21
-1563.792859580915
 31
0.0
  0
LINE
  5
103
330
1F
100
AcDbEntity
  8
0-4_棚
  6
Continuous
 62
    92
370
    13
100
AcDbLine
 10
-295.5099653989157
 20
-378.2928595809159
 30
0.0
 11
-295.5099653989157
 21
-408.2928595809159
 31
0.0
  0
LINE
  5
104
330
1F
100
AcDbEntity
  8
0-B_寸法
  6
Continuous
 62
   120
370
     5
100
AcDbLine
 10
-544.5099653989155
 20
-408.2928513329216
 30
0.0
 11
-544.5099653989155
 21
-378.2928595809159
 31
0.0
  0
LWPOLYLINE
  5
105
330
1F
100
AcDbEntity
  8
0-B_寸法
  6
Continuous
 62
     7
370
     9
100
AcDbPolyline
 90
        4
 70
     1
 43
4.0
 10
-542.5099653989155
 20
-408.2928513329216
 42
0.4142135623731
 10
-544.5099653989155
 20
-406.2928513329216
 42
0.4142135623731
 10
-546.5099653989155
 20
-408.2928513329216
 42
0.4142135623731
 10
-544.5099653989155
 20
-410.2928513329216
 42
0.4142135623731
  0
LWPOLYLINE
  5
106
330
1F
100
AcDbEntity
  8
0-B_寸法
  6
Continuous
 62
     7
370
     9
100
AcDbPolyline
 90
        4
 70
     1
 43
4.0
 10
-542.5099653989155
 20
-378.2928595809159
 42
0.4142135623731
 10
-544.5099653989155
 20
-376.2928595809159
 42
0.4142135623731
 10
-546.5099653989155
 20
-378.2928595809159
 42
0.4142135623731
 10
-544.5099653989155
 20
-380.2928595809159
 42
0.4142135623731
  0
LINE
  5
107
330
1F
100
AcDbEntity
  8
0-B_寸法
  6
Continuous
 62
   120
370
     5
100
AcDbLine
 10
-544.5099653989155
 20
-408.2928513329216
 30
0.0
 11
-344.5099653989155
 21
-408.2928513329216
 31
0.0
  0
LINE
  5
108
330
1F
100
AcDbEntity
  8
0-B_寸法
  6
Continuous
 62
   120
370
     5
100
AcDbLine
 10
-544.5099653989155
 20
-378.2928595809159
 30
0.0
 11
-344.5099653989155
 21
-378.2928595809159
 31
0.0
  0
TEXT
  5
109
330
1F
100
AcDbEntity
  8
0-B_寸法
  6
Continuous
 62
     7
370
   211
100
AcDbText
 10
-562.9699653989155
 20
-373.2928595809153
 30
0.0
 40
45.72
  1
30
 50
90.0
  7
ＭＳ ゴシック
100
AcDbText
  0
LINE
  5
10A
330
1F
100
AcDbEntity
  8
0-0_補助線
  6
JWW_HOJO
 62
     7
370
     9
100
AcDbLine
 10
501.4900346010836
 20
1611.151987274756
 30
0.0
 11
501.4900346010836
 21
-1563.792859580915
 31
0.0
  0
LINE
  5
10B
330
1F
100
AcDbEntity
  8
0-0_補助線
  6
JWW_HOJO
 62
     7
370
     9
100
AcDbLine
 10
-294.5099653989178
 20
1611.151987274756
 30
0.0
 11
-294.5099653989178
 21
-1563.792859580915
 31
0.0
  0
LINE
  5
10C
330
1F
100
AcDbEntity
  8
0-0_補助線
  6
JWW_HOJO
 62
   120
370
     5
100
AcDbLine
 10
949.4900346010843
 20
-1563.792859580915
 30
0.0
 11
949.4900346010843
 21
-226.2928595809149
 31
0.0
  0
LINE
  5
10D
330
1F
100
AcDbEntity
  8
0-0_補助線
  6
JWW_HOJO
 62
   120
370
     5
100
AcDbLine
 10
1049.490034601084
 20
-1563.792859580915
 30
0.0
 11
1049.490034601084
 21
-226.2928595809149
 31
0.0
  0
LINE
  5
10E
330
1F
100
AcDbEntity
  8
0-1_本体
  6
Continuous
 62
    92
370
    13
100
AcDbLine
 10
516.4900346010836
 20
-1169.292859580916
 30
0.0
 11
501.4900346010836
 21
-1169.292859580916
 31
0.0
  0
LINE
  5
10F
330
1F
100
AcDbEntity
  8
0-1_本体
  6
Continuous
 62
    92
370
    13
100
AcDbLine
 10
884.4900346010843
 20
-1169.292859580916
 30
0.0
 11
899.4900346010843
 21
-1169.292859580916
 31
0.0
  0
LINE
  5
110
330
1F
100
AcDbEntity
  8
0-1_本体
  6
Continuous
 62
    40
370
    15
100
AcDbLine
 10
884.4900346010843
 20
1216.151987274754
 30
0.0
 11
899.4900346010843
 21
1216.151987274754
 31
0.0
  0
LINE
  5
111
330
1F
100
AcDbEntity
  8
0-1_本体
  6
Continuous
 62
    40
370
    15
100
AcDbLine
 10
899.4900346010843
 20
1216.151987274754
 30
0.0
 11
899.4900346010843
 21
1561.151987274756
 31
0.0
  0
LINE
  5
112
330
1F
100
AcDbEntity
  8
0-1_本体
  6
Continuous
 62
    40
370
    15
100
AcDbLine
 10
884.4900346010843
 20
1558.151987274754
 30
0.0
 11
884.4900346010843
 21
1216.151987274754
 31
0.0
  0
LINE
  5
113
330
1F
100
AcDbEntity
  8
0-1_本体
  6
Continuous
 62
    40
370
    15
100
AcDbLine
 10
899.4900346010843
 20
1561.151987274756
 30
0.0
 11
891.4900346010836
 21
1561.151987274756
 31
0.0
  0
LINE
  5
114
330
1F
100
AcDbEntity
  8
0-1_本体
  6
Continuous
 62
    40
370
    15
100
AcDbLine
 10
891.4900346010836
 20
1561.151987274756
 30
0.0
 11
891.4900346010836
 21
1558.151987274754
 31
0.0
  0
LINE
  5
115
330
1F
100
AcDbEntity
  8
0-1_本体
  6
Continuous
 62
    92
370
    13
100
AcDbLine
 10
516.4900346010836
 20
-1154.292859580916
 30
0.0
 11
884.4900346010843
 21
-1154.292859580916
 31
0.0
  0
LINE
  5
116
330
1F
100
AcDbEntity
  8
0-1_本体
  6
Continuous
 62
    92
370
    13
100
AcDbLine
 10
516.4900346010836
 20
-1169.292859580916
 30
0.0
 11
884.4900346010843
 21
-1169.292859580916
 31
0.0
  0
LINE
  5
117
330
1F
100
AcDbEntity
  8
0-1_本体
  6
Continuous
 62
    40
370
    15
100
AcDbLine
 10
516.4900346010836
 20
1216.151987274754
 30
0.0
 11
501.4900346010836
 21
1216.151987274754
 31
0.0
  0
LINE
  5
118
330
1F
100
AcDbEntity
  8
0-1_本体
  6
Continuous
 62
    40
370
    15
100
AcDbLine
 10
516.4900346010836
 20
1558.151987274754
 30
0.0
 11
516.4900346010836
 21
1216.151987274754
 31
0.0
  0
LINE
  5
119
330
1F
100
AcDbEntity
  8
0-1_本体
  6
Continuous
 62
    40
370
    15
100
AcDbLine
 10
501.4900346010836
 20
1561.151987274756
 30
0.0
 11
509.4900346010854
 21
1561.151987274756
 31
0.0
  0
LINE
  5
11A
330
1F
100
AcDbEntity
  8
0-1_本体
  6
Continuous
 62
    40
370
    15
100
AcDbLine
 10
509.4900346010854
 20
1558.151987274754
 30
0.0
 11
891.4900346010836
 21
1558.151987274754
 31
0.0
  0
LINE
  5
11B
330
1F
100
AcDbEntity
  8
0-1_本体
  6
Continuous
 62
    40
370
    15
100
AcDbLine
 10
509.4900346010854
 20
1559.651987274755
 30
0.0
 11
891.4900346010836
 21
1559.651987274755
 31
0.0
  0
LINE
  5
11C
330
1F
100
AcDbEntity
  8
0-1_本体
  6
Continuous
 62
     7
370
     9
100
AcDbLine
 10
509.4900346010854
 20
1561.151987274756
 30
0.0
 11
891.4900346010836
 21
1561.151987274756
 31
0.0
  0
LINE
  5
11D
330
1F
100
AcDbEntity
  8
0-1_本体
  6
Continuous
 62
    40
370
    15
100
AcDbLine
 10
509.4900346010854
 20
1561.151987274756
 30
0.0
 11
509.4900346010854
 21
1558.151987274754
 31
0.0
  0
LINE
  5
11E
330
1F
100
AcDbEntity
  8
0-4_棚
  6
Continuous
 62
    92
370
    13
100
AcDbLine
 10
516.4900346010836
 20
1268.151987274754
 30
0.0
 11
884.4900346010843
 21
1268.151987274754
 31
0.0
  0
LINE
  5
11F
330
1F
100
AcDbEntity
  8
0-6_桟木
  6
JWW_DASHED2
 62
     7
370
     9
100
AcDbLine
 10
884.4900346010843
 20
-1090.292859580915
 30
0.0
 11
516.4900346010836
 21
-1090.292859580915
 31
0.0
  0
LINE
  5
120
330
1F
100
AcDbEntity
  8
0-0_補助線
  6
JWW_HOJO
 62
   120
370
     5
100
AcDbLine
 10
949.4900346010843
 20
938.1519872747543
 30
0.0
 11
949.4900346010843
 21
1611.151987274756
 31
0.0
  0
LINE
  5
121
330
1F
100
AcDbEntity
  8
0-0_補助線
  6
JWW_HOJO
 62
     7
370
     9
100
AcDbLine
 10
899.4900346010843
 20
-1563.792859580915
 30
0.0
 11
899.4900346010843
 21
1611.151987274756
 31
0.0
  0
LINE
  5
122
330
1F
100
AcDbEntity
  8
0-4_棚
  6
Continuous
 62
    92
370
    13
100
AcDbLine
 10
516.4900346010836
 20
-550.3144685031712
 30
0.0
 11
884.4900346010843
 21
-550.3144685031712
 31
0.0
  0
LINE
  5
123
330
1F
100
AcDbEntity
  8
0-4_棚
  6
Continuous
 62
    92
370
    13
100
AcDbLine
 10
516.4900346010836
 20
-562.3144685031713
 30
0.0
 11
884.4900346010843
 21
-562.3144685031713
 31
0.0
  0
LINE
  5
124
330
1F
100
AcDbEntity
  8
0-4_棚
  6
Continuous
 62
    92
370
    13
100
AcDbLine
 10
516.4900346010836
 20
-742.3144685031713
 30
0.0
 11
884.4900346010843
 21
-742.3144685031713
 31
0.0
  0
LINE
  5
125
330
1F
100
AcDbEntity
  8
0-4_棚
  6
Continuous
 62
    92
370
    13
100
AcDbLine
 10
516.4900346010836
 20
-754.3144685031714
 30
0.0
 11
884.4900346010843
 21
-754.3144685031714
 31
0.0
  0
LINE
  5
126
330
1F
100
AcDbEntity
  8
0-4_棚
  6
Continuous
 62
    92
370
    13
100
AcDbLine
 10
516.4900346010836
 20
-934.3153675467308
 30
0.0
 11
884.4900346010843
 21
-934.3153675467308
 31
0.0
  0
LINE
  5
127
330
1F
100
AcDbEntity
  8
0-4_棚
  6
Continuous
 62
    92
370
    13
100
AcDbLine
 10
516.4900346010836
 20
-946.3153675467305
 30
0.0
 11
884.4900346010843
 21
-946.3153675467305
 31
0.0
  0
LINE
  5
128
330
1F
100
AcDbEntity
  8
0-1_本体
  6
Continuous
 62
    92
370
    13
100
AcDbLine
 10
516.4900346010836
 20
-408.2928595809159
 30
0.0
 11
516.4900346010836
 21
-1169.292859580916
 31
0.0
  0
LINE
  5
129
330
1F
100
AcDbEntity
  8
0-1_本体
  6
Continuous
 62
    92
370
    13
100
AcDbLine
 10
884.4900346010843
 20
-1169.292859580916
 30
0.0
 11
884.4900346010843
 21
-408.2928595809159
 31
0.0
  0
LINE
  5
12A
330
1F
100
AcDbEntity
  8
0-1_本体
  6
Continuous
 62
    92
370
    13
100
AcDbLine
 10
899.4900346010843
 20
-1169.292859580916
 30
0.0
 11
899.4900346010843
 21
-408.2928595809159
 31
0.0
  0
LINE
  5
12B
330
1F
100
AcDbEntity
  8
0-6_桟木
  6
JWW_DASHED2
 62
     7
370
     9
100
AcDbLine
 10
884.4900346010843
 20
-487.2928595809162
 30
0.0
 11
516.4900346010836
 21
-487.2928595809162
 31
0.0
  0
LINE
  5
12C
330
1F
100
AcDbEntity
  8
0-1_本体
  6
Continuous
 62
    92
370
    13
100
AcDbLine
 10
516.4900346010836
 20
-423.2928595809159
 30
0.0
 11
884.4900346010843
 21
-423.2928595809159
 31
0.0
  0
LINE
  5
12D
330
1F
100
AcDbEntity
  8
0-4_棚
  6
Continuous
 62
    92
370
    13
100
AcDbLine
 10
900.4900346010834
 20
-408.2928595809159
 30
0.0
 11
900.4900346010834
 21
-378.2928595809159
 31
0.0
  0
LINE
  5
12E
330
1F
100
AcDbEntity
  8
0-0_補助線
  6
JWW_HOJO
 62
   120
370
     5
100
AcDbLine
 10
-544.5099653989178
 20
1611.151987274756
 30
0.0
 11
949.4900346010843
 21
1611.151987274756
 31
0.0
  0
LINE
  5
12F
330
1F
100
AcDbEntity
  8
0-0_補助線
  6
JWW_HOJO
 62
   120
370
     5
100
AcDbLine
 10
-544.5099653989178
 20
938.1519872747543
 30
0.0
 11
949.4900346010843
 21
938.1519872747543
 31
0.0
  0
LINE
  5
130
330
1F
100
AcDbEntity
  8
0-0_補助線
  6
JWW_HOJO
 62
     7
370
     9
100
AcDbLine
 10
-544.5099653989178
 20
1561.151987274756
 30
0.0
 11
949.4900346010843
 21
1561.151987274756
 31
0.0
  0
LINE
  5
131
330
1F
100
AcDbEntity
  8
0-0_補助線
  6
JWW_HOJO
 62
     7
370
     9
100
AcDbLine
 10
-544.5099653989178
 20
1216.151987274754
 30
0.0
 11
949.4900346010843
 21
1216.151987274754
 31
0.0
  0
LINE
  5
132
330
1F
100
AcDbEntity
  8
0-0_補助線
  6
JWW_HOJO
 62
   120
370
     5
100
AcDbLine
 10
-544.5099653989178
 20
1038.151987274754
 30
0.0
 11
949.4900346010843
 21
1038.151987274754
 31
0.0
  0
LINE
  5
133
330
1F
100
AcDbEntity
  8
0-0_補助線
  6
JWW_HOJO
 62
   120
370
     5
100
AcDbLine
 10
-344.5099653989155
 20
-226.2928595809149
 30
0.0
 11
1049.490034601084
 21
-226.2928595809149
 31
0.0
  0
LINE
  5
134
330
1F
100
AcDbEntity
  8
0-0_補助線
  6
JWW_HOJO
 62
   120
370
     5
100
AcDbLine
 10
1049.490034601084
 20
-326.2928595809154
 30
0.0
 11
-544.5099653989155
 21
-326.2928595809154
 31
0.0
  0
LINE
  5
135
330
1F
100
AcDbEntity
  8
0-B_寸法
  6
Continuous
 62
   120
370
     5
100
AcDbLine
 10
-295.5099653989157
 20
-226.2928595809149
 30
0.0
 11
900.4900346010834
 21
-226.2928595809149
 31
0.0
  0
LWPOLYLINE
  5
136
330
1F
100
AcDbEntity
  8
0-B_寸法
  6
Continuous
 62
     7
370
     9
100
AcDbPolyline
 90
        4
 70
     1
 43
4.0
 10
-293.5099653989157
 20
-226.2928595809149
 42
0.4142135623731
 10
-295.5099653989157
 20
-224.2928595809149
 42
0.4142135623731
 10
-297.5099653989157
 20
-226.2928595809149
 42
0.4142135623731
 10
-295.5099653989157
 20
-228.2928595809149
 42
0.4142135623731
  0
LWPOLYLINE
  5
137
330
1F
100
AcDbEntity
  8
0-B_寸法
  6
Continuous
 62
     7
370
     9
100
AcDbPolyline
 90
        4
 70
     1
 43
4.0
 10
902.4900346010834
 20
-226.2928595809149
 42
0.4142135623731
 10
900.4900346010834
 20
-224.2928595809149
 42
0.4142135623731
 10
898.4900346010834
 20
-226.2928595809149
 42
0.4142135623731
 10
900.4900346010834
 20
-228.2928595809149
 42
0.4142135623731
  0
LINE
  5
138
330
1F
100
AcDbEntity
  8
0-B_寸法
  6
Continuous
 62
   120
370
     5
100
AcDbLine
 10
-295.5099653989157
 20
-226.2928595809149
 30
0.0
 11
-295.5099653989157
 21
-326.2928397857141
 31
0.0
  0
LINE
  5
139
330
1F
100
AcDbEntity
  8
0-B_寸法
  6
Continuous
 62
   120
370
     5
100
AcDbLine
 10
900.4900346010834
 20
-226.2928595809149
 30
0.0
 11
900.4900346010834
 21
-326.2928397857141
 31
0.0
  0
TEXT
  5
13A
330
1F
100
AcDbEntity
  8
0-B_寸法
  6
Continuous
 62
     7
370
   211
100
AcDbText
 10
122.4900346010836
 20
-207.8328595809149
 30
0.0
 40
45.72
  1
ｶｳﾝﾀｰ＝1,196
  7
ＭＳ ゴシック
100
AcDbText
  0
LINE
  5
13B
330
1F
100
AcDbEntity
  8
0-B_寸法
  6
Continuous
 62
   120
370
     5
100
AcDbLine
 10
899.4900346010843
 20
938.1520070699565
 30
0.0
 11
-294.5099653989178
 21
938.1520070699565
 31
0.0
  0
LWPOLYLINE
  5
13C
330
1F
100
AcDbEntity
  8
0-B_寸法
  6
Continuous
 62
     7
370
     9
100
AcDbPolyline
 90
        4
 70
     1
 43
4.0
 10
901.4900346010843
 20
938.1520070699565
 42
0.4142135623731
 10
899.4900346010843
 20
940.1520070699565
 42
0.4142135623731
 10
897.4900346010843
 20
938.1520070699565
 42
0.4142135623731
 10
899.4900346010843
 20
936.1520070699565
 42
0.4142135623731
  0
LWPOLYLINE
  5
13D
330
1F
100
AcDbEntity
  8
0-B_寸法
  6
Continuous
 62
     7
370
     9
100
AcDbPolyline
 90
        4
 70
     1
 43
4.0
 10
-292.5099653989178
 20
938.1520070699565
 42
0.4142135623731
 10
-294.5099653989178
 20
940.1520070699565
 42
0.4142135623731
 10
-296.5099653989178
 20
938.1520070699565
 42
0.4142135623731
 10
-294.5099653989178
 20
936.1520070699565
 42
0.4142135623731
  0
LINE
  5
13E
330
1F
100
AcDbEntity
  8
0-B_寸法
  6
Continuous
 62
   120
370
     5
100
AcDbLine
 10
899.4900346010843
 20
938.1520070699565
 30
0.0
 11
899.4900346010843
 21
1038.151987274754
 31
0.0
  0
LINE
  5
13F
330
1F
100
AcDbEntity
  8
0-B_寸法
  6
Continuous
 62
   120
370
     5
100
AcDbLine
 10
-294.5099653989178
 20
938.1520070699565
 30
0.0
 11
-294.5099653989178
 21
1038.151987274754
 31
0.0
  0
TEXT
  5
140
330
1F
100
AcDbEntity
  8
0-B_寸法
  6
Continuous
 62
     7
370
   211
100
AcDbText
 10
227.4900346010833
 20
956.6120070699566
 30
0.0
 40
45.72
  1
1,194
  7
ＭＳ ゴシック
100
AcDbText
  0
TEXT
  5
141
330
1F
100
AcDbEntity
  8
0-A_文字
  6
Continuous
 62
     7
370
     9
100
AcDbText
 10
-2.509965398913323
 20
-1751.372859580915
 30
0.0
 40
91.44
  1
ｷｬﾋﾞﾈｯﾄ図
 41
1.12962962962963
  7
ＭＳ ゴシック
100
AcDbText
  0
LINE
  5
142
330
1F
100
AcDbEntity
  8
0-A_文字
  6
Continuous
 62
     7
370
     9
100
AcDbLine
 10
-122.5099653989128
 20
-1633.292859580916
 30
0.0
 11
727.4900346010872
 21
-1633.292859580916
 31
0.0
  0
LINE
  5
143
330
1F
100
AcDbEntity
  8
0-A_文字
  6
Continuous
 62
     7
370
     9
100
AcDbLine
 10
727.4900346010872
 20
-1633.292859580916
 30
0.0
 11
727.4900346010872
 21
-1783.292859580916
 31
0.0
  0
LINE
  5
144
330
1F
100
AcDbEntity
  8
0-A_文字
  6
Continuous
 62
     7
370
     9
100
AcDbLine
 10
727.4900346010872
 20
-1783.292859580916
 30
0.0
 11
-122.5099653989128
 21
-1783.292859580916
 31
0.0
  0
LINE
  5
145
330
1F
100
AcDbEntity
  8
0-A_文字
  6
Continuous
 62
     7
370
     9
100
AcDbLine
 10
-122.5099653989128
 20
-1783.292859580916
 30
0.0
 11
-122.5099653989128
 21
-1633.292859580916
 31
0.0
  0
LINE
  5
146
330
1F
100
AcDbEntity
  8
0-A_文字
  6
Continuous
 62
     7
370
     9
100
AcDbLine
 10
-122.5099653989128
 20
638.1519872747543
 30
0.0
 11
-122.5099653989128
 21
788.1519872747543
 31
0.0
  0
LINE
  5
147
330
1F
100
AcDbEntity
  8
0-A_文字
  6
Continuous
 62
     7
370
     9
100
AcDbLine
 10
727.4900346010872
 20
638.1519872747543
 30
0.0
 11
-122.5099653989128
 21
638.1519872747543
 31
0.0
  0
LINE
  5
148
330
1F
100
AcDbEntity
  8
0-A_文字
  6
Continuous
 62
     7
370
     9
100
AcDbLine
 10
727.4900346010872
 20
788.1519872747543
 30
0.0
 11
727.4900346010872
 21
638.1519872747543
 31
0.0
  0
LINE
  5
149
330
1F
100
AcDbEntity
  8
0-A_文字
  6
Continuous
 62
     7
370
     9
100
AcDbLine
 10
-122.5099653989128
 20
788.1519872747543
 30
0.0
 11
727.4900346010872
 21
788.1519872747543
 31
0.0
  0
TEXT
  5
14A
330
1F
100
AcDbEntity
  8
0-A_文字
  6
Continuous
 62
     7
370
     9
100
AcDbText
 10
102.4900346010872
 20
670.0719872747543
 30
0.0
 40
91.44
  1
平面図
 41
1.111111111111111
  7
ＭＳ ゴシック
100
AcDbText
  0
TEXT
  5
14B
330
1F
100
AcDbEntity
  8
0-B_寸法
  6
Continuous
 62
     7
370
   211
100
AcDbText
 10
654.7204256904638
 20
-1152.292859580916
 30
0.0
 40
45.72
  1
64
 50
90.0
  7
ＭＳ ゴシック
100
AcDbText
  0
LINE
  5
14C
330
1F
100
AcDbEntity
  8
0-B_寸法
  6
Continuous
 62
   120
370
     5
100
AcDbLine
 10
673.1804256904638
 20
-1154.292859580916
 30
0.0
 11
673.1804256904638
 21
-1090.292859580915
 31
0.0
  0
LWPOLYLINE
  5
14D
330
1F
100
AcDbEntity
  8
0-B_寸法
  6
Continuous
 62
     7
370
     9
100
AcDbPolyline
 90
        4
 70
     1
 43
4.0
 10
675.1804256904638
 20
-1090.292859580915
 42
0.4142135623731
 10
673.1804256904638
 20
-1088.292859580915
 42
0.4142135623731
 10
671.1804256904638
 20
-1090.292859580915
 42
0.4142135623731
 10
673.1804256904638
 20
-1092.292859580915
 42
0.4142135623731
  0
LINE
  5
14E
330
1F
100
AcDbEntity
  8
0-B_寸法
  6
Continuous
 62
   120
370
     5
100
AcDbLine
 10
673.1804256904638
 20
-1090.292859580915
 30
0.0
 11
670.1960764209957
 21
-1090.292859580915
 31
0.0
  0
LWPOLYLINE
  5
14F
330
1F
100
AcDbEntity
  8
0-B_寸法
  6
Continuous
 62
     7
370
     9
100
AcDbPolyline
 90
        4
 70
     1
 43
4.0
 10
675.1804256904638
 20
-1154.292859580916
 42
0.4142135623731
 10
673.1804256904638
 20
-1152.292859580916
 42
0.4142135623731
 10
671.1804256904638
 20
-1154.292859580916
 42
0.4142135623731
 10
673.1804256904638
 20
-1156.292859580916
 42
0.4142135623731
  0
LINE
  5
150
330
1F
100
AcDbEntity
  8
0-B_寸法
  6
Continuous
 62
   120
370
     5
100
AcDbLine
 10
673.1804256904638
 20
-1154.292859580916
 30
0.0
 11
670.1960764209957
 21
-1154.292859580916
 31
0.0
  0
TEXT
  5
151
330
1F
100
AcDbEntity
  8
0-B_寸法
  6
Continuous
 62
     7
370
   211
100
AcDbText
 10
654.7204256904638
 20
-485.2928595809163
 30
0.0
 40
45.72
  1
64
 50
90.0
  7
ＭＳ ゴシック
100
AcDbText
  0
LINE
  5
152
330
1F
100
AcDbEntity
  8
0-B_寸法
  6
Continuous
 62
   120
370
     5
100
AcDbLine
 10
673.1804256904638
 20
-487.2928595809162
 30
0.0
 11
673.1804256904638
 21
-423.2928595809162
 31
0.0
  0
LWPOLYLINE
  5
153
330
1F
100
AcDbEntity
  8
0-B_寸法
  6
Continuous
 62
     7
370
     9
100
AcDbPolyline
 90
        4
 70
     1
 43
4.0
 10
675.1804256904638
 20
-423.2928595809162
 42
0.4142135623731
 10
673.1804256904638
 20
-421.2928595809161
 42
0.4142135623731
 10
671.1804256904638
 20
-423.2928595809162
 42
0.4142135623731
 10
673.1804256904638
 20
-425.2928595809162
 42
0.4142135623731
  0
LINE
  5
154
330
1F
100
AcDbEntity
  8
0-B_寸法
  6
Continuous
 62
   120
370
     5
100
AcDbLine
 10
673.1804256904638
 20
-423.2928595809162
 30
0.0
 11
670.1960764209957
 21
-423.2928595809162
 31
0.0
  0
LWPOLYLINE
  5
155
330
1F
100
AcDbEntity
  8
0-B_寸法
  6
Continuous
 62
     7
370
     9
100
AcDbPolyline
 90
        4
 70
     1
 43
4.0
 10
675.1804256904638
 20
-487.2928595809162
 42
0.4142135623731
 10
673.1804256904638
 20
-485.2928595809162
 42
0.4142135623731
 10
671.1804256904638
 20
-487.2928595809162
 42
0.4142135623731
 10
673.1804256904638
 20
-489.2928595809162
 42
0.4142135623731
  0
LINE
  5
156
330
1F
100
AcDbEntity
  8
0-B_寸法
  6
Continuous
 62
   120
370
     5
100
AcDbLine
 10
673.1804256904638
 20
-487.2928595809162
 30
0.0
 11
670.1960764209957
 21
-487.2928595809162
 31
0.0
  0
TEXT
  5
157
330
1F
100
AcDbEntity
  8
0-B_寸法
  6
Continuous
 62
     7
370
   211
100
AcDbText
 10
282.8493036384311
 20
-1152.292859580915
 30
0.0
 40
45.72
  1
64
 50
90.0
  7
ＭＳ ゴシック
100
AcDbText
  0
LINE
  5
158
330
1F
100
AcDbEntity
  8
0-B_寸法
  6
Continuous
 62
   120
370
     5
100
AcDbLine
 10
301.3093036384311
 20
-1090.292859580915
 30
0.0
 11
298.3249543689629
 21
-1090.292859580915
 31
0.0
  0
LINE
  5
159
330
1F
100
AcDbEntity
  8
0-B_寸法
  6
Continuous
 62
   120
370
     5
100
AcDbLine
 10
301.3093036384311
 20
-1154.292859580915
 30
0.0
 11
298.3249543689629
 21
-1154.292859580915
 31
0.0
  0
LWPOLYLINE
  5
15A
330
1F
100
AcDbEntity
  8
0-B_寸法
  6
Continuous
 62
     7
370
     9
100
AcDbPolyline
 90
        4
 70
     1
 43
4.0
 10
303.3093036384311
 20
-1090.292859580915
 42
0.4142135623731
 10
301.3093036384311
 20
-1088.292859580915
 42
0.4142135623731
 10
299.3093036384311
 20
-1090.292859580915
 42
0.4142135623731
 10
301.3093036384311
 20
-1092.292859580915
 42
0.4142135623731
  0
LWPOLYLINE
  5
15B
330
1F
100
AcDbEntity
  8
0-B_寸法
  6
Continuous
 62
     7
370
     9
100
AcDbPolyline
 90
        4
 70
     1
 43
4.0
 10
303.3093036384311
 20
-1154.292859580915
 42
0.4142135623731
 10
301.3093036384311
 20
-1152.292859580915
 42
0.4142135623731
 10
299.3093036384311
 20
-1154.292859580915
 42
0.4142135623731
 10
301.3093036384311
 20
-1156.292859580915
 42
0.4142135623731
  0
LINE
  5
15C
330
1F
100
AcDbEntity
  8
0-B_寸法
  6
Continuous
 62
   120
370
     5
100
AcDbLine
 10
301.3093036384311
 20
-1154.292859580915
 30
0.0
 11
301.3093036384311
 21
-1090.292859580915
 31
0.0
  0
TEXT
  5
15D
330
1F
100
AcDbEntity
  8
0-B_寸法
  6
Continuous
 62
     7
370
   211
100
AcDbText
 10
282.8493036384311
 20
-485.2928595809163
 30
0.0
 40
45.72
  1
64
 50
90.0
  7
ＭＳ ゴシック
100
AcDbText
  0
LINE
  5
15E
330
1F
100
AcDbEntity
  8
0-B_寸法
  6
Continuous
 62
   120
370
     5
100
AcDbLine
 10
301.3093036384311
 20
-423.2928595809162
 30
0.0
 11
298.3249543689629
 21
-423.2928595809162
 31
0.0
  0
LINE
  5
15F
330
1F
100
AcDbEntity
  8
0-B_寸法
  6
Continuous
 62
   120
370
     5
100
AcDbLine
 10
301.3093036384311
 20
-487.2928595809157
 30
0.0
 11
298.3249543689629
 21
-487.2928595809157
 31
0.0
  0
LWPOLYLINE
  5
160
330
1F
100
AcDbEntity
  8
0-B_寸法
  6
Continuous
 62
     7
370
     9
100
AcDbPolyline
 90
        4
 70
     1
 43
4.0
 10
303.3093036384311
 20
-423.2928595809162
 42
0.4142135623731
 10
301.3093036384311
 20
-421.2928595809161
 42
0.4142135623731
 10
299.3093036384311
 20
-423.2928595809162
 42
0.4142135623731
 10
301.3093036384311
 20
-425.2928595809162
 42
0.4142135623731
  0
LWPOLYLINE
  5
161
330
1F
100
AcDbEntity
  8
0-B_寸法
  6
Continuous
 62
     7
370
     9
100
AcDbPolyline
 90
        4
 70
     1
 43
4.0
 10
303.3093036384311
 20
-487.2928595809157
 42
0.4142135623731
 10
301.3093036384311
 20
-485.2928595809157
 42
0.4142135623731
 10
299.3093036384311
 20
-487.2928595809157
 42
0.4142135623731
 10
301.3093036384311
 20
-489.2928595809157
 42
0.4142135623731
  0
LINE
  5
162
330
1F
100
AcDbEntity
  8
0-B_寸法
  6
Continuous
 62
   120
370
     5
100
AcDbLine
 10
301.3093036384311
 20
-487.2928595809157
 30
0.0
 11
301.3093036384311
 21
-423.2928595809162
 31
0.0
  0
LINE
  5
163
330
1F
100
AcDbEntity
  8
0-B_寸法
  6
Continuous
 62
   120
370
     5
100
AcDbLine
 10
2766.490034508004
 20
-26.29285958091543
 30
0.0
 11
2766.490034508004
 21
-326.2928397857286
 31
0.0
  0
TEXT
  5
164
330
1F
100
AcDbEntity
  8
0-B_寸法
  6
Continuous
 62
     7
370
   211
100
AcDbText
 10
2536.490133152236
 20
-7.832859580915432
 30
0.0
 40
45.72
  1
370
 41
1.000000000000003
  7
ＭＳ ゴシック
100
AcDbText
  0
LINE
  5
165
330
1F
100
AcDbEntity
  8
0-B_寸法
  6
Continuous
 62
   120
370
     5
100
AcDbLine
 10
2420.490034508005
 20
-126.2928595809149
 30
0.0
 11
2420.490034508005
 21
-326.2928595809149
 31
0.0
  0
TEXT
  5
166
330
1F
100
AcDbEntity
  8
0-B_寸法
  6
Continuous
 62
     7
370
   211
100
AcDbText
 10
2325.698044424058
 20
-107.8328595809154
 30
0.0
 40
45.72
  1
24
  7
ＭＳ ゴシック
100
AcDbText
  0
LINE
  5
167
330
1F
100
AcDbEntity
  8
0-B_寸法
  6
Continuous
 62
   120
370
     5
100
AcDbLine
 10
2420.490034508005
 20
-126.2928595809149
 30
0.0
 11
2396.490231796468
 21
-126.2928595809149
 31
0.0
  0
LWPOLYLINE
  5
168
330
1F
100
AcDbEntity
  8
0-B_寸法
  6
Continuous
 62
     7
370
     9
100
AcDbPolyline
 90
        4
 70
     1
 43
4.0
 10
2398.490231796468
 20
-126.2928595809149
 42
0.4142135623731
 10
2396.490231796468
 20
-124.2928595809149
 42
0.4142135623731
 10
2394.490231796468
 20
-126.2928595809149
 42
0.4142135623731
 10
2396.490231796468
 20
-128.2928595809149
 42
0.4142135623731
  0
LINE
  5
169
330
1F
100
AcDbEntity
  8
0-B_寸法
  6
Continuous
 62
   120
370
     5
100
AcDbLine
 10
2396.490231796468
 20
-126.2928595809149
 30
0.0
 11
2396.490231796468
 21
-326.2928595809149
 31
0.0
  0
LINE
  5
16A
330
1F
100
AcDbEntity
  8
0-B_寸法
  6
Continuous
 62
   120
370
     5
100
AcDbLine
 10
2766.490034508004
 20
-26.29285958091543
 30
0.0
 11
2396.490231796468
 21
-26.29285958091543
 31
0.0
  0
LWPOLYLINE
  5
16B
330
1F
100
AcDbEntity
  8
0-B_寸法
  6
Continuous
 62
     7
370
     9
100
AcDbPolyline
 90
        4
 70
     1
 43
4.0
 10
2398.490231796468
 20
-26.29285958091543
 42
0.4142135623731
 10
2396.490231796468
 20
-24.29285958091543
 42
0.4142135623731
 10
2394.490231796468
 20
-26.29285958091543
 42
0.4142135623731
 10
2396.490231796468
 20
-28.29285958091543
 42
0.4142135623731
  0
LINE
  5
16C
330
1F
100
AcDbEntity
  8
0-B_寸法
  6
Continuous
 62
   120
370
     5
100
AcDbLine
 10
2396.490231796468
 20
-26.29285958091543
 30
0.0
 11
2396.490231796468
 21
-126.2928595809149
 31
0.0
  0
TEXT
  5
16D
330
1F
100
AcDbEntity
  8
0-B_寸法
  6
Continuous
 62
     7
370
   211
100
AcDbText
 10
2548.990034508005
 20
-107.8328595809154
 30
0.0
 40
45.72
  1
345
 41
1.000000000000003
  7
ＭＳ ゴシック
100
AcDbText
  0
LWPOLYLINE
  5
16E
330
1F
100
AcDbEntity
  8
0-B_寸法
  6
Continuous
 62
     7
370
     9
100
AcDbPolyline
 90
        4
 70
     1
 43
4.0
 10
2422.490034508005
 20
-126.2928595809149
 42
0.4142135623731
 10
2420.490034508005
 20
-124.2928595809149
 42
0.4142135623731
 10
2418.490034508005
 20
-126.2928595809149
 42
0.4142135623731
 10
2420.490034508005
 20
-128.2928595809149
 42
0.4142135623731
  0
LWPOLYLINE
  5
16F
330
1F
100
AcDbEntity
  8
0-B_寸法
  6
Continuous
 62
     7
370
     9
100
AcDbPolyline
 90
        4
 70
     1
 43
4.0
 10
2768.490034508004
 20
-26.29285958091543
 42
0.4142135623731
 10
2766.490034508004
 20
-24.29285958091543
 42
0.4142135623731
 10
2764.490034508004
 20
-26.29285958091543
 42
0.4142135623731
 10
2766.490034508004
 20
-28.29285958091543
 42
0.4142135623731
  0
LINE
  5
170
330
1F
100
AcDbEntity
  8
0-2_扉
  6
Continuous
 62
    40
370
    15
100
AcDbLine
 10
2396.490040443004
 20
-411.2928882426954
 30
0.0
 11
2396.490040443004
 21
-1166.29303240585
 31
0.0
  0
LINE
  5
171
330
1F
100
AcDbEntity
  8
0-2_扉
  6
Continuous
 62
    40
370
    15
100
AcDbLine
 10
2396.490040443004
 20
-411.2928882426954
 30
0.0
 11
2420.490040443005
 21
-411.2928882426954
 31
0.0
  0
LINE
  5
172
330
1F
100
AcDbEntity
  8
0-2_扉
  6
Continuous
 62
    40
370
    15
100
AcDbLine
 10
2420.490040443005
 20
-411.2928882426954
 30
0.0
 11
2420.490040443005
 21
-1166.29303240585
 31
0.0
  0
LINE
  5
173
330
1F
100
AcDbEntity
  8
0-2_扉
  6
Continuous
 62
    40
370
    15
100
AcDbLine
 10
2396.490040443004
 20
-1166.29303240585
 30
0.0
 11
2420.490040443005
 21
-1166.29303240585
 31
0.0
  0
TEXT
  5
174
330
1F
100
AcDbEntity
  8
0-B_寸法
  6
Continuous
 62
     7
370
   211
100
AcDbText
 10
2427.990034461465
 20
92.16714041908628
 30
0.0
 40
45.72
  1
ｶｳﾝﾀｰ＝377
  7
ＭＳ ゴシック
100
AcDbText
  0
LINE
  5
175
330
1F
100
AcDbEntity
  8
0-A_文字
  6
Continuous
 62
     7
370
     9
100
AcDbLine
 10
3052.989938761464
 20
-1633.292859580916
 30
0.0
 11
3052.989938761464
 21
-1783.292859580916
 31
0.0
  0
LINE
  5
176
330
1F
100
AcDbEntity
  8
0-A_文字
  6
Continuous
 62
     7
370
     9
100
AcDbLine
 10
2012.989938761465
 20
-1633.292859580916
 30
0.0
 11
2012.989938761465
 21
-1783.292859580916
 31
0.0
  0
LINE
  5
177
330
1F
100
AcDbEntity
  8
0-A_文字
  6
Continuous
 62
     7
370
     9
100
AcDbLine
 10
2012.989938761465
 20
-1633.292859580916
 30
0.0
 11
3052.989938761464
 21
-1633.292859580916
 31
0.0
  0
LINE
  5
178
330
1F
100
AcDbEntity
  8
0-A_文字
  6
Continuous
 62
     7
370
     9
100
AcDbLine
 10
3052.989938761464
 20
-1783.292859580916
 30
0.0
 11
2012.989938761465
 21
-1783.292859580916
 31
0.0
  0
TEXT
  5
179
330
1F
100
AcDbEntity
  8
0-A_文字
  6
Continuous
 62
     7
370
     9
100
AcDbText
 10
2082.989938761463
 20
-1751.372859580915
 30
0.0
 40
91.44
  1
Ａ－Ａ’断面図
 41
1.071428571428571
  7
ＭＳ ゴシック
100
AcDbText
  0
TEXT
  5
17A
330
1F
100
AcDbEntity
  8
0-B_寸法
  6
Continuous
 62
     7
370
   211
100
AcDbText
 10
2898.03003455454
 20
-1206.792859580913
 30
0.0
 40
45.72
  1
143
 50
90.0
  7
ＭＳ ゴシック
100
AcDbText
  0
LINE
  5
17B
330
1F
100
AcDbEntity
  8
0-B_寸法
  6
Continuous
 62
   120
370
     5
100
AcDbLine
 10
2766.490034554538
 20
-1483.292859580916
 30
0.0
 11
2766.490034554538
 21
-1283.292859580916
 31
0.0
  0
LWPOLYLINE
  5
17C
330
1F
100
AcDbEntity
  8
0-B_寸法
  6
Continuous
 62
     7
370
     9
100
AcDbPolyline
 90
        4
 70
     1
 43
4.0
 10
2768.490034554538
 20
-1383.292859580916
 42
0.4142135623731
 10
2766.490034554538
 20
-1381.292859580916
 42
0.4142135623731
 10
2764.490034554538
 20
-1383.292859580916
 42
0.4142135623731
 10
2766.490034554538
 20
-1385.292859580916
 42
0.4142135623731
  0
LINE
  5
17D
330
1F
100
AcDbEntity
  8
0-B_寸法
  6
Continuous
 62
   120
370
     5
100
AcDbLine
 10
2421.49003455454
 20
-1483.292859580916
 30
0.0
 11
2421.49003455454
 21
-1283.292859580916
 31
0.0
  0
LWPOLYLINE
  5
17E
330
1F
100
AcDbEntity
  8
0-B_寸法
  6
Continuous
 62
     7
370
     9
100
AcDbPolyline
 90
        4
 70
     1
 43
4.0
 10
2423.490034554539
 20
-1483.292859580916
 42
0.4142135623731
 10
2421.49003455454
 20
-1481.292859580916
 42
0.4142135623731
 10
2419.49003455454
 20
-1483.292859580916
 42
0.4142135623731
 10
2421.49003455454
 20
-1485.292859580916
 42
0.4142135623731
  0
LWPOLYLINE
  5
17F
330
1F
100
AcDbEntity
  8
0-B_寸法
  6
Continuous
 62
     7
370
     9
100
AcDbPolyline
 90
        4
 70
     1
 43
4.0
 10
2768.490034554538
 20
-1483.292859580916
 42
0.4142135623731
 10
2766.490034554538
 20
-1481.292859580916
 42
0.4142135623731
 10
2764.490034554538
 20
-1483.292859580916
 42
0.4142135623731
 10
2766.490034554538
 20
-1485.292859580916
 42
0.4142135623731
  0
LINE
  5
180
330
1F
100
AcDbEntity
  8
0-B_寸法
  6
Continuous
 62
   120
370
     5
100
AcDbLine
 10
2766.490034554538
 20
-1483.292859580916
 30
0.0
 11
2421.49003455454
 21
-1483.292859580916
 31
0.0
  0
LINE
  5
181
330
1F
100
AcDbEntity
  8
0-6_桟木
  6
Continuous
 62
    92
370
    13
100
AcDbLine
 10
2766.490034554538
 20
-1233.292859580913
 30
0.0
 11
2796.490034554538
 21
-1233.292859580913
 31
0.0
  0
LINE
  5
182
330
1F
100
AcDbEntity
  8
0-6_桟木
  6
Continuous
 62
    40
370
    15
100
AcDbLine
 10
2766.490034461461
 20
-1090.292839785729
 30
0.0
 11
2766.490034461461
 21
-1164.292859580914
 31
0.0
  0
LINE
  5
183
330
1F
100
AcDbEntity
  8
0-6_桟木
  6
Continuous
 62
     7
370
     9
100
AcDbLine
 10
2766.490034461461
 20
-1164.292839785729
 30
0.0
 11
2766.490034461461
 21
-1090.292839785729
 31
0.0
  0
LINE
  5
184
330
1F
100
AcDbEntity
  8
0-6_桟木
  6
Continuous
 62
    92
370
    13
100
AcDbLine
 10
2766.490034554538
 20
-1090.292859580913
 30
0.0
 11
2766.490034554538
 21
-1233.292859580913
 31
0.0
  0
LINE
  5
185
330
1F
100
AcDbEntity
  8
0-6_桟木
  6
Continuous
 62
    92
370
    13
100
AcDbLine
 10
2796.490034554538
 20
-1090.292859580913
 30
0.0
 11
2766.490034554538
 21
-1090.292859580913
 31
0.0
  0
LINE
  5
186
330
1F
100
AcDbEntity
  8
0-6_桟木
  6
Continuous
 62
    92
370
    13
100
AcDbLine
 10
2796.490034554538
 20
-1233.292859580913
 30
0.0
 11
2796.490034554538
 21
-1090.292859580913
 31
0.0
  0
LINE
  5
187
330
1F
100
AcDbEntity
  8
0-6_桟木
  6
Continuous
 62
     7
370
     9
100
AcDbLine
 10
2766.490034554538
 20
-1233.292859580913
 30
0.0
 11
2796.490034554538
 21
-1090.292859580913
 31
0.0
  0
LINE
  5
188
330
1F
100
AcDbEntity
  8
0-6_桟木
  6
Continuous
 62
     7
370
     9
100
AcDbLine
 10
2766.490034554538
 20
-1090.292859580913
 30
0.0
 11
2796.490034554538
 21
-1233.292859580913
 31
0.0
  0
LINE
  5
189
330
1F
100
AcDbEntity
  8
0-B_寸法
  6
Continuous
 62
   120
370
     5
100
AcDbLine
 10
2916.49003455454
 20
-1233.292859580913
 30
0.0
 11
2916.49003455454
 21
-1090.292859580913
 31
0.0
  0
LWPOLYLINE
  5
18A
330
1F
100
AcDbEntity
  8
0-B_寸法
  6
Continuous
 62
     7
370
     9
100
AcDbPolyline
 90
        4
 70
     1
 43
4.0
 10
2918.490034554539
 20
-1233.292859580913
 42
0.4142135623731
 10
2916.49003455454
 20
-1231.292859580913
 42
0.4142135623731
 10
2914.49003455454
 20
-1233.292859580913
 42
0.4142135623731
 10
2916.49003455454
 20
-1235.292859580913
 42
0.4142135623731
  0
LINE
  5
18B
330
1F
100
AcDbEntity
  8
0-B_寸法
  6
Continuous
 62
   120
370
     5
100
AcDbLine
 10
2916.49003455454
 20
-1233.292859580913
 30
0.0
 11
2816.490034554538
 21
-1233.292859580913
 31
0.0
  0
LINE
  5
18C
330
1F
100
AcDbEntity
  8
0-B_寸法
  6
Continuous
 62
   120
370
     5
100
AcDbLine
 10
2916.49003455454
 20
-1090.292859580913
 30
0.0
 11
2816.490034554538
 21
-1090.292859580913
 31
0.0
  0
LINE
  5
18D
330
1F
100
AcDbEntity
  8
0-9__
  6
Continuous
 62
     7
370
     9
100
AcDbLine
 10
2766.490034554538
 20
-1169.292859580916
 30
0.0
 11
2766.490034554538
 21
-1233.292859580916
 31
0.0
  0
LINE
  5
18E
330
1F
100
AcDbEntity
  8
0-9__
  6
Continuous
 62
     7
370
     9
100
AcDbLine
 10
2751.490034554538
 20
-1169.292859580916
 30
0.0
 11
2751.490034554538
 21
-1233.292859580916
 31
0.0
  0
TEXT
  5
18F
330
1F
100
AcDbEntity
  8
0-B_寸法
  6
Continuous
 62
     7
370
   211
100
AcDbText
 10
2548.990034554539
 20
-1464.832859580916
 30
0.0
 40
45.72
  1
345
 41
1.000000000000003
  7
ＭＳ ゴシック
100
AcDbText
  0
TEXT
  5
190
330
1F
100
AcDbEntity
  8
0-B_寸法
  6
Continuous
 62
     7
370
   211
100
AcDbText
 10
1935.03003455454
 20
-1231.292859580917
 30
0.0
 40
45.72
  1
64
 50
90.0
  7
ＭＳ ゴシック
100
AcDbText
  0
LINE
  5
191
330
1F
100
AcDbEntity
  8
0-B_寸法
  6
Continuous
 62
   120
370
     5
100
AcDbLine
 10
1949.490034554541
 20
-1233.292859580916
 30
0.0
 11
2349.490034554541
 21
-1233.292859580916
 31
0.0
  0
LINE
  5
192
330
1F
100
AcDbEntity
  8
0-B_寸法
  6
Continuous
 62
   120
370
     5
100
AcDbLine
 10
1949.490034554541
 20
-1169.292859580916
 30
0.0
 11
2349.490034554541
 21
-1169.292859580916
 31
0.0
  0
LWPOLYLINE
  5
193
330
1F
100
AcDbEntity
  8
0-B_寸法
  6
Continuous
 62
     7
370
     9
100
AcDbPolyline
 90
        4
 70
     1
 43
4.0
 10
1951.49003455454
 20
-1233.292859580916
 42
0.4142135623731
 10
1949.490034554541
 20
-1231.292859580916
 42
0.4142135623731
 10
1947.490034554541
 20
-1233.292859580916
 42
0.4142135623731
 10
1949.490034554541
 20
-1235.292859580916
 42
0.4142135623731
  0
LWPOLYLINE
  5
194
330
1F
100
AcDbEntity
  8
0-B_寸法
  6
Continuous
 62
     7
370
     9
100
AcDbPolyline
 90
        4
 70
     1
 43
4.0
 10
1951.49003455454
 20
-1169.292859580916
 42
0.4142135623731
 10
1949.490034554541
 20
-1167.292859580916
 42
0.4142135623731
 10
1947.490034554541
 20
-1169.292859580916
 42
0.4142135623731
 10
1949.490034554541
 20
-1171.292859580916
 42
0.4142135623731
  0
LINE
  5
195
330
1F
100
AcDbEntity
  8
0-B_寸法
  6
Continuous
 62
   120
370
     5
100
AcDbLine
 10
1949.490034554541
 20
-1169.292859580916
 30
0.0
 11
1949.490034554541
 21
-1233.292859580916
 31
0.0
  0
LWPOLYLINE
  5
196
330
1F
100
AcDbEntity
  8
0-B_寸法
  6
Continuous
 62
     7
370
     9
100
AcDbPolyline
 90
        4
 70
     1
 43
4.0
 10
2918.490034461465
 20
-1090.292859580913
 42
0.4142135623731
 10
2916.490034461465
 20
-1088.292859580913
 42
0.4142135623731
 10
2914.490034461465
 20
-1090.292859580913
 42
0.4142135623731
 10
2916.490034461465
 20
-1092.292859580913
 42
0.4142135623731
  0
LINE
  5
197
330
1F
100
AcDbEntity
  8
0-1_本体
  6
Continuous
 62
    40
370
    15
100
AcDbLine
 10
2763.490034461463
 20
-1161.292859580915
 30
0.0
 11
2766.490034461465
 21
-1161.292859580915
 31
0.0
  0
LINE
  5
198
330
1F
100
AcDbEntity
  8
0-1_本体
  6
Continuous
 62
    40
370
    15
100
AcDbLine
 10
2421.490034461466
 20
-1154.292859580916
 30
0.0
 11
2421.490034461466
 21
-1169.292859580916
 31
0.0
  0
CIRCLE
  5
199
330
1F
100
AcDbEntity
  8
0-5_ダボ
  6
Continuous
 62
     7
370
     9
100
AcDbCircle
 10
2458.490034461464
 20
-1033.292859580915
 30
0.0
 40
2.5
  0
CIRCLE
  5
19A
330
1F
100
AcDbEntity
  8
0-5_ダボ
  6
Continuous
 62
     7
370
     9
100
AcDbCircle
 10
2458.490034461464
 20
-1065.292859580916
 30
0.0
 40
2.5
  0
LINE
  5
19B
330
1F
100
AcDbEntity
  8
0-1_本体
  6
Continuous
 62
    40
370
    15
100
AcDbLine
 10
2421.490034461466
 20
-1154.292859580916
 30
0.0
 11
2763.490034461463
 21
-1154.292859580916
 31
0.0
  0
LINE
  5
19C
330
1F
100
AcDbEntity
  8
0-1_本体
  6
Continuous
 62
    40
370
    15
100
AcDbLine
 10
2766.490034461465
 20
-1169.292859580916
 30
0.0
 11
2421.490034461466
 21
-1169.292859580916
 31
0.0
  0
LINE
  5
19D
330
1F
100
AcDbEntity
  8
0-B_寸法
  6
Continuous
 62
   120
370
     5
100
AcDbLine
 10
2149.490034554541
 20
-1169.292859580916
 30
0.0
 11
2249.490034554541
 21
-1169.292859580916
 31
0.0
  0
LWPOLYLINE
  5
19E
330
1F
100
AcDbEntity
  8
0-B_寸法
  6
Continuous
 62
     7
370
     9
100
AcDbPolyline
 90
        4
 70
     1
 43
4.0
 10
2151.490034554541
 20
-1169.292859580916
 42
0.4142135623731
 10
2149.490034554541
 20
-1167.292859580916
 42
0.4142135623731
 10
2147.490034554541
 20
-1169.292859580916
 42
0.4142135623731
 10
2149.490034554541
 20
-1171.292859580916
 42
0.4142135623731
  0
TEXT
  5
19F
330
1F
100
AcDbEntity
  8
0-B_寸法
  6
Continuous
 62
     7
370
   211
100
AcDbText
 10
2231.030034554541
 20
-1154.292859580915
 30
0.0
 40
45.72
  1
120
 50
90.0
  7
ＭＳ ゴシック
100
AcDbText
  0
LINE
  5
1A0
330
1F
100
AcDbEntity
  8
0-B_寸法
  6
Continuous
 62
   120
370
     5
100
AcDbLine
 10
2249.490034554541
 20
-1169.292859580916
 30
0.0
 11
2349.490034461463
 21
-1169.292859580916
 31
0.0
  0
LWPOLYLINE
  5
1A1
330
1F
100
AcDbEntity
  8
0-B_寸法
  6
Continuous
 62
     7
370
     9
100
AcDbPolyline
 90
        4
 70
     1
 43
4.0
 10
2251.490034554541
 20
-1169.292859580916
 42
0.4142135623731
 10
2249.490034554541
 20
-1167.292859580916
 42
0.4142135623731
 10
2247.490034554541
 20
-1169.292859580916
 42
0.4142135623731
 10
2249.490034554541
 20
-1171.292859580916
 42
0.4142135623731
  0
LINE
  5
1A2
330
1F
100
AcDbEntity
  8
0-B_寸法
  6
Continuous
 62
   120
370
     5
100
AcDbLine
 10
2249.490034554541
 20
-1049.292859580915
 30
0.0
 11
2249.490034554541
 21
-1169.292859580916
 31
0.0
  0
LINE
  5
1A3
330
1F
100
AcDbEntity
  8
0-B_寸法
  6
Continuous
 62
   120
370
     5
100
AcDbLine
 10
2249.490034554541
 20
-1049.292859580915
 30
0.0
 11
2349.490034461463
 21
-1049.292859580915
 31
0.0
  0
LWPOLYLINE
  5
1A4
330
1F
100
AcDbEntity
  8
0-B_寸法
  6
Continuous
 62
     7
370
     9
100
AcDbPolyline
 90
        4
 70
     1
 43
4.0
 10
2251.490034554541
 20
-1049.292859580915
 42
0.4142135623731
 10
2249.490034554541
 20
-1047.292859580915
 42
0.4142135623731
 10
2247.490034554541
 20
-1049.292859580915
 42
0.4142135623731
 10
2249.490034554541
 20
-1051.292859580915
 42
0.4142135623731
  0
LINE
  5
1A5
330
1F
100
AcDbEntity
  8
0-B_寸法
  6
Continuous
 62
   120
370
     5
100
AcDbLine
 10
2049.490034554541
 20
-1166.292878138902
 30
0.0
 11
2149.490034554541
 21
-1166.292878138902
 31
0.0
  0
LWPOLYLINE
  5
1A6
330
1F
100
AcDbEntity
  8
0-B_寸法
  6
Continuous
 62
     7
370
     9
100
AcDbPolyline
 90
        4
 70
     1
 43
4.0
 10
2051.490034554541
 20
-1166.292878138902
 42
0.4142135623731
 10
2049.490034554541
 20
-1164.292878138902
 42
0.4142135623731
 10
2047.490034554541
 20
-1166.292878138902
 42
0.4142135623731
 10
2049.490034554541
 20
-1168.292878138902
 42
0.4142135623731
  0
LINE
  5
1A7
330
1F
100
AcDbEntity
  8
0-B_寸法
  6
Continuous
 62
   120
370
     5
100
AcDbLine
 10
2049.490034554541
 20
-1169.292878138902
 30
0.0
 11
2049.490034554541
 21
-1166.292878138902
 31
0.0
  0
TEXT
  5
1A8
330
1F
100
AcDbEntity
  8
0-B_寸法
  6
Continuous
 62
     7
370
   211
100
AcDbText
 10
2031.030034554541
 20
-1165.5674674264
 30
0.0
 40
45.72
  1
3
 50
90.0
  7
ＭＳ ゴシック
100
AcDbText
  0
LINE
  5
1A9
330
1F
100
AcDbEntity
  8
0-B_寸法
  6
Continuous
 62
   120
370
     5
100
AcDbLine
 10
2049.490034554541
 20
-1169.292878138902
 30
0.0
 11
2149.490034554541
 21
-1169.292878138902
 31
0.0
  0
LWPOLYLINE
  5
1AA
330
1F
100
AcDbEntity
  8
0-B_寸法
  6
Continuous
 62
     7
370
     9
100
AcDbPolyline
 90
        4
 70
     1
 43
4.0
 10
2051.490034554541
 20
-1169.292878138902
 42
0.4142135623731
 10
2049.490034554541
 20
-1167.292878138902
 42
0.4142135623731
 10
2047.490034554541
 20
-1169.292878138902
 42
0.4142135623731
 10
2049.490034554541
 20
-1171.292878138902
 42
0.4142135623731
  0
LINE
  5
1AB
330
1F
100
AcDbEntity
  8
0-B_寸法
  6
Continuous
 62
   120
370
     5
100
AcDbLine
 10
1949.490034554541
 20
-1169.292859580916
 30
0.0
 11
2049.490034554541
 21
-1169.292859580916
 31
0.0
  0
LWPOLYLINE
  5
1AC
330
1F
100
AcDbEntity
  8
0-B_寸法
  6
Continuous
 62
     7
370
     9
100
AcDbPolyline
 90
        4
 70
     1
 43
4.0
 10
1951.49003455454
 20
-1169.292859580916
 42
0.4142135623731
 10
1949.490034554541
 20
-1167.292859580916
 42
0.4142135623731
 10
1947.490034554541
 20
-1169.292859580916
 42
0.4142135623731
 10
1949.490034554541
 20
-1171.292859580916
 42
0.4142135623731
  0
LINE
  5
1AD
330
1F
100
AcDbEntity
  8
0-B_寸法
  6
Continuous
 62
   120
370
     5
100
AcDbLine
 10
2049.490034554541
 20
-1169.292859580916
 30
0.0
 11
2149.490034554541
 21
-1169.292859580916
 31
0.0
  0
CIRCLE
  5
1AE
330
1F
100
AcDbEntity
  8
0-5_ダボ
  6
Continuous
 62
     7
370
     9
100
AcDbCircle
 10
2744.490034461463
 20
-564.8144685031713
 30
0.0
 40
2.5
  0
CIRCLE
  5
1AF
330
1F
100
AcDbEntity
  8
0-5_ダボ
  6
Continuous
 62
     7
370
     9
100
AcDbCircle
 10
2744.490034461463
 20
-596.8144685031717
 30
0.0
 40
2.5
  0
CIRCLE
  5
1B0
330
1F
100
AcDbEntity
  8
0-5_ダボ
  6
Continuous
 62
     7
370
     9
100
AcDbCircle
 10
2744.490034461463
 20
-628.8144685031718
 30
0.0
 40
2.5
  0
CIRCLE
  5
1B1
330
1F
100
AcDbEntity
  8
0-5_ダボ
  6
Continuous
 62
     7
370
     9
100
AcDbCircle
 10
2744.490034461463
 20
-660.8144685031723
 30
0.0
 40
2.5
  0
CIRCLE
  5
1B2
330
1F
100
AcDbEntity
  8
0-5_ダボ
  6
Continuous
 62
     7
370
     9
100
AcDbCircle
 10
2744.490034461463
 20
-692.8144685031712
 30
0.0
 40
2.5
  0
CIRCLE
  5
1B3
330
1F
100
AcDbEntity
  8
0-5_ダボ
  6
Continuous
 62
     7
370
     9
100
AcDbCircle
 10
2744.490034461463
 20
-724.8144685031716
 30
0.0
 40
2.5
  0
CIRCLE
  5
1B4
330
1F
100
AcDbEntity
  8
0-5_ダボ
  6
Continuous
 62
     7
370
     9
100
AcDbCircle
 10
2744.490034461463
 20
-756.8144685031714
 30
0.0
 40
2.5
  0
CIRCLE
  5
1B5
330
1F
100
AcDbEntity
  8
0-5_ダボ
  6
Continuous
 62
     7
370
     9
100
AcDbCircle
 10
2744.490034461463
 20
-788.8144685031718
 30
0.0
 40
2.5
  0
CIRCLE
  5
1B6
330
1F
100
AcDbEntity
  8
0-5_ダボ
  6
Continuous
 62
     7
370
     9
100
AcDbCircle
 10
2744.490034461463
 20
-820.8144685031723
 30
0.0
 40
2.5
  0
CIRCLE
  5
1B7
330
1F
100
AcDbEntity
  8
0-5_ダボ
  6
Continuous
 62
     7
370
     9
100
AcDbCircle
 10
2744.490034461463
 20
-852.814468503172
 30
0.0
 40
2.5
  0
CIRCLE
  5
1B8
330
1F
100
AcDbEntity
  8
0-5_ダボ
  6
Continuous
 62
     7
370
     9
100
AcDbCircle
 10
2744.490034461463
 20
-884.8144685031732
 30
0.0
 40
2.5
  0
CIRCLE
  5
1B9
330
1F
100
AcDbEntity
  8
0-5_ダボ
  6
Continuous
 62
     7
370
     9
100
AcDbCircle
 10
2744.490034461463
 20
-916.8144685031714
 30
0.0
 40
2.5
  0
CIRCLE
  5
1BA
330
1F
100
AcDbEntity
  8
0-5_ダボ
  6
Continuous
 62
     7
370
     9
100
AcDbCircle
 10
2744.490034461463
 20
-948.8144685031718
 30
0.0
 40
2.5
  0
CIRCLE
  5
1BB
330
1F
100
AcDbEntity
  8
0-5_ダボ
  6
Continuous
 62
     7
370
     9
100
AcDbCircle
 10
2744.490034461463
 20
-980.8144685031723
 30
0.0
 40
2.5
  0
CIRCLE
  5
1BC
330
1F
100
AcDbEntity
  8
0-5_ダボ
  6
Continuous
 62
     7
370
     9
100
AcDbCircle
 10
2744.490034461463
 20
-1012.814468503171
 30
0.0
 40
2.5
  0
LINE
  5
1BD
330
1F
100
AcDbEntity
  8
0-4_棚
  6
Continuous
 62
    40
370
    15
100
AcDbLine
 10
2763.490034461463
 20
-550.3144685031708
 30
0.0
 11
2763.490034461463
 21
-562.3144685031713
 31
0.0
  0
LINE
  5
1BE
330
1F
100
AcDbEntity
  8
0-4_棚
  6
Continuous
 62
    40
370
    15
100
AcDbLine
 10
2473.490034461464
 20
-550.3144685031708
 30
0.0
 11
2473.490034461464
 21
-562.3144685031713
 31
0.0
  0
LINE
  5
1BF
330
1F
100
AcDbEntity
  8
0-4_棚
  6
Continuous
 62
    40
370
    15
100
AcDbLine
 10
2473.490034461464
 20
-562.3144685031713
 30
0.0
 11
2763.490034461463
 21
-562.3144685031713
 31
0.0
  0
LINE
  5
1C0
330
1F
100
AcDbEntity
  8
0-4_棚
  6
Continuous
 62
    40
370
    15
100
AcDbLine
 10
2473.490034461464
 20
-550.3144685031708
 30
0.0
 11
2763.490034461463
 21
-550.3144685031708
 31
0.0
  0
LINE
  5
1C1
330
1F
100
AcDbEntity
  8
0-4_棚
  6
Continuous
 62
    40
370
    15
100
AcDbLine
 10
2763.490034461463
 20
-742.3144685031716
 30
0.0
 11
2763.490034461463
 21
-754.3144685031714
 31
0.0
  0
LINE
  5
1C2
330
1F
100
AcDbEntity
  8
0-4_棚
  6
Continuous
 62
    40
370
    15
100
AcDbLine
 10
2473.490034461464
 20
-742.3144685031716
 30
0.0
 11
2473.490034461464
 21
-754.3144685031714
 31
0.0
  0
LINE
  5
1C3
330
1F
100
AcDbEntity
  8
0-4_棚
  6
Continuous
 62
    40
370
    15
100
AcDbLine
 10
2473.490034461464
 20
-754.3144685031714
 30
0.0
 11
2763.490034461463
 21
-754.3144685031714
 31
0.0
  0
LINE
  5
1C4
330
1F
100
AcDbEntity
  8
0-4_棚
  6
Continuous
 62
    40
370
    15
100
AcDbLine
 10
2473.490034461464
 20
-742.3144685031716
 30
0.0
 11
2763.490034461463
 21
-742.3144685031716
 31
0.0
  0
LINE
  5
1C5
330
1F
100
AcDbEntity
  8
0-4_棚
  6
Continuous
 62
    40
370
    15
100
AcDbLine
 10
2473.490034461464
 20
-934.3153675467308
 30
0.0
 11
2473.490034461464
 21
-946.3153675467305
 31
0.0
  0
LINE
  5
1C6
330
1F
100
AcDbEntity
  8
0-4_棚
  6
Continuous
 62
    40
370
    15
100
AcDbLine
 10
2473.490034461464
 20
-934.3153675467308
 30
0.0
 11
2763.490034461463
 21
-934.3153675467308
 31
0.0
  0
LINE
  5
1C7
330
1F
100
AcDbEntity
  8
0-4_棚
  6
Continuous
 62
    40
370
    15
100
AcDbLine
 10
2473.490034461464
 20
-946.3153675467305
 30
0.0
 11
2763.490034461463
 21
-946.3153675467305
 31
0.0
  0
LINE
  5
1C8
330
1F
100
AcDbEntity
  8
0-4_棚
  6
Continuous
 62
    40
370
    15
100
AcDbLine
 10
2763.490034461463
 20
-934.3153675467308
 30
0.0
 11
2763.490034461463
 21
-946.3153675467305
 31
0.0
  0
LINE
  5
1C9
330
1F
100
AcDbEntity
  8
0-0_補助線
  6
JWW_HOJO
 62
     7
370
     9
100
AcDbLine
 10
2409.204319543181
 20
-756.7928595809146
 30
0.0
 11
2766.490034434872
 21
-756.7928595809146
 31
0.0
  0
LINE
  5
1CA
330
1F
100
AcDbEntity
  8
0-0_補助線
  6
JWW_HOJO
 62
     7
370
     9
100
AcDbLine
 10
2406.918605355139
 20
-724.7928595809149
 30
0.0
 11
2766.490034431546
 21
-724.7928595809149
 31
0.0
  0
LINE
  5
1CB
330
1F
100
AcDbEntity
  8
0-0_補助線
  6
JWW_HOJO
 62
     7
370
     9
100
AcDbLine
 10
2404.632891167097
 20
-692.7928595809152
 30
0.0
 11
2766.490034428223
 21
-692.7928595809152
 31
0.0
  0
LINE
  5
1CC
330
1F
100
AcDbEntity
  8
0-0_補助線
  6
JWW_HOJO
 62
     7
370
     9
100
AcDbLine
 10
2402.347176979054
 20
-660.7928595809155
 30
0.0
 11
2766.490034424897
 21
-660.7928595809155
 31
0.0
  0
LINE
  5
1CD
330
1F
100
AcDbEntity
  8
0-0_補助線
  6
JWW_HOJO
 62
     7
370
     9
100
AcDbLine
 10
2400.06146279101
 20
-628.7928595809151
 30
0.0
 11
2766.490034421575
 21
-628.7928595809151
 31
0.0
  0
LINE
  5
1CE
330
1F
100
AcDbEntity
  8
0-0_補助線
  6
JWW_HOJO
 62
     7
370
     9
100
AcDbLine
 10
2397.77574860297
 20
-596.792859580915
 30
0.0
 11
2766.490034418249
 21
-596.792859580915
 31
0.0
  0
LINE
  5
1CF
330
1F
100
AcDbEntity
  8
0-0_補助線
  6
JWW_HOJO
 62
     7
370
     9
100
AcDbLine
 10
2419.204318859482
 20
-980.7928595809155
 30
0.0
 11
2766.490034458139
 21
-980.7928595809155
 31
0.0
  0
LINE
  5
1D0
330
1F
100
AcDbEntity
  8
0-0_補助線
  6
JWW_HOJO
 62
     7
370
     9
100
AcDbLine
 10
2416.91860467144
 20
-948.7928595809151
 30
0.0
 11
2766.490034454817
 21
-948.7928595809151
 31
0.0
  0
LINE
  5
1D1
330
1F
100
AcDbEntity
  8
0-0_補助線
  6
JWW_HOJO
 62
     7
370
     9
100
AcDbLine
 10
2414.632890483398
 20
-916.7928595809153
 30
0.0
 11
2766.490034451491
 21
-916.7928595809153
 31
0.0
  0
LINE
  5
1D2
330
1F
100
AcDbEntity
  8
0-0_補助線
  6
JWW_HOJO
 62
     7
370
     9
100
AcDbLine
 10
2412.347176295352
 20
-884.7928595809149
 30
0.0
 11
2766.490034448168
 21
-884.7928595809149
 31
0.0
  0
LINE
  5
1D3
330
1F
100
AcDbEntity
  8
0-0_補助線
  6
JWW_HOJO
 62
     7
370
     9
100
AcDbLine
 10
2410.06146210731
 20
-852.7928595809152
 30
0.0
 11
2766.490034444842
 21
-852.7928595809152
 31
0.0
  0
LINE
  5
1D4
330
1F
100
AcDbEntity
  8
0-0_補助線
  6
JWW_HOJO
 62
     7
370
     9
100
AcDbLine
 10
2407.775747919267
 20
-820.7928595809155
 30
0.0
 11
2766.49003444152
 21
-820.7928595809155
 31
0.0
  0
LINE
  5
1D5
330
1F
100
AcDbEntity
  8
0-0_補助線
  6
JWW_HOJO
 62
     7
370
     9
100
AcDbLine
 10
2405.490033731224
 20
-788.7928595809151
 30
0.0
 11
2766.490034438194
 21
-788.7928595809151
 31
0.0
  0
TEXT
  5
1D6
330
1F
100
AcDbEntity
  8
0-B_寸法
  6
Continuous
 62
     7
370
   211
100
AcDbText
 10
2131.030034554541
 20
-833.7928595809151
 30
0.0
 40
45.72
  1
448
 50
90.0
  7
ＭＳ ゴシック
100
AcDbText
  0
LINE
  5
1D7
330
1F
100
AcDbEntity
  8
0-B_寸法
  6
Continuous
 62
   120
370
     5
100
AcDbLine
 10
2149.490034554541
 20
-564.7928595809149
 30
0.0
 11
2249.490034554541
 21
-564.7928595809149
 31
0.0
  0
LWPOLYLINE
  5
1D8
330
1F
100
AcDbEntity
  8
0-B_寸法
  6
Continuous
 62
     7
370
     9
100
AcDbPolyline
 90
        4
 70
     1
 43
4.0
 10
2151.490034554541
 20
-564.7928595809149
 42
0.4142135623731
 10
2149.490034554541
 20
-562.7928595809148
 42
0.4142135623731
 10
2147.490034554541
 20
-564.7928595809149
 42
0.4142135623731
 10
2149.490034554541
 20
-566.7928595809149
 42
0.4142135623731
  0
LINE
  5
1D9
330
1F
100
AcDbEntity
  8
0-B_寸法
  6
Continuous
 62
   120
370
     5
100
AcDbLine
 10
2149.490034554541
 20
-1012.792859580916
 30
0.0
 11
2149.490034554541
 21
-564.7928595809149
 31
0.0
  0
LINE
  5
1DA
330
1F
100
AcDbEntity
  8
0-B_寸法
  6
Continuous
 62
   120
370
     5
100
AcDbLine
 10
2149.490034554541
 20
-1012.792859580916
 30
0.0
 11
2249.490034554541
 21
-1012.792859580916
 31
0.0
  0
LWPOLYLINE
  5
1DB
330
1F
100
AcDbEntity
  8
0-B_寸法
  6
Continuous
 62
     7
370
     9
100
AcDbPolyline
 90
        4
 70
     1
 43
4.0
 10
2151.490034554541
 20
-1012.792859580916
 42
0.4142135623731
 10
2149.490034554541
 20
-1010.792859580916
 42
0.4142135623731
 10
2147.490034554541
 20
-1012.792859580916
 42
0.4142135623731
 10
2149.490034554541
 20
-1014.792859580916
 42
0.4142135623731
  0
LINE
  5
1DC
330
1F
100
AcDbEntity
  8
0-B_寸法
  6
Continuous
 62
   120
370
     5
100
AcDbLine
 10
2149.490034554541
 20
-1169.292859580916
 30
0.0
 11
2149.490034554541
 21
-1012.792859580916
 31
0.0
  0
LINE
  5
1DD
330
1F
100
AcDbEntity
  8
0-0_補助線
  6
JWW_HOJO
 62
     7
370
     9
100
AcDbLine
 10
2259.737476005094
 20
-564.7928595809149
 30
0.0
 11
2766.490034414926
 21
-564.7928595809149
 31
0.0
  0
LINE
  5
1DE
330
1F
100
AcDbEntity
  8
0-0_補助線
  6
JWW_HOJO
 62
     7
370
     9
100
AcDbLine
 10
2766.490034461465
 20
-1012.792879376101
 30
0.0
 11
2177.424953394978
 21
-1012.792879376101
 31
0.0
  0
CIRCLE
  5
1DF
330
1F
100
AcDbEntity
  8
0-5_ダボ
  6
Continuous
 62
     7
370
     9
100
AcDbCircle
 10
2458.490034461464
 20
-512.2928595809145
 30
0.0
 40
2.5
  0
CIRCLE
  5
1E0
330
1F
100
AcDbEntity
  8
0-5_ダボ
  6
Continuous
 62
     7
370
     9
100
AcDbCircle
 10
2458.490034461464
 20
-544.2928595809153
 30
0.0
 40
2.5
  0
LINE
  5
1E1
330
1F
100
AcDbEntity
  8
0-0_補助線
  6
JWW_HOJO
 62
     7
370
     9
100
AcDbLine
 10
2744.490034461463
 20
-1161.292859580915
 30
0.0
 11
2744.490034461463
 21
-408.2928595809148
 31
0.0
  0
LINE
  5
1E2
330
1F
100
AcDbEntity
  8
0-B_寸法
  6
Continuous
 62
   120
370
     5
100
AcDbLine
 10
1949.490034554541
 20
-408.2928595809148
 30
0.0
 11
2349.490034554541
 21
-408.2928595809148
 31
0.0
  0
LWPOLYLINE
  5
1E3
330
1F
100
AcDbEntity
  8
0-B_寸法
  6
Continuous
 62
     7
370
     9
100
AcDbPolyline
 90
        4
 70
     1
 43
4.0
 10
2151.490034554541
 20
-408.2928595809148
 42
0.4142135623731
 10
2149.490034554541
 20
-406.2928595809148
 42
0.4142135623731
 10
2147.490034554541
 20
-408.2928595809148
 42
0.4142135623731
 10
2149.490034554541
 20
-410.2928595809148
 42
0.4142135623731
  0
LINE
  5
1E4
330
1F
100
AcDbEntity
  8
0-B_寸法
  6
Continuous
 62
   120
370
     5
100
AcDbLine
 10
2149.490034554541
 20
-564.7928595809149
 30
0.0
 11
2149.490034554541
 21
-408.2928595809148
 31
0.0
  0
LINE
  5
1E5
330
1F
100
AcDbEntity
  8
0-B_寸法
  6
Continuous
 62
   120
370
     5
100
AcDbLine
 10
2249.490034554541
 20
-528.2928595809153
 30
0.0
 11
2249.490034554541
 21
-1049.292859580915
 31
0.0
  0
TEXT
  5
1E6
330
1F
100
AcDbEntity
  8
0-B_寸法
  6
Continuous
 62
     7
370
   211
100
AcDbText
 10
2231.030034554541
 20
-513.2928595809148
 30
0.0
 40
45.72
  1
120
 50
90.0
  7
ＭＳ ゴシック
100
AcDbText
  0
LINE
  5
1E7
330
1F
100
AcDbEntity
  8
0-B_寸法
  6
Continuous
 62
   120
370
     5
100
AcDbLine
 10
2249.490034554541
 20
-528.2928595809153
 30
0.0
 11
2349.490034461463
 21
-528.2928595809153
 31
0.0
  0
LWPOLYLINE
  5
1E8
330
1F
100
AcDbEntity
  8
0-B_寸法
  6
Continuous
 62
     7
370
     9
100
AcDbPolyline
 90
        4
 70
     1
 43
4.0
 10
2251.490034554541
 20
-528.2928595809153
 42
0.4142135623731
 10
2249.490034554541
 20
-526.2928595809153
 42
0.4142135623731
 10
2247.490034554541
 20
-528.2928595809153
 42
0.4142135623731
 10
2249.490034554541
 20
-530.2928595809153
 42
0.4142135623731
  0
LWPOLYLINE
  5
1E9
330
1F
100
AcDbEntity
  8
0-B_寸法
  6
Continuous
 62
     7
370
     9
100
AcDbPolyline
 90
        4
 70
     1
 43
4.0
 10
2251.490034554541
 20
-408.2928595809148
 42
0.4142135623731
 10
2249.490034554541
 20
-406.2928595809148
 42
0.4142135623731
 10
2247.490034554541
 20
-408.2928595809148
 42
0.4142135623731
 10
2249.490034554541
 20
-410.2928595809148
 42
0.4142135623731
  0
LINE
  5
1EA
330
1F
100
AcDbEntity
  8
0-B_寸法
  6
Continuous
 62
   120
370
     5
100
AcDbLine
 10
2249.490034554541
 20
-408.2928595809148
 30
0.0
 11
2249.490034554541
 21
-528.2928595809153
 31
0.0
  0
LINE
  5
1EB
330
1F
100
AcDbEntity
  8
0-B_寸法
  6
Continuous
 62
   120
370
     5
100
AcDbLine
 10
2049.490034554541
 20
-1166.292878138902
 30
0.0
 11
2049.490034554541
 21
-411.2928397857294
 31
0.0
  0
LINE
  5
1EC
330
1F
100
AcDbEntity
  8
0-B_寸法
  6
Continuous
 62
   120
370
     5
100
AcDbLine
 10
2049.490034554541
 20
-411.2928397857294
 30
0.0
 11
2049.490034554541
 21
-408.2928397857296
 31
0.0
  0
LINE
  5
1ED
330
1F
100
AcDbEntity
  8
0-B_寸法
  6
Continuous
 62
   120
370
     5
100
AcDbLine
 10
2049.490034554541
 20
-411.2928397857294
 30
0.0
 11
2149.490034554541
 21
-411.2928397857294
 31
0.0
  0
LWPOLYLINE
  5
1EE
330
1F
100
AcDbEntity
  8
0-B_寸法
  6
Continuous
 62
     7
370
     9
100
AcDbPolyline
 90
        4
 70
     1
 43
4.0
 10
2051.490034554541
 20
-411.2928397857294
 42
0.4142135623731
 10
2049.490034554541
 20
-409.2928397857294
 42
0.4142135623731
 10
2047.490034554541
 20
-411.2928397857294
 42
0.4142135623731
 10
2049.490034554541
 20
-413.2928397857295
 42
0.4142135623731
  0
TEXT
  5
1EF
330
1F
100
AcDbEntity
  8
0-B_寸法
  6
Continuous
 62
     7
370
   211
100
AcDbText
 10
2031.030034554541
 20
-441.5438025596927
 30
0.0
 40
45.72
  1
3
 50
90.0
  7
ＭＳ ゴシック
100
AcDbText
  0
LINE
  5
1F0
330
1F
100
AcDbEntity
  8
0-B_寸法
  6
Continuous
 62
   120
370
     5
100
AcDbLine
 10
2049.490034554541
 20
-408.2928397857296
 30
0.0
 11
2149.490034554541
 21
-408.2928397857296
 31
0.0
  0
LWPOLYLINE
  5
1F1
330
1F
100
AcDbEntity
  8
0-B_寸法
  6
Continuous
 62
     7
370
     9
100
AcDbPolyline
 90
        4
 70
     1
 43
4.0
 10
2051.490034554541
 20
-408.2928397857296
 42
0.4142135623731
 10
2049.490034554541
 20
-406.2928397857296
 42
0.4142135623731
 10
2047.490034554541
 20
-408.2928397857296
 42
0.4142135623731
 10
2049.490034554541
 20
-410.2928397857296
 42
0.4142135623731
  0
LINE
  5
1F2
330
1F
100
AcDbEntity
  8
0-B_寸法
  6
Continuous
 62
   120
370
     5
100
AcDbLine
 10
1949.490034554541
 20
-1169.292859580916
 30
0.0
 11
1949.490034554541
 21
-378.292879376101
 31
0.0
  0
LINE
  5
1F3
330
1F
100
AcDbEntity
  8
0-B_寸法
  6
Continuous
 62
   120
370
     5
100
AcDbLine
 10
1949.490034554541
 20
-408.2928397857296
 30
0.0
 11
2049.490034554541
 21
-408.2928397857296
 31
0.0
  0
LWPOLYLINE
  5
1F4
330
1F
100
AcDbEntity
  8
0-B_寸法
  6
Continuous
 62
     7
370
     9
100
AcDbPolyline
 90
        4
 70
     1
 43
4.0
 10
1951.49003455454
 20
-408.2928397857296
 42
0.4142135623731
 10
1949.490034554541
 20
-406.2928397857296
 42
0.4142135623731
 10
1947.490034554541
 20
-408.2928397857296
 42
0.4142135623731
 10
1949.490034554541
 20
-410.2928397857296
 42
0.4142135623731
  0
TEXT
  5
1F5
330
1F
100
AcDbEntity
  8
0-B_寸法
  6
Continuous
 62
     7
370
   211
100
AcDbText
 10
2131.030034554541
 20
-573.2928595809148
 30
0.0
 40
45.72
  1
156.5
 50
90.0
  7
ＭＳ ゴシック
100
AcDbText
  0
TEXT
  5
1F6
330
1F
100
AcDbEntity
  8
0-B_寸法
  6
Continuous
 62
     7
370
   211
100
AcDbText
 10
2131.030034554541
 20
-1154.292859580915
 30
0.0
 40
45.72
  1
156.5
 50
90.0
  7
ＭＳ ゴシック
100
AcDbText
  0
TEXT
  5
1F7
330
1F
100
AcDbEntity
  8
0-B_寸法
  6
Continuous
 62
     7
370
   211
100
AcDbText
 10
2031.030034554541
 20
-923.7927814017138
 30
0.0
 40
45.72
  1
ＤＨ＝755
 50
90.0
  7
ＭＳ ゴシック
100
AcDbText
  0
TEXT
  5
1F8
330
1F
100
AcDbEntity
  8
0-B_寸法
  6
Continuous
 62
     7
370
   211
100
AcDbText
 10
1931.030034554541
 20
-833.7928694785078
 30
0.0
 40
45.72
  1
761
 50
90.0
  7
ＭＳ ゴシック
100
AcDbText
  0
LINE
  5
1F9
330
1F
100
AcDbEntity
  8
0-6_桟木
  6
Continuous
 62
    92
370
    13
100
AcDbLine
 10
2763.490034461463
 20
-1154.292859580916
 30
0.0
 11
2763.490034461463
 21
-1090.292859580916
 31
0.0
  0
LINE
  5
1FA
330
1F
100
AcDbEntity
  8
0-6_桟木
  6
Continuous
 62
    92
370
    13
100
AcDbLine
 10
2763.490034461463
 20
-1090.292859580916
 30
0.0
 11
2748.490034461463
 21
-1090.292859580916
 31
0.0
  0
LINE
  5
1FB
330
1F
100
AcDbEntity
  8
0-6_桟木
  6
Continuous
 62
    92
370
    13
100
AcDbLine
 10
2748.490034461463
 20
-1090.292859580916
 30
0.0
 11
2748.490034461463
 21
-1154.292859580916
 31
0.0
  0
LINE
  5
1FC
330
1F
100
AcDbEntity
  8
0-6_桟木
  6
Continuous
 62
    92
370
    13
100
AcDbLine
 10
2748.490034461463
 20
-1154.292859580916
 30
0.0
 11
2763.490034461463
 21
-1154.292859580916
 31
0.0
  0
CIRCLE
  5
1FD
330
1F
100
AcDbEntity
  8
0-6_桟木
  6
Continuous
 62
     7
370
     9
100
AcDbCircle
 10
2755.990034461463
 20
-1106.292859580915
 30
0.0
 40
4.0
  0
CIRCLE
  5
1FE
330
1F
100
AcDbEntity
  8
0-6_桟木
  6
Continuous
 62
     7
370
     9
100
AcDbCircle
 10
2755.990034461463
 20
-1138.292859580916
 30
0.0
 40
4.0
  0
LINE
  5
1FF
330
1F
100
AcDbEntity
  8
0-6_桟木
  6
Continuous
 62
    92
370
    13
100
AcDbLine
 10
2763.490034461463
 20
-487.2928595809148
 30
0.0
 11
2763.490034461463
 21
-423.2928595809159
 31
0.0
  0
LINE
  5
200
330
1F
100
AcDbEntity
  8
0-6_桟木
  6
Continuous
 62
    92
370
    13
100
AcDbLine
 10
2763.490034461463
 20
-423.2928595809159
 30
0.0
 11
2748.490034461463
 21
-423.2928595809159
 31
0.0
  0
LINE
  5
201
330
1F
100
AcDbEntity
  8
0-6_桟木
  6
Continuous
 62
    92
370
    13
100
AcDbLine
 10
2748.490034461463
 20
-423.2928595809159
 30
0.0
 11
2748.490034461463
 21
-487.2928595809148
 31
0.0
  0
LINE
  5
202
330
1F
100
AcDbEntity
  8
0-6_桟木
  6
Continuous
 62
    92
370
    13
100
AcDbLine
 10
2748.490034461463
 20
-487.2928595809148
 30
0.0
 11
2763.490034461463
 21
-487.2928595809148
 31
0.0
  0
CIRCLE
  5
203
330
1F
100
AcDbEntity
  8
0-6_桟木
  6
Continuous
 62
     7
370
     9
100
AcDbCircle
 10
2755.990034461463
 20
-439.292859580915
 30
0.0
 40
4.0
  0
CIRCLE
  5
204
330
1F
100
AcDbEntity
  8
0-6_桟木
  6
Continuous
 62
     7
370
     9
100
AcDbCircle
 10
2755.990034461463
 20
-471.2928595809154
 30
0.0
 40
4.0
  0
TEXT
  5
205
330
1F
100
AcDbEntity
  8
0-B_寸法
  6
Continuous
 62
     7
370
   211
100
AcDbText
 10
2572.742167262387
 20
-667.1858018675314
 30
0.0
 40
45.72
  1
P32
  7
ＭＳ ゴシック
100
AcDbText
  0
LWPOLYLINE
  5
206
330
1F
100
AcDbEntity
  8
0-B_寸法
  6
Continuous
 62
     7
370
     9
100
AcDbPolyline
 90
        4
 70
     1
 43
4.0
 10
2558.490034461462
 20
-660.7928595809133
 42
0.4142135623731
 10
2556.490034461462
 20
-658.7928595809133
 42
0.4142135623731
 10
2554.490034461462
 20
-660.7928595809133
 42
0.4142135623731
 10
2556.490034461462
 20
-662.7928595809134
 42
0.4142135623731
  0
LWPOLYLINE
  5
207
330
1F
100
AcDbEntity
  8
0-B_寸法
  6
Continuous
 62
     7
370
     9
100
AcDbPolyline
 90
        4
 70
     1
 43
4.0
 10
2558.490034461462
 20
-628.7928595809143
 42
0.4142135623731
 10
2556.490034461462
 20
-626.7928595809143
 42
0.4142135623731
 10
2554.490034461462
 20
-628.7928595809143
 42
0.4142135623731
 10
2556.490034461462
 20
-630.7928595809143
 42
0.4142135623731
  0
LINE
  5
208
330
1F
100
AcDbEntity
  8
0-B_寸法
  6
Continuous
 62
   120
370
     5
100
AcDbLine
 10
2556.490034461462
 20
-628.7928595809143
 30
0.0
 11
2556.490034461462
 21
-660.7928595809133
 31
0.0
  0
LINE
  5
209
330
1F
100
AcDbEntity
  8
0-B_寸法
  6
Continuous
 62
   120
370
     5
100
AcDbLine
 10
2556.490034461462
 20
-660.7928595809133
 30
0.0
 11
2506.490034461462
 21
-660.7928595809133
 31
0.0
  0
LINE
  5
20A
330
1F
100
AcDbEntity
  8
0-B_寸法
  6
Continuous
 62
   120
370
     5
100
AcDbLine
 10
2556.490034461462
 20
-628.7928595809143
 30
0.0
 11
2506.490034461462
 21
-628.7928595809143
 31
0.0
  0
CIRCLE
  5
20B
330
1F
100
AcDbEntity
  8
0-5_ダボ
  6
Continuous
 62
     7
370
     9
100
AcDbCircle
 10
2488.490034461464
 20
-564.8144685031713
 30
0.0
 40
2.5
  0
CIRCLE
  5
20C
330
1F
100
AcDbEntity
  8
0-5_ダボ
  6
Continuous
 62
     7
370
     9
100
AcDbCircle
 10
2488.490034461464
 20
-596.8144685031717
 30
0.0
 40
2.5
  0
CIRCLE
  5
20D
330
1F
100
AcDbEntity
  8
0-5_ダボ
  6
Continuous
 62
     7
370
     9
100
AcDbCircle
 10
2488.490034461464
 20
-628.8144685031718
 30
0.0
 40
2.5
  0
CIRCLE
  5
20E
330
1F
100
AcDbEntity
  8
0-5_ダボ
  6
Continuous
 62
     7
370
     9
100
AcDbCircle
 10
2488.490034461464
 20
-660.8144685031723
 30
0.0
 40
2.5
  0
CIRCLE
  5
20F
330
1F
100
AcDbEntity
  8
0-5_ダボ
  6
Continuous
 62
     7
370
     9
100
AcDbCircle
 10
2488.490034461464
 20
-692.8144685031712
 30
0.0
 40
2.5
  0
CIRCLE
  5
210
330
1F
100
AcDbEntity
  8
0-5_ダボ
  6
Continuous
 62
     7
370
     9
100
AcDbCircle
 10
2488.490034461464
 20
-724.8144685031716
 30
0.0
 40
2.5
  0
CIRCLE
  5
211
330
1F
100
AcDbEntity
  8
0-5_ダボ
  6
Continuous
 62
     7
370
     9
100
AcDbCircle
 10
2488.490034461464
 20
-756.8144685031714
 30
0.0
 40
2.5
  0
CIRCLE
  5
212
330
1F
100
AcDbEntity
  8
0-5_ダボ
  6
Continuous
 62
     7
370
     9
100
AcDbCircle
 10
2488.490034461464
 20
-788.8144685031718
 30
0.0
 40
2.5
  0
CIRCLE
  5
213
330
1F
100
AcDbEntity
  8
0-5_ダボ
  6
Continuous
 62
     7
370
     9
100
AcDbCircle
 10
2488.490034461464
 20
-820.8144685031723
 30
0.0
 40
2.5
  0
CIRCLE
  5
214
330
1F
100
AcDbEntity
  8
0-5_ダボ
  6
Continuous
 62
     7
370
     9
100
AcDbCircle
 10
2488.490034461464
 20
-852.814468503172
 30
0.0
 40
2.5
  0
CIRCLE
  5
215
330
1F
100
AcDbEntity
  8
0-5_ダボ
  6
Continuous
 62
     7
370
     9
100
AcDbCircle
 10
2488.490034461464
 20
-884.8144685031732
 30
0.0
 40
2.5
  0
CIRCLE
  5
216
330
1F
100
AcDbEntity
  8
0-5_ダボ
  6
Continuous
 62
     7
370
     9
100
AcDbCircle
 10
2488.490034461464
 20
-916.8144685031714
 30
0.0
 40
2.5
  0
CIRCLE
  5
217
330
1F
100
AcDbEntity
  8
0-5_ダボ
  6
Continuous
 62
     7
370
     9
100
AcDbCircle
 10
2488.490034461464
 20
-948.8144685031718
 30
0.0
 40
2.5
  0
CIRCLE
  5
218
330
1F
100
AcDbEntity
  8
0-5_ダボ
  6
Continuous
 62
     7
370
     9
100
AcDbCircle
 10
2488.490034461464
 20
-980.8144685031723
 30
0.0
 40
2.5
  0
CIRCLE
  5
219
330
1F
100
AcDbEntity
  8
0-5_ダボ
  6
Continuous
 62
     7
370
     9
100
AcDbCircle
 10
2488.490034461464
 20
-1012.814468503171
 30
0.0
 40
2.5
  0
LINE
  5
21A
330
1F
100
AcDbEntity
  8
0-0_補助線
  6
JWW_HOJO
 62
     7
370
     9
100
AcDbLine
 10
2488.490034461464
 20
-410.2928595809152
 30
0.0
 11
2488.490034461464
 21
-1169.292859580916
 31
0.0
  0
LINE
  5
21B
330
1F
100
AcDbEntity
  8
0-1_本体
  6
Continuous
 62
    40
370
    15
100
AcDbLine
 10
2763.490034461463
 20
-423.2928595809159
 30
0.0
 11
2421.490034461466
 21
-423.2928595809159
 31
0.0
  0
LINE
  5
21C
330
1F
100
AcDbEntity
  8
0-1_本体
  6
Continuous
 62
    40
370
    15
100
AcDbLine
 10
2421.490034461466
 20
-423.2928595809159
 30
0.0
 11
2421.490034461466
 21
-408.2928397857296
 31
0.0
  0
TEXT
  5
21D
330
1F
100
AcDbEntity
  8
0-B_寸法
  6
Continuous
 62
     7
370
   211
100
AcDbText
 10
2231.030034554541
 20
-833.7928793761006
 30
0.0
 40
45.72
  1
521
 50
90.0
  7
ＭＳ ゴシック
100
AcDbText
  0
LINE
  5
21E
330
1F
100
AcDbEntity
  8
0-1_本体
  6
Continuous
 62
    40
370
    15
100
AcDbLine
 10
2763.490034461463
 20
-1161.292859580915
 30
0.0
 11
2763.490034461463
 21
-416.2928595809157
 31
0.0
  0
LINE
  5
21F
330
1F
100
AcDbEntity
  8
0-1_本体
  6
Continuous
 62
    40
370
    15
100
AcDbLine
 10
2764.990034461466
 20
-1161.292859580915
 30
0.0
 11
2764.990034461466
 21
-416.2928595809157
 31
0.0
  0
LINE
  5
220
330
1F
100
AcDbEntity
  8
0-1_本体
  6
Continuous
 62
    40
370
    15
100
AcDbLine
 10
2763.490034461463
 20
-416.2928595809157
 30
0.0
 11
2766.490034461465
 21
-416.2928595809157
 31
0.0
  0
LINE
  5
221
330
1F
100
AcDbEntity
  8
0-1_本体
  6
Continuous
 62
     7
370
     9
100
AcDbLine
 10
2766.490034461465
 20
-1169.292859580916
 30
0.0
 11
2766.490034461465
 21
-408.2928595809148
 31
0.0
  0
LINE
  5
222
330
1F
100
AcDbEntity
  8
0-1_本体
  6
Continuous
 62
    40
370
    15
100
AcDbLine
 10
2421.490034461466
 20
-408.2928595809159
 30
0.0
 11
2766.490034461465
 21
-408.2928595809159
 31
0.0
  0
LINE
  5
223
330
1F
100
AcDbEntity
  8
0-B_寸法
  6
Continuous
 62
   120
370
     5
100
AcDbLine
 10
2420.490034601081
 20
-126.2928595809134
 30
0.0
 11
2420.490034601081
 21
-326.2928595809134
 31
0.0
  0
LINE
  5
224
330
1F
100
AcDbEntity
  8
0-B_寸法
  6
Continuous
 62
   120
370
     5
100
AcDbLine
 10
2766.490034601082
 20
-126.2928595809134
 30
0.0
 11
2421.490034601082
 21
-126.2928595809134
 31
0.0
  0
LWPOLYLINE
  5
225
330
1F
100
AcDbEntity
  8
0-B_寸法
  6
Continuous
 62
     7
370
     9
100
AcDbPolyline
 90
        4
 70
     1
 43
4.0
 10
2768.490034601082
 20
-126.2928595809134
 42
0.4142135623731
 10
2766.490034601082
 20
-124.2928595809134
 42
0.4142135623731
 10
2764.490034601082
 20
-126.2928595809134
 42
0.4142135623731
 10
2766.490034601082
 20
-128.2928595809134
 42
0.4142135623731
  0
LWPOLYLINE
  5
226
330
1F
100
AcDbEntity
  8
0-B_寸法
  6
Continuous
 62
     7
370
     9
100
AcDbPolyline
 90
        4
 70
     1
 43
4.0
 10
2423.490034601082
 20
-126.2928595809134
 42
0.4142135623731
 10
2421.490034601082
 20
-124.2928595809134
 42
0.4142135623731
 10
2419.490034601082
 20
-126.2928595809134
 42
0.4142135623731
 10
2421.490034601082
 20
-128.2928595809134
 42
0.4142135623731
  0
LINE
  5
227
330
1F
100
AcDbEntity
  8
0-B_寸法
  6
Continuous
 62
   120
370
     5
100
AcDbLine
 10
2766.490034601082
 20
-126.2928595809134
 30
0.0
 11
2766.490034601082
 21
-226.2928595809134
 31
0.0
  0
LINE
  5
228
330
1F
100
AcDbEntity
  8
0-B_寸法
  6
Continuous
 62
   120
370
     5
100
AcDbLine
 10
2421.490034601082
 20
-126.2928595809134
 30
0.0
 11
2421.490034601082
 21
-226.2928595809134
 31
0.0
  0
TEXT
  5
229
330
1F
100
AcDbEntity
  8
0-B_寸法
  6
Continuous
 62
     7
370
   211
100
AcDbText
 10
2548.990034601082
 20
-107.8328595809137
 30
0.0
 40
45.72
  1
345
 41
1.000000000000003
  7
ＭＳ ゴシック
100
AcDbText
  0
LINE
  5
22A
330
1F
100
AcDbEntity
  8
0-B_寸法
  6
Continuous
 62
   120
370
     5
100
AcDbLine
 10
2421.490034601082
 20
-126.2928595809134
 30
0.0
 11
2420.490034601081
 21
-126.2928595809134
 31
0.0
  0
LWPOLYLINE
  5
22B
330
1F
100
AcDbEntity
  8
0-B_寸法
  6
Continuous
 62
     7
370
     9
100
AcDbPolyline
 90
        4
 70
     1
 43
4.0
 10
2422.490034601081
 20
-126.2928595809134
 42
0.4142135623731
 10
2420.490034601081
 20
-124.2928595809134
 42
0.4142135623731
 10
2418.490034601081
 20
-126.2928595809134
 42
0.4142135623731
 10
2420.490034601081
 20
-128.2928595809134
 42
0.4142135623731
  0
LWPOLYLINE
  5
22C
330
1F
100
AcDbEntity
  8
0-B_寸法
  6
Continuous
 62
     7
370
     9
100
AcDbPolyline
 90
        4
 70
     1
 43
4.0
 10
2768.490034461465
 20
73.70714041908627
 42
0.4142135623731
 10
2766.490034461465
 20
75.70714041908627
 42
0.4142135623731
 10
2764.490034461465
 20
73.70714041908627
 42
0.4142135623731
 10
2766.490034461465
 20
71.70714041908627
 42
0.4142135623731
  0
LINE
  5
22D
330
1F
100
AcDbEntity
  8
0-B_寸法
  6
Continuous
 62
   120
370
     5
100
AcDbLine
 10
2766.490034461465
 20
73.70714041908627
 30
0.0
 11
2766.490034554543
 21
-126.2928595809134
 31
0.0
  0
TEXT
  5
22E
330
1F
100
AcDbEntity
  8
0-B_寸法
  6
Continuous
 62
     7
370
   211
100
AcDbText
 10
2405.99003460108
 20
-107.8328595809137
 30
0.0
 40
45.72
  1
1
  7
ＭＳ ゴシック
100
AcDbText
  0
TEXT
  5
22F
330
1F
100
AcDbEntity
  8
0-B_寸法
  6
Continuous
 62
     7
370
   211
100
AcDbText
 10
2591.05436387636
 20
-207.8328595809149
 30
0.0
 40
45.72
  1
256
  7
ＭＳ ゴシック
100
AcDbText
  0
TEXT
  5
230
330
1F
100
AcDbEntity
  8
0-B_寸法
  6
Continuous
 62
     7
370
   211
100
AcDbText
 10
2506.643136310907
 20
-207.8328595809149
 30
0.0
 40
45.72
  1
30
 41
1.000000000000005
  7
ＭＳ ゴシック
100
AcDbText
  0
LWPOLYLINE
  5
231
330
1F
100
AcDbEntity
  8
0-B_寸法
  6
Continuous
 62
     7
370
     9
100
AcDbPolyline
 90
        4
 70
     1
 43
4.0
 10
2490.490034461464
 20
-226.2928595809149
 42
0.4142135623731
 10
2488.490034461464
 20
-224.2928595809149
 42
0.4142135623731
 10
2486.490034461464
 20
-226.2928595809149
 42
0.4142135623731
 10
2488.490034461464
 20
-228.2928595809149
 42
0.4142135623731
  0
LINE
  5
232
330
1F
100
AcDbEntity
  8
0-B_寸法
  6
Continuous
 62
   120
370
     5
100
AcDbLine
 10
2488.490034461464
 20
-226.2928595809149
 30
0.0
 11
2488.490034461464
 21
-326.2928595809149
 31
0.0
  0
LINE
  5
233
330
1F
100
AcDbEntity
  8
0-B_寸法
  6
Continuous
 62
   120
370
     5
100
AcDbLine
 10
2488.490034461464
 20
-226.2928595809149
 30
0.0
 11
2458.490034461464
 21
-226.2928595809149
 31
0.0
  0
LINE
  5
234
330
1F
100
AcDbEntity
  8
0-B_寸法
  6
Continuous
 62
   120
370
     5
100
AcDbLine
 10
2744.490034461463
 20
-226.2928595809149
 30
0.0
 11
2488.490034461464
 21
-226.2928595809149
 31
0.0
  0
LWPOLYLINE
  5
235
330
1F
100
AcDbEntity
  8
0-B_寸法
  6
Continuous
 62
     7
370
     9
100
AcDbPolyline
 90
        4
 70
     1
 43
4.0
 10
2768.490034414926
 20
-226.2928595809149
 42
0.4142135623731
 10
2766.490034414926
 20
-224.2928595809149
 42
0.4142135623731
 10
2764.490034414926
 20
-226.2928595809149
 42
0.4142135623731
 10
2766.490034414926
 20
-228.2928595809149
 42
0.4142135623731
  0
LINE
  5
236
330
1F
100
AcDbEntity
  8
0-B_寸法
  6
Continuous
 62
   120
370
     5
100
AcDbLine
 10
2766.490034414926
 20
-226.2928595809149
 30
0.0
 11
2766.490034414926
 21
-326.2928595809149
 31
0.0
  0
LWPOLYLINE
  5
237
330
1F
100
AcDbEntity
  8
0-B_寸法
  6
Continuous
 62
     7
370
     9
100
AcDbPolyline
 90
        4
 70
     1
 43
4.0
 10
2460.490034461464
 20
-226.2928595809149
 42
0.4142135623731
 10
2458.490034461464
 20
-224.2928595809149
 42
0.4142135623731
 10
2456.490034461464
 20
-226.2928595809149
 42
0.4142135623731
 10
2458.490034461464
 20
-228.2928595809149
 42
0.4142135623731
  0
LINE
  5
238
330
1F
100
AcDbEntity
  8
0-B_寸法
  6
Continuous
 62
   120
370
     5
100
AcDbLine
 10
2458.490034461464
 20
-226.2928595809149
 30
0.0
 11
2458.490034461464
 21
-326.2928595809149
 31
0.0
  0
LINE
  5
239
330
1F
100
AcDbEntity
  8
0-B_寸法
  6
Continuous
 62
   120
370
     5
100
AcDbLine
 10
2458.490034461464
 20
-226.2928595809149
 30
0.0
 11
2421.490034461466
 21
-226.2928595809149
 31
0.0
  0
LWPOLYLINE
  5
23A
330
1F
100
AcDbEntity
  8
0-B_寸法
  6
Continuous
 62
     7
370
     9
100
AcDbPolyline
 90
        4
 70
     1
 43
4.0
 10
2423.490034461466
 20
-226.2928595809149
 42
0.4142135623731
 10
2421.490034461466
 20
-224.2928595809149
 42
0.4142135623731
 10
2419.490034461466
 20
-226.2928595809149
 42
0.4142135623731
 10
2421.490034461466
 20
-228.2928595809149
 42
0.4142135623731
  0
LINE
  5
23B
330
1F
100
AcDbEntity
  8
0-B_寸法
  6
Continuous
 62
   120
370
     5
100
AcDbLine
 10
2421.490034461466
 20
-226.2928595809149
 30
0.0
 11
2421.490034461466
 21
-326.2928595809149
 31
0.0
  0
LINE
  5
23C
330
1F
100
AcDbEntity
  8
0-B_寸法
  6
Continuous
 62
   120
370
     5
100
AcDbLine
 10
2766.490034414926
 20
-226.2928595809149
 30
0.0
 11
2744.490034461463
 21
-226.2928595809149
 31
0.0
  0
LWPOLYLINE
  5
23D
330
1F
100
AcDbEntity
  8
0-B_寸法
  6
Continuous
 62
     7
370
     9
100
AcDbPolyline
 90
        4
 70
     1
 43
4.0
 10
2746.490034461463
 20
-226.2928595809149
 42
0.4142135623731
 10
2744.490034461463
 20
-224.2928595809149
 42
0.4142135623731
 10
2742.490034461463
 20
-226.2928595809149
 42
0.4142135623731
 10
2744.490034461463
 20
-228.2928595809149
 42
0.4142135623731
  0
LINE
  5
23E
330
1F
100
AcDbEntity
  8
0-B_寸法
  6
Continuous
 62
   120
370
     5
100
AcDbLine
 10
2744.490034461463
 20
-226.2928595809149
 30
0.0
 11
2744.490034461463
 21
-326.2928595809149
 31
0.0
  0
TEXT
  5
23F
330
1F
100
AcDbEntity
  8
0-B_寸法
  6
Continuous
 62
     7
370
   211
100
AcDbText
 10
2427.1100818822
 20
-207.8328595809149
 30
0.0
 40
45.72
  1
37
  7
ＭＳ ゴシック
100
AcDbText
  0
TEXT
  5
240
330
1F
100
AcDbEntity
  8
0-B_寸法
  6
Continuous
 62
     7
370
   211
100
AcDbText
 10
2703.02757341119
 20
-207.8328595809149
 30
0.0
 40
45.72
  1
22
  7
ＭＳ ゴシック
100
AcDbText
  0
LINE
  5
241
330
1F
100
AcDbEntity
  8
0-0_補助線
  6
JWW_HOJO
 62
   120
370
     5
100
AcDbLine
 10
2349.490034554541
 20
-226.2928595809149
 30
0.0
 11
2816.490034461465
 21
-226.2928595809149
 31
0.0
  0
LINE
  5
242
330
1F
100
AcDbEntity
  8
0-0_補助線
  6
JWW_HOJO
 62
   120
370
     5
100
AcDbLine
 10
1849.490034554541
 20
-326.2928595809149
 30
0.0
 11
2916.490034461465
 21
-326.2928595809149
 31
0.0
  0
LINE
  5
243
330
1F
100
AcDbEntity
  8
0-0_補助線
  6
JWW_HOJO
 62
   120
370
     5
100
AcDbLine
 10
2249.490034554541
 20
-1169.292859580916
 30
0.0
 11
2249.490034554541
 21
-326.2928595809149
 31
0.0
  0
LINE
  5
244
330
1F
100
AcDbEntity
  8
0-0_補助線
  6
JWW_HOJO
 62
   120
370
     5
100
AcDbLine
 10
2149.490034554541
 20
-1169.292878138902
 30
0.0
 11
2149.490034554541
 21
-326.2928595809149
 31
0.0
  0
LINE
  5
245
330
1F
100
AcDbEntity
  8
0-0_補助線
  6
JWW_HOJO
 62
   120
370
     5
100
AcDbLine
 10
2349.490034554541
 20
-1563.792859580915
 30
0.0
 11
2349.490034554541
 21
-226.2928595809149
 31
0.0
  0
LINE
  5
246
330
1F
100
AcDbEntity
  8
0-0_補助線
  6
JWW_HOJO
 62
   120
370
     5
100
AcDbLine
 10
2049.490034554541
 20
-1563.792859580915
 30
0.0
 11
2049.490034554541
 21
-326.2928595809149
 31
0.0
  0
LINE
  5
247
330
1F
100
AcDbEntity
  8
0-0_補助線
  6
JWW_HOJO
 62
   120
370
     5
100
AcDbLine
 10
1949.490034554541
 20
-1563.792859580915
 30
0.0
 11
1949.490034554541
 21
-326.2928595809149
 31
0.0
  0
LINE
  5
248
330
1F
100
AcDbEntity
  8
0-0_補助線
  6
JWW_HOJO
 62
   120
370
     5
100
AcDbLine
 10
1849.490034554541
 20
-1563.792859580915
 30
0.0
 11
1849.490034554541
 21
-326.2928595809149
 31
0.0
  0
LINE
  5
249
330
1F
100
AcDbEntity
  8
0-0_補助線
  6
JWW_HOJO
 62
     7
370
     9
100
AcDbLine
 10
2421.490034461466
 20
-326.2928595809149
 30
0.0
 11
2421.490034461466
 21
-1563.792859580915
 31
0.0
  0
LINE
  5
24A
330
1F
100
AcDbEntity
  8
0-0_補助線
  6
JWW_HOJO
 62
     7
370
     9
100
AcDbLine
 10
2766.490034461465
 20
-1563.792859580915
 30
0.0
 11
2766.490034461465
 21
-326.2928595809149
 31
0.0
  0
LINE
  5
24B
330
1F
100
AcDbEntity
  8
0-0_補助線
  6
JWW_HOJO
 62
   120
370
     5
100
AcDbLine
 10
2816.490034461465
 20
-1563.792859580915
 30
0.0
 11
2816.490034461465
 21
-226.2928595809149
 31
0.0
  0
LINE
  5
24C
330
1F
100
AcDbEntity
  8
0-0_補助線
  6
JWW_HOJO
 62
   120
370
     5
100
AcDbLine
 10
2916.490034461465
 20
-326.2928595809149
 30
0.0
 11
2916.490034461465
 21
-1563.792859580915
 31
0.0
  0
LINE
  5
24D
330
1F
100
AcDbEntity
  8
0-9__
  6
Continuous
 62
     7
370
     9
100
AcDbLine
 10
2766.490034554538
 20
-1233.292859580916
 30
0.0
 11
2461.490034554539
 21
-1233.292859580916
 31
0.0
  0
LINE
  5
24E
330
1F
100
AcDbEntity
  8
0-9__
  6
Continuous
 62
     7
370
     9
100
AcDbLine
 10
2461.490034554539
 20
-1233.292859580916
 30
0.0
 11
2461.490034554539
 21
-1169.292859580916
 31
0.0
  0
LINE
  5
24F
330
1F
100
AcDbEntity
  8
0-9__
  6
Continuous
 62
     7
370
     9
100
AcDbLine
 10
2461.490034554539
 20
-1169.292859580916
 30
0.0
 11
2766.490034554538
 21
-1169.292859580916
 31
0.0
  0
LINE
  5
250
330
1F
100
AcDbEntity
  8
0-9__
  6
Continuous
 62
     7
370
     9
100
AcDbLine
 10
2476.490034554539
 20
-1233.292859580916
 30
0.0
 11
2476.490034554539
 21
-1169.292859580916
 31
0.0
  0
LINE
  5
251
330
1F
100
AcDbEntity
  8
0-B_寸法
  6
Continuous
 62
   120
370
     5
100
AcDbLine
 10
2461.490034554539
 20
-1383.292859580916
 30
0.0
 11
2461.490034554539
 21
-1283.292859580916
 31
0.0
  0
LWPOLYLINE
  5
252
330
1F
100
AcDbEntity
  8
0-B_寸法
  6
Continuous
 62
     7
370
     9
100
AcDbPolyline
 90
        4
 70
     1
 43
4.0
 10
2463.490034554539
 20
-1383.292859580916
 42
0.4142135623731
 10
2461.490034554539
 20
-1381.292859580916
 42
0.4142135623731
 10
2459.490034554539
 20
-1383.292859580916
 42
0.4142135623731
 10
2461.490034554539
 20
-1385.292859580916
 42
0.4142135623731
  0
LINE
  5
253
330
1F
100
AcDbEntity
  8
0-B_寸法
  6
Continuous
 62
   120
370
     5
100
AcDbLine
 10
2766.490034554538
 20
-1383.292859580916
 30
0.0
 11
2461.490034554539
 21
-1383.292859580916
 31
0.0
  0
TEXT
  5
254
330
1F
100
AcDbEntity
  8
0-B_寸法
  6
Continuous
 62
     7
370
   211
100
AcDbText
 10
2478.990034554539
 20
-1364.832859580916
 30
0.0
 40
45.72
  1
台輪＝305
 41
1.000000000000001
  7
ＭＳ ゴシック
100
AcDbText
  0
LINE
  5
255
330
1F
100
AcDbEntity
  8
0-4_棚
  6
Continuous
 62
     7
370
     9
100
AcDbLine
 10
2766.490034461465
 20
-408.2928595809148
 30
0.0
 11
2389.490034461465
 21
-408.2928595809148
 31
0.0
  0
LINE
  5
256
330
1F
100
AcDbEntity
  8
0-B_寸法
  6
Continuous
 62
   120
370
     5
100
AcDbLine
 10
2389.490034461465
 20
73.70714041908627
 30
0.0
 11
2389.490034461465
 21
-326.2928595809134
 31
0.0
  0
LINE
  5
257
330
1F
100
AcDbEntity
  8
0-B_寸法
  6
Continuous
 62
   120
370
     5
100
AcDbLine
 10
2766.490034461465
 20
73.70714041908627
 30
0.0
 11
2389.490034461465
 21
73.70714041908627
 31
0.0
  0
LWPOLYLINE
  5
258
330
1F
100
AcDbEntity
  8
0-B_寸法
  6
Continuous
 62
     7
370
     9
100
AcDbPolyline
 90
        4
 70
     1
 43
4.0
 10
2391.490034461465
 20
73.70714041908627
 42
0.4142135623731
 10
2389.490034461465
 20
75.70714041908627
 42
0.4142135623731
 10
2387.490034461466
 20
73.70714041908627
 42
0.4142135623731
 10
2389.490034461465
 20
71.70714041908627
 42
0.4142135623731
  0
LINE
  5
259
330
1F
100
AcDbEntity
  8
0-4_棚
  6
Continuous
 62
     7
370
     9
100
AcDbLine
 10
2766.490034461465
 20
-408.2928595809148
 30
0.0
 11
2766.490034461465
 21
-378.2928595809148
 31
0.0
  0
LWPOLYLINE
  5
25A
330
1F
100
AcDbEntity
  8
0-B_寸法
  6
Continuous
 62
     7
370
     9
100
AcDbPolyline
 90
        4
 70
     1
 43
4.0
 10
1951.49003455454
 20
-408.2928595809148
 42
0.4142135623731
 10
1949.490034554541
 20
-406.2928595809148
 42
0.4142135623731
 10
1947.490034554541
 20
-408.2928595809148
 42
0.4142135623731
 10
1949.490034554541
 20
-410.2928595809148
 42
0.4142135623731
  0
LWPOLYLINE
  5
25B
330
1F
100
AcDbEntity
  8
0-B_寸法
  6
Continuous
 62
     7
370
     9
100
AcDbPolyline
 90
        4
 70
     1
 43
4.0
 10
1951.49003455454
 20
-378.292879376101
 42
0.4142135623731
 10
1949.490034554541
 20
-376.292879376101
 42
0.4142135623731
 10
1947.490034554541
 20
-378.292879376101
 42
0.4142135623731
 10
1949.490034554541
 20
-380.292879376101
 42
0.4142135623731
  0
LINE
  5
25C
330
1F
100
AcDbEntity
  8
0-B_寸法
  6
Continuous
 62
   120
370
     5
100
AcDbLine
 10
1949.490034554541
 20
-378.292879376101
 30
0.0
 11
2349.490034554541
 21
-378.292879376101
 31
0.0
  0
TEXT
  5
25D
330
1F
100
AcDbEntity
  8
0-B_寸法
  6
Continuous
 62
     7
370
   211
100
AcDbText
 10
1931.030034554541
 20
-373.2928595809153
 30
0.0
 40
45.72
  1
30
 50
90.0
  7
ＭＳ ゴシック
100
AcDbText
  0
LINE
  5
25E
330
1F
100
AcDbEntity
  8
0-6_桟木
  6
Continuous
 62
    92
370
    13
100
AcDbLine
 10
2766.490034554543
 20
-378.292879376101
 30
0.0
 11
2766.490034554543
 21
-483.292879376101
 31
0.0
  0
LINE
  5
25F
330
1F
100
AcDbEntity
  8
0-6_桟木
  6
Continuous
 62
    92
370
    13
100
AcDbLine
 10
2796.490034554543
 20
-378.292879376101
 30
0.0
 11
2766.490034554543
 21
-378.292879376101
 31
0.0
  0
LINE
  5
260
330
1F
100
AcDbEntity
  8
0-6_桟木
  6
Continuous
 62
    92
370
    13
100
AcDbLine
 10
2766.490034554543
 20
-483.292879376101
 30
0.0
 11
2796.490034554543
 21
-483.292879376101
 31
0.0
  0
LINE
  5
261
330
1F
100
AcDbEntity
  8
0-6_桟木
  6
Continuous
 62
    92
370
    13
100
AcDbLine
 10
2796.490034554543
 20
-483.292879376101
 30
0.0
 11
2796.490034554543
 21
-378.292879376101
 31
0.0
  0
LINE
  5
262
330
1F
100
AcDbEntity
  8
0-6_桟木
  6
Continuous
 62
     7
370
     9
100
AcDbLine
 10
2766.490034554543
 20
-483.292879376101
 30
0.0
 11
2796.490034554543
 21
-378.292879376101
 31
0.0
  0
LINE
  5
263
330
1F
100
AcDbEntity
  8
0-6_桟木
  6
Continuous
 62
     7
370
     9
100
AcDbLine
 10
2766.490034554543
 20
-378.292879376101
 30
0.0
 11
2796.490034554543
 21
-483.292879376101
 31
0.0
  0
LINE
  5
264
330
1F
100
AcDbEntity
  8
0-A_文字
  6
Continuous
 62
     7
370
     9
100
AcDbLine
 10
2856.998100692261
 20
-260.8318358305095
 30
0.0
 11
3150.017760788704
 21
-260.8318358305095
 31
0.0
  0
LINE
  5
265
330
1F
100
AcDbEntity
  8
0-A_文字
  6
Continuous
 62
     7
370
     9
100
AcDbLine
 10
2779.965006637832
 20
-394.2570685970071
 30
0.0
 11
2856.998100692261
 21
-260.8318358305095
 31
0.0
  0
TEXT
  5
266
330
1F
100
AcDbEntity
  8
0-A_文字
  6
Continuous
 62
     7
370
     9
100
AcDbText
 10
2860.226671862839
 20
-224.1241956871454
 30
0.0
 40
45.72
  1
30×105程度
  7
ＭＳ ゴシック
100
AcDbText
  0
TEXT
  5
267
330
1F
100
AcDbEntity
  8
0-A_文字
  6
Continuous
 62
     7
370
     9
100
AcDbText
 10
2860.226671862842
 20
-149.5817664026194
 30
0.0
 40
45.72
  1
下地位置
  7
ＭＳ ゴシック
100
AcDbText
  0
TEXT
  5
268
330
1F
100
AcDbEntity
  8
0-A_文字
  6
Continuous
 62
     7
370
     9
100
AcDbText
 10
2860.226671862842
 20
-72.96871408241319
 30
0.0
 40
45.72
  1
補強材
  7
ＭＳ ゴシック
100
AcDbText
  0
LINE
  5
269
330
1F
100
AcDbEntity
  8
0-B_寸法
  6
Continuous
 62
   120
370
     5
100
AcDbLine
 10
2916.490034461465
 20
-1090.292859580913
 30
0.0
 11
2916.490034461465
 21
-483.292879376101
 31
0.0
  0
LWPOLYLINE
  5
26A
330
1F
100
AcDbEntity
  8
0-B_寸法
  6
Continuous
 62
     7
370
     9
100
AcDbPolyline
 90
        4
 70
     1
 43
4.0
 10
2918.490034461465
 20
-483.292879376101
 42
0.4142135623731
 10
2916.490034461465
 20
-481.292879376101
 42
0.4142135623731
 10
2914.490034461465
 20
-483.292879376101
 42
0.4142135623731
 10
2916.490034461465
 20
-485.292879376101
 42
0.4142135623731
  0
LINE
  5
26B
330
1F
100
AcDbEntity
  8
0-B_寸法
  6
Continuous
 62
   120
370
     5
100
AcDbLine
 10
2916.490034461465
 20
-483.292879376101
 30
0.0
 11
2816.490034554538
 21
-483.292879376101
 31
0.0
  0
TEXT
  5
26C
330
1F
100
AcDbEntity
  8
0-B_寸法
  6
Continuous
 62
     7
370
   211
100
AcDbText
 10
2898.030034461465
 20
-831.792869478507
 30
0.0
 40
45.72
  1
607
 50
90.0
  7
ＭＳ ゴシック
100
AcDbText
  0
LINE
  5
26D
330
1F
100
AcDbEntity
  8
0-B_寸法
  6
Continuous
 62
   120
370
     5
100
AcDbLine
 10
2916.490034461465
 20
-483.292879376101
 30
0.0
 11
2916.490034461465
 21
-378.292879376101
 31
0.0
  0
LWPOLYLINE
  5
26E
330
1F
100
AcDbEntity
  8
0-B_寸法
  6
Continuous
 62
     7
370
     9
100
AcDbPolyline
 90
        4
 70
     1
 43
4.0
 10
2918.490034461465
 20
-378.292879376101
 42
0.4142135623731
 10
2916.490034461465
 20
-376.292879376101
 42
0.4142135623731
 10
2914.490034461465
 20
-378.292879376101
 42
0.4142135623731
 10
2916.490034461465
 20
-380.292879376101
 42
0.4142135623731
  0
LINE
  5
26F
330
1F
100
AcDbEntity
  8
0-B_寸法
  6
Continuous
 62
   120
370
     5
100
AcDbLine
 10
2916.490034461465
 20
-378.292879376101
 30
0.0
 11
2816.490034554538
 21
-378.292879376101
 31
0.0
  0
TEXT
  5
270
330
1F
100
AcDbEntity
  8
0-B_寸法
  6
Continuous
 62
     7
370
   211
100
AcDbText
 10
2898.030034461465
 20
-475.792879376101
 30
0.0
 40
45.72
  1
105
 50
90.0
  7
ＭＳ ゴシック
100
AcDbText
  0
LINE
  5
271
330
1F
100
AcDbEntity
  8
0-4_棚
  6
Continuous
 62
     7
370
     9
100
AcDbLine
 10
2389.490034461465
 20
-379.2828288697623
 30
0.0
 11
2389.490034461465
 21
-408.2928595809148
 31
0.0
  0
LINE
  5
272
330
1F
100
AcDbEntity
  8
0-4_棚
  6
Continuous
 62
     7
370
     9
100
AcDbLine
 10
2390.479983955126
 20
-378.292879376101
 30
0.0
 11
2766.490034461465
 21
-378.292879376101
 31
0.0
  0
LINE
  5
273
330
1F
100
AcDbEntity
  8
0-4_棚
  6
Continuous
 62
     7
370
     9
100
AcDbLine
 10
2389.490034461465
 20
-379.2828288697623
 30
0.0
 11
2390.479983955126
 21
-378.292879376101
 31
0.0
  0
TEXT
  5
274
330
1F
100
AcDbEntity
  8
0-A_文字
  6
Continuous
 62
     7
370
   211
100
AcDbText
 10
1587.98993876146
 20
-1878.647266705745
 30
0.0
 40
45.72
  1
※棚板は可動式32m/mピッチで調整可能
 41
1.0
  7
ＭＳ ゴシック
100
AcDbText
  0
TEXT
  5
275
330
1F
100
AcDbEntity
  8
0-A_文字
  6
Continuous
 62
     7
370
   211
100
AcDbText
 10
1587.989938761463
 20
-1952.782716619914
 30
0.0
 40
45.72
  1
※下地用の木桟木は105m/m×30m/m以上の堅い木を使用してください。
  7
ＭＳ ゴシック
100
AcDbText
  0
LINE
  5
276
330
1F
100
AcDbEntity
  8
0-B_寸法
  6
Continuous
 62
   120
370
     5
100
AcDbLine
 10
-3038.509965398917
 20
-1233.292859580916
 30
0.0
 11
-2838.509965398915
 21
-1233.292859580916
 31
0.0
  0
LINE
  5
277
330
1F
100
AcDbEntity
  8
0-B_寸法
  6
Continuous
 62
   120
370
     5
100
AcDbLine
 10
-2938.509965398917
 20
-1169.292846605053
 30
0.0
 11
-2838.509965398917
 21
-1169.292846605053
 31
0.0
  0
LWPOLYLINE
  5
278
330
1F
100
AcDbEntity
  8
0-B_寸法
  6
Continuous
 62
     7
370
     9
100
AcDbPolyline
 90
        4
 70
     1
 43
4.0
 10
-2936.509965398917
 20
-1233.292859580916
 42
0.4142135623731
 10
-2938.509965398917
 20
-1231.292859580916
 42
0.4142135623731
 10
-2940.509965398917
 20
-1233.292859580916
 42
0.4142135623731
 10
-2938.509965398917
 20
-1235.292859580916
 42
0.4142135623731
  0
LWPOLYLINE
  5
279
330
1F
100
AcDbEntity
  8
0-B_寸法
  6
Continuous
 62
     7
370
     9
100
AcDbPolyline
 90
        4
 70
     1
 43
4.0
 10
-2936.509965398917
 20
-1169.292846605053
 42
0.4142135623731
 10
-2938.509965398917
 20
-1167.292846605053
 42
0.4142135623731
 10
-2940.509965398917
 20
-1169.292846605053
 42
0.4142135623731
 10
-2938.509965398917
 20
-1171.292846605053
 42
0.4142135623731
  0
LINE
  5
27A
330
1F
100
AcDbEntity
  8
0-B_寸法
  6
Continuous
 62
   120
370
     5
100
AcDbLine
 10
-2938.509965398917
 20
-1169.292846605053
 30
0.0
 11
-2938.509965398917
 21
-1233.292859580916
 31
0.0
  0
TEXT
  5
27B
330
1F
100
AcDbEntity
  8
0-B_寸法
  6
Continuous
 62
     7
370
   211
100
AcDbText
 10
-2956.969965398917
 20
-1231.292853092985
 30
0.0
 40
45.72
  1
64
 50
90.0
  7
ＭＳ ゴシック
100
AcDbText
  0
TEXT
  5
27C
330
1F
100
AcDbEntity
  8
0-B_寸法
  6
Continuous
 62
     7
370
   211
100
AcDbText
 10
-2956.969965398916
 20
-1159.385686374666
 30
0.0
 40
45.72
  1
3
 50
90.0
  7
ＭＳ ゴシック
100
AcDbText
  0
LINE
  5
27D
330
1F
100
AcDbEntity
  8
0-B_寸法
  6
Continuous
 62
   120
370
     5
100
AcDbLine
 10
-2938.509965398915
 20
-1166.292859580915
 30
0.0
 11
-2838.509965398915
 21
-1166.292859580915
 31
0.0
  0
LINE
  5
27E
330
1F
100
AcDbEntity
  8
0-B_寸法
  6
Continuous
 62
   120
370
     5
100
AcDbLine
 10
-2938.509965398915
 20
-1169.292859580916
 30
0.0
 11
-2838.509965398915
 21
-1169.292859580916
 31
0.0
  0
LWPOLYLINE
  5
27F
330
1F
100
AcDbEntity
  8
0-B_寸法
  6
Continuous
 62
     7
370
     9
100
AcDbPolyline
 90
        4
 70
     1
 43
4.0
 10
-2936.509965398915
 20
-1166.292859580915
 42
0.4142135623731
 10
-2938.509965398915
 20
-1164.292859580915
 42
0.4142135623731
 10
-2940.509965398915
 20
-1166.292859580915
 42
0.4142135623731
 10
-2938.509965398915
 20
-1168.292859580916
 42
0.4142135623731
  0
LWPOLYLINE
  5
280
330
1F
100
AcDbEntity
  8
0-B_寸法
  6
Continuous
 62
     7
370
     9
100
AcDbPolyline
 90
        4
 70
     1
 43
4.0
 10
-2936.509965398915
 20
-1169.292859580916
 42
0.4142135623731
 10
-2938.509965398915
 20
-1167.292859580916
 42
0.4142135623731
 10
-2940.509965398915
 20
-1169.292859580916
 42
0.4142135623731
 10
-2938.509965398915
 20
-1171.292859580916
 42
0.4142135623731
  0
LINE
  5
281
330
1F
100
AcDbEntity
  8
0-B_寸法
  6
Continuous
 62
   120
370
     5
100
AcDbLine
 10
-2938.509965398915
 20
-1169.292859580916
 30
0.0
 11
-2938.509965398915
 21
-1166.292859580915
 31
0.0
  0
LINE
  5
282
330
1F
100
AcDbEntity
  8
0-1_本体
  6
Continuous
 62
     7
370
     9
100
AcDbLine
 10
-2788.509965398915
 20
-1169.292859580916
 30
0.0
 11
-1992.509965398916
 21
-1169.292859580916
 31
0.0
  0
LINE
  5
283
330
1F
100
AcDbEntity
  8
0-2_扉
  6
Continuous
 62
    92
370
    13
100
AcDbLine
 10
-2392.509965398918
 20
-1166.292859580916
 30
0.0
 11
-2786.509965398917
 21
-1166.292859580916
 31
0.0
  0
LINE
  5
284
330
1F
100
AcDbEntity
  8
0-2_扉
  6
Continuous
 62
    92
370
    13
100
AcDbLine
 10
-2388.509965398917
 20
-1166.292859580916
 30
0.0
 11
-1994.509965398914
 21
-1166.292859580916
 31
0.0
  0
TEXT
  5
285
330
1F
100
AcDbEntity
  8
0-B_寸法
  6
Continuous
 62
     7
370
   211
100
AcDbText
 10
-2956.969965398916
 20
-442.7295322560138
 30
0.0
 40
45.72
  1
3
 50
90.0
  7
ＭＳ ゴシック
100
AcDbText
  0
LINE
  5
286
330
1F
100
AcDbEntity
  8
0-B_寸法
  6
Continuous
 62
   120
370
     5
100
AcDbLine
 10
-2938.509965398915
 20
-411.2928595809154
 30
0.0
 11
-2838.509965398915
 21
-411.2928595809154
 31
0.0
  0
LWPOLYLINE
  5
287
330
1F
100
AcDbEntity
  8
0-B_寸法
  6
Continuous
 62
     7
370
     9
100
AcDbPolyline
 90
        4
 70
     1
 43
4.0
 10
-2936.509965398915
 20
-411.2928595809154
 42
0.4142135623731
 10
-2938.509965398915
 20
-409.2928595809154
 42
0.4142135623731
 10
-2940.509965398915
 20
-411.2928595809154
 42
0.4142135623731
 10
-2938.509965398915
 20
-413.2928595809154
 42
0.4142135623731
  0
LINE
  5
288
330
1F
100
AcDbEntity
  8
0-B_寸法
  6
Continuous
 62
   120
370
     5
100
AcDbLine
 10
-2938.509965398915
 20
-1166.292859580915
 30
0.0
 11
-2938.509965398915
 21
-411.2928595809154
 31
0.0
  0
LINE
  5
289
330
1F
100
AcDbEntity
  8
0-B_寸法
  6
Continuous
 62
   120
370
     5
100
AcDbLine
 10
-2938.509965398915
 20
-408.2928595809159
 30
0.0
 11
-2838.509965398915
 21
-408.2928595809159
 31
0.0
  0
LWPOLYLINE
  5
28A
330
1F
100
AcDbEntity
  8
0-B_寸法
  6
Continuous
 62
     7
370
     9
100
AcDbPolyline
 90
        4
 70
     1
 43
4.0
 10
-2936.509965398915
 20
-408.2928595809159
 42
0.4142135623731
 10
-2938.509965398915
 20
-406.2928595809159
 42
0.4142135623731
 10
-2940.509965398915
 20
-408.2928595809159
 42
0.4142135623731
 10
-2938.509965398915
 20
-410.2928595809159
 42
0.4142135623731
  0
LINE
  5
28B
330
1F
100
AcDbEntity
  8
0-B_寸法
  6
Continuous
 62
   120
370
     5
100
AcDbLine
 10
-2938.509965398915
 20
-411.2928595809154
 30
0.0
 11
-2938.509965398915
 21
-408.2928595809159
 31
0.0
  0
LINE
  5
28C
330
1F
100
AcDbEntity
  8
0-1_本体
  6
Continuous
 62
     7
370
     9
100
AcDbLine
 10
-2788.509965398915
 20
-408.2928595809159
 30
0.0
 11
-2788.509965398915
 21
-1169.292859580916
 31
0.0
  0
LINE
  5
28D
330
1F
100
AcDbEntity
  8
0-2_扉
  6
Continuous
 62
    92
370
    13
100
AcDbLine
 10
-2786.509965398917
 20
-411.2930037440697
 30
0.0
 11
-2786.509965398917
 21
-1166.292859580916
 31
0.0
  0
LINE
  5
28E
330
1F
100
AcDbEntity
  8
0-2_扉
  6
Continuous
 62
    92
370
    13
100
AcDbLine
 10
-1994.509965398914
 20
-411.2930037440697
 30
0.0
 11
-1994.509965398914
 21
-1166.292859580916
 31
0.0
  0
LINE
  5
28F
330
1F
100
AcDbEntity
  8
0-2_扉
  6
Continuous
 62
    92
370
    13
100
AcDbLine
 10
-2388.509965398917
 20
-411.2930037440697
 30
0.0
 11
-2388.509965398917
 21
-1166.292859580916
 31
0.0
  0
LINE
  5
290
330
1F
100
AcDbEntity
  8
0-2_扉
  6
Continuous
 62
    92
370
    13
100
AcDbLine
 10
-2392.509965398918
 20
-411.2930037440697
 30
0.0
 11
-2392.509965398918
 21
-1166.292859580916
 31
0.0
  0
LINE
  5
291
330
1F
100
AcDbEntity
  8
0-2_扉
  6
Continuous
 62
    92
370
    13
100
AcDbLine
 10
-2388.509965398917
 20
-411.2930037440697
 30
0.0
 11
-1994.509965398914
 21
-411.2930037440697
 31
0.0
  0
LINE
  5
292
330
1F
100
AcDbEntity
  8
0-2_扉
  6
Continuous
 62
    92
370
    13
100
AcDbLine
 10
-2392.509965398918
 20
-411.2930037440697
 30
0.0
 11
-2786.509965398917
 21
-411.2930037440697
 31
0.0
  0
TEXT
  5
293
330
1F
100
AcDbEntity
  8
0-B_寸法
  6
Continuous
 62
     7
370
   211
100
AcDbText
 10
-2956.969965398916
 20
-923.7928793761006
 30
0.0
 40
45.72
  1
ＤＨ＝755
 50
90.0
  7
ＭＳ ゴシック
100
AcDbText
  0
LINE
  5
294
330
1F
100
AcDbEntity
  8
0-B_寸法
  6
Continuous
 62
   120
370
     5
100
AcDbLine
 10
-2938.50996530584
 20
-408.292851332921
 30
0.0
 11
-2838.50996530584
 21
-408.292851332921
 31
0.0
  0
LWPOLYLINE
  5
295
330
1F
100
AcDbEntity
  8
0-B_寸法
  6
Continuous
 62
     7
370
     9
100
AcDbPolyline
 90
        4
 70
     1
 43
4.0
 10
-2936.50996530584
 20
-408.292851332921
 42
0.4142135623731
 10
-2938.50996530584
 20
-406.292851332921
 42
0.4142135623731
 10
-2940.50996530584
 20
-408.292851332921
 42
0.4142135623731
 10
-2938.50996530584
 20
-410.292851332921
 42
0.4142135623731
  0
LINE
  5
296
330
1F
100
AcDbEntity
  8
0-0_補助線
  6
JWW_HOJO
 62
   120
370
     5
100
AcDbLine
 10
-2938.509965398915
 20
-126.2928595809149
 30
0.0
 11
-2938.509965398915
 21
-1563.792859580915
 31
0.0
  0
LINE
  5
297
330
1F
100
AcDbEntity
  8
0-0_補助線
  6
JWW_HOJO
 62
   120
370
     5
100
AcDbLine
 10
-2838.509965398915
 20
-126.2928595809149
 30
0.0
 11
-2838.509965398915
 21
-1563.792859580915
 31
0.0
  0
LINE
  5
298
330
1F
100
AcDbEntity
  8
0-0_補助線
  6
JWW_HOJO
 62
     7
370
     9
100
AcDbLine
 10
-1992.509965398916
 20
-1563.792859580915
 30
0.0
 11
-1992.509965398916
 21
-126.2928595809149
 31
0.0
  0
LINE
  5
299
330
1F
100
AcDbEntity
  8
0-0_補助線
  6
JWW_HOJO
 62
     7
370
     9
100
AcDbLine
 10
-2788.509965398915
 20
-126.2928595809149
 30
0.0
 11
-2788.509965398915
 21
-1563.792859580915
 31
0.0
  0
LINE
  5
29A
330
1F
100
AcDbEntity
  8
0-4_棚
  6
Continuous
 62
    92
370
    13
100
AcDbLine
 10
-2789.509965398916
 20
-378.2928595809159
 30
0.0
 11
-2789.509965398916
 21
-408.2928595809159
 31
0.0
  0
LINE
  5
29B
330
1F
100
AcDbEntity
  8
0-B_寸法
  6
Continuous
 62
   120
370
     5
100
AcDbLine
 10
-2938.509965398915
 20
-408.2928595809159
 30
0.0
 11
-2938.509965398915
 21
-378.2928595809159
 31
0.0
  0
LWPOLYLINE
  5
29C
330
1F
100
AcDbEntity
  8
0-B_寸法
  6
Continuous
 62
     7
370
     9
100
AcDbPolyline
 90
        4
 70
     1
 43
4.0
 10
-2936.509965398915
 20
-378.2928595809159
 42
0.4142135623731
 10
-2938.509965398915
 20
-376.2928595809159
 42
0.4142135623731
 10
-2940.509965398915
 20
-378.2928595809159
 42
0.4142135623731
 10
-2938.509965398915
 20
-380.2928595809159
 42
0.4142135623731
  0
LINE
  5
29D
330
1F
100
AcDbEntity
  8
0-B_寸法
  6
Continuous
 62
   120
370
     5
100
AcDbLine
 10
-2938.509965398915
 20
-378.2928595809159
 30
0.0
 11
-2838.509965398915
 21
-378.2928595809159
 31
0.0
  0
TEXT
  5
29E
330
1F
100
AcDbEntity
  8
0-B_寸法
  6
Continuous
 62
     7
370
   211
100
AcDbText
 10
-2956.969965398916
 20
-373.2928595809153
 30
0.0
 40
45.72
  1
30
 50
90.0
  7
ＭＳ ゴシック
100
AcDbText
  0
TEXT
  5
29F
330
1F
100
AcDbEntity
  8
0-A_文字
  6
Continuous
 62
     7
370
     9
100
AcDbText
 10
-1574.509965398911
 20
-1224.832859580916
 30
0.0
 40
45.72
  1
▽床面
 41
0.9999999999999747
  7
ＭＳ ゴシック
100
AcDbText
  0
LINE
  5
2A0
330
1F
100
AcDbEntity
  8
0-3_扉仕上
  6
Continuous
 62
     7
370
     9
100
AcDbLine
 10
-2788.509965398917
 20
-1233.292859580916
 30
0.0
 11
-1394.509965398914
 21
-1233.292859580916
 31
0.0
  0
LINE
  5
2A1
330
1F
100
AcDbEntity
  8
0-1_本体
  6
Continuous
 62
     7
370
     9
100
AcDbLine
 10
-1992.509965398913
 20
-1169.292859580916
 30
0.0
 11
-1594.509965398914
 21
-1169.292859580916
 31
0.0
  0
LINE
  5
2A2
330
1F
100
AcDbEntity
  8
0-2_扉
  6
Continuous
 62
    92
370
    13
100
AcDbLine
 10
-1596.509965398915
 20
-1166.292859580916
 30
0.0
 11
-1990.509965398913
 21
-1166.292859580916
 31
0.0
  0
LINE
  5
2A3
330
1F
100
AcDbEntity
  8
0-1_本体
  6
Continuous
 62
     7
370
     9
100
AcDbLine
 10
-1594.509965398914
 20
-1169.292859580916
 30
0.0
 11
-1594.509965398914
 21
-408.2928595809159
 31
0.0
  0
LINE
  5
2A4
330
1F
100
AcDbEntity
  8
0-2_扉
  6
Continuous
 62
    92
370
    13
100
AcDbLine
 10
-1596.509965398915
 20
-411.2928397857303
 30
0.0
 11
-1596.509965398915
 21
-1166.292859580916
 31
0.0
  0
LINE
  5
2A5
330
1F
100
AcDbEntity
  8
0-2_扉
  6
Continuous
 62
    92
370
    13
100
AcDbLine
 10
-1990.509965398913
 20
-411.2928397857303
 30
0.0
 11
-1990.509965398913
 21
-1166.292859580916
 31
0.0
  0
LINE
  5
2A6
330
1F
100
AcDbEntity
  8
0-2_扉
  6
Continuous
 62
    92
370
    13
100
AcDbLine
 10
-1596.509965398915
 20
-411.2928397857303
 30
0.0
 11
-1990.509965398913
 21
-411.2928397857303
 31
0.0
  0
LINE
  5
2A7
330
1F
100
AcDbEntity
  8
0-0_補助線
  6
JWW_HOJO
 62
   120
370
     5
100
AcDbLine
 10
-1444.509965398914
 20
-1563.792859580915
 30
0.0
 11
-1444.509965398914
 21
-126.2928595809149
 31
0.0
  0
LINE
  5
2A8
330
1F
100
AcDbEntity
  8
0-0_補助線
  6
JWW_HOJO
 62
   120
370
     5
100
AcDbLine
 10
-1544.509965398914
 20
-1563.792859580915
 30
0.0
 11
-1544.509965398914
 21
-126.2928595809149
 31
0.0
  0
LINE
  5
2A9
330
1F
100
AcDbEntity
  8
0-0_補助線
  6
JWW_HOJO
 62
     7
370
     9
100
AcDbLine
 10
-1594.509965398914
 20
-1563.792859580915
 30
0.0
 11
-1594.509965398914
 21
-126.2928595809149
 31
0.0
  0
LINE
  5
2AA
330
1F
100
AcDbEntity
  8
0-4_棚
  6
Continuous
 62
    92
370
    13
100
AcDbLine
 10
-1593.509965398913
 20
-408.2928595809159
 30
0.0
 11
-1593.509965398913
 21
-378.2928595809159
 31
0.0
  0
LINE
  5
2AB
330
1F
100
AcDbEntity
  8
0-0_補助線
  6
JWW_HOJO
 62
   120
370
     5
100
AcDbLine
 10
-2938.509965398915
 20
-126.2928595809149
 30
0.0
 11
-1444.509965398914
 21
-126.2928595809149
 31
0.0
  0
LINE
  5
2AC
330
1F
100
AcDbEntity
  8
0-0_補助線
  6
JWW_HOJO
 62
   120
370
     5
100
AcDbLine
 10
-2938.509965398915
 20
-326.2928595809154
 30
0.0
 11
-1444.509965398914
 21
-326.2928595809154
 31
0.0
  0
LINE
  5
2AD
330
1F
100
AcDbEntity
  8
0-0_補助線
  6
JWW_HOJO
 62
   120
370
     5
100
AcDbLine
 10
-2938.509965398915
 20
-226.2928595809149
 30
0.0
 11
-1444.509965398914
 21
-226.2928595809149
 31
0.0
  0
LINE
  5
2AE
330
1F
100
AcDbEntity
  8
0-1_本体
  6
Continuous
 62
    92
370
    13
100
AcDbLine
 10
501.4900346010836
 20
-1169.292859580916
 30
0.0
 11
501.4900346010836
 21
-408.2928595809159
 31
0.0
  0
LINE
  5
2AF
330
1F
100
AcDbEntity
  8
0-4_棚
  6
Continuous
 62
    92
370
    13
100
AcDbLine
 10
-295.5099653989157
 20
-408.2928595809159
 30
0.0
 11
900.4900346010834
 21
-408.2928595809159
 31
0.0
  0
LINE
  5
2B0
330
1F
100
AcDbEntity
  8
0-4_棚
  6
Continuous
 62
    92
370
    13
100
AcDbLine
 10
900.4900346010834
 20
-378.2928595809159
 30
0.0
 11
-295.5099653989157
 21
-378.2928595809159
 31
0.0
  0
LINE
  5
2B1
330
1F
100
AcDbEntity
  8
0-1_本体
  6
Continuous
 62
     7
370
     9
100
AcDbLine
 10
-1992.509965398916
 20
-1169.292859580916
 30
0.0
 11
-1992.509965398916
 21
-408.2928595809159
 31
0.0
  0
LINE
  5
2B2
330
1F
100
AcDbEntity
  8
0-4_棚
  6
Continuous
 62
    92
370
    13
100
AcDbLine
 10
-2789.509965398916
 20
-408.2928595809159
 30
0.0
 11
-1593.509965398913
 21
-408.2928595809159
 31
0.0
  0
LINE
  5
2B3
330
1F
100
AcDbEntity
  8
0-4_棚
  6
Continuous
 62
    92
370
    13
100
AcDbLine
 10
-1593.509965398913
 20
-378.2928595809159
 30
0.0
 11
-2789.509965398916
 21
-378.2928595809159
 31
0.0
  0
LINE
  5
2B4
330
1F
100
AcDbEntity
  8
0-0_補助線
  6
JWW_HOJO
 62
     7
370
     9
100
AcDbLine
 10
2916.490034461465
 20
-376.2928595809154
 30
0.0
 11
-2938.509965398912
 21
-376.2928595809154
 31
0.0
  0
LINE
  5
2B5
330
1F
100
AcDbEntity
  8
0-0_補助線
  6
JWW_HOJO
 62
     7
370
     9
100
AcDbLine
 10
-2938.509965398912
 20
-1169.292859580916
 30
0.0
 11
2916.490034461465
 21
-1169.292859580916
 31
0.0
  0
LINE
  5
2B6
330
1F
100
AcDbEntity
  8
0-0_補助線
  6
JWW_HOJO
 62
   120
370
     5
100
AcDbLine
 10
-2938.509965398912
 20
-408.2928595809159
 30
0.0
 11
2916.490034461465
 21
-408.2928595809159
 31
0.0
  0
LINE
  5
2B7
330
1F
100
AcDbEntity
  8
0-B_寸法
  6
JWW_HOJO
 62
   120
370
     5
100
AcDbLine
 10
-2938.509965398912
 20
-1283.292859580916
 30
0.0
 11
2916.490034461465
 21
-1283.292859580916
 31
0.0
  0
LINE
  5
2B8
330
1F
100
AcDbEntity
  8
0-B_寸法
  6
JWW_HOJO
 62
   120
370
     5
100
AcDbLine
 10
-2938.509965398912
 20
-1483.292859580916
 30
0.0
 11
2916.490034461465
 21
-1483.292859580916
 31
0.0
  0
LINE
  5
2B9
330
1F
100
AcDbEntity
  8
0-B_寸法
  6
JWW_HOJO
 62
   120
370
     5
100
AcDbLine
 10
-2938.509965398912
 20
-1383.292859580916
 30
0.0
 11
2916.490034461465
 21
-1383.292859580916
 31
0.0
  0
LINE
  5
2BA
330
1F
100
AcDbEntity
  8
0-A_文字
  6
JWW_CENTER1
 62
     7
370
     9
100
AcDbLine
 10
-2788.509965398912
 20
-1233.292859580916
 30
0.0
 11
2766.490034554538
 21
-1233.292859580916
 31
0.0
  0
LINE
  5
2BB
330
1F
100
AcDbEntity
  8
0-B_寸法
  6
JWW_DASHED2
 62
   120
370
     5
100
AcDbLine
 10
2766.490034461464
 20
-1090.292859580915
 30
0.0
 11
-2788.509965398912
 21
-1090.292859580915
 31
0.0
  0
LINE
  5
2BC
330
1F
100
AcDbEntity
  8
0-B_寸法
  6
JWW_DASHED2
 62
   120
370
     5
100
AcDbLine
 10
2766.490034461464
 20
-1233.292859580913
 30
0.0
 11
-2788.509965398912
 21
-1233.292859580913
 31
0.0
  0
LINE
  5
2BD
330
1F
100
AcDbEntity
  8
0-B_寸法
  6
JWW_DASHED2
 62
   120
370
     5
100
AcDbLine
 10
2766.490034461464
 20
-483.292879376101
 30
0.0
 11
-2788.509965398912
 21
-483.292879376101
 31
0.0
  0
LINE
  5
2BE
330
1F
100
AcDbEntity
  8
0-A_文字
  6
JWW_CENTER1
 62
     7
370
     9
100
AcDbLine
 10
-2788.509965491985
 20
-378.292879376101
 30
0.0
 11
2766.490034461465
 21
-378.292879376101
 31
0.0
  0
LINE
  5
2BF
330
1F
100
AcDbEntity
  8
0-A_文字
  6
Continuous
 62
     7
370
     9
100
AcDbLine
 10
-2616.509965398914
 20
-1633.292859580916
 30
0.0
 11
-1766.509965398913
 21
-1633.292859580916
 31
0.0
  0
LINE
  5
2C0
330
1F
100
AcDbEntity
  8
0-A_文字
  6
Continuous
 62
     7
370
     9
100
AcDbLine
 10
-1766.509965398913
 20
-1633.292859580916
 30
0.0
 11
-1766.509965398913
 21
-1783.292859580916
 31
0.0
  0
LINE
  5
2C1
330
1F
100
AcDbEntity
  8
0-A_文字
  6
Continuous
 62
     7
370
     9
100
AcDbLine
 10
-1766.509965398913
 20
-1783.292859580916
 30
0.0
 11
-2616.509965398914
 21
-1783.292859580916
 31
0.0
  0
LINE
  5
2C2
330
1F
100
AcDbEntity
  8
0-A_文字
  6
Continuous
 62
     7
370
     9
100
AcDbLine
 10
-2616.509965398914
 20
-1783.292859580916
 30
0.0
 11
-2616.509965398914
 21
-1633.292859580916
 31
0.0
  0
TEXT
  5
2C3
330
1F
100
AcDbEntity
  8
0-B_寸法
  6
Continuous
 62
     7
370
   211
100
AcDbText
 10
-2802.509965398915
 20
-207.8328595809211
 30
0.0
 40
45.72
  1
2
  7
ＭＳ ゴシック
100
AcDbText
  0
TEXT
  5
2C4
330
1F
100
AcDbEntity
  8
0-B_寸法
  6
Continuous
 62
     7
370
   211
100
AcDbText
 10
-2724.509965398915
 20
-207.8328595809211
 30
0.0
 40
45.72
  1
ＤＷ＝394
 41
0.999999999999999
  7
ＭＳ ゴシック
100
AcDbText
  0
TEXT
  5
2C5
330
1F
100
AcDbEntity
  8
0-B_寸法
  6
Continuous
 62
     7
370
   211
100
AcDbText
 10
-2405.509965398915
 20
-207.8328595809211
 30
0.0
 40
45.72
  1
4
  7
ＭＳ ゴシック
100
AcDbText
  0
TEXT
  5
2C6
330
1F
100
AcDbEntity
  8
0-B_寸法
  6
Continuous
 62
     7
370
   211
100
AcDbText
 10
-2326.509965398916
 20
-207.8328595809211
 30
0.0
 40
45.72
  1
ＤＷ＝394
  7
ＭＳ ゴシック
100
AcDbText
  0
TEXT
  5
2C7
330
1F
100
AcDbEntity
  8
0-B_寸法
  6
Continuous
 62
     7
370
   211
100
AcDbText
 10
-2029.509965398915
 20
-207.8328595809211
 30
0.0
 40
45.72
  1
2
  7
ＭＳ ゴシック
100
AcDbText
  0
TEXT
  5
2C8
330
1F
100
AcDbEntity
  8
0-B_寸法
  6
Continuous
 62
     7
370
   211
100
AcDbText
 10
-1987.509965398913
 20
-207.8328595809154
 30
0.0
 40
45.72
  1
2
  7
ＭＳ ゴシック
100
AcDbText
  0
TEXT
  5
2C9
330
1F
100
AcDbEntity
  8
0-B_寸法
  6
Continuous
 62
     7
370
   211
100
AcDbText
 10
-1928.509965398914
 20
-207.8328595809154
 30
0.0
 40
45.72
  1
ＤＷ＝394
  7
ＭＳ ゴシック
100
AcDbText
  0
LINE
  5
2CA
330
1F
100
AcDbEntity
  8
0-B_寸法
  6
Continuous
 62
   120
370
     5
100
AcDbLine
 10
-1992.509965398913
 20
-226.2928595809154
 30
0.0
 11
-1992.509965398916
 21
-326.2928595809211
 31
0.0
  0
LWPOLYLINE
  5
2CB
330
1F
100
AcDbEntity
  8
0-B_寸法
  6
Continuous
 62
     7
370
     9
100
AcDbPolyline
 90
        4
 70
     1
 43
4.0
 10
-1990.509965398913
 20
-226.2928595809154
 42
0.4142135623731
 10
-1992.509965398913
 20
-224.2928595809154
 42
0.4142135623731
 10
-1994.509965398913
 20
-226.2928595809154
 42
0.4142135623731
 10
-1992.509965398913
 20
-228.2928595809154
 42
0.4142135623731
  0
LINE
  5
2CC
330
1F
100
AcDbEntity
  8
0-B_寸法
  6
Continuous
 62
   120
370
     5
100
AcDbLine
 10
-1990.509965398915
 20
-226.2928595809154
 30
0.0
 11
-1992.509965398913
 21
-226.2928595809154
 31
0.0
  0
LINE
  5
2CD
330
1F
100
AcDbEntity
  8
0-B_寸法
  6
Continuous
 62
   120
370
     5
100
AcDbLine
 10
-1990.509965398915
 20
-226.2928595809154
 30
0.0
 11
-1990.509965398915
 21
-326.2928595809154
 31
0.0
  0
LWPOLYLINE
  5
2CE
330
1F
100
AcDbEntity
  8
0-B_寸法
  6
Continuous
 62
     7
370
     9
100
AcDbPolyline
 90
        4
 70
     1
 43
4.0
 10
-1988.509965398915
 20
-226.2928595809154
 42
0.4142135623731
 10
-1990.509965398915
 20
-224.2928595809154
 42
0.4142135623731
 10
-1992.509965398915
 20
-226.2928595809154
 42
0.4142135623731
 10
-1990.509965398915
 20
-228.2928595809154
 42
0.4142135623731
  0
LINE
  5
2CF
330
1F
100
AcDbEntity
  8
0-B_寸法
  6
Continuous
 62
   120
370
     5
100
AcDbLine
 10
-1596.509965398913
 20
-226.2928595809154
 30
0.0
 11
-1990.509965398915
 21
-226.2928595809154
 31
0.0
  0
LINE
  5
2D0
330
1F
100
AcDbEntity
  8
0-B_寸法
  6
Continuous
 62
   120
370
     5
100
AcDbLine
 10
-1596.509965398913
 20
-226.2928595809154
 30
0.0
 11
-1596.509965398913
 21
-326.2928595809154
 31
0.0
  0
LINE
  5
2D1
330
1F
100
AcDbEntity
  8
0-B_寸法
  6
Continuous
 62
   120
370
     5
100
AcDbLine
 10
-1594.509965398914
 20
-226.2928595809154
 30
0.0
 11
-1594.509965398914
 21
-326.2928595809154
 31
0.0
  0
LWPOLYLINE
  5
2D2
330
1F
100
AcDbEntity
  8
0-B_寸法
  6
Continuous
 62
     7
370
     9
100
AcDbPolyline
 90
        4
 70
     1
 43
4.0
 10
-1594.509965398913
 20
-226.2928595809154
 42
0.4142135623731
 10
-1596.509965398913
 20
-224.2928595809154
 42
0.4142135623731
 10
-1598.509965398912
 20
-226.2928595809154
 42
0.4142135623731
 10
-1596.509965398913
 20
-228.2928595809154
 42
0.4142135623731
  0
LWPOLYLINE
  5
2D3
330
1F
100
AcDbEntity
  8
0-B_寸法
  6
Continuous
 62
     7
370
     9
100
AcDbPolyline
 90
        4
 70
     1
 43
4.0
 10
-1592.509965398915
 20
-226.2928595809154
 42
0.4142135623731
 10
-1594.509965398914
 20
-224.2928595809154
 42
0.4142135623731
 10
-1596.509965398914
 20
-226.2928595809154
 42
0.4142135623731
 10
-1594.509965398914
 20
-228.2928595809154
 42
0.4142135623731
  0
LINE
  5
2D4
330
1F
100
AcDbEntity
  8
0-B_寸法
  6
Continuous
 62
   120
370
     5
100
AcDbLine
 10
-1594.509965398914
 20
-226.2928595809154
 30
0.0
 11
-1596.509965398913
 21
-226.2928595809154
 31
0.0
  0
LINE
  5
2D5
330
1F
100
AcDbEntity
  8
0-B_寸法
  6
Continuous
 62
   120
370
     5
100
AcDbLine
 10
-1992.509965398916
 20
-226.2928595809211
 30
0.0
 11
-1994.509965398914
 21
-226.2928595809211
 31
0.0
  0
LWPOLYLINE
  5
2D6
330
1F
100
AcDbEntity
  8
0-B_寸法
  6
Continuous
 62
     7
370
     9
100
AcDbPolyline
 90
        4
 70
     1
 43
4.0
 10
-1992.509965398915
 20
-226.2928595809211
 42
0.4142135623731
 10
-1994.509965398914
 20
-224.2928595809211
 42
0.4142135623731
 10
-1996.509965398914
 20
-226.2928595809211
 42
0.4142135623731
 10
-1994.509965398914
 20
-228.2928595809211
 42
0.4142135623731
  0
LINE
  5
2D7
330
1F
100
AcDbEntity
  8
0-B_寸法
  6
Continuous
 62
   120
370
     5
100
AcDbLine
 10
-1994.509965398914
 20
-226.2928595809211
 30
0.0
 11
-1994.509965398914
 21
-326.2928595809211
 31
0.0
  0
LINE
  5
2D8
330
1F
100
AcDbEntity
  8
0-B_寸法
  6
Continuous
 62
   120
370
     5
100
AcDbLine
 10
-1994.509965398914
 20
-226.2928595809211
 30
0.0
 11
-2388.509965398914
 21
-226.2928595809211
 31
0.0
  0
LWPOLYLINE
  5
2D9
330
1F
100
AcDbEntity
  8
0-B_寸法
  6
Continuous
 62
     7
370
     9
100
AcDbPolyline
 90
        4
 70
     1
 43
4.0
 10
-2386.509965398914
 20
-226.2928595809211
 42
0.4142135623731
 10
-2388.509965398914
 20
-224.2928595809211
 42
0.4142135623731
 10
-2390.509965398914
 20
-226.2928595809211
 42
0.4142135623731
 10
-2388.509965398914
 20
-228.2928595809211
 42
0.4142135623731
  0
LINE
  5
2DA
330
1F
100
AcDbEntity
  8
0-B_寸法
  6
Continuous
 62
   120
370
     5
100
AcDbLine
 10
-2388.509965398914
 20
-226.2928595809211
 30
0.0
 11
-2388.509965398914
 21
-326.2928595809211
 31
0.0
  0
LINE
  5
2DB
330
1F
100
AcDbEntity
  8
0-B_寸法
  6
Continuous
 62
   120
370
     5
100
AcDbLine
 10
-2388.509965398914
 20
-226.2928595809211
 30
0.0
 11
-2392.509965398916
 21
-226.2928595809211
 31
0.0
  0
LWPOLYLINE
  5
2DC
330
1F
100
AcDbEntity
  8
0-B_寸法
  6
Continuous
 62
     7
370
     9
100
AcDbPolyline
 90
        4
 70
     1
 43
4.0
 10
-2390.509965398916
 20
-226.2928595809211
 42
0.4142135623731
 10
-2392.509965398916
 20
-224.2928595809211
 42
0.4142135623731
 10
-2394.509965398916
 20
-226.2928595809211
 42
0.4142135623731
 10
-2392.509965398916
 20
-228.2928595809211
 42
0.4142135623731
  0
LINE
  5
2DD
330
1F
100
AcDbEntity
  8
0-B_寸法
  6
Continuous
 62
   120
370
     5
100
AcDbLine
 10
-2392.509965398916
 20
-226.2928595809211
 30
0.0
 11
-2392.509965398916
 21
-326.2928595809211
 31
0.0
  0
LINE
  5
2DE
330
1F
100
AcDbEntity
  8
0-B_寸法
  6
Continuous
 62
   120
370
     5
100
AcDbLine
 10
-2392.509965398916
 20
-226.2928595809211
 30
0.0
 11
-2786.509965398916
 21
-226.2928595809211
 31
0.0
  0
LWPOLYLINE
  5
2DF
330
1F
100
AcDbEntity
  8
0-B_寸法
  6
Continuous
 62
     7
370
     9
100
AcDbPolyline
 90
        4
 70
     1
 43
4.0
 10
-2784.509965398916
 20
-226.2928595809211
 42
0.4142135623731
 10
-2786.509965398916
 20
-224.2928595809211
 42
0.4142135623731
 10
-2788.509965398916
 20
-226.2928595809211
 42
0.4142135623731
 10
-2786.509965398916
 20
-228.2928595809211
 42
0.4142135623731
  0
LINE
  5
2E0
330
1F
100
AcDbEntity
  8
0-B_寸法
  6
Continuous
 62
   120
370
     5
100
AcDbLine
 10
-2786.509965398916
 20
-226.2928595809211
 30
0.0
 11
-2786.509965398916
 21
-326.2928595809211
 31
0.0
  0
LINE
  5
2E1
330
1F
100
AcDbEntity
  8
0-B_寸法
  6
Continuous
 62
   120
370
     5
100
AcDbLine
 10
-2786.509965398916
 20
-226.2928595809211
 30
0.0
 11
-2788.509965398914
 21
-226.2928595809211
 31
0.0
  0
LWPOLYLINE
  5
2E2
330
1F
100
AcDbEntity
  8
0-B_寸法
  6
Continuous
 62
     7
370
     9
100
AcDbPolyline
 90
        4
 70
     1
 43
4.0
 10
-2786.509965398914
 20
-226.2928595809211
 42
0.4142135623731
 10
-2788.509965398914
 20
-224.2928595809211
 42
0.4142135623731
 10
-2790.509965398914
 20
-226.2928595809211
 42
0.4142135623731
 10
-2788.509965398914
 20
-228.2928595809211
 42
0.4142135623731
  0
LINE
  5
2E3
330
1F
100
AcDbEntity
  8
0-B_寸法
  6
Continuous
 62
   120
370
     5
100
AcDbLine
 10
-2788.509965398914
 20
-226.2928595809211
 30
0.0
 11
-2788.509965398914
 21
-326.2928595809211
 31
0.0
  0
TEXT
  5
2E4
330
1F
100
AcDbEntity
  8
0-B_寸法
  6
Continuous
 62
     7
370
   211
100
AcDbText
 10
-1610.509965398915
 20
-207.8328595809154
 30
0.0
 40
45.72
  1
2
  7
ＭＳ ゴシック
100
AcDbText
  0
TEXT
  5
2E5
330
1F
100
AcDbEntity
  8
0-B_寸法
  6
Continuous
 62
     7
370
   211
100
AcDbText
 10
-354.1667158739816
 20
-1364.832846605044
 30
0.0
 40
45.72
  1
15
  7
ＭＳ ゴシック
100
AcDbText
  0
TEXT
  5
2E6
330
1F
100
AcDbEntity
  8
0-B_寸法
  6
Continuous
 62
     7
370
   211
100
AcDbText
 10
58.49003460107611
 20
-1364.832846605044
 30
0.0
 40
45.72
  1
766
  7
ＭＳ ゴシック
100
AcDbText
  0
TEXT
  5
2E7
330
1F
100
AcDbEntity
  8
0-B_寸法
  6
Continuous
 62
     7
370
   211
100
AcDbText
 10
421.4900346010779
 20
-1364.832846605044
 30
0.0
 40
45.72
  1
15
  7
ＭＳ ゴシック
100
AcDbText
  0
TEXT
  5
2E8
330
1F
100
AcDbEntity
  8
0-B_寸法
  6
Continuous
 62
     7
370
   211
100
AcDbText
 10
521.4900346010779
 20
-1364.832846605044
 30
0.0
 40
45.72
  1
15
  7
ＭＳ ゴシック
100
AcDbText
  0
TEXT
  5
2E9
330
1F
100
AcDbEntity
  8
0-B_寸法
  6
Continuous
 62
     7
370
   211
100
AcDbText
 10
655.4900346010788
 20
-1364.832846605044
 30
0.0
 40
45.72
  1
368
  7
ＭＳ ゴシック
100
AcDbText
  0
TEXT
  5
2EA
330
1F
100
AcDbEntity
  8
0-B_寸法
  6
Continuous
 62
     7
370
   211
100
AcDbText
 10
911.2390905258985
 20
-1364.832846605044
 30
0.0
 40
45.72
  1
15
  7
ＭＳ ゴシック
100
AcDbText
  0
TEXT
  5
2EB
330
1F
100
AcDbEntity
  8
0-B_寸法
  6
Continuous
 62
     7
370
   211
100
AcDbText
 10
58.49003460107611
 20
-1464.832846605044
 30
0.0
 40
45.72
  1
796
  7
ＭＳ ゴシック
100
AcDbText
  0
TEXT
  5
2EC
330
1F
100
AcDbEntity
  8
0-B_寸法
  6
Continuous
 62
     7
370
   211
100
AcDbText
 10
655.4900346010788
 20
-1464.832846605044
 30
0.0
 40
45.72
  1
398
  7
ＭＳ ゴシック
100
AcDbText
  0
LINE
  5
2ED
330
1F
100
AcDbEntity
  8
0-B_寸法
  6
Continuous
 62
   120
370
     5
100
AcDbLine
 10
501.4900346010779
 20
-1383.292846605044
 30
0.0
 11
-294.5099653989251
 21
-1383.292846605044
 31
0.0
  0
LWPOLYLINE
  5
2EE
330
1F
100
AcDbEntity
  8
0-B_寸法
  6
Continuous
 62
     7
370
     9
100
AcDbPolyline
 90
        4
 70
     1
 43
4.0
 10
488.4900346010779
 20
-1383.292846605044
 42
0.4142135623731
 10
486.4900346010779
 20
-1381.292846605045
 42
0.4142135623731
 10
484.4900346010779
 20
-1383.292846605044
 42
0.4142135623731
 10
486.4900346010779
 20
-1385.292846605044
 42
0.4142135623731
  0
LINE
  5
2EF
330
1F
100
AcDbEntity
  8
0-B_寸法
  6
Continuous
 62
   120
370
     5
100
AcDbLine
 10
486.4900346010779
 20
-1383.292846605044
 30
0.0
 11
486.4900346010779
 21
-1283.292846605044
 31
0.0
  0
LWPOLYLINE
  5
2F0
330
1F
100
AcDbEntity
  8
0-B_寸法
  6
Continuous
 62
     7
370
     9
100
AcDbPolyline
 90
        4
 70
     1
 43
4.0
 10
-277.5099653989251
 20
-1383.292846605044
 42
0.4142135623731
 10
-279.5099653989251
 20
-1381.292846605045
 42
0.4142135623731
 10
-281.5099653989251
 20
-1383.292846605044
 42
0.4142135623731
 10
-279.5099653989251
 20
-1385.292846605044
 42
0.4142135623731
  0
LINE
  5
2F1
330
1F
100
AcDbEntity
  8
0-B_寸法
  6
Continuous
 62
   120
370
     5
100
AcDbLine
 10
-279.5099653989251
 20
-1383.292846605044
 30
0.0
 11
-279.5099653989251
 21
-1283.292846605044
 31
0.0
  0
LWPOLYLINE
  5
2F2
330
1F
100
AcDbEntity
  8
0-B_寸法
  6
Continuous
 62
     7
370
     9
100
AcDbPolyline
 90
        4
 70
     1
 43
4.0
 10
-292.5099653989251
 20
-1383.292846605044
 42
0.4142135623731
 10
-294.5099653989251
 20
-1381.292846605045
 42
0.4142135623731
 10
-296.5099653989251
 20
-1383.292846605044
 42
0.4142135623731
 10
-294.5099653989251
 20
-1385.292846605044
 42
0.4142135623731
  0
LINE
  5
2F3
330
1F
100
AcDbEntity
  8
0-B_寸法
  6
Continuous
 62
   120
370
     5
100
AcDbLine
 10
-294.5099653989251
 20
-1483.292846605044
 30
0.0
 11
-294.5099653989251
 21
-1283.292846605044
 31
0.0
  0
LINE
  5
2F4
330
1F
100
AcDbEntity
  8
0-B_寸法
  6
Continuous
 62
   120
370
     5
100
AcDbLine
 10
501.4900346010779
 20
-1483.292846605044
 30
0.0
 11
-294.5099653989251
 21
-1483.292846605044
 31
0.0
  0
LWPOLYLINE
  5
2F5
330
1F
100
AcDbEntity
  8
0-B_寸法
  6
Continuous
 62
     7
370
     9
100
AcDbPolyline
 90
        4
 70
     1
 43
4.0
 10
-292.5099653989251
 20
-1483.292846605044
 42
0.4142135623731
 10
-294.5099653989251
 20
-1481.292846605045
 42
0.4142135623731
 10
-296.5099653989251
 20
-1483.292846605044
 42
0.4142135623731
 10
-294.5099653989251
 20
-1485.292846605044
 42
0.4142135623731
  0
LINE
  5
2F6
330
1F
100
AcDbEntity
  8
0-B_寸法
  6
Continuous
 62
   120
370
     5
100
AcDbLine
 10
899.4900346010786
 20
-1383.292846605044
 30
0.0
 11
884.4900346010786
 21
-1383.292846605044
 31
0.0
  0
LWPOLYLINE
  5
2F7
330
1F
100
AcDbEntity
  8
0-B_寸法
  6
Continuous
 62
     7
370
     9
100
AcDbPolyline
 90
        4
 70
     1
 43
4.0
 10
901.4900346010786
 20
-1383.292846605044
 42
0.4142135623731
 10
899.4900346010786
 20
-1381.292846605045
 42
0.4142135623731
 10
897.4900346010786
 20
-1383.292846605044
 42
0.4142135623731
 10
899.4900346010786
 20
-1385.292846605044
 42
0.4142135623731
  0
LWPOLYLINE
  5
2F8
330
1F
100
AcDbEntity
  8
0-B_寸法
  6
Continuous
 62
     7
370
     9
100
AcDbPolyline
 90
        4
 70
     1
 43
4.0
 10
886.4900346010786
 20
-1383.292846605044
 42
0.4142135623731
 10
884.4900346010786
 20
-1381.292846605045
 42
0.4142135623731
 10
882.4900346010786
 20
-1383.292846605044
 42
0.4142135623731
 10
884.4900346010786
 20
-1385.292846605044
 42
0.4142135623731
  0
LINE
  5
2F9
330
1F
100
AcDbEntity
  8
0-B_寸法
  6
Continuous
 62
   120
370
     5
100
AcDbLine
 10
884.4900346010786
 20
-1383.292846605044
 30
0.0
 11
884.4900346010786
 21
-1283.292846605044
 31
0.0
  0
LINE
  5
2FA
330
1F
100
AcDbEntity
  8
0-B_寸法
  6
Continuous
 62
   120
370
     5
100
AcDbLine
 10
884.4900346010786
 20
-1383.292846605044
 30
0.0
 11
516.4900346010779
 21
-1383.292846605044
 31
0.0
  0
LWPOLYLINE
  5
2FB
330
1F
100
AcDbEntity
  8
0-B_寸法
  6
Continuous
 62
     7
370
     9
100
AcDbPolyline
 90
        4
 70
     1
 43
4.0
 10
518.4900346010779
 20
-1383.292846605044
 42
0.4142135623731
 10
516.4900346010779
 20
-1381.292846605045
 42
0.4142135623731
 10
514.4900346010779
 20
-1383.292846605044
 42
0.4142135623731
 10
516.4900346010779
 20
-1385.292846605044
 42
0.4142135623731
  0
LINE
  5
2FC
330
1F
100
AcDbEntity
  8
0-B_寸法
  6
Continuous
 62
   120
370
     5
100
AcDbLine
 10
516.4900346010779
 20
-1383.292846605044
 30
0.0
 11
516.4900346010779
 21
-1283.292846605044
 31
0.0
  0
LINE
  5
2FD
330
1F
100
AcDbEntity
  8
0-B_寸法
  6
Continuous
 62
   120
370
     5
100
AcDbLine
 10
516.4900346010779
 20
-1383.292846605044
 30
0.0
 11
501.4900346010779
 21
-1383.292846605044
 31
0.0
  0
LWPOLYLINE
  5
2FE
330
1F
100
AcDbEntity
  8
0-B_寸法
  6
Continuous
 62
     7
370
     9
100
AcDbPolyline
 90
        4
 70
     1
 43
4.0
 10
503.4900346010779
 20
-1383.292846605044
 42
0.4142135623731
 10
501.4900346010779
 20
-1381.292846605045
 42
0.4142135623731
 10
499.4900346010779
 20
-1383.292846605044
 42
0.4142135623731
 10
501.4900346010779
 20
-1385.292846605044
 42
0.4142135623731
  0
LINE
  5
2FF
330
1F
100
AcDbEntity
  8
0-B_寸法
  6
Continuous
 62
   120
370
     5
100
AcDbLine
 10
501.4900346010779
 20
-1483.292846605044
 30
0.0
 11
501.4900346010779
 21
-1283.292846605044
 31
0.0
  0
LINE
  5
300
330
1F
100
AcDbEntity
  8
0-B_寸法
  6
Continuous
 62
   120
370
     5
100
AcDbLine
 10
899.4900346010786
 20
-1483.292846605044
 30
0.0
 11
501.4900346010779
 21
-1483.292846605044
 31
0.0
  0
LWPOLYLINE
  5
301
330
1F
100
AcDbEntity
  8
0-B_寸法
  6
Continuous
 62
     7
370
     9
100
AcDbPolyline
 90
        4
 70
     1
 43
4.0
 10
901.4900346010786
 20
-1483.292846605044
 42
0.4142135623731
 10
899.4900346010786
 20
-1481.292846605045
 42
0.4142135623731
 10
897.4900346010786
 20
-1483.292846605044
 42
0.4142135623731
 10
899.4900346010786
 20
-1485.292846605044
 42
0.4142135623731
  0
LWPOLYLINE
  5
302
330
1F
100
AcDbEntity
  8
0-B_寸法
  6
Continuous
 62
     7
370
     9
100
AcDbPolyline
 90
        4
 70
     1
 43
4.0
 10
503.4900346010779
 20
-1483.292846605044
 42
0.4142135623731
 10
501.4900346010779
 20
-1481.292846605045
 42
0.4142135623731
 10
499.4900346010779
 20
-1483.292846605044
 42
0.4142135623731
 10
501.4900346010779
 20
-1485.292846605044
 42
0.4142135623731
  0
LINE
  5
303
330
1F
100
AcDbEntity
  8
0-B_寸法
  6
Continuous
 62
   120
370
     5
100
AcDbLine
 10
899.4900346010786
 20
-1483.292846605044
 30
0.0
 11
899.4900346010786
 21
-1283.292846605044
 31
0.0
  0
LINE
  5
304
330
1F
100
AcDbEntity
  8
0-B_寸法
  6
Continuous
 62
   120
370
     5
100
AcDbLine
 10
-3038.509965398917
 20
-1233.292859580916
 30
0.0
 11
-3038.509965398917
 21
-378.2928595809159
 31
0.0
  0
LWPOLYLINE
  5
305
330
1F
100
AcDbEntity
  8
0-B_寸法
  6
Continuous
 62
     7
370
     9
100
AcDbPolyline
 90
        4
 70
     1
 43
4.0
 10
-3036.509965398917
 20
-1233.292859580916
 42
0.4142135623731
 10
-3038.509965398917
 20
-1231.292859580916
 42
0.4142135623731
 10
-3040.509965398917
 20
-1233.292859580916
 42
0.4142135623731
 10
-3038.509965398917
 20
-1235.292859580916
 42
0.4142135623731
  0
LWPOLYLINE
  5
306
330
1F
100
AcDbEntity
  8
0-B_寸法
  6
Continuous
 62
     7
370
     9
100
AcDbPolyline
 90
        4
 70
     1
 43
4.0
 10
-3036.509965398917
 20
-378.2928595809159
 42
0.4142135623731
 10
-3038.509965398917
 20
-376.2928595809159
 42
0.4142135623731
 10
-3040.509965398917
 20
-378.2928595809159
 42
0.4142135623731
 10
-3038.509965398917
 20
-380.2928595809159
 42
0.4142135623731
  0
LINE
  5
307
330
1F
100
AcDbEntity
  8
0-B_寸法
  6
Continuous
 62
   120
370
     5
100
AcDbLine
 10
-3038.509965398917
 20
-378.2928595809159
 30
0.0
 11
-2838.509965398915
 21
-378.2928595809159
 31
0.0
  0
TEXT
  5
308
330
1F
100
AcDbEntity
  8
0-B_寸法
  6
Continuous
 62
     7
370
   211
100
AcDbText
 10
-3056.969965398917
 20
-850.7928595809159
 30
0.0
 40
45.72
  1
855
 50
90.0
  7
ＭＳ ゴシック
100
AcDbText
  0
LINE
  5
309
330
1F
100
AcDbEntity
  8
0-B_寸法
  6
Continuous
 62
   120
370
     5
100
AcDbLine
 10
-1594.509965305837
 20
-1483.29287937611
 30
0.0
 11
-1992.509965398913
 21
-1483.29287937611
 31
0.0
  0
LWPOLYLINE
  5
30A
330
1F
100
AcDbEntity
  8
0-B_寸法
  6
Continuous
 62
     7
370
     9
100
AcDbPolyline
 90
        4
 70
     1
 43
4.0
 10
-1592.509965305837
 20
-1483.29287937611
 42
0.4142135623731
 10
-1594.509965305837
 20
-1481.29287937611
 42
0.4142135623731
 10
-1596.509965305837
 20
-1483.29287937611
 42
0.4142135623731
 10
-1594.509965305837
 20
-1485.29287937611
 42
0.4142135623731
  0
LWPOLYLINE
  5
30B
330
1F
100
AcDbEntity
  8
0-B_寸法
  6
Continuous
 62
     7
370
     9
100
AcDbPolyline
 90
        4
 70
     1
 43
4.0
 10
-1990.509965398913
 20
-1483.29287937611
 42
0.4142135623731
 10
-1992.509965398913
 20
-1481.29287937611
 42
0.4142135623731
 10
-1994.509965398913
 20
-1483.29287937611
 42
0.4142135623731
 10
-1992.509965398913
 20
-1485.29287937611
 42
0.4142135623731
  0
LINE
  5
30C
330
1F
100
AcDbEntity
  8
0-B_寸法
  6
Continuous
 62
   120
370
     5
100
AcDbLine
 10
-1992.509965398914
 20
-1483.29287937611
 30
0.0
 11
-2788.509965398913
 21
-1483.29287937611
 31
0.0
  0
LWPOLYLINE
  5
30D
330
1F
100
AcDbEntity
  8
0-B_寸法
  6
Continuous
 62
     7
370
     9
100
AcDbPolyline
 90
        4
 70
     1
 43
4.0
 10
-2786.509965398913
 20
-1483.29287937611
 42
0.4142135623731
 10
-2788.509965398913
 20
-1481.29287937611
 42
0.4142135623731
 10
-2790.509965398913
 20
-1483.29287937611
 42
0.4142135623731
 10
-2788.509965398913
 20
-1485.29287937611
 42
0.4142135623731
  0
LINE
  5
30E
330
1F
100
AcDbEntity
  8
0-B_寸法
  6
Continuous
 62
   120
370
     5
100
AcDbLine
 10
-1594.509965305837
 20
-1483.29287937611
 30
0.0
 11
-1594.509965305837
 21
-1383.29287937611
 31
0.0
  0
LINE
  5
30F
330
1F
100
AcDbEntity
  8
0-B_寸法
  6
Continuous
 62
   120
370
     5
100
AcDbLine
 10
-2788.509965398913
 20
-1483.29287937611
 30
0.0
 11
-2788.509965398913
 21
-1383.29287937611
 31
0.0
  0
LINE
  5
310
330
1F
100
AcDbEntity
  8
0-B_寸法
  6
Continuous
 62
   120
370
     5
100
AcDbLine
 10
-1992.509965398913
 20
-1483.29287937611
 30
0.0
 11
-1992.509965398913
 21
-1383.29287937611
 31
0.0
  0
TEXT
  5
311
330
1F
100
AcDbEntity
  8
0-B_寸法
  6
Continuous
 62
     7
370
   211
100
AcDbText
 10
-1590.509965398913
 20
-1364.832859580916
 30
0.0
 40
45.72
  1
2
  7
ＭＳ ゴシック
100
AcDbText
  0
TEXT
  5
312
330
1F
100
AcDbEntity
  8
0-B_寸法
  6
Continuous
 62
     7
370
   211
100
AcDbText
 10
-1929.509965398913
 20
-1364.832859580916
 30
0.0
 40
45.72
  1
台輪＝396
  7
ＭＳ ゴシック
100
AcDbText
  0
LINE
  5
313
330
1F
100
AcDbEntity
  8
0-9__
  6
Continuous
 62
     7
370
     9
100
AcDbLine
 10
-1611.509965398913
 20
-1233.29287937611
 30
0.0
 11
-1611.509965398913
 21
-1169.29287937611
 31
0.0
  0
LINE
  5
314
330
1F
100
AcDbEntity
  8
0-9__
  6
Continuous
 62
     7
370
     9
100
AcDbLine
 10
-1596.509965398913
 20
-1233.29287937611
 30
0.0
 11
-1596.509965398913
 21
-1169.29287937611
 31
0.0
  0
LINE
  5
315
330
1F
100
AcDbEntity
  8
0-9__
  6
Continuous
 62
     7
370
     9
100
AcDbLine
 10
-1992.509965398914
 20
-1233.29287937611
 30
0.0
 11
-1596.509965398913
 21
-1233.29287937611
 31
0.0
  0
LINE
  5
316
330
1F
100
AcDbEntity
  8
0-9__
  6
Continuous
 62
     7
370
     9
100
AcDbLine
 10
-1596.509965398913
 20
-1169.29287937611
 30
0.0
 11
-1992.509965398914
 21
-1169.29287937611
 31
0.0
  0
LINE
  5
317
330
1F
100
AcDbEntity
  8
0-9__
  6
Continuous
 62
     7
370
     9
100
AcDbLine
 10
-1977.509965398914
 20
-1169.29287937611
 30
0.0
 11
-1977.509965398914
 21
-1233.29287937611
 31
0.0
  0
LINE
  5
318
330
1F
100
AcDbEntity
  8
0-9__
  6
Continuous
 62
     7
370
     9
100
AcDbLine
 10
-2007.509965398914
 20
-1233.29287937611
 30
0.0
 11
-2007.509965398914
 21
-1169.29287937611
 31
0.0
  0
LINE
  5
319
330
1F
100
AcDbEntity
  8
0-9__
  6
Continuous
 62
     7
370
     9
100
AcDbLine
 10
-1992.509965398914
 20
-1233.29287937611
 30
0.0
 11
-1992.509965398914
 21
-1169.29287937611
 31
0.0
  0
LINE
  5
31A
330
1F
100
AcDbEntity
  8
0-9__
  6
Continuous
 62
     7
370
     9
100
AcDbLine
 10
-2786.509965398913
 20
-1233.29287937611
 30
0.0
 11
-1992.509965398914
 21
-1233.29287937611
 31
0.0
  0
LINE
  5
31B
330
1F
100
AcDbEntity
  8
0-9__
  6
Continuous
 62
     7
370
     9
100
AcDbLine
 10
-1992.509965398914
 20
-1169.29287937611
 30
0.0
 11
-2786.509965398913
 21
-1169.29287937611
 31
0.0
  0
LINE
  5
31C
330
1F
100
AcDbEntity
  8
0-9__
  6
Continuous
 62
     7
370
     9
100
AcDbLine
 10
-2771.509965398913
 20
-1169.29287937611
 30
0.0
 11
-2771.509965398913
 21
-1233.29287937611
 31
0.0
  0
LINE
  5
31D
330
1F
100
AcDbEntity
  8
0-9__
  6
Continuous
 62
     7
370
     9
100
AcDbLine
 10
-2786.509965398913
 20
-1169.29287937611
 30
0.0
 11
-2786.509965398913
 21
-1233.29287937611
 31
0.0
  0
LINE
  5
31E
330
1F
100
AcDbEntity
  8
0-B_寸法
  6
Continuous
 62
   120
370
     5
100
AcDbLine
 10
-1594.509965398914
 20
-1383.292859580916
 30
0.0
 11
-1596.509965398913
 21
-1383.292859580916
 31
0.0
  0
LWPOLYLINE
  5
31F
330
1F
100
AcDbEntity
  8
0-B_寸法
  6
Continuous
 62
     7
370
     9
100
AcDbPolyline
 90
        4
 70
     1
 43
4.0
 10
-1592.509965398915
 20
-1383.292859580916
 42
0.4142135623731
 10
-1594.509965398914
 20
-1381.292859580916
 42
0.4142135623731
 10
-1596.509965398914
 20
-1383.292859580916
 42
0.4142135623731
 10
-1594.509965398914
 20
-1385.292859580916
 42
0.4142135623731
  0
LWPOLYLINE
  5
320
330
1F
100
AcDbEntity
  8
0-B_寸法
  6
Continuous
 62
     7
370
     9
100
AcDbPolyline
 90
        4
 70
     1
 43
4.0
 10
-1594.509965398913
 20
-1383.292859580916
 42
0.4142135623731
 10
-1596.509965398913
 20
-1381.292859580916
 42
0.4142135623731
 10
-1598.509965398913
 20
-1383.292859580916
 42
0.4142135623731
 10
-1596.509965398913
 20
-1385.292859580916
 42
0.4142135623731
  0
LINE
  5
321
330
1F
100
AcDbEntity
  8
0-B_寸法
  6
Continuous
 62
   120
370
     5
100
AcDbLine
 10
-1594.509965398914
 20
-1383.292859580916
 30
0.0
 11
-1594.509965398914
 21
-1283.292859580916
 31
0.0
  0
LINE
  5
322
330
1F
100
AcDbEntity
  8
0-B_寸法
  6
Continuous
 62
   120
370
     5
100
AcDbLine
 10
-1596.509965398913
 20
-1383.292859580916
 30
0.0
 11
-1596.509965398913
 21
-1283.292859580916
 31
0.0
  0
LINE
  5
323
330
1F
100
AcDbEntity
  8
0-B_寸法
  6
Continuous
 62
   120
370
     5
100
AcDbLine
 10
-1596.509965398913
 20
-1383.292859580916
 30
0.0
 11
-1992.509965398914
 21
-1383.292859580916
 31
0.0
  0
LWPOLYLINE
  5
324
330
1F
100
AcDbEntity
  8
0-B_寸法
  6
Continuous
 62
     7
370
     9
100
AcDbPolyline
 90
        4
 70
     1
 43
4.0
 10
-1990.509965398914
 20
-1383.292859580916
 42
0.4142135623731
 10
-1992.509965398914
 20
-1381.292859580916
 42
0.4142135623731
 10
-1994.509965398913
 20
-1383.292859580916
 42
0.4142135623731
 10
-1992.509965398914
 20
-1385.292859580916
 42
0.4142135623731
  0
LINE
  5
325
330
1F
100
AcDbEntity
  8
0-B_寸法
  6
Continuous
 62
   120
370
     5
100
AcDbLine
 10
-1992.509965398914
 20
-1383.292859580916
 30
0.0
 11
-1992.509965398914
 21
-1283.292859580916
 31
0.0
  0
LINE
  5
326
330
1F
100
AcDbEntity
  8
0-B_寸法
  6
Continuous
 62
   120
370
     5
100
AcDbLine
 10
-1992.509965398914
 20
-1383.292859580916
 30
0.0
 11
-2786.509965398913
 21
-1383.292859580916
 31
0.0
  0
LWPOLYLINE
  5
327
330
1F
100
AcDbEntity
  8
0-B_寸法
  6
Continuous
 62
     7
370
     9
100
AcDbPolyline
 90
        4
 70
     1
 43
4.0
 10
-2784.509965398913
 20
-1383.292859580916
 42
0.4142135623731
 10
-2786.509965398913
 20
-1381.292859580916
 42
0.4142135623731
 10
-2788.509965398913
 20
-1383.292859580916
 42
0.4142135623731
 10
-2786.509965398913
 20
-1385.292859580916
 42
0.4142135623731
  0
LINE
  5
328
330
1F
100
AcDbEntity
  8
0-B_寸法
  6
Continuous
 62
   120
370
     5
100
AcDbLine
 10
-2786.509965398913
 20
-1383.292859580916
 30
0.0
 11
-2786.509965398913
 21
-1283.292859580916
 31
0.0
  0
LINE
  5
329
330
1F
100
AcDbEntity
  8
0-B_寸法
  6
Continuous
 62
   120
370
     5
100
AcDbLine
 10
-2786.509965398913
 20
-1383.292859580916
 30
0.0
 11
-2788.509965398912
 21
-1383.292859580916
 31
0.0
  0
LWPOLYLINE
  5
32A
330
1F
100
AcDbEntity
  8
0-B_寸法
  6
Continuous
 62
     7
370
     9
100
AcDbPolyline
 90
        4
 70
     1
 43
4.0
 10
-2786.509965398913
 20
-1383.292859580916
 42
0.4142135623731
 10
-2788.509965398912
 20
-1381.292859580916
 42
0.4142135623731
 10
-2790.509965398912
 20
-1383.292859580916
 42
0.4142135623731
 10
-2788.509965398912
 20
-1385.292859580916
 42
0.4142135623731
  0
LINE
  5
32B
330
1F
100
AcDbEntity
  8
0-B_寸法
  6
Continuous
 62
   120
370
     5
100
AcDbLine
 10
-2788.509965398912
 20
-1383.292859580916
 30
0.0
 11
-2788.509965398912
 21
-1283.292859580916
 31
0.0
  0
TEXT
  5
32C
330
1F
100
AcDbEntity
  8
0-B_寸法
  6
Continuous
 62
     7
370
   211
100
AcDbText
 10
-2524.509965398913
 20
-1364.832859580916
 30
0.0
 40
45.72
  1
台輪＝794
  7
ＭＳ ゴシック
100
AcDbText
  0
TEXT
  5
32D
330
1F
100
AcDbEntity
  8
0-B_寸法
  6
Continuous
 62
     7
370
   211
100
AcDbText
 10
-2822.509965398913
 20
-1364.832859580916
 30
0.0
 40
45.72
  1
2
  7
ＭＳ ゴシック
100
AcDbText
  0
TEXT
  5
32E
330
1F
100
AcDbEntity
  8
0-B_寸法
  6
Continuous
 62
     7
370
   211
100
AcDbText
 10
-1838.509965352374
 20
-1464.83287937611
 30
0.0
 40
45.72
  1
398
  7
ＭＳ ゴシック
100
AcDbText
  0
TEXT
  5
32F
330
1F
100
AcDbEntity
  8
0-B_寸法
  6
Continuous
 62
     7
370
   211
100
AcDbText
 10
-2435.509965398915
 20
-1464.83287937611
 30
0.0
 40
45.72
  1
796
  7
ＭＳ ゴシック
100
AcDbText
  0
LINE
  5
330
330
1F
100
AcDbEntity
  8
0-9__
  6
Continuous
 62
     7
370
     9
100
AcDbLine
 10
882.4900346010867
 20
-1233.29287937611
 30
0.0
 11
882.4900346010867
 21
-1169.29287937611
 31
0.0
  0
LINE
  5
331
330
1F
100
AcDbEntity
  8
0-9__
  6
Continuous
 62
     7
370
     9
100
AcDbLine
 10
897.4900346010867
 20
-1233.29287937611
 30
0.0
 11
897.4900346010867
 21
-1169.29287937611
 31
0.0
  0
LINE
  5
332
330
1F
100
AcDbEntity
  8
0-9__
  6
Continuous
 62
     7
370
     9
100
AcDbLine
 10
501.4900346010864
 20
-1233.29287937611
 30
0.0
 11
897.4900346010867
 21
-1233.29287937611
 31
0.0
  0
LINE
  5
333
330
1F
100
AcDbEntity
  8
0-9__
  6
Continuous
 62
     7
370
     9
100
AcDbLine
 10
897.4900346010867
 20
-1169.29287937611
 30
0.0
 11
501.4900346010864
 21
-1169.29287937611
 31
0.0
  0
LINE
  5
334
330
1F
100
AcDbEntity
  8
0-9__
  6
Continuous
 62
     7
370
     9
100
AcDbLine
 10
516.4900346010864
 20
-1169.29287937611
 30
0.0
 11
516.4900346010864
 21
-1233.29287937611
 31
0.0
  0
LINE
  5
335
330
1F
100
AcDbEntity
  8
0-9__
  6
Continuous
 62
     7
370
     9
100
AcDbLine
 10
486.4900346010864
 20
-1233.29287937611
 30
0.0
 11
486.4900346010864
 21
-1169.29287937611
 31
0.0
  0
LINE
  5
336
330
1F
100
AcDbEntity
  8
0-9__
  6
Continuous
 62
     7
370
     9
100
AcDbLine
 10
501.4900346010864
 20
-1233.29287937611
 30
0.0
 11
501.4900346010864
 21
-1169.29287937611
 31
0.0
  0
LINE
  5
337
330
1F
100
AcDbEntity
  8
0-9__
  6
Continuous
 62
     7
370
     9
100
AcDbLine
 10
-292.5099653989133
 20
-1233.29287937611
 30
0.0
 11
501.4900346010864
 21
-1233.29287937611
 31
0.0
  0
LINE
  5
338
330
1F
100
AcDbEntity
  8
0-9__
  6
Continuous
 62
     7
370
     9
100
AcDbLine
 10
501.4900346010864
 20
-1169.29287937611
 30
0.0
 11
-292.5099653989133
 21
-1169.29287937611
 31
0.0
  0
LINE
  5
339
330
1F
100
AcDbEntity
  8
0-9__
  6
Continuous
 62
     7
370
     9
100
AcDbLine
 10
-277.5099653989133
 20
-1169.29287937611
 30
0.0
 11
-277.5099653989133
 21
-1233.29287937611
 31
0.0
  0
LINE
  5
33A
330
1F
100
AcDbEntity
  8
0-9__
  6
Continuous
 62
     7
370
     9
100
AcDbLine
 10
-292.5099653989133
 20
-1169.29287937611
 30
0.0
 11
-292.5099653989133
 21
-1233.29287937611
 31
0.0
  0
TEXT
  5
33B
330
1F
100
AcDbEntity
  8
0-A_文字
  6
Continuous
 62
     7
370
     9
100
AcDbText
 10
-214.6503059983044
 20
1623.175298877372
 30
0.0
 40
45.72
  1
Ａ 
 41
0.9999999999999999
  7
ＭＳ ゴシック
100
AcDbText
  0
TEXT
  5
33C
330
1F
100
AcDbEntity
  8
0-A_文字
  6
Continuous
 62
     7
370
     9
100
AcDbText
 10
-214.6503059983044
 20
1095.048675672138
 30
0.0
 40
45.72
  1
Ａ'
 41
0.9999999999999999
  7
ＭＳ ゴシック
100
AcDbText
  0
LINE
  5
33D
330
1F
100
AcDbEntity
  8
0-A_文字
  6
Continuous
 62
     7
370
     9
100
AcDbLine
 10
-21.78214853419803
 20
1638.715298877372
 30
0.0
 11
-21.78214853419803
 21
1116.588675672136
 31
0.0
  0
LINE
  5
33E
330
1F
100
AcDbEntity
  8
0-A_文字
  6
Continuous
 62
     7
370
     9
100
AcDbLine
 10
-124.6503059983044
 20
1116.588675672136
 30
0.0
 11
-21.78214853419803
 21
1144.151987274754
 31
0.0
  0
LINE
  5
33F
330
1F
100
AcDbEntity
  8
0-A_文字
  6
Continuous
 62
     7
370
     9
100
AcDbLine
 10
-21.78214853419803
 20
1116.588675672136
 30
0.0
 11
-124.6503059983044
 21
1116.588675672136
 31
0.0
  0
LINE
  5
340
330
1F
100
AcDbEntity
  8
0-A_文字
  6
Continuous
 62
     7
370
     9
100
AcDbLine
 10
-124.6503059983044
 20
1638.715298877372
 30
0.0
 11
-21.78214853419803
 21
1611.151987274756
 31
0.0
  0
LINE
  5
341
330
1F
100
AcDbEntity
  8
0-A_文字
  6
Continuous
 62
     7
370
     9
100
AcDbLine
 10
-21.78214853419803
 20
1638.715298877372
 30
0.0
 11
-124.6503059983044
 21
1638.715298877372
 31
0.0
  0
LINE
  5
342
330
1F
100
AcDbEntity
  8
0-1_本体
  6
Continuous
 62
    40
370
    15
100
AcDbLine
 10
-294.5099653989178
 20
1561.151987274756
 30
0.0
 11
-286.5099653989176
 21
1561.151987274756
 31
0.0
  0
LINE
  5
343
330
1F
100
AcDbEntity
  8
0-1_本体
  6
Continuous
 62
    40
370
    15
100
AcDbLine
 10
-286.5099653989176
 20
1561.151987274756
 30
0.0
 11
-286.5099653989176
 21
1558.151987274754
 31
0.0
  0
LINE
  5
344
330
1F
100
AcDbEntity
  8
0-1_本体
  6
Continuous
 62
    40
370
    15
100
AcDbLine
 10
-286.5099653989176
 20
1558.151987274754
 30
0.0
 11
97.99003460108196
 21
1558.151987274754
 31
0.0
  0
LINE
  5
345
330
1F
100
AcDbEntity
  8
0-1_本体
  6
Continuous
 62
    40
370
    15
100
AcDbLine
 10
-286.5099653989176
 20
1559.651987274755
 30
0.0
 11
97.99003460108196
 21
1559.651987274755
 31
0.0
  0
LINE
  5
346
330
1F
100
AcDbEntity
  8
0-1_本体
  6
Continuous
 62
     7
370
     9
100
AcDbLine
 10
-286.5099653989176
 20
1561.151987274756
 30
0.0
 11
97.99003460108196
 21
1561.151987274756
 31
0.0
  0
LINE
  5
347
330
1F
100
AcDbEntity
  8
0-1_本体
  6
Continuous
 62
    40
370
    15
100
AcDbLine
 10
493.4900346010818
 20
1561.151987274756
 30
0.0
 11
493.4900346010818
 21
1558.151987274754
 31
0.0
  0
LINE
  5
348
330
1F
100
AcDbEntity
  8
0-1_本体
  6
Continuous
 62
    40
370
    15
100
AcDbLine
 10
493.4900346010818
 20
1558.151987274754
 30
0.0
 11
108.9900346010822
 21
1558.151987274754
 31
0.0
  0
LINE
  5
349
330
1F
100
AcDbEntity
  8
0-1_本体
  6
Continuous
 62
    40
370
    15
100
AcDbLine
 10
493.4900346010818
 20
1559.651987274755
 30
0.0
 11
108.9900346010822
 21
1559.651987274755
 31
0.0
  0
LINE
  5
34A
330
1F
100
AcDbEntity
  8
0-1_本体
  6
Continuous
 62
     7
370
     9
100
AcDbLine
 10
493.4900346010818
 20
1561.151987274756
 30
0.0
 11
108.9900346010822
 21
1561.151987274756
 31
0.0
  0
LINE
  5
34B
330
1F
100
AcDbEntity
  8
0-1_本体
  6
Continuous
 62
    40
370
    15
100
AcDbLine
 10
493.4900346010818
 20
1561.151987274756
 30
0.0
 11
501.4900346010825
 21
1561.151987274756
 31
0.0
  0
LINE
  5
34C
330
1F
100
AcDbEntity
  8
0-7__
  6
Continuous
 62
     7
370
     9
100
AcDbLine
 10
98.99003460108219
 20
1561.151987274756
 30
0.0
 11
107.990034601082
 21
1561.151987274756
 31
0.0
  0
LINE
  5
34D
330
1F
100
AcDbEntity
  8
0-7__
  6
Continuous
 62
     7
370
     9
100
AcDbLine
 10
87.49003460108213
 20
1561.651987274756
 30
0.0
 11
87.49003460108213
 21
1561.151987274756
 31
0.0
  0
ARC
  5
34E
330
1F
100
AcDbEntity
  8
0-7__
  6
Continuous
 62
     7
370
     9
100
AcDbCircle
 10
87.99003460108196
 20
1561.651987274756
 30
0.0
 40
0.5
100
AcDbArc
 50
90.0
 51
180.0
  0
LINE
  5
34F
330
1F
100
AcDbEntity
  8
0-7__
  6
Continuous
 62
     7
370
     9
100
AcDbLine
 10
119.490034601082
 20
1561.651987274756
 30
0.0
 11
119.490034601082
 21
1561.151987274756
 31
0.0
  0
LINE
  5
350
330
1F
100
AcDbEntity
  8
0-7__
  6
Continuous
 62
     7
370
     9
100
AcDbLine
 10
118.9900346010822
 20
1562.151987274755
 30
0.0
 11
87.99003460108196
 21
1562.151987274755
 31
0.0
  0
ARC
  5
351
330
1F
100
AcDbEntity
  8
0-7__
  6
Continuous
 62
     7
370
     9
100
AcDbCircle
 10
118.9900346010822
 20
1561.651987274756
 30
0.0
 40
0.5
100
AcDbArc
 50
0.0
 51
90.00000000000001
  0
LINE
  5
352
330
1F
100
AcDbEntity
  8
0-7__
  6
Continuous
 62
     7
370
     9
100
AcDbLine
 10
89.49003460108202
 20
1558.151987274754
 30
0.0
 11
97.99003460108196
 21
1558.151987274754
 31
0.0
  0
LINE
  5
353
330
1F
100
AcDbEntity
  8
0-7__
  6
Continuous
 62
     7
370
     9
100
AcDbLine
 10
89.49003460108202
 20
1557.651987274755
 30
0.0
 11
89.49003460108202
 21
1558.151987274754
 31
0.0
  0
ARC
  5
354
330
1F
100
AcDbEntity
  8
0-7__
  6
Continuous
 62
     7
370
     9
100
AcDbCircle
 10
89.99003460108213
 20
1557.651987274755
 30
0.0
 40
0.5
100
AcDbArc
 50
180.0
 51
270.0
  0
LINE
  5
355
330
1F
100
AcDbEntity
  8
0-7__
  6
Continuous
 62
     7
370
     9
100
AcDbLine
 10
116.990034601082
 20
1557.151987274755
 30
0.0
 11
89.99003460108213
 21
1557.151987274755
 31
0.0
  0
LINE
  5
356
330
1F
100
AcDbEntity
  8
0-7__
  6
Continuous
 62
     7
370
     9
100
AcDbLine
 10
117.4900346010821
 20
1557.651987274755
 30
0.0
 11
117.4900346010821
 21
1558.151987274754
 31
0.0
  0
ARC
  5
357
330
1F
100
AcDbEntity
  8
0-7__
  6
Continuous
 62
     7
370
     9
100
AcDbCircle
 10
116.990034601082
 20
1557.651987274755
 30
0.0
 40
0.5
100
AcDbArc
 50
270.0
 51
0.0
  0
LINE
  5
358
330
1F
100
AcDbEntity
  8
0-7__
  6
Continuous
 62
     7
370
     9
100
AcDbLine
 10
97.99003460108196
 20
1558.151987274754
 30
0.0
 11
97.99003460108196
 21
1561.151987274756
 31
0.0
  0
LINE
  5
359
330
1F
100
AcDbEntity
  8
0-7__
  6
Continuous
 62
     7
370
     9
100
AcDbLine
 10
98.99003460108219
 20
1558.151987274754
 30
0.0
 11
98.99003460108219
 21
1561.151987274756
 31
0.0
  0
LINE
  5
35A
330
1F
100
AcDbEntity
  8
0-7__
  6
Continuous
 62
     7
370
     9
100
AcDbLine
 10
107.990034601082
 20
1558.151987274754
 30
0.0
 11
107.990034601082
 21
1561.151987274756
 31
0.0
  0
LINE
  5
35B
330
1F
100
AcDbEntity
  8
0-7__
  6
Continuous
 62
     7
370
     9
100
AcDbLine
 10
98.99003460108219
 20
1558.151987274754
 30
0.0
 11
107.990034601082
 21
1558.151987274754
 31
0.0
  0
LINE
  5
35C
330
1F
100
AcDbEntity
  8
0-7__
  6
Continuous
 62
     7
370
     9
100
AcDbLine
 10
108.9900346010822
 20
1558.151987274754
 30
0.0
 11
108.9900346010822
 21
1561.151987274756
 31
0.0
  0
LINE
  5
35D
330
1F
100
AcDbEntity
  8
0-7__
  6
Continuous
 62
     7
370
     9
100
AcDbLine
 10
108.9900346010822
 20
1558.151987274754
 30
0.0
 11
117.4900346010821
 21
1558.151987274754
 31
0.0
  0
LINE
  5
35E
330
1F
100
AcDbEntity
  8
0-7__
  6
Continuous
 62
     7
370
     9
100
AcDbLine
 10
87.49003460108213
 20
1561.151987274756
 30
0.0
 11
97.99003460108196
 21
1561.151987274756
 31
0.0
  0
LINE
  5
35F
330
1F
100
AcDbEntity
  8
0-7__
  6
Continuous
 62
     7
370
     9
100
AcDbLine
 10
108.9900346010822
 20
1561.151987274756
 30
0.0
 11
119.490034601082
 21
1561.151987274756
 31
0.0
  0
LINE
  5
360
330
1F
100
AcDbEntity
  8
0-7__
  6
Continuous
 62
     7
370
     9
100
AcDbLine
 10
89.49003460108173
 20
-946.3153675467302
 30
0.0
 11
89.49003460108173
 21
-1154.292859580915
 31
0.0
  0
LINE
  5
361
330
1F
100
AcDbEntity
  8
0-7__
  6
Continuous
 62
     7
370
     9
100
AcDbLine
 10
117.4900346010818
 20
-946.3153675467302
 30
0.0
 11
117.4900346010818
 21
-1154.292859580915
 31
0.0
  0
LINE
  5
362
330
1F
100
AcDbEntity
  8
0-7__
  6
JWW_DASHED1
 62
     7
370
     9
100
AcDbLine
 10
89.49003460108173
 20
-946.3153675467302
 30
0.0
 11
89.49003460108173
 21
-934.3153675467292
 31
0.0
  0
LINE
  5
363
330
1F
100
AcDbEntity
  8
0-7__
  6
JWW_DASHED1
 62
     7
370
     9
100
AcDbLine
 10
117.4900346010818
 20
-946.3153675467302
 30
0.0
 11
117.4900346010818
 21
-934.3153675467292
 31
0.0
  0
LINE
  5
364
330
1F
100
AcDbEntity
  8
0-7__
  6
JWW_DASHED1
 62
     7
370
     9
100
AcDbLine
 10
89.49003460108173
 20
-754.3144685031706
 30
0.0
 11
89.49003460108173
 21
-742.3144685031698
 31
0.0
  0
LINE
  5
365
330
1F
100
AcDbEntity
  8
0-7__
  6
JWW_DASHED1
 62
     7
370
     9
100
AcDbLine
 10
117.4900346010818
 20
-754.3144685031706
 30
0.0
 11
117.4900346010818
 21
-742.3144685031698
 31
0.0
  0
LINE
  5
366
330
1F
100
AcDbEntity
  8
0-7__
  6
Continuous
 62
     7
370
     9
100
AcDbLine
 10
117.4900346010818
 20
-754.3144685031706
 30
0.0
 11
117.4900346010818
 21
-934.3153675467292
 31
0.0
  0
LINE
  5
367
330
1F
100
AcDbEntity
  8
0-7__
  6
Continuous
 62
     7
370
     9
100
AcDbLine
 10
89.49003460108173
 20
-754.3144685031706
 30
0.0
 11
89.49003460108173
 21
-934.3153675467292
 31
0.0
  0
LINE
  5
368
330
1F
100
AcDbEntity
  8
0-7__
  6
JWW_DASHED1
 62
     7
370
     9
100
AcDbLine
 10
89.49003460108173
 20
-562.3144685031707
 30
0.0
 11
89.49003460108173
 21
-550.3144685031697
 31
0.0
  0
LINE
  5
369
330
1F
100
AcDbEntity
  8
0-7__
  6
JWW_DASHED1
 62
     7
370
     9
100
AcDbLine
 10
117.4900346010818
 20
-562.3144685031707
 30
0.0
 11
117.4900346010818
 21
-550.3144685031697
 31
0.0
  0
LINE
  5
36A
330
1F
100
AcDbEntity
  8
0-7__
  6
Continuous
 62
     7
370
     9
100
AcDbLine
 10
117.4900346010818
 20
-562.3144685031724
 30
0.0
 11
117.4900346010818
 21
-742.3144685031713
 31
0.0
  0
LINE
  5
36B
330
1F
100
AcDbEntity
  8
0-7__
  6
Continuous
 62
     7
370
     9
100
AcDbLine
 10
89.49003460108173
 20
-562.3144685031724
 30
0.0
 11
89.49003460108173
 21
-742.3144685031713
 31
0.0
  0
LINE
  5
36C
330
1F
100
AcDbEntity
  8
0-7__
  6
Continuous
 62
     7
370
     9
100
AcDbLine
 10
89.49003460108173
 20
-423.2928595809153
 30
0.0
 11
89.49003460108173
 21
-550.3144685031712
 31
0.0
  0
LINE
  5
36D
330
1F
100
AcDbEntity
  8
0-7__
  6
Continuous
 62
     7
370
     9
100
AcDbLine
 10
117.4900346010818
 20
-423.2928595809153
 30
0.0
 11
117.4900346010818
 21
-550.3144685031712
 31
0.0
  0
LINE
  5
36E
330
1F
100
AcDbEntity
  8
0-A_文字
  6
Continuous
 62
     7
370
     9
100
AcDbLine
 10
92.9113534675551
 20
-430.1409990963194
 30
0.0
 11
135.3615829059822
 21
-356.6150449160091
 31
0.0
  0
LINE
  5
36F
330
1F
100
AcDbEntity
  8
0-A_文字
  6
Continuous
 62
     7
370
     9
100
AcDbLine
 10
135.3615829059822
 20
1635.085361315109
 30
0.0
 11
508.5005428923881
 21
1635.085361315109
 31
0.0
  0
LINE
  5
370
330
1F
100
AcDbEntity
  8
0-A_文字
  6
Continuous
 62
     7
370
     9
100
AcDbLine
 10
92.9113534675551
 20
1561.559407134799
 30
0.0
 11
135.3615829059822
 21
1635.085361315109
 31
0.0
  0
TEXT
  5
371
330
1F
100
AcDbEntity
  8
0-A_文字
  6
Continuous
 62
     7
370
     9
100
AcDbText
 10
148.5005428923881
 20
1645.675402711617
 30
0.0
 40
45.72
  1
背板連結樹脂
  7
ＭＳ ゴシック
100
AcDbText
  0
LINE
  5
372
330
1F
100
AcDbEntity
  8
0-A_文字
  6
Continuous
 62
     7
370
     9
100
AcDbLine
 10
135.3615829059822
 20
-356.6150449160091
 30
0.0
 11
508.5005428923881
 21
-356.6150449160091
 31
0.0
  0
TEXT
  5
373
330
1F
100
AcDbEntity
  8
0-A_文字
  6
Continuous
 62
     7
370
     9
100
AcDbText
 10
148.5005428923881
 20
-346.0250035195009
 30
0.0
 40
45.72
  1
背板連結樹脂
  7
ＭＳ ゴシック
100
AcDbText
  0
LINE
  5
374
330
1F
100
AcDbEntity
  8
0-3_扉仕上
  6
JWW_CENTER1
 62
     7
370
     9
100
AcDbLine
 10
-2388.509965398912
 20
-411.2930037440697
 30
0.0
 11
-1994.509965398913
 21
-788.7930136416622
 31
0.0
  0
LINE
  5
375
330
1F
100
AcDbEntity
  8
0-3_扉仕上
  6
JWW_CENTER1
 62
     7
370
     9
100
AcDbLine
 10
-1994.509965398913
 20
-788.7930136416622
 30
0.0
 11
-2388.509965398912
 21
-1166.293023539255
 31
0.0
  0
LINE
  5
376
330
1F
100
AcDbEntity
  8
0-3_扉仕上
  6
JWW_CENTER1
 62
     7
370
     9
100
AcDbLine
 10
-2392.509965398918
 20
-411.2930037440697
 30
0.0
 11
-2786.509965398916
 21
-788.7930136416622
 31
0.0
  0
LINE
  5
377
330
1F
100
AcDbEntity
  8
0-3_扉仕上
  6
JWW_CENTER1
 62
     7
370
     9
100
AcDbLine
 10
-2786.509965398916
 20
-788.7930136416622
 30
0.0
 11
-2392.509965398918
 21
-1166.293023539255
 31
0.0
  0
LINE
  5
378
330
1F
100
AcDbEntity
  8
0-3_扉仕上
  6
JWW_CENTER1
 62
     7
370
     9
100
AcDbLine
 10
-1990.509965398912
 20
-411.2930037440697
 30
0.0
 11
-1596.509965398914
 21
-788.7930136416622
 31
0.0
  0
LINE
  5
379
330
1F
100
AcDbEntity
  8
0-3_扉仕上
  6
JWW_CENTER1
 62
     7
370
     9
100
AcDbLine
 10
-1596.509965398914
 20
-788.7930136416622
 30
0.0
 11
-1990.509965398912
 21
-1166.293023539255
 31
0.0
  0
TEXT
  5
37A
330
1F
100
AcDbEntity
  8
0-A_文字
  6
Continuous
 62
     7
370
     9
100
AcDbText
 10
-2486.989705360313
 20
2525.766787637478
 30
0.0
 40
76.2
  1
（フロアーキャビネット右）
  7
ＭＳ ゴシック
100
AcDbText
  0
TEXT
  5
37B
330
1F
100
AcDbEntity
  8
0-A_文字
  6
Continuous
 62
     7
370
     9
100
AcDbText
 10
-3403.221059628644
 20
2525.766787637478
 30
0.0
 40
76.2
  1
Ｂ－４０１
 41
0.9999999999999999
  7
ＭＳ ゴシック
100
AcDbText
  0
LINE
  5
37C
330
1F
100
AcDbEntity
  8
0-2_扉
  6
Continuous
 62
    40
370
    15
100
AcDbLine
 10
-292.5099653989173
 20
1215.15213143768
 30
0.0
 11
101.4900346010819
 21
1215.15213143768
 31
0.0
  0
LINE
  5
37D
330
1F
100
AcDbEntity
  8
0-2_扉
  6
Continuous
 62
    40
370
    15
100
AcDbLine
 10
101.4900346010819
 20
1215.15213143768
 30
0.0
 11
101.4900346010819
 21
1191.15213143768
 31
0.0
  0
LINE
  5
37E
330
1F
100
AcDbEntity
  8
0-2_扉
  6
Continuous
 62
    40
370
    15
100
AcDbLine
 10
101.4900346010819
 20
1191.15213143768
 30
0.0
 11
-292.5099653989173
 21
1191.15213143768
 31
0.0
  0
LINE
  5
37F
330
1F
100
AcDbEntity
  8
0-2_扉
  6
Continuous
 62
    40
370
    15
100
AcDbLine
 10
-292.5099653989173
 20
1191.15213143768
 30
0.0
 11
-292.5099653989173
 21
1215.15213143768
 31
0.0
  0
LINE
  5
380
330
1F
100
AcDbEntity
  8
0-2_扉
  6
Continuous
 62
    40
370
    15
100
AcDbLine
 10
105.4900346010845
 20
1215.15213143768
 30
0.0
 11
499.4900346010837
 21
1215.15213143768
 31
0.0
  0
LINE
  5
381
330
1F
100
AcDbEntity
  8
0-2_扉
  6
Continuous
 62
    40
370
    15
100
AcDbLine
 10
499.4900346010837
 20
1215.15213143768
 30
0.0
 11
499.4900346010837
 21
1191.15213143768
 31
0.0
  0
LINE
  5
382
330
1F
100
AcDbEntity
  8
0-2_扉
  6
Continuous
 62
    40
370
    15
100
AcDbLine
 10
499.4900346010837
 20
1191.15213143768
 30
0.0
 11
105.4900346010845
 21
1191.15213143768
 31
0.0
  0
LINE
  5
383
330
1F
100
AcDbEntity
  8
0-2_扉
  6
Continuous
 62
    40
370
    15
100
AcDbLine
 10
105.4900346010845
 20
1191.15213143768
 30
0.0
 11
105.4900346010845
 21
1215.15213143768
 31
0.0
  0
LINE
  5
384
330
1F
100
AcDbEntity
  8
0-2_扉
  6
Continuous
 62
    40
370
    15
100
AcDbLine
 10
503.4900346010829
 20
1215.15213143768
 30
0.0
 11
897.4900346010827
 21
1215.15213143768
 31
0.0
  0
LINE
  5
385
330
1F
100
AcDbEntity
  8
0-2_扉
  6
Continuous
 62
    40
370
    15
100
AcDbLine
 10
897.4900346010827
 20
1215.15213143768
 30
0.0
 11
897.4900346010827
 21
1191.15213143768
 31
0.0
  0
LINE
  5
386
330
1F
100
AcDbEntity
  8
0-2_扉
  6
Continuous
 62
    40
370
    15
100
AcDbLine
 10
897.4900346010827
 20
1191.15213143768
 30
0.0
 11
503.4900346010829
 21
1191.15213143768
 31
0.0
  0
LINE
  5
387
330
1F
100
AcDbEntity
  8
0-2_扉
  6
Continuous
 62
    40
370
    15
100
AcDbLine
 10
503.4900346010829
 20
1191.15213143768
 30
0.0
 11
503.4900346010829
 21
1215.15213143768
 31
0.0
  0
TEXT
  5
388
330
1F
100
AcDbEntity
  8
F-A_文字
  6
Continuous
 62
     7
370
     0
100
AcDbText
 10
3257.445178354582
 20
-2613.209673426644
 30
0.0
 40
45.72
  1
2019.01.30
 41
1.15
  7
ＭＳ ゴシック
100
AcDbText
  0
TEXT
  5
389
330
1F
100
AcDbEntity
  8
0-A_文字
  6
Continuous
 62
     7
370
     9
100
AcDbText
 10
-2461.509965398912
 20
-1751.372859580915
 30
0.0
 40
91.44
  1
扉配置図
 41
1.125
  7
ＭＳ ゴシック
100
AcDbText
  0
TEXT
  5
38A
330
1F
100
AcDbEntity
  8
F-A_文字
  6
Continuous
 62
     7
370
     9
100
AcDbText
 10
2187.445095874641
 20
-2751.542078978275
 30
0.0
 40
45.72
  1
QIS-B401-R_S01
 41
1.154761904761905
  7
ＭＳ ゴシック
100
AcDbText
  0
ENDSEC
  0
SECTION
  2
OBJECTS
  0
DICTIONARY
  5
C
330
0
100
AcDbDictionary
281
     1
  3
ACAD_DETAILVIEWSTYLE
350
3C2
  3
ACAD_GROUP
350
D
  3
ACAD_LAYOUT
350
1A
  3
ACAD_MATERIAL
350
43
  3
ACAD_MLEADERSTYLE
350
6B
  3
ACAD_MLINESTYLE
350
17
  3
ACAD_PLOTSETTINGS
350
19
  3
ACAD_PLOTSTYLENAME
350
E
  3
ACAD_SCALELIST
350
47
  3
ACAD_SECTIONVIEWSTYLE
350
3C3
  3
ACAD_TABLESTYLE
350
69
  3
ACAD_VISUALSTYLE
350
2A
  3
ACDB_RECOMPOSE_DATA
350
3BF
  3
AcDbVariableDictionary
350
38B
  0
SUN
  5
6D
330
29
100
AcDbSun
 90
        1
290
     0
 63
     7
421
 16777215
 40
1.0
291
     1
 91
  2455826
 92
 54000000
292
     0
 70
     2
 71
   256
280
     1
  0
DICTIONARY
  5
3C2
102
{ACAD_REACTORS
330
C
102
}
330
C
100
AcDbDictionary
281
     1
  0
DICTIONARY
  5
D
102
{ACAD_REACTORS
330
C
102
}
330
C
100
AcDbDictionary
281
     1
  0
DICTIONARY
  5
1A
102
{ACAD_REACTORS
330
C
102
}
330
C
100
AcDbDictionary
281
     1
  3
Layout1
350
1E
  3
Layout2
350
26
  3
Model
350
22
  0
DICTIONARY
  5
43
102
{ACAD_REACTORS
330
C
102
}
330
C
100
AcDbDictionary
281
     1
  3
ByBlock
350
45
  3
ByLayer
350
44
  3
Global
350
46
  0
DICTIONARY
  5
6B
102
{ACAD_REACTORS
330
C
102
}
330
C
100
AcDbDictionary
281
     1
  3
Standard
350
6C
  0
DICTIONARY
  5
17
102
{ACAD_REACTORS
330
C
102
}
330
C
100
AcDbDictionary
281
     1
  3
Standard
350
18
  0
DICTIONARY
  5
19
102
{ACAD_REACTORS
330
C
102
}
330
C
100
AcDbDictionary
281
     1
  0
ACDBDICTIONARYWDFLT
  5
E
102
{ACAD_REACTORS
330
C
102
}
330
C
100
AcDbDictionary
281
     1
  3
Normal
350
F
100
AcDbDictionaryWithDefault
340
F
  0
DICTIONARY
  5
47
102
{ACAD_REACTORS
330
C
102
}
330
C
100
AcDbDictionary
281
     1
  3
A0
350
48
  3
A1
350
49
  3
A2
350
4A
  3
A3
350
4B
  3
A4
350
4C
  3
A5
350
4D
  3
A6
350
4E
  3
A7
350
4F
  3
A8
350
50
  3
A9
350
51
  3
B0
350
52
  3
B1
350
53
  3
B2
350
54
  3
B3
350
55
  3
B4
350
56
  3
B5
350
57
  3
B6
350
58
  3
B7
350
59
  3
B8
350
5A
  3
B9
350
5B
  3
C0
350
5C
  3
C1
350
5D
  3
C2
350
5E
  3
C3
350
5F
  3
C4
350
60
  3
C5
350
61
  3
C6
350
62
  3
C7
350
63
  3
C8
350
64
  3
C9
350
65
  3
D0
350
66
  3
D1
350
67
  3
D2
350
68
  0
DICTIONARY
  5
3C3
102
{ACAD_REACTORS
330
C
102
}
330
C
100
AcDbDictionary
281
     1
  0
DICTIONARY
  5
69
102
{ACAD_REACTORS
330
C
102
}
330
C
100
AcDbDictionary
281
     1
  3
Standard
350
6A
  0
DICTIONARY
  5
2A
102
{ACAD_REACTORS
330
C
102
}
330
C
100
AcDbDictionary
281
     1
  3
2dWireframe
350
2F
  3
Basic
350
32
  3
Brighten
350
36
  3
ColorChange
350
3A
  3
Conceptual
350
34
  3
Dim
350
35
  3
EdgeColorOff
350
3D
  3
Facepattern
350
39
  3
Flat
350
2B
  3
FlatWithEdges
350
2C
  3
Gouraud
350
2D
  3
GouraudWithEdges
350
2E
  3
Hidden
350
31
  3
JitterOff
350
3B
  3
Linepattern
350
38
  3
OverhangOff
350
3C
  3
Realistic
350
33
  3
Shaded
350
42
  3
Shaded with edges
350
41
  3
Shades of Gray
350
3E
  3
Sketchy
350
3F
  3
Thicken
350
37
  3
Wireframe
350
30
  3
X-Ray
350
40
  0
XRECORD
  5
3BF
102
{ACAD_REACTORS
330
C
102
}
330
C
100
AcDbXrecord
280
     1
 90
        1
330
6A
  0
DICTIONARY
  5
38B
102
{ACAD_REACTORS
330
C
102
}
330
C
100
AcDbDictionary
281
     1
  3
CANNOSCALE
350
38C
  3
CENTEREXE
350
3C4
  3
CENTERLTYPEFILE
350
3C5
  3
CMLEADERSTYLE
350
3C1
  3
CTABLESTYLE
350
3C0
  0
LAYOUT
  5
1E
102
{ACAD_REACTORS
330
1A
102
}
330
1A
100
AcDbPlotSettings
  1

  2
none_device
  4

  6

 40
0.0
 41
0.0
 42
0.0
 43
0.0
 44
0.0
 45
0.0
 46
0.0
 47
0.0
 48
0.0
 49
0.0
140
0.0
141
0.0
142
1.0
143
1.0
 70
   688
 72
     1
 73
     0
 74
     5
  7

 75
    16
 76
     0
 77
     5
 78
   300
147
1.0
148
0.0
149
0.0
100
AcDbLayout
  1
Layout1
 70
     1
 71
     1
 10
0.0
 20
0.0
 11
420.0
 21
297.0
 12
0.0
 22
0.0
 32
0.0
 14
1.000000000000000E+20
 24
1.000000000000000E+20
 34
1.000000000000000E+20
 15
-1.000000000000000E+20
 25
-1.000000000000000E+20
 35
-1.000000000000000E+20
146
0.0
 13
0.0
 23
0.0
 33
0.0
 16
1.0
 26
0.0
 36
0.0
 17
0.0
 27
1.0
 37
0.0
 76
     0
330
1B
  0
LAYOUT
  5
26
102
{ACAD_REACTORS
330
1A
102
}
330
1A
100
AcDbPlotSettings
  1

  2
none_device
  4

  6

 40
0.0
 41
0.0
 42
0.0
 43
0.0
 44
0.0
 45
0.0
 46
0.0
 47
0.0
 48
0.0
 49
0.0
140
0.0
141
0.0
142
1.0
143
1.0
 70
   688
 72
     1
 73
     0
 74
     5
  7

 75
    16
 76
     0
 77
     5
 78
   300
147
1.0
148
0.0
149
0.0
100
AcDbLayout
  1
Layout2
 70
     1
 71
     2
 10
0.0
 20
0.0
 11
0.0
 21
0.0
 12
0.0
 22
0.0
 32
0.0
 14
0.0
 24
0.0
 34
0.0
 15
0.0
 25
0.0
 35
0.0
146
0.0
 13
0.0
 23
0.0
 33
0.0
 16
1.0
 26
0.0
 36
0.0
 17
0.0
 27
1.0
 37
0.0
 76
     0
330
23
  0
LAYOUT
  5
22
102
{ACAD_REACTORS
330
1A
102
}
330
1A
100
AcDbPlotSettings
  1

  2
none_device
  4
Letter_(8.50_x_11.00_Inches)
  6

 40
6.35
 41
6.35
 42
6.35000508
 43
6.35000508
 44
215.9
 45
279.4
 46
0.0
 47
0.0
 48
0.0
 49
0.0
140
0.0
141
0.0
142
1.0
143
1.0
 70
  1712
 72
     1
 73
     0
 74
     0
  7

 75
     0
 76
     0
 77
     5
 78
   300
147
1.0
148
0.0
149
0.0
100
AcDbLayout
  1
Model
 70
     1
 71
     0
 10
-4200.0
 20
-2970.0
 11
4200.0
 21
2970.0
 12
0.0
 22
0.0
 32
0.0
 14
-4200.0
 24
-2970.0
 34
0.0
 15
4200.0
 25
2970.0
 35
0.0
146
0.0
 13
0.0
 23
0.0
 33
0.0
 16
1.0
 26
0.0
 36
0.0
 17
0.0
 27
1.0
 37
0.0
 76
     0
330
1F
331
29
  0
MATERIAL
  5
45
102
{ACAD_REACTORS
330
43
102
}
330
43
100
AcDbMaterial
  1
ByBlock
 72
     1
 94
      127
  0
MATERIAL
  5
44
102
{ACAD_REACTORS
330
43
102
}
330
43
100
AcDbMaterial
  1
ByLayer
 72
     1
 94
      127
  0
MATERIAL
  5
46
102
{ACAD_REACTORS
330
43
102
}
330
43
100
AcDbMaterial
  1
Global
 72
     1
 94
      127
  0
MLEADERSTYLE
  5
6C
102
{ACAD_REACTORS
330
6B
102
}
330
6B
100
AcDbMLeaderStyle
179
     2
170
     2
171
     1
172
     0
 90
        2
 40
0.0
 41
0.0
173
     1
 91
-1056964608
340
14
 92
       -2
290
     1
 42
2.0
291
     1
 43
8.0
  3
Standard
341
0
 44
4.0
300

342
11
174
     1
178
     6
175
     1
176
     0
 93
-1056964608
 45
4.0
292
     0
297
     0
 46
4.0
343
0
 94
-1056964608
 47
1.0
 49
1.0
140
1.0
293
     1
141
0.0
294
     1
177
     0
142
1.0
295
     0
296
     0
143
3.75
271
     0
272
     9
273
     9
  0
MLINESTYLE
  5
18
102
{ACAD_REACTORS
330
17
102
}
330
17
100
AcDbMlineStyle
  2
Standard
 70
     0
  3

 62
   256
 51
90.0
 52
90.0
 71
     2
 49
0.5
 62
   256
  6
BYLAYER
 49
-0.5
 62
   256
  6
BYLAYER
  0
ACDBPLACEHOLDER
  5
F
102
{ACAD_REACTORS
330
E
102
}
330
E
  0
SCALE
  5
48
102
{ACAD_REACTORS
330
47
102
}
330
47
100
AcDbScale
 70
     0
300
1:1
140
1.0
141
1.0
290
     1
  0
SCALE
  5
49
102
{ACAD_REACTORS
330
47
102
}
330
47
100
AcDbScale
 70
     0
300
1:2
140
1.0
141
2.0
290
     0
  0
SCALE
  5
4A
102
{ACAD_REACTORS
330
47
102
}
330
47
100
AcDbScale
 70
     0
300
1:4
140
1.0
141
4.0
290
     0
  0
SCALE
  5
4B
102
{ACAD_REACTORS
330
47
102
}
330
47
100
AcDbScale
 70
     0
300
1:5
140
1.0
141
5.0
290
     0
  0
SCALE
  5
4C
102
{ACAD_REACTORS
330
47
102
}
330
47
100
AcDbScale
 70
     0
300
1:8
140
1.0
141
8.0
290
     0
  0
SCALE
  5
4D
102
{ACAD_REACTORS
330
47
102
}
330
47
100
AcDbScale
 70
     0
300
1:10
140
1.0
141
10.0
290
     0
  0
SCALE
  5
4E
102
{ACAD_REACTORS
330
47
102
}
330
47
100
AcDbScale
 70
     0
300
1:16
140
1.0
141
16.0
290
     0
  0
SCALE
  5
4F
102
{ACAD_REACTORS
330
47
102
}
330
47
100
AcDbScale
 70
     0
300
1:20
140
1.0
141
20.0
290
     0
  0
SCALE
  5
50
102
{ACAD_REACTORS
330
47
102
}
330
47
100
AcDbScale
 70
     0
300
1:30
140
1.0
141
30.0
290
     0
  0
SCALE
  5
51
102
{ACAD_REACTORS
330
47
102
}
330
47
100
AcDbScale
 70
     0
300
1:40
140
1.0
141
40.0
290
     0
  0
SCALE
  5
52
102
{ACAD_REACTORS
330
47
102
}
330
47
100
AcDbScale
 70
     0
300
1:50
140
1.0
141
50.0
290
     0
  0
SCALE
  5
53
102
{ACAD_REACTORS
330
47
102
}
330
47
100
AcDbScale
 70
     0
300
1:100
140
1.0
141
100.0
290
     0
  0
SCALE
  5
54
102
{ACAD_REACTORS
330
47
102
}
330
47
100
AcDbScale
 70
     0
300
2:1
140
2.0
141
1.0
290
     0
  0
SCALE
  5
55
102
{ACAD_REACTORS
330
47
102
}
330
47
100
AcDbScale
 70
     0
300
4:1
140
4.0
141
1.0
290
     0
  0
SCALE
  5
56
102
{ACAD_REACTORS
330
47
102
}
330
47
100
AcDbScale
 70
     0
300
8:1
140
8.0
141
1.0
290
     0
  0
SCALE
  5
57
102
{ACAD_REACTORS
330
47
102
}
330
47
100
AcDbScale
 70
     0
300
10:1
140
10.0
141
1.0
290
     0
  0
SCALE
  5
58
102
{ACAD_REACTORS
330
47
102
}
330
47
100
AcDbScale
 70
     0
300
100:1
140
100.0
141
1.0
290
     0
  0
SCALE
  5
59
102
{ACAD_REACTORS
330
47
102
}
330
47
100
AcDbScale
 70
     0
300
1/128" = 1'-0"
140
0.0078125
141
12.0
290
     0
  0
SCALE
  5
5A
102
{ACAD_REACTORS
330
47
102
}
330
47
100
AcDbScale
 70
     0
300
1/64" = 1'-0"
140
0.015625
141
12.0
290
     0
  0
SCALE
  5
5B
102
{ACAD_REACTORS
330
47
102
}
330
47
100
AcDbScale
 70
     0
300
1/32" = 1'-0"
140
0.03125
141
12.0
290
     0
  0
SCALE
  5
5C
102
{ACAD_REACTORS
330
47
102
}
330
47
100
AcDbScale
 70
     0
300
1/16" = 1'-0"
140
0.0625
141
12.0
290
     0
  0
SCALE
  5
5D
102
{ACAD_REACTORS
330
47
102
}
330
47
100
AcDbScale
 70
     0
300
3/32" = 1'-0"
140
0.09375
141
12.0
290
     0
  0
SCALE
  5
5E
102
{ACAD_REACTORS
330
47
102
}
330
47
100
AcDbScale
 70
     0
300
1/8" = 1'-0"
140
0.125
141
12.0
290
     0
  0
SCALE
  5
5F
102
{ACAD_REACTORS
330
47
102
}
330
47
100
AcDbScale
 70
     0
300
3/16" = 1'-0"
140
0.1875
141
12.0
290
     0
  0
SCALE
  5
60
102
{ACAD_REACTORS
330
47
102
}
330
47
100
AcDbScale
 70
     0
300
1/4" = 1'-0"
140
0.25
141
12.0
290
     0
  0
SCALE
  5
61
102
{ACAD_REACTORS
330
47
102
}
330
47
100
AcDbScale
 70
     0
300
3/8" = 1'-0"
140
0.375
141
12.0
290
     0
  0
SCALE
  5
62
102
{ACAD_REACTORS
330
47
102
}
330
47
100
AcDbScale
 70
     0
300
1/2" = 1'-0"
140
0.5
141
12.0
290
     0
  0
SCALE
  5
63
102
{ACAD_REACTORS
330
47
102
}
330
47
100
AcDbScale
 70
     0
300
3/4" = 1'-0"
140
0.75
141
12.0
290
     0
  0
SCALE
  5
64
102
{ACAD_REACTORS
330
47
102
}
330
47
100
AcDbScale
 70
     0
300
1" = 1'-0"
140
1.0
141
12.0
290
     0
  0
SCALE
  5
65
102
{ACAD_REACTORS
330
47
102
}
330
47
100
AcDbScale
 70
     0
300
1-1/2" = 1'-0"
140
1.5
141
12.0
290
     0
  0
SCALE
  5
66
102
{ACAD_REACTORS
330
47
102
}
330
47
100
AcDbScale
 70
     0
300
3" = 1'-0"
140
3.0
141
12.0
290
     0
  0
SCALE
  5
67
102
{ACAD_REACTORS
330
47
102
}
330
47
100
AcDbScale
 70
     0
300
6" = 1'-0"
140
6.0
141
12.0
290
     0
  0
SCALE
  5
68
102
{ACAD_REACTORS
330
47
102
}
330
47
100
AcDbScale
 70
     0
300
1'-0" = 1'-0"
140
12.0
141
12.0
290
     0
  0
TABLESTYLE
  5
6A
102
{ACAD_REACTORS
330
69
102
}
102
{ACAD_XDICTIONARY
360
3BD
102
}
330
69
100
AcDbTableStyle
  3
Standard
 70
     0
 71
     0
 40
0.06
 41
0.06
280
     0
281
     0
  7
Standard
140
4.5
170
     2
 62
     0
 63
   257
283
     0
 90
        4
 91
        0
  1

274
    -2
284
     1
 64
     0
275
    -2
285
     1
 65
     0
276
    -2
286
     1
 66
     0
277
    -2
287
     1
 67
     0
278
    -2
288
     1
 68
     0
279
    -2
289
     1
 69
     0
  7
Standard
140
6.0
170
     5
 62
     0
 63
   257
283
     0
 90
        4
 91
        0
  1

274
    -2
284
     1
 64
     0
275
    -2
285
     1
 65
     0
276
    -2
286
     1
 66
     0
277
    -2
287
     1
 67
     0
278
    -2
288
     1
 68
     0
279
    -2
289
     1
 69
     0
  7
Standard
140
4.5
170
     5
 62
     0
 63
   257
283
     0
 90
        4
 91
        0
  1

274
    -2
284
     1
 64
     0
275
    -2
285
     1
 65
     0
276
    -2
286
     1
 66
     0
277
    -2
287
     1
 67
     0
278
    -2
288
     1
 68
     0
279
    -2
289
     1
 69
     0
  0
VISUALSTYLE
  5
2F
102
{ACAD_REACTORS
330
2A
102
}
102
{ACAD_XDICTIONARY
360
395
102
}
330
2A
100
AcDbVisualStyle
  2
2dWireframe
 70
     4
177
     2
291
     0
 71
     0
176
     1
 72
     2
176
     1
 73
     0
176
     1
 90
        0
176
     1
 40
0.6
176
     1
 41
30.0
176
     1
 62
     5
 63
     7
421
 16777215
176
     1
 74
     1
176
     1
 91
        4
176
     1
 64
     7
176
     1
 65
   257
176
     1
 75
     1
176
     1
175
     1
176
     1
 42
1.0
176
     1
 92
        0
176
     1
 66
   257
176
     1
 43
1.0
176
     1
 76
     1
176
     1
 77
     6
176
     1
 78
     2
176
     1
 67
     7
176
     1
 79
     5
176
     1
170
     0
176
     1
171
     0
176
     1
290
     0
176
     1
 93
        1
176
     1
 44
0.0
176
     1
173
     0
176
     1
  0
VISUALSTYLE
  5
32
102
{ACAD_REACTORS
330
2A
102
}
102
{ACAD_XDICTIONARY
360
39B
102
}
330
2A
100
AcDbVisualStyle
  2
Basic
 70
     7
177
     2
291
     1
 71
     1
176
     1
 72
     0
176
     1
 73
     1
176
     1
 90
        0
176
     1
 40
0.6
176
     1
 41
30.0
176
     1
 62
     5
 63
     7
421
 16777215
176
     1
 74
     0
176
     1
 91
        4
176
     1
 64
     7
176
     1
 65
   257
176
     1
 75
     1
176
     1
175
     1
176
     1
 42
1.0
176
     1
 92
        8
176
     1
 66
     7
176
     1
 43
1.0
176
     1
 76
     1
176
     1
 77
     6
176
     1
 78
     2
176
     1
 67
     7
176
     1
 79
     5
176
     1
170
     0
176
     1
171
     0
176
     1
290
     0
176
     1
 93
        1
176
     1
 44
0.0
176
     1
173
     0
176
     1
  0
VISUALSTYLE
  5
36
102
{ACAD_REACTORS
330
2A
102
}
102
{ACAD_XDICTIONARY
360
3A3
102
}
330
2A
100
AcDbVisualStyle
  2
Brighten
 70
    12
177
     2
291
     1
 71
     2
176
     1
 72
     2
176
     1
 73
     0
176
     1
 90
        0
176
     1
 40
0.6
176
     1
 41
30.0
176
     1
 62
     5
 63
     7
421
 16777215
176
     1
 74
     1
176
     1
 91
        4
176
     1
 64
     7
176
     1
 65
   257
176
     1
 75
     1
176
     1
175
     1
176
     1
 42
1.0
176
     1
 92
        8
176
     1
 66
     7
176
     1
 43
1.0
176
     1
 76
     1
176
     1
 77
     6
176
     1
 78
     2
176
     1
 67
     7
176
     1
 79
     5
176
     1
170
     0
176
     1
171
     0
176
     1
290
     0
176
     1
 93
        1
176
     1
 44
50.0
176
     1
173
     0
176
     1
  0
VISUALSTYLE
  5
3A
102
{ACAD_REACTORS
330
2A
102
}
102
{ACAD_XDICTIONARY
360
3AB
102
}
330
2A
100
AcDbVisualStyle
  2
ColorChange
 70
    16
177
     2
291
     1
 71
     2
176
     1
 72
     2
176
     1
 73
     3
176
     1
 90
        0
176
     1
 40
0.6
176
     1
 41
30.0
176
     1
 62
     5
 63
     8
421
  8421504
176
     1
 74
     1
176
     1
 91
        4
176
     1
 64
     7
176
     1
 65
   257
176
     1
 75
     1
176
     1
175
     1
176
     1
 42
1.0
176
     1
 92
        8
176
     1
 66
     8
424
  8421504
176
     1
 43
1.0
176
     1
 76
     1
176
     1
 77
     6
176
     1
 78
     2
176
     1
 67
     7
176
     1
 79
     5
176
     1
170
     0
176
     1
171
     0
176
     1
290
     0
176
     1
 93
        1
176
     1
 44
0.0
176
     1
173
     0
176
     1
  0
VISUALSTYLE
  5
34
102
{ACAD_REACTORS
330
2A
102
}
102
{ACAD_XDICTIONARY
360
39F
102
}
330
2A
100
AcDbVisualStyle
  2
Conceptual
 70
     9
177
     2
291
     0
 71
     3
176
     1
 72
     2
176
     1
 73
     0
176
     1
 90
        0
176
     1
 40
0.6
176
     1
 41
30.0
176
     1
 62
     5
 63
     7
421
 16777215
176
     1
 74
     2
176
     1
 91
        2
176
     1
 64
     7
176
     1
 65
   257
176
     1
 75
     1
176
     1
175
     1
176
     1
 42
179.0
176
     1
 92
        8
176
     1
 66
     7
176
     1
 43
1.0
176
     1
 76
     1
176
     1
 77
     6
176
     1
 78
     2
176
     1
 67
     7
176
     1
 79
     3
176
     1
170
     0
176
     1
171
     0
176
     1
290
     0
176
     1
 93
        1
176
     1
 44
0.0
176
     1
173
     0
176
     1
  0
VISUALSTYLE
  5
35
102
{ACAD_REACTORS
330
2A
102
}
102
{ACAD_XDICTIONARY
360
3A1
102
}
330
2A
100
AcDbVisualStyle
  2
Dim
 70
    11
177
     2
291
     1
 71
     2
176
     1
 72
     2
176
     1
 73
     0
176
     1
 90
        0
176
     1
 40
0.6
176
     1
 41
30.0
176
     1
 62
     5
 63
     7
421
 16777215
176
     1
 74
     1
176
     1
 91
        4
176
     1
 64
     7
176
     1
 65
   257
176
     1
 75
     1
176
     1
175
     1
176
     1
 42
1.0
176
     1
 92
        8
176
     1
 66
     7
176
     1
 43
1.0
176
     1
 76
     1
176
     1
 77
     6
176
     1
 78
     2
176
     1
 67
     7
176
     1
 79
     5
176
     1
170
     0
176
     1
171
     0
176
     1
290
     0
176
     1
 93
        1
176
     1
 44
-50.0
176
     1
173
     0
176
     1
  0
VISUALSTYLE
  5
3D
102
{ACAD_REACTORS
330
2A
102
}
102
{ACAD_XDICTIONARY
360
3B1
102
}
330
2A
100
AcDbVisualStyle
  2
EdgeColorOff
 70
    22
177
     2
291
     1
 71
     2
176
     0
 72
     2
176
     0
 73
     0
176
     0
 90
        0
176
     0
 40
0.6
176
     0
 41
30.0
176
     0
 62
     5
 63
     7
421
 16777215
176
     0
 74
     1
176
     0
 91
        4
176
     0
 64
     7
176
     0
 65
   257
176
     0
 75
     1
176
     0
175
     1
176
     0
 42
1.0
176
     0
 92
        8
176
     2
 66
     7
176
     0
 43
1.0
176
     0
 76
     1
176
     0
 77
     6
176
     0
 78
     2
176
     0
 67
     7
176
     0
 79
     5
176
     0
170
     0
176
     0
171
     0
176
     0
290
     0
176
     0
 93
        1
176
     0
 44
0.0
176
     0
173
     0
176
     0
  0
VISUALSTYLE
  5
39
102
{ACAD_REACTORS
330
2A
102
}
102
{ACAD_XDICTIONARY
360
3A9
102
}
330
2A
100
AcDbVisualStyle
  2
Facepattern
 70
    15
177
     2
291
     1
 71
     2
176
     1
 72
     2
176
     1
 73
     0
176
     1
 90
        0
176
     1
 40
0.6
176
     1
 41
30.0
176
     1
 62
     5
 63
     7
421
 16777215
176
     1
 74
     1
176
     1
 91
        4
176
     1
 64
     7
176
     1
 65
   257
176
     1
 75
     1
176
     1
175
     1
176
     1
 42
1.0
176
     1
 92
        8
176
     1
 66
     7
176
     1
 43
1.0
176
     1
 76
     1
176
     1
 77
     6
176
     1
 78
     2
176
     1
 67
     7
176
     1
 79
     5
176
     1
170
     0
176
     1
171
     0
176
     1
290
     0
176
     1
 93
        1
176
     1
 44
0.0
176
     1
173
     0
176
     1
  0
VISUALSTYLE
  5
2B
102
{ACAD_REACTORS
330
2A
102
}
102
{ACAD_XDICTIONARY
360
38D
102
}
330
2A
100
AcDbVisualStyle
  2
Flat
 70
     0
177
     2
291
     1
 71
     2
176
     1
 72
     1
176
     1
 73
     1
176
     1
 90
        2
176
     1
 40
0.6
176
     1
 41
30.0
176
     1
 62
     5
 63
     7
421
 16777215
176
     1
 74
     0
176
     1
 91
        0
176
     1
 64
     7
176
     1
 65
   257
176
     1
 75
     1
176
     1
175
     1
176
     1
 42
1.0
176
     1
 92
        8
176
     1
 66
     7
176
     1
 43
1.0
176
     1
 76
     1
176
     1
 77
     6
176
     1
 78
     2
176
     1
 67
     7
176
     1
 79
     5
176
     1
170
     0
176
     1
171
     0
176
     1
290
     0
176
     1
 93
       13
176
     1
 44
0.0
176
     1
173
     0
176
     1
  0
VISUALSTYLE
  5
2C
102
{ACAD_REACTORS
330
2A
102
}
102
{ACAD_XDICTIONARY
360
38F
102
}
330
2A
100
AcDbVisualStyle
  2
FlatWithEdges
 70
     1
177
     2
291
     1
 71
     2
176
     1
 72
     1
176
     1
 73
     1
176
     1
 90
        2
176
     1
 40
0.6
176
     1
 41
30.0
176
     1
 62
     5
 63
     7
421
 16777215
176
     1
 74
     1
176
     1
 91
        0
176
     1
 64
     7
176
     1
 65
   257
176
     1
 75
     1
176
     1
175
     1
176
     1
 42
1.0
176
     1
 92
        0
176
     1
 66
   257
176
     1
 43
1.0
176
     1
 76
     1
176
     1
 77
     6
176
     1
 78
     2
176
     1
 67
     7
176
     1
 79
     5
176
     1
170
     0
176
     1
171
     0
176
     1
290
     0
176
     1
 93
       13
176
     1
 44
0.0
176
     1
173
     0
176
     1
  0
VISUALSTYLE
  5
2D
102
{ACAD_REACTORS
330
2A
102
}
102
{ACAD_XDICTIONARY
360
391
102
}
330
2A
100
AcDbVisualStyle
  2
Gouraud
 70
     2
177
     2
291
     1
 71
     2
176
     1
 72
     2
176
     1
 73
     1
176
     1
 90
        2
176
     1
 40
0.6
176
     1
 41
30.0
176
     1
 62
     5
 63
     7
421
 16777215
176
     1
 74
     0
176
     1
 91
        0
176
     1
 64
     7
176
     1
 65
   257
176
     1
 75
     1
176
     1
175
     1
176
     1
 42
1.0
176
     1
 92
        0
176
     1
 66
     7
176
     1
 43
1.0
176
     1
 76
     1
176
     1
 77
     6
176
     1
 78
     2
176
     1
 67
     7
176
     1
 79
     5
176
     1
170
     0
176
     1
171
     0
176
     1
290
     0
176
     1
 93
       13
176
     1
 44
0.0
176
     1
173
     0
176
     1
  0
VISUALSTYLE
  5
2E
102
{ACAD_REACTORS
330
2A
102
}
102
{ACAD_XDICTIONARY
360
393
102
}
330
2A
100
AcDbVisualStyle
  2
GouraudWithEdges
 70
     3
177
     2
291
     1
 71
     2
176
     1
 72
     2
176
     1
 73
     1
176
     1
 90
        2
176
     1
 40
0.6
176
     1
 41
30.0
176
     1
 62
     5
 63
     7
421
 16777215
176
     1
 74
     1
176
     1
 91
        0
176
     1
 64
     7
176
     1
 65
   257
176
     1
 75
     1
176
     1
175
     1
176
     1
 42
1.0
176
     1
 92
        0
176
     1
 66
   257
176
     1
 43
1.0
176
     1
 76
     1
176
     1
 77
     6
176
     1
 78
     2
176
     1
 67
     7
176
     1
 79
     5
176
     1
170
     0
176
     1
171
     0
176
     1
290
     0
176
     1
 93
       13
176
     1
 44
0.0
176
     1
173
     0
176
     1
  0
VISUALSTYLE
  5
31
102
{ACAD_REACTORS
330
2A
102
}
102
{ACAD_XDICTIONARY
360
399
102
}
330
2A
100
AcDbVisualStyle
  2
Hidden
 70
     6
177
     2
291
     0
 71
     1
176
     1
 72
     2
176
     1
 73
     2
176
     1
 90
        0
176
     1
 40
0.6
176
     1
 41
30.0
176
     1
 62
     5
 63
     7
421
 16777215
176
     1
 74
     2
176
     1
 91
        2
176
     1
 64
     7
176
     1
 65
   257
176
     1
 75
     2
176
     1
175
     1
176
     1
 42
40.0
176
     1
 92
        0
176
     1
 66
   257
176
     1
 43
1.0
176
     1
 76
     1
176
     1
 77
     6
176
     1
 78
     2
176
     1
 67
     7
176
     1
 79
     3
176
     1
170
     0
176
     1
171
     0
176
     1
290
     0
176
     1
 93
        1
176
     1
 44
0.0
176
     1
173
     0
176
     1
  0
VISUALSTYLE
  5
3B
102
{ACAD_REACTORS
330
2A
102
}
102
{ACAD_XDICTIONARY
360
3AD
102
}
330
2A
100
AcDbVisualStyle
  2
JitterOff
 70
    20
177
     2
291
     1
 71
     2
176
     0
 72
     2
176
     0
 73
     0
176
     0
 90
        0
176
     0
 40
0.6
176
     0
 41
30.0
176
     0
 62
     5
 63
     7
421
 16777215
176
     0
 74
     1
176
     0
 91
        4
176
     0
 64
     7
176
     0
 65
   257
176
     0
 75
     1
176
     0
175
     1
176
     0
 42
1.0
176
     0
 92
       10
176
     2
 66
     7
176
     0
 43
1.0
176
     0
 76
     1
176
     0
 77
     6
176
     0
 78
     2
176
     0
 67
     7
176
     0
 79
     5
176
     0
170
     0
176
     0
171
     0
176
     0
290
     0
176
     0
 93
        1
176
     0
 44
0.0
176
     0
173
     0
176
     0
  0
VISUALSTYLE
  5
38
102
{ACAD_REACTORS
330
2A
102
}
102
{ACAD_XDICTIONARY
360
3A7
102
}
330
2A
100
AcDbVisualStyle
  2
Linepattern
 70
    14
177
     2
291
     1
 71
     2
176
     1
 72
     2
176
     1
 73
     0
176
     1
 90
        0
176
     1
 40
0.6
176
     1
 41
30.0
176
     1
 62
     5
 63
     7
421
 16777215
176
     1
 74
     1
176
     1
 91
        4
176
     1
 64
     7
176
     1
 65
   257
176
     1
 75
     7
176
     1
175
     7
176
     1
 42
1.0
176
     1
 92
        8
176
     1
 66
     7
176
     1
 43
1.0
176
     1
 76
     1
176
     1
 77
     6
176
     1
 78
     2
176
     1
 67
     7
176
     1
 79
     5
176
     1
170
     0
176
     1
171
     0
176
     1
290
     0
176
     1
 93
        1
176
     1
 44
0.0
176
     1
173
     0
176
     1
  0
VISUALSTYLE
  5
3C
102
{ACAD_REACTORS
330
2A
102
}
102
{ACAD_XDICTIONARY
360
3AF
102
}
330
2A
100
AcDbVisualStyle
  2
OverhangOff
 70
    21
177
     2
291
     1
 71
     2
176
     0
 72
     2
176
     0
 73
     0
176
     0
 90
        0
176
     0
 40
0.6
176
     0
 41
30.0
176
     0
 62
     5
 63
     7
421
 16777215
176
     0
 74
     1
176
     0
 91
        4
176
     0
 64
     7
176
     0
 65
   257
176
     0
 75
     1
176
     0
175
     1
176
     0
 42
1.0
176
     0
 92
        9
176
     2
 66
     7
176
     0
 43
1.0
176
     0
 76
     1
176
     0
 77
     6
176
     0
 78
     2
176
     0
 67
     7
176
     0
 79
     5
176
     0
170
     0
176
     0
171
     0
176
     0
290
     0
176
     0
 93
        1
176
     0
 44
0.0
176
     0
173
     0
176
     0
  0
VISUALSTYLE
  5
33
102
{ACAD_REACTORS
330
2A
102
}
102
{ACAD_XDICTIONARY
360
39D
102
}
330
2A
100
AcDbVisualStyle
  2
Realistic
 70
     8
177
     2
291
     0
 71
     2
176
     1
 72
     3
176
     1
 73
     0
176
     1
 90
        2
176
     1
 40
0.6
176
     1
 41
30.0
176
     1
 62
     5
 63
     7
421
 16777215
176
     1
 74
     0
176
     1
 91
        0
176
     1
 64
     7
176
     1
 65
   257
176
     1
 75
     1
176
     1
175
     1
176
     1
 42
1.0
176
     1
 92
        8
176
     1
 66
   257
176
     1
 43
1.0
176
     1
 76
     1
176
     1
 77
     6
176
     1
 78
     2
176
     1
 67
     7
176
     1
 79
     3
176
     1
170
     0
176
     1
171
     0
176
     1
290
     0
176
     1
 93
       13
176
     1
 44
0.0
176
     1
173
     0
176
     1
  0
VISUALSTYLE
  5
42
102
{ACAD_REACTORS
330
2A
102
}
102
{ACAD_XDICTIONARY
360
3BB
102
}
330
2A
100
AcDbVisualStyle
  2
Shaded
 70
    27
177
     2
291
     0
 71
     2
176
     1
 72
     2
176
     1
 73
     1
176
     1
 90
        2
176
     1
 40
0.6
176
     1
 41
30.0
176
     1
 62
     5
 63
     7
421
 16777215
176
     1
 74
     0
176
     1
 91
        4
176
     1
 64
     7
176
     1
 65
   257
176
     1
 75
     1
176
     1
175
     1
176
     1
 42
1.0
176
     1
 92
        8
176
     1
 66
   257
176
     1
 43
1.0
176
     1
 76
     1
176
     1
 77
     6
176
     1
 78
     2
176
     1
 67
     8
425
  7895160
176
     1
 79
     3
176
     1
170
     0
176
     1
171
     0
176
     1
290
     0
176
     1
 93
        5
176
     1
 44
0.0
176
     1
173
     0
176
     1
  0
VISUALSTYLE
  5
41
102
{ACAD_REACTORS
330
2A
102
}
102
{ACAD_XDICTIONARY
360
3B9
102
}
330
2A
100
AcDbVisualStyle
  2
Shaded with edges
 70
    26
177
     2
291
     0
 71
     2
176
     1
 72
     2
176
     1
 73
     1
176
     1
 90
        2
176
     1
 40
0.6
176
     1
 41
30.0
176
     1
 62
     5
 63
     7
421
 16777215
176
     1
 74
     1
176
     1
 91
       10
176
     1
 64
     7
176
     1
 65
   257
176
     1
 75
     2
176
     1
175
     1
176
     1
 42
1.0
176
     1
 92
        8
176
     1
 66
   257
176
     1
 43
1.0
176
     1
 76
     1
176
     1
 77
     6
176
     1
 78
     2
176
     1
 67
     7
176
     1
 79
     3
176
     1
170
     0
176
     1
171
     0
176
     1
290
     0
176
     1
 93
        5
176
     1
 44
0.0
176
     1
173
     0
176
     1
  0
VISUALSTYLE
  5
3E
102
{ACAD_REACTORS
330
2A
102
}
102
{ACAD_XDICTIONARY
360
3B3
102
}
330
2A
100
AcDbVisualStyle
  2
Shades of Gray
 70
    23
177
     2
291
     0
 71
     2
176
     1
 72
     2
176
     1
 73
     3
176
     1
 90
        0
176
     1
 40
0.6
176
     1
 41
30.0
176
     1
 62
     5
 63
     7
421
 16777215
176
     1
 74
     2
176
     1
 91
        2
176
     1
 64
     7
176
     1
 65
     7
176
     1
 75
     1
176
     1
175
     1
176
     1
 42
40.0
176
     1
 92
        8
176
     1
 66
     7
176
     1
 43
1.0
176
     1
 76
     1
176
     1
 77
     6
176
     1
 78
     2
176
     1
 67
     7
176
     1
 79
     3
176
     1
170
     0
176
     1
171
     0
176
     1
290
     0
176
     1
 93
        1
176
     1
 44
0.0
176
     1
173
     0
176
     1
  0
VISUALSTYLE
  5
3F
102
{ACAD_REACTORS
330
2A
102
}
102
{ACAD_XDICTIONARY
360
3B5
102
}
330
2A
100
AcDbVisualStyle
  2
Sketchy
 70
    24
177
     2
291
     0
 71
     1
176
     1
 72
     2
176
     1
 73
     2
176
     1
 90
        0
176
     1
 40
0.6
176
     1
 41
30.0
176
     1
 62
     5
 63
     7
421
 16777215
176
     1
 74
     2
176
     1
 91
        2
176
     1
 64
     7
176
     1
 65
     7
176
     1
 75
     1
176
     1
175
     1
176
     1
 42
40.0
176
     1
 92
       11
176
     1
 66
     7
176
     1
 43
1.0
176
     1
 76
     1
176
     1
 77
     6
176
     1
 78
     2
176
     1
 67
     7
176
     1
 79
     6
176
     1
170
     0
176
     1
171
     0
176
     1
290
     0
176
     1
 93
        1
176
     1
 44
0.0
176
     1
173
     0
176
     1
  0
VISUALSTYLE
  5
37
102
{ACAD_REACTORS
330
2A
102
}
102
{ACAD_XDICTIONARY
360
3A5
102
}
330
2A
100
AcDbVisualStyle
  2
Thicken
 70
    13
177
     2
291
     1
 71
     2
176
     1
 72
     2
176
     1
 73
     0
176
     1
 90
        0
176
     1
 40
0.6
176
     1
 41
30.0
176
     1
 62
     5
 63
     7
421
 16777215
176
     1
 74
     1
176
     1
 91
        4
176
     1
 64
     7
176
     1
 65
   257
176
     1
 75
     1
176
     1
175
     1
176
     1
 42
1.0
176
     1
 92
       12
176
     1
 66
     7
176
     1
 43
1.0
176
     1
 76
     1
176
     1
 77
     6
176
     1
 78
     2
176
     1
 67
     7
176
     1
 79
     5
176
     1
170
     0
176
     1
171
     0
176
     1
290
     0
176
     1
 93
        1
176
     1
 44
0.0
176
     1
173
     0
176
     1
  0
VISUALSTYLE
  5
30
102
{ACAD_REACTORS
330
2A
102
}
102
{ACAD_XDICTIONARY
360
397
102
}
330
2A
100
AcDbVisualStyle
  2
Wireframe
 70
     5
177
     2
291
     0
 71
     0
176
     1
 72
     2
176
     1
 73
     0
176
     1
 90
        0
176
     1
 40
0.6
176
     1
 41
30.0
176
     1
 62
     5
 63
     7
421
 16777215
176
     1
 74
     1
176
     1
 91
        4
176
     1
 64
     7
176
     1
 65
   257
176
     1
 75
     1
176
     1
175
     1
176
     1
 42
1.0
176
     1
 92
        0
176
     1
 66
   257
176
     1
 43
1.0
176
     1
 76
     1
176
     1
 77
     6
176
     1
 78
     2
176
     1
 67
     7
176
     1
 79
     3
176
     1
170
     0
176
     1
171
     0
176
     1
290
     0
176
     1
 93
        1
176
     1
 44
0.0
176
     1
173
     0
176
     1
  0
VISUALSTYLE
  5
40
102
{ACAD_REACTORS
330
2A
102
}
102
{ACAD_XDICTIONARY
360
3B7
102
}
330
2A
100
AcDbVisualStyle
  2
X-Ray
 70
    25
177
     2
291
     0
 71
     2
176
     1
 72
     2
176
     1
 73
     1
176
     1
 90
        1
176
     1
 40
0.5
176
     1
 41
30.0
176
     1
 62
     5
 63
     7
421
 16777215
176
     1
 74
     1
176
     1
 91
        0
176
     1
 64
     7
176
     1
 65
   257
176
     1
 75
     1
176
     1
175
     1
176
     1
 42
1.0
176
     1
 92
        8
176
     1
 66
     7
176
     1
 43
1.0
176
     1
 76
     1
176
     1
 77
     6
176
     1
 78
     2
176
     1
 67
     7
176
     1
 79
     3
176
     1
170
     0
176
     1
171
     0
176
     1
290
     0
176
     1
 93
       13
176
     1
 44
0.0
176
     1
173
     0
176
     1
  0
DICTIONARYVAR
  5
38C
102
{ACAD_REACTORS
330
38B
102
}
330
38B
100
DictionaryVariables
280
     0
  1
1:1
  0
DICTIONARYVAR
  5
3C4
102
{ACAD_REACTORS
330
38B
102
}
330
38B
100
DictionaryVariables
280
     0
  1
3.500000
  0
DICTIONARYVAR
  5
3C5
102
{ACAD_REACTORS
330
38B
102
}
330
38B
100
DictionaryVariables
280
     0
  1
acadiso.lin
  0
DICTIONARYVAR
  5
3C1
102
{ACAD_REACTORS
330
38B
102
}
330
38B
100
DictionaryVariables
280
     0
  1
Standard
  0
DICTIONARYVAR
  5
3C0
102
{ACAD_REACTORS
330
38B
102
}
330
38B
100
DictionaryVariables
280
     0
  1
Standard
  0
DICTIONARY
  5
3BD
330
6A
100
AcDbDictionary
280
     1
281
     1
  3
ACAD_ROUNDTRIP_2008_TABLESTYLE_CELLSTYLEMAP
360
3BE
  0
DICTIONARY
  5
395
330
2F
100
AcDbDictionary
280
     1
281
     1
  3
ACAD_XREC_ROUNDTRIP
360
396
  0
DICTIONARY
  5
39B
330
32
100
AcDbDictionary
280
     1
281
     1
  3
ACAD_XREC_ROUNDTRIP
360
39C
  0
DICTIONARY
  5
3A3
330
36
100
AcDbDictionary
280
     1
281
     1
  3
ACAD_XREC_ROUNDTRIP
360
3A4
  0
DICTIONARY
  5
3AB
330
3A
100
AcDbDictionary
280
     1
281
     1
  3
ACAD_XREC_ROUNDTRIP
360
3AC
  0
DICTIONARY
  5
39F
330
34
100
AcDbDictionary
280
     1
281
     1
  3
ACAD_XREC_ROUNDTRIP
360
3A0
  0
DICTIONARY
  5
3A1
330
35
100
AcDbDictionary
280
     1
281
     1
  3
ACAD_XREC_ROUNDTRIP
360
3A2
  0
DICTIONARY
  5
3B1
330
3D
100
AcDbDictionary
280
     1
281
     1
  3
ACAD_XREC_ROUNDTRIP
360
3B2
  0
DICTIONARY
  5
3A9
330
39
100
AcDbDictionary
280
     1
281
     1
  3
ACAD_XREC_ROUNDTRIP
360
3AA
  0
DICTIONARY
  5
38D
330
2B
100
AcDbDictionary
280
     1
281
     1
  3
ACAD_XREC_ROUNDTRIP
360
38E
  0
DICTIONARY
  5
38F
330
2C
100
AcDbDictionary
280
     1
281
     1
  3
ACAD_XREC_ROUNDTRIP
360
390
  0
DICTIONARY
  5
391
330
2D
100
AcDbDictionary
280
     1
281
     1
  3
ACAD_XREC_ROUNDTRIP
360
392
  0
DICTIONARY
  5
393
330
2E
100
AcDbDictionary
280
     1
281
     1
  3
ACAD_XREC_ROUNDTRIP
360
394
  0
DICTIONARY
  5
399
330
31
100
AcDbDictionary
280
     1
281
     1
  3
ACAD_XREC_ROUNDTRIP
360
39A
  0
DICTIONARY
  5
3AD
330
3B
100
AcDbDictionary
280
     1
281
     1
  3
ACAD_XREC_ROUNDTRIP
360
3AE
  0
DICTIONARY
  5
3A7
330
38
100
AcDbDictionary
280
     1
281
     1
  3
ACAD_XREC_ROUNDTRIP
360
3A8
  0
DICTIONARY
  5
3AF
330
3C
100
AcDbDictionary
280
     1
281
     1
  3
ACAD_XREC_ROUNDTRIP
360
3B0
  0
DICTIONARY
  5
39D
330
33
100
AcDbDictionary
280
     1
281
     1
  3
ACAD_XREC_ROUNDTRIP
360
39E
  0
DICTIONARY
  5
3BB
330
42
100
AcDbDictionary
280
     1
281
     1
  3
ACAD_XREC_ROUNDTRIP
360
3BC
  0
DICTIONARY
  5
3B9
330
41
100
AcDbDictionary
280
     1
281
     1
  3
ACAD_XREC_ROUNDTRIP
360
3BA
  0
DICTIONARY
  5
3B3
330
3E
100
AcDbDictionary
280
     1
281
     1
  3
ACAD_XREC_ROUNDTRIP
360
3B4
  0
DICTIONARY
  5
3B5
330
3F
100
AcDbDictionary
280
     1
281
     1
  3
ACAD_XREC_ROUNDTRIP
360
3B6
  0
DICTIONARY
  5
3A5
330
37
100
AcDbDictionary
280
     1
281
     1
  3
ACAD_XREC_ROUNDTRIP
360
3A6
  0
DICTIONARY
  5
397
330
30
100
AcDbDictionary
280
     1
281
     1
  3
ACAD_XREC_ROUNDTRIP
360
398
  0
DICTIONARY
  5
3B7
330
40
100
AcDbDictionary
280
     1
281
     1
  3
ACAD_XREC_ROUNDTRIP
360
3B8
  0
CELLSTYLEMAP
  5
3BE
102
{ACAD_REACTORS
330
3BD
102
}
330
3BD
100
AcDbCellStyleMap
 90
        3
300
CELLSTYLE
  1
TABLEFORMAT_BEGIN
 90
        5
170
     1
 91
        0
 92
    32768
 62
   257
 93
        1
300
CONTENTFORMAT
  1
CONTENTFORMAT_BEGIN
 90
        0
 91
        0
 92
        4
 93
        0
300

 40
0.0
140
1.0
 94
        5
 62
     0
340
11
144
6.0
309
CONTENTFORMAT_END
171
     1
301
MARGIN
  1
CELLMARGIN_BEGIN
 40
1.5
 40
1.5
 40
1.5
 40
1.5
 40
1.5
 40
1.5
309
CELLMARGIN_END
 94
        6
 95
        1
302
GRIDFORMAT
  1
GRIDFORMAT_BEGIN
 90
        0
 91
        1
 62
     0
 92
       -2
340
14
 93
        0
 40
0.045
309
GRIDFORMAT_END
 95
        2
302
GRIDFORMAT
  1
GRIDFORMAT_BEGIN
 90
        0
 91
        1
 62
     0
 92
       -2
340
14
 93
        0
 40
0.045
309
GRIDFORMAT_END
 95
        4
302
GRIDFORMAT
  1
GRIDFORMAT_BEGIN
 90
        0
 91
        1
 62
     0
 92
       -2
340
14
 93
        0
 40
0.045
309
GRIDFORMAT_END
 95
        8
302
GRIDFORMAT
  1
GRIDFORMAT_BEGIN
 90
        0
 91
        1
 62
     0
 92
       -2
340
14
 93
        0
 40
0.045
309
GRIDFORMAT_END
 95
       16
302
GRIDFORMAT
  1
GRIDFORMAT_BEGIN
 90
        0
 91
        1
 62
     0
 92
       -2
340
14
 93
        0
 40
0.045
309
GRIDFORMAT_END
 95
       32
302
GRIDFORMAT
  1
GRIDFORMAT_BEGIN
 90
        0
 91
        1
 62
     0
 92
       -2
340
14
 93
        0
 40
0.045
309
GRIDFORMAT_END
309
TABLEFORMAT_END
  1
CELLSTYLE_BEGIN
 90
        1
 91
        1
300
_TITLE
309
CELLSTYLE_END
300
CELLSTYLE
  1
TABLEFORMAT_BEGIN
 90
        5
170
     1
 91
        0
 92
        0
 62
   257
 93
        1
300
CONTENTFORMAT
  1
CONTENTFORMAT_BEGIN
 90
        0
 91
        0
 92
        4
 93
        0
300

 40
0.0
140
1.0
 94
        5
 62
     0
340
11
144
4.5
309
CONTENTFORMAT_END
171
     1
301
MARGIN
  1
CELLMARGIN_BEGIN
 40
1.5
 40
1.5
 40
1.5
 40
1.5
 40
1.5
 40
1.5
309
CELLMARGIN_END
 94
        6
 95
        1
302
GRIDFORMAT
  1
GRIDFORMAT_BEGIN
 90
        0
 91
        1
 62
     0
 92
       -2
340
14
 93
        0
 40
0.045
309
GRIDFORMAT_END
 95
        2
302
GRIDFORMAT
  1
GRIDFORMAT_BEGIN
 90
        0
 91
        1
 62
     0
 92
       -2
340
14
 93
        0
 40
0.045
309
GRIDFORMAT_END
 95
        4
302
GRIDFORMAT
  1
GRIDFORMAT_BEGIN
 90
        0
 91
        1
 62
     0
 92
       -2
340
14
 93
        0
 40
0.045
309
GRIDFORMAT_END
 95
        8
302
GRIDFORMAT
  1
GRIDFORMAT_BEGIN
 90
        0
 91
        1
 62
     0
 92
       -2
340
14
 93
        0
 40
0.045
309
GRIDFORMAT_END
 95
       16
302
GRIDFORMAT
  1
GRIDFORMAT_BEGIN
 90
        0
 91
        1
 62
     0
 92
       -2
340
14
 93
        0
 40
0.045
309
GRIDFORMAT_END
 95
       32
302
GRIDFORMAT
  1
GRIDFORMAT_BEGIN
 90
        0
 91
        1
 62
     0
 92
       -2
340
14
 93
        0
 40
0.045
309
GRIDFORMAT_END
309
TABLEFORMAT_END
  1
CELLSTYLE_BEGIN
 90
        2
 91
        1
300
_HEADER
309
CELLSTYLE_END
300
CELLSTYLE
  1
TABLEFORMAT_BEGIN
 90
        5
170
     1
 91
        0
 92
        0
 62
   257
 93
        1
300
CONTENTFORMAT
  1
CONTENTFORMAT_BEGIN
 90
        0
 91
        0
 92
        4
 93
        0
300

 40
0.0
140
1.0
 94
        2
 62
     0
340
11
144
4.5
309
CONTENTFORMAT_END
171
     1
301
MARGIN
  1
CELLMARGIN_BEGIN
 40
1.5
 40
1.5
 40
1.5
 40
1.5
 40
1.5
 40
1.5
309
CELLMARGIN_END
 94
        6
 95
        1
302
GRIDFORMAT
  1
GRIDFORMAT_BEGIN
 90
        0
 91
        1
 62
     0
 92
       -2
340
14
 93
        0
 40
0.045
309
GRIDFORMAT_END
 95
        2
302
GRIDFORMAT
  1
GRIDFORMAT_BEGIN
 90
        0
 91
        1
 62
     0
 92
       -2
340
14
 93
        0
 40
0.045
309
GRIDFORMAT_END
 95
        4
302
GRIDFORMAT
  1
GRIDFORMAT_BEGIN
 90
        0
 91
        1
 62
     0
 92
       -2
340
14
 93
        0
 40
0.045
309
GRIDFORMAT_END
 95
        8
302
GRIDFORMAT
  1
GRIDFORMAT_BEGIN
 90
        0
 91
        1
 62
     0
 92
       -2
340
14
 93
        0
 40
0.045
309
GRIDFORMAT_END
 95
       16
302
GRIDFORMAT
  1
GRIDFORMAT_BEGIN
 90
        0
 91
        1
 62
     0
 92
       -2
340
14
 93
        0
 40
0.045
309
GRIDFORMAT_END
 95
       32
302
GRIDFORMAT
  1
GRIDFORMAT_BEGIN
 90
        0
 91
        1
 62
     0
 92
       -2
340
14
 93
        0
 40
0.045
309
GRIDFORMAT_END
309
TABLEFORMAT_END
  1
CELLSTYLE_BEGIN
 90
        3
 91
        2
300
_DATA
309
CELLSTYLE_END
  0
XRECORD
  5
396
102
{ACAD_REACTORS
330
395
102
}
330
395
100
AcDbXrecord
280
     1
102
RTVSPost2010Prop28
280
     1
102
RTVSPost2010PropOp28
 70
     1
102
RTVSPost2010Prop29
280
     1
102
RTVSPost2010PropOp29
 70
     1
102
RTVSPost2010Prop30
280
     0
102
RTVSPost2010PropOp30
 70
     1
102
RTVSPost2010Prop31
280
     0
102
RTVSPost2010PropOp31
 70
     1
102
RTVSPost2010Prop32
280
     0
102
RTVSPost2010PropOp32
 70
     1
102
RTVSPost2010Prop33
280
     0
102
RTVSPost2010PropOp33
 70
     1
102
RTVSPost2010Prop34
280
     0
102
RTVSPost2010PropOp34
 70
     1
102
RTVSPost2010Prop35
280
     0
102
RTVSPost2010PropOp35
 70
     1
102
RTVSPost2010Prop36
280
     0
102
RTVSPost2010PropOp36
 70
     1
102
RTVSPost2010Prop37
 90
       50
102
RTVSPost2010PropOp37
 70
     1
102
RTVSPost2010Prop38
140
0.0
102
RTVSPost2010PropOp38
 70
     1
102
RTVSPost2010Prop39
140
1.0
102
RTVSPost2010PropOp39
 70
     1
102
RTVSPost2010Prop40
 90
        0
102
RTVSPost2010PropOp40
 70
     1
102
RTVSPost2010Prop41ColorIndex
 90
       18
102
RTVSPost2010Prop41ColorRGB
 90
        0
102
RTVSPost2010PropOp41
 70
     1
102
RTVSPost2010Prop42
 90
       50
102
RTVSPost2010PropOp42
 70
     1
102
RTVSPost2010Prop43
 90
        3
102
RTVSPost2010PropOp43
 70
     1
102
RTVSPost2010Prop44ColorIndex
 90
        5
102
RTVSPost2010Prop44ColorRGB
 90
      255
102
RTVSPost2010PropOp44
 70
     1
102
RTVSPost2010Prop45
280
     0
102
RTVSPost2010PropOp45
 70
     1
102
RTVSPost2010Prop46
 90
       50
102
RTVSPost2010PropOp46
 70
     1
102
RTVSPost2010Prop47
 90
       50
102
RTVSPost2010PropOp47
 70
     1
102
RTVSPost2010Prop48
 90
       50
102
RTVSPost2010PropOp48
 70
     1
102
RTVSPost2010Prop49
280
     0
102
RTVSPost2010PropOp49
 70
     1
102
RTVSPost2010Prop50
 90
       50
102
RTVSPost2010PropOp50
 70
     1
102
RTVSPost2010Prop51ColorIndex
 90
      256
102
RTVSPost2010Prop51ColorRGB
 90
-16777216
102
RTVSPost2010PropOp51
 70
     0
102
RTVSPost2010Prop52
140
1.0
102
RTVSPost2010PropOp52
 70
     0
102
RTVSPost2010Prop53
 90
        2
102
RTVSPost2010PropOp53
 70
     1
102
RTVSPost2010Prop54
  1
strokes_ogs.tif
102
RTVSPost2010PropOp54
 70
     1
102
RTVSPost2010Prop55
280
     0
102
RTVSPost2010PropOp55
 70
     1
102
RTVSPost2010Prop56
140
1.0
102
RTVSPost2010PropOp56
 70
     1
102
RTVSPost2010Prop57
140
1.0
102
RTVSPost2010PropOp57
 70
     1
  0
XRECORD
  5
39C
102
{ACAD_REACTORS
330
39B
102
}
330
39B
100
AcDbXrecord
280
     1
102
RTVSPost2010Prop28
280
     0
102
RTVSPost2010PropOp28
 70
     1
102
RTVSPost2010Prop29
280
     1
102
RTVSPost2010PropOp29
 70
     1
102
RTVSPost2010Prop30
280
     1
102
RTVSPost2010PropOp30
 70
     1
102
RTVSPost2010Prop31
280
     0
102
RTVSPost2010PropOp31
 70
     1
102
RTVSPost2010Prop32
280
     0
102
RTVSPost2010PropOp32
 70
     1
102
RTVSPost2010Prop33
280
     0
102
RTVSPost2010PropOp33
 70
     1
102
RTVSPost2010Prop34
280
     0
102
RTVSPost2010PropOp34
 70
     1
102
RTVSPost2010Prop35
280
     0
102
RTVSPost2010PropOp35
 70
     1
102
RTVSPost2010Prop36
280
     0
102
RTVSPost2010PropOp36
 70
     1
102
RTVSPost2010Prop37
 90
       50
102
RTVSPost2010PropOp37
 70
     1
102
RTVSPost2010Prop38
140
0.0
102
RTVSPost2010PropOp38
 70
     1
102
RTVSPost2010Prop39
140
1.0
102
RTVSPost2010PropOp39
 70
     1
102
RTVSPost2010Prop40
 90
        0
102
RTVSPost2010PropOp40
 70
     1
102
RTVSPost2010Prop41ColorIndex
 90
       18
102
RTVSPost2010Prop41ColorRGB
 90
        0
102
RTVSPost2010PropOp41
 70
     1
102
RTVSPost2010Prop42
 90
       50
102
RTVSPost2010PropOp42
 70
     1
102
RTVSPost2010Prop43
 90
        3
102
RTVSPost2010PropOp43
 70
     1
102
RTVSPost2010Prop44ColorIndex
 90
        5
102
RTVSPost2010Prop44ColorRGB
 90
      255
102
RTVSPost2010PropOp44
 70
     1
102
RTVSPost2010Prop45
280
     0
102
RTVSPost2010PropOp45
 70
     1
102
RTVSPost2010Prop46
 90
       50
102
RTVSPost2010PropOp46
 70
     1
102
RTVSPost2010Prop47
 90
       50
102
RTVSPost2010PropOp47
 70
     1
102
RTVSPost2010Prop48
 90
       50
102
RTVSPost2010PropOp48
 70
     1
102
RTVSPost2010Prop49
280
     0
102
RTVSPost2010PropOp49
 70
     1
102
RTVSPost2010Prop50
 90
       50
102
RTVSPost2010PropOp50
 70
     1
102
RTVSPost2010Prop51ColorIndex
 90
      256
102
RTVSPost2010Prop51ColorRGB
 90
-16777216
102
RTVSPost2010PropOp51
 70
     0
102
RTVSPost2010Prop52
140
1.0
102
RTVSPost2010PropOp52
 70
     0
102
RTVSPost2010Prop53
 90
        2
102
RTVSPost2010PropOp53
 70
     1
102
RTVSPost2010Prop54
  1
strokes_ogs.tif
102
RTVSPost2010PropOp54
 70
     1
102
RTVSPost2010Prop55
280
     0
102
RTVSPost2010PropOp55
 70
     1
102
RTVSPost2010Prop56
140
1.0
102
RTVSPost2010PropOp56
 70
     1
102
RTVSPost2010Prop57
140
1.0
102
RTVSPost2010PropOp57
 70
     1
  0
XRECORD
  5
3A4
102
{ACAD_REACTORS
330
3A3
102
}
330
3A3
100
AcDbXrecord
280
     1
102
RTVSPost2010Prop28
280
     0
102
RTVSPost2010PropOp28
 70
     1
102
RTVSPost2010Prop29
280
     1
102
RTVSPost2010PropOp29
 70
     1
102
RTVSPost2010Prop30
280
     1
102
RTVSPost2010PropOp30
 70
     1
102
RTVSPost2010Prop31
280
     0
102
RTVSPost2010PropOp31
 70
     1
102
RTVSPost2010Prop32
280
     0
102
RTVSPost2010PropOp32
 70
     1
102
RTVSPost2010Prop33
280
     0
102
RTVSPost2010PropOp33
 70
     1
102
RTVSPost2010Prop34
280
     0
102
RTVSPost2010PropOp34
 70
     1
102
RTVSPost2010Prop35
280
     0
102
RTVSPost2010PropOp35
 70
     1
102
RTVSPost2010Prop36
280
     0
102
RTVSPost2010PropOp36
 70
     1
102
RTVSPost2010Prop37
 90
       50
102
RTVSPost2010PropOp37
 70
     1
102
RTVSPost2010Prop38
140
0.0
102
RTVSPost2010PropOp38
 70
     1
102
RTVSPost2010Prop39
140
1.0
102
RTVSPost2010PropOp39
 70
     1
102
RTVSPost2010Prop40
 90
        0
102
RTVSPost2010PropOp40
 70
     1
102
RTVSPost2010Prop41ColorIndex
 90
       18
102
RTVSPost2010Prop41ColorRGB
 90
        0
102
RTVSPost2010PropOp41
 70
     1
102
RTVSPost2010Prop42
 90
       50
102
RTVSPost2010PropOp42
 70
     1
102
RTVSPost2010Prop43
 90
        3
102
RTVSPost2010PropOp43
 70
     1
102
RTVSPost2010Prop44ColorIndex
 90
        5
102
RTVSPost2010Prop44ColorRGB
 90
      255
102
RTVSPost2010PropOp44
 70
     1
102
RTVSPost2010Prop45
280
     0
102
RTVSPost2010PropOp45
 70
     1
102
RTVSPost2010Prop46
 90
       50
102
RTVSPost2010PropOp46
 70
     1
102
RTVSPost2010Prop47
 90
       50
102
RTVSPost2010PropOp47
 70
     1
102
RTVSPost2010Prop48
 90
       50
102
RTVSPost2010PropOp48
 70
     1
102
RTVSPost2010Prop49
280
     0
102
RTVSPost2010PropOp49
 70
     1
102
RTVSPost2010Prop50
 90
       50
102
RTVSPost2010PropOp50
 70
     1
102
RTVSPost2010Prop51ColorIndex
 90
      256
102
RTVSPost2010Prop51ColorRGB
 90
-16777216
102
RTVSPost2010PropOp51
 70
     0
102
RTVSPost2010Prop52
140
1.0
102
RTVSPost2010PropOp52
 70
     0
102
RTVSPost2010Prop53
 90
        2
102
RTVSPost2010PropOp53
 70
     1
102
RTVSPost2010Prop54
  1
strokes_ogs.tif
102
RTVSPost2010PropOp54
 70
     1
102
RTVSPost2010Prop55
280
     0
102
RTVSPost2010PropOp55
 70
     1
102
RTVSPost2010Prop56
140
1.0
102
RTVSPost2010PropOp56
 70
     1
102
RTVSPost2010Prop57
140
1.0
102
RTVSPost2010PropOp57
 70
     1
  0
XRECORD
  5
3AC
102
{ACAD_REACTORS
330
3AB
102
}
330
3AB
100
AcDbXrecord
280
     1
102
RTVSPost2010Prop28
280
     0
102
RTVSPost2010PropOp28
 70
     1
102
RTVSPost2010Prop29
280
     1
102
RTVSPost2010PropOp29
 70
     1
102
RTVSPost2010Prop30
280
     1
102
RTVSPost2010PropOp30
 70
     1
102
RTVSPost2010Prop31
280
     0
102
RTVSPost2010PropOp31
 70
     1
102
RTVSPost2010Prop32
280
     0
102
RTVSPost2010PropOp32
 70
     1
102
RTVSPost2010Prop33
280
     0
102
RTVSPost2010PropOp33
 70
     1
102
RTVSPost2010Prop34
280
     0
102
RTVSPost2010PropOp34
 70
     1
102
RTVSPost2010Prop35
280
     0
102
RTVSPost2010PropOp35
 70
     1
102
RTVSPost2010Prop36
280
     0
102
RTVSPost2010PropOp36
 70
     1
102
RTVSPost2010Prop37
 90
       50
102
RTVSPost2010PropOp37
 70
     1
102
RTVSPost2010Prop38
140
0.0
102
RTVSPost2010PropOp38
 70
     1
102
RTVSPost2010Prop39
140
1.0
102
RTVSPost2010PropOp39
 70
     1
102
RTVSPost2010Prop40
 90
        0
102
RTVSPost2010PropOp40
 70
     1
102
RTVSPost2010Prop41ColorIndex
 90
       18
102
RTVSPost2010Prop41ColorRGB
 90
        0
102
RTVSPost2010PropOp41
 70
     1
102
RTVSPost2010Prop42
 90
       50
102
RTVSPost2010PropOp42
 70
     1
102
RTVSPost2010Prop43
 90
        3
102
RTVSPost2010PropOp43
 70
     1
102
RTVSPost2010Prop44ColorIndex
 90
        5
102
RTVSPost2010Prop44ColorRGB
 90
      255
102
RTVSPost2010PropOp44
 70
     1
102
RTVSPost2010Prop45
280
     0
102
RTVSPost2010PropOp45
 70
     1
102
RTVSPost2010Prop46
 90
       50
102
RTVSPost2010PropOp46
 70
     1
102
RTVSPost2010Prop47
 90
       50
102
RTVSPost2010PropOp47
 70
     1
102
RTVSPost2010Prop48
 90
       50
102
RTVSPost2010PropOp48
 70
     1
102
RTVSPost2010Prop49
280
     0
102
RTVSPost2010PropOp49
 70
     1
102
RTVSPost2010Prop50
 90
       50
102
RTVSPost2010PropOp50
 70
     1
102
RTVSPost2010Prop51ColorIndex
 90
      256
102
RTVSPost2010Prop51ColorRGB
 90
-16777216
102
RTVSPost2010PropOp51
 70
     0
102
RTVSPost2010Prop52
140
1.0
102
RTVSPost2010PropOp52
 70
     0
102
RTVSPost2010Prop53
 90
        2
102
RTVSPost2010PropOp53
 70
     1
102
RTVSPost2010Prop54
  1
strokes_ogs.tif
102
RTVSPost2010PropOp54
 70
     1
102
RTVSPost2010Prop55
280
     0
102
RTVSPost2010PropOp55
 70
     1
102
RTVSPost2010Prop56
140
1.0
102
RTVSPost2010PropOp56
 70
     1
102
RTVSPost2010Prop57
140
1.0
102
RTVSPost2010PropOp57
 70
     1
  0
XRECORD
  5
3A0
102
{ACAD_REACTORS
330
39F
102
}
330
39F
100
AcDbXrecord
280
     1
102
RTVSPost2010Prop28
280
     0
102
RTVSPost2010PropOp28
 70
     1
102
RTVSPost2010Prop29
280
     1
102
RTVSPost2010PropOp29
 70
     1
102
RTVSPost2010Prop30
280
     1
102
RTVSPost2010PropOp30
 70
     1
102
RTVSPost2010Prop31
280
     0
102
RTVSPost2010PropOp31
 70
     1
102
RTVSPost2010Prop32
280
     0
102
RTVSPost2010PropOp32
 70
     1
102
RTVSPost2010Prop33
280
     0
102
RTVSPost2010PropOp33
 70
     1
102
RTVSPost2010Prop34
280
     0
102
RTVSPost2010PropOp34
 70
     1
102
RTVSPost2010Prop35
280
     0
102
RTVSPost2010PropOp35
 70
     1
102
RTVSPost2010Prop36
280
     0
102
RTVSPost2010PropOp36
 70
     1
102
RTVSPost2010Prop37
 90
       50
102
RTVSPost2010PropOp37
 70
     1
102
RTVSPost2010Prop38
140
0.0
102
RTVSPost2010PropOp38
 70
     1
102
RTVSPost2010Prop39
140
1.0
102
RTVSPost2010PropOp39
 70
     1
102
RTVSPost2010Prop40
 90
        0
102
RTVSPost2010PropOp40
 70
     1
102
RTVSPost2010Prop41ColorIndex
 90
       18
102
RTVSPost2010Prop41ColorRGB
 90
        0
102
RTVSPost2010PropOp41
 70
     1
102
RTVSPost2010Prop42
 90
       50
102
RTVSPost2010PropOp42
 70
     1
102
RTVSPost2010Prop43
 90
        3
102
RTVSPost2010PropOp43
 70
     1
102
RTVSPost2010Prop44ColorIndex
 90
        5
102
RTVSPost2010Prop44ColorRGB
 90
      255
102
RTVSPost2010PropOp44
 70
     1
102
RTVSPost2010Prop45
280
     0
102
RTVSPost2010PropOp45
 70
     1
102
RTVSPost2010Prop46
 90
       50
102
RTVSPost2010PropOp46
 70
     1
102
RTVSPost2010Prop47
 90
       50
102
RTVSPost2010PropOp47
 70
     1
102
RTVSPost2010Prop48
 90
       50
102
RTVSPost2010PropOp48
 70
     1
102
RTVSPost2010Prop49
280
     0
102
RTVSPost2010PropOp49
 70
     1
102
RTVSPost2010Prop50
 90
       50
102
RTVSPost2010PropOp50
 70
     1
102
RTVSPost2010Prop51ColorIndex
 90
      256
102
RTVSPost2010Prop51ColorRGB
 90
-16777216
102
RTVSPost2010PropOp51
 70
     0
102
RTVSPost2010Prop52
140
1.0
102
RTVSPost2010PropOp52
 70
     0
102
RTVSPost2010Prop53
 90
        2
102
RTVSPost2010PropOp53
 70
     1
102
RTVSPost2010Prop54
  1
strokes_ogs.tif
102
RTVSPost2010PropOp54
 70
     1
102
RTVSPost2010Prop55
280
     0
102
RTVSPost2010PropOp55
 70
     1
102
RTVSPost2010Prop56
140
1.0
102
RTVSPost2010PropOp56
 70
     1
102
RTVSPost2010Prop57
140
1.0
102
RTVSPost2010PropOp57
 70
     1
  0
XRECORD
  5
3A2
102
{ACAD_REACTORS
330
3A1
102
}
330
3A1
100
AcDbXrecord
280
     1
102
RTVSPost2010Prop28
280
     0
102
RTVSPost2010PropOp28
 70
     1
102
RTVSPost2010Prop29
280
     1
102
RTVSPost2010PropOp29
 70
     1
102
RTVSPost2010Prop30
280
     1
102
RTVSPost2010PropOp30
 70
     1
102
RTVSPost2010Prop31
280
     0
102
RTVSPost2010PropOp31
 70
     1
102
RTVSPost2010Prop32
280
     0
102
RTVSPost2010PropOp32
 70
     1
102
RTVSPost2010Prop33
280
     0
102
RTVSPost2010PropOp33
 70
     1
102
RTVSPost2010Prop34
280
     0
102
RTVSPost2010PropOp34
 70
     1
102
RTVSPost2010Prop35
280
     0
102
RTVSPost2010PropOp35
 70
     1
102
RTVSPost2010Prop36
280
     0
102
RTVSPost2010PropOp36
 70
     1
102
RTVSPost2010Prop37
 90
       50
102
RTVSPost2010PropOp37
 70
     1
102
RTVSPost2010Prop38
140
0.0
102
RTVSPost2010PropOp38
 70
     1
102
RTVSPost2010Prop39
140
1.0
102
RTVSPost2010PropOp39
 70
     1
102
RTVSPost2010Prop40
 90
        0
102
RTVSPost2010PropOp40
 70
     1
102
RTVSPost2010Prop41ColorIndex
 90
       18
102
RTVSPost2010Prop41ColorRGB
 90
        0
102
RTVSPost2010PropOp41
 70
     1
102
RTVSPost2010Prop42
 90
       50
102
RTVSPost2010PropOp42
 70
     1
102
RTVSPost2010Prop43
 90
        3
102
RTVSPost2010PropOp43
 70
     1
102
RTVSPost2010Prop44ColorIndex
 90
        5
102
RTVSPost2010Prop44ColorRGB
 90
      255
102
RTVSPost2010PropOp44
 70
     1
102
RTVSPost2010Prop45
280
     0
102
RTVSPost2010PropOp45
 70
     1
102
RTVSPost2010Prop46
 90
       50
102
RTVSPost2010PropOp46
 70
     1
102
RTVSPost2010Prop47
 90
       50
102
RTVSPost2010PropOp47
 70
     1
102
RTVSPost2010Prop48
 90
       50
102
RTVSPost2010PropOp48
 70
     1
102
RTVSPost2010Prop49
280
     0
102
RTVSPost2010PropOp49
 70
     1
102
RTVSPost2010Prop50
 90
       50
102
RTVSPost2010PropOp50
 70
     1
102
RTVSPost2010Prop51ColorIndex
 90
      256
102
RTVSPost2010Prop51ColorRGB
 90
-16777216
102
RTVSPost2010PropOp51
 70
     0
102
RTVSPost2010Prop52
140
1.0
102
RTVSPost2010PropOp52
 70
     0
102
RTVSPost2010Prop53
 90
        2
102
RTVSPost2010PropOp53
 70
     1
102
RTVSPost2010Prop54
  1
strokes_ogs.tif
102
RTVSPost2010PropOp54
 70
     1
102
RTVSPost2010Prop55
280
     0
102
RTVSPost2010PropOp55
 70
     1
102
RTVSPost2010Prop56
140
1.0
102
RTVSPost2010PropOp56
 70
     1
102
RTVSPost2010Prop57
140
1.0
102
RTVSPost2010PropOp57
 70
     1
  0
XRECORD
  5
3B2
102
{ACAD_REACTORS
330
3B1
102
}
330
3B1
100
AcDbXrecord
280
     1
102
RTVSPost2010Prop28
280
     0
102
RTVSPost2010PropOp28
 70
     0
102
RTVSPost2010Prop29
280
     1
102
RTVSPost2010PropOp29
 70
     0
102
RTVSPost2010Prop30
280
     1
102
RTVSPost2010PropOp30
 70
     0
102
RTVSPost2010Prop31
280
     0
102
RTVSPost2010PropOp31
 70
     0
102
RTVSPost2010Prop32
280
     0
102
RTVSPost2010PropOp32
 70
     0
102
RTVSPost2010Prop33
280
     0
102
RTVSPost2010PropOp33
 70
     0
102
RTVSPost2010Prop34
280
     0
102
RTVSPost2010PropOp34
 70
     0
102
RTVSPost2010Prop35
280
     0
102
RTVSPost2010PropOp35
 70
     0
102
RTVSPost2010Prop36
280
     0
102
RTVSPost2010PropOp36
 70
     0
102
RTVSPost2010Prop37
 90
       50
102
RTVSPost2010PropOp37
 70
     0
102
RTVSPost2010Prop38
140
0.0
102
RTVSPost2010PropOp38
 70
     0
102
RTVSPost2010Prop39
140
1.0
102
RTVSPost2010PropOp39
 70
     0
102
RTVSPost2010Prop40
 90
        0
102
RTVSPost2010PropOp40
 70
     0
102
RTVSPost2010Prop41ColorIndex
 90
       18
102
RTVSPost2010Prop41ColorRGB
 90
        0
102
RTVSPost2010PropOp41
 70
     0
102
RTVSPost2010Prop42
 90
       50
102
RTVSPost2010PropOp42
 70
     0
102
RTVSPost2010Prop43
 90
        3
102
RTVSPost2010PropOp43
 70
     0
102
RTVSPost2010Prop44ColorIndex
 90
        5
102
RTVSPost2010Prop44ColorRGB
 90
      255
102
RTVSPost2010PropOp44
 70
     0
102
RTVSPost2010Prop45
280
     0
102
RTVSPost2010PropOp45
 70
     0
102
RTVSPost2010Prop46
 90
       50
102
RTVSPost2010PropOp46
 70
     0
102
RTVSPost2010Prop47
 90
       50
102
RTVSPost2010PropOp47
 70
     0
102
RTVSPost2010Prop48
 90
       50
102
RTVSPost2010PropOp48
 70
     0
102
RTVSPost2010Prop49
280
     0
102
RTVSPost2010PropOp49
 70
     0
102
RTVSPost2010Prop50
 90
       50
102
RTVSPost2010PropOp50
 70
     0
102
RTVSPost2010Prop51ColorIndex
 90
      256
102
RTVSPost2010Prop51ColorRGB
 90
-16777216
102
RTVSPost2010PropOp51
 70
     0
102
RTVSPost2010Prop52
140
1.0
102
RTVSPost2010PropOp52
 70
     0
102
RTVSPost2010Prop53
 90
        2
102
RTVSPost2010PropOp53
 70
     0
102
RTVSPost2010Prop54
  1
strokes_ogs.tif
102
RTVSPost2010PropOp54
 70
     0
102
RTVSPost2010Prop55
280
     0
102
RTVSPost2010PropOp55
 70
     0
102
RTVSPost2010Prop56
140
1.0
102
RTVSPost2010PropOp56
 70
     0
102
RTVSPost2010Prop57
140
1.0
102
RTVSPost2010PropOp57
 70
     0
  0
XRECORD
  5
3AA
102
{ACAD_REACTORS
330
3A9
102
}
330
3A9
100
AcDbXrecord
280
     1
102
RTVSPost2010Prop28
280
     0
102
RTVSPost2010PropOp28
 70
     1
102
RTVSPost2010Prop29
280
     1
102
RTVSPost2010PropOp29
 70
     1
102
RTVSPost2010Prop30
280
     1
102
RTVSPost2010PropOp30
 70
     1
102
RTVSPost2010Prop31
280
     0
102
RTVSPost2010PropOp31
 70
     1
102
RTVSPost2010Prop32
280
     0
102
RTVSPost2010PropOp32
 70
     1
102
RTVSPost2010Prop33
280
     0
102
RTVSPost2010PropOp33
 70
     1
102
RTVSPost2010Prop34
280
     0
102
RTVSPost2010PropOp34
 70
     1
102
RTVSPost2010Prop35
280
     0
102
RTVSPost2010PropOp35
 70
     1
102
RTVSPost2010Prop36
280
     0
102
RTVSPost2010PropOp36
 70
     1
102
RTVSPost2010Prop37
 90
       50
102
RTVSPost2010PropOp37
 70
     1
102
RTVSPost2010Prop38
140
0.0
102
RTVSPost2010PropOp38
 70
     1
102
RTVSPost2010Prop39
140
1.0
102
RTVSPost2010PropOp39
 70
     1
102
RTVSPost2010Prop40
 90
        0
102
RTVSPost2010PropOp40
 70
     1
102
RTVSPost2010Prop41ColorIndex
 90
       18
102
RTVSPost2010Prop41ColorRGB
 90
        0
102
RTVSPost2010PropOp41
 70
     1
102
RTVSPost2010Prop42
 90
       50
102
RTVSPost2010PropOp42
 70
     1
102
RTVSPost2010Prop43
 90
        3
102
RTVSPost2010PropOp43
 70
     1
102
RTVSPost2010Prop44ColorIndex
 90
        5
102
RTVSPost2010Prop44ColorRGB
 90
      255
102
RTVSPost2010PropOp44
 70
     1
102
RTVSPost2010Prop45
280
     0
102
RTVSPost2010PropOp45
 70
     1
102
RTVSPost2010Prop46
 90
       50
102
RTVSPost2010PropOp46
 70
     1
102
RTVSPost2010Prop47
 90
       50
102
RTVSPost2010PropOp47
 70
     1
102
RTVSPost2010Prop48
 90
       50
102
RTVSPost2010PropOp48
 70
     1
102
RTVSPost2010Prop49
280
     0
102
RTVSPost2010PropOp49
 70
     1
102
RTVSPost2010Prop50
 90
       50
102
RTVSPost2010PropOp50
 70
     1
102
RTVSPost2010Prop51ColorIndex
 90
      256
102
RTVSPost2010Prop51ColorRGB
 90
-16777216
102
RTVSPost2010PropOp51
 70
     0
102
RTVSPost2010Prop52
140
1.0
102
RTVSPost2010PropOp52
 70
     0
102
RTVSPost2010Prop53
 90
        2
102
RTVSPost2010PropOp53
 70
     1
102
RTVSPost2010Prop54
  1
strokes_ogs.tif
102
RTVSPost2010PropOp54
 70
     1
102
RTVSPost2010Prop55
280
     0
102
RTVSPost2010PropOp55
 70
     1
102
RTVSPost2010Prop56
140
1.0
102
RTVSPost2010PropOp56
 70
     1
102
RTVSPost2010Prop57
140
1.0
102
RTVSPost2010PropOp57
 70
     1
  0
XRECORD
  5
38E
102
{ACAD_REACTORS
330
38D
102
}
330
38D
100
AcDbXrecord
280
     1
102
RTVSPost2010Prop28
280
     0
102
RTVSPost2010PropOp28
 70
     1
102
RTVSPost2010Prop29
280
     1
102
RTVSPost2010PropOp29
 70
     1
102
RTVSPost2010Prop30
280
     1
102
RTVSPost2010PropOp30
 70
     1
102
RTVSPost2010Prop31
280
     0
102
RTVSPost2010PropOp31
 70
     1
102
RTVSPost2010Prop32
280
     0
102
RTVSPost2010PropOp32
 70
     1
102
RTVSPost2010Prop33
280
     0
102
RTVSPost2010PropOp33
 70
     1
102
RTVSPost2010Prop34
280
     0
102
RTVSPost2010PropOp34
 70
     1
102
RTVSPost2010Prop35
280
     0
102
RTVSPost2010PropOp35
 70
     1
102
RTVSPost2010Prop36
280
     0
102
RTVSPost2010PropOp36
 70
     1
102
RTVSPost2010Prop37
 90
       50
102
RTVSPost2010PropOp37
 70
     1
102
RTVSPost2010Prop38
140
0.0
102
RTVSPost2010PropOp38
 70
     1
102
RTVSPost2010Prop39
140
1.0
102
RTVSPost2010PropOp39
 70
     1
102
RTVSPost2010Prop40
 90
        0
102
RTVSPost2010PropOp40
 70
     1
102
RTVSPost2010Prop41ColorIndex
 90
       18
102
RTVSPost2010Prop41ColorRGB
 90
        0
102
RTVSPost2010PropOp41
 70
     1
102
RTVSPost2010Prop42
 90
       50
102
RTVSPost2010PropOp42
 70
     1
102
RTVSPost2010Prop43
 90
        3
102
RTVSPost2010PropOp43
 70
     1
102
RTVSPost2010Prop44ColorIndex
 90
        5
102
RTVSPost2010Prop44ColorRGB
 90
      255
102
RTVSPost2010PropOp44
 70
     1
102
RTVSPost2010Prop45
280
     0
102
RTVSPost2010PropOp45
 70
     1
102
RTVSPost2010Prop46
 90
       50
102
RTVSPost2010PropOp46
 70
     1
102
RTVSPost2010Prop47
 90
       50
102
RTVSPost2010PropOp47
 70
     1
102
RTVSPost2010Prop48
 90
       50
102
RTVSPost2010PropOp48
 70
     1
102
RTVSPost2010Prop49
280
     0
102
RTVSPost2010PropOp49
 70
     1
102
RTVSPost2010Prop50
 90
       50
102
RTVSPost2010PropOp50
 70
     1
102
RTVSPost2010Prop51ColorIndex
 90
      256
102
RTVSPost2010Prop51ColorRGB
 90
-16777216
102
RTVSPost2010PropOp51
 70
     0
102
RTVSPost2010Prop52
140
1.0
102
RTVSPost2010PropOp52
 70
     0
102
RTVSPost2010Prop53
 90
        2
102
RTVSPost2010PropOp53
 70
     1
102
RTVSPost2010Prop54
  1
strokes_ogs.tif
102
RTVSPost2010PropOp54
 70
     1
102
RTVSPost2010Prop55
280
     0
102
RTVSPost2010PropOp55
 70
     1
102
RTVSPost2010Prop56
140
1.0
102
RTVSPost2010PropOp56
 70
     1
102
RTVSPost2010Prop57
140
1.0
102
RTVSPost2010PropOp57
 70
     1
  0
XRECORD
  5
390
102
{ACAD_REACTORS
330
38F
102
}
330
38F
100
AcDbXrecord
280
     1
102
RTVSPost2010Prop28
280
     0
102
RTVSPost2010PropOp28
 70
     1
102
RTVSPost2010Prop29
280
     1
102
RTVSPost2010PropOp29
 70
     1
102
RTVSPost2010Prop30
280
     1
102
RTVSPost2010PropOp30
 70
     1
102
RTVSPost2010Prop31
280
     0
102
RTVSPost2010PropOp31
 70
     1
102
RTVSPost2010Prop32
280
     0
102
RTVSPost2010PropOp32
 70
     1
102
RTVSPost2010Prop33
280
     0
102
RTVSPost2010PropOp33
 70
     1
102
RTVSPost2010Prop34
280
     0
102
RTVSPost2010PropOp34
 70
     1
102
RTVSPost2010Prop35
280
     0
102
RTVSPost2010PropOp35
 70
     1
102
RTVSPost2010Prop36
280
     0
102
RTVSPost2010PropOp36
 70
     1
102
RTVSPost2010Prop37
 90
       50
102
RTVSPost2010PropOp37
 70
     1
102
RTVSPost2010Prop38
140
0.0
102
RTVSPost2010PropOp38
 70
     1
102
RTVSPost2010Prop39
140
1.0
102
RTVSPost2010PropOp39
 70
     1
102
RTVSPost2010Prop40
 90
        0
102
RTVSPost2010PropOp40
 70
     1
102
RTVSPost2010Prop41ColorIndex
 90
       18
102
RTVSPost2010Prop41ColorRGB
 90
        0
102
RTVSPost2010PropOp41
 70
     1
102
RTVSPost2010Prop42
 90
       50
102
RTVSPost2010PropOp42
 70
     1
102
RTVSPost2010Prop43
 90
        3
102
RTVSPost2010PropOp43
 70
     1
102
RTVSPost2010Prop44ColorIndex
 90
        5
102
RTVSPost2010Prop44ColorRGB
 90
      255
102
RTVSPost2010PropOp44
 70
     1
102
RTVSPost2010Prop45
280
     0
102
RTVSPost2010PropOp45
 70
     1
102
RTVSPost2010Prop46
 90
       50
102
RTVSPost2010PropOp46
 70
     1
102
RTVSPost2010Prop47
 90
       50
102
RTVSPost2010PropOp47
 70
     1
102
RTVSPost2010Prop48
 90
       50
102
RTVSPost2010PropOp48
 70
     1
102
RTVSPost2010Prop49
280
     0
102
RTVSPost2010PropOp49
 70
     1
102
RTVSPost2010Prop50
 90
       50
102
RTVSPost2010PropOp50
 70
     1
102
RTVSPost2010Prop51ColorIndex
 90
      256
102
RTVSPost2010Prop51ColorRGB
 90
-16777216
102
RTVSPost2010PropOp51
 70
     0
102
RTVSPost2010Prop52
140
1.0
102
RTVSPost2010PropOp52
 70
     0
102
RTVSPost2010Prop53
 90
        2
102
RTVSPost2010PropOp53
 70
     1
102
RTVSPost2010Prop54
  1
strokes_ogs.tif
102
RTVSPost2010PropOp54
 70
     1
102
RTVSPost2010Prop55
280
     0
102
RTVSPost2010PropOp55
 70
     1
102
RTVSPost2010Prop56
140
1.0
102
RTVSPost2010PropOp56
 70
     1
102
RTVSPost2010Prop57
140
1.0
102
RTVSPost2010PropOp57
 70
     1
  0
XRECORD
  5
392
102
{ACAD_REACTORS
330
391
102
}
330
391
100
AcDbXrecord
280
     1
102
RTVSPost2010Prop28
280
     0
102
RTVSPost2010PropOp28
 70
     1
102
RTVSPost2010Prop29
280
     1
102
RTVSPost2010PropOp29
 70
     1
102
RTVSPost2010Prop30
280
     1
102
RTVSPost2010PropOp30
 70
     1
102
RTVSPost2010Prop31
280
     0
102
RTVSPost2010PropOp31
 70
     1
102
RTVSPost2010Prop32
280
     0
102
RTVSPost2010PropOp32
 70
     1
102
RTVSPost2010Prop33
280
     0
102
RTVSPost2010PropOp33
 70
     1
102
RTVSPost2010Prop34
280
     0
102
RTVSPost2010PropOp34
 70
     1
102
RTVSPost2010Prop35
280
     0
102
RTVSPost2010PropOp35
 70
     1
102
RTVSPost2010Prop36
280
     0
102
RTVSPost2010PropOp36
 70
     1
102
RTVSPost2010Prop37
 90
       50
102
RTVSPost2010PropOp37
 70
     1
102
RTVSPost2010Prop38
140
0.0
102
RTVSPost2010PropOp38
 70
     1
102
RTVSPost2010Prop39
140
1.0
102
RTVSPost2010PropOp39
 70
     1
102
RTVSPost2010Prop40
 90
        0
102
RTVSPost2010PropOp40
 70
     1
102
RTVSPost2010Prop41ColorIndex
 90
       18
102
RTVSPost2010Prop41ColorRGB
 90
        0
102
RTVSPost2010PropOp41
 70
     1
102
RTVSPost2010Prop42
 90
       50
102
RTVSPost2010PropOp42
 70
     1
102
RTVSPost2010Prop43
 90
        3
102
RTVSPost2010PropOp43
 70
     1
102
RTVSPost2010Prop44ColorIndex
 90
        5
102
RTVSPost2010Prop44ColorRGB
 90
      255
102
RTVSPost2010PropOp44
 70
     1
102
RTVSPost2010Prop45
280
     0
102
RTVSPost2010PropOp45
 70
     1
102
RTVSPost2010Prop46
 90
       50
102
RTVSPost2010PropOp46
 70
     1
102
RTVSPost2010Prop47
 90
       50
102
RTVSPost2010PropOp47
 70
     1
102
RTVSPost2010Prop48
 90
       50
102
RTVSPost2010PropOp48
 70
     1
102
RTVSPost2010Prop49
280
     0
102
RTVSPost2010PropOp49
 70
     1
102
RTVSPost2010Prop50
 90
       50
102
RTVSPost2010PropOp50
 70
     1
102
RTVSPost2010Prop51ColorIndex
 90
      256
102
RTVSPost2010Prop51ColorRGB
 90
-16777216
102
RTVSPost2010PropOp51
 70
     0
102
RTVSPost2010Prop52
140
1.0
102
RTVSPost2010PropOp52
 70
     0
102
RTVSPost2010Prop53
 90
        2
102
RTVSPost2010PropOp53
 70
     1
102
RTVSPost2010Prop54
  1
strokes_ogs.tif
102
RTVSPost2010PropOp54
 70
     1
102
RTVSPost2010Prop55
280
     0
102
RTVSPost2010PropOp55
 70
     1
102
RTVSPost2010Prop56
140
1.0
102
RTVSPost2010PropOp56
 70
     1
102
RTVSPost2010Prop57
140
1.0
102
RTVSPost2010PropOp57
 70
     1
  0
XRECORD
  5
394
102
{ACAD_REACTORS
330
393
102
}
330
393
100
AcDbXrecord
280
     1
102
RTVSPost2010Prop28
280
     0
102
RTVSPost2010PropOp28
 70
     1
102
RTVSPost2010Prop29
280
     1
102
RTVSPost2010PropOp29
 70
     1
102
RTVSPost2010Prop30
280
     1
102
RTVSPost2010PropOp30
 70
     1
102
RTVSPost2010Prop31
280
     0
102
RTVSPost2010PropOp31
 70
     1
102
RTVSPost2010Prop32
280
     0
102
RTVSPost2010PropOp32
 70
     1
102
RTVSPost2010Prop33
280
     0
102
RTVSPost2010PropOp33
 70
     1
102
RTVSPost2010Prop34
280
     0
102
RTVSPost2010PropOp34
 70
     1
102
RTVSPost2010Prop35
280
     0
102
RTVSPost2010PropOp35
 70
     1
102
RTVSPost2010Prop36
280
     0
102
RTVSPost2010PropOp36
 70
     1
102
RTVSPost2010Prop37
 90
       50
102
RTVSPost2010PropOp37
 70
     1
102
RTVSPost2010Prop38
140
0.0
102
RTVSPost2010PropOp38
 70
     1
102
RTVSPost2010Prop39
140
1.0
102
RTVSPost2010PropOp39
 70
     1
102
RTVSPost2010Prop40
 90
        0
102
RTVSPost2010PropOp40
 70
     1
102
RTVSPost2010Prop41ColorIndex
 90
       18
102
RTVSPost2010Prop41ColorRGB
 90
        0
102
RTVSPost2010PropOp41
 70
     1
102
RTVSPost2010Prop42
 90
       50
102
RTVSPost2010PropOp42
 70
     1
102
RTVSPost2010Prop43
 90
        3
102
RTVSPost2010PropOp43
 70
     1
102
RTVSPost2010Prop44ColorIndex
 90
        5
102
RTVSPost2010Prop44ColorRGB
 90
      255
102
RTVSPost2010PropOp44
 70
     1
102
RTVSPost2010Prop45
280
     0
102
RTVSPost2010PropOp45
 70
     1
102
RTVSPost2010Prop46
 90
       50
102
RTVSPost2010PropOp46
 70
     1
102
RTVSPost2010Prop47
 90
       50
102
RTVSPost2010PropOp47
 70
     1
102
RTVSPost2010Prop48
 90
       50
102
RTVSPost2010PropOp48
 70
     1
102
RTVSPost2010Prop49
280
     0
102
RTVSPost2010PropOp49
 70
     1
102
RTVSPost2010Prop50
 90
       50
102
RTVSPost2010PropOp50
 70
     1
102
RTVSPost2010Prop51ColorIndex
 90
      256
102
RTVSPost2010Prop51ColorRGB
 90
-16777216
102
RTVSPost2010PropOp51
 70
     0
102
RTVSPost2010Prop52
140
1.0
102
RTVSPost2010PropOp52
 70
     0
102
RTVSPost2010Prop53
 90
        2
102
RTVSPost2010PropOp53
 70
     1
102
RTVSPost2010Prop54
  1
strokes_ogs.tif
102
RTVSPost2010PropOp54
 70
     1
102
RTVSPost2010Prop55
280
     0
102
RTVSPost2010PropOp55
 70
     1
102
RTVSPost2010Prop56
140
1.0
102
RTVSPost2010PropOp56
 70
     1
102
RTVSPost2010Prop57
140
1.0
102
RTVSPost2010PropOp57
 70
     1
  0
XRECORD
  5
39A
102
{ACAD_REACTORS
330
399
102
}
330
399
100
AcDbXrecord
280
     1
102
RTVSPost2010Prop28
280
     0
102
RTVSPost2010PropOp28
 70
     1
102
RTVSPost2010Prop29
280
     1
102
RTVSPost2010PropOp29
 70
     1
102
RTVSPost2010Prop30
280
     1
102
RTVSPost2010PropOp30
 70
     1
102
RTVSPost2010Prop31
280
     0
102
RTVSPost2010PropOp31
 70
     1
102
RTVSPost2010Prop32
280
     0
102
RTVSPost2010PropOp32
 70
     1
102
RTVSPost2010Prop33
280
     0
102
RTVSPost2010PropOp33
 70
     1
102
RTVSPost2010Prop34
280
     0
102
RTVSPost2010PropOp34
 70
     1
102
RTVSPost2010Prop35
280
     0
102
RTVSPost2010PropOp35
 70
     1
102
RTVSPost2010Prop36
280
     0
102
RTVSPost2010PropOp36
 70
     1
102
RTVSPost2010Prop37
 90
       50
102
RTVSPost2010PropOp37
 70
     1
102
RTVSPost2010Prop38
140
0.0
102
RTVSPost2010PropOp38
 70
     1
102
RTVSPost2010Prop39
140
1.0
102
RTVSPost2010PropOp39
 70
     1
102
RTVSPost2010Prop40
 90
        0
102
RTVSPost2010PropOp40
 70
     1
102
RTVSPost2010Prop41ColorIndex
 90
       18
102
RTVSPost2010Prop41ColorRGB
 90
        0
102
RTVSPost2010PropOp41
 70
     1
102
RTVSPost2010Prop42
 90
       50
102
RTVSPost2010PropOp42
 70
     1
102
RTVSPost2010Prop43
 90
        3
102
RTVSPost2010PropOp43
 70
     1
102
RTVSPost2010Prop44ColorIndex
 90
        5
102
RTVSPost2010Prop44ColorRGB
 90
      255
102
RTVSPost2010PropOp44
 70
     1
102
RTVSPost2010Prop45
280
     0
102
RTVSPost2010PropOp45
 70
     1
102
RTVSPost2010Prop46
 90
       50
102
RTVSPost2010PropOp46
 70
     1
102
RTVSPost2010Prop47
 90
       50
102
RTVSPost2010PropOp47
 70
     1
102
RTVSPost2010Prop48
 90
       50
102
RTVSPost2010PropOp48
 70
     1
102
RTVSPost2010Prop49
280
     0
102
RTVSPost2010PropOp49
 70
     1
102
RTVSPost2010Prop50
 90
       50
102
RTVSPost2010PropOp50
 70
     1
102
RTVSPost2010Prop51ColorIndex
 90
      256
102
RTVSPost2010Prop51ColorRGB
 90
-16777216
102
RTVSPost2010PropOp51
 70
     0
102
RTVSPost2010Prop52
140
1.0
102
RTVSPost2010PropOp52
 70
     0
102
RTVSPost2010Prop53
 90
        2
102
RTVSPost2010PropOp53
 70
     1
102
RTVSPost2010Prop54
  1
strokes_ogs.tif
102
RTVSPost2010PropOp54
 70
     1
102
RTVSPost2010Prop55
280
     0
102
RTVSPost2010PropOp55
 70
     1
102
RTVSPost2010Prop56
140
1.0
102
RTVSPost2010PropOp56
 70
     1
102
RTVSPost2010Prop57
140
1.0
102
RTVSPost2010PropOp57
 70
     1
  0
XRECORD
  5
3AE
102
{ACAD_REACTORS
330
3AD
102
}
330
3AD
100
AcDbXrecord
280
     1
102
RTVSPost2010Prop28
280
     0
102
RTVSPost2010PropOp28
 70
     0
102
RTVSPost2010Prop29
280
     1
102
RTVSPost2010PropOp29
 70
     0
102
RTVSPost2010Prop30
280
     1
102
RTVSPost2010PropOp30
 70
     0
102
RTVSPost2010Prop31
280
     0
102
RTVSPost2010PropOp31
 70
     0
102
RTVSPost2010Prop32
280
     0
102
RTVSPost2010PropOp32
 70
     0
102
RTVSPost2010Prop33
280
     0
102
RTVSPost2010PropOp33
 70
     0
102
RTVSPost2010Prop34
280
     0
102
RTVSPost2010PropOp34
 70
     0
102
RTVSPost2010Prop35
280
     0
102
RTVSPost2010PropOp35
 70
     0
102
RTVSPost2010Prop36
280
     0
102
RTVSPost2010PropOp36
 70
     0
102
RTVSPost2010Prop37
 90
       50
102
RTVSPost2010PropOp37
 70
     0
102
RTVSPost2010Prop38
140
0.0
102
RTVSPost2010PropOp38
 70
     0
102
RTVSPost2010Prop39
140
1.0
102
RTVSPost2010PropOp39
 70
     0
102
RTVSPost2010Prop40
 90
        0
102
RTVSPost2010PropOp40
 70
     0
102
RTVSPost2010Prop41ColorIndex
 90
       18
102
RTVSPost2010Prop41ColorRGB
 90
        0
102
RTVSPost2010PropOp41
 70
     0
102
RTVSPost2010Prop42
 90
       50
102
RTVSPost2010PropOp42
 70
     0
102
RTVSPost2010Prop43
 90
        3
102
RTVSPost2010PropOp43
 70
     0
102
RTVSPost2010Prop44ColorIndex
 90
        5
102
RTVSPost2010Prop44ColorRGB
 90
      255
102
RTVSPost2010PropOp44
 70
     0
102
RTVSPost2010Prop45
280
     0
102
RTVSPost2010PropOp45
 70
     0
102
RTVSPost2010Prop46
 90
       50
102
RTVSPost2010PropOp46
 70
     0
102
RTVSPost2010Prop47
 90
       50
102
RTVSPost2010PropOp47
 70
     0
102
RTVSPost2010Prop48
 90
       50
102
RTVSPost2010PropOp48
 70
     0
102
RTVSPost2010Prop49
280
     0
102
RTVSPost2010PropOp49
 70
     0
102
RTVSPost2010Prop50
 90
       50
102
RTVSPost2010PropOp50
 70
     0
102
RTVSPost2010Prop51ColorIndex
 90
      256
102
RTVSPost2010Prop51ColorRGB
 90
-16777216
102
RTVSPost2010PropOp51
 70
     0
102
RTVSPost2010Prop52
140
1.0
102
RTVSPost2010PropOp52
 70
     0
102
RTVSPost2010Prop53
 90
        2
102
RTVSPost2010PropOp53
 70
     0
102
RTVSPost2010Prop54
  1
strokes_ogs.tif
102
RTVSPost2010PropOp54
 70
     0
102
RTVSPost2010Prop55
280
     0
102
RTVSPost2010PropOp55
 70
     0
102
RTVSPost2010Prop56
140
1.0
102
RTVSPost2010PropOp56
 70
     0
102
RTVSPost2010Prop57
140
1.0
102
RTVSPost2010PropOp57
 70
     0
  0
XRECORD
  5
3A8
102
{ACAD_REACTORS
330
3A7
102
}
330
3A7
100
AcDbXrecord
280
     1
102
RTVSPost2010Prop28
280
     0
102
RTVSPost2010PropOp28
 70
     1
102
RTVSPost2010Prop29
280
     1
102
RTVSPost2010PropOp29
 70
     1
102
RTVSPost2010Prop30
280
     1
102
RTVSPost2010PropOp30
 70
     1
102
RTVSPost2010Prop31
280
     0
102
RTVSPost2010PropOp31
 70
     1
102
RTVSPost2010Prop32
280
     0
102
RTVSPost2010PropOp32
 70
     1
102
RTVSPost2010Prop33
280
     0
102
RTVSPost2010PropOp33
 70
     1
102
RTVSPost2010Prop34
280
     0
102
RTVSPost2010PropOp34
 70
     1
102
RTVSPost2010Prop35
280
     0
102
RTVSPost2010PropOp35
 70
     1
102
RTVSPost2010Prop36
280
     0
102
RTVSPost2010PropOp36
 70
     1
102
RTVSPost2010Prop37
 90
       50
102
RTVSPost2010PropOp37
 70
     1
102
RTVSPost2010Prop38
140
0.0
102
RTVSPost2010PropOp38
 70
     1
102
RTVSPost2010Prop39
140
1.0
102
RTVSPost2010PropOp39
 70
     1
102
RTVSPost2010Prop40
 90
        0
102
RTVSPost2010PropOp40
 70
     1
102
RTVSPost2010Prop41ColorIndex
 90
       18
102
RTVSPost2010Prop41ColorRGB
 90
        0
102
RTVSPost2010PropOp41
 70
     1
102
RTVSPost2010Prop42
 90
       50
102
RTVSPost2010PropOp42
 70
     1
102
RTVSPost2010Prop43
 90
        3
102
RTVSPost2010PropOp43
 70
     1
102
RTVSPost2010Prop44ColorIndex
 90
        5
102
RTVSPost2010Prop44ColorRGB
 90
      255
102
RTVSPost2010PropOp44
 70
     1
102
RTVSPost2010Prop45
280
     0
102
RTVSPost2010PropOp45
 70
     1
102
RTVSPost2010Prop46
 90
       50
102
RTVSPost2010PropOp46
 70
     1
102
RTVSPost2010Prop47
 90
       50
102
RTVSPost2010PropOp47
 70
     1
102
RTVSPost2010Prop48
 90
       50
102
RTVSPost2010PropOp48
 70
     1
102
RTVSPost2010Prop49
280
     0
102
RTVSPost2010PropOp49
 70
     1
102
RTVSPost2010Prop50
 90
       50
102
RTVSPost2010PropOp50
 70
     1
102
RTVSPost2010Prop51ColorIndex
 90
      256
102
RTVSPost2010Prop51ColorRGB
 90
-16777216
102
RTVSPost2010PropOp51
 70
     0
102
RTVSPost2010Prop52
140
1.0
102
RTVSPost2010PropOp52
 70
     0
102
RTVSPost2010Prop53
 90
        2
102
RTVSPost2010PropOp53
 70
     1
102
RTVSPost2010Prop54
  1
strokes_ogs.tif
102
RTVSPost2010PropOp54
 70
     1
102
RTVSPost2010Prop55
280
     0
102
RTVSPost2010PropOp55
 70
     1
102
RTVSPost2010Prop56
140
1.0
102
RTVSPost2010PropOp56
 70
     1
102
RTVSPost2010Prop57
140
1.0
102
RTVSPost2010PropOp57
 70
     1
  0
XRECORD
  5
3B0
102
{ACAD_REACTORS
330
3AF
102
}
330
3AF
100
AcDbXrecord
280
     1
102
RTVSPost2010Prop28
280
     0
102
RTVSPost2010PropOp28
 70
     0
102
RTVSPost2010Prop29
280
     1
102
RTVSPost2010PropOp29
 70
     0
102
RTVSPost2010Prop30
280
     1
102
RTVSPost2010PropOp30
 70
     0
102
RTVSPost2010Prop31
280
     0
102
RTVSPost2010PropOp31
 70
     0
102
RTVSPost2010Prop32
280
     0
102
RTVSPost2010PropOp32
 70
     0
102
RTVSPost2010Prop33
280
     0
102
RTVSPost2010PropOp33
 70
     0
102
RTVSPost2010Prop34
280
     0
102
RTVSPost2010PropOp34
 70
     0
102
RTVSPost2010Prop35
280
     0
102
RTVSPost2010PropOp35
 70
     0
102
RTVSPost2010Prop36
280
     0
102
RTVSPost2010PropOp36
 70
     0
102
RTVSPost2010Prop37
 90
       50
102
RTVSPost2010PropOp37
 70
     0
102
RTVSPost2010Prop38
140
0.0
102
RTVSPost2010PropOp38
 70
     0
102
RTVSPost2010Prop39
140
1.0
102
RTVSPost2010PropOp39
 70
     0
102
RTVSPost2010Prop40
 90
        0
102
RTVSPost2010PropOp40
 70
     0
102
RTVSPost2010Prop41ColorIndex
 90
       18
102
RTVSPost2010Prop41ColorRGB
 90
        0
102
RTVSPost2010PropOp41
 70
     0
102
RTVSPost2010Prop42
 90
       50
102
RTVSPost2010PropOp42
 70
     0
102
RTVSPost2010Prop43
 90
        3
102
RTVSPost2010PropOp43
 70
     0
102
RTVSPost2010Prop44ColorIndex
 90
        5
102
RTVSPost2010Prop44ColorRGB
 90
      255
102
RTVSPost2010PropOp44
 70
     0
102
RTVSPost2010Prop45
280
     0
102
RTVSPost2010PropOp45
 70
     0
102
RTVSPost2010Prop46
 90
       50
102
RTVSPost2010PropOp46
 70
     0
102
RTVSPost2010Prop47
 90
       50
102
RTVSPost2010PropOp47
 70
     0
102
RTVSPost2010Prop48
 90
       50
102
RTVSPost2010PropOp48
 70
     0
102
RTVSPost2010Prop49
280
     0
102
RTVSPost2010PropOp49
 70
     0
102
RTVSPost2010Prop50
 90
       50
102
RTVSPost2010PropOp50
 70
     0
102
RTVSPost2010Prop51ColorIndex
 90
      256
102
RTVSPost2010Prop51ColorRGB
 90
-16777216
102
RTVSPost2010PropOp51
 70
     0
102
RTVSPost2010Prop52
140
1.0
102
RTVSPost2010PropOp52
 70
     0
102
RTVSPost2010Prop53
 90
        2
102
RTVSPost2010PropOp53
 70
     0
102
RTVSPost2010Prop54
  1
strokes_ogs.tif
102
RTVSPost2010PropOp54
 70
     0
102
RTVSPost2010Prop55
280
     0
102
RTVSPost2010PropOp55
 70
     0
102
RTVSPost2010Prop56
140
1.0
102
RTVSPost2010PropOp56
 70
     0
102
RTVSPost2010Prop57
140
1.0
102
RTVSPost2010PropOp57
 70
     0
  0
XRECORD
  5
39E
102
{ACAD_REACTORS
330
39D
102
}
330
39D
100
AcDbXrecord
280
     1
102
RTVSPost2010Prop28
280
     0
102
RTVSPost2010PropOp28
 70
     1
102
RTVSPost2010Prop29
280
     1
102
RTVSPost2010PropOp29
 70
     1
102
RTVSPost2010Prop30
280
     1
102
RTVSPost2010PropOp30
 70
     1
102
RTVSPost2010Prop31
280
     0
102
RTVSPost2010PropOp31
 70
     1
102
RTVSPost2010Prop32
280
     0
102
RTVSPost2010PropOp32
 70
     1
102
RTVSPost2010Prop33
280
     0
102
RTVSPost2010PropOp33
 70
     1
102
RTVSPost2010Prop34
280
     0
102
RTVSPost2010PropOp34
 70
     1
102
RTVSPost2010Prop35
280
     0
102
RTVSPost2010PropOp35
 70
     1
102
RTVSPost2010Prop36
280
     0
102
RTVSPost2010PropOp36
 70
     1
102
RTVSPost2010Prop37
 90
       50
102
RTVSPost2010PropOp37
 70
     1
102
RTVSPost2010Prop38
140
0.0
102
RTVSPost2010PropOp38
 70
     1
102
RTVSPost2010Prop39
140
1.0
102
RTVSPost2010PropOp39
 70
     1
102
RTVSPost2010Prop40
 90
        0
102
RTVSPost2010PropOp40
 70
     1
102
RTVSPost2010Prop41ColorIndex
 90
       18
102
RTVSPost2010Prop41ColorRGB
 90
        0
102
RTVSPost2010PropOp41
 70
     1
102
RTVSPost2010Prop42
 90
       50
102
RTVSPost2010PropOp42
 70
     1
102
RTVSPost2010Prop43
 90
        3
102
RTVSPost2010PropOp43
 70
     1
102
RTVSPost2010Prop44ColorIndex
 90
        5
102
RTVSPost2010Prop44ColorRGB
 90
      255
102
RTVSPost2010PropOp44
 70
     1
102
RTVSPost2010Prop45
280
     0
102
RTVSPost2010PropOp45
 70
     1
102
RTVSPost2010Prop46
 90
       50
102
RTVSPost2010PropOp46
 70
     1
102
RTVSPost2010Prop47
 90
       50
102
RTVSPost2010PropOp47
 70
     1
102
RTVSPost2010Prop48
 90
       50
102
RTVSPost2010PropOp48
 70
     1
102
RTVSPost2010Prop49
280
     0
102
RTVSPost2010PropOp49
 70
     1
102
RTVSPost2010Prop50
 90
       50
102
RTVSPost2010PropOp50
 70
     1
102
RTVSPost2010Prop51ColorIndex
 90
      256
102
RTVSPost2010Prop51ColorRGB
 90
-16777216
102
RTVSPost2010PropOp51
 70
     0
102
RTVSPost2010Prop52
140
1.0
102
RTVSPost2010PropOp52
 70
     0
102
RTVSPost2010Prop53
 90
        2
102
RTVSPost2010PropOp53
 70
     1
102
RTVSPost2010Prop54
  1
strokes_ogs.tif
102
RTVSPost2010PropOp54
 70
     1
102
RTVSPost2010Prop55
280
     0
102
RTVSPost2010PropOp55
 70
     1
102
RTVSPost2010Prop56
140
1.0
102
RTVSPost2010PropOp56
 70
     1
102
RTVSPost2010Prop57
140
1.0
102
RTVSPost2010PropOp57
 70
     1
  0
XRECORD
  5
3BC
102
{ACAD_REACTORS
330
3BB
102
}
330
3BB
100
AcDbXrecord
280
     1
102
RTVSPost2010Prop28
280
     0
102
RTVSPost2010PropOp28
 70
     1
102
RTVSPost2010Prop29
280
     1
102
RTVSPost2010PropOp29
 70
     1
102
RTVSPost2010Prop30
280
     1
102
RTVSPost2010PropOp30
 70
     1
102
RTVSPost2010Prop31
280
     0
102
RTVSPost2010PropOp31
 70
     1
102
RTVSPost2010Prop32
280
     0
102
RTVSPost2010PropOp32
 70
     1
102
RTVSPost2010Prop33
280
     0
102
RTVSPost2010PropOp33
 70
     1
102
RTVSPost2010Prop34
280
     0
102
RTVSPost2010PropOp34
 70
     1
102
RTVSPost2010Prop35
280
     0
102
RTVSPost2010PropOp35
 70
     1
102
RTVSPost2010Prop36
280
     0
102
RTVSPost2010PropOp36
 70
     1
102
RTVSPost2010Prop37
 90
       50
102
RTVSPost2010PropOp37
 70
     1
102
RTVSPost2010Prop38
140
0.0
102
RTVSPost2010PropOp38
 70
     1
102
RTVSPost2010Prop39
140
1.0
102
RTVSPost2010PropOp39
 70
     1
102
RTVSPost2010Prop40
 90
        0
102
RTVSPost2010PropOp40
 70
     1
102
RTVSPost2010Prop41ColorIndex
 90
       18
102
RTVSPost2010Prop41ColorRGB
 90
        0
102
RTVSPost2010PropOp41
 70
     1
102
RTVSPost2010Prop42
 90
       50
102
RTVSPost2010PropOp42
 70
     1
102
RTVSPost2010Prop43
 90
        3
102
RTVSPost2010PropOp43
 70
     1
102
RTVSPost2010Prop44ColorIndex
 90
        5
102
RTVSPost2010Prop44ColorRGB
 90
      255
102
RTVSPost2010PropOp44
 70
     1
102
RTVSPost2010Prop45
280
     0
102
RTVSPost2010PropOp45
 70
     1
102
RTVSPost2010Prop46
 90
       50
102
RTVSPost2010PropOp46
 70
     1
102
RTVSPost2010Prop47
 90
       50
102
RTVSPost2010PropOp47
 70
     1
102
RTVSPost2010Prop48
 90
       50
102
RTVSPost2010PropOp48
 70
     1
102
RTVSPost2010Prop49
280
     0
102
RTVSPost2010PropOp49
 70
     1
102
RTVSPost2010Prop50
 90
       50
102
RTVSPost2010PropOp50
 70
     1
102
RTVSPost2010Prop51ColorIndex
 90
      256
102
RTVSPost2010Prop51ColorRGB
 90
-16777216
102
RTVSPost2010PropOp51
 70
     0
102
RTVSPost2010Prop52
140
1.0
102
RTVSPost2010PropOp52
 70
     0
102
RTVSPost2010Prop53
 90
        2
102
RTVSPost2010PropOp53
 70
     1
102
RTVSPost2010Prop54
  1
strokes_ogs.tif
102
RTVSPost2010PropOp54
 70
     1
102
RTVSPost2010Prop55
280
     0
102
RTVSPost2010PropOp55
 70
     1
102
RTVSPost2010Prop56
140
1.0
102
RTVSPost2010PropOp56
 70
     1
102
RTVSPost2010Prop57
140
1.0
102
RTVSPost2010PropOp57
 70
     1
  0
XRECORD
  5
3BA
102
{ACAD_REACTORS
330
3B9
102
}
330
3B9
100
AcDbXrecord
280
     1
102
RTVSPost2010Prop28
280
     0
102
RTVSPost2010PropOp28
 70
     1
102
RTVSPost2010Prop29
280
     1
102
RTVSPost2010PropOp29
 70
     1
102
RTVSPost2010Prop30
280
     1
102
RTVSPost2010PropOp30
 70
     1
102
RTVSPost2010Prop31
280
     0
102
RTVSPost2010PropOp31
 70
     1
102
RTVSPost2010Prop32
280
     0
102
RTVSPost2010PropOp32
 70
     1
102
RTVSPost2010Prop33
280
     0
102
RTVSPost2010PropOp33
 70
     1
102
RTVSPost2010Prop34
280
     0
102
RTVSPost2010PropOp34
 70
     1
102
RTVSPost2010Prop35
280
     0
102
RTVSPost2010PropOp35
 70
     1
102
RTVSPost2010Prop36
280
     0
102
RTVSPost2010PropOp36
 70
     1
102
RTVSPost2010Prop37
 90
       50
102
RTVSPost2010PropOp37
 70
     1
102
RTVSPost2010Prop38
140
0.0
102
RTVSPost2010PropOp38
 70
     1
102
RTVSPost2010Prop39
140
1.0
102
RTVSPost2010PropOp39
 70
     1
102
RTVSPost2010Prop40
 90
        0
102
RTVSPost2010PropOp40
 70
     1
102
RTVSPost2010Prop41ColorIndex
 90
       18
102
RTVSPost2010Prop41ColorRGB
 90
        0
102
RTVSPost2010PropOp41
 70
     1
102
RTVSPost2010Prop42
 90
       50
102
RTVSPost2010PropOp42
 70
     1
102
RTVSPost2010Prop43
 90
        3
102
RTVSPost2010PropOp43
 70
     1
102
RTVSPost2010Prop44ColorIndex
 90
        5
102
RTVSPost2010Prop44ColorRGB
 90
      255
102
RTVSPost2010PropOp44
 70
     1
102
RTVSPost2010Prop45
280
     0
102
RTVSPost2010PropOp45
 70
     1
102
RTVSPost2010Prop46
 90
       50
102
RTVSPost2010PropOp46
 70
     1
102
RTVSPost2010Prop47
 90
       50
102
RTVSPost2010PropOp47
 70
     1
102
RTVSPost2010Prop48
 90
       50
102
RTVSPost2010PropOp48
 70
     1
102
RTVSPost2010Prop49
280
     0
102
RTVSPost2010PropOp49
 70
     1
102
RTVSPost2010Prop50
 90
       50
102
RTVSPost2010PropOp50
 70
     1
102
RTVSPost2010Prop51ColorIndex
 90
      256
102
RTVSPost2010Prop51ColorRGB
 90
-16777216
102
RTVSPost2010PropOp51
 70
     0
102
RTVSPost2010Prop52
140
1.0
102
RTVSPost2010PropOp52
 70
     0
102
RTVSPost2010Prop53
 90
        2
102
RTVSPost2010PropOp53
 70
     1
102
RTVSPost2010Prop54
  1
strokes_ogs.tif
102
RTVSPost2010PropOp54
 70
     1
102
RTVSPost2010Prop55
280
     0
102
RTVSPost2010PropOp55
 70
     1
102
RTVSPost2010Prop56
140
1.0
102
RTVSPost2010PropOp56
 70
     1
102
RTVSPost2010Prop57
140
1.0
102
RTVSPost2010PropOp57
 70
     1
  0
XRECORD
  5
3B4
102
{ACAD_REACTORS
330
3B3
102
}
330
3B3
100
AcDbXrecord
280
     1
102
RTVSPost2010Prop28
280
     0
102
RTVSPost2010PropOp28
 70
     1
102
RTVSPost2010Prop29
280
     1
102
RTVSPost2010PropOp29
 70
     1
102
RTVSPost2010Prop30
280
     1
102
RTVSPost2010PropOp30
 70
     1
102
RTVSPost2010Prop31
280
     0
102
RTVSPost2010PropOp31
 70
     1
102
RTVSPost2010Prop32
280
     0
102
RTVSPost2010PropOp32
 70
     1
102
RTVSPost2010Prop33
280
     0
102
RTVSPost2010PropOp33
 70
     1
102
RTVSPost2010Prop34
280
     0
102
RTVSPost2010PropOp34
 70
     1
102
RTVSPost2010Prop35
280
     0
102
RTVSPost2010PropOp35
 70
     1
102
RTVSPost2010Prop36
280
     0
102
RTVSPost2010PropOp36
 70
     1
102
RTVSPost2010Prop37
 90
       50
102
RTVSPost2010PropOp37
 70
     1
102
RTVSPost2010Prop38
140
0.0
102
RTVSPost2010PropOp38
 70
     1
102
RTVSPost2010Prop39
140
1.0
102
RTVSPost2010PropOp39
 70
     1
102
RTVSPost2010Prop40
 90
        0
102
RTVSPost2010PropOp40
 70
     1
102
RTVSPost2010Prop41ColorIndex
 90
       18
102
RTVSPost2010Prop41ColorRGB
 90
        0
102
RTVSPost2010PropOp41
 70
     1
102
RTVSPost2010Prop42
 90
       50
102
RTVSPost2010PropOp42
 70
     1
102
RTVSPost2010Prop43
 90
        3
102
RTVSPost2010PropOp43
 70
     1
102
RTVSPost2010Prop44ColorIndex
 90
        5
102
RTVSPost2010Prop44ColorRGB
 90
      255
102
RTVSPost2010PropOp44
 70
     1
102
RTVSPost2010Prop45
280
     0
102
RTVSPost2010PropOp45
 70
     1
102
RTVSPost2010Prop46
 90
       50
102
RTVSPost2010PropOp46
 70
     1
102
RTVSPost2010Prop47
 90
       50
102
RTVSPost2010PropOp47
 70
     1
102
RTVSPost2010Prop48
 90
       50
102
RTVSPost2010PropOp48
 70
     1
102
RTVSPost2010Prop49
280
     0
102
RTVSPost2010PropOp49
 70
     1
102
RTVSPost2010Prop50
 90
       50
102
RTVSPost2010PropOp50
 70
     1
102
RTVSPost2010Prop51ColorIndex
 90
      256
102
RTVSPost2010Prop51ColorRGB
 90
-16777216
102
RTVSPost2010PropOp51
 70
     0
102
RTVSPost2010Prop52
140
1.0
102
RTVSPost2010PropOp52
 70
     0
102
RTVSPost2010Prop53
 90
        2
102
RTVSPost2010PropOp53
 70
     1
102
RTVSPost2010Prop54
  1
strokes_ogs.tif
102
RTVSPost2010PropOp54
 70
     1
102
RTVSPost2010Prop55
280
     0
102
RTVSPost2010PropOp55
 70
     1
102
RTVSPost2010Prop56
140
1.0
102
RTVSPost2010PropOp56
 70
     1
102
RTVSPost2010Prop57
140
1.0
102
RTVSPost2010PropOp57
 70
     1
  0
XRECORD
  5
3B6
102
{ACAD_REACTORS
330
3B5
102
}
330
3B5
100
AcDbXrecord
280
     1
102
RTVSPost2010Prop28
280
     0
102
RTVSPost2010PropOp28
 70
     1
102
RTVSPost2010Prop29
280
     1
102
RTVSPost2010PropOp29
 70
     1
102
RTVSPost2010Prop30
280
     1
102
RTVSPost2010PropOp30
 70
     1
102
RTVSPost2010Prop31
280
     0
102
RTVSPost2010PropOp31
 70
     1
102
RTVSPost2010Prop32
280
     0
102
RTVSPost2010PropOp32
 70
     1
102
RTVSPost2010Prop33
280
     0
102
RTVSPost2010PropOp33
 70
     1
102
RTVSPost2010Prop34
280
     0
102
RTVSPost2010PropOp34
 70
     1
102
RTVSPost2010Prop35
280
     0
102
RTVSPost2010PropOp35
 70
     1
102
RTVSPost2010Prop36
280
     0
102
RTVSPost2010PropOp36
 70
     1
102
RTVSPost2010Prop37
 90
       50
102
RTVSPost2010PropOp37
 70
     1
102
RTVSPost2010Prop38
140
0.0
102
RTVSPost2010PropOp38
 70
     1
102
RTVSPost2010Prop39
140
1.0
102
RTVSPost2010PropOp39
 70
     1
102
RTVSPost2010Prop40
 90
        0
102
RTVSPost2010PropOp40
 70
     1
102
RTVSPost2010Prop41ColorIndex
 90
       18
102
RTVSPost2010Prop41ColorRGB
 90
        0
102
RTVSPost2010PropOp41
 70
     1
102
RTVSPost2010Prop42
 90
       50
102
RTVSPost2010PropOp42
 70
     1
102
RTVSPost2010Prop43
 90
        3
102
RTVSPost2010PropOp43
 70
     1
102
RTVSPost2010Prop44ColorIndex
 90
        5
102
RTVSPost2010Prop44ColorRGB
 90
      255
102
RTVSPost2010PropOp44
 70
     1
102
RTVSPost2010Prop45
280
     0
102
RTVSPost2010PropOp45
 70
     1
102
RTVSPost2010Prop46
 90
       50
102
RTVSPost2010PropOp46
 70
     1
102
RTVSPost2010Prop47
 90
       50
102
RTVSPost2010PropOp47
 70
     1
102
RTVSPost2010Prop48
 90
       50
102
RTVSPost2010PropOp48
 70
     1
102
RTVSPost2010Prop49
280
     0
102
RTVSPost2010PropOp49
 70
     1
102
RTVSPost2010Prop50
 90
       50
102
RTVSPost2010PropOp50
 70
     1
102
RTVSPost2010Prop51ColorIndex
 90
      256
102
RTVSPost2010Prop51ColorRGB
 90
-16777216
102
RTVSPost2010PropOp51
 70
     0
102
RTVSPost2010Prop52
140
1.0
102
RTVSPost2010PropOp52
 70
     0
102
RTVSPost2010Prop53
 90
        2
102
RTVSPost2010PropOp53
 70
     1
102
RTVSPost2010Prop54
  1
strokes_ogs.tif
102
RTVSPost2010PropOp54
 70
     1
102
RTVSPost2010Prop55
280
     0
102
RTVSPost2010PropOp55
 70
     1
102
RTVSPost2010Prop56
140
1.0
102
RTVSPost2010PropOp56
 70
     1
102
RTVSPost2010Prop57
140
1.0
102
RTVSPost2010PropOp57
 70
     1
  0
XRECORD
  5
3A6
102
{ACAD_REACTORS
330
3A5
102
}
330
3A5
100
AcDbXrecord
280
     1
102
RTVSPost2010Prop28
280
     0
102
RTVSPost2010PropOp28
 70
     1
102
RTVSPost2010Prop29
280
     1
102
RTVSPost2010PropOp29
 70
     1
102
RTVSPost2010Prop30
280
     1
102
RTVSPost2010PropOp30
 70
     1
102
RTVSPost2010Prop31
280
     0
102
RTVSPost2010PropOp31
 70
     1
102
RTVSPost2010Prop32
280
     0
102
RTVSPost2010PropOp32
 70
     1
102
RTVSPost2010Prop33
280
     0
102
RTVSPost2010PropOp33
 70
     1
102
RTVSPost2010Prop34
280
     0
102
RTVSPost2010PropOp34
 70
     1
102
RTVSPost2010Prop35
280
     0
102
RTVSPost2010PropOp35
 70
     1
102
RTVSPost2010Prop36
280
     0
102
RTVSPost2010PropOp36
 70
     1
102
RTVSPost2010Prop37
 90
       50
102
RTVSPost2010PropOp37
 70
     1
102
RTVSPost2010Prop38
140
0.0
102
RTVSPost2010PropOp38
 70
     1
102
RTVSPost2010Prop39
140
1.0
102
RTVSPost2010PropOp39
 70
     1
102
RTVSPost2010Prop40
 90
        0
102
RTVSPost2010PropOp40
 70
     1
102
RTVSPost2010Prop41ColorIndex
 90
       18
102
RTVSPost2010Prop41ColorRGB
 90
        0
102
RTVSPost2010PropOp41
 70
     1
102
RTVSPost2010Prop42
 90
       50
102
RTVSPost2010PropOp42
 70
     1
102
RTVSPost2010Prop43
 90
        3
102
RTVSPost2010PropOp43
 70
     1
102
RTVSPost2010Prop44ColorIndex
 90
        5
102
RTVSPost2010Prop44ColorRGB
 90
      255
102
RTVSPost2010PropOp44
 70
     1
102
RTVSPost2010Prop45
280
     0
102
RTVSPost2010PropOp45
 70
     1
102
RTVSPost2010Prop46
 90
       50
102
RTVSPost2010PropOp46
 70
     1
102
RTVSPost2010Prop47
 90
       50
102
RTVSPost2010PropOp47
 70
     1
102
RTVSPost2010Prop48
 90
       50
102
RTVSPost2010PropOp48
 70
     1
102
RTVSPost2010Prop49
280
     0
102
RTVSPost2010PropOp49
 70
     1
102
RTVSPost2010Prop50
 90
       50
102
RTVSPost2010PropOp50
 70
     1
102
RTVSPost2010Prop51ColorIndex
 90
      256
102
RTVSPost2010Prop51ColorRGB
 90
-16777216
102
RTVSPost2010PropOp51
 70
     0
102
RTVSPost2010Prop52
140
1.0
102
RTVSPost2010PropOp52
 70
     0
102
RTVSPost2010Prop53
 90
        2
102
RTVSPost2010PropOp53
 70
     1
102
RTVSPost2010Prop54
  1
strokes_ogs.tif
102
RTVSPost2010PropOp54
 70
     1
102
RTVSPost2010Prop55
280
     0
102
RTVSPost2010PropOp55
 70
     1
102
RTVSPost2010Prop56
140
1.0
102
RTVSPost2010PropOp56
 70
     1
102
RTVSPost2010Prop57
140
1.0
102
RTVSPost2010PropOp57
 70
     1
  0
XRECORD
  5
398
102
{ACAD_REACTORS
330
397
102
}
330
397
100
AcDbXrecord
280
     1
102
RTVSPost2010Prop28
280
     0
102
RTVSPost2010PropOp28
 70
     1
102
RTVSPost2010Prop29
280
     1
102
RTVSPost2010PropOp29
 70
     1
102
RTVSPost2010Prop30
280
     1
102
RTVSPost2010PropOp30
 70
     1
102
RTVSPost2010Prop31
280
     0
102
RTVSPost2010PropOp31
 70
     1
102
RTVSPost2010Prop32
280
     0
102
RTVSPost2010PropOp32
 70
     1
102
RTVSPost2010Prop33
280
     0
102
RTVSPost2010PropOp33
 70
     1
102
RTVSPost2010Prop34
280
     0
102
RTVSPost2010PropOp34
 70
     1
102
RTVSPost2010Prop35
280
     0
102
RTVSPost2010PropOp35
 70
     1
102
RTVSPost2010Prop36
280
     0
102
RTVSPost2010PropOp36
 70
     1
102
RTVSPost2010Prop37
 90
       50
102
RTVSPost2010PropOp37
 70
     1
102
RTVSPost2010Prop38
140
0.0
102
RTVSPost2010PropOp38
 70
     1
102
RTVSPost2010Prop39
140
1.0
102
RTVSPost2010PropOp39
 70
     1
102
RTVSPost2010Prop40
 90
        0
102
RTVSPost2010PropOp40
 70
     1
102
RTVSPost2010Prop41ColorIndex
 90
       18
102
RTVSPost2010Prop41ColorRGB
 90
        0
102
RTVSPost2010PropOp41
 70
     1
102
RTVSPost2010Prop42
 90
       50
102
RTVSPost2010PropOp42
 70
     1
102
RTVSPost2010Prop43
 90
        3
102
RTVSPost2010PropOp43
 70
     1
102
RTVSPost2010Prop44ColorIndex
 90
        5
102
RTVSPost2010Prop44ColorRGB
 90
      255
102
RTVSPost2010PropOp44
 70
     1
102
RTVSPost2010Prop45
280
     0
102
RTVSPost2010PropOp45
 70
     1
102
RTVSPost2010Prop46
 90
       50
102
RTVSPost2010PropOp46
 70
     1
102
RTVSPost2010Prop47
 90
       50
102
RTVSPost2010PropOp47
 70
     1
102
RTVSPost2010Prop48
 90
       50
102
RTVSPost2010PropOp48
 70
     1
102
RTVSPost2010Prop49
280
     0
102
RTVSPost2010PropOp49
 70
     1
102
RTVSPost2010Prop50
 90
       50
102
RTVSPost2010PropOp50
 70
     1
102
RTVSPost2010Prop51ColorIndex
 90
      256
102
RTVSPost2010Prop51ColorRGB
 90
-16777216
102
RTVSPost2010PropOp51
 70
     0
102
RTVSPost2010Prop52
140
1.0
102
RTVSPost2010PropOp52
 70
     0
102
RTVSPost2010Prop53
 90
        2
102
RTVSPost2010PropOp53
 70
     1
102
RTVSPost2010Prop54
  1
strokes_ogs.tif
102
RTVSPost2010PropOp54
 70
     1
102
RTVSPost2010Prop55
280
     0
102
RTVSPost2010PropOp55
 70
     1
102
RTVSPost2010Prop56
140
1.0
102
RTVSPost2010PropOp56
 70
     1
102
RTVSPost2010Prop57
140
1.0
102
RTVSPost2010PropOp57
 70
     1
  0
XRECORD
  5
3B8
102
{ACAD_REACTORS
330
3B7
102
}
330
3B7
100
AcDbXrecord
280
     1
102
RTVSPost2010Prop28
280
     0
102
RTVSPost2010PropOp28
 70
     1
102
RTVSPost2010Prop29
280
     1
102
RTVSPost2010PropOp29
 70
     1
102
RTVSPost2010Prop30
280
     1
102
RTVSPost2010PropOp30
 70
     1
102
RTVSPost2010Prop31
280
     0
102
RTVSPost2010PropOp31
 70
     1
102
RTVSPost2010Prop32
280
     0
102
RTVSPost2010PropOp32
 70
     1
102
RTVSPost2010Prop33
280
     0
102
RTVSPost2010PropOp33
 70
     1
102
RTVSPost2010Prop34
280
     0
102
RTVSPost2010PropOp34
 70
     1
102
RTVSPost2010Prop35
280
     0
102
RTVSPost2010PropOp35
 70
     1
102
RTVSPost2010Prop36
280
     0
102
RTVSPost2010PropOp36
 70
     1
102
RTVSPost2010Prop37
 90
       50
102
RTVSPost2010PropOp37
 70
     1
102
RTVSPost2010Prop38
140
0.0
102
RTVSPost2010PropOp38
 70
     1
102
RTVSPost2010Prop39
140
1.0
102
RTVSPost2010PropOp39
 70
     1
102
RTVSPost2010Prop40
 90
        0
102
RTVSPost2010PropOp40
 70
     1
102
RTVSPost2010Prop41ColorIndex
 90
       18
102
RTVSPost2010Prop41ColorRGB
 90
        0
102
RTVSPost2010PropOp41
 70
     1
102
RTVSPost2010Prop42
 90
       50
102
RTVSPost2010PropOp42
 70
     1
102
RTVSPost2010Prop43
 90
        3
102
RTVSPost2010PropOp43
 70
     1
102
RTVSPost2010Prop44ColorIndex
 90
        5
102
RTVSPost2010Prop44ColorRGB
 90
      255
102
RTVSPost2010PropOp44
 70
     1
102
RTVSPost2010Prop45
280
     0
102
RTVSPost2010PropOp45
 70
     1
102
RTVSPost2010Prop46
 90
       50
102
RTVSPost2010PropOp46
 70
     1
102
RTVSPost2010Prop47
 90
       50
102
RTVSPost2010PropOp47
 70
     1
102
RTVSPost2010Prop48
 90
       50
102
RTVSPost2010PropOp48
 70
     1
102
RTVSPost2010Prop49
280
     0
102
RTVSPost2010PropOp49
 70
     1
102
RTVSPost2010Prop50
 90
       50
102
RTVSPost2010PropOp50
 70
     1
102
RTVSPost2010Prop51ColorIndex
 90
      256
102
RTVSPost2010Prop51ColorRGB
 90
-16777216
102
RTVSPost2010PropOp51
 70
     0
102
RTVSPost2010Prop52
140
1.0
102
RTVSPost2010PropOp52
 70
     0
102
RTVSPost2010Prop53
 90
        2
102
RTVSPost2010PropOp53
 70
     1
102
RTVSPost2010Prop54
  1
strokes_ogs.tif
102
RTVSPost2010PropOp54
 70
     1
102
RTVSPost2010Prop55
280
     0
102
RTVSPost2010PropOp55
 70
     1
102
RTVSPost2010Prop56
140
1.0
102
RTVSPost2010PropOp56
 70
     1
102
RTVSPost2010Prop57
140
1.0
102
RTVSPost2010PropOp57
 70
     1
  0
ENDSEC
  0
EOF
