  0
SECTION
  2
HEADER
  9
$ACADVER
  1
AC1024
  9
$ACADMAINTVER
 70
     6
  9
$DWGCODEPAGE
  3
ANSI_932
  9
$INSBASE
 10
0.0
 20
0.0
 30
0.0
  9
$EXTMIN
 10
-4200.0
 20
-2970.0
 30
0.0
  9
$EXTMAX
 10
4200.0
 20
2970.0
 30
0.0
  9
$LIMMIN
 10
-4200.0
 20
-2970.0
  9
$LIMMAX
 10
4200.0
 20
2970.0
  9
$ORTHOMODE
 70
     0
  9
$REGENMODE
 70
     1
  9
$FILLMODE
 70
     1
  9
$QTEXTMODE
 70
     0
  9
$MIRRTEXT
 70
     1
  9
$LTSCALE
 40
20.0
  9
$ATTMODE
 70
     1
  9
$TEXTSIZE
 40
2.5
  9
$TRACEWID
 40
1.0
  9
$TEXTSTYLE
  7
Standard
  9
$CLAYER
  8
0
  9
$CELTYPE
  6
ByLayer
  9
$CECOLOR
 62
   256
  9
$CELTSCALE
 40
1.0
  9
$DISPSILH
 70
     0
  9
$DIMSCALE
 40
1.0
  9
$DIMASZ
 40
2.5
  9
$DIMEXO
 40
0.625
  9
$DIMDLI
 40
3.75
  9
$DIMRND
 40
0.0
  9
$DIMDLE
 40
0.0
  9
$DIMEXE
 40
1.25
  9
$DIMTP
 40
0.0
  9
$DIMTM
 40
0.0
  9
$DIMTXT
 40
2.5
  9
$DIMCEN
 40
2.5
  9
$DIMTSZ
 40
0.0
  9
$DIMTOL
 70
     0
  9
$DIMLIM
 70
     0
  9
$DIMTIH
 70
     0
  9
$DIMTOH
 70
     0
  9
$DIMSE1
 70
     0
  9
$DIMSE2
 70
     0
  9
$DIMTAD
 70
     1
  9
$DIMZIN
 70
     8
  9
$DIMBLK
  1

  9
$DIMASO
 70
     1
  9
$DIMSHO
 70
     1
  9
$DIMPOST
  1

  9
$DIMAPOST
  1

  9
$DIMALT
 70
     0
  9
$DIMALTD
 70
     3
  9
$DIMALTF
 40
0.03937007874016
  9
$DIMLFAC
 40
1.0
  9
$DIMTOFL
 70
     1
  9
$DIMTVP
 40
0.0
  9
$DIMTIX
 70
     0
  9
$DIMSOXD
 70
     0
  9
$DIMSAH
 70
     0
  9
$DIMBLK1
  1

  9
$DIMBLK2
  1

  9
$DIMSTYLE
  2
ISO-25
  9
$DIMCLRD
 70
     0
  9
$DIMCLRE
 70
     0
  9
$DIMCLRT
 70
     0
  9
$DIMTFAC
 40
1.0
  9
$DIMGAP
 40
0.625
  9
$DIMJUST
 70
     0
  9
$DIMSD1
 70
     0
  9
$DIMSD2
 70
     0
  9
$DIMTOLJ
 70
     0
  9
$DIMTZIN
 70
     8
  9
$DIMALTZ
 70
     0
  9
$DIMALTTZ
 70
     0
  9
$DIMUPT
 70
     0
  9
$DIMDEC
 70
     2
  9
$DIMTDEC
 70
     2
  9
$DIMALTU
 70
     2
  9
$DIMALTTD
 70
     3
  9
$DIMTXSTY
  7
Standard
  9
$DIMAUNIT
 70
     0
  9
$DIMADEC
 70
     0
  9
$DIMALTRND
 40
0.0
  9
$DIMAZIN
 70
     0
  9
$DIMDSEP
 70
    44
  9
$DIMATFIT
 70
     3
  9
$DIMFRAC
 70
     0
  9
$DIMLDRBLK
  1

  9
$DIMLUNIT
 70
     2
  9
$DIMLWD
 70
    -2
  9
$DIMLWE
 70
    -2
  9
$DIMTMOVE
 70
     0
  9
$DIMFXL
 40
1.0
  9
$DIMFXLON
 70
     0
  9
$DIMJOGANG
 40
0.7853981633974483
  9
$DIMTFILL
 70
     0
  9
$DIMTFILLCLR
 70
     0
  9
$DIMARCSYM
 70
     0
  9
$DIMLTYPE
  6

  9
$DIMLTEX1
  6

  9
$DIMLTEX2
  6

  9
$DIMTXTDIRECTION
 70
     0
  9
$LUNITS
 70
     2
  9
$LUPREC
 70
     4
  9
$SKETCHINC
 40
1.0
  9
$FILLETRAD
 40
10.0
  9
$AUNITS
 70
     0
  9
$AUPREC
 70
     0
  9
$MENU
  1
.
  9
$ELEVATION
 40
0.0
  9
$PELEVATION
 40
0.0
  9
$THICKNESS
 40
0.0
  9
$LIMCHECK
 70
     0
  9
$CHAMFERA
 40
0.0
  9
$CHAMFERB
 40
0.0
  9
$CHAMFERC
 40
0.0
  9
$CHAMFERD
 40
0.0
  9
$SKPOLY
 70
     0
  9
$TDCREATE
 40
2458516.691667106
  9
$TDUCREATE
 40
2458516.316667106
  9
$TDUPDATE
 40
2458516.691667465
  9
$TDUUPDATE
 40
2458516.316667465
  9
$TDINDWG
 40
0.0000000116
  9
$TDUSRTIMER
 40
0.0000000116
  9
$USRTIMER
 70
     1
  9
$ANGBASE
 50
0.0
  9
$ANGDIR
 70
     0
  9
$PDMODE
 70
     0
  9
$PDSIZE
 40
0.0
  9
$PLINEWID
 40
0.0
  9
$SPLFRAME
 70
     0
  9
$SPLINETYPE
 70
     6
  9
$SPLINESEGS
 70
     8
  9
$HANDSEED
  5
506
  9
$SURFTAB1
 70
     6
  9
$SURFTAB2
 70
     6
  9
$SURFTYPE
 70
     6
  9
$SURFU
 70
     6
  9
$SURFV
 70
     6
  9
$UCSBASE
  2

  9
$UCSNAME
  2

  9
$UCSORG
 10
0.0
 20
0.0
 30
0.0
  9
$UCSXDIR
 10
1.0
 20
0.0
 30
0.0
  9
$UCSYDIR
 10
0.0
 20
1.0
 30
0.0
  9
$UCSORTHOREF
  2

  9
$UCSORTHOVIEW
 70
     0
  9
$UCSORGTOP
 10
0.0
 20
0.0
 30
0.0
  9
$UCSORGBOTTOM
 10
0.0
 20
0.0
 30
0.0
  9
$UCSORGLEFT
 10
0.0
 20
0.0
 30
0.0
  9
$UCSORGRIGHT
 10
0.0
 20
0.0
 30
0.0
  9
$UCSORGFRONT
 10
0.0
 20
0.0
 30
0.0
  9
$UCSORGBACK
 10
0.0
 20
0.0
 30
0.0
  9
$PUCSBASE
  2

  9
$PUCSNAME
  2

  9
$PUCSORG
 10
0.0
 20
0.0
 30
0.0
  9
$PUCSXDIR
 10
1.0
 20
0.0
 30
0.0
  9
$PUCSYDIR
 10
0.0
 20
1.0
 30
0.0
  9
$PUCSORTHOREF
  2

  9
$PUCSORTHOVIEW
 70
     0
  9
$PUCSORGTOP
 10
0.0
 20
0.0
 30
0.0
  9
$PUCSORGBOTTOM
 10
0.0
 20
0.0
 30
0.0
  9
$PUCSORGLEFT
 10
0.0
 20
0.0
 30
0.0
  9
$PUCSORGRIGHT
 10
0.0
 20
0.0
 30
0.0
  9
$PUCSORGFRONT
 10
0.0
 20
0.0
 30
0.0
  9
$PUCSORGBACK
 10
0.0
 20
0.0
 30
0.0
  9
$USERI1
 70
     0
  9
$USERI2
 70
     0
  9
$USERI3
 70
     0
  9
$USERI4
 70
     0
  9
$USERI5
 70
     0
  9
$USERR1
 40
0.0
  9
$USERR2
 40
0.0
  9
$USERR3
 40
0.0
  9
$USERR4
 40
0.0
  9
$USERR5
 40
0.0
  9
$WORLDVIEW
 70
     1
  9
$SHADEDGE
 70
     3
  9
$SHADEDIF
 70
    70
  9
$TILEMODE
 70
     1
  9
$MAXACTVP
 70
    64
  9
$PINSBASE
 10
0.0
 20
0.0
 30
0.0
  9
$PLIMCHECK
 70
     0
  9
$PEXTMIN
 10
1.000000000000000E+20
 20
1.000000000000000E+20
 30
1.000000000000000E+20
  9
$PEXTMAX
 10
-1.000000000000000E+20
 20
-1.000000000000000E+20
 30
-1.000000000000000E+20
  9
$PLIMMIN
 10
0.0
 20
0.0
  9
$PLIMMAX
 10
420.0
 20
297.0
  9
$UNITMODE
 70
     0
  9
$VISRETAIN
 70
     1
  9
$PLINEGEN
 70
     0
  9
$PSLTSCALE
 70
     1
  9
$TREEDEPTH
 70
  3020
  9
$CMLSTYLE
  2
Standard
  9
$CMLJUST
 70
     0
  9
$CMLSCALE
 40
20.0
  9
$PROXYGRAPHICS
 70
     1
  9
$MEASUREMENT
 70
     1
  9
$CELWEIGHT
370
    -1
  9
$ENDCAPS
280
     0
  9
$JOINSTYLE
280
     0
  9
$LWDISPLAY
290
     0
  9
$INSUNITS
 70
     4
  9
$HYPERLINKBASE
  1

  9
$STYLESHEET
  1

  9
$XEDIT
290
     1
  9
$CEPSNTYPE
380
     0
  9
$PSTYLEMODE
290
     1
  9
$FINGERPRINTGUID
  2
{FD2AA75D-43BE-4FBD-A20F-D6CE8686EF4B}
  9
$VERSIONGUID
  2
{FAEB1C32-E019-11D5-929B-00C0DF256EC4}
  9
$EXTNAMES
290
     1
  9
$PSVPSCALE
 40
0.0
  9
$OLESTARTUP
290
     0
  9
$SORTENTS
280
   127
  9
$INDEXCTL
280
     0
  9
$HIDETEXT
280
     1
  9
$XCLIPFRAME
280
     2
  9
$HALOGAP
280
     0
  9
$OBSCOLOR
 70
   257
  9
$OBSLTYPE
280
     0
  9
$INTERSECTIONDISPLAY
280
     0
  9
$INTERSECTIONCOLOR
 70
   257
  9
$DIMASSOC
280
     2
  9
$PROJECTNAME
  1

  9
$CAMERADISPLAY
290
     0
  9
$LENSLENGTH
 40
50.0
  9
$CAMERAHEIGHT
 40
0.0
  9
$STEPSPERSEC
 40
2.0
  9
$STEPSIZE
 40
6.0
  9
$3DDWFPREC
 40
2.0
  9
$PSOLWIDTH
 40
5.0
  9
$PSOLHEIGHT
 40
80.0
  9
$LOFTANG1
 40
1.570796326794897
  9
$LOFTANG2
 40
1.570796326794897
  9
$LOFTMAG1
 40
0.0
  9
$LOFTMAG2
 40
0.0
  9
$LOFTPARAM
 70
     7
  9
$LOFTNORMALS
280
     1
  9
$LATITUDE
 40
37.795
  9
$LONGITUDE
 40
-122.394
  9
$NORTHDIRECTION
 40
0.0
  9
$TIMEZONE
 70
 -8000
  9
$LIGHTGLYPHDISPLAY
280
     1
  9
$TILEMODELIGHTSYNCH
280
     1
  9
$CMATERIAL
347
44
  9
$SOLIDHIST
280
     0
  9
$SHOWHIST
280
     1
  9
$DWFFRAME
280
     2
  9
$DGNFRAME
280
     2
  9
$REALWORLDSCALE
290
     1
  9
$INTERFERECOLOR
 62
   256
  9
$CSHADOW
280
     0
  9
$SHADOWPLANELOCATION
 40
0.0
  0
ENDSEC
  0
SECTION
  2
CLASSES
  0
CLASS
  1
ACDBDICTIONARYWDFLT
  2
AcDbDictionaryWithDefault
  3
ObjectDBX Classes
 90
        0
 91
        4
280
     0
281
     0
  0
CLASS
  1
VISUALSTYLE
  2
AcDbVisualStyle
  3
ObjectDBX Classes
 90
     4095
 91
        4
280
     0
281
     0
  0
CLASS
  1
MATERIAL
  2
AcDbMaterial
  3
ObjectDBX Classes
 90
     1153
 91
        4
280
     0
281
     0
  0
CLASS
  1
SCALE
  2
AcDbScale
  3
ObjectDBX Classes
 90
     1153
 91
        4
280
     0
281
     0
  0
CLASS
  1
TABLESTYLE
  2
AcDbTableStyle
  3
ObjectDBX Classes
 90
     4095
 91
        4
280
     0
281
     0
  0
CLASS
  1
MLEADERSTYLE
  2
AcDbMLeaderStyle
  3
ACDB_MLEADERSTYLE_CLASS
 90
     4095
 91
        4
280
     0
281
     0
  0
CLASS
  1
SUN
  2
AcDbSun
  3
SCENEOE
 90
     1153
 91
        4
280
     0
281
     0
  0
CLASS
  1
DICTIONARYVAR
  2
AcDbDictionaryVar
  3
ObjectDBX Classes
 90
        0
 91
        4
280
     0
281
     0
  0
CLASS
  1
CELLSTYLEMAP
  2
AcDbCellStyleMap
  3
ObjectDBX Classes
 90
     1152
 91
        4
280
     0
281
     0
  0
ENDSEC
  0
SECTION
  2
TABLES
  0
TABLE
  2
VPORT
  5
8
330
0
100
AcDbSymbolTable
 70
     1
  0
VPORT
  5
29
330
8
100
AcDbSymbolTableRecord
100
AcDbViewportTableRecord
  2
*Active
 70
     0
 10
0.0
 20
0.0
 11
1.0
 21
1.0
 12
0.0
 22
0.0
 13
0.0
 23
0.0
 14
10.0
 24
10.0
 15
10.0
 25
10.0
 16
0.0
 26
0.0
 36
1.0
 17
0.0
 27
0.0
 37
0.0
 40
6534.000000000001
 41
1.414141414141414
 42
50.0
 43
0.0
 44
0.0
 50
0.0
 51
0.0
 71
     0
 72
 10000
 73
     1
 74
     3
 75
     0
 76
     0
 77
     0
 78
     0
281
     0
 65
     1
110
0.0
120
0.0
130
0.0
111
1.0
121
0.0
131
0.0
112
0.0
122
1.0
132
0.0
 79
     0
146
0.0
348
2F
 60
     3
 61
     5
292
     1
282
     1
141
0.0
142
0.0
 63
   250
361
6D
  0
ENDTAB
  0
TABLE
  2
LTYPE
  5
5
330
0
100
AcDbSymbolTable
 70
     5
  0
LTYPE
  5
14
330
5
100
AcDbSymbolTableRecord
100
AcDbLinetypeTableRecord
  2
ByBlock
 70
     0
  3

 72
    65
 73
     0
 40
0.0
  0
LTYPE
  5
15
330
5
100
AcDbSymbolTableRecord
100
AcDbLinetypeTableRecord
  2
ByLayer
 70
     0
  3

 72
    65
 73
     0
 40
0.0
  0
LTYPE
  5
16
330
5
100
AcDbSymbolTableRecord
100
AcDbLinetypeTableRecord
  2
Continuous
 70
     0
  3
Solid line
 72
    65
 73
     0
 40
0.0
  0
LTYPE
  5
70
330
5
100
AcDbSymbolTableRecord
100
AcDbLinetypeTableRecord
  2
JWW_HOJO
 70
     0
  3
  -   -   -   -   -   -   -   - 
 72
    65
 73
     2
 40
1.693333333333333
 49
-1.27
 74
     0
 49
0.4233333333333333
 74
     0
  0
LTYPE
  5
71
330
5
100
AcDbSymbolTableRecord
100
AcDbLinetypeTableRecord
  2
JWW_DASHED2
 70
     0
  3
--    ----    ----    ----    --
 72
    65
 73
     2
 40
1.693333333333333
 49
0.8466666666666667
 74
     0
 49
-0.8466666666666667
 74
     0
  0
LTYPE
  5
72
330
5
100
AcDbSymbolTableRecord
100
AcDbLinetypeTableRecord
  2
JWW_DASHED1
 70
     0
  3
-  --  --  --  --  --  --  --  -
 72
    65
 73
     2
 40
0.3386666666666667
 49
0.1693333333333333
 74
     0
 49
-0.1693333333333333
 74
     0
  0
LTYPE
  5
73
330
5
100
AcDbSymbolTableRecord
100
AcDbLinetypeTableRecord
  2
JWW_CENTER1
 70
     0
  3
-----  --  ----------  --  -----
 72
    65
 73
     4
 40
3.386666666666667
 49
2.116666666666667
 74
     0
 49
-0.4233333333333333
 74
     0
 49
0.4233333333333333
 74
     0
 49
-0.4233333333333333
 74
     0
  0
ENDTAB
  0
TABLE
  2
LAYER
  5
2
330
0
100
AcDbSymbolTable
 70
    16
  0
LAYER
  5
10
330
2
100
AcDbSymbolTableRecord
100
AcDbLayerTableRecord
  2
0
 70
     0
 62
     7
  6
Continuous
370
    -3
390
F
347
46
  0
LAYER
  5
74
330
2
100
AcDbSymbolTableRecord
100
AcDbLayerTableRecord
  2
F-0_補助線
 70
     0
 62
     7
  6
Continuous
370
    -3
390
F
347
46
  0
LAYER
  5
75
330
2
100
AcDbSymbolTableRecord
100
AcDbLayerTableRecord
  2
枠
 70
     0
 62
     7
  6
Continuous
370
    -3
390
F
347
46
  0
LAYER
  5
76
330
2
100
AcDbSymbolTableRecord
100
AcDbLayerTableRecord
  2
F-A_文字
 70
     0
 62
     7
  6
Continuous
370
    -3
390
F
347
46
  0
LAYER
  5
77
330
2
100
AcDbSymbolTableRecord
100
AcDbLayerTableRecord
  2
0-A_文字
 70
     0
 62
     7
  6
Continuous
370
    -3
390
F
347
46
  0
LAYER
  5
78
330
2
100
AcDbSymbolTableRecord
100
AcDbLayerTableRecord
  2
0-6_桟木
 70
     0
 62
     7
  6
Continuous
370
    -3
390
F
347
46
  0
LAYER
  5
79
330
2
100
AcDbSymbolTableRecord
100
AcDbLayerTableRecord
  2
0-B_寸法
 70
     0
 62
     7
  6
Continuous
370
    -3
390
F
347
46
  0
LAYER
  5
7A
330
2
100
AcDbSymbolTableRecord
100
AcDbLayerTableRecord
  2
0-5_ダボ
 70
     0
 62
     7
  6
Continuous
370
    -3
390
F
347
46
  0
LAYER
  5
7B
330
2
100
AcDbSymbolTableRecord
100
AcDbLayerTableRecord
  2
0-4_棚
 70
     0
 62
     7
  6
Continuous
370
    -3
390
F
347
46
  0
LAYER
  5
7C
330
2
100
AcDbSymbolTableRecord
100
AcDbLayerTableRecord
  2
0-C_ハッチ
 70
     0
 62
     7
  6
Continuous
370
    -3
390
F
347
46
  0
LAYER
  5
7D
330
2
100
AcDbSymbolTableRecord
100
AcDbLayerTableRecord
  2
0-1_本体
 70
     0
 62
     7
  6
Continuous
370
    -3
390
F
347
46
  0
LAYER
  5
7E
330
2
100
AcDbSymbolTableRecord
100
AcDbLayerTableRecord
  2
0-0_補助線
 70
     0
 62
     7
  6
Continuous
370
    -3
390
F
347
46
  0
LAYER
  5
7F
330
2
100
AcDbSymbolTableRecord
100
AcDbLayerTableRecord
  2
0-3_扉仕上
 70
     0
 62
     7
  6
Continuous
370
    -3
390
F
347
46
  0
LAYER
  5
80
330
2
100
AcDbSymbolTableRecord
100
AcDbLayerTableRecord
  2
0-2_扉
 70
     0
 62
     7
  6
Continuous
370
    -3
390
F
347
46
  0
LAYER
  5
81
330
2
100
AcDbSymbolTableRecord
100
AcDbLayerTableRecord
  2
0-7__
 70
     0
 62
     7
  6
Continuous
370
    -3
390
F
347
46
  0
LAYER
  5
82
330
2
100
AcDbSymbolTableRecord
100
AcDbLayerTableRecord
  2
0-9__
 70
     0
 62
     7
  6
Continuous
370
    -3
390
F
347
46
  0
ENDTAB
  0
TABLE
  2
STYLE
  5
3
330
0
100
AcDbSymbolTable
 70
     3
  0
STYLE
  5
11
330
3
100
AcDbSymbolTableRecord
100
AcDbTextStyleTableRecord
  2
Standard
 70
     0
 40
0.0
 41
1.0
 50
0.0
 71
     0
 42
2.5
  3
txt
  4

  0
STYLE
  5
6E
330
3
100
AcDbSymbolTableRecord
100
AcDbTextStyleTableRecord
  2
ＭＳ ゴシック
 70
     0
 40
1.0
 41
1.0
 50
0.0
 71
     0
 42
2.5
  3

  4

1001
ACAD
1000
MS Gothic
1071
    32817
  0
STYLE
  5
6F
330
3
100
AcDbSymbolTableRecord
100
AcDbTextStyleTableRecord
  2
HG明朝B
 70
     0
 40
1.0
 41
1.0
 50
0.0
 71
     0
 42
2.5
  3

  4

1001
ACAD
1000
HGMinchoB
1071
    32785
  0
ENDTAB
  0
TABLE
  2
VIEW
  5
6
330
0
100
AcDbSymbolTable
 70
     0
  0
ENDTAB
  0
TABLE
  2
UCS
  5
7
330
0
100
AcDbSymbolTable
 70
     0
  0
ENDTAB
  0
TABLE
  2
APPID
  5
9
330
0
100
AcDbSymbolTable
 70
     1
  0
APPID
  5
12
330
9
100
AcDbSymbolTableRecord
100
AcDbRegAppTableRecord
  2
ACAD
 70
     0
  0
ENDTAB
  0
TABLE
  2
DIMSTYLE
  5
A
330
0
100
AcDbSymbolTable
 70
     1
100
AcDbDimStyleTable
  0
DIMSTYLE
105
27
330
A
100
AcDbSymbolTableRecord
100
AcDbDimStyleTableRecord
  2
ISO-25
 70
     0
 41
2.5
 42
0.625
 43
3.75
 44
1.25
 73
     0
 74
     0
 77
     1
 78
     8
140
2.5
141
2.5
143
0.03937007874016
147
0.625
171
     3
172
     1
178
     0
271
     2
272
     2
274
     3
278
    44
283
     0
284
     8
340
11
  0
ENDTAB
  0
TABLE
  2
BLOCK_RECORD
  5
1
330
0
100
AcDbSymbolTable
 70
     1
  0
BLOCK_RECORD
  5
1F
330
1
100
AcDbSymbolTableRecord
100
AcDbBlockTableRecord
  2
*Model_Space
340
22
 70
     0
280
     1
281
     0
  0
BLOCK_RECORD
  5
1B
330
1
100
AcDbSymbolTableRecord
100
AcDbBlockTableRecord
  2
*Paper_Space
340
1E
 70
     0
280
     1
281
     0
  0
BLOCK_RECORD
  5
23
330
1
100
AcDbSymbolTableRecord
100
AcDbBlockTableRecord
  2
*Paper_Space0
340
26
 70
     0
280
     1
281
     0
  0
ENDTAB
  0
ENDSEC
  0
SECTION
  2
BLOCKS
  0
BLOCK
  5
20
330
1F
100
AcDbEntity
  8
0
100
AcDbBlockBegin
  2
*Model_Space
 70
     0
 10
0.0
 20
0.0
 30
0.0
  3
*Model_Space
  1

  0
ENDBLK
  5
21
330
1F
100
AcDbEntity
  8
0
100
AcDbBlockEnd
  0
BLOCK
  5
1C
330
1B
100
AcDbEntity
 67
     1
  8
0
100
AcDbBlockBegin
  2
*Paper_Space
 70
     0
 10
0.0
 20
0.0
 30
0.0
  3
*Paper_Space
  1

  0
ENDBLK
  5
1D
330
1B
100
AcDbEntity
 67
     1
  8
0
100
AcDbBlockEnd
  0
BLOCK
  5
24
330
23
100
AcDbEntity
  8
0
100
AcDbBlockBegin
  2
*Paper_Space0
 70
     0
 10
0.0
 20
0.0
 30
0.0
  3
*Paper_Space0
  1

  0
ENDBLK
  5
25
330
23
100
AcDbEntity
  8
0
100
AcDbBlockEnd
  0
ENDSEC
  0
SECTION
  2
ENTITIES
  0
LINE
  5
83
330
1F
100
AcDbEntity
  8
F-0_補助線
  6
JWW_HOJO
 62
   120
370
     5
100
AcDbLine
 10
-4093.387555624515
 20
-2970.0
 30
0.0
 11
-4093.387555624515
 21
2949.99973606419
 31
0.0
  0
LINE
  5
84
330
1F
100
AcDbEntity
  8
F-0_補助線
  6
JWW_HOJO
 62
   120
370
     5
100
AcDbLine
 10
-4093.387555624515
 20
2949.99973606419
 30
0.0
 11
4106.611784535958
 21
2949.99973606419
 31
0.0
  0
LINE
  5
85
330
1F
100
AcDbEntity
  8
F-0_補助線
  6
JWW_HOJO
 62
   120
370
     5
100
AcDbLine
 10
4106.611784535958
 20
2949.99973606419
 30
0.0
 11
4106.611784535958
 21
-2970.0
 31
0.0
  0
LINE
  5
86
330
1F
100
AcDbEntity
  8
F-0_補助線
  6
JWW_HOJO
 62
   120
370
     5
100
AcDbLine
 10
4106.611784535958
 20
-2970.0
 30
0.0
 11
-4093.387555624515
 21
-2970.0
 31
0.0
  0
LINE
  5
87
330
1F
100
AcDbEntity
  8
F-0_補助線
  6
JWW_HOJO
 62
     7
370
     9
100
AcDbLine
 10
673.2788361090155
 20
-2530.000002061998
 30
0.0
 11
673.2788361090155
 21
-2796.666672165329
 31
0.0
  0
LINE
  5
88
330
1F
100
AcDbEntity
  8
F-0_補助線
  6
JWW_HOJO
 62
     7
370
     9
100
AcDbLine
 10
339.945722722191
 20
-2530.000002061998
 30
0.0
 11
339.945722722191
 21
-2796.666672165329
 31
0.0
  0
LINE
  5
89
330
1F
100
AcDbEntity
  8
枠
  6
Continuous
 62
   200
370
    20
100
AcDbLine
 10
3906.611619576076
 20
2783.333179370777
 30
0.0
 11
3906.611619576076
 21
-2803.333443306588
 31
0.0
  0
LINE
  5
8A
330
1F
100
AcDbEntity
  8
枠
  6
Continuous
 62
   200
370
    20
100
AcDbLine
 10
-3893.387545314522
 20
2783.333179370777
 30
0.0
 11
-3893.387545314522
 21
-2803.333443306588
 31
0.0
  0
LINE
  5
8B
330
1F
100
AcDbEntity
  8
枠
  6
Continuous
 62
   200
370
    20
100
AcDbLine
 10
3906.611619576076
 20
-2803.333335051665
 30
0.0
 11
-3893.387390664634
 21
-2803.333335051665
 31
0.0
  0
LINE
  5
8C
330
1F
100
AcDbEntity
  8
枠
  6
Continuous
 62
   200
370
    20
100
AcDbLine
 10
-3886.720882428186
 20
2783.333179370777
 30
0.0
 11
-3886.720882428186
 21
-2803.333443306588
 31
0.0
  0
LINE
  5
8D
330
1F
100
AcDbEntity
  8
枠
  6
Continuous
 62
   200
370
    20
100
AcDbLine
 10
-3890.054206138861
 20
2783.333179370777
 30
0.0
 11
-3890.054206138861
 21
-2803.333443306588
 31
0.0
  0
LINE
  5
8E
330
1F
100
AcDbEntity
  8
枠
  6
Continuous
 62
   200
370
    20
100
AcDbLine
 10
3903.278110285536
 20
2783.333179370777
 30
0.0
 11
3903.278110285536
 21
-2803.333443306588
 31
0.0
  0
LINE
  5
8F
330
1F
100
AcDbEntity
  8
枠
  6
Continuous
 62
   200
370
    20
100
AcDbLine
 10
3899.945095874641
 20
2783.333179370777
 30
0.0
 11
3899.945095874641
 21
-2803.333443306588
 31
0.0
  0
LINE
  5
90
330
1F
100
AcDbEntity
  8
枠
  6
Continuous
 62
   200
370
    20
100
AcDbLine
 10
3906.611619576076
 20
-2799.999995876003
 30
0.0
 11
-3893.387390664634
 21
-2799.999995876003
 31
0.0
  0
LINE
  5
91
330
1F
100
AcDbEntity
  8
枠
  6
Continuous
 62
   200
370
    20
100
AcDbLine
 10
3906.611619576076
 20
-2796.666672165329
 30
0.0
 11
-3893.387390664634
 21
-2796.666672165329
 31
0.0
  0
LINE
  5
92
330
1F
100
AcDbEntity
  8
枠
  6
Continuous
 62
   200
370
    20
100
AcDbLine
 10
2899.945260834522
 20
-2530.000002061998
 30
0.0
 11
2899.945260834522
 21
-2796.666672165329
 31
0.0
  0
LINE
  5
93
330
1F
100
AcDbEntity
  8
枠
  6
Continuous
 62
   200
370
    20
100
AcDbLine
 10
1899.944930914759
 20
-2530.000002061998
 30
0.0
 11
1899.944930914759
 21
-2796.666672165329
 31
0.0
  0
LINE
  5
94
330
1F
100
AcDbEntity
  8
枠
  6
Continuous
 62
   200
370
    20
100
AcDbLine
 10
6.612361895544154
 20
-2530.000002061998
 30
0.0
 11
6.612361895544154
 21
-2796.666672165329
 31
0.0
  0
LINE
  5
95
330
1F
100
AcDbEntity
  8
枠
  6
Continuous
 62
   200
370
    20
100
AcDbLine
 10
6.612361895544154
 20
-2663.333290718697
 30
0.0
 11
3899.945095874641
 21
-2663.336909526103
 31
0.0
  0
LINE
  5
96
330
1F
100
AcDbEntity
  8
枠
  6
Continuous
 62
   200
370
    20
100
AcDbLine
 10
-3893.387390664634
 20
2783.333179370777
 30
0.0
 11
3906.611619576076
 21
2783.333179370777
 31
0.0
  0
LINE
  5
97
330
1F
100
AcDbEntity
  8
枠
  6
Continuous
 62
   200
370
    20
100
AcDbLine
 10
-3893.387390664634
 20
2776.666655669342
 30
0.0
 11
3906.611619576076
 21
2776.666655669342
 31
0.0
  0
LINE
  5
98
330
1F
100
AcDbEntity
  8
枠
  6
Continuous
 62
   200
370
    20
100
AcDbLine
 10
-3893.387390664634
 20
2779.999670080237
 30
0.0
 11
3906.611619576076
 21
2779.999670080237
 31
0.0
  0
LINE
  5
99
330
1F
100
AcDbEntity
  8
F-0_補助線
  6
JWW_HOJO
 62
     7
370
     9
100
AcDbLine
 10
-3886.720882428186
 20
-2663.333290718927
 30
0.0
 11
6.612361895544154
 21
-2663.333290718927
 31
0.0
  0
LINE
  5
9A
330
1F
100
AcDbEntity
  8
F-0_補助線
  6
JWW_HOJO
 62
     7
370
     9
100
AcDbLine
 10
-3886.720882428186
 20
-2603.333290718927
 30
0.0
 11
6.612361895544154
 21
-2603.333290718927
 31
0.0
  0
LINE
  5
9B
330
1F
100
AcDbEntity
  8
F-0_補助線
  6
JWW_HOJO
 62
     7
370
     9
100
AcDbLine
 10
-3886.720882428186
 20
-2723.333290718927
 30
0.0
 11
6.612361895544154
 21
-2723.333290718927
 31
0.0
  0
LINE
  5
9C
330
1F
100
AcDbEntity
  8
F-0_補助線
  6
JWW_HOJO
 62
     7
370
     9
100
AcDbLine
 10
6.612272045125565
 20
-2759.999826518655
 30
0.0
 11
3899.945006024222
 21
-2760.003445326061
 31
0.0
  0
LINE
  5
9D
330
1F
100
AcDbEntity
  8
F-0_補助線
  6
JWW_HOJO
 62
     7
370
     9
100
AcDbLine
 10
6.612327814426635
 20
-2699.999826518681
 30
0.0
 11
3899.945061793523
 21
-2700.003445326087
 31
0.0
  0
LINE
  5
9E
330
1F
100
AcDbEntity
  8
F-0_補助線
  6
JWW_HOJO
 62
     7
370
     9
100
AcDbLine
 10
6.612395976906669
 20
-2626.666491478713
 30
0.0
 11
3899.945129956002
 21
-2626.670110286119
 31
0.0
  0
LINE
  5
9F
330
1F
100
AcDbEntity
  8
F-0_補助線
  6
JWW_HOJO
 62
     7
370
     9
100
AcDbLine
 10
6.612451746207739
 20
-2566.66649147874
 30
0.0
 11
3899.945185725303
 21
-2566.670110286145
 31
0.0
  0
LINE
  5
A0
330
1F
100
AcDbEntity
  8
F-0_補助線
  6
JWW_HOJO
 62
     7
370
     9
100
AcDbLine
 10
1959.944930914759
 20
-2530.000002061998
 30
0.0
 11
1959.944930914759
 21
-2796.666672165329
 31
0.0
  0
LINE
  5
A1
330
1F
100
AcDbEntity
  8
F-0_補助線
  6
JWW_HOJO
 62
     7
370
     9
100
AcDbLine
 10
66.61236189554415
 20
-2530.000002061998
 30
0.0
 11
66.61236189554415
 21
-2796.666672165329
 31
0.0
  0
LINE
  5
A2
330
1F
100
AcDbEntity
  8
F-0_補助線
  6
JWW_HOJO
 62
     7
370
     9
100
AcDbLine
 10
2959.945260834522
 20
-2530.000002061998
 30
0.0
 11
2959.945260834522
 21
-2796.666672165329
 31
0.0
  0
TEXT
  5
A3
330
1F
100
AcDbEntity
  8
F-A_文字
  6
Continuous
 62
     7
370
     0
100
AcDbText
 10
66.61236189554415
 20
-2581.026547247957
 30
0.0
 40
30.48
  1
図面名
 41
0.9999999999999999
  7
ＭＳ ゴシック
100
AcDbText
  0
TEXT
  5
A4
330
1F
100
AcDbEntity
  8
F-A_文字
  6
Continuous
 62
     7
370
     0
100
AcDbText
 10
1959.944930914759
 20
-2581.028307078516
 30
0.0
 40
30.48
  1
ＳＣＡＬＥ
 41
0.9999999999999999
  7
ＭＳ ゴシック
100
AcDbText
  0
TEXT
  5
A5
330
1F
100
AcDbEntity
  8
F-A_文字
  6
Continuous
 62
     7
370
     0
100
AcDbText
 10
2959.945260834522
 20
-2581.029236567169
 30
0.0
 40
30.48
  1
ＤＡＴＥ
 41
0.9999999999999998
  7
ＭＳ ゴシック
100
AcDbText
  0
TEXT
  5
A6
330
1F
100
AcDbEntity
  8
F-A_文字
  6
Continuous
 62
     7
370
     0
100
AcDbText
 10
893.5575789779642
 20
-2618.206774399892
 30
0.0
 40
45.72
  1
玄関収納
 41
1.125
  7
ＭＳ ゴシック
100
AcDbText
  0
TEXT
  5
A7
330
1F
100
AcDbEntity
  8
F-A_文字
  6
Continuous
 62
     7
370
     0
100
AcDbText
 10
2362.445095874641
 20
-2618.208743938205
 30
0.0
 40
45.72
  1
1/20
 41
1.125
  7
ＭＳ ゴシック
100
AcDbText
  0
TEXT
  5
A8
330
1F
100
AcDbEntity
  8
F-A_文字
  6
Continuous
 62
     7
370
     0
100
AcDbText
 10
339.945722722191
 20
-2618.731527915002
 30
0.0
 40
44.04000000000001
  1
ＳＯＦＴＡＲＴ
 41
0.8333333333333333
  7
HG明朝B
100
AcDbText
  0
LINE
  5
A9
330
1F
100
AcDbEntity
  8
枠
  6
Continuous
 62
   200
370
    20
100
AcDbLine
 10
3906.611619576076
 20
-2530.000002061998
 30
0.0
 11
-3893.387390664634
 21
-2530.000002061998
 31
0.0
  0
LINE
  5
AA
330
1F
100
AcDbEntity
  8
枠
  6
Continuous
 62
   200
370
    20
100
AcDbLine
 10
3906.611619576076
 20
-2526.666678351325
 30
0.0
 11
-3893.387390664634
 21
-2526.666678351325
 31
0.0
  0
LINE
  5
AB
330
1F
100
AcDbEntity
  8
F-0_補助線
  6
JWW_HOJO
 62
     7
370
     9
100
AcDbLine
 10
-3391.752473459741
 20
-2530.000002061999
 30
0.0
 11
-3391.752473459741
 21
-2803.333443306588
 31
0.0
  0
LINE
  5
AC
330
1F
100
AcDbEntity
  8
F-0_補助線
  6
JWW_HOJO
 62
     7
370
     9
100
AcDbLine
 10
-33.38763810445585
 20
-2530.000002061998
 30
0.0
 11
-33.38763810445585
 21
-2796.666672165329
 31
0.0
  0
TEXT
  5
AD
330
1F
100
AcDbEntity
  8
F-A_文字
  6
Continuous
 62
     7
370
     0
100
AcDbText
 10
1959.944930914759
 20
-2714.361642118573
 30
0.0
 40
30.48
  1
ＦＩＬＥ
 41
0.9999999999999998
  7
ＭＳ ゴシック
100
AcDbText
  0
TEXT
  5
AE
330
1F
100
AcDbEntity
  8
F-A_文字
  6
Continuous
 62
     7
370
     0
100
AcDbText
 10
2959.945260834522
 20
-2714.362571607227
 30
0.0
 40
30.48
  1
ＮＯ．
 41
0.9999999999999999
  7
ＭＳ ゴシック
100
AcDbText
  0
TEXT
  5
AF
330
1F
100
AcDbEntity
  8
F-A_文字
  6
Continuous
 62
     7
370
     0
100
AcDbText
 10
929.9449309147587
 20
-2720.360446177432
 30
0.0
 40
30.48
  1
株式
 41
0.9999999999999998
  7
ＭＳ ゴシック
100
AcDbText
  0
TEXT
  5
B0
330
1F
100
AcDbEntity
  8
F-A_文字
  6
Continuous
 62
     7
370
     9
100
AcDbText
 10
3397.445133429372
 20
-2751.543008466656
 30
0.0
 40
45.72
  1
01
 41
1.083333333333333
  7
ＭＳ ゴシック
100
AcDbText
  0
TEXT
  5
B1
330
1F
100
AcDbEntity
  8
F-A_文字
  6
Continuous
 62
     7
370
     0
100
AcDbText
 10
1069.944930914759
 20
-2758.721586349285
 30
0.0
 40
60.96000000000001
  1
ウッドワン・・・
 41
1.109375
  7
ＭＳ ゴシック
100
AcDbText
  0
TEXT
  5
B2
330
1F
100
AcDbEntity
  8
F-A_文字
  6
Continuous
 62
     7
370
     0
100
AcDbText
 10
929.9449309147587
 20
-2768.360446177458
 30
0.0
 40
30.48
  1
会社
 41
0.9999999999999998
  7
ＭＳ ゴシック
100
AcDbText
  0
TEXT
  5
B3
330
1F
100
AcDbEntity
  8
F-A_文字
  6
Continuous
 62
     7
370
     0
100
AcDbText
 10
3845.547985115293
 20
-2860.960946013945
 30
0.0
 40
45.72
  1
）
  7
ＭＳ ゴシック
100
AcDbText
  0
TEXT
  5
B4
330
1F
100
AcDbEntity
  8
F-A_文字
  6
Continuous
 62
     7
370
     0
100
AcDbText
 10
3566.743078270199
 20
-2861.890295913237
 30
0.0
 40
45.72
  1
,
  7
ＭＳ ゴシック
100
AcDbText
  0
TEXT
  5
B5
330
1F
100
AcDbEntity
  8
F-A_文字
  6
Continuous
 62
     7
370
     0
100
AcDbText
 10
3389.2372856524
 20
-2862.819644858855
 30
0.0
 40
45.72
  1
$y
 41
1.083333333333333
  7
ＭＳ ゴシック
100
AcDbText
  0
TEXT
  5
B6
330
1F
100
AcDbEntity
  8
F-A_文字
  6
Continuous
 62
     7
370
     0
100
AcDbText
 10
3492.395099678281
 20
-2862.819644858855
 30
0.0
 40
45.72
  1
$m
 41
1.083333333333333
  7
ＭＳ ゴシック
100
AcDbText
  0
TEXT
  5
B7
330
1F
100
AcDbEntity
  8
F-A_文字
  6
Continuous
 62
     7
370
     0
100
AcDbText
 10
3595.552921333554
 20
-2862.819644858855
 30
0.0
 40
45.72
  1
$d
 41
1.083333333333333
  7
ＭＳ ゴシック
100
AcDbText
  0
TEXT
  5
B8
330
1F
100
AcDbEntity
  8
F-A_文字
  6
Continuous
 62
     7
370
     0
100
AcDbText
 10
3698.710742988826
 20
-2862.819644858855
 30
0.0
 40
45.72
  1
印刷
 41
1.083333333333333
  7
ＭＳ ゴシック
100
AcDbText
  0
TEXT
  5
B9
330
1F
100
AcDbEntity
  8
F-A_文字
  6
Continuous
 62
     7
370
     0
100
AcDbText
 10
3295.968027210818
 20
-2863.748995711821
 30
0.0
 40
45.72
  1
（
  7
ＭＳ ゴシック
100
AcDbText
  0
TEXT
  5
BA
330
1F
100
AcDbEntity
  8
F-A_文字
  6
Continuous
 62
     7
370
     0
100
AcDbText
 10
3460.797206917048
 20
-2863.748995711821
 30
0.0
 40
45.72
  1
,
  7
ＭＳ ゴシック
100
AcDbText
  0
TEXT
  5
BB
330
1F
100
AcDbEntity
  8
F-A_文字
  6
Continuous
 62
     7
370
     0
100
AcDbText
 10
-3386.720882428186
 20
-2684.873290718927
 30
0.0
 40
45.72
  1
ソフトアート　玄関収納　鏡面　フロートタイプ（中仕切りなし） Ｔ６０１
 41
1.161835748792271
  7
ＭＳ ゴシック
100
AcDbText
  0
LINE
  5
BC
330
1F
100
AcDbEntity
  8
0-A_文字
  6
Continuous
 62
     7
370
     9
100
AcDbLine
 10
-3743.332919558964
 20
2486.666787637248
 30
0.0
 11
-3743.332919558964
 21
2636.666787637248
 31
0.0
  0
LINE
  5
BD
330
1F
100
AcDbEntity
  8
0-A_文字
  6
Continuous
 62
     7
370
     9
100
AcDbLine
 10
-3743.332919558964
 20
2636.666787637248
 30
0.0
 11
-2574.631584717311
 21
2636.666787637248
 31
0.0
  0
LINE
  5
BE
330
1F
100
AcDbEntity
  8
0-A_文字
  6
Continuous
 62
     7
370
     9
100
AcDbLine
 10
-3743.332919558964
 20
2486.666787637248
 30
0.0
 11
-2574.631584717311
 21
2486.666787637248
 31
0.0
  0
LINE
  5
BF
330
1F
100
AcDbEntity
  8
0-A_文字
  6
Continuous
 62
     7
370
     9
100
AcDbLine
 10
-2574.631584717311
 20
2486.666787637248
 30
0.0
 11
-2574.631584717311
 21
2636.666787637248
 31
0.0
  0
TEXT
  5
C0
330
1F
100
AcDbEntity
  8
0-A_文字
  6
Continuous
 62
     7
370
     9
100
AcDbText
 10
-3408.982252138137
 20
2525.766787637247
 30
0.0
 40
76.2
  1
Ｔ－６０１
 41
0.9999999999999999
  7
ＭＳ ゴシック
100
AcDbText
  0
CIRCLE
  5
C1
330
1F
100
AcDbEntity
  8
0-6_桟木
  6
Continuous
 62
     7
370
     9
100
AcDbCircle
 10
2509.295958172993
 20
-1393.66654638342
 30
0.0
 40
4.0
  0
CIRCLE
  5
C2
330
1F
100
AcDbEntity
  8
0-6_桟木
  6
Continuous
 62
     7
370
     9
100
AcDbCircle
 10
2509.295958172993
 20
-1425.666546383419
 30
0.0
 40
4.0
  0
TEXT
  5
C3
330
1F
100
AcDbEntity
  8
0-B_寸法
  6
Continuous
 62
     7
370
   211
100
AcDbText
 10
2325.048090973919
 20
389.4405113299649
 30
0.0
 40
45.72
  1
P32
  7
ＭＳ ゴシック
100
AcDbText
  0
LWPOLYLINE
  5
C4
330
1F
100
AcDbEntity
  8
0-B_寸法
  6
Continuous
 62
     7
370
     9
100
AcDbPolyline
 90
        4
 70
     1
 43
4.0
 10
2310.795958172991
 20
395.833453616583
 42
0.4142135623731
 10
2308.795958172991
 20
397.833453616583
 42
0.4142135623731
 10
2306.795958172991
 20
395.833453616583
 42
0.4142135623731
 10
2308.795958172991
 20
393.833453616583
 42
0.4142135623731
  0
LWPOLYLINE
  5
C5
330
1F
100
AcDbEntity
  8
0-B_寸法
  6
Continuous
 62
     7
370
     9
100
AcDbPolyline
 90
        4
 70
     1
 43
4.0
 10
2310.795958172991
 20
427.8334536165812
 42
0.4142135623731
 10
2308.795958172991
 20
429.8334536165812
 42
0.4142135623731
 10
2306.795958172991
 20
427.8334536165812
 42
0.4142135623731
 10
2308.795958172991
 20
425.8334536165812
 42
0.4142135623731
  0
LINE
  5
C6
330
1F
100
AcDbEntity
  8
0-B_寸法
  6
Continuous
 62
   120
370
     5
100
AcDbLine
 10
2308.795958172991
 20
427.8334536165812
 30
0.0
 11
2308.795958172991
 21
395.833453616583
 31
0.0
  0
LINE
  5
C7
330
1F
100
AcDbEntity
  8
0-B_寸法
  6
Continuous
 62
   120
370
     5
100
AcDbLine
 10
2308.795958172991
 20
395.833453616583
 30
0.0
 11
2258.795958172991
 21
395.833453616583
 31
0.0
  0
LINE
  5
C8
330
1F
100
AcDbEntity
  8
0-B_寸法
  6
Continuous
 62
   120
370
     5
100
AcDbLine
 10
2308.795958172991
 20
427.8334536165812
 30
0.0
 11
2258.795958172991
 21
427.8334536165812
 31
0.0
  0
CIRCLE
  5
C9
330
1F
100
AcDbEntity
  8
0-5_ダボ
  6
Continuous
 62
     7
370
     9
100
AcDbCircle
 10
2211.795958172993
 20
-1320.666546383419
 30
0.0
 40
4.0
  0
CIRCLE
  5
CA
330
1F
100
AcDbEntity
  8
0-5_ダボ
  6
Continuous
 62
     7
370
     9
100
AcDbCircle
 10
2211.795958172993
 20
-1352.666546383421
 30
0.0
 40
4.0
  0
LINE
  5
CB
330
1F
100
AcDbEntity
  8
0-4_棚
  6
Continuous
 62
    40
370
    15
100
AcDbLine
 10
2226.795958172993
 20
506.333453616582
 30
0.0
 11
2516.795958172993
 21
506.333453616582
 31
0.0
  0
LINE
  5
CC
330
1F
100
AcDbEntity
  8
0-4_棚
  6
Continuous
 62
    40
370
    15
100
AcDbLine
 10
2226.795958172993
 20
506.333453616582
 30
0.0
 11
2226.795958172993
 21
494.3334536165816
 31
0.0
  0
LINE
  5
CD
330
1F
100
AcDbEntity
  8
0-4_棚
  6
Continuous
 62
    40
370
    15
100
AcDbLine
 10
2226.795958172993
 20
494.3334536165816
 30
0.0
 11
2516.795958172993
 21
494.3334536165816
 31
0.0
  0
LINE
  5
CE
330
1F
100
AcDbEntity
  8
0-4_棚
  6
Continuous
 62
    40
370
    15
100
AcDbLine
 10
2226.795958172993
 20
46.3334536165803
 30
0.0
 11
2516.795958172993
 21
46.3334536165803
 31
0.0
  0
LINE
  5
CF
330
1F
100
AcDbEntity
  8
0-4_棚
  6
Continuous
 62
    40
370
    15
100
AcDbLine
 10
2226.795958172993
 20
58.33345361658075
 30
0.0
 11
2516.795958172993
 21
58.33345361658075
 31
0.0
  0
LINE
  5
D0
330
1F
100
AcDbEntity
  8
0-4_棚
  6
Continuous
 62
    40
370
    15
100
AcDbLine
 10
2226.795958172993
 20
58.33345361658075
 30
0.0
 11
2226.795958172993
 21
46.3334536165803
 31
0.0
  0
LINE
  5
D1
330
1F
100
AcDbEntity
  8
0-4_棚
  6
Continuous
 62
    40
370
    15
100
AcDbLine
 10
2226.795958172993
 20
270.3334536165812
 30
0.0
 11
2516.795958172993
 21
270.3334536165812
 31
0.0
  0
LINE
  5
D2
330
1F
100
AcDbEntity
  8
0-4_棚
  6
Continuous
 62
    40
370
    15
100
AcDbLine
 10
2226.795958172993
 20
282.3334536165794
 30
0.0
 11
2516.795958172993
 21
282.3334536165794
 31
0.0
  0
LINE
  5
D3
330
1F
100
AcDbEntity
  8
0-4_棚
  6
Continuous
 62
    40
370
    15
100
AcDbLine
 10
2226.795958172993
 20
282.3334536165794
 30
0.0
 11
2226.795958172993
 21
270.3334536165812
 31
0.0
  0
LINE
  5
D4
330
1F
100
AcDbEntity
  8
0-4_棚
  6
Continuous
 62
    40
370
    15
100
AcDbLine
 10
2226.795958172993
 20
-433.6665463834197
 30
0.0
 11
2516.795958172993
 21
-433.6665463834197
 31
0.0
  0
LINE
  5
D5
330
1F
100
AcDbEntity
  8
0-4_棚
  6
Continuous
 62
    40
370
    15
100
AcDbLine
 10
2226.795958172993
 20
-421.6665463834215
 30
0.0
 11
2516.795958172993
 21
-421.6665463834215
 31
0.0
  0
LINE
  5
D6
330
1F
100
AcDbEntity
  8
0-4_棚
  6
Continuous
 62
    40
370
    15
100
AcDbLine
 10
2226.795958172993
 20
-421.6665463834215
 30
0.0
 11
2226.795958172993
 21
-433.6665463834197
 31
0.0
  0
LINE
  5
D7
330
1F
100
AcDbEntity
  8
0-4_棚
  6
Continuous
 62
    40
370
    15
100
AcDbLine
 10
2226.795958172993
 20
-689.6665463834197
 30
0.0
 11
2516.795958172993
 21
-689.6665463834197
 31
0.0
  0
LINE
  5
D8
330
1F
100
AcDbEntity
  8
0-4_棚
  6
Continuous
 62
    40
370
    15
100
AcDbLine
 10
2226.795958172993
 20
-677.6665463834206
 30
0.0
 11
2516.795958172993
 21
-677.6665463834206
 31
0.0
  0
LINE
  5
D9
330
1F
100
AcDbEntity
  8
0-4_棚
  6
Continuous
 62
    40
370
    15
100
AcDbLine
 10
2226.795958172993
 20
-677.6665463834206
 30
0.0
 11
2226.795958172993
 21
-689.6665463834197
 31
0.0
  0
LINE
  5
DA
330
1F
100
AcDbEntity
  8
0-4_棚
  6
Continuous
 62
    40
370
    15
100
AcDbLine
 10
2226.795958172993
 20
-945.6665463834202
 30
0.0
 11
2516.795958172993
 21
-945.6665463834202
 31
0.0
  0
LINE
  5
DB
330
1F
100
AcDbEntity
  8
0-4_棚
  6
Continuous
 62
    40
370
    15
100
AcDbLine
 10
2226.795958172993
 20
-933.6665463834206
 30
0.0
 11
2516.795958172993
 21
-933.6665463834206
 31
0.0
  0
LINE
  5
DC
330
1F
100
AcDbEntity
  8
0-4_棚
  6
Continuous
 62
    40
370
    15
100
AcDbLine
 10
2226.795958172993
 20
-933.6665463834206
 30
0.0
 11
2226.795958172993
 21
-945.6665463834202
 31
0.0
  0
LINE
  5
DD
330
1F
100
AcDbEntity
  8
0-4_棚
  6
Continuous
 62
    40
370
    15
100
AcDbLine
 10
2226.795958172993
 20
-1189.666546383421
 30
0.0
 11
2226.795958172993
 21
-1201.666546383422
 31
0.0
  0
LINE
  5
DE
330
1F
100
AcDbEntity
  8
0-4_棚
  6
Continuous
 62
    40
370
    15
100
AcDbLine
 10
2226.795958172993
 20
-1189.666546383421
 30
0.0
 11
2516.795958172993
 21
-1189.666546383421
 31
0.0
  0
LINE
  5
DF
330
1F
100
AcDbEntity
  8
0-4_棚
  6
Continuous
 62
    40
370
    15
100
AcDbLine
 10
2226.795958172993
 20
-1201.666546383422
 30
0.0
 11
2516.795958172993
 21
-1201.666546383422
 31
0.0
  0
LINE
  5
E0
330
1F
100
AcDbEntity
  8
0-B_寸法
  6
Continuous
 62
   120
370
     5
100
AcDbLine
 10
2174.795958172995
 20
862.3334536165811
 30
0.0
 11
2174.795958172995
 21
762.3334536165811
 31
0.0
  0
LWPOLYLINE
  5
E1
330
1F
100
AcDbEntity
  8
0-B_寸法
  6
Continuous
 62
     7
370
     9
100
AcDbPolyline
 90
        4
 70
     1
 43
4.0
 10
2176.795958172995
 20
862.3334536165811
 42
0.4142135623731
 10
2174.795958172995
 20
864.3334536165811
 42
0.4142135623731
 10
2172.795958172995
 20
862.3334536165811
 42
0.4142135623731
 10
2174.795958172995
 20
860.3334536165811
 42
0.4142135623731
  0
LINE
  5
E2
330
1F
100
AcDbEntity
  8
0-B_寸法
  6
Continuous
 62
   120
370
     5
100
AcDbLine
 10
2211.795958172993
 20
862.3334536165811
 30
0.0
 11
2174.795958172995
 21
862.3334536165811
 31
0.0
  0
LINE
  5
E3
330
1F
100
AcDbEntity
  8
0-B_寸法
  6
Continuous
 62
   120
370
     5
100
AcDbLine
 10
2211.795958172993
 20
862.3334536165811
 30
0.0
 11
2211.795958172993
 21
762.3334536165811
 31
0.0
  0
LWPOLYLINE
  5
E4
330
1F
100
AcDbEntity
  8
0-B_寸法
  6
Continuous
 62
     7
370
     9
100
AcDbPolyline
 90
        4
 70
     1
 43
4.0
 10
2213.795958172993
 20
862.3334536165811
 42
0.4142135623731
 10
2211.795958172993
 20
864.3334536165811
 42
0.4142135623731
 10
2209.795958172993
 20
862.3334536165811
 42
0.4142135623731
 10
2211.795958172993
 20
860.3334536165811
 42
0.4142135623731
  0
LINE
  5
E5
330
1F
100
AcDbEntity
  8
0-B_寸法
  6
Continuous
 62
   120
370
     5
100
AcDbLine
 10
2497.795958172992
 20
862.3334536165811
 30
0.0
 11
2497.795958172992
 21
762.3334536165811
 31
0.0
  0
LINE
  5
E6
330
1F
100
AcDbEntity
  8
0-B_寸法
  6
Continuous
 62
   120
370
     5
100
AcDbLine
 10
2519.79595817299
 20
862.3334536165811
 30
0.0
 11
2519.79595817299
 21
762.3334536165811
 31
0.0
  0
LWPOLYLINE
  5
E7
330
1F
100
AcDbEntity
  8
0-B_寸法
  6
Continuous
 62
     7
370
     9
100
AcDbPolyline
 90
        4
 70
     1
 43
4.0
 10
2499.795958172992
 20
862.3334536165811
 42
0.4142135623731
 10
2497.795958172992
 20
864.3334536165811
 42
0.4142135623731
 10
2495.795958172992
 20
862.3334536165811
 42
0.4142135623731
 10
2497.795958172992
 20
860.3334536165811
 42
0.4142135623731
  0
LWPOLYLINE
  5
E8
330
1F
100
AcDbEntity
  8
0-B_寸法
  6
Continuous
 62
     7
370
     9
100
AcDbPolyline
 90
        4
 70
     1
 43
4.0
 10
2521.79595817299
 20
862.3334536165811
 42
0.4142135623731
 10
2519.79595817299
 20
864.3334536165811
 42
0.4142135623731
 10
2517.79595817299
 20
862.3334536165811
 42
0.4142135623731
 10
2519.79595817299
 20
860.3334536165811
 42
0.4142135623731
  0
LINE
  5
E9
330
1F
100
AcDbEntity
  8
0-B_寸法
  6
Continuous
 62
   120
370
     5
100
AcDbLine
 10
2519.79595817299
 20
862.3334536165811
 30
0.0
 11
2497.795958172992
 21
862.3334536165811
 31
0.0
  0
LINE
  5
EA
330
1F
100
AcDbEntity
  8
0-6_桟木
  6
Continuous
 62
    92
370
    13
100
AcDbLine
 10
2516.795958172993
 20
-1441.666546383419
 30
0.0
 11
2516.795958172993
 21
-1377.666546383421
 31
0.0
  0
CIRCLE
  5
EB
330
1F
100
AcDbEntity
  8
0-5_ダボ
  6
Continuous
 62
     7
370
     9
100
AcDbCircle
 10
2497.795958172992
 20
43.8334536165803
 30
0.0
 40
2.5
  0
CIRCLE
  5
EC
330
1F
100
AcDbEntity
  8
0-5_ダボ
  6
Continuous
 62
     7
370
     9
100
AcDbCircle
 10
2497.795958172992
 20
11.83345361657985
 30
0.0
 40
2.5
  0
CIRCLE
  5
ED
330
1F
100
AcDbEntity
  8
0-5_ダボ
  6
Continuous
 62
     7
370
     9
100
AcDbCircle
 10
2497.795958172992
 20
267.8334536165812
 30
0.0
 40
2.5
  0
CIRCLE
  5
EE
330
1F
100
AcDbEntity
  8
0-5_ダボ
  6
Continuous
 62
     7
370
     9
100
AcDbCircle
 10
2497.795958172992
 20
299.8334536165794
 30
0.0
 40
2.5
  0
TEXT
  5
EF
330
1F
100
AcDbEntity
  8
0-A_文字
  6
Continuous
 62
     7
370
     9
100
AcDbText
 10
2293.971823243614
 20
-150.360162807333
 30
0.0
 40
45.72
  1
固定棚
  7
ＭＳ ゴシック
100
AcDbText
  0
LINE
  5
F0
330
1F
100
AcDbEntity
  8
0-A_文字
  6
Continuous
 62
     7
370
     9
100
AcDbLine
 10
2280.83286325721
 20
-160.9502042038412
 30
0.0
 11
2474.806235026444
 21
-160.9502042038412
 31
0.0
  0
LINE
  5
F1
330
1F
100
AcDbEntity
  8
0-A_文字
  6
Continuous
 62
     7
370
     9
100
AcDbLine
 10
2256.481263462169
 20
-203.1284122944362
 30
0.0
 11
2280.83286325721
 21
-160.9502042038412
 31
0.0
  0
LINE
  5
F2
330
1F
100
AcDbEntity
  8
0-B_寸法
  6
Continuous
 62
     7
370
     9
100
AcDbLine
 10
2510.554609035034
 20
-212.1665463834188
 30
0.0
 11
2527.323103598374
 21
-212.1665463834188
 31
0.0
  0
LINE
  5
F3
330
1F
100
AcDbEntity
  8
0-C_ハッチ
  6
Continuous
 62
   120
370
     5
100
AcDbLine
 10
2181.795958172993
 20
-207.8927055435133
 30
0.0
 11
2185.022117333087
 21
-204.6665463834188
 31
0.0
  0
LINE
  5
F4
330
1F
100
AcDbEntity
  8
0-C_ハッチ
  6
Continuous
 62
   120
370
     5
100
AcDbLine
 10
2184.164252956816
 20
-219.6665463834233
 30
0.0
 11
2199.164252956821
 21
-204.6665463834211
 31
0.0
  0
LINE
  5
F5
330
1F
100
AcDbEntity
  8
0-C_ハッチ
  6
Continuous
 62
   120
370
     5
100
AcDbLine
 10
2198.30638858055
 20
-219.6665463834233
 30
0.0
 11
2213.30638858055
 21
-204.6665463834211
 31
0.0
  0
LINE
  5
F6
330
1F
100
AcDbEntity
  8
0-C_ハッチ
  6
Continuous
 62
   120
370
     5
100
AcDbLine
 10
2212.448524204278
 20
-219.6665463834233
 30
0.0
 11
2227.448524204283
 21
-204.6665463834233
 31
0.0
  0
LINE
  5
F7
330
1F
100
AcDbEntity
  8
0-C_ハッチ
  6
Continuous
 62
   120
370
     5
100
AcDbLine
 10
2226.590659828012
 20
-219.6665463834256
 30
0.0
 11
2241.590659828012
 21
-204.6665463834233
 31
0.0
  0
LINE
  5
F8
330
1F
100
AcDbEntity
  8
0-C_ハッチ
  6
Continuous
 62
   120
370
     5
100
AcDbLine
 10
2240.732795451745
 20
-219.6665463834256
 30
0.0
 11
2255.732795451745
 21
-204.6665463834256
 31
0.0
  0
LINE
  5
F9
330
1F
100
AcDbEntity
  8
0-C_ハッチ
  6
Continuous
 62
   120
370
     5
100
AcDbLine
 10
2254.874931075447
 20
-219.6665463834233
 30
0.0
 11
2269.874931075447
 21
-204.6665463834211
 31
0.0
  0
LINE
  5
FA
330
1F
100
AcDbEntity
  8
0-C_ハッチ
  6
Continuous
 62
   120
370
     5
100
AcDbLine
 10
2269.017066699193
 20
-219.6665463834097
 30
0.0
 11
2284.017066699184
 21
-204.6665463834188
 31
0.0
  0
LINE
  5
FB
330
1F
100
AcDbEntity
  8
0-C_ハッチ
  6
Continuous
 62
   120
370
     5
100
AcDbLine
 10
2283.159202322927
 20
-219.666546383412
 30
0.0
 11
2298.159202322913
 21
-204.6665463834211
 31
0.0
  0
LINE
  5
FC
330
1F
100
AcDbEntity
  8
0-C_ハッチ
  6
Continuous
 62
   120
370
     5
100
AcDbLine
 10
2297.301337946656
 20
-219.666546383412
 30
0.0
 11
2312.30133794666
 21
-204.666546383412
 31
0.0
  0
LINE
  5
FD
330
1F
100
AcDbEntity
  8
0-C_ハッチ
  6
Continuous
 62
   120
370
     5
100
AcDbLine
 10
2311.443473570389
 20
-219.6665463834142
 30
0.0
 11
2326.443473570389
 21
-204.666546383412
 31
0.0
  0
LINE
  5
FE
330
1F
100
AcDbEntity
  8
0-C_ハッチ
  6
Continuous
 62
   120
370
     5
100
AcDbLine
 10
2325.585609194118
 20
-219.6665463834142
 30
0.0
 11
2340.585609194122
 21
-204.6665463834142
 31
0.0
  0
LINE
  5
FF
330
1F
100
AcDbEntity
  8
0-C_ハッチ
  6
Continuous
 62
   120
370
     5
100
AcDbLine
 10
2339.727744817851
 20
-219.6665463834165
 30
0.0
 11
2354.727744817851
 21
-204.6665463834142
 31
0.0
  0
LINE
  5
100
330
1F
100
AcDbEntity
  8
0-C_ハッチ
  6
Continuous
 62
   120
370
     5
100
AcDbLine
 10
2353.869880441584
 20
-219.6665463834165
 30
0.0
 11
2368.869880441584
 21
-204.6665463834165
 31
0.0
  0
LINE
  5
101
330
1F
100
AcDbEntity
  8
0-C_ハッチ
  6
Continuous
 62
   120
370
     5
100
AcDbLine
 10
2368.012016065318
 20
-219.6665463834188
 30
0.0
 11
2383.012016065318
 21
-204.6665463834165
 31
0.0
  0
LINE
  5
102
330
1F
100
AcDbEntity
  8
0-C_ハッチ
  6
Continuous
 62
   120
370
     5
100
AcDbLine
 10
2382.154151689051
 20
-219.6665463834188
 30
0.0
 11
2397.154151689051
 21
-204.6665463834188
 31
0.0
  0
LINE
  5
103
330
1F
100
AcDbEntity
  8
0-C_ハッチ
  6
Continuous
 62
   120
370
     5
100
AcDbLine
 10
2396.29628731278
 20
-219.6665463834211
 30
0.0
 11
2411.29628731278
 21
-204.6665463834188
 31
0.0
  0
LINE
  5
104
330
1F
100
AcDbEntity
  8
0-C_ハッチ
  6
Continuous
 62
   120
370
     5
100
AcDbLine
 10
2410.438422936513
 20
-219.6665463834211
 30
0.0
 11
2425.438422936513
 21
-204.6665463834211
 31
0.0
  0
LINE
  5
105
330
1F
100
AcDbEntity
  8
0-C_ハッチ
  6
Continuous
 62
   120
370
     5
100
AcDbLine
 10
2424.580558560247
 20
-219.6665463834233
 30
0.0
 11
2439.580558560247
 21
-204.6665463834211
 31
0.0
  0
LINE
  5
106
330
1F
100
AcDbEntity
  8
0-C_ハッチ
  6
Continuous
 62
   120
370
     5
100
AcDbLine
 10
2438.722694183975
 20
-219.6665463834233
 30
0.0
 11
2453.72269418398
 21
-204.6665463834233
 31
0.0
  0
LINE
  5
107
330
1F
100
AcDbEntity
  8
0-C_ハッチ
  6
Continuous
 62
   120
370
     5
100
AcDbLine
 10
2452.864829807709
 20
-219.6665463834256
 30
0.0
 11
2467.864829807709
 21
-204.6665463834233
 31
0.0
  0
LINE
  5
108
330
1F
100
AcDbEntity
  8
0-C_ハッチ
  6
Continuous
 62
   120
370
     5
100
AcDbLine
 10
2467.006965431406
 20
-219.6665463834279
 30
0.0
 11
2482.006965431406
 21
-204.6665463834279
 31
0.0
  0
LINE
  5
109
330
1F
100
AcDbEntity
  8
0-C_ハッチ
  6
Continuous
 62
   120
370
     5
100
AcDbLine
 10
2481.149101055157
 20
-219.6665463834097
 30
0.0
 11
2496.149101055148
 21
-204.6665463834188
 31
0.0
  0
LINE
  5
10A
330
1F
100
AcDbEntity
  8
0-C_ハッチ
  6
Continuous
 62
   120
370
     5
100
AcDbLine
 10
2495.291236678886
 20
-219.6665463834097
 30
0.0
 11
2510.291236678877
 21
-204.6665463834188
 31
0.0
  0
LINE
  5
10B
330
1F
100
AcDbEntity
  8
0-C_ハッチ
  6
Continuous
 62
   120
370
     5
100
AcDbLine
 10
2509.433372302619
 20
-219.666546383412
 30
0.0
 11
2516.795958172984
 21
-212.3039605130498
 31
0.0
  0
LINE
  5
10C
330
1F
100
AcDbEntity
  8
0-4_棚
  6
Continuous
 62
    40
370
    15
100
AcDbLine
 10
2181.795958172993
 20
-219.6665463834188
 30
0.0
 11
2516.795958172993
 21
-219.6665463834188
 31
0.0
  0
LINE
  5
10D
330
1F
100
AcDbEntity
  8
0-4_棚
  6
Continuous
 62
    40
370
    15
100
AcDbLine
 10
2181.795958172993
 20
-204.6665463834188
 30
0.0
 11
2516.795958172993
 21
-204.6665463834188
 31
0.0
  0
LINE
  5
10E
330
1F
100
AcDbEntity
  8
0-4_棚
  6
Continuous
 62
    40
370
    15
100
AcDbLine
 10
2181.795958172993
 20
-204.6665463834188
 30
0.0
 11
2181.795958172993
 21
-219.6665463834188
 31
0.0
  0
CIRCLE
  5
10F
330
1F
100
AcDbEntity
  8
0-5_ダボ
  6
Continuous
 62
     7
370
     9
100
AcDbCircle
 10
2211.795958172993
 20
-356.6154406332953
 30
0.0
 40
4.0
  0
CIRCLE
  5
110
330
1F
100
AcDbEntity
  8
0-5_ダボ
  6
Continuous
 62
     7
370
     9
100
AcDbCircle
 10
2211.795958172993
 20
-388.6154406332957
 30
0.0
 40
4.0
  0
CIRCLE
  5
111
330
1F
100
AcDbEntity
  8
0-5_ダボ
  6
Continuous
 62
     7
370
     9
100
AcDbCircle
 10
2211.795958172993
 20
576.3334536165826
 30
0.0
 40
2.5
  0
LINE
  5
112
330
1F
100
AcDbEntity
  8
0-B_寸法
  6
JWW_HOJO
 62
     7
370
     9
100
AcDbLine
 10
2497.795958172992
 20
704.3334536165816
 30
0.0
 11
2497.795958172992
 21
-1448.666546383421
 31
0.0
  0
LINE
  5
113
330
1F
100
AcDbEntity
  8
0-6_桟木
  6
Continuous
 62
    92
370
    13
100
AcDbLine
 10
2516.795958172993
 20
633.3334536165808
 30
0.0
 11
2516.795958172993
 21
697.3334536165817
 31
0.0
  0
LINE
  5
114
330
1F
100
AcDbEntity
  8
0-1_本体
  6
Continuous
 62
    40
370
    15
100
AcDbLine
 10
2174.795958172995
 20
697.3334536165817
 30
0.0
 11
2516.795958172993
 21
697.3334536165817
 31
0.0
  0
LINE
  5
115
330
1F
100
AcDbEntity
  8
0-1_本体
  6
Continuous
 62
    40
370
    15
100
AcDbLine
 10
2516.795958172993
 20
704.3334536165816
 30
0.0
 11
2519.79595817299
 21
704.3334536165816
 31
0.0
  0
LINE
  5
116
330
1F
100
AcDbEntity
  8
0-1_本体
  6
Continuous
 62
    40
370
    15
100
AcDbLine
 10
2518.795958172991
 20
704.3334536165816
 30
0.0
 11
2518.795958172991
 21
-1448.666546383421
 31
0.0
  0
LINE
  5
117
330
1F
100
AcDbEntity
  8
0-1_本体
  6
Continuous
 62
    40
370
    15
100
AcDbLine
 10
2516.795958172993
 20
704.3334536165816
 30
0.0
 11
2516.795958172993
 21
-1448.666546383421
 31
0.0
  0
LINE
  5
118
330
1F
100
AcDbEntity
  8
0-1_本体
  6
Continuous
 62
    40
370
    15
100
AcDbLine
 10
2174.795958172995
 20
712.3334536165817
 30
0.0
 11
2174.795958172995
 21
697.3334536165817
 31
0.0
  0
LINE
  5
119
330
1F
100
AcDbEntity
  8
0-1_本体
  6
Continuous
 62
    40
370
    15
100
AcDbLine
 10
2519.79595817299
 20
712.3334536165817
 30
0.0
 11
2174.795958172995
 21
712.3334536165817
 31
0.0
  0
CIRCLE
  5
11A
330
1F
100
AcDbEntity
  8
0-5_ダボ
  6
Continuous
 62
     7
370
     9
100
AcDbCircle
 10
2211.795958172993
 20
608.3334536165808
 30
0.0
 40
2.5
  0
CIRCLE
  5
11B
330
1F
100
AcDbEntity
  8
0-5_ダボ
  6
Continuous
 62
     7
370
     9
100
AcDbCircle
 10
2497.795958172992
 20
-1204.166546383422
 30
0.0
 40
2.5
  0
CIRCLE
  5
11C
330
1F
100
AcDbEntity
  8
0-5_ダボ
  6
Continuous
 62
     7
370
     9
100
AcDbCircle
 10
2497.795958172992
 20
-1172.166546383421
 30
0.0
 40
2.5
  0
CIRCLE
  5
11D
330
1F
100
AcDbEntity
  8
0-5_ダボ
  6
Continuous
 62
     7
370
     9
100
AcDbCircle
 10
2497.795958172992
 20
-1140.166546383421
 30
0.0
 40
2.5
  0
CIRCLE
  5
11E
330
1F
100
AcDbEntity
  8
0-5_ダボ
  6
Continuous
 62
     7
370
     9
100
AcDbCircle
 10
2497.795958172992
 20
-1108.16654638342
 30
0.0
 40
2.5
  0
CIRCLE
  5
11F
330
1F
100
AcDbEntity
  8
0-5_ダボ
  6
Continuous
 62
     7
370
     9
100
AcDbCircle
 10
2497.795958172992
 20
-1076.16654638342
 30
0.0
 40
2.5
  0
CIRCLE
  5
120
330
1F
100
AcDbEntity
  8
0-5_ダボ
  6
Continuous
 62
     7
370
     9
100
AcDbCircle
 10
2497.795958172992
 20
-1044.166546383419
 30
0.0
 40
2.5
  0
CIRCLE
  5
121
330
1F
100
AcDbEntity
  8
0-5_ダボ
  6
Continuous
 62
     7
370
     9
100
AcDbCircle
 10
2497.795958172992
 20
-1012.166546383421
 30
0.0
 40
2.5
  0
CIRCLE
  5
122
330
1F
100
AcDbEntity
  8
0-5_ダボ
  6
Continuous
 62
     7
370
     9
100
AcDbCircle
 10
2497.795958172992
 20
-980.1665463834206
 30
0.0
 40
2.5
  0
CIRCLE
  5
123
330
1F
100
AcDbEntity
  8
0-5_ダボ
  6
Continuous
 62
     7
370
     9
100
AcDbCircle
 10
2497.795958172992
 20
-948.1665463834202
 30
0.0
 40
2.5
  0
CIRCLE
  5
124
330
1F
100
AcDbEntity
  8
0-5_ダボ
  6
Continuous
 62
     7
370
     9
100
AcDbCircle
 10
2497.795958172992
 20
-916.1665463834197
 30
0.0
 40
2.5
  0
CIRCLE
  5
125
330
1F
100
AcDbEntity
  8
0-5_ダボ
  6
Continuous
 62
     7
370
     9
100
AcDbCircle
 10
2497.795958172992
 20
-884.1665463834192
 30
0.0
 40
2.5
  0
CIRCLE
  5
126
330
1F
100
AcDbEntity
  8
0-5_ダボ
  6
Continuous
 62
     7
370
     9
100
AcDbCircle
 10
2497.795958172992
 20
-852.1665463834197
 30
0.0
 40
2.5
  0
CIRCLE
  5
127
330
1F
100
AcDbEntity
  8
0-5_ダボ
  6
Continuous
 62
     7
370
     9
100
AcDbCircle
 10
2497.795958172992
 20
-820.1665463834206
 30
0.0
 40
2.5
  0
CIRCLE
  5
128
330
1F
100
AcDbEntity
  8
0-5_ダボ
  6
Continuous
 62
     7
370
     9
100
AcDbCircle
 10
2497.795958172992
 20
-788.1665463834202
 30
0.0
 40
2.5
  0
CIRCLE
  5
129
330
1F
100
AcDbEntity
  8
0-5_ダボ
  6
Continuous
 62
     7
370
     9
100
AcDbCircle
 10
2497.795958172992
 20
-756.1665463834197
 30
0.0
 40
2.5
  0
CIRCLE
  5
12A
330
1F
100
AcDbEntity
  8
0-5_ダボ
  6
Continuous
 62
     7
370
     9
100
AcDbCircle
 10
2497.795958172992
 20
-724.1665463834192
 30
0.0
 40
2.5
  0
CIRCLE
  5
12B
330
1F
100
AcDbEntity
  8
0-5_ダボ
  6
Continuous
 62
     7
370
     9
100
AcDbCircle
 10
2497.795958172992
 20
-692.1665463834197
 30
0.0
 40
2.5
  0
CIRCLE
  5
12C
330
1F
100
AcDbEntity
  8
0-5_ダボ
  6
Continuous
 62
     7
370
     9
100
AcDbCircle
 10
2497.795958172992
 20
-660.1665463834206
 30
0.0
 40
2.5
  0
CIRCLE
  5
12D
330
1F
100
AcDbEntity
  8
0-5_ダボ
  6
Continuous
 62
     7
370
     9
100
AcDbCircle
 10
2497.795958172992
 20
-628.1665463834202
 30
0.0
 40
2.5
  0
CIRCLE
  5
12E
330
1F
100
AcDbEntity
  8
0-5_ダボ
  6
Continuous
 62
     7
370
     9
100
AcDbCircle
 10
2497.795958172992
 20
-596.1665463834197
 30
0.0
 40
2.5
  0
CIRCLE
  5
12F
330
1F
100
AcDbEntity
  8
0-5_ダボ
  6
Continuous
 62
     7
370
     9
100
AcDbCircle
 10
2497.795958172992
 20
-564.1665463834192
 30
0.0
 40
2.5
  0
CIRCLE
  5
130
330
1F
100
AcDbEntity
  8
0-5_ダボ
  6
Continuous
 62
     7
370
     9
100
AcDbCircle
 10
2497.795958172992
 20
-532.1665463834188
 30
0.0
 40
2.5
  0
CIRCLE
  5
131
330
1F
100
AcDbEntity
  8
0-5_ダボ
  6
Continuous
 62
     7
370
     9
100
AcDbCircle
 10
2497.795958172992
 20
-500.1665463834206
 30
0.0
 40
2.5
  0
CIRCLE
  5
132
330
1F
100
AcDbEntity
  8
0-5_ダボ
  6
Continuous
 62
     7
370
     9
100
AcDbCircle
 10
2497.795958172992
 20
-468.1665463834202
 30
0.0
 40
2.5
  0
CIRCLE
  5
133
330
1F
100
AcDbEntity
  8
0-5_ダボ
  6
Continuous
 62
     7
370
     9
100
AcDbCircle
 10
2497.795958172992
 20
-436.1665463834197
 30
0.0
 40
2.5
  0
CIRCLE
  5
134
330
1F
100
AcDbEntity
  8
0-5_ダボ
  6
Continuous
 62
     7
370
     9
100
AcDbCircle
 10
2497.795958172992
 20
-404.1665463834192
 30
0.0
 40
2.5
  0
CIRCLE
  5
135
330
1F
100
AcDbEntity
  8
0-5_ダボ
  6
Continuous
 62
     7
370
     9
100
AcDbCircle
 10
2497.795958172992
 20
-372.1665463834188
 30
0.0
 40
2.5
  0
CIRCLE
  5
136
330
1F
100
AcDbEntity
  8
0-5_ダボ
  6
Continuous
 62
     7
370
     9
100
AcDbCircle
 10
2497.795958172992
 20
-340.1665463834206
 30
0.0
 40
2.5
  0
CIRCLE
  5
137
330
1F
100
AcDbEntity
  8
0-5_ダボ
  6
Continuous
 62
     7
370
     9
100
AcDbCircle
 10
2497.795958172992
 20
-308.1665463834202
 30
0.0
 40
2.5
  0
CIRCLE
  5
138
330
1F
100
AcDbEntity
  8
0-5_ダボ
  6
Continuous
 62
     7
370
     9
100
AcDbCircle
 10
2497.795958172992
 20
-276.1665463834197
 30
0.0
 40
2.5
  0
CIRCLE
  5
139
330
1F
100
AcDbEntity
  8
0-5_ダボ
  6
Continuous
 62
     7
370
     9
100
AcDbCircle
 10
2497.795958172992
 20
-244.1665463834192
 30
0.0
 40
2.5
  0
CIRCLE
  5
13A
330
1F
100
AcDbEntity
  8
0-5_ダボ
  6
Continuous
 62
     7
370
     9
100
AcDbCircle
 10
2497.795958172992
 20
-212.1665463834188
 30
0.0
 40
2.5
  0
CIRCLE
  5
13B
330
1F
100
AcDbEntity
  8
0-5_ダボ
  6
Continuous
 62
     7
370
     9
100
AcDbCircle
 10
2497.795958172992
 20
-180.1665463834183
 30
0.0
 40
2.5
  0
CIRCLE
  5
13C
330
1F
100
AcDbEntity
  8
0-5_ダボ
  6
Continuous
 62
     7
370
     9
100
AcDbCircle
 10
2497.795958172992
 20
-148.1665463834202
 30
0.0
 40
2.5
  0
CIRCLE
  5
13D
330
1F
100
AcDbEntity
  8
0-5_ダボ
  6
Continuous
 62
     7
370
     9
100
AcDbCircle
 10
2497.795958172992
 20
-116.1665463834197
 30
0.0
 40
2.5
  0
CIRCLE
  5
13E
330
1F
100
AcDbEntity
  8
0-5_ダボ
  6
Continuous
 62
     7
370
     9
100
AcDbCircle
 10
2497.795958172992
 20
-84.16654638341925
 30
0.0
 40
2.5
  0
CIRCLE
  5
13F
330
1F
100
AcDbEntity
  8
0-5_ダボ
  6
Continuous
 62
     7
370
     9
100
AcDbCircle
 10
2497.795958172992
 20
-52.16654638341879
 30
0.0
 40
2.5
  0
CIRCLE
  5
140
330
1F
100
AcDbEntity
  8
0-5_ダボ
  6
Continuous
 62
     7
370
     9
100
AcDbCircle
 10
2497.795958172992
 20
-20.16654638341834
 30
0.0
 40
2.5
  0
CIRCLE
  5
141
330
1F
100
AcDbEntity
  8
0-5_ダボ
  6
Continuous
 62
     7
370
     9
100
AcDbCircle
 10
2497.795958172992
 20
107.8334536165812
 30
0.0
 40
2.5
  0
CIRCLE
  5
142
330
1F
100
AcDbEntity
  8
0-5_ダボ
  6
Continuous
 62
     7
370
     9
100
AcDbCircle
 10
2497.795958172992
 20
139.8334536165794
 30
0.0
 40
2.5
  0
CIRCLE
  5
143
330
1F
100
AcDbEntity
  8
0-5_ダボ
  6
Continuous
 62
     7
370
     9
100
AcDbCircle
 10
2497.795958172992
 20
171.8334536165798
 30
0.0
 40
2.5
  0
CIRCLE
  5
144
330
1F
100
AcDbEntity
  8
0-5_ダボ
  6
Continuous
 62
     7
370
     9
100
AcDbCircle
 10
2497.795958172992
 20
203.8334536165803
 30
0.0
 40
2.5
  0
CIRCLE
  5
145
330
1F
100
AcDbEntity
  8
0-5_ダボ
  6
Continuous
 62
     7
370
     9
100
AcDbCircle
 10
2497.795958172992
 20
235.8334536165808
 30
0.0
 40
2.5
  0
CIRCLE
  5
146
330
1F
100
AcDbEntity
  8
0-5_ダボ
  6
Continuous
 62
     7
370
     9
100
AcDbCircle
 10
2497.795958172992
 20
-1300.166546383421
 30
0.0
 40
2.5
  0
CIRCLE
  5
147
330
1F
100
AcDbEntity
  8
0-5_ダボ
  6
Continuous
 62
     7
370
     9
100
AcDbCircle
 10
2497.795958172992
 20
-1268.16654638342
 30
0.0
 40
2.5
  0
CIRCLE
  5
148
330
1F
100
AcDbEntity
  8
0-5_ダボ
  6
Continuous
 62
     7
370
     9
100
AcDbCircle
 10
2497.795958172992
 20
-1236.166546383421
 30
0.0
 40
2.5
  0
CIRCLE
  5
149
330
1F
100
AcDbEntity
  8
0-5_ダボ
  6
Continuous
 62
     7
370
     9
100
AcDbCircle
 10
2497.795958172992
 20
331.8334536165821
 30
0.0
 40
2.5
  0
CIRCLE
  5
14A
330
1F
100
AcDbEntity
  8
0-5_ダボ
  6
Continuous
 62
     7
370
     9
100
AcDbCircle
 10
2497.795958172992
 20
363.8334536165803
 30
0.0
 40
2.5
  0
CIRCLE
  5
14B
330
1F
100
AcDbEntity
  8
0-5_ダボ
  6
Continuous
 62
     7
370
     9
100
AcDbCircle
 10
2497.795958172992
 20
395.8334536165808
 30
0.0
 40
2.5
  0
CIRCLE
  5
14C
330
1F
100
AcDbEntity
  8
0-5_ダボ
  6
Continuous
 62
     7
370
     9
100
AcDbCircle
 10
2497.795958172992
 20
427.8334536165812
 30
0.0
 40
2.5
  0
CIRCLE
  5
14D
330
1F
100
AcDbEntity
  8
0-5_ダボ
  6
Continuous
 62
     7
370
     9
100
AcDbCircle
 10
2497.795958172992
 20
459.8334536165811
 30
0.0
 40
2.5
  0
CIRCLE
  5
14E
330
1F
100
AcDbEntity
  8
0-5_ダボ
  6
Continuous
 62
     7
370
     9
100
AcDbCircle
 10
2497.795958172992
 20
491.8334536165816
 30
0.0
 40
2.5
  0
CIRCLE
  5
14F
330
1F
100
AcDbEntity
  8
0-5_ダボ
  6
Continuous
 62
     7
370
     9
100
AcDbCircle
 10
2497.795958172992
 20
523.8334536165803
 30
0.0
 40
2.5
  0
CIRCLE
  5
150
330
1F
100
AcDbEntity
  8
0-5_ダボ
  6
Continuous
 62
     7
370
     9
100
AcDbCircle
 10
2497.795958172992
 20
555.8334536165808
 30
0.0
 40
2.5
  0
LINE
  5
151
330
1F
100
AcDbEntity
  8
0-1_本体
  6
Continuous
 62
    40
370
    15
100
AcDbLine
 10
2174.795958172995
 20
-1441.666546383419
 30
0.0
 11
2174.795958172995
 21
-1456.666546383419
 31
0.0
  0
LINE
  5
152
330
1F
100
AcDbEntity
  8
0-1_本体
  6
Continuous
 62
    40
370
    15
100
AcDbLine
 10
2174.795958172995
 20
-1441.666546383419
 30
0.0
 11
2516.795958172993
 21
-1441.666546383419
 31
0.0
  0
LINE
  5
153
330
1F
100
AcDbEntity
  8
0-1_本体
  6
Continuous
 62
    40
370
    15
100
AcDbLine
 10
2516.795958172993
 20
-1448.666546383421
 30
0.0
 11
2519.79595817299
 21
-1448.666546383421
 31
0.0
  0
LINE
  5
154
330
1F
100
AcDbEntity
  8
0-1_本体
  6
Continuous
 62
    40
370
    15
100
AcDbLine
 10
2519.79595817299
 20
-1456.666546383419
 30
0.0
 11
2174.795958172995
 21
-1456.666546383419
 31
0.0
  0
CIRCLE
  5
155
330
1F
100
AcDbEntity
  8
0-5_ダボ
  6
Continuous
 62
     7
370
     9
100
AcDbCircle
 10
2497.795958172992
 20
75.83345361658075
 30
0.0
 40
2.5
  0
LINE
  5
156
330
1F
100
AcDbEntity
  8
0-1_本体
  6
Continuous
 62
     7
370
     9
100
AcDbLine
 10
2519.79595817299
 20
-1456.666546383422
 30
0.0
 11
2519.79595817299
 21
712.3334536165817
 31
0.0
  0
LINE
  5
157
330
1F
100
AcDbEntity
  8
0-1_本体
  6
Continuous
 62
    40
370
    15
100
AcDbLine
 10
2519.79595817299
 20
704.3334536165816
 30
0.0
 11
2519.79595817299
 21
712.3334536165817
 31
0.0
  0
LINE
  5
158
330
1F
100
AcDbEntity
  8
0-1_本体
  6
Continuous
 62
    40
370
    15
100
AcDbLine
 10
2519.79595817299
 20
-1448.666546383421
 30
0.0
 11
2519.79595817299
 21
-1456.666546383419
 31
0.0
  0
TEXT
  5
159
330
1F
100
AcDbEntity
  8
0-A_文字
  6
Continuous
 62
     7
370
     9
100
AcDbText
 10
2613.532595481313
 20
861.002091116768
 30
0.0
 40
45.72
  1
30×105程度
 41
0.9999999999998347
  7
ＭＳ ゴシック
100
AcDbText
  0
TEXT
  5
15A
330
1F
100
AcDbEntity
  8
0-A_文字
  6
Continuous
 62
     7
370
     9
100
AcDbText
 10
2613.532595481288
 20
935.5445204012943
 30
0.0
 40
45.72
  1
下地位置
  7
ＭＳ ゴシック
100
AcDbText
  0
LINE
  5
15B
330
1F
100
AcDbEntity
  8
0-A_文字
  6
Continuous
 62
     7
370
     9
100
AcDbLine
 10
2533.270930256281
 20
690.8692182069058
 30
0.0
 11
2610.304024310708
 21
824.2944509734042
 31
0.0
  0
LINE
  5
15C
330
1F
100
AcDbEntity
  8
0-A_文字
  6
Continuous
 62
     7
370
     9
100
AcDbLine
 10
2610.304024310708
 20
824.2944509734042
 30
0.0
 11
2903.323684407151
 21
824.2944509734042
 31
0.0
  0
TEXT
  5
15D
330
1F
100
AcDbEntity
  8
0-A_文字
  6
Continuous
 62
     7
370
     9
100
AcDbText
 10
2613.532595481288
 20
1012.157572721501
 30
0.0
 40
45.72
  1
補強材
  7
ＭＳ ゴシック
100
AcDbText
  0
TEXT
  5
15E
330
1F
100
AcDbEntity
  8
0-B_寸法
  6
Continuous
 62
     7
370
   211
100
AcDbText
 10
2181.145633422316
 20
880.7934536165811
 30
0.0
 40
45.72
  1
37
  7
ＭＳ ゴシック
100
AcDbText
  0
TEXT
  5
15F
330
1F
100
AcDbEntity
  8
0-B_寸法
  6
Continuous
 62
     7
370
   211
100
AcDbText
 10
2458.367204507449
 20
880.7934536165811
 30
0.0
 40
45.72
  1
22
  7
ＭＳ ゴシック
100
AcDbText
  0
LINE
  5
160
330
1F
100
AcDbEntity
  8
0-6_桟木
  6
Continuous
 62
    92
370
    13
100
AcDbLine
 10
2501.795958172993
 20
-1441.666546383419
 30
0.0
 11
2516.795958172993
 21
-1441.666546383419
 31
0.0
  0
LINE
  5
161
330
1F
100
AcDbEntity
  8
0-6_桟木
  6
Continuous
 62
    92
370
    13
100
AcDbLine
 10
2501.795958172993
 20
-1377.666546383421
 30
0.0
 11
2501.795958172993
 21
-1441.666546383419
 31
0.0
  0
LINE
  5
162
330
1F
100
AcDbEntity
  8
0-6_桟木
  6
Continuous
 62
    92
370
    13
100
AcDbLine
 10
2516.795958172993
 20
-1377.666546383421
 30
0.0
 11
2501.795958172993
 21
-1377.666546383421
 31
0.0
  0
LINE
  5
163
330
1F
100
AcDbEntity
  8
0-6_桟木
  6
Continuous
 62
    92
370
    13
100
AcDbLine
 10
2501.795958172993
 20
633.3334536165808
 30
0.0
 11
2516.795958172993
 21
633.3334536165808
 31
0.0
  0
LINE
  5
164
330
1F
100
AcDbEntity
  8
0-6_桟木
  6
Continuous
 62
    92
370
    13
100
AcDbLine
 10
2501.795958172993
 20
697.3334536165817
 30
0.0
 11
2501.795958172993
 21
633.3334536165808
 31
0.0
  0
LINE
  5
165
330
1F
100
AcDbEntity
  8
0-6_桟木
  6
Continuous
 62
    92
370
    13
100
AcDbLine
 10
2516.795958172993
 20
697.3334536165817
 30
0.0
 11
2501.795958172993
 21
697.3334536165817
 31
0.0
  0
TEXT
  5
166
330
1F
100
AcDbEntity
  8
0-B_寸法
  6
Continuous
 62
     7
370
   211
100
AcDbText
 10
1884.335958172992
 20
-447.1665463834188
 30
0.0
 40
45.72
  1
1,856
 50
90.0
  7
ＭＳ ゴシック
100
AcDbText
  0
TEXT
  5
167
330
1F
100
AcDbEntity
  8
0-B_寸法
  6
Continuous
 62
     7
370
   211
100
AcDbText
 10
1884.335958172992
 20
-1453.41654638342
 30
0.0
 40
45.72
  1
156.5
 50
90.0
  7
ＭＳ ゴシック
100
AcDbText
  0
LINE
  5
168
330
1F
100
AcDbEntity
  8
0-B_寸法
  6
Continuous
 62
   120
370
     5
100
AcDbLine
 10
1802.795958172992
 20
-1456.666546383419
 30
0.0
 11
2102.795958172992
 21
-1456.666546383419
 31
0.0
  0
LWPOLYLINE
  5
169
330
1F
100
AcDbEntity
  8
0-B_寸法
  6
Continuous
 62
     7
370
     9
100
AcDbPolyline
 90
        4
 70
     1
 43
4.0
 10
1904.795958172992
 20
-1456.666546383419
 42
0.4142135623731
 10
1902.795958172992
 20
-1454.666546383419
 42
0.4142135623731
 10
1900.795958172992
 20
-1456.666546383419
 42
0.4142135623731
 10
1902.795958172992
 20
-1458.666546383419
 42
0.4142135623731
  0
LINE
  5
16A
330
1F
100
AcDbEntity
  8
0-B_寸法
  6
Continuous
 62
   120
370
     5
100
AcDbLine
 10
1902.795958172992
 20
-1300.166546383421
 30
0.0
 11
1902.795958172992
 21
-1456.666546383419
 31
0.0
  0
LINE
  5
16B
330
1F
100
AcDbEntity
  8
0-B_寸法
  6
Continuous
 62
   120
370
     5
100
AcDbLine
 10
1902.795958172992
 20
-1300.166546383421
 30
0.0
 11
2002.795958172992
 21
-1300.166546383421
 31
0.0
  0
LWPOLYLINE
  5
16C
330
1F
100
AcDbEntity
  8
0-B_寸法
  6
Continuous
 62
     7
370
     9
100
AcDbPolyline
 90
        4
 70
     1
 43
4.0
 10
1904.795958172992
 20
-1300.166546383421
 42
0.4142135623731
 10
1902.795958172992
 20
-1298.166546383421
 42
0.4142135623731
 10
1900.795958172992
 20
-1300.166546383421
 42
0.4142135623731
 10
1902.795958172992
 20
-1302.166546383421
 42
0.4142135623731
  0
LINE
  5
16D
330
1F
100
AcDbEntity
  8
0-B_寸法
  6
Continuous
 62
   120
370
     5
100
AcDbLine
 10
1902.795958172992
 20
555.8334536165808
 30
0.0
 11
1902.795958172992
 21
-1300.166546383421
 31
0.0
  0
TEXT
  5
16E
330
1F
100
AcDbEntity
  8
0-B_寸法
  6
Continuous
 62
     7
370
   211
100
AcDbText
 10
1884.335958172992
 20
559.0834536165812
 30
0.0
 40
45.72
  1
156.5
 50
90.0
  7
ＭＳ ゴシック
100
AcDbText
  0
LINE
  5
16F
330
1F
100
AcDbEntity
  8
0-B_寸法
  6
Continuous
 62
   120
370
     5
100
AcDbLine
 10
1902.795958172992
 20
555.8334536165808
 30
0.0
 11
2002.795958172992
 21
555.8334536165808
 31
0.0
  0
LINE
  5
170
330
1F
100
AcDbEntity
  8
0-B_寸法
  6
Continuous
 62
   120
370
     5
100
AcDbLine
 10
1802.795958172992
 20
712.3334536165817
 30
0.0
 11
2102.795958172992
 21
712.3334536165817
 31
0.0
  0
LWPOLYLINE
  5
171
330
1F
100
AcDbEntity
  8
0-B_寸法
  6
Continuous
 62
     7
370
     9
100
AcDbPolyline
 90
        4
 70
     1
 43
4.0
 10
1904.795958172992
 20
555.8334536165808
 42
0.4142135623731
 10
1902.795958172992
 20
557.8334536165808
 42
0.4142135623731
 10
1900.795958172992
 20
555.8334536165808
 42
0.4142135623731
 10
1902.795958172992
 20
553.8334536165808
 42
0.4142135623731
  0
LWPOLYLINE
  5
172
330
1F
100
AcDbEntity
  8
0-B_寸法
  6
Continuous
 62
     7
370
     9
100
AcDbPolyline
 90
        4
 70
     1
 43
4.0
 10
1904.795958172992
 20
712.3334536165811
 42
0.4142135623731
 10
1902.795958172992
 20
714.3334536165811
 42
0.4142135623731
 10
1900.795958172992
 20
712.3334536165811
 42
0.4142135623731
 10
1902.795958172992
 20
710.3334536165811
 42
0.4142135623731
  0
LINE
  5
173
330
1F
100
AcDbEntity
  8
0-B_寸法
  6
Continuous
 62
   120
370
     5
100
AcDbLine
 10
1902.795958172992
 20
712.3334536165811
 30
0.0
 11
1902.795958172992
 21
555.8334536165808
 31
0.0
  0
TEXT
  5
174
330
1F
100
AcDbEntity
  8
0-B_寸法
  6
Continuous
 62
     7
370
   211
100
AcDbText
 10
1984.335958172992
 20
-929.4165463834202
 30
0.0
 40
45.72
  1
964.5
 50
90.0
  7
ＭＳ ゴシック
100
AcDbText
  0
LINE
  5
175
330
1F
100
AcDbEntity
  8
0-B_寸法
  6
Continuous
 62
   120
370
     5
100
AcDbLine
 10
2002.795958172992
 20
-372.1665463834188
 30
0.0
 11
2102.795958172992
 21
-372.1665463834188
 31
0.0
  0
LWPOLYLINE
  5
176
330
1F
100
AcDbEntity
  8
0-B_寸法
  6
Continuous
 62
     7
370
     9
100
AcDbPolyline
 90
        4
 70
     1
 43
4.0
 10
2004.795958172992
 20
-372.1665463834188
 42
0.4142135623731
 10
2002.795958172992
 20
-370.1665463834188
 42
0.4142135623731
 10
2000.795958172992
 20
-372.1665463834188
 42
0.4142135623731
 10
2002.795958172992
 20
-374.1665463834188
 42
0.4142135623731
  0
LINE
  5
177
330
1F
100
AcDbEntity
  8
0-B_寸法
  6
Continuous
 62
   120
370
     5
100
AcDbLine
 10
2002.795958172992
 20
-1336.666546383419
 30
0.0
 11
2002.795958172992
 21
-372.1665463834188
 31
0.0
  0
TEXT
  5
178
330
1F
100
AcDbEntity
  8
0-B_寸法
  6
Continuous
 62
     7
370
   211
100
AcDbText
 10
1984.335958172992
 20
-1441.66654638342
 30
0.0
 40
45.72
  1
120
 50
90.0
  7
ＭＳ ゴシック
100
AcDbText
  0
LINE
  5
179
330
1F
100
AcDbEntity
  8
0-B_寸法
  6
Continuous
 62
   120
370
     5
100
AcDbLine
 10
2002.795958172992
 20
-1336.666546383419
 30
0.0
 11
2102.795958172992
 21
-1336.666546383419
 31
0.0
  0
LWPOLYLINE
  5
17A
330
1F
100
AcDbEntity
  8
0-B_寸法
  6
Continuous
 62
     7
370
     9
100
AcDbPolyline
 90
        4
 70
     1
 43
4.0
 10
2004.795958172992
 20
-1336.666546383419
 42
0.4142135623731
 10
2002.795958172992
 20
-1334.666546383419
 42
0.4142135623731
 10
2000.795958172992
 20
-1336.666546383419
 42
0.4142135623731
 10
2002.795958172992
 20
-1338.666546383419
 42
0.4142135623731
  0
LWPOLYLINE
  5
17B
330
1F
100
AcDbEntity
  8
0-B_寸法
  6
Continuous
 62
     7
370
     9
100
AcDbPolyline
 90
        4
 70
     1
 43
4.0
 10
2004.795958172992
 20
-1456.666546383419
 42
0.4142135623731
 10
2002.795958172992
 20
-1454.666546383419
 42
0.4142135623731
 10
2000.795958172992
 20
-1456.666546383419
 42
0.4142135623731
 10
2002.795958172992
 20
-1458.666546383419
 42
0.4142135623731
  0
LINE
  5
17C
330
1F
100
AcDbEntity
  8
0-B_寸法
  6
Continuous
 62
   120
370
     5
100
AcDbLine
 10
2002.795958172992
 20
-1456.666546383419
 30
0.0
 11
2002.795958172992
 21
-1336.666546383419
 31
0.0
  0
TEXT
  5
17D
330
1F
100
AcDbEntity
  8
0-B_寸法
  6
Continuous
 62
     7
370
   211
100
AcDbText
 10
1984.335958172992
 20
35.0834536165803
 30
0.0
 40
45.72
  1
964.5
 50
90.0
  7
ＭＳ ゴシック
100
AcDbText
  0
LINE
  5
17E
330
1F
100
AcDbEntity
  8
0-B_寸法
  6
Continuous
 62
   120
370
     5
100
AcDbLine
 10
2002.795958172992
 20
592.3334536165817
 30
0.0
 11
2002.795958172992
 21
-372.1665463834188
 31
0.0
  0
TEXT
  5
17F
330
1F
100
AcDbEntity
  8
0-B_寸法
  6
Continuous
 62
     7
370
   211
100
AcDbText
 10
1984.335958172992
 20
607.3334536165822
 30
0.0
 40
45.72
  1
120
 50
90.0
  7
ＭＳ ゴシック
100
AcDbText
  0
LINE
  5
180
330
1F
100
AcDbEntity
  8
0-B_寸法
  6
Continuous
 62
   120
370
     5
100
AcDbLine
 10
2002.795958172992
 20
592.3334536165817
 30
0.0
 11
2102.795958172992
 21
592.3334536165817
 31
0.0
  0
LWPOLYLINE
  5
181
330
1F
100
AcDbEntity
  8
0-B_寸法
  6
Continuous
 62
     7
370
     9
100
AcDbPolyline
 90
        4
 70
     1
 43
4.0
 10
2004.795958172992
 20
592.3334536165817
 42
0.4142135623731
 10
2002.795958172992
 20
594.3334536165817
 42
0.4142135623731
 10
2000.795958172992
 20
592.3334536165817
 42
0.4142135623731
 10
2002.795958172992
 20
590.3334536165817
 42
0.4142135623731
  0
LWPOLYLINE
  5
182
330
1F
100
AcDbEntity
  8
0-B_寸法
  6
Continuous
 62
     7
370
     9
100
AcDbPolyline
 90
        4
 70
     1
 43
4.0
 10
2004.795958172992
 20
712.3334536165811
 42
0.4142135623731
 10
2002.795958172992
 20
714.3334536165811
 42
0.4142135623731
 10
2000.795958172992
 20
712.3334536165811
 42
0.4142135623731
 10
2002.795958172992
 20
710.3334536165811
 42
0.4142135623731
  0
LINE
  5
183
330
1F
100
AcDbEntity
  8
0-B_寸法
  6
Continuous
 62
   120
370
     5
100
AcDbLine
 10
2002.795958172992
 20
712.3334536165811
 30
0.0
 11
2002.795958172992
 21
592.3334536165817
 31
0.0
  0
CIRCLE
  5
184
330
1F
100
AcDbEntity
  8
0-5_ダボ
  6
Continuous
 62
     7
370
     9
100
AcDbCircle
 10
2241.795958172993
 20
43.8334536165803
 30
0.0
 40
2.5
  0
CIRCLE
  5
185
330
1F
100
AcDbEntity
  8
0-5_ダボ
  6
Continuous
 62
     7
370
     9
100
AcDbCircle
 10
2241.795958172993
 20
11.83345361657985
 30
0.0
 40
2.5
  0
CIRCLE
  5
186
330
1F
100
AcDbEntity
  8
0-5_ダボ
  6
Continuous
 62
     7
370
     9
100
AcDbCircle
 10
2241.795958172993
 20
267.8334536165812
 30
0.0
 40
2.5
  0
CIRCLE
  5
187
330
1F
100
AcDbEntity
  8
0-5_ダボ
  6
Continuous
 62
     7
370
     9
100
AcDbCircle
 10
2241.795958172993
 20
299.8334536165794
 30
0.0
 40
2.5
  0
CIRCLE
  5
188
330
1F
100
AcDbEntity
  8
0-5_ダボ
  6
Continuous
 62
     7
370
     9
100
AcDbCircle
 10
2241.795958172993
 20
395.8334536165808
 30
0.0
 40
2.5
  0
CIRCLE
  5
189
330
1F
100
AcDbEntity
  8
0-5_ダボ
  6
Continuous
 62
     7
370
     9
100
AcDbCircle
 10
2241.795958172993
 20
427.8334536165812
 30
0.0
 40
2.5
  0
CIRCLE
  5
18A
330
1F
100
AcDbEntity
  8
0-5_ダボ
  6
Continuous
 62
     7
370
     9
100
AcDbCircle
 10
2241.795958172993
 20
139.8334536165794
 30
0.0
 40
2.5
  0
CIRCLE
  5
18B
330
1F
100
AcDbEntity
  8
0-5_ダボ
  6
Continuous
 62
     7
370
     9
100
AcDbCircle
 10
2241.795958172993
 20
171.8334536165798
 30
0.0
 40
2.5
  0
CIRCLE
  5
18C
330
1F
100
AcDbEntity
  8
0-5_ダボ
  6
Continuous
 62
     7
370
     9
100
AcDbCircle
 10
2241.795958172993
 20
-116.1665463834197
 30
0.0
 40
2.5
  0
CIRCLE
  5
18D
330
1F
100
AcDbEntity
  8
0-5_ダボ
  6
Continuous
 62
     7
370
     9
100
AcDbCircle
 10
2241.795958172993
 20
-84.16654638341925
 30
0.0
 40
2.5
  0
CIRCLE
  5
18E
330
1F
100
AcDbEntity
  8
0-5_ダボ
  6
Continuous
 62
     7
370
     9
100
AcDbCircle
 10
2241.795958172993
 20
-372.1665463834188
 30
0.0
 40
2.5
  0
CIRCLE
  5
18F
330
1F
100
AcDbEntity
  8
0-5_ダボ
  6
Continuous
 62
     7
370
     9
100
AcDbCircle
 10
2241.795958172993
 20
-340.1665463834206
 30
0.0
 40
2.5
  0
CIRCLE
  5
190
330
1F
100
AcDbEntity
  8
0-5_ダボ
  6
Continuous
 62
     7
370
     9
100
AcDbCircle
 10
2241.795958172993
 20
-628.1665463834202
 30
0.0
 40
2.5
  0
CIRCLE
  5
191
330
1F
100
AcDbEntity
  8
0-5_ダボ
  6
Continuous
 62
     7
370
     9
100
AcDbCircle
 10
2241.795958172993
 20
-596.1665463834197
 30
0.0
 40
2.5
  0
CIRCLE
  5
192
330
1F
100
AcDbEntity
  8
0-5_ダボ
  6
Continuous
 62
     7
370
     9
100
AcDbCircle
 10
2241.795958172993
 20
-884.1665463834192
 30
0.0
 40
2.5
  0
CIRCLE
  5
193
330
1F
100
AcDbEntity
  8
0-5_ダボ
  6
Continuous
 62
     7
370
     9
100
AcDbCircle
 10
2241.795958172993
 20
-852.1665463834197
 30
0.0
 40
2.5
  0
CIRCLE
  5
194
330
1F
100
AcDbEntity
  8
0-5_ダボ
  6
Continuous
 62
     7
370
     9
100
AcDbCircle
 10
2241.795958172993
 20
-1140.166546383421
 30
0.0
 40
2.5
  0
CIRCLE
  5
195
330
1F
100
AcDbEntity
  8
0-5_ダボ
  6
Continuous
 62
     7
370
     9
100
AcDbCircle
 10
2241.795958172993
 20
-1108.16654638342
 30
0.0
 40
2.5
  0
CIRCLE
  5
196
330
1F
100
AcDbEntity
  8
0-5_ダボ
  6
Continuous
 62
     7
370
     9
100
AcDbCircle
 10
2241.795958172993
 20
-1204.166546383422
 30
0.0
 40
2.5
  0
CIRCLE
  5
197
330
1F
100
AcDbEntity
  8
0-5_ダボ
  6
Continuous
 62
     7
370
     9
100
AcDbCircle
 10
2241.795958172993
 20
-1172.166546383421
 30
0.0
 40
2.5
  0
CIRCLE
  5
198
330
1F
100
AcDbEntity
  8
0-5_ダボ
  6
Continuous
 62
     7
370
     9
100
AcDbCircle
 10
2241.795958172993
 20
-1076.16654638342
 30
0.0
 40
2.5
  0
CIRCLE
  5
199
330
1F
100
AcDbEntity
  8
0-5_ダボ
  6
Continuous
 62
     7
370
     9
100
AcDbCircle
 10
2241.795958172993
 20
-1044.166546383419
 30
0.0
 40
2.5
  0
CIRCLE
  5
19A
330
1F
100
AcDbEntity
  8
0-5_ダボ
  6
Continuous
 62
     7
370
     9
100
AcDbCircle
 10
2241.795958172993
 20
-1012.166546383421
 30
0.0
 40
2.5
  0
CIRCLE
  5
19B
330
1F
100
AcDbEntity
  8
0-5_ダボ
  6
Continuous
 62
     7
370
     9
100
AcDbCircle
 10
2241.795958172993
 20
-980.1665463834206
 30
0.0
 40
2.5
  0
CIRCLE
  5
19C
330
1F
100
AcDbEntity
  8
0-5_ダボ
  6
Continuous
 62
     7
370
     9
100
AcDbCircle
 10
2241.795958172993
 20
-948.1665463834202
 30
0.0
 40
2.5
  0
CIRCLE
  5
19D
330
1F
100
AcDbEntity
  8
0-5_ダボ
  6
Continuous
 62
     7
370
     9
100
AcDbCircle
 10
2241.795958172993
 20
-916.1665463834197
 30
0.0
 40
2.5
  0
CIRCLE
  5
19E
330
1F
100
AcDbEntity
  8
0-5_ダボ
  6
Continuous
 62
     7
370
     9
100
AcDbCircle
 10
2241.795958172993
 20
-820.1665463834206
 30
0.0
 40
2.5
  0
CIRCLE
  5
19F
330
1F
100
AcDbEntity
  8
0-5_ダボ
  6
Continuous
 62
     7
370
     9
100
AcDbCircle
 10
2241.795958172993
 20
-788.1665463834202
 30
0.0
 40
2.5
  0
CIRCLE
  5
1A0
330
1F
100
AcDbEntity
  8
0-5_ダボ
  6
Continuous
 62
     7
370
     9
100
AcDbCircle
 10
2241.795958172993
 20
-756.1665463834197
 30
0.0
 40
2.5
  0
CIRCLE
  5
1A1
330
1F
100
AcDbEntity
  8
0-5_ダボ
  6
Continuous
 62
     7
370
     9
100
AcDbCircle
 10
2241.795958172993
 20
-724.1665463834192
 30
0.0
 40
2.5
  0
CIRCLE
  5
1A2
330
1F
100
AcDbEntity
  8
0-5_ダボ
  6
Continuous
 62
     7
370
     9
100
AcDbCircle
 10
2241.795958172993
 20
-692.1665463834197
 30
0.0
 40
2.5
  0
CIRCLE
  5
1A3
330
1F
100
AcDbEntity
  8
0-5_ダボ
  6
Continuous
 62
     7
370
     9
100
AcDbCircle
 10
2241.795958172993
 20
-660.1665463834206
 30
0.0
 40
2.5
  0
CIRCLE
  5
1A4
330
1F
100
AcDbEntity
  8
0-5_ダボ
  6
Continuous
 62
     7
370
     9
100
AcDbCircle
 10
2241.795958172993
 20
-564.1665463834192
 30
0.0
 40
2.5
  0
CIRCLE
  5
1A5
330
1F
100
AcDbEntity
  8
0-5_ダボ
  6
Continuous
 62
     7
370
     9
100
AcDbCircle
 10
2241.795958172993
 20
-532.1665463834188
 30
0.0
 40
2.5
  0
CIRCLE
  5
1A6
330
1F
100
AcDbEntity
  8
0-5_ダボ
  6
Continuous
 62
     7
370
     9
100
AcDbCircle
 10
2241.795958172993
 20
-500.1665463834206
 30
0.0
 40
2.5
  0
CIRCLE
  5
1A7
330
1F
100
AcDbEntity
  8
0-5_ダボ
  6
Continuous
 62
     7
370
     9
100
AcDbCircle
 10
2241.795958172993
 20
-468.1665463834202
 30
0.0
 40
2.5
  0
CIRCLE
  5
1A8
330
1F
100
AcDbEntity
  8
0-5_ダボ
  6
Continuous
 62
     7
370
     9
100
AcDbCircle
 10
2241.795958172993
 20
-436.1665463834197
 30
0.0
 40
2.5
  0
CIRCLE
  5
1A9
330
1F
100
AcDbEntity
  8
0-5_ダボ
  6
Continuous
 62
     7
370
     9
100
AcDbCircle
 10
2241.795958172993
 20
-404.1665463834192
 30
0.0
 40
2.5
  0
CIRCLE
  5
1AA
330
1F
100
AcDbEntity
  8
0-5_ダボ
  6
Continuous
 62
     7
370
     9
100
AcDbCircle
 10
2241.795958172993
 20
-308.1665463834202
 30
0.0
 40
2.5
  0
CIRCLE
  5
1AB
330
1F
100
AcDbEntity
  8
0-5_ダボ
  6
Continuous
 62
     7
370
     9
100
AcDbCircle
 10
2241.795958172993
 20
-276.1665463834197
 30
0.0
 40
2.5
  0
CIRCLE
  5
1AC
330
1F
100
AcDbEntity
  8
0-5_ダボ
  6
Continuous
 62
     7
370
     9
100
AcDbCircle
 10
2241.795958172993
 20
-244.1665463834192
 30
0.0
 40
2.5
  0
CIRCLE
  5
1AD
330
1F
100
AcDbEntity
  8
0-5_ダボ
  6
Continuous
 62
     7
370
     9
100
AcDbCircle
 10
2241.795958172993
 20
-212.1665463834188
 30
0.0
 40
2.5
  0
CIRCLE
  5
1AE
330
1F
100
AcDbEntity
  8
0-5_ダボ
  6
Continuous
 62
     7
370
     9
100
AcDbCircle
 10
2241.795958172993
 20
-180.1665463834183
 30
0.0
 40
2.5
  0
CIRCLE
  5
1AF
330
1F
100
AcDbEntity
  8
0-5_ダボ
  6
Continuous
 62
     7
370
     9
100
AcDbCircle
 10
2241.795958172993
 20
-148.1665463834202
 30
0.0
 40
2.5
  0
CIRCLE
  5
1B0
330
1F
100
AcDbEntity
  8
0-5_ダボ
  6
Continuous
 62
     7
370
     9
100
AcDbCircle
 10
2241.795958172993
 20
-52.16654638341879
 30
0.0
 40
2.5
  0
CIRCLE
  5
1B1
330
1F
100
AcDbEntity
  8
0-5_ダボ
  6
Continuous
 62
     7
370
     9
100
AcDbCircle
 10
2241.795958172993
 20
-20.16654638341834
 30
0.0
 40
2.5
  0
CIRCLE
  5
1B2
330
1F
100
AcDbEntity
  8
0-5_ダボ
  6
Continuous
 62
     7
370
     9
100
AcDbCircle
 10
2241.795958172993
 20
107.8334536165812
 30
0.0
 40
2.5
  0
CIRCLE
  5
1B3
330
1F
100
AcDbEntity
  8
0-5_ダボ
  6
Continuous
 62
     7
370
     9
100
AcDbCircle
 10
2241.795958172993
 20
203.8334536165803
 30
0.0
 40
2.5
  0
CIRCLE
  5
1B4
330
1F
100
AcDbEntity
  8
0-5_ダボ
  6
Continuous
 62
     7
370
     9
100
AcDbCircle
 10
2241.795958172993
 20
235.8334536165808
 30
0.0
 40
2.5
  0
CIRCLE
  5
1B5
330
1F
100
AcDbEntity
  8
0-5_ダボ
  6
Continuous
 62
     7
370
     9
100
AcDbCircle
 10
2241.795958172993
 20
331.8334536165821
 30
0.0
 40
2.5
  0
CIRCLE
  5
1B6
330
1F
100
AcDbEntity
  8
0-5_ダボ
  6
Continuous
 62
     7
370
     9
100
AcDbCircle
 10
2241.795958172993
 20
363.8334536165803
 30
0.0
 40
2.5
  0
CIRCLE
  5
1B7
330
1F
100
AcDbEntity
  8
0-5_ダボ
  6
Continuous
 62
     7
370
     9
100
AcDbCircle
 10
2241.795958172993
 20
459.8334536165811
 30
0.0
 40
2.5
  0
CIRCLE
  5
1B8
330
1F
100
AcDbEntity
  8
0-5_ダボ
  6
Continuous
 62
     7
370
     9
100
AcDbCircle
 10
2241.795958172993
 20
491.8334536165816
 30
0.0
 40
2.5
  0
CIRCLE
  5
1B9
330
1F
100
AcDbEntity
  8
0-5_ダボ
  6
Continuous
 62
     7
370
     9
100
AcDbCircle
 10
2241.795958172993
 20
523.8334536165803
 30
0.0
 40
2.5
  0
CIRCLE
  5
1BA
330
1F
100
AcDbEntity
  8
0-5_ダボ
  6
Continuous
 62
     7
370
     9
100
AcDbCircle
 10
2241.795958172993
 20
555.8334536165808
 30
0.0
 40
2.5
  0
CIRCLE
  5
1BB
330
1F
100
AcDbEntity
  8
0-5_ダボ
  6
Continuous
 62
     7
370
     9
100
AcDbCircle
 10
2241.795958172993
 20
-1268.16654638342
 30
0.0
 40
2.5
  0
CIRCLE
  5
1BC
330
1F
100
AcDbEntity
  8
0-5_ダボ
  6
Continuous
 62
     7
370
     9
100
AcDbCircle
 10
2241.795958172993
 20
-1236.166546383421
 30
0.0
 40
2.5
  0
CIRCLE
  5
1BD
330
1F
100
AcDbEntity
  8
0-5_ダボ
  6
Continuous
 62
     7
370
     9
100
AcDbCircle
 10
2241.795958172993
 20
-1300.166546383421
 30
0.0
 40
2.5
  0
CIRCLE
  5
1BE
330
1F
100
AcDbEntity
  8
0-5_ダボ
  6
Continuous
 62
     7
370
     9
100
AcDbCircle
 10
2241.795958172993
 20
75.83345361658075
 30
0.0
 40
2.5
  0
LINE
  5
1BF
330
1F
100
AcDbEntity
  8
0-B_寸法
  6
JWW_HOJO
 62
     7
370
     9
100
AcDbLine
 10
2241.795958172993
 20
710.3334536165806
 30
0.0
 11
2241.795958172993
 21
-1456.666546383419
 31
0.0
  0
LINE
  5
1C0
330
1F
100
AcDbEntity
  8
0-B_寸法
  6
Continuous
 62
   120
370
     5
100
AcDbLine
 10
2241.795958172993
 20
862.3334536165811
 30
0.0
 11
2211.795958172993
 21
862.3334536165811
 31
0.0
  0
LINE
  5
1C1
330
1F
100
AcDbEntity
  8
0-B_寸法
  6
Continuous
 62
   120
370
     5
100
AcDbLine
 10
2241.795958172993
 20
862.3334536165811
 30
0.0
 11
2241.795958172993
 21
762.3334536165811
 31
0.0
  0
LWPOLYLINE
  5
1C2
330
1F
100
AcDbEntity
  8
0-B_寸法
  6
Continuous
 62
     7
370
     9
100
AcDbPolyline
 90
        4
 70
     1
 43
4.0
 10
2243.795958172993
 20
862.3334536165811
 42
0.4142135623731
 10
2241.795958172993
 20
864.3334536165811
 42
0.4142135623731
 10
2239.795958172993
 20
862.3334536165811
 42
0.4142135623731
 10
2241.795958172993
 20
860.3334536165811
 42
0.4142135623731
  0
LINE
  5
1C3
330
1F
100
AcDbEntity
  8
0-B_寸法
  6
Continuous
 62
   120
370
     5
100
AcDbLine
 10
2497.795958172992
 20
862.3334536165811
 30
0.0
 11
2241.795958172993
 21
862.3334536165811
 31
0.0
  0
TEXT
  5
1C4
330
1F
100
AcDbEntity
  8
0-B_寸法
  6
Continuous
 62
     7
370
   211
100
AcDbText
 10
2258.136298964523
 20
879.1793914042017
 30
0.0
 40
45.72
  1
30
  7
ＭＳ ゴシック
100
AcDbText
  0
TEXT
  5
1C5
330
1F
100
AcDbEntity
  8
0-B_寸法
  6
Continuous
 62
     7
370
   211
100
AcDbText
 10
2342.145633422315
 20
880.7934536165811
 30
0.0
 40
45.72
  1
256
  7
ＭＳ ゴシック
100
AcDbText
  0
CIRCLE
  5
1C6
330
1F
100
AcDbEntity
  8
0-6_桟木
  6
Continuous
 62
     7
370
     9
100
AcDbCircle
 10
2509.295958172993
 20
681.333453616582
 30
0.0
 40
4.0
  0
CIRCLE
  5
1C7
330
1F
100
AcDbEntity
  8
0-6_桟木
  6
Continuous
 62
     7
370
     9
100
AcDbCircle
 10
2509.295958172993
 20
649.3334536165816
 30
0.0
 40
4.0
  0
LINE
  5
1C8
330
1F
100
AcDbEntity
  8
0-0_補助線
  6
JWW_HOJO
 62
   120
370
     5
100
AcDbLine
 10
2669.79595817299
 20
862.3334536165811
 30
0.0
 11
2669.79595817299
 21
-1851.16654638342
 31
0.0
  0
LINE
  5
1C9
330
1F
100
AcDbEntity
  8
0-0_補助線
  6
JWW_HOJO
 62
   120
370
     5
100
AcDbLine
 10
2486.795403861252
 20
862.3334536165811
 30
0.0
 11
2486.795403861252
 21
-1851.16654638342
 31
0.0
  0
LINE
  5
1CA
330
1F
100
AcDbEntity
  8
0-0_補助線
  6
JWW_HOJO
 62
   120
370
     5
100
AcDbLine
 10
2181.795958172993
 20
-1851.16654638342
 30
0.0
 11
2181.795958172993
 21
862.3334536165811
 31
0.0
  0
LINE
  5
1CB
330
1F
100
AcDbEntity
  8
0-0_補助線
  6
JWW_HOJO
 62
   120
370
     5
100
AcDbLine
 10
2246.79560181311
 20
862.3334536165811
 30
0.0
 11
2246.79560181311
 21
-1851.16654638342
 31
0.0
  0
LINE
  5
1CC
330
1F
100
AcDbEntity
  8
0-0_補助線
  6
JWW_HOJO
 62
   120
370
     5
100
AcDbLine
 10
2569.79595817299
 20
862.3334536165811
 30
0.0
 11
2569.79595817299
 21
-1851.16654638342
 31
0.0
  0
LINE
  5
1CD
330
1F
100
AcDbEntity
  8
0-0_補助線
  6
JWW_HOJO
 62
     7
370
     9
100
AcDbLine
 10
2519.79595817299
 20
-1851.16654638342
 30
0.0
 11
2519.79595817299
 21
862.3334536165811
 31
0.0
  0
LINE
  5
1CE
330
1F
100
AcDbEntity
  8
0-0_補助線
  6
JWW_HOJO
 62
   120
370
     5
100
AcDbLine
 10
2769.79595817299
 20
862.3334536165811
 30
0.0
 11
2769.79595817299
 21
-1851.16654638342
 31
0.0
  0
LINE
  5
1CF
330
1F
100
AcDbEntity
  8
0-0_補助線
  6
JWW_HOJO
 62
     7
370
     9
100
AcDbLine
 10
2174.795958172995
 20
-1851.16654638342
 30
0.0
 11
2174.795958172995
 21
862.3334536165811
 31
0.0
  0
LINE
  5
1D0
330
1F
100
AcDbEntity
  8
0-0_補助線
  6
JWW_HOJO
 62
   120
370
     5
100
AcDbLine
 10
1902.795958172992
 20
-1851.16654638342
 30
0.0
 11
1902.795958172992
 21
862.3334536165811
 31
0.0
  0
LINE
  5
1D1
330
1F
100
AcDbEntity
  8
0-0_補助線
  6
JWW_HOJO
 62
   120
370
     5
100
AcDbLine
 10
1802.795958172992
 20
862.3334536165811
 30
0.0
 11
1802.795958172992
 21
-1851.16654638342
 31
0.0
  0
LINE
  5
1D2
330
1F
100
AcDbEntity
  8
0-0_補助線
  6
JWW_HOJO
 62
   120
370
     5
100
AcDbLine
 10
2002.795958172992
 20
862.3334536165811
 30
0.0
 11
2002.795958172992
 21
-1851.16654638342
 31
0.0
  0
LINE
  5
1D3
330
1F
100
AcDbEntity
  8
0-0_補助線
  6
JWW_HOJO
 62
   120
370
     5
100
AcDbLine
 10
1702.795958172992
 20
862.3334536165811
 30
0.0
 11
1702.795958172992
 21
-1851.16654638342
 31
0.0
  0
LINE
  5
1D4
330
1F
100
AcDbEntity
  8
0-0_補助線
  6
JWW_HOJO
 62
   120
370
     5
100
AcDbLine
 10
2102.795958172992
 20
862.3334536165811
 30
0.0
 11
2102.795958172992
 21
-1851.16654638342
 31
0.0
  0
TEXT
  5
1D5
330
1F
100
AcDbEntity
  8
0-B_寸法
  6
Continuous
 62
     7
370
   211
100
AcDbText
 10
1784.335958172992
 20
-537.1665463834199
 30
0.0
 40
45.72
  1
ＤＨ＝2,163
 50
90.0
  7
ＭＳ ゴシック
100
AcDbText
  0
TEXT
  5
1D6
330
1F
100
AcDbEntity
  8
0-B_寸法
  6
Continuous
 62
     7
370
   211
100
AcDbText
 10
1784.335958172992
 20
676.4693457131835
 30
0.0
 40
45.72
  1
3
 50
90.0
  7
ＭＳ ゴシック
100
AcDbText
  0
TEXT
  5
1D7
330
1F
100
AcDbEntity
  8
0-B_寸法
  6
Continuous
 62
     7
370
   211
100
AcDbText
 10
1784.335958172992
 20
-1448.096554047129
 30
0.0
 40
45.72
  1
3
 50
90.0
  7
ＭＳ ゴシック
100
AcDbText
  0
LWPOLYLINE
  5
1D8
330
1F
100
AcDbEntity
  8
0-B_寸法
  6
Continuous
 62
     7
370
     9
100
AcDbPolyline
 90
        4
 70
     1
 43
4.0
 10
1804.795958172992
 20
712.3334536165817
 42
0.4142135623731
 10
1802.795958172992
 20
714.3334536165817
 42
0.4142135623731
 10
1800.795958172992
 20
712.3334536165817
 42
0.4142135623731
 10
1802.795958172992
 20
710.3334536165817
 42
0.4142135623731
  0
LINE
  5
1D9
330
1F
100
AcDbEntity
  8
0-B_寸法
  6
Continuous
 62
   120
370
     5
100
AcDbLine
 10
1802.795958172992
 20
709.3334536165798
 30
0.0
 11
1802.795958172992
 21
712.3334536165817
 31
0.0
  0
LWPOLYLINE
  5
1DA
330
1F
100
AcDbEntity
  8
0-B_寸法
  6
Continuous
 62
     7
370
     9
100
AcDbPolyline
 90
        4
 70
     1
 43
4.0
 10
1804.795958172992
 20
-1456.666546383419
 42
0.4142135623731
 10
1802.795958172992
 20
-1454.666546383419
 42
0.4142135623731
 10
1800.795958172992
 20
-1456.666546383419
 42
0.4142135623731
 10
1802.795958172992
 20
-1458.666546383419
 42
0.4142135623731
  0
LINE
  5
1DB
330
1F
100
AcDbEntity
  8
0-B_寸法
  6
Continuous
 62
   120
370
     5
100
AcDbLine
 10
1802.795958172992
 20
-1456.666546383419
 30
0.0
 11
1802.795958172992
 21
-1453.66654638342
 31
0.0
  0
LWPOLYLINE
  5
1DC
330
1F
100
AcDbEntity
  8
0-B_寸法
  6
Continuous
 62
     7
370
     9
100
AcDbPolyline
 90
        4
 70
     1
 43
4.0
 10
1804.795958172992
 20
709.3334536165798
 42
0.4142135623731
 10
1802.795958172992
 20
711.3334536165798
 42
0.4142135623731
 10
1800.795958172992
 20
709.3334536165798
 42
0.4142135623731
 10
1802.795958172992
 20
707.3334536165798
 42
0.4142135623731
  0
LWPOLYLINE
  5
1DD
330
1F
100
AcDbEntity
  8
0-B_寸法
  6
Continuous
 62
     7
370
     9
100
AcDbPolyline
 90
        4
 70
     1
 43
4.0
 10
1804.795958172992
 20
-1453.66654638342
 42
0.4142135623731
 10
1802.795958172992
 20
-1451.66654638342
 42
0.4142135623731
 10
1800.795958172992
 20
-1453.66654638342
 42
0.4142135623731
 10
1802.795958172992
 20
-1455.66654638342
 42
0.4142135623731
  0
LINE
  5
1DE
330
1F
100
AcDbEntity
  8
0-B_寸法
  6
Continuous
 62
   120
370
     5
100
AcDbLine
 10
1802.795958172992
 20
-1453.66654638342
 30
0.0
 11
1802.795958172992
 21
709.3334536165798
 31
0.0
  0
LINE
  5
1DF
330
1F
100
AcDbEntity
  8
0-B_寸法
  6
Continuous
 62
   120
370
     5
100
AcDbLine
 10
1802.795958172992
 20
709.3334536165798
 30
0.0
 11
2102.795958172992
 21
709.3334536165798
 31
0.0
  0
LINE
  5
1E0
330
1F
100
AcDbEntity
  8
0-B_寸法
  6
Continuous
 62
   120
370
     5
100
AcDbLine
 10
1802.795958172992
 20
-1453.66654638342
 30
0.0
 11
2102.795958172992
 21
-1453.66654638342
 31
0.0
  0
LINE
  5
1E1
330
1F
100
AcDbEntity
  8
0-6_桟木
  6
Continuous
 62
     7
370
     9
100
AcDbLine
 10
2519.795958172995
 20
-1456.666546383426
 30
0.0
 11
2549.795958172995
 21
-1561.666546383426
 31
0.0
  0
LINE
  5
1E2
330
1F
100
AcDbEntity
  8
0-6_桟木
  6
Continuous
 62
     7
370
     9
100
AcDbLine
 10
2519.795958172995
 20
-1561.666546383426
 30
0.0
 11
2549.795958172995
 21
-1456.666546383426
 31
0.0
  0
LINE
  5
1E3
330
1F
100
AcDbEntity
  8
0-6_桟木
  6
Continuous
 62
    92
370
    13
100
AcDbLine
 10
2549.795958172995
 20
-1561.666546383426
 30
0.0
 11
2549.795958172995
 21
-1456.666546383426
 31
0.0
  0
LINE
  5
1E4
330
1F
100
AcDbEntity
  8
0-6_桟木
  6
Continuous
 62
    92
370
    13
100
AcDbLine
 10
2519.795958172995
 20
-1561.666546383426
 30
0.0
 11
2549.795958172995
 21
-1561.666546383426
 31
0.0
  0
LINE
  5
1E5
330
1F
100
AcDbEntity
  8
0-6_桟木
  6
Continuous
 62
    92
370
    13
100
AcDbLine
 10
2549.795958172995
 20
-1456.666546383426
 30
0.0
 11
2519.795958172995
 21
-1456.666546383426
 31
0.0
  0
LINE
  5
1E6
330
1F
100
AcDbEntity
  8
0-6_桟木
  6
Continuous
 62
    92
370
    13
100
AcDbLine
 10
2519.795958172995
 20
-1456.666546383426
 30
0.0
 11
2519.795958172995
 21
-1561.666546383426
 31
0.0
  0
LINE
  5
1E7
330
1F
100
AcDbEntity
  8
0-3_扉仕上
  6
Continuous
 62
     7
370
     9
100
AcDbLine
 10
2519.795958172995
 20
-1456.666546383426
 30
0.0
 11
2519.795958172995
 21
-1606.666546383426
 31
0.0
  0
LINE
  5
1E8
330
1F
100
AcDbEntity
  8
0-3_扉仕上
  6
Continuous
 62
     7
370
     9
100
AcDbLine
 10
2519.795958172995
 20
-1606.666546383426
 30
0.0
 11
2152.795766772992
 21
-1606.666546383426
 31
0.0
  0
TEXT
  5
1E9
330
1F
100
AcDbEntity
  8
0-A_文字
  6
Continuous
 62
     7
370
     9
100
AcDbText
 10
1836.295862472994
 20
-2119.246546383426
 30
0.0
 40
91.44
  1
Ａ－Ａ’断面図
 41
1.071428571428571
  7
ＭＳ ゴシック
100
AcDbText
  0
LINE
  5
1EA
330
1F
100
AcDbEntity
  8
0-A_文字
  6
Continuous
 62
     7
370
     9
100
AcDbLine
 10
2806.295862472989
 20
-2151.166546383427
 30
0.0
 11
1766.295862472994
 21
-2151.166546383427
 31
0.0
  0
LINE
  5
1EB
330
1F
100
AcDbEntity
  8
0-A_文字
  6
Continuous
 62
     7
370
     9
100
AcDbLine
 10
1766.295862472994
 20
-2001.166546383427
 30
0.0
 11
2806.295862472989
 21
-2001.166546383427
 31
0.0
  0
LINE
  5
1EC
330
1F
100
AcDbEntity
  8
0-A_文字
  6
Continuous
 62
     7
370
     9
100
AcDbLine
 10
1766.295862472994
 20
-2001.166546383427
 30
0.0
 11
1766.295862472994
 21
-2151.166546383427
 31
0.0
  0
LINE
  5
1ED
330
1F
100
AcDbEntity
  8
0-A_文字
  6
Continuous
 62
     7
370
     9
100
AcDbLine
 10
2806.295862472989
 20
-2001.166546383427
 30
0.0
 11
2806.295862472989
 21
-2151.166546383427
 31
0.0
  0
LINE
  5
1EE
330
1F
100
AcDbEntity
  8
0-B_寸法
  6
Continuous
 62
   120
370
     5
100
AcDbLine
 10
2769.79595817299
 20
-1456.666546383426
 30
0.0
 11
2569.795958172995
 21
-1456.666546383426
 31
0.0
  0
LWPOLYLINE
  5
1EF
330
1F
100
AcDbEntity
  8
0-B_寸法
  6
Continuous
 62
     7
370
     9
100
AcDbPolyline
 90
        4
 70
     1
 43
4.0
 10
2771.79595817299
 20
-1456.666546383426
 42
0.4142135623731
 10
2769.79595817299
 20
-1454.666546383426
 42
0.4142135623731
 10
2767.79595817299
 20
-1456.666546383426
 42
0.4142135623731
 10
2769.79595817299
 20
-1458.666546383426
 42
0.4142135623731
  0
LINE
  5
1F0
330
1F
100
AcDbEntity
  8
0-B_寸法
  6
Continuous
 62
   120
370
     5
100
AcDbLine
 10
2769.79595817299
 20
-1606.666546383426
 30
0.0
 11
2569.795958172995
 21
-1606.666546383426
 31
0.0
  0
LWPOLYLINE
  5
1F1
330
1F
100
AcDbEntity
  8
0-B_寸法
  6
Continuous
 62
     7
370
     9
100
AcDbPolyline
 90
        4
 70
     1
 43
4.0
 10
2771.79595817299
 20
-1606.666546383426
 42
0.4142135623731
 10
2769.79595817299
 20
-1604.666546383426
 42
0.4142135623731
 10
2767.79595817299
 20
-1606.666546383426
 42
0.4142135623731
 10
2769.79595817299
 20
-1608.666546383426
 42
0.4142135623731
  0
LINE
  5
1F2
330
1F
100
AcDbEntity
  8
0-B_寸法
  6
Continuous
 62
   120
370
     5
100
AcDbLine
 10
2769.79595817299
 20
-1606.666546383426
 30
0.0
 11
2769.79595817299
 21
-1456.666546383426
 31
0.0
  0
TEXT
  5
1F3
330
1F
100
AcDbEntity
  8
0-B_寸法
  6
Continuous
 62
     7
370
   211
100
AcDbText
 10
2791.204190656754
 20
-1555.956546383426
 30
0.0
 40
45.72
  1
※(70～160㎜)
  7
ＭＳ ゴシック
100
AcDbText
  0
LINE
  5
1F4
330
1F
100
AcDbEntity
  8
0-B_寸法
  6
Continuous
 62
   120
370
     5
100
AcDbLine
 10
2669.795958172995
 20
-1456.666546383426
 30
0.0
 11
2669.795958172995
 21
-1561.666546383426
 31
0.0
  0
LWPOLYLINE
  5
1F5
330
1F
100
AcDbEntity
  8
0-B_寸法
  6
Continuous
 62
     7
370
     9
100
AcDbPolyline
 90
        4
 70
     1
 43
4.0
 10
2671.795958172995
 20
-1456.666546383426
 42
0.4142135623731
 10
2669.795958172995
 20
-1454.666546383426
 42
0.4142135623731
 10
2667.795958172995
 20
-1456.666546383426
 42
0.4142135623731
 10
2669.795958172995
 20
-1458.666546383426
 42
0.4142135623731
  0
LWPOLYLINE
  5
1F6
330
1F
100
AcDbEntity
  8
0-B_寸法
  6
Continuous
 62
     7
370
     9
100
AcDbPolyline
 90
        4
 70
     1
 43
4.0
 10
2671.795958172995
 20
-1561.666546383426
 42
0.4142135623731
 10
2669.795958172995
 20
-1559.666546383426
 42
0.4142135623731
 10
2667.795958172995
 20
-1561.666546383426
 42
0.4142135623731
 10
2669.795958172995
 20
-1563.666546383426
 42
0.4142135623731
  0
LINE
  5
1F7
330
1F
100
AcDbEntity
  8
0-B_寸法
  6
Continuous
 62
   120
370
     5
100
AcDbLine
 10
2669.795958172995
 20
-1561.666546383426
 30
0.0
 11
2569.795958172995
 21
-1561.666546383426
 31
0.0
  0
TEXT
  5
1F8
330
1F
100
AcDbEntity
  8
0-B_寸法
  6
Continuous
 62
     7
370
   211
100
AcDbText
 10
2651.33595817299
 20
-1554.166546383427
 30
0.0
 40
45.72
  1
105
 50
90.0
  7
ＭＳ ゴシック
100
AcDbText
  0
TEXT
  5
1F9
330
1F
100
AcDbEntity
  8
0-B_寸法
  6
Continuous
 62
     7
370
   211
100
AcDbText
 10
2302.295958172995
 20
-1732.706546383426
 30
0.0
 40
45.72
  1
345
  7
ＭＳ ゴシック
100
AcDbText
  0
LINE
  5
1FA
330
1F
100
AcDbEntity
  8
0-B_寸法
  6
Continuous
 62
   120
370
     5
100
AcDbLine
 10
2174.795958172995
 20
-1751.166546383427
 30
0.0
 11
2174.795958172995
 21
-1651.166546383427
 31
0.0
  0
LINE
  5
1FB
330
1F
100
AcDbEntity
  8
0-B_寸法
  6
Continuous
 62
   120
370
     5
100
AcDbLine
 10
2519.795958172995
 20
-1751.166546383427
 30
0.0
 11
2519.795958172995
 21
-1651.166546383427
 31
0.0
  0
LWPOLYLINE
  5
1FC
330
1F
100
AcDbEntity
  8
0-B_寸法
  6
Continuous
 62
     7
370
     9
100
AcDbPolyline
 90
        4
 70
     1
 43
4.0
 10
2176.795958172995
 20
-1751.166546383427
 42
0.4142135623731
 10
2174.795958172995
 20
-1749.166546383427
 42
0.4142135623731
 10
2172.795958172995
 20
-1751.166546383427
 42
0.4142135623731
 10
2174.795958172995
 20
-1753.166546383427
 42
0.4142135623731
  0
LWPOLYLINE
  5
1FD
330
1F
100
AcDbEntity
  8
0-B_寸法
  6
Continuous
 62
     7
370
     9
100
AcDbPolyline
 90
        4
 70
     1
 43
4.0
 10
2521.795958172995
 20
-1751.166546383427
 42
0.4142135623731
 10
2519.795958172995
 20
-1749.166546383427
 42
0.4142135623731
 10
2517.795958172995
 20
-1751.166546383427
 42
0.4142135623731
 10
2519.795958172995
 20
-1753.166546383427
 42
0.4142135623731
  0
LINE
  5
1FE
330
1F
100
AcDbEntity
  8
0-B_寸法
  6
Continuous
 62
   120
370
     5
100
AcDbLine
 10
2519.795958172995
 20
-1751.166546383427
 30
0.0
 11
2174.795958172995
 21
-1751.166546383427
 31
0.0
  0
LINE
  5
1FF
330
1F
100
AcDbEntity
  8
0-6_桟木
  6
Continuous
 62
    92
370
    13
100
AcDbLine
 10
2504.795958172995
 20
-1520.666546383427
 30
0.0
 11
2519.795958172995
 21
-1520.666546383427
 31
0.0
  0
LINE
  5
200
330
1F
100
AcDbEntity
  8
0-6_桟木
  6
Continuous
 62
    92
370
    13
100
AcDbLine
 10
2504.795958172995
 20
-1456.666546383426
 30
0.0
 11
2504.795958172995
 21
-1520.666546383427
 31
0.0
  0
LINE
  5
201
330
1F
100
AcDbEntity
  8
0-6_桟木
  6
Continuous
 62
    92
370
    13
100
AcDbLine
 10
2519.795958172995
 20
-1456.666546383426
 30
0.0
 11
2504.795958172995
 21
-1456.666546383426
 31
0.0
  0
LINE
  5
202
330
1F
100
AcDbEntity
  8
0-B_寸法
  6
Continuous
 62
   120
370
     5
100
AcDbLine
 10
2769.79595817299
 20
659.8334536165748
 30
0.0
 11
2769.79595817299
 21
-1404.166546383426
 31
0.0
  0
LWPOLYLINE
  5
203
330
1F
100
AcDbEntity
  8
0-B_寸法
  6
Continuous
 62
     7
370
     9
100
AcDbPolyline
 90
        4
 70
     1
 43
4.0
 10
2771.79595817299
 20
659.8334536165748
 42
0.4142135623731
 10
2769.79595817299
 20
661.8334536165748
 42
0.4142135623731
 10
2767.79595817299
 20
659.8334536165748
 42
0.4142135623731
 10
2769.79595817299
 20
657.8334536165748
 42
0.4142135623731
  0
LWPOLYLINE
  5
204
330
1F
100
AcDbEntity
  8
0-B_寸法
  6
Continuous
 62
     7
370
     9
100
AcDbPolyline
 90
        4
 70
     1
 43
4.0
 10
2771.79595817299
 20
-1404.166546383426
 42
0.4142135623731
 10
2769.79595817299
 20
-1402.166546383426
 42
0.4142135623731
 10
2767.79595817299
 20
-1404.166546383426
 42
0.4142135623731
 10
2769.79595817299
 20
-1406.166546383426
 42
0.4142135623731
  0
LINE
  5
205
330
1F
100
AcDbEntity
  8
0-B_寸法
  6
Continuous
 62
   120
370
     5
100
AcDbLine
 10
2769.79595817299
 20
659.8334536165748
 30
0.0
 11
2669.795958172995
 21
659.8334536165748
 31
0.0
  0
LINE
  5
206
330
1F
100
AcDbEntity
  8
0-B_寸法
  6
Continuous
 62
   120
370
     5
100
AcDbLine
 10
2769.79595817299
 20
-1404.166546383426
 30
0.0
 11
2669.795958172995
 21
-1404.166546383426
 31
0.0
  0
TEXT
  5
207
330
1F
100
AcDbEntity
  8
0-B_寸法
  6
Continuous
 62
     7
370
   211
100
AcDbText
 10
2751.335958172995
 20
-447.1665463834256
 30
0.0
 40
45.72
  1
2,064
 50
90.0
  7
ＭＳ ゴシック
100
AcDbText
  0
LINE
  5
208
330
1F
100
AcDbEntity
  8
0-6_桟木
  6
Continuous
 62
     7
370
     9
100
AcDbLine
 10
2519.795958172995
 20
712.3334536165748
 30
0.0
 11
2549.795958172995
 21
607.3334536165748
 31
0.0
  0
LINE
  5
209
330
1F
100
AcDbEntity
  8
0-6_桟木
  6
Continuous
 62
     7
370
     9
100
AcDbLine
 10
2519.795958172995
 20
607.3334536165748
 30
0.0
 11
2549.795958172995
 21
712.3334536165748
 31
0.0
  0
LINE
  5
20A
330
1F
100
AcDbEntity
  8
0-6_桟木
  6
Continuous
 62
    92
370
    13
100
AcDbLine
 10
2549.795958172995
 20
607.3334536165748
 30
0.0
 11
2549.795958172995
 21
712.3334536165748
 31
0.0
  0
LINE
  5
20B
330
1F
100
AcDbEntity
  8
0-6_桟木
  6
Continuous
 62
    92
370
    13
100
AcDbLine
 10
2549.795958172995
 20
712.3334536165748
 30
0.0
 11
2519.795958172995
 21
712.3334536165748
 31
0.0
  0
LINE
  5
20C
330
1F
100
AcDbEntity
  8
0-6_桟木
  6
Continuous
 62
    92
370
    13
100
AcDbLine
 10
2519.795958172995
 20
712.3334536165748
 30
0.0
 11
2519.795958172995
 21
607.3334536165748
 31
0.0
  0
LINE
  5
20D
330
1F
100
AcDbEntity
  8
0-6_桟木
  6
Continuous
 62
    92
370
    13
100
AcDbLine
 10
2519.795958172995
 20
607.3334536165748
 30
0.0
 11
2549.795958172995
 21
607.3334536165748
 31
0.0
  0
LINE
  5
20E
330
1F
100
AcDbEntity
  8
0-6_桟木
  6
Continuous
 62
     7
370
     9
100
AcDbLine
 10
2519.795958172995
 20
-1351.666546383426
 30
0.0
 11
2549.795958172995
 21
-1456.666546383426
 31
0.0
  0
LINE
  5
20F
330
1F
100
AcDbEntity
  8
0-6_桟木
  6
Continuous
 62
     7
370
     9
100
AcDbLine
 10
2519.795958172995
 20
-1456.666546383426
 30
0.0
 11
2549.795958172995
 21
-1351.666546383426
 31
0.0
  0
LINE
  5
210
330
1F
100
AcDbEntity
  8
0-6_桟木
  6
Continuous
 62
    92
370
    13
100
AcDbLine
 10
2549.795958172995
 20
-1456.666546383426
 30
0.0
 11
2549.795958172995
 21
-1351.666546383426
 31
0.0
  0
LINE
  5
211
330
1F
100
AcDbEntity
  8
0-6_桟木
  6
Continuous
 62
    92
370
    13
100
AcDbLine
 10
2549.795958172995
 20
-1351.666546383426
 30
0.0
 11
2519.795958172995
 21
-1351.666546383426
 31
0.0
  0
LINE
  5
212
330
1F
100
AcDbEntity
  8
0-6_桟木
  6
Continuous
 62
    92
370
    13
100
AcDbLine
 10
2519.795958172995
 20
-1351.666546383426
 30
0.0
 11
2519.795958172995
 21
-1456.666546383426
 31
0.0
  0
LINE
  5
213
330
1F
100
AcDbEntity
  8
0-B_寸法
  6
Continuous
 62
   120
370
     5
100
AcDbLine
 10
2669.795958172995
 20
-1456.666546383426
 30
0.0
 11
2669.795958172995
 21
-1351.666546383426
 31
0.0
  0
LWPOLYLINE
  5
214
330
1F
100
AcDbEntity
  8
0-B_寸法
  6
Continuous
 62
     7
370
     9
100
AcDbPolyline
 90
        4
 70
     1
 43
4.0
 10
2671.795958172995
 20
-1351.666546383426
 42
0.4142135623731
 10
2669.795958172995
 20
-1349.666546383426
 42
0.4142135623731
 10
2667.795958172995
 20
-1351.666546383426
 42
0.4142135623731
 10
2669.795958172995
 20
-1353.666546383426
 42
0.4142135623731
  0
LINE
  5
215
330
1F
100
AcDbEntity
  8
0-B_寸法
  6
Continuous
 62
   120
370
     5
100
AcDbLine
 10
2669.795958172995
 20
-1351.666546383426
 30
0.0
 11
2569.795958172995
 21
-1351.666546383426
 31
0.0
  0
TEXT
  5
216
330
1F
100
AcDbEntity
  8
0-B_寸法
  6
Continuous
 62
     7
370
   211
100
AcDbText
 10
2651.33595817299
 20
-1449.166546383427
 30
0.0
 40
45.72
  1
105
 50
90.0
  7
ＭＳ ゴシック
100
AcDbText
  0
LINE
  5
217
330
1F
100
AcDbEntity
  8
0-B_寸法
  6
Continuous
 62
   120
370
     5
100
AcDbLine
 10
2669.795958172995
 20
-1351.666546383426
 30
0.0
 11
2669.795958172995
 21
607.3334536165748
 31
0.0
  0
LWPOLYLINE
  5
218
330
1F
100
AcDbEntity
  8
0-B_寸法
  6
Continuous
 62
     7
370
     9
100
AcDbPolyline
 90
        4
 70
     1
 43
4.0
 10
2671.795958172995
 20
607.3334536165748
 42
0.4142135623731
 10
2669.795958172995
 20
609.3334536165748
 42
0.4142135623731
 10
2667.795958172995
 20
607.3334536165748
 42
0.4142135623731
 10
2669.795958172995
 20
605.3334536165748
 42
0.4142135623731
  0
LINE
  5
219
330
1F
100
AcDbEntity
  8
0-B_寸法
  6
Continuous
 62
   120
370
     5
100
AcDbLine
 10
2669.795958172995
 20
607.3334536165748
 30
0.0
 11
2569.795958172995
 21
607.3334536165748
 31
0.0
  0
TEXT
  5
21A
330
1F
100
AcDbEntity
  8
0-B_寸法
  6
Continuous
 62
     7
370
   211
100
AcDbText
 10
2651.33595817299
 20
-447.1665463834256
 30
0.0
 40
45.72
  1
1,959
 50
90.0
  7
ＭＳ ゴシック
100
AcDbText
  0
LINE
  5
21B
330
1F
100
AcDbEntity
  8
0-B_寸法
  6
Continuous
 62
   120
370
     5
100
AcDbLine
 10
2669.795958172995
 20
607.3334536165748
 30
0.0
 11
2669.795958172995
 21
712.3334536165748
 31
0.0
  0
LWPOLYLINE
  5
21C
330
1F
100
AcDbEntity
  8
0-B_寸法
  6
Continuous
 62
     7
370
     9
100
AcDbPolyline
 90
        4
 70
     1
 43
4.0
 10
2671.795958172995
 20
712.3334536165748
 42
0.4142135623731
 10
2669.795958172995
 20
714.3334536165748
 42
0.4142135623731
 10
2667.795958172995
 20
712.3334536165748
 42
0.4142135623731
 10
2669.795958172995
 20
710.3334536165748
 42
0.4142135623731
  0
LINE
  5
21D
330
1F
100
AcDbEntity
  8
0-B_寸法
  6
Continuous
 62
   120
370
     5
100
AcDbLine
 10
2669.795958172995
 20
712.3334536165748
 30
0.0
 11
2569.795958172995
 21
712.3334536165748
 31
0.0
  0
TEXT
  5
21E
330
1F
100
AcDbEntity
  8
0-B_寸法
  6
Continuous
 62
     7
370
   211
100
AcDbText
 10
2651.33595817299
 20
614.8334536165754
 30
0.0
 40
45.72
  1
105
 50
90.0
  7
ＭＳ ゴシック
100
AcDbText
  0
CIRCLE
  5
21F
330
1F
100
AcDbEntity
  8
0-6_桟木
  6
Continuous
 62
     7
370
     9
100
AcDbCircle
 10
2512.295958172995
 20
-1472.666546383425
 30
0.0
 40
4.0
  0
CIRCLE
  5
220
330
1F
100
AcDbEntity
  8
0-6_桟木
  6
Continuous
 62
     7
370
     9
100
AcDbCircle
 10
2512.295958172995
 20
-1504.666546383426
 30
0.0
 40
4.0
  0
TEXT
  5
221
330
1F
100
AcDbEntity
  8
0-A_文字
  6
Continuous
 62
     7
370
   211
100
AcDbText
 10
1605.989328556921
 20
-2246.520953508254
 30
0.0
 40
45.72
  1
※棚板は可動式32m/mピッチで調整可能
  7
ＭＳ ゴシック
100
AcDbText
  0
TEXT
  5
222
330
1F
100
AcDbEntity
  8
0-A_文字
  6
Continuous
 62
     7
370
   211
100
AcDbText
 10
1605.989328556921
 20
-2316.520953508254
 30
0.0
 40
45.72
  1
※下地用の木桟木は105m/m×30m/m以上の堅い木を使用してください。
  7
ＭＳ ゴシック
100
AcDbText
  0
TEXT
  5
223
330
1F
100
AcDbEntity
  8
0-A_文字
  6
Continuous
 62
     7
370
   211
100
AcDbText
 10
1605.989328556921
 20
-2386.520953508254
 30
0.0
 40
45.72
  1
※(70～160㎜)は参考寸法です。
  7
ＭＳ ゴシック
100
AcDbText
  0
TEXT
  5
224
330
1F
100
AcDbEntity
  8
0-A_文字
  6
Continuous
 62
     7
370
   211
100
AcDbText
 10
1605.989328556914
 20
-2456.520953508254
 30
0.0
 40
45.72
  1
　床(土間)からの高さに合わせて下地を入れてください。
 41
1.000000000000012
  7
ＭＳ ゴシック
100
AcDbText
  0
TEXT
  5
225
330
1F
100
AcDbEntity
  8
0-B_寸法
  6
Continuous
 62
     7
370
   211
100
AcDbText
 10
2292.795958172984
 20
1080.793453616581
 30
0.0
 40
45.72
  1
364
  7
ＭＳ ゴシック
100
AcDbText
  0
LINE
  5
226
330
1F
100
AcDbEntity
  8
0-B_寸法
  6
Continuous
 62
   120
370
     5
100
AcDbLine
 10
2519.795958172985
 20
1062.333453616581
 30
0.0
 11
2519.795958172985
 21
962.3334536165811
 31
0.0
  0
LINE
  5
227
330
1F
100
AcDbEntity
  8
0-B_寸法
  6
Continuous
 62
   120
370
     5
100
AcDbLine
 10
2155.795958172982
 20
1062.333453616581
 30
0.0
 11
2155.795958172982
 21
962.3334536165811
 31
0.0
  0
LWPOLYLINE
  5
228
330
1F
100
AcDbEntity
  8
0-B_寸法
  6
Continuous
 62
     7
370
     9
100
AcDbPolyline
 90
        4
 70
     1
 43
4.0
 10
2521.795958172984
 20
1062.333453616581
 42
0.4142135623731
 10
2519.795958172985
 20
1064.333453616581
 42
0.4142135623731
 10
2517.795958172985
 20
1062.333453616581
 42
0.4142135623731
 10
2519.795958172985
 20
1060.333453616581
 42
0.4142135623731
  0
LWPOLYLINE
  5
229
330
1F
100
AcDbEntity
  8
0-B_寸法
  6
Continuous
 62
     7
370
     9
100
AcDbPolyline
 90
        4
 70
     1
 43
4.0
 10
2157.795958172982
 20
1062.333453616581
 42
0.4142135623731
 10
2155.795958172982
 20
1064.333453616581
 42
0.4142135623731
 10
2153.795958172982
 20
1062.333453616581
 42
0.4142135623731
 10
2155.795958172982
 20
1060.333453616581
 42
0.4142135623731
  0
LINE
  5
22A
330
1F
100
AcDbEntity
  8
0-B_寸法
  6
Continuous
 62
   120
370
     5
100
AcDbLine
 10
2155.795958172982
 20
1062.333453616581
 30
0.0
 11
2519.795958172985
 21
1062.333453616581
 31
0.0
  0
LINE
  5
22B
330
1F
100
AcDbEntity
  8
0-B_寸法
  6
Continuous
 62
   120
370
     5
100
AcDbLine
 10
2155.795958172982
 20
962.3334536165811
 30
0.0
 11
2155.795958172982
 21
762.3334536165811
 31
0.0
  0
TEXT
  5
22C
330
1F
100
AcDbEntity
  8
0-B_寸法
  6
Continuous
 62
     7
370
   211
100
AcDbText
 10
2082.02594826504
 20
980.7934536165811
 30
0.0
 40
45.72
  1
18
  7
ＭＳ ゴシック
100
AcDbText
  0
TEXT
  5
22D
330
1F
100
AcDbEntity
  8
0-B_寸法
  6
Continuous
 62
     7
370
   211
100
AcDbText
 10
2159.295958172983
 20
980.7934536165811
 30
0.0
 40
45.72
  1
1
  7
ＭＳ ゴシック
100
AcDbText
  0
LWPOLYLINE
  5
22E
330
1F
100
AcDbEntity
  8
0-B_寸法
  6
Continuous
 62
     7
370
     9
100
AcDbPolyline
 90
        4
 70
     1
 43
4.0
 10
2157.795958172982
 20
962.3334536165811
 42
0.4142135623731
 10
2155.795958172982
 20
964.3334536165811
 42
0.4142135623731
 10
2153.795958172982
 20
962.3334536165811
 42
0.4142135623731
 10
2155.795958172982
 20
960.3334536165811
 42
0.4142135623731
  0
LINE
  5
22F
330
1F
100
AcDbEntity
  8
0-B_寸法
  6
Continuous
 62
   120
370
     5
100
AcDbLine
 10
2173.795958172984
 20
962.3334536165811
 30
0.0
 11
2155.795958172982
 21
962.3334536165811
 31
0.0
  0
LWPOLYLINE
  5
230
330
1F
100
AcDbEntity
  8
0-B_寸法
  6
Continuous
 62
     7
370
     9
100
AcDbPolyline
 90
        4
 70
     1
 43
4.0
 10
2175.795958172984
 20
962.3334536165811
 42
0.4142135623731
 10
2173.795958172984
 20
964.3334536165811
 42
0.4142135623731
 10
2171.795958172984
 20
962.3334536165811
 42
0.4142135623731
 10
2173.795958172984
 20
960.3334536165811
 42
0.4142135623731
  0
LINE
  5
231
330
1F
100
AcDbEntity
  8
0-B_寸法
  6
Continuous
 62
   120
370
     5
100
AcDbLine
 10
2174.795958172987
 20
962.3334536165811
 30
0.0
 11
2173.795958172984
 21
962.3334536165811
 31
0.0
  0
TEXT
  5
232
330
1F
100
AcDbEntity
  8
0-B_寸法
  6
Continuous
 62
     7
370
   211
100
AcDbText
 10
2302.295958172987
 20
980.7934536165811
 30
0.0
 40
45.72
  1
345
  7
ＭＳ ゴシック
100
AcDbText
  0
LINE
  5
233
330
1F
100
AcDbEntity
  8
0-B_寸法
  6
Continuous
 62
   120
370
     5
100
AcDbLine
 10
2174.795958172987
 20
962.3334536165811
 30
0.0
 11
2174.795958172987
 21
862.3334536165811
 31
0.0
  0
LINE
  5
234
330
1F
100
AcDbEntity
  8
0-B_寸法
  6
Continuous
 62
   120
370
     5
100
AcDbLine
 10
2519.795958172985
 20
962.3334536165811
 30
0.0
 11
2519.795958172985
 21
862.3334536165811
 31
0.0
  0
LWPOLYLINE
  5
235
330
1F
100
AcDbEntity
  8
0-B_寸法
  6
Continuous
 62
     7
370
     9
100
AcDbPolyline
 90
        4
 70
     1
 43
4.0
 10
2176.795958172987
 20
962.3334536165811
 42
0.4142135623731
 10
2174.795958172987
 20
964.3334536165811
 42
0.4142135623731
 10
2172.795958172987
 20
962.3334536165811
 42
0.4142135623731
 10
2174.795958172987
 20
960.3334536165811
 42
0.4142135623731
  0
LWPOLYLINE
  5
236
330
1F
100
AcDbEntity
  8
0-B_寸法
  6
Continuous
 62
     7
370
     9
100
AcDbPolyline
 90
        4
 70
     1
 43
4.0
 10
2521.795958172984
 20
962.3334536165811
 42
0.4142135623731
 10
2519.795958172985
 20
964.3334536165811
 42
0.4142135623731
 10
2517.795958172985
 20
962.3334536165811
 42
0.4142135623731
 10
2519.795958172985
 20
960.3334536165811
 42
0.4142135623731
  0
LINE
  5
237
330
1F
100
AcDbEntity
  8
0-B_寸法
  6
Continuous
 62
   120
370
     5
100
AcDbLine
 10
2519.795958172985
 20
962.3334536165811
 30
0.0
 11
2174.795958172987
 21
962.3334536165811
 31
0.0
  0
LINE
  5
238
330
1F
100
AcDbEntity
  8
0-2_扉
  6
Continuous
 62
    40
370
    15
100
AcDbLine
 10
2155.795958172982
 20
709.3334536165798
 30
0.0
 11
2155.795958172982
 21
-1453.666546383419
 31
0.0
  0
LINE
  5
239
330
1F
100
AcDbEntity
  8
0-2_扉
  6
Continuous
 62
    40
370
    15
100
AcDbLine
 10
2155.795958172982
 20
-1453.666546383419
 30
0.0
 11
2173.795958172984
 21
-1453.666546383419
 31
0.0
  0
LINE
  5
23A
330
1F
100
AcDbEntity
  8
0-2_扉
  6
Continuous
 62
    40
370
    15
100
AcDbLine
 10
2155.795958172982
 20
709.3334536165798
 30
0.0
 11
2173.795958172984
 21
709.3334536165798
 31
0.0
  0
LINE
  5
23B
330
1F
100
AcDbEntity
  8
0-2_扉
  6
Continuous
 62
    40
370
    15
100
AcDbLine
 10
2173.795958172984
 20
709.3334536165798
 30
0.0
 11
2173.795958172984
 21
-1453.666546383419
 31
0.0
  0
LINE
  5
23C
330
1F
100
AcDbEntity
  8
0-B_寸法
  6
Continuous
 62
   120
370
     5
100
AcDbLine
 10
2173.795958172984
 20
962.3334536165811
 30
0.0
 11
2173.795958172984
 21
762.3334536165811
 31
0.0
  0
LINE
  5
23D
330
1F
100
AcDbEntity
  8
0-0_補助線
  6
JWW_HOJO
 62
   120
370
     5
100
AcDbLine
 10
1202.795958172999
 20
712.3334536165811
 30
0.0
 11
1202.795958172999
 21
-1456.666546383419
 31
0.0
  0
TEXT
  5
23E
330
1F
100
AcDbEntity
  8
0-B_寸法
  6
Continuous
 62
     7
370
   211
100
AcDbText
 10
-707.664041827
 20
-447.1665463834188
 30
0.0
 40
45.72
  1
2,139
 50
90.0
  7
ＭＳ ゴシック
100
AcDbText
  0
LINE
  5
23F
330
1F
100
AcDbEntity
  8
0-B_寸法
  6
Continuous
 62
   120
370
     5
100
AcDbLine
 10
-689.204041827
 20
712.3334536165811
 30
0.0
 11
-489.204041827
 21
712.3334536165811
 31
0.0
  0
TEXT
  5
240
330
1F
100
AcDbEntity
  8
0-B_寸法
  6
Continuous
 62
     7
370
   211
100
AcDbText
 10
-707.664041827
 20
643.1055753262166
 30
0.0
 40
45.72
  1
15
 50
90.0
  7
ＭＳ ゴシック
100
AcDbText
  0
LINE
  5
241
330
1F
100
AcDbEntity
  8
0-4_棚
  6
Continuous
 62
    92
370
    13
100
AcDbLine
 10
-424.204041827
 20
-933.6665463834206
 30
0.0
 11
341.7959581729991
 21
-933.6665463834206
 31
0.0
  0
LINE
  5
242
330
1F
100
AcDbEntity
  8
0-4_棚
  6
Continuous
 62
    92
370
    13
100
AcDbLine
 10
-424.204041827
 20
-945.6665463834202
 30
0.0
 11
341.7959581729991
 21
-945.6665463834202
 31
0.0
  0
LINE
  5
243
330
1F
100
AcDbEntity
  8
0-4_棚
  6
Continuous
 62
    92
370
    13
100
AcDbLine
 10
-424.204041827
 20
-689.6665463834197
 30
0.0
 11
341.7959581729991
 21
-689.6665463834197
 31
0.0
  0
LINE
  5
244
330
1F
100
AcDbEntity
  8
0-4_棚
  6
Continuous
 62
    92
370
    13
100
AcDbLine
 10
-424.204041827
 20
-433.6665463834197
 30
0.0
 11
341.7959581729991
 21
-433.6665463834197
 31
0.0
  0
LINE
  5
245
330
1F
100
AcDbEntity
  8
0-4_棚
  6
Continuous
 62
    92
370
    13
100
AcDbLine
 10
-424.204041827
 20
-421.6665463834215
 30
0.0
 11
341.7959581729991
 21
-421.6665463834215
 31
0.0
  0
LINE
  5
246
330
1F
100
AcDbEntity
  8
0-4_棚
  6
Continuous
 62
    92
370
    13
100
AcDbLine
 10
-424.204041827
 20
-677.6665463834206
 30
0.0
 11
341.7959581729991
 21
-677.6665463834206
 31
0.0
  0
LINE
  5
247
330
1F
100
AcDbEntity
  8
0-4_棚
  6
Continuous
 62
    92
370
    13
100
AcDbLine
 10
-424.204041827
 20
494.3334536165816
 30
0.0
 11
341.7959581729991
 21
494.3334536165816
 31
0.0
  0
LINE
  5
248
330
1F
100
AcDbEntity
  8
0-4_棚
  6
Continuous
 62
    92
370
    13
100
AcDbLine
 10
-424.204041827
 20
46.3334536165803
 30
0.0
 11
341.7959581729991
 21
46.3334536165803
 31
0.0
  0
LINE
  5
249
330
1F
100
AcDbEntity
  8
0-4_棚
  6
Continuous
 62
    92
370
    13
100
AcDbLine
 10
-424.204041827
 20
58.33345361658075
 30
0.0
 11
341.7959581729991
 21
58.33345361658075
 31
0.0
  0
LINE
  5
24A
330
1F
100
AcDbEntity
  8
0-4_棚
  6
Continuous
 62
    92
370
    13
100
AcDbLine
 10
-424.204041827
 20
270.3334536165812
 30
0.0
 11
341.7959581729991
 21
270.3334536165812
 31
0.0
  0
LINE
  5
24B
330
1F
100
AcDbEntity
  8
0-4_棚
  6
Continuous
 62
    92
370
    13
100
AcDbLine
 10
-424.204041827
 20
282.3334536165794
 30
0.0
 11
341.7959581729991
 21
282.3334536165794
 31
0.0
  0
LINE
  5
24C
330
1F
100
AcDbEntity
  8
0-4_棚
  6
Continuous
 62
    92
370
    13
100
AcDbLine
 10
-424.204041827
 20
506.333453616582
 30
0.0
 11
341.7959581729991
 21
506.333453616582
 31
0.0
  0
LINE
  5
24D
330
1F
100
AcDbEntity
  8
0-4_棚
  6
Continuous
 62
    92
370
    13
100
AcDbLine
 10
-424.204041827
 20
-421.6665463834215
 30
0.0
 11
-424.204041827
 21
-433.6665463834197
 31
0.0
  0
LINE
  5
24E
330
1F
100
AcDbEntity
  8
0-4_棚
  6
Continuous
 62
    92
370
    13
100
AcDbLine
 10
-424.204041827
 20
-677.6665463834206
 30
0.0
 11
-424.204041827
 21
-689.6665463834197
 31
0.0
  0
LINE
  5
24F
330
1F
100
AcDbEntity
  8
0-4_棚
  6
Continuous
 62
    92
370
    13
100
AcDbLine
 10
-424.204041827
 20
-933.6665463834206
 30
0.0
 11
-424.204041827
 21
-945.6665463834202
 31
0.0
  0
LINE
  5
250
330
1F
100
AcDbEntity
  8
0-4_棚
  6
Continuous
 62
    92
370
    13
100
AcDbLine
 10
-424.204041827
 20
506.333453616582
 30
0.0
 11
-424.204041827
 21
494.3334536165816
 31
0.0
  0
LINE
  5
251
330
1F
100
AcDbEntity
  8
0-4_棚
  6
Continuous
 62
    92
370
    13
100
AcDbLine
 10
-424.204041827
 20
58.33345361658075
 30
0.0
 11
-424.204041827
 21
46.3334536165803
 31
0.0
  0
LINE
  5
252
330
1F
100
AcDbEntity
  8
0-4_棚
  6
Continuous
 62
    92
370
    13
100
AcDbLine
 10
-424.204041827
 20
282.3334536165794
 30
0.0
 11
-424.204041827
 21
270.3334536165812
 31
0.0
  0
LINE
  5
253
330
1F
100
AcDbEntity
  8
0-4_棚
  6
Continuous
 62
    92
370
    13
100
AcDbLine
 10
341.7959581729991
 20
-1189.66654638342
 30
0.0
 11
-424.204041827
 21
-1189.66654638342
 31
0.0
  0
LINE
  5
254
330
1F
100
AcDbEntity
  8
0-4_棚
  6
Continuous
 62
    92
370
    13
100
AcDbLine
 10
341.7959581729991
 20
-1201.666546383422
 30
0.0
 11
-424.204041827
 21
-1201.666546383422
 31
0.0
  0
LINE
  5
255
330
1F
100
AcDbEntity
  8
0-B_寸法
  6
JWW_HOJO
 62
     7
370
     9
100
AcDbLine
 10
111.2959581729996
 20
712.3334536165811
 30
0.0
 11
111.2959581729996
 21
-1456.666546383419
 31
0.0
  0
LINE
  5
256
330
1F
100
AcDbEntity
  8
0-B_寸法
  6
JWW_HOJO
 62
     7
370
     9
100
AcDbLine
 10
-193.7040418270004
 20
-1456.666546383419
 30
0.0
 11
-193.7040418270004
 21
712.3334536165811
 31
0.0
  0
TEXT
  5
257
330
1F
100
AcDbEntity
  8
0-B_寸法
  6
Continuous
 62
     7
370
   211
100
AcDbText
 10
-607.7571493936654
 20
-242.1665463834211
 30
0.0
 40
45.72
  1
15
 50
90.0
  7
ＭＳ ゴシック
100
AcDbText
  0
LINE
  5
258
330
1F
100
AcDbEntity
  8
0-B_寸法
  6
Continuous
 62
   120
370
     5
100
AcDbLine
 10
-589.2971493936653
 20
-204.6665463834233
 30
0.0
 11
-488.3253451569959
 21
-204.6665463834233
 31
0.0
  0
LWPOLYLINE
  5
259
330
1F
100
AcDbEntity
  8
0-B_寸法
  6
Continuous
 62
     7
370
     9
100
AcDbPolyline
 90
        4
 70
     1
 43
4.0
 10
-587.2971493936653
 20
-204.6665463834233
 42
0.4142135623731
 10
-589.2971493936653
 20
-202.6665463834233
 42
0.4142135623731
 10
-591.2971493936653
 20
-204.6665463834233
 42
0.4142135623731
 10
-589.2971493936653
 20
-206.6665463834233
 42
0.4142135623731
  0
LINE
  5
25A
330
1F
100
AcDbEntity
  8
0-B_寸法
  6
Continuous
 62
   120
370
     5
100
AcDbLine
 10
-589.2971493936653
 20
-219.6665463834188
 30
0.0
 11
-589.2971493936653
 21
-204.6665463834233
 31
0.0
  0
TEXT
  5
25B
330
1F
100
AcDbEntity
  8
0-B_寸法
  6
Continuous
 62
     7
370
   211
100
AcDbText
 10
-607.7571493936654
 20
-905.6665463834202
 30
0.0
 40
45.72
  1
1,222
 50
90.0
  7
ＭＳ ゴシック
100
AcDbText
  0
LINE
  5
25C
330
1F
100
AcDbEntity
  8
0-B_寸法
  6
Continuous
 62
   120
370
     5
100
AcDbLine
 10
-589.2971493936653
 20
-219.6665463834188
 30
0.0
 11
-488.3253451569959
 21
-219.6665463834188
 31
0.0
  0
LINE
  5
25D
330
1F
100
AcDbEntity
  8
0-B_寸法
  6
Continuous
 62
   120
370
     5
100
AcDbLine
 10
-689.204041827
 20
-1441.666546383419
 30
0.0
 11
-488.3253451569959
 21
-1441.666546383419
 31
0.0
  0
LWPOLYLINE
  5
25E
330
1F
100
AcDbEntity
  8
0-B_寸法
  6
Continuous
 62
     7
370
     9
100
AcDbPolyline
 90
        4
 70
     1
 43
4.0
 10
-587.2971493936653
 20
-219.6665463834188
 42
0.4142135623731
 10
-589.2971493936653
 20
-217.6665463834188
 42
0.4142135623731
 10
-591.2971493936653
 20
-219.6665463834188
 42
0.4142135623731
 10
-589.2971493936653
 20
-221.6665463834188
 42
0.4142135623731
  0
LWPOLYLINE
  5
25F
330
1F
100
AcDbEntity
  8
0-B_寸法
  6
Continuous
 62
     7
370
     9
100
AcDbPolyline
 90
        4
 70
     1
 43
4.0
 10
-587.2971493936653
 20
-1441.666546383419
 42
0.4142135623731
 10
-589.2971493936653
 20
-1439.666546383419
 42
0.4142135623731
 10
-591.2971493936653
 20
-1441.666546383419
 42
0.4142135623731
 10
-589.2971493936653
 20
-1443.666546383419
 42
0.4142135623731
  0
LINE
  5
260
330
1F
100
AcDbEntity
  8
0-B_寸法
  6
Continuous
 62
   120
370
     5
100
AcDbLine
 10
-589.2971493936653
 20
-1441.666546383419
 30
0.0
 11
-589.2971493936653
 21
-219.6665463834188
 31
0.0
  0
LINE
  5
261
330
1F
100
AcDbEntity
  8
0-B_寸法
  6
Continuous
 62
   120
370
     5
100
AcDbLine
 10
-689.204041827
 20
697.3334536165811
 30
0.0
 11
-489.204041827
 21
697.3334536165811
 31
0.0
  0
LWPOLYLINE
  5
262
330
1F
100
AcDbEntity
  8
0-B_寸法
  6
Continuous
 62
     7
370
     9
100
AcDbPolyline
 90
        4
 70
     1
 43
4.0
 10
-687.204041827
 20
697.3334536165811
 42
0.4142135623731
 10
-689.204041827
 20
699.3334536165811
 42
0.4142135623731
 10
-691.204041827
 20
697.3334536165811
 42
0.4142135623731
 10
-689.204041827
 20
695.3334536165811
 42
0.4142135623731
  0
LWPOLYLINE
  5
263
330
1F
100
AcDbEntity
  8
0-B_寸法
  6
Continuous
 62
     7
370
     9
100
AcDbPolyline
 90
        4
 70
     1
 43
4.0
 10
-687.204041827
 20
712.3334536165811
 42
0.4142135623731
 10
-689.204041827
 20
714.3334536165811
 42
0.4142135623731
 10
-691.204041827
 20
712.3334536165811
 42
0.4142135623731
 10
-689.204041827
 20
710.3334536165811
 42
0.4142135623731
  0
LINE
  5
264
330
1F
100
AcDbEntity
  8
0-B_寸法
  6
Continuous
 62
   120
370
     5
100
AcDbLine
 10
-689.204041827
 20
712.3334536165811
 30
0.0
 11
-689.204041827
 21
-1456.666546383419
 31
0.0
  0
TEXT
  5
265
330
1F
100
AcDbEntity
  8
0-B_寸法
  6
Continuous
 62
     7
370
   211
100
AcDbText
 10
138.1552272103471
 20
632.8334536165806
 30
0.0
 40
45.72
  1
64
 50
90.0
 41
1.083333333333333
  7
ＭＳ ゴシック
100
AcDbText
  0
LINE
  5
266
330
1F
100
AcDbEntity
  8
0-B_寸法
  6
Continuous
 62
   120
370
     5
100
AcDbLine
 10
156.6152272103471
 20
633.3334536165808
 30
0.0
 11
127.37695092705
 21
633.3334536165808
 31
0.0
  0
LINE
  5
267
330
1F
100
AcDbEntity
  8
0-B_寸法
  6
Continuous
 62
   120
370
     5
100
AcDbLine
 10
156.6152272103471
 20
697.3334536165811
 30
0.0
 11
127.37695092705
 21
697.3334536165811
 31
0.0
  0
LWPOLYLINE
  5
268
330
1F
100
AcDbEntity
  8
0-B_寸法
  6
Continuous
 62
     7
370
     9
100
AcDbPolyline
 90
        4
 70
     1
 43
4.0
 10
158.6152272103471
 20
633.3334536165808
 42
0.4142135623731
 10
156.6152272103471
 20
635.3334536165808
 42
0.4142135623731
 10
154.6152272103471
 20
633.3334536165808
 42
0.4142135623731
 10
156.6152272103471
 20
631.3334536165808
 42
0.4142135623731
  0
LWPOLYLINE
  5
269
330
1F
100
AcDbEntity
  8
0-B_寸法
  6
Continuous
 62
     7
370
     9
100
AcDbPolyline
 90
        4
 70
     1
 43
4.0
 10
158.6152272103471
 20
697.3334536165811
 42
0.4142135623731
 10
156.6152272103471
 20
699.3334536165811
 42
0.4142135623731
 10
154.6152272103471
 20
697.3334536165811
 42
0.4142135623731
 10
156.6152272103471
 20
695.3334536165811
 42
0.4142135623731
  0
LINE
  5
26A
330
1F
100
AcDbEntity
  8
0-B_寸法
  6
Continuous
 62
   120
370
     5
100
AcDbLine
 10
156.6152272103471
 20
697.3334536165811
 30
0.0
 11
156.6152272103471
 21
633.3334536165808
 31
0.0
  0
LINE
  5
26B
330
1F
100
AcDbEntity
  8
0-1_本体
  6
JWW_DASHED2
 62
     7
370
     9
100
AcDbLine
 10
341.7959581729991
 20
633.3334536165808
 30
0.0
 11
-424.204041827
 21
633.3334536165808
 31
0.0
  0
LINE
  5
26C
330
1F
100
AcDbEntity
  8
0-1_本体
  6
Continuous
 62
    92
370
    13
100
AcDbLine
 10
-439.204041827
 20
712.3334536165811
 30
0.0
 11
356.7959581729991
 21
712.3334536165811
 31
0.0
  0
LINE
  5
26D
330
1F
100
AcDbEntity
  8
0-1_本体
  6
Continuous
 62
    92
370
    13
100
AcDbLine
 10
-424.204041827
 20
697.3334536165811
 30
0.0
 11
341.7959581729991
 21
697.3334536165811
 31
0.0
  0
LINE
  5
26E
330
1F
100
AcDbEntity
  8
0-1_本体
  6
Continuous
 62
    92
370
    13
100
AcDbLine
 10
-424.204041827
 20
-1456.666546383419
 30
0.0
 11
-424.204041827
 21
712.3334536165811
 31
0.0
  0
LINE
  5
26F
330
1F
100
AcDbEntity
  8
0-1_本体
  6
Continuous
 62
    92
370
    13
100
AcDbLine
 10
-439.204041827
 20
-1456.666546383419
 30
0.0
 11
-439.204041827
 21
712.3334536165811
 31
0.0
  0
LINE
  5
270
330
1F
100
AcDbEntity
  8
0-1_本体
  6
Continuous
 62
    92
370
    13
100
AcDbLine
 10
341.7959581729991
 20
712.3334536165811
 30
0.0
 11
341.7959581729991
 21
-1456.666546383419
 31
0.0
  0
LINE
  5
271
330
1F
100
AcDbEntity
  8
0-1_本体
  6
Continuous
 62
    92
370
    13
100
AcDbLine
 10
356.7959581729991
 20
712.3334536165811
 30
0.0
 11
356.7959581729991
 21
-1456.666546383419
 31
0.0
  0
TEXT
  5
272
330
1F
100
AcDbEntity
  8
0-B_寸法
  6
Continuous
 62
     7
370
   211
100
AcDbText
 10
-707.664041827
 20
-1444.618095972124
 30
0.0
 40
45.72
  1
15
 50
90.0
  7
ＭＳ ゴシック
100
AcDbText
  0
LINE
  5
273
330
1F
100
AcDbEntity
  8
0-B_寸法
  6
Continuous
 62
   120
370
     5
100
AcDbLine
 10
-689.204041827
 20
-1456.666546383419
 30
0.0
 11
-489.204041827
 21
-1456.666546383419
 31
0.0
  0
LWPOLYLINE
  5
274
330
1F
100
AcDbEntity
  8
0-B_寸法
  6
Continuous
 62
     7
370
     9
100
AcDbPolyline
 90
        4
 70
     1
 43
4.0
 10
-687.204041827
 20
-1456.666546383419
 42
0.4142135623731
 10
-689.204041827
 20
-1454.666546383419
 42
0.4142135623731
 10
-691.204041827
 20
-1456.666546383419
 42
0.4142135623731
 10
-689.204041827
 20
-1458.666546383419
 42
0.4142135623731
  0
LWPOLYLINE
  5
275
330
1F
100
AcDbEntity
  8
0-B_寸法
  6
Continuous
 62
     7
370
     9
100
AcDbPolyline
 90
        4
 70
     1
 43
4.0
 10
-687.204041827
 20
-1441.666546383419
 42
0.4142135623731
 10
-689.204041827
 20
-1439.666546383419
 42
0.4142135623731
 10
-691.204041827
 20
-1441.666546383419
 42
0.4142135623731
 10
-689.204041827
 20
-1443.666546383419
 42
0.4142135623731
  0
LINE
  5
276
330
1F
100
AcDbEntity
  8
0-1_本体
  6
Continuous
 62
    92
370
    13
100
AcDbLine
 10
356.7959581729991
 20
-1456.666546383419
 30
0.0
 11
-439.204041827
 21
-1456.666546383419
 31
0.0
  0
LINE
  5
277
330
1F
100
AcDbEntity
  8
0-1_本体
  6
Continuous
 62
    92
370
    13
100
AcDbLine
 10
341.7959581729991
 20
-1441.666546383419
 30
0.0
 11
-424.204041827
 21
-1441.666546383419
 31
0.0
  0
LINE
  5
278
330
1F
100
AcDbEntity
  8
0-1_本体
  6
Continuous
 62
    40
370
    15
100
AcDbLine
 10
-424.204041827
 20
1738.063356107788
 30
0.0
 11
-439.204041827
 21
1738.063356107788
 31
0.0
  0
LINE
  5
279
330
1F
100
AcDbEntity
  8
0-1_本体
  6
Continuous
 62
    40
370
    15
100
AcDbLine
 10
-439.204041827
 20
1738.063356107788
 30
0.0
 11
-439.204041827
 21
2083.063356107788
 31
0.0
  0
LINE
  5
27A
330
1F
100
AcDbEntity
  8
0-1_本体
  6
Continuous
 62
    40
370
    15
100
AcDbLine
 10
341.7959581729991
 20
1738.063356107788
 30
0.0
 11
356.7959581729991
 21
1738.063356107788
 31
0.0
  0
LINE
  5
27B
330
1F
100
AcDbEntity
  8
0-1_本体
  6
Continuous
 62
    40
370
    15
100
AcDbLine
 10
356.7959581729991
 20
1738.063356107788
 30
0.0
 11
356.7959581729991
 21
2083.063356107788
 31
0.0
  0
LINE
  5
27C
330
1F
100
AcDbEntity
  8
0-1_本体
  6
Continuous
 62
    40
370
    15
100
AcDbLine
 10
-424.204041827
 20
2080.063356107788
 30
0.0
 11
-424.204041827
 21
1738.063356107788
 31
0.0
  0
LINE
  5
27D
330
1F
100
AcDbEntity
  8
0-1_本体
  6
Continuous
 62
    40
370
    15
100
AcDbLine
 10
341.7959581729991
 20
2080.063356107788
 30
0.0
 11
341.7959581729991
 21
1738.063356107788
 31
0.0
  0
LINE
  5
27E
330
1F
100
AcDbEntity
  8
0-4_棚
  6
Continuous
 62
    92
370
    13
100
AcDbLine
 10
-424.204041827
 20
1790.063356107788
 30
0.0
 11
341.7959581729991
 21
1790.063356107788
 31
0.0
  0
LINE
  5
27F
330
1F
100
AcDbEntity
  8
0-4_棚
  6
Continuous
 62
    92
370
    13
100
AcDbLine
 10
-424.204041827
 20
1745.063356107788
 30
0.0
 11
341.7959581729991
 21
1745.063356107788
 31
0.0
  0
LINE
  5
280
330
1F
100
AcDbEntity
  8
0-0_補助線
  6
JWW_HOJO
 62
   120
370
     5
100
AcDbLine
 10
-489.204041827
 20
2133.063356107788
 30
0.0
 11
-489.204041827
 21
1460.063356107788
 31
0.0
  0
LINE
  5
281
330
1F
100
AcDbEntity
  8
0-0_補助線
  6
JWW_HOJO
 62
   120
370
     5
100
AcDbLine
 10
-589.204041827
 20
2133.063356107788
 30
0.0
 11
-589.204041827
 21
1460.063356107788
 31
0.0
  0
LINE
  5
282
330
1F
100
AcDbEntity
  8
0-0_補助線
  6
JWW_HOJO
 62
   120
370
     5
100
AcDbLine
 10
-689.204041827
 20
2133.063356107788
 30
0.0
 11
-689.204041827
 21
1460.063356107788
 31
0.0
  0
LINE
  5
283
330
1F
100
AcDbEntity
  8
0-0_補助線
  6
JWW_HOJO
 62
   120
370
     5
100
AcDbLine
 10
-489.204041827
 20
-1851.16654638342
 30
0.0
 11
-489.204041827
 21
862.3334536165811
 31
0.0
  0
LINE
  5
284
330
1F
100
AcDbEntity
  8
0-0_補助線
  6
JWW_HOJO
 62
     7
370
     9
100
AcDbLine
 10
356.7959581729991
 20
-1851.16654638342
 30
0.0
 11
356.7959581729991
 21
862.3334536165811
 31
0.0
  0
LINE
  5
285
330
1F
100
AcDbEntity
  8
0-0_補助線
  6
JWW_HOJO
 62
     7
370
     9
100
AcDbLine
 10
-439.204041827
 20
862.3334536165811
 30
0.0
 11
-439.204041827
 21
-1851.16654638342
 31
0.0
  0
LINE
  5
286
330
1F
100
AcDbEntity
  8
0-1_本体
  6
JWW_DASHED2
 62
     7
370
     9
100
AcDbLine
 10
341.7959581729991
 20
-1377.666546383421
 30
0.0
 11
-424.204041827
 21
-1377.666546383421
 31
0.0
  0
TEXT
  5
287
330
1F
100
AcDbEntity
  8
0-B_寸法
  6
Continuous
 62
     7
370
   211
100
AcDbText
 10
138.1552272103471
 20
-1442.16654638342
 30
0.0
 40
45.72
  1
64
 50
90.0
 41
1.083333333333333
  7
ＭＳ ゴシック
100
AcDbText
  0
LINE
  5
288
330
1F
100
AcDbEntity
  8
0-B_寸法
  6
Continuous
 62
   120
370
     5
100
AcDbLine
 10
156.6152272103471
 20
-1441.666546383419
 30
0.0
 11
127.37695092705
 21
-1441.666546383419
 31
0.0
  0
LINE
  5
289
330
1F
100
AcDbEntity
  8
0-B_寸法
  6
Continuous
 62
   120
370
     5
100
AcDbLine
 10
156.6152272103471
 20
-1377.666546383421
 30
0.0
 11
127.37695092705
 21
-1377.666546383421
 31
0.0
  0
LWPOLYLINE
  5
28A
330
1F
100
AcDbEntity
  8
0-B_寸法
  6
Continuous
 62
     7
370
     9
100
AcDbPolyline
 90
        4
 70
     1
 43
4.0
 10
158.6152272103471
 20
-1441.666546383419
 42
0.4142135623731
 10
156.6152272103471
 20
-1439.666546383419
 42
0.4142135623731
 10
154.6152272103471
 20
-1441.666546383419
 42
0.4142135623731
 10
156.6152272103471
 20
-1443.666546383419
 42
0.4142135623731
  0
LWPOLYLINE
  5
28B
330
1F
100
AcDbEntity
  8
0-B_寸法
  6
Continuous
 62
     7
370
     9
100
AcDbPolyline
 90
        4
 70
     1
 43
4.0
 10
158.6152272103471
 20
-1377.666546383421
 42
0.4142135623731
 10
156.6152272103471
 20
-1375.666546383421
 42
0.4142135623731
 10
154.6152272103471
 20
-1377.666546383421
 42
0.4142135623731
 10
156.6152272103471
 20
-1379.666546383421
 42
0.4142135623731
  0
LINE
  5
28C
330
1F
100
AcDbEntity
  8
0-B_寸法
  6
Continuous
 62
   120
370
     5
100
AcDbLine
 10
156.6152272103471
 20
-1377.666546383421
 30
0.0
 11
156.6152272103471
 21
-1441.666546383419
 31
0.0
  0
LINE
  5
28D
330
1F
100
AcDbEntity
  8
0-4_棚
  6
Continuous
 62
    92
370
    13
100
AcDbLine
 10
371.7959581729991
 20
-933.6665463834206
 30
0.0
 11
1137.795958172999
 21
-933.6665463834206
 31
0.0
  0
LINE
  5
28E
330
1F
100
AcDbEntity
  8
0-4_棚
  6
Continuous
 62
    92
370
    13
100
AcDbLine
 10
371.7959581729991
 20
-945.6665463834202
 30
0.0
 11
1137.795958172999
 21
-945.6665463834202
 31
0.0
  0
LINE
  5
28F
330
1F
100
AcDbEntity
  8
0-4_棚
  6
Continuous
 62
    92
370
    13
100
AcDbLine
 10
371.7959581729991
 20
-689.6665463834197
 30
0.0
 11
1137.795958172999
 21
-689.6665463834197
 31
0.0
  0
LINE
  5
290
330
1F
100
AcDbEntity
  8
0-4_棚
  6
Continuous
 62
    92
370
    13
100
AcDbLine
 10
371.7959581729991
 20
-433.6665463834197
 30
0.0
 11
1137.795958172999
 21
-433.6665463834197
 31
0.0
  0
LINE
  5
291
330
1F
100
AcDbEntity
  8
0-4_棚
  6
Continuous
 62
    92
370
    13
100
AcDbLine
 10
371.7959581729991
 20
-421.6665463834215
 30
0.0
 11
1137.795958172999
 21
-421.6665463834215
 31
0.0
  0
LINE
  5
292
330
1F
100
AcDbEntity
  8
0-4_棚
  6
Continuous
 62
    92
370
    13
100
AcDbLine
 10
371.7959581729991
 20
-677.6665463834206
 30
0.0
 11
1137.795958172999
 21
-677.6665463834206
 31
0.0
  0
LINE
  5
293
330
1F
100
AcDbEntity
  8
0-4_棚
  6
Continuous
 62
    92
370
    13
100
AcDbLine
 10
371.7959581729991
 20
494.3334536165816
 30
0.0
 11
1137.795958172999
 21
494.3334536165816
 31
0.0
  0
LINE
  5
294
330
1F
100
AcDbEntity
  8
0-4_棚
  6
Continuous
 62
    92
370
    13
100
AcDbLine
 10
371.7959581729991
 20
46.3334536165803
 30
0.0
 11
1137.795958172999
 21
46.3334536165803
 31
0.0
  0
LINE
  5
295
330
1F
100
AcDbEntity
  8
0-4_棚
  6
Continuous
 62
    92
370
    13
100
AcDbLine
 10
371.7959581729991
 20
58.33345361658075
 30
0.0
 11
1137.795958172999
 21
58.33345361658075
 31
0.0
  0
LINE
  5
296
330
1F
100
AcDbEntity
  8
0-4_棚
  6
Continuous
 62
    92
370
    13
100
AcDbLine
 10
371.7959581729991
 20
270.3334536165812
 30
0.0
 11
1137.795958172999
 21
270.3334536165812
 31
0.0
  0
LINE
  5
297
330
1F
100
AcDbEntity
  8
0-4_棚
  6
Continuous
 62
    92
370
    13
100
AcDbLine
 10
371.7959581729991
 20
282.3334536165794
 30
0.0
 11
1137.795958172999
 21
282.3334536165794
 31
0.0
  0
LINE
  5
298
330
1F
100
AcDbEntity
  8
0-4_棚
  6
Continuous
 62
    92
370
    13
100
AcDbLine
 10
371.7959581729991
 20
506.333453616582
 30
0.0
 11
1137.795958172999
 21
506.333453616582
 31
0.0
  0
LINE
  5
299
330
1F
100
AcDbEntity
  8
0-4_棚
  6
Continuous
 62
    92
370
    13
100
AcDbLine
 10
371.7959581729991
 20
-421.6665463834215
 30
0.0
 11
371.7959581729991
 21
-433.6665463834197
 31
0.0
  0
LINE
  5
29A
330
1F
100
AcDbEntity
  8
0-4_棚
  6
Continuous
 62
    92
370
    13
100
AcDbLine
 10
371.7959581729991
 20
-677.6665463834206
 30
0.0
 11
371.7959581729991
 21
-689.6665463834197
 31
0.0
  0
LINE
  5
29B
330
1F
100
AcDbEntity
  8
0-4_棚
  6
Continuous
 62
    92
370
    13
100
AcDbLine
 10
371.7959581729991
 20
-933.6665463834206
 30
0.0
 11
371.7959581729991
 21
-945.6665463834202
 31
0.0
  0
LINE
  5
29C
330
1F
100
AcDbEntity
  8
0-4_棚
  6
Continuous
 62
    92
370
    13
100
AcDbLine
 10
371.7959581729991
 20
506.333453616582
 30
0.0
 11
371.7959581729991
 21
494.3334536165816
 31
0.0
  0
LINE
  5
29D
330
1F
100
AcDbEntity
  8
0-4_棚
  6
Continuous
 62
    92
370
    13
100
AcDbLine
 10
371.7959581729991
 20
58.33345361658075
 30
0.0
 11
371.7959581729991
 21
46.3334536165803
 31
0.0
  0
LINE
  5
29E
330
1F
100
AcDbEntity
  8
0-4_棚
  6
Continuous
 62
    92
370
    13
100
AcDbLine
 10
371.7959581729991
 20
282.3334536165794
 30
0.0
 11
371.7959581729991
 21
270.3334536165812
 31
0.0
  0
LINE
  5
29F
330
1F
100
AcDbEntity
  8
0-4_棚
  6
Continuous
 62
    92
370
    13
100
AcDbLine
 10
1137.795958172999
 20
-1189.66654638342
 30
0.0
 11
371.7959581729991
 21
-1189.66654638342
 31
0.0
  0
LINE
  5
2A0
330
1F
100
AcDbEntity
  8
0-4_棚
  6
Continuous
 62
    92
370
    13
100
AcDbLine
 10
1137.795958172999
 20
-1201.666546383422
 30
0.0
 11
371.7959581729991
 21
-1201.666546383422
 31
0.0
  0
LINE
  5
2A1
330
1F
100
AcDbEntity
  8
0-B_寸法
  6
JWW_HOJO
 62
     7
370
     9
100
AcDbLine
 10
907.2959581729975
 20
712.3334536165811
 30
0.0
 11
907.2959581729975
 21
-1456.666546383419
 31
0.0
  0
LINE
  5
2A2
330
1F
100
AcDbEntity
  8
0-B_寸法
  6
JWW_HOJO
 62
     7
370
     9
100
AcDbLine
 10
602.2959581729975
 20
-1456.666546383419
 30
0.0
 11
602.2959581729975
 21
712.3334536165811
 31
0.0
  0
TEXT
  5
2A3
330
1F
100
AcDbEntity
  8
0-B_寸法
  6
Continuous
 62
     7
370
   211
100
AcDbText
 10
934.1552272103473
 20
632.8334536165806
 30
0.0
 40
45.72
  1
64
 50
90.0
 41
1.083333333333333
  7
ＭＳ ゴシック
100
AcDbText
  0
LINE
  5
2A4
330
1F
100
AcDbEntity
  8
0-B_寸法
  6
Continuous
 62
   120
370
     5
100
AcDbLine
 10
952.6152272103474
 20
633.3334536165808
 30
0.0
 11
923.3769509270479
 21
633.3334536165808
 31
0.0
  0
LINE
  5
2A5
330
1F
100
AcDbEntity
  8
0-B_寸法
  6
Continuous
 62
   120
370
     5
100
AcDbLine
 10
952.6152272103474
 20
697.3334536165811
 30
0.0
 11
923.3769509270479
 21
697.3334536165811
 31
0.0
  0
LWPOLYLINE
  5
2A6
330
1F
100
AcDbEntity
  8
0-B_寸法
  6
Continuous
 62
     7
370
     9
100
AcDbPolyline
 90
        4
 70
     1
 43
4.0
 10
954.6152272103474
 20
633.3334536165808
 42
0.4142135623731
 10
952.6152272103474
 20
635.3334536165808
 42
0.4142135623731
 10
950.6152272103474
 20
633.3334536165808
 42
0.4142135623731
 10
952.6152272103474
 20
631.3334536165808
 42
0.4142135623731
  0
LWPOLYLINE
  5
2A7
330
1F
100
AcDbEntity
  8
0-B_寸法
  6
Continuous
 62
     7
370
     9
100
AcDbPolyline
 90
        4
 70
     1
 43
4.0
 10
954.6152272103474
 20
697.3334536165811
 42
0.4142135623731
 10
952.6152272103474
 20
699.3334536165811
 42
0.4142135623731
 10
950.6152272103474
 20
697.3334536165811
 42
0.4142135623731
 10
952.6152272103474
 20
695.3334536165811
 42
0.4142135623731
  0
LINE
  5
2A8
330
1F
100
AcDbEntity
  8
0-B_寸法
  6
Continuous
 62
   120
370
     5
100
AcDbLine
 10
952.6152272103474
 20
697.3334536165811
 30
0.0
 11
952.6152272103474
 21
633.3334536165808
 31
0.0
  0
LINE
  5
2A9
330
1F
100
AcDbEntity
  8
0-1_本体
  6
JWW_DASHED2
 62
     7
370
     9
100
AcDbLine
 10
1137.795958172999
 20
633.3334536165808
 30
0.0
 11
371.7959581729991
 21
633.3334536165808
 31
0.0
  0
LINE
  5
2AA
330
1F
100
AcDbEntity
  8
0-1_本体
  6
Continuous
 62
    92
370
    13
100
AcDbLine
 10
356.7959581729991
 20
712.3334536165811
 30
0.0
 11
1152.795958172999
 21
712.3334536165811
 31
0.0
  0
LINE
  5
2AB
330
1F
100
AcDbEntity
  8
0-1_本体
  6
Continuous
 62
    92
370
    13
100
AcDbLine
 10
371.7959581729991
 20
697.3334536165811
 30
0.0
 11
1137.795958172999
 21
697.3334536165811
 31
0.0
  0
LINE
  5
2AC
330
1F
100
AcDbEntity
  8
0-1_本体
  6
Continuous
 62
    92
370
    13
100
AcDbLine
 10
371.7959581729991
 20
-1456.666546383419
 30
0.0
 11
371.7959581729991
 21
712.3334536165811
 31
0.0
  0
LINE
  5
2AD
330
1F
100
AcDbEntity
  8
0-1_本体
  6
Continuous
 62
    92
370
    13
100
AcDbLine
 10
1137.795958172999
 20
712.3334536165811
 30
0.0
 11
1137.795958172999
 21
-1456.666546383419
 31
0.0
  0
LINE
  5
2AE
330
1F
100
AcDbEntity
  8
0-1_本体
  6
Continuous
 62
    92
370
    13
100
AcDbLine
 10
1152.795958172999
 20
712.3334536165811
 30
0.0
 11
1152.795958172999
 21
-1456.666546383419
 31
0.0
  0
LINE
  5
2AF
330
1F
100
AcDbEntity
  8
0-1_本体
  6
Continuous
 62
    92
370
    13
100
AcDbLine
 10
1152.795958172999
 20
-1456.666546383419
 30
0.0
 11
356.7959581729991
 21
-1456.666546383419
 31
0.0
  0
LINE
  5
2B0
330
1F
100
AcDbEntity
  8
0-1_本体
  6
Continuous
 62
    92
370
    13
100
AcDbLine
 10
1137.795958172999
 20
-1441.666546383419
 30
0.0
 11
371.7959581729991
 21
-1441.666546383419
 31
0.0
  0
LINE
  5
2B1
330
1F
100
AcDbEntity
  8
0-1_本体
  6
Continuous
 62
    40
370
    15
100
AcDbLine
 10
371.7959581729991
 20
1738.063356107788
 30
0.0
 11
356.7959581729991
 21
1738.063356107788
 31
0.0
  0
LINE
  5
2B2
330
1F
100
AcDbEntity
  8
0-1_本体
  6
Continuous
 62
    40
370
    15
100
AcDbLine
 10
1137.795958172999
 20
1738.063356107788
 30
0.0
 11
1152.795958172999
 21
1738.063356107788
 31
0.0
  0
LINE
  5
2B3
330
1F
100
AcDbEntity
  8
0-1_本体
  6
Continuous
 62
    40
370
    15
100
AcDbLine
 10
1152.795958172999
 20
1738.063356107788
 30
0.0
 11
1152.795958172999
 21
2083.063356107788
 31
0.0
  0
LINE
  5
2B4
330
1F
100
AcDbEntity
  8
0-1_本体
  6
Continuous
 62
    40
370
    15
100
AcDbLine
 10
371.7959581729991
 20
2080.063356107788
 30
0.0
 11
371.7959581729991
 21
1738.063356107788
 31
0.0
  0
LINE
  5
2B5
330
1F
100
AcDbEntity
  8
0-1_本体
  6
Continuous
 62
    40
370
    15
100
AcDbLine
 10
1137.795958172999
 20
2080.063356107788
 30
0.0
 11
1137.795958172999
 21
1738.063356107788
 31
0.0
  0
LINE
  5
2B6
330
1F
100
AcDbEntity
  8
0-4_棚
  6
Continuous
 62
    92
370
    13
100
AcDbLine
 10
371.7959581729991
 20
1790.063356107788
 30
0.0
 11
1137.795958172999
 21
1790.063356107788
 31
0.0
  0
LINE
  5
2B7
330
1F
100
AcDbEntity
  8
0-4_棚
  6
Continuous
 62
    92
370
    13
100
AcDbLine
 10
371.7959581729991
 20
1745.063356107788
 30
0.0
 11
1137.795958172999
 21
1745.063356107788
 31
0.0
  0
LINE
  5
2B8
330
1F
100
AcDbEntity
  8
0-1_本体
  6
JWW_DASHED2
 62
     7
370
     9
100
AcDbLine
 10
1137.795958172999
 20
-1377.666546383421
 30
0.0
 11
371.7959581729991
 21
-1377.666546383421
 31
0.0
  0
TEXT
  5
2B9
330
1F
100
AcDbEntity
  8
0-B_寸法
  6
Continuous
 62
     7
370
   211
100
AcDbText
 10
934.1552272103473
 20
-1442.16654638342
 30
0.0
 40
45.72
  1
64
 50
90.0
 41
1.083333333333333
  7
ＭＳ ゴシック
100
AcDbText
  0
LINE
  5
2BA
330
1F
100
AcDbEntity
  8
0-B_寸法
  6
Continuous
 62
   120
370
     5
100
AcDbLine
 10
952.6152272103474
 20
-1441.666546383419
 30
0.0
 11
923.3769509270479
 21
-1441.666546383419
 31
0.0
  0
LINE
  5
2BB
330
1F
100
AcDbEntity
  8
0-B_寸法
  6
Continuous
 62
   120
370
     5
100
AcDbLine
 10
952.6152272103474
 20
-1377.666546383421
 30
0.0
 11
923.3769509270479
 21
-1377.666546383421
 31
0.0
  0
LWPOLYLINE
  5
2BC
330
1F
100
AcDbEntity
  8
0-B_寸法
  6
Continuous
 62
     7
370
     9
100
AcDbPolyline
 90
        4
 70
     1
 43
4.0
 10
954.6152272103474
 20
-1441.666546383419
 42
0.4142135623731
 10
952.6152272103474
 20
-1439.666546383419
 42
0.4142135623731
 10
950.6152272103474
 20
-1441.666546383419
 42
0.4142135623731
 10
952.6152272103474
 20
-1443.666546383419
 42
0.4142135623731
  0
LWPOLYLINE
  5
2BD
330
1F
100
AcDbEntity
  8
0-B_寸法
  6
Continuous
 62
     7
370
     9
100
AcDbPolyline
 90
        4
 70
     1
 43
4.0
 10
954.6152272103474
 20
-1377.666546383421
 42
0.4142135623731
 10
952.6152272103474
 20
-1375.666546383421
 42
0.4142135623731
 10
950.6152272103474
 20
-1377.666546383421
 42
0.4142135623731
 10
952.6152272103474
 20
-1379.666546383421
 42
0.4142135623731
  0
LINE
  5
2BE
330
1F
100
AcDbEntity
  8
0-B_寸法
  6
Continuous
 62
   120
370
     5
100
AcDbLine
 10
952.6152272103474
 20
-1377.666546383421
 30
0.0
 11
952.6152272103474
 21
-1441.666546383419
 31
0.0
  0
TEXT
  5
2BF
330
1F
100
AcDbEntity
  8
0-A_文字
  6
Continuous
 62
     7
370
     9
100
AcDbText
 10
156.7959581729997
 20
1191.983356107787
 30
0.0
 40
91.44
  1
平面図
 41
1.111111111111111
  7
ＭＳ ゴシック
100
AcDbText
  0
LINE
  5
2C0
330
1F
100
AcDbEntity
  8
0-A_文字
  6
Continuous
 62
     7
370
     9
100
AcDbLine
 10
-68.20404182700088
 20
1160.063356107787
 30
0.0
 11
-68.20404182700088
 21
1310.063356107787
 31
0.0
  0
LINE
  5
2C1
330
1F
100
AcDbEntity
  8
0-A_文字
  6
Continuous
 62
     7
370
     9
100
AcDbLine
 10
781.7959581730003
 20
1160.063356107787
 30
0.0
 11
-68.20404182700088
 21
1160.063356107787
 31
0.0
  0
LINE
  5
2C2
330
1F
100
AcDbEntity
  8
0-A_文字
  6
Continuous
 62
     7
370
     9
100
AcDbLine
 10
781.7959581730003
 20
1310.063356107787
 30
0.0
 11
781.7959581730003
 21
1160.063356107787
 31
0.0
  0
LINE
  5
2C3
330
1F
100
AcDbEntity
  8
0-A_文字
  6
Continuous
 62
     7
370
     9
100
AcDbLine
 10
-68.20404182700088
 20
1310.063356107787
 30
0.0
 11
781.7959581730003
 21
1310.063356107787
 31
0.0
  0
LINE
  5
2C4
330
1F
100
AcDbEntity
  8
0-B_寸法
  6
Continuous
 62
   120
370
     5
100
AcDbLine
 10
1152.795958172999
 20
1460.063356107788
 30
0.0
 11
-439.204041827
 21
1460.063356107788
 31
0.0
  0
LWPOLYLINE
  5
2C5
330
1F
100
AcDbEntity
  8
0-B_寸法
  6
Continuous
 62
     7
370
     9
100
AcDbPolyline
 90
        4
 70
     1
 43
4.0
 10
1154.795958172999
 20
1460.063356107788
 42
0.4142135623731
 10
1152.795958172999
 20
1462.063356107788
 42
0.4142135623731
 10
1150.795958172999
 20
1460.063356107788
 42
0.4142135623731
 10
1152.795958172999
 20
1458.063356107788
 42
0.4142135623731
  0
LWPOLYLINE
  5
2C6
330
1F
100
AcDbEntity
  8
0-B_寸法
  6
Continuous
 62
     7
370
     9
100
AcDbPolyline
 90
        4
 70
     1
 43
4.0
 10
-437.204041827
 20
1460.063356107788
 42
0.4142135623731
 10
-439.204041827
 20
1462.063356107788
 42
0.4142135623731
 10
-441.204041827
 20
1460.063356107788
 42
0.4142135623731
 10
-439.204041827
 20
1458.063356107788
 42
0.4142135623731
  0
LINE
  5
2C7
330
1F
100
AcDbEntity
  8
0-B_寸法
  6
Continuous
 62
   120
370
     5
100
AcDbLine
 10
1152.795958172999
 20
1460.063356107788
 30
0.0
 11
1152.795958172999
 21
1560.063356107788
 31
0.0
  0
LINE
  5
2C8
330
1F
100
AcDbEntity
  8
0-B_寸法
  6
Continuous
 62
   120
370
     5
100
AcDbLine
 10
-439.204041827
 20
1460.063356107788
 30
0.0
 11
-439.204041827
 21
1560.063356107788
 31
0.0
  0
TEXT
  5
2C9
330
1F
100
AcDbEntity
  8
0-B_寸法
  6
Continuous
 62
     7
370
   211
100
AcDbText
 10
271.7959581729997
 20
1478.523356107788
 30
0.0
 40
45.72
  1
1,592
 41
1.133333333333333
  7
ＭＳ ゴシック
100
AcDbText
  0
LINE
  5
2CA
330
1F
100
AcDbEntity
  8
0-B_寸法
  6
Continuous
 62
   120
370
     5
100
AcDbLine
 10
-439.204041827
 20
862.3334536165811
 30
0.0
 11
1152.795958172999
 21
862.3334536165811
 31
0.0
  0
LWPOLYLINE
  5
2CB
330
1F
100
AcDbEntity
  8
0-B_寸法
  6
Continuous
 62
     7
370
     9
100
AcDbPolyline
 90
        4
 70
     1
 43
4.0
 10
-437.204041827
 20
862.3334536165811
 42
0.4142135623731
 10
-439.204041827
 20
864.3334536165811
 42
0.4142135623731
 10
-441.204041827
 20
862.3334536165811
 42
0.4142135623731
 10
-439.204041827
 20
860.3334536165811
 42
0.4142135623731
  0
LWPOLYLINE
  5
2CC
330
1F
100
AcDbEntity
  8
0-B_寸法
  6
Continuous
 62
     7
370
     9
100
AcDbPolyline
 90
        4
 70
     1
 43
4.0
 10
1154.795958172999
 20
862.3334536165811
 42
0.4142135623731
 10
1152.795958172999
 20
864.3334536165811
 42
0.4142135623731
 10
1150.795958172999
 20
862.3334536165811
 42
0.4142135623731
 10
1152.795958172999
 20
860.3334536165811
 42
0.4142135623731
  0
LINE
  5
2CD
330
1F
100
AcDbEntity
  8
0-B_寸法
  6
Continuous
 62
   120
370
     5
100
AcDbLine
 10
-439.204041827
 20
862.3334536165811
 30
0.0
 11
-439.204041827
 21
762.3334536165811
 31
0.0
  0
LINE
  5
2CE
330
1F
100
AcDbEntity
  8
0-B_寸法
  6
Continuous
 62
   120
370
     5
100
AcDbLine
 10
1152.795958172999
 20
862.3334536165811
 30
0.0
 11
1152.795958172999
 21
762.3334536165811
 31
0.0
  0
TEXT
  5
2CF
330
1F
100
AcDbEntity
  8
0-B_寸法
  6
Continuous
 62
     7
370
   211
100
AcDbText
 10
271.7959581729997
 20
880.7934536165811
 30
0.0
 40
45.72
  1
1,592
 41
1.133333333333333
  7
ＭＳ ゴシック
100
AcDbText
  0
LINE
  5
2D0
330
1F
100
AcDbEntity
  8
0-C_ハッチ
  6
Continuous
 62
   120
370
     5
100
AcDbLine
 10
-424.2040418270045
 20
-206.6538900009891
 30
0.0
 11
-422.2166982094319
 21
-204.6665463834188
 31
0.0
  0
LINE
  5
2D1
330
1F
100
AcDbEntity
  8
0-C_ハッチ
  6
Continuous
 62
   120
370
     5
100
AcDbLine
 10
-423.0745625857008
 20
-219.6665463834188
 30
0.0
 11
-408.0745625857008
 21
-204.6665463834188
 31
0.0
  0
LINE
  5
2D2
330
1F
100
AcDbEntity
  8
0-C_ハッチ
  6
Continuous
 62
   120
370
     5
100
AcDbLine
 10
-408.9324269619698
 20
-219.6665463834211
 30
0.0
 11
-393.9324269619698
 21
-204.6665463834211
 31
0.0
  0
LINE
  5
2D3
330
1F
100
AcDbEntity
  8
0-C_ハッチ
  6
Continuous
 62
   120
370
     5
100
AcDbLine
 10
-394.7902913382364
 20
-219.6665463834233
 30
0.0
 11
-379.7902913382364
 21
-204.6665463834211
 31
0.0
  0
LINE
  5
2D4
330
1F
100
AcDbEntity
  8
0-C_ハッチ
  6
Continuous
 62
   120
370
     5
100
AcDbLine
 10
-380.6481557145054
 20
-219.6665463834233
 30
0.0
 11
-365.6481557145031
 21
-204.6665463834233
 31
0.0
  0
LINE
  5
2D5
330
1F
100
AcDbEntity
  8
0-C_ハッチ
  6
Continuous
 62
   120
370
     5
100
AcDbLine
 10
-366.506020090772
 20
-219.6665463834233
 30
0.0
 11
-351.5060200907698
 21
-204.6665463834233
 31
0.0
  0
LINE
  5
2D6
330
1F
100
AcDbEntity
  8
0-C_ハッチ
  6
Continuous
 62
   120
370
     5
100
AcDbLine
 10
-352.363884467041
 20
-219.6665463834256
 30
0.0
 11
-337.3638844670387
 21
-204.6665463834233
 31
0.0
  0
LINE
  5
2D7
330
1F
100
AcDbEntity
  8
0-C_ハッチ
  6
Continuous
 62
   120
370
     5
100
AcDbLine
 10
-338.2217488433076
 20
-219.6665463834279
 30
0.0
 11
-323.2217488433076
 21
-204.6665463834256
 31
0.0
  0
LINE
  5
2D8
330
1F
100
AcDbEntity
  8
0-C_ハッチ
  6
Continuous
 62
   120
370
     5
100
AcDbLine
 10
-324.0796132195766
 20
-219.6665463834279
 30
0.0
 11
-309.0796132195743
 21
-204.6665463834279
 31
0.0
  0
LINE
  5
2D9
330
1F
100
AcDbEntity
  8
0-C_ハッチ
  6
Continuous
 62
   120
370
     5
100
AcDbLine
 10
-309.9374775958432
 20
-219.6665463834279
 30
0.0
 11
-294.937477595841
 21
-204.6665463834279
 31
0.0
  0
LINE
  5
2DA
330
1F
100
AcDbEntity
  8
0-C_ハッチ
  6
Continuous
 62
   120
370
     5
100
AcDbLine
 10
-295.7953419721304
 20
-219.6665463834142
 30
0.0
 11
-280.7953419721395
 21
-204.6665463834233
 31
0.0
  0
LINE
  5
2DB
330
1F
100
AcDbEntity
  8
0-C_ハッチ
  6
Continuous
 62
   120
370
     5
100
AcDbLine
 10
-281.6532063483993
 20
-219.6665463834142
 30
0.0
 11
-266.653206348397
 21
-204.6665463834142
 31
0.0
  0
LINE
  5
2DC
330
1F
100
AcDbEntity
  8
0-C_ハッチ
  6
Continuous
 62
   120
370
     5
100
AcDbLine
 10
-267.5110707246682
 20
-219.6665463834165
 30
0.0
 11
-252.511070724666
 21
-204.6665463834142
 31
0.0
  0
LINE
  5
2DD
330
1F
100
AcDbEntity
  8
0-C_ハッチ
  6
Continuous
 62
   120
370
     5
100
AcDbLine
 10
-253.3689351009349
 20
-219.6665463834188
 30
0.0
 11
-238.3689351009349
 21
-204.6665463834165
 31
0.0
  0
LINE
  5
2DE
330
1F
100
AcDbEntity
  8
0-C_ハッチ
  6
Continuous
 62
   120
370
     5
100
AcDbLine
 10
-239.2267994772038
 20
-219.6665463834188
 30
0.0
 11
-224.2267994772016
 21
-204.6665463834188
 31
0.0
  0
LINE
  5
2DF
330
1F
100
AcDbEntity
  8
0-C_ハッチ
  6
Continuous
 62
   120
370
     5
100
AcDbLine
 10
-225.0846638534728
 20
-219.6665463834211
 30
0.0
 11
-210.0846638534705
 21
-204.6665463834188
 31
0.0
  0
LINE
  5
2E0
330
1F
100
AcDbEntity
  8
0-C_ハッチ
  6
Continuous
 62
   120
370
     5
100
AcDbLine
 10
-210.9425282297394
 20
-219.6665463834211
 30
0.0
 11
-195.9425282297394
 21
-204.6665463834211
 31
0.0
  0
LINE
  5
2E1
330
1F
100
AcDbEntity
  8
0-C_ハッチ
  6
Continuous
 62
   120
370
     5
100
AcDbLine
 10
-196.8003926060061
 20
-219.6665463834233
 30
0.0
 11
-181.8003926060061
 21
-204.6665463834211
 31
0.0
  0
LINE
  5
2E2
330
1F
100
AcDbEntity
  8
0-C_ハッチ
  6
Continuous
 62
   120
370
     5
100
AcDbLine
 10
-182.6582569822727
 20
-219.6665463834211
 30
0.0
 11
-167.6582569822705
 21
-204.6665463834188
 31
0.0
  0
LINE
  5
2E3
330
1F
100
AcDbEntity
  8
0-C_ハッチ
  6
Continuous
 62
   120
370
     5
100
AcDbLine
 10
-168.5161213585394
 20
-219.6665463834233
 30
0.0
 11
-153.5161213585394
 21
-204.6665463834211
 31
0.0
  0
LINE
  5
2E4
330
1F
100
AcDbEntity
  8
0-C_ハッチ
  6
Continuous
 62
   120
370
     5
100
AcDbLine
 10
-154.3739857348061
 20
-219.6665463834233
 30
0.0
 11
-139.3739857348061
 21
-204.6665463834211
 31
0.0
  0
LINE
  5
2E5
330
1F
100
AcDbEntity
  8
0-C_ハッチ
  6
Continuous
 62
   120
370
     5
100
AcDbLine
 10
-140.231850111075
 20
-219.6665463834233
 30
0.0
 11
-125.2318501110727
 21
-204.6665463834233
 31
0.0
  0
LINE
  5
2E6
330
1F
100
AcDbEntity
  8
0-C_ハッチ
  6
Continuous
 62
   120
370
     5
100
AcDbLine
 10
-126.0897144873439
 20
-219.6665463834256
 30
0.0
 11
-111.0897144873417
 21
-204.6665463834233
 31
0.0
  0
LINE
  5
2E7
330
1F
100
AcDbEntity
  8
0-C_ハッチ
  6
Continuous
 62
   120
370
     5
100
AcDbLine
 10
-111.9475788636106
 20
-219.6665463834256
 30
0.0
 11
-96.9475788636106
 21
-204.6665463834256
 31
0.0
  0
LINE
  5
2E8
330
1F
100
AcDbEntity
  8
0-C_ハッチ
  6
Continuous
 62
   120
370
     5
100
AcDbLine
 10
-97.80544323987726
 20
-219.6665463834279
 30
0.0
 11
-82.80544323987726
 21
-204.6665463834256
 31
0.0
  0
LINE
  5
2E9
330
1F
100
AcDbEntity
  8
0-C_ハッチ
  6
Continuous
 62
   120
370
     5
100
AcDbLine
 10
-83.66330761616894
 20
-219.6665463834142
 30
0.0
 11
-68.6633076161803
 21
-204.6665463834256
 31
0.0
  0
LINE
  5
2EA
330
1F
100
AcDbEntity
  8
0-C_ハッチ
  6
Continuous
 62
   120
370
     5
100
AcDbLine
 10
-69.52117199243787
 20
-219.6665463834165
 30
0.0
 11
-54.5211719924356
 21
-204.6665463834165
 31
0.0
  0
LINE
  5
2EB
330
1F
100
AcDbEntity
  8
0-C_ハッチ
  6
Continuous
 62
   120
370
     5
100
AcDbLine
 10
-55.37903636870681
 20
-219.6665463834188
 30
0.0
 11
-40.37903636870453
 21
-204.6665463834165
 31
0.0
  0
LINE
  5
2EC
330
1F
100
AcDbEntity
  8
0-C_ハッチ
  6
Continuous
 62
   120
370
     5
100
AcDbLine
 10
-41.23690074497347
 20
-219.6665463834188
 30
0.0
 11
-26.23690074497347
 21
-204.6665463834188
 31
0.0
  0
LINE
  5
2ED
330
1F
100
AcDbEntity
  8
0-C_ハッチ
  6
Continuous
 62
   120
370
     5
100
AcDbLine
 10
-27.0947651212424
 20
-219.6665463834211
 30
0.0
 11
-12.09476512124013
 21
-204.6665463834188
 31
0.0
  0
LINE
  5
2EE
330
1F
100
AcDbEntity
  8
0-C_ハッチ
  6
Continuous
 62
   120
370
     5
100
AcDbLine
 10
-12.95262949750907
 20
-219.6665463834211
 30
0.0
 11
2.047370502490935
 21
-204.6665463834211
 31
0.0
  0
LINE
  5
2EF
330
1F
100
AcDbEntity
  8
0-C_ハッチ
  6
Continuous
 62
   120
370
     5
100
AcDbLine
 10
1.189506126222
 20
-219.6665463834233
 30
0.0
 11
16.18950612622427
 21
-204.6665463834233
 31
0.0
  0
LINE
  5
2F0
330
1F
100
AcDbEntity
  8
0-C_ハッチ
  6
Continuous
 62
   120
370
     5
100
AcDbLine
 10
15.33164174995534
 20
-219.6665463834233
 30
0.0
 11
30.33164174995534
 21
-204.6665463834233
 31
0.0
  0
LINE
  5
2F1
330
1F
100
AcDbEntity
  8
0-C_ハッチ
  6
Continuous
 62
   120
370
     5
100
AcDbLine
 10
29.47377737369322
 20
-219.6665463834188
 30
0.0
 11
44.47377737369322
 21
-204.6665463834188
 31
0.0
  0
LINE
  5
2F2
330
1F
100
AcDbEntity
  8
0-C_ハッチ
  6
Continuous
 62
   120
370
     5
100
AcDbLine
 10
43.61591299742429
 20
-219.6665463834211
 30
0.0
 11
58.61591299742656
 21
-204.6665463834188
 31
0.0
  0
LINE
  5
2F3
330
1F
100
AcDbEntity
  8
0-C_ハッチ
  6
Continuous
 62
   120
370
     5
100
AcDbLine
 10
57.75804862115763
 20
-219.6665463834211
 30
0.0
 11
72.75804862115763
 21
-204.6665463834211
 31
0.0
  0
LINE
  5
2F4
330
1F
100
AcDbEntity
  8
0-C_ハッチ
  6
Continuous
 62
   120
370
     5
100
AcDbLine
 10
71.90018424488869
 20
-219.6665463834233
 30
0.0
 11
86.90018424489097
 21
-204.6665463834211
 31
0.0
  0
LINE
  5
2F5
330
1F
100
AcDbEntity
  8
0-C_ハッチ
  6
Continuous
 62
   120
370
     5
100
AcDbLine
 10
86.04231986862203
 20
-219.6665463834233
 30
0.0
 11
101.042319868622
 21
-204.6665463834233
 31
0.0
  0
LINE
  5
2F6
330
1F
100
AcDbEntity
  8
0-C_ハッチ
  6
Continuous
 62
   120
370
     5
100
AcDbLine
 10
100.1844554923531
 20
-219.6665463834256
 30
0.0
 11
115.1844554923554
 21
-204.6665463834233
 31
0.0
  0
LINE
  5
2F7
330
1F
100
AcDbEntity
  8
0-C_ハッチ
  6
Continuous
 62
   120
370
     5
100
AcDbLine
 10
114.3265911160864
 20
-219.6665463834256
 30
0.0
 11
129.3265911160864
 21
-204.6665463834256
 31
0.0
  0
LINE
  5
2F8
330
1F
100
AcDbEntity
  8
0-C_ハッチ
  6
Continuous
 62
   120
370
     5
100
AcDbLine
 10
128.4687267397925
 20
-219.6665463834165
 30
0.0
 11
143.4687267397834
 21
-204.6665463834256
 31
0.0
  0
LINE
  5
2F9
330
1F
100
AcDbEntity
  8
0-C_ハッチ
  6
Continuous
 62
   120
370
     5
100
AcDbLine
 10
142.6108623635236
 20
-219.6665463834188
 30
0.0
 11
157.6108623635258
 21
-204.6665463834165
 31
0.0
  0
LINE
  5
2FA
330
1F
100
AcDbEntity
  8
0-C_ハッチ
  6
Continuous
 62
   120
370
     5
100
AcDbLine
 10
156.7529979872569
 20
-219.6665463834188
 30
0.0
 11
171.7529979872569
 21
-204.6665463834188
 31
0.0
  0
LINE
  5
2FB
330
1F
100
AcDbEntity
  8
0-C_ハッチ
  6
Continuous
 62
   120
370
     5
100
AcDbLine
 10
170.895133610988
 20
-219.6665463834211
 30
0.0
 11
185.8951336109902
 21
-204.6665463834188
 31
0.0
  0
LINE
  5
2FC
330
1F
100
AcDbEntity
  8
0-C_ハッチ
  6
Continuous
 62
   120
370
     5
100
AcDbLine
 10
185.0372692347213
 20
-219.6665463834233
 30
0.0
 11
200.0372692347213
 21
-204.6665463834211
 31
0.0
  0
LINE
  5
2FD
330
1F
100
AcDbEntity
  8
0-C_ハッチ
  6
Continuous
 62
   120
370
     5
100
AcDbLine
 10
199.1794048584524
 20
-219.6665463834233
 30
0.0
 11
214.1794048584524
 21
-204.6665463834233
 31
0.0
  0
LINE
  5
2FE
330
1F
100
AcDbEntity
  8
0-C_ハッチ
  6
Continuous
 62
   120
370
     5
100
AcDbLine
 10
213.3215404821834
 20
-219.6665463834256
 30
0.0
 11
228.3215404821857
 21
-204.6665463834233
 31
0.0
  0
LINE
  5
2FF
330
1F
100
AcDbEntity
  8
0-C_ハッチ
  6
Continuous
 62
   120
370
     5
100
AcDbLine
 10
227.4636761059168
 20
-219.6665463834256
 30
0.0
 11
242.4636761059168
 21
-204.6665463834256
 31
0.0
  0
LINE
  5
300
330
1F
100
AcDbEntity
  8
0-C_ハッチ
  6
Continuous
 62
   120
370
     5
100
AcDbLine
 10
241.6058117296569
 20
-219.6665463834188
 30
0.0
 11
256.6058117296592
 21
-204.6665463834165
 31
0.0
  0
LINE
  5
301
330
1F
100
AcDbEntity
  8
0-C_ハッチ
  6
Continuous
 62
   120
370
     5
100
AcDbLine
 10
255.7479473533903
 20
-219.6665463834188
 30
0.0
 11
270.7479473533903
 21
-204.6665463834188
 31
0.0
  0
LINE
  5
302
330
1F
100
AcDbEntity
  8
0-C_ハッチ
  6
Continuous
 62
   120
370
     5
100
AcDbLine
 10
269.8900829771213
 20
-219.6665463834211
 30
0.0
 11
284.8900829771236
 21
-204.6665463834188
 31
0.0
  0
LINE
  5
303
330
1F
100
AcDbEntity
  8
0-C_ハッチ
  6
Continuous
 62
   120
370
     5
100
AcDbLine
 10
284.0322186008547
 20
-219.6665463834211
 30
0.0
 11
299.0322186008547
 21
-204.6665463834211
 31
0.0
  0
LINE
  5
304
330
1F
100
AcDbEntity
  8
0-C_ハッチ
  6
Continuous
 62
   120
370
     5
100
AcDbLine
 10
298.1743542245857
 20
-219.6665463834233
 30
0.0
 11
313.174354224588
 21
-204.6665463834211
 31
0.0
  0
LINE
  5
305
330
1F
100
AcDbEntity
  8
0-C_ハッチ
  6
Continuous
 62
   120
370
     5
100
AcDbLine
 10
312.3164898483191
 20
-219.6665463834233
 30
0.0
 11
327.3164898483191
 21
-204.6665463834233
 31
0.0
  0
LINE
  5
306
330
1F
100
AcDbEntity
  8
0-C_ハッチ
  6
Continuous
 62
   120
370
     5
100
AcDbLine
 10
326.4586254720501
 20
-219.6665463834256
 30
0.0
 11
341.4586254720524
 21
-204.6665463834233
 31
0.0
  0
LINE
  5
307
330
1F
100
AcDbEntity
  8
0-4_棚
  6
Continuous
 62
    92
370
    13
100
AcDbLine
 10
341.7959581729991
 20
-204.6665463834233
 30
0.0
 11
-424.204041827
 21
-204.6665463834233
 31
0.0
  0
LINE
  5
308
330
1F
100
AcDbEntity
  8
0-4_棚
  6
Continuous
 62
    92
370
    13
100
AcDbLine
 10
341.7959581729991
 20
-219.6665463834233
 30
0.0
 11
-424.204041827
 21
-219.6665463834233
 31
0.0
  0
LINE
  5
309
330
1F
100
AcDbEntity
  8
0-C_ハッチ
  6
Continuous
 62
   120
370
     5
100
AcDbLine
 10
340.6007610957539
 20
-219.6665463834188
 30
0.0
 11
341.7959581729991
 21
-218.4713493061736
 31
0.0
  0
LINE
  5
30A
330
1F
100
AcDbEntity
  8
0-C_ハッチ
  6
Continuous
 62
   120
370
     5
100
AcDbLine
 10
371.7959581729946
 20
-206.6538900009891
 30
0.0
 11
373.7833017905672
 21
-204.6665463834188
 31
0.0
  0
LINE
  5
30B
330
1F
100
AcDbEntity
  8
0-C_ハッチ
  6
Continuous
 62
   120
370
     5
100
AcDbLine
 10
372.9254374142982
 20
-219.6665463834188
 30
0.0
 11
387.9254374142982
 21
-204.6665463834188
 31
0.0
  0
LINE
  5
30C
330
1F
100
AcDbEntity
  8
0-C_ハッチ
  6
Continuous
 62
   120
370
     5
100
AcDbLine
 10
387.0675730380293
 20
-219.6665463834211
 30
0.0
 11
402.0675730380293
 21
-204.6665463834211
 31
0.0
  0
LINE
  5
30D
330
1F
100
AcDbEntity
  8
0-C_ハッチ
  6
Continuous
 62
   120
370
     5
100
AcDbLine
 10
401.2097086617626
 20
-219.6665463834233
 30
0.0
 11
416.2097086617626
 21
-204.6665463834211
 31
0.0
  0
LINE
  5
30E
330
1F
100
AcDbEntity
  8
0-C_ハッチ
  6
Continuous
 62
   120
370
     5
100
AcDbLine
 10
415.3518442854937
 20
-219.6665463834233
 30
0.0
 11
430.351844285496
 21
-204.6665463834233
 31
0.0
  0
LINE
  5
30F
330
1F
100
AcDbEntity
  8
0-C_ハッチ
  6
Continuous
 62
   120
370
     5
100
AcDbLine
 10
429.4939799092271
 20
-219.6665463834233
 30
0.0
 11
444.4939799092293
 21
-204.6665463834233
 31
0.0
  0
LINE
  5
310
330
1F
100
AcDbEntity
  8
0-C_ハッチ
  6
Continuous
 62
   120
370
     5
100
AcDbLine
 10
443.6361155329581
 20
-219.6665463834256
 30
0.0
 11
458.6361155329604
 21
-204.6665463834233
 31
0.0
  0
LINE
  5
311
330
1F
100
AcDbEntity
  8
0-C_ハッチ
  6
Continuous
 62
   120
370
     5
100
AcDbLine
 10
457.7782511566915
 20
-219.6665463834279
 30
0.0
 11
472.7782511566915
 21
-204.6665463834256
 31
0.0
  0
LINE
  5
312
330
1F
100
AcDbEntity
  8
0-C_ハッチ
  6
Continuous
 62
   120
370
     5
100
AcDbLine
 10
471.9203867804225
 20
-219.6665463834279
 30
0.0
 11
486.9203867804237
 21
-204.6665463834279
 31
0.0
  0
LINE
  5
313
330
1F
100
AcDbEntity
  8
0-C_ハッチ
  6
Continuous
 62
   120
370
     5
100
AcDbLine
 10
486.062522404157
 20
-219.6665463834279
 30
0.0
 11
501.062522404157
 21
-204.6665463834279
 31
0.0
  0
LINE
  5
314
330
1F
100
AcDbEntity
  8
0-C_ハッチ
  6
Continuous
 62
   120
370
     5
100
AcDbLine
 10
500.2046580278676
 20
-219.6665463834142
 30
0.0
 11
515.2046580278585
 21
-204.6665463834233
 31
0.0
  0
LINE
  5
315
330
1F
100
AcDbEntity
  8
0-C_ハッチ
  6
Continuous
 62
   120
370
     5
100
AcDbLine
 10
514.3467936516009
 20
-219.6665463834142
 30
0.0
 11
529.3467936516009
 21
-204.6665463834142
 31
0.0
  0
LINE
  5
316
330
1F
100
AcDbEntity
  8
0-C_ハッチ
  6
Continuous
 62
   120
370
     5
100
AcDbLine
 10
528.4889292753297
 20
-219.6665463834165
 30
0.0
 11
543.4889292753343
 21
-204.6665463834142
 31
0.0
  0
LINE
  5
317
330
1F
100
AcDbEntity
  8
0-C_ハッチ
  6
Continuous
 62
   120
370
     5
100
AcDbLine
 10
542.6310648990631
 20
-219.6665463834188
 30
0.0
 11
557.6310648990631
 21
-204.6665463834165
 31
0.0
  0
LINE
  5
318
330
1F
100
AcDbEntity
  8
0-C_ハッチ
  6
Continuous
 62
   120
370
     5
100
AcDbLine
 10
556.7732005227964
 20
-219.6665463834188
 30
0.0
 11
571.7732005227964
 21
-204.6665463834188
 31
0.0
  0
LINE
  5
319
330
1F
100
AcDbEntity
  8
0-C_ハッチ
  6
Continuous
 62
   120
370
     5
100
AcDbLine
 10
570.9153361465252
 20
-219.6665463834211
 30
0.0
 11
585.9153361465297
 21
-204.6665463834188
 31
0.0
  0
LINE
  5
31A
330
1F
100
AcDbEntity
  8
0-C_ハッチ
  6
Continuous
 62
   120
370
     5
100
AcDbLine
 10
585.0574717702585
 20
-219.6665463834211
 30
0.0
 11
600.0574717702585
 21
-204.6665463834211
 31
0.0
  0
LINE
  5
31B
330
1F
100
AcDbEntity
  8
0-C_ハッチ
  6
Continuous
 62
   120
370
     5
100
AcDbLine
 10
599.1996073939919
 20
-219.6665463834233
 30
0.0
 11
614.1996073939919
 21
-204.6665463834211
 31
0.0
  0
LINE
  5
31C
330
1F
100
AcDbEntity
  8
0-C_ハッチ
  6
Continuous
 62
   120
370
     5
100
AcDbLine
 10
613.3417430177252
 20
-219.6665463834211
 30
0.0
 11
628.3417430177298
 21
-204.6665463834188
 31
0.0
  0
LINE
  5
31D
330
1F
100
AcDbEntity
  8
0-C_ハッチ
  6
Continuous
 62
   120
370
     5
100
AcDbLine
 10
627.4838786414585
 20
-219.6665463834233
 30
0.0
 11
642.4838786414585
 21
-204.6665463834211
 31
0.0
  0
LINE
  5
31E
330
1F
100
AcDbEntity
  8
0-C_ハッチ
  6
Continuous
 62
   120
370
     5
100
AcDbLine
 10
641.6260142651919
 20
-219.6665463834233
 30
0.0
 11
656.6260142651919
 21
-204.6665463834211
 31
0.0
  0
LINE
  5
31F
330
1F
100
AcDbEntity
  8
0-C_ハッチ
  6
Continuous
 62
   120
370
     5
100
AcDbLine
 10
655.7681498889252
 20
-219.6665463834233
 30
0.0
 11
670.7681498889252
 21
-204.6665463834233
 31
0.0
  0
LINE
  5
320
330
1F
100
AcDbEntity
  8
0-C_ハッチ
  6
Continuous
 62
   120
370
     5
100
AcDbLine
 10
669.910285512654
 20
-219.6665463834256
 30
0.0
 11
684.9102855126586
 21
-204.6665463834233
 31
0.0
  0
LINE
  5
321
330
1F
100
AcDbEntity
  8
0-C_ハッチ
  6
Continuous
 62
   120
370
     5
100
AcDbLine
 10
684.0524211363874
 20
-219.6665463834256
 30
0.0
 11
699.0524211363874
 21
-204.6665463834256
 31
0.0
  0
LINE
  5
322
330
1F
100
AcDbEntity
  8
0-C_ハッチ
  6
Continuous
 62
   120
370
     5
100
AcDbLine
 10
698.1945567601207
 20
-219.6665463834279
 30
0.0
 11
713.1945567601207
 21
-204.6665463834256
 31
0.0
  0
LINE
  5
323
330
1F
100
AcDbEntity
  8
0-C_ハッチ
  6
Continuous
 62
   120
370
     5
100
AcDbLine
 10
712.3366923838313
 20
-219.6665463834142
 30
0.0
 11
727.3366923838176
 21
-204.6665463834256
 31
0.0
  0
LINE
  5
324
330
1F
100
AcDbEntity
  8
0-C_ハッチ
  6
Continuous
 62
   120
370
     5
100
AcDbLine
 10
726.4788280075601
 20
-219.6665463834165
 30
0.0
 11
741.4788280075646
 21
-204.6665463834165
 31
0.0
  0
LINE
  5
325
330
1F
100
AcDbEntity
  8
0-C_ハッチ
  6
Continuous
 62
   120
370
     5
100
AcDbLine
 10
740.6209636312934
 20
-219.6665463834188
 30
0.0
 11
755.6209636312934
 21
-204.6665463834165
 31
0.0
  0
LINE
  5
326
330
1F
100
AcDbEntity
  8
0-C_ハッチ
  6
Continuous
 62
   120
370
     5
100
AcDbLine
 10
754.7630992550268
 20
-219.6665463834188
 30
0.0
 11
769.7630992550268
 21
-204.6665463834188
 31
0.0
  0
LINE
  5
327
330
1F
100
AcDbEntity
  8
0-C_ハッチ
  6
Continuous
 62
   120
370
     5
100
AcDbLine
 10
768.9052348787556
 20
-219.6665463834211
 30
0.0
 11
783.9052348787601
 21
-204.6665463834188
 31
0.0
  0
LINE
  5
328
330
1F
100
AcDbEntity
  8
0-C_ハッチ
  6
Continuous
 62
   120
370
     5
100
AcDbLine
 10
783.0473705024889
 20
-219.6665463834211
 30
0.0
 11
798.0473705024889
 21
-204.6665463834211
 31
0.0
  0
LINE
  5
329
330
1F
100
AcDbEntity
  8
0-C_ハッチ
  6
Continuous
 62
   120
370
     5
100
AcDbLine
 10
797.1895061262222
 20
-219.6665463834233
 30
0.0
 11
812.1895061262222
 21
-204.6665463834233
 31
0.0
  0
LINE
  5
32A
330
1F
100
AcDbEntity
  8
0-C_ハッチ
  6
Continuous
 62
   120
370
     5
100
AcDbLine
 10
811.3316417499556
 20
-219.6665463834233
 30
0.0
 11
826.3316417499556
 21
-204.6665463834233
 31
0.0
  0
LINE
  5
32B
330
1F
100
AcDbEntity
  8
0-C_ハッチ
  6
Continuous
 62
   120
370
     5
100
AcDbLine
 10
825.4737773736935
 20
-219.6665463834188
 30
0.0
 11
840.4737773736935
 21
-204.6665463834188
 31
0.0
  0
LINE
  5
32C
330
1F
100
AcDbEntity
  8
0-C_ハッチ
  6
Continuous
 62
   120
370
     5
100
AcDbLine
 10
839.6159129974222
 20
-219.6665463834211
 30
0.0
 11
854.6159129974268
 21
-204.6665463834188
 31
0.0
  0
LINE
  5
32D
330
1F
100
AcDbEntity
  8
0-C_ハッチ
  6
Continuous
 62
   120
370
     5
100
AcDbLine
 10
853.7580486211556
 20
-219.6665463834211
 30
0.0
 11
868.7580486211556
 21
-204.6665463834211
 31
0.0
  0
LINE
  5
32E
330
1F
100
AcDbEntity
  8
0-C_ハッチ
  6
Continuous
 62
   120
370
     5
100
AcDbLine
 10
867.9001842448889
 20
-219.6665463834233
 30
0.0
 11
882.9001842448889
 21
-204.6665463834211
 31
0.0
  0
LINE
  5
32F
330
1F
100
AcDbEntity
  8
0-C_ハッチ
  6
Continuous
 62
   120
370
     5
100
AcDbLine
 10
882.0423198686223
 20
-219.6665463834233
 30
0.0
 11
897.0423198686223
 21
-204.6665463834233
 31
0.0
  0
LINE
  5
330
330
1F
100
AcDbEntity
  8
0-C_ハッチ
  6
Continuous
 62
   120
370
     5
100
AcDbLine
 10
896.184455492351
 20
-219.6665463834256
 30
0.0
 11
911.1844554923556
 21
-204.6665463834233
 31
0.0
  0
LINE
  5
331
330
1F
100
AcDbEntity
  8
0-C_ハッチ
  6
Continuous
 62
   120
370
     5
100
AcDbLine
 10
910.3265911160844
 20
-219.6665463834256
 30
0.0
 11
925.3265911160844
 21
-204.6665463834256
 31
0.0
  0
LINE
  5
332
330
1F
100
AcDbEntity
  8
0-C_ハッチ
  6
Continuous
 62
   120
370
     5
100
AcDbLine
 10
924.4687267397904
 20
-219.6665463834165
 30
0.0
 11
939.4687267397813
 21
-204.6665463834256
 31
0.0
  0
LINE
  5
333
330
1F
100
AcDbEntity
  8
0-C_ハッチ
  6
Continuous
 62
   120
370
     5
100
AcDbLine
 10
938.6108623635238
 20
-219.6665463834188
 30
0.0
 11
953.6108623635238
 21
-204.6665463834165
 31
0.0
  0
LINE
  5
334
330
1F
100
AcDbEntity
  8
0-C_ハッチ
  6
Continuous
 62
   120
370
     5
100
AcDbLine
 10
952.7529979872571
 20
-219.6665463834188
 30
0.0
 11
967.7529979872571
 21
-204.6665463834188
 31
0.0
  0
LINE
  5
335
330
1F
100
AcDbEntity
  8
0-C_ハッチ
  6
Continuous
 62
   120
370
     5
100
AcDbLine
 10
966.8951336109859
 20
-219.6665463834211
 30
0.0
 11
981.8951336109905
 21
-204.6665463834188
 31
0.0
  0
LINE
  5
336
330
1F
100
AcDbEntity
  8
0-C_ハッチ
  6
Continuous
 62
   120
370
     5
100
AcDbLine
 10
981.0372692347192
 20
-219.6665463834233
 30
0.0
 11
996.0372692347192
 21
-204.6665463834211
 31
0.0
  0
LINE
  5
337
330
1F
100
AcDbEntity
  8
0-C_ハッチ
  6
Continuous
 62
   120
370
     5
100
AcDbLine
 10
995.1794048584526
 20
-219.6665463834233
 30
0.0
 11
1010.179404858453
 21
-204.6665463834233
 31
0.0
  0
LINE
  5
338
330
1F
100
AcDbEntity
  8
0-C_ハッチ
  6
Continuous
 62
   120
370
     5
100
AcDbLine
 10
1009.321540482181
 20
-219.6665463834256
 30
0.0
 11
1024.321540482186
 21
-204.6665463834233
 31
0.0
  0
LINE
  5
339
330
1F
100
AcDbEntity
  8
0-C_ハッチ
  6
Continuous
 62
   120
370
     5
100
AcDbLine
 10
1023.463676105915
 20
-219.6665463834256
 30
0.0
 11
1038.463676105915
 21
-204.6665463834256
 31
0.0
  0
LINE
  5
33A
330
1F
100
AcDbEntity
  8
0-C_ハッチ
  6
Continuous
 62
   120
370
     5
100
AcDbLine
 10
1037.605811729657
 20
-219.6665463834188
 30
0.0
 11
1052.605811729657
 21
-204.6665463834165
 31
0.0
  0
LINE
  5
33B
330
1F
100
AcDbEntity
  8
0-C_ハッチ
  6
Continuous
 62
   120
370
     5
100
AcDbLine
 10
1051.74794735339
 20
-219.6665463834188
 30
0.0
 11
1066.74794735339
 21
-204.6665463834188
 31
0.0
  0
LINE
  5
33C
330
1F
100
AcDbEntity
  8
0-C_ハッチ
  6
Continuous
 62
   120
370
     5
100
AcDbLine
 10
1065.890082977119
 20
-219.6665463834211
 30
0.0
 11
1080.890082977124
 21
-204.6665463834188
 31
0.0
  0
LINE
  5
33D
330
1F
100
AcDbEntity
  8
0-C_ハッチ
  6
Continuous
 62
   120
370
     5
100
AcDbLine
 10
1080.032218600853
 20
-219.6665463834211
 30
0.0
 11
1095.032218600853
 21
-204.6665463834211
 31
0.0
  0
LINE
  5
33E
330
1F
100
AcDbEntity
  8
0-C_ハッチ
  6
Continuous
 62
   120
370
     5
100
AcDbLine
 10
1094.174354224586
 20
-219.6665463834233
 30
0.0
 11
1109.174354224586
 21
-204.6665463834211
 31
0.0
  0
LINE
  5
33F
330
1F
100
AcDbEntity
  8
0-C_ハッチ
  6
Continuous
 62
   120
370
     5
100
AcDbLine
 10
1108.316489848319
 20
-219.6665463834233
 30
0.0
 11
1123.316489848319
 21
-204.6665463834233
 31
0.0
  0
LINE
  5
340
330
1F
100
AcDbEntity
  8
0-C_ハッチ
  6
Continuous
 62
   120
370
     5
100
AcDbLine
 10
1122.458625472048
 20
-219.6665463834256
 30
0.0
 11
1137.458625472053
 21
-204.6665463834233
 31
0.0
  0
LINE
  5
341
330
1F
100
AcDbEntity
  8
0-4_棚
  6
Continuous
 62
    92
370
    13
100
AcDbLine
 10
1137.795958172999
 20
-219.6665463834233
 30
0.0
 11
371.7959581729991
 21
-219.6665463834233
 31
0.0
  0
LINE
  5
342
330
1F
100
AcDbEntity
  8
0-4_棚
  6
Continuous
 62
    92
370
    13
100
AcDbLine
 10
1137.795958172999
 20
-204.6665463834233
 30
0.0
 11
371.7959581729991
 21
-204.6665463834233
 31
0.0
  0
LINE
  5
343
330
1F
100
AcDbEntity
  8
0-C_ハッチ
  6
Continuous
 62
   120
370
     5
100
AcDbLine
 10
1136.600761095754
 20
-219.6665463834188
 30
0.0
 11
1137.795958172999
 21
-218.4713493061713
 31
0.0
  0
TEXT
  5
344
330
1F
100
AcDbEntity
  8
0-A_文字
  6
Continuous
 62
     7
370
     9
100
AcDbText
 10
-361.4332521687589
 20
1610.960044505169
 30
0.0
 40
45.72
  1
Ａ'
  7
ＭＳ ゴシック
100
AcDbText
  0
LINE
  5
345
330
1F
100
AcDbEntity
  8
0-A_文字
  6
Continuous
 62
     7
370
     9
100
AcDbLine
 10
-271.4332521687589
 20
1632.500044505169
 30
0.0
 11
-168.5650947046548
 21
1660.063356107788
 31
0.0
  0
LINE
  5
346
330
1F
100
AcDbEntity
  8
0-A_文字
  6
Continuous
 62
     7
370
     9
100
AcDbLine
 10
-168.5650947046548
 20
1632.500044505169
 30
0.0
 11
-271.4332521687589
 21
1632.500044505169
 31
0.0
  0
LINE
  5
347
330
1F
100
AcDbEntity
  8
0-A_文字
  6
Continuous
 62
     7
370
     9
100
AcDbLine
 10
-168.5650947046548
 20
2160.626667710404
 30
0.0
 11
-168.5650947046548
 21
1632.500044505169
 31
0.0
  0
TEXT
  5
348
330
1F
100
AcDbEntity
  8
0-A_文字
  6
Continuous
 62
     7
370
     9
100
AcDbText
 10
-361.4332521687601
 20
2139.086667710404
 30
0.0
 40
45.72
  1
Ａ 
  7
ＭＳ ゴシック
100
AcDbText
  0
LINE
  5
349
330
1F
100
AcDbEntity
  8
0-A_文字
  6
Continuous
 62
     7
370
     9
100
AcDbLine
 10
-168.5650947046548
 20
2160.626667710404
 30
0.0
 11
-271.4332521687589
 21
2160.626667710404
 31
0.0
  0
LINE
  5
34A
330
1F
100
AcDbEntity
  8
0-A_文字
  6
Continuous
 62
     7
370
     9
100
AcDbLine
 10
-271.4332521687589
 20
2160.626667710404
 30
0.0
 11
-168.5650947046548
 21
2133.063356107788
 31
0.0
  0
TEXT
  5
34B
330
1F
100
AcDbEntity
  8
0-A_文字
  6
Continuous
 62
     7
370
     9
100
AcDbText
 10
6.785279784462546
 20
2158.018297620989
 30
0.0
 40
45.72
  1
背板連結樹脂
  7
ＭＳ ゴシック
100
AcDbText
  0
LINE
  5
34C
330
1F
100
AcDbEntity
  8
0-A_文字
  6
Continuous
 62
     7
370
     9
100
AcDbLine
 10
22.9376643504736
 20
-211.6760953965604
 30
0.0
 11
59.79917102061222
 21
-147.8300930003425
 31
0.0
  0
LINE
  5
34D
330
1F
100
AcDbEntity
  8
0-A_文字
  6
Continuous
 62
     7
370
     9
100
AcDbLine
 10
59.79917102061222
 20
-147.8300930003425
 30
0.0
 11
253.7725427898482
 21
-147.8300930003425
 31
0.0
  0
LINE
  5
34E
330
1F
100
AcDbEntity
  8
0-1_本体
  6
Continuous
 62
    40
370
    15
100
AcDbLine
 10
-439.204041827
 20
2083.063356107788
 30
0.0
 11
-431.204041827
 21
2083.063356107788
 31
0.0
  0
LINE
  5
34F
330
1F
100
AcDbEntity
  8
0-1_本体
  6
Continuous
 62
    40
370
    15
100
AcDbLine
 10
-431.204041827
 20
2083.063356107788
 30
0.0
 11
-431.204041827
 21
2080.063356107788
 31
0.0
  0
LINE
  5
350
330
1F
100
AcDbEntity
  8
0-1_本体
  6
Continuous
 62
    40
370
    15
100
AcDbLine
 10
-431.204041827
 20
2080.063356107788
 30
0.0
 11
-46.70404182700025
 21
2080.063356107788
 31
0.0
  0
LINE
  5
351
330
1F
100
AcDbEntity
  8
0-1_本体
  6
Continuous
 62
    40
370
    15
100
AcDbLine
 10
-431.204041827
 20
2081.563356107787
 30
0.0
 11
-46.70404182700025
 21
2081.563356107787
 31
0.0
  0
LINE
  5
352
330
1F
100
AcDbEntity
  8
0-1_本体
  6
Continuous
 62
     7
370
     9
100
AcDbLine
 10
-431.204041827
 20
2083.063356107788
 30
0.0
 11
-46.70404182700025
 21
2083.063356107788
 31
0.0
  0
LINE
  5
353
330
1F
100
AcDbEntity
  8
0-1_本体
  6
Continuous
 62
    40
370
    15
100
AcDbLine
 10
348.7959581729996
 20
2083.063356107788
 30
0.0
 11
348.7959581729996
 21
2080.063356107788
 31
0.0
  0
LINE
  5
354
330
1F
100
AcDbEntity
  8
0-1_本体
  6
Continuous
 62
    40
370
    15
100
AcDbLine
 10
348.7959581729996
 20
2080.063356107788
 30
0.0
 11
-35.70404182700003
 21
2080.063356107788
 31
0.0
  0
LINE
  5
355
330
1F
100
AcDbEntity
  8
0-1_本体
  6
Continuous
 62
    40
370
    15
100
AcDbLine
 10
348.7959581729996
 20
2081.563356107787
 30
0.0
 11
-35.70404182700003
 21
2081.563356107787
 31
0.0
  0
LINE
  5
356
330
1F
100
AcDbEntity
  8
0-1_本体
  6
Continuous
 62
     7
370
     9
100
AcDbLine
 10
348.7959581729996
 20
2083.063356107788
 30
0.0
 11
-35.70404182700003
 21
2083.063356107788
 31
0.0
  0
LINE
  5
357
330
1F
100
AcDbEntity
  8
0-1_本体
  6
Continuous
 62
    40
370
    15
100
AcDbLine
 10
348.7959581729996
 20
2083.063356107788
 30
0.0
 11
356.7959581729997
 21
2083.063356107788
 31
0.0
  0
LINE
  5
358
330
1F
100
AcDbEntity
  8
0-7__
  6
Continuous
 62
     7
370
     9
100
AcDbLine
 10
-45.70404182700017
 20
2083.063356107788
 30
0.0
 11
-36.70404182700025
 21
2083.063356107788
 31
0.0
  0
LINE
  5
359
330
1F
100
AcDbEntity
  8
0-7__
  6
Continuous
 62
     7
370
     9
100
AcDbLine
 10
-57.20404182700008
 20
2083.563356107788
 30
0.0
 11
-57.20404182700008
 21
2083.063356107788
 31
0.0
  0
ARC
  5
35A
330
1F
100
AcDbEntity
  8
0-7__
  6
Continuous
 62
     7
370
     9
100
AcDbCircle
 10
-56.70404182700025
 20
2083.563356107788
 30
0.0
 40
0.5
100
AcDbArc
 50
90.0
 51
180.0
  0
LINE
  5
35B
330
1F
100
AcDbEntity
  8
0-7__
  6
Continuous
 62
     7
370
     9
100
AcDbLine
 10
-25.2040418270002
 20
2083.563356107788
 30
0.0
 11
-25.2040418270002
 21
2083.063356107788
 31
0.0
  0
LINE
  5
35C
330
1F
100
AcDbEntity
  8
0-7__
  6
Continuous
 62
     7
370
     9
100
AcDbLine
 10
-25.70404182700003
 20
2084.063356107788
 30
0.0
 11
-56.70404182700025
 21
2084.063356107788
 31
0.0
  0
ARC
  5
35D
330
1F
100
AcDbEntity
  8
0-7__
  6
Continuous
 62
     7
370
     9
100
AcDbCircle
 10
-25.70404182700003
 20
2083.563356107788
 30
0.0
 40
0.5
100
AcDbArc
 50
0.0
 51
90.00000000000001
  0
LINE
  5
35E
330
1F
100
AcDbEntity
  8
0-7__
  6
Continuous
 62
     7
370
     9
100
AcDbLine
 10
-55.2040418270002
 20
2080.063356107788
 30
0.0
 11
-46.70404182700025
 21
2080.063356107788
 31
0.0
  0
LINE
  5
35F
330
1F
100
AcDbEntity
  8
0-7__
  6
Continuous
 62
     7
370
     9
100
AcDbLine
 10
-55.2040418270002
 20
2079.563356107787
 30
0.0
 11
-55.2040418270002
 21
2080.063356107788
 31
0.0
  0
ARC
  5
360
330
1F
100
AcDbEntity
  8
0-7__
  6
Continuous
 62
     7
370
     9
100
AcDbCircle
 10
-54.70404182700008
 20
2079.563356107787
 30
0.0
 40
0.5
100
AcDbArc
 50
180.0
 51
270.0
  0
LINE
  5
361
330
1F
100
AcDbEntity
  8
0-7__
  6
Continuous
 62
     7
370
     9
100
AcDbLine
 10
-27.7040418270002
 20
2079.063356107788
 30
0.0
 11
-54.70404182700008
 21
2079.063356107788
 31
0.0
  0
LINE
  5
362
330
1F
100
AcDbEntity
  8
0-7__
  6
Continuous
 62
     7
370
     9
100
AcDbLine
 10
-27.20404182700008
 20
2079.563356107787
 30
0.0
 11
-27.20404182700008
 21
2080.063356107788
 31
0.0
  0
ARC
  5
363
330
1F
100
AcDbEntity
  8
0-7__
  6
Continuous
 62
     7
370
     9
100
AcDbCircle
 10
-27.7040418270002
 20
2079.563356107787
 30
0.0
 40
0.5
100
AcDbArc
 50
270.0
 51
0.0
  0
LINE
  5
364
330
1F
100
AcDbEntity
  8
0-7__
  6
Continuous
 62
     7
370
     9
100
AcDbLine
 10
-46.70404182700025
 20
2080.063356107788
 30
0.0
 11
-46.70404182700025
 21
2083.063356107788
 31
0.0
  0
LINE
  5
365
330
1F
100
AcDbEntity
  8
0-7__
  6
Continuous
 62
     7
370
     9
100
AcDbLine
 10
-45.70404182700017
 20
2080.063356107788
 30
0.0
 11
-45.70404182700017
 21
2083.063356107788
 31
0.0
  0
LINE
  5
366
330
1F
100
AcDbEntity
  8
0-7__
  6
Continuous
 62
     7
370
     9
100
AcDbLine
 10
-36.70404182700025
 20
2080.063356107788
 30
0.0
 11
-36.70404182700025
 21
2083.063356107788
 31
0.0
  0
LINE
  5
367
330
1F
100
AcDbEntity
  8
0-7__
  6
Continuous
 62
     7
370
     9
100
AcDbLine
 10
-45.70404182700017
 20
2080.063356107788
 30
0.0
 11
-36.70404182700025
 21
2080.063356107788
 31
0.0
  0
LINE
  5
368
330
1F
100
AcDbEntity
  8
0-7__
  6
Continuous
 62
     7
370
     9
100
AcDbLine
 10
-35.70404182700017
 20
2080.063356107788
 30
0.0
 11
-35.70404182700017
 21
2083.063356107788
 31
0.0
  0
LINE
  5
369
330
1F
100
AcDbEntity
  8
0-7__
  6
Continuous
 62
     7
370
     9
100
AcDbLine
 10
-35.70404182700017
 20
2080.063356107788
 30
0.0
 11
-27.20404182700008
 21
2080.063356107788
 31
0.0
  0
LINE
  5
36A
330
1F
100
AcDbEntity
  8
0-7__
  6
Continuous
 62
     7
370
     9
100
AcDbLine
 10
-57.20404182700008
 20
2083.063356107788
 30
0.0
 11
-46.70404182700025
 21
2083.063356107788
 31
0.0
  0
LINE
  5
36B
330
1F
100
AcDbEntity
  8
0-7__
  6
Continuous
 62
     7
370
     9
100
AcDbLine
 10
-35.70404182700017
 20
2083.063356107788
 30
0.0
 11
-25.2040418270002
 21
2083.063356107788
 31
0.0
  0
LINE
  5
36C
330
1F
100
AcDbEntity
  8
0-7__
  6
Continuous
 62
     7
370
     9
100
AcDbLine
 10
-55.2040418270002
 20
-1201.666546383421
 30
0.0
 11
-55.2040418270002
 21
-1441.66654638342
 31
0.0
  0
LINE
  5
36D
330
1F
100
AcDbEntity
  8
0-7__
  6
Continuous
 62
     7
370
     9
100
AcDbLine
 10
-27.20404182700008
 20
-1201.666546383421
 30
0.0
 11
-27.20404182700008
 21
-1441.66654638342
 31
0.0
  0
LINE
  5
36E
330
1F
100
AcDbEntity
  8
0-7__
  6
JWW_DASHED1
 62
     7
370
     9
100
AcDbLine
 10
-55.2040418270002
 20
-1201.666546383421
 30
0.0
 11
-55.2040418270002
 21
-1189.66654638342
 31
0.0
  0
LINE
  5
36F
330
1F
100
AcDbEntity
  8
0-7__
  6
JWW_DASHED1
 62
     7
370
     9
100
AcDbLine
 10
-27.20404182700008
 20
-1201.666546383421
 30
0.0
 11
-27.20404182700008
 21
-1189.66654638342
 31
0.0
  0
LINE
  5
370
330
1F
100
AcDbEntity
  8
0-7__
  6
JWW_DASHED1
 62
     7
370
     9
100
AcDbLine
 10
-55.2040418270002
 20
-945.6665463834207
 30
0.0
 11
-55.2040418270002
 21
-933.6665463834197
 31
0.0
  0
LINE
  5
371
330
1F
100
AcDbEntity
  8
0-7__
  6
JWW_DASHED1
 62
     7
370
     9
100
AcDbLine
 10
-27.20404182700008
 20
-945.6665463834207
 30
0.0
 11
-27.20404182700008
 21
-933.6665463834197
 31
0.0
  0
LINE
  5
372
330
1F
100
AcDbEntity
  8
0-7__
  6
JWW_DASHED1
 62
     7
370
     9
100
AcDbLine
 10
-55.2040418270002
 20
-689.6665463834197
 30
0.0
 11
-55.2040418270002
 21
-677.6665463834189
 31
0.0
  0
LINE
  5
373
330
1F
100
AcDbEntity
  8
0-7__
  6
JWW_DASHED1
 62
     7
370
     9
100
AcDbLine
 10
-27.20404182700008
 20
-689.6665463834197
 30
0.0
 11
-27.20404182700008
 21
-677.6665463834189
 31
0.0
  0
LINE
  5
374
330
1F
100
AcDbEntity
  8
0-7__
  6
JWW_DASHED1
 62
     7
370
     9
100
AcDbLine
 10
-55.2040418270002
 20
-433.6665463834197
 30
0.0
 11
-55.2040418270002
 21
-421.6665463834192
 31
0.0
  0
LINE
  5
375
330
1F
100
AcDbEntity
  8
0-7__
  6
JWW_DASHED1
 62
     7
370
     9
100
AcDbLine
 10
-27.20404182700008
 20
-433.6665463834197
 30
0.0
 11
-27.20404182700008
 21
-421.6665463834192
 31
0.0
  0
LINE
  5
376
330
1F
100
AcDbEntity
  8
0-7__
  6
JWW_DASHED1
 62
     7
370
     9
100
AcDbLine
 10
-55.2040418270002
 20
46.3334536165803
 30
0.0
 11
-55.2040418270002
 21
58.33345361658132
 31
0.0
  0
LINE
  5
377
330
1F
100
AcDbEntity
  8
0-7__
  6
JWW_DASHED1
 62
     7
370
     9
100
AcDbLine
 10
-27.20404182700008
 20
46.3334536165803
 30
0.0
 11
-27.20404182700008
 21
58.33345361658132
 31
0.0
  0
LINE
  5
378
330
1F
100
AcDbEntity
  8
0-7__
  6
JWW_DASHED1
 62
     7
370
     9
100
AcDbLine
 10
-55.2040418270002
 20
270.3334536165812
 30
0.0
 11
-55.2040418270002
 21
282.3334536165822
 31
0.0
  0
LINE
  5
379
330
1F
100
AcDbEntity
  8
0-7__
  6
JWW_DASHED1
 62
     7
370
     9
100
AcDbLine
 10
-27.20404182700008
 20
270.3334536165812
 30
0.0
 11
-27.20404182700008
 21
282.3334536165822
 31
0.0
  0
LINE
  5
37A
330
1F
100
AcDbEntity
  8
0-7__
  6
JWW_DASHED1
 62
     7
370
     9
100
AcDbLine
 10
-55.2040418270002
 20
494.3334536165816
 30
0.0
 11
-55.2040418270002
 21
506.3334536165826
 31
0.0
  0
LINE
  5
37B
330
1F
100
AcDbEntity
  8
0-7__
  6
JWW_DASHED1
 62
     7
370
     9
100
AcDbLine
 10
-27.20404182700008
 20
494.3334536165816
 30
0.0
 11
-27.20404182700008
 21
506.3334536165826
 31
0.0
  0
LINE
  5
37C
330
1F
100
AcDbEntity
  8
0-7__
  6
Continuous
 62
     7
370
     9
100
AcDbLine
 10
-27.20404182700008
 20
-945.6665463834207
 30
0.0
 11
-27.20404182700008
 21
-1189.66654638342
 31
0.0
  0
LINE
  5
37D
330
1F
100
AcDbEntity
  8
0-7__
  6
Continuous
 62
     7
370
     9
100
AcDbLine
 10
-55.2040418270002
 20
-945.6665463834207
 30
0.0
 11
-55.2040418270002
 21
-1189.66654638342
 31
0.0
  0
LINE
  5
37E
330
1F
100
AcDbEntity
  8
0-7__
  6
Continuous
 62
     7
370
     9
100
AcDbLine
 10
-27.20404182700008
 20
-689.6665463834216
 30
0.0
 11
-27.20404182700008
 21
-933.6665463834206
 31
0.0
  0
LINE
  5
37F
330
1F
100
AcDbEntity
  8
0-7__
  6
Continuous
 62
     7
370
     9
100
AcDbLine
 10
-55.2040418270002
 20
-689.6665463834216
 30
0.0
 11
-55.2040418270002
 21
-933.6665463834206
 31
0.0
  0
LINE
  5
380
330
1F
100
AcDbEntity
  8
0-7__
  6
Continuous
 62
     7
370
     9
100
AcDbLine
 10
-27.20404182700008
 20
-433.6665463834214
 30
0.0
 11
-27.20404182700008
 21
-677.6665463834206
 31
0.0
  0
LINE
  5
381
330
1F
100
AcDbEntity
  8
0-7__
  6
Continuous
 62
     7
370
     9
100
AcDbLine
 10
-55.2040418270002
 20
-433.6665463834214
 30
0.0
 11
-55.2040418270002
 21
-677.6665463834206
 31
0.0
  0
LINE
  5
382
330
1F
100
AcDbEntity
  8
0-7__
  6
Continuous
 62
     7
370
     9
100
AcDbLine
 10
-55.2040418270002
 20
-219.6665463834233
 30
0.0
 11
-55.2040418270002
 21
-421.6665463834207
 31
0.0
  0
LINE
  5
383
330
1F
100
AcDbEntity
  8
0-7__
  6
Continuous
 62
     7
370
     9
100
AcDbLine
 10
-27.20404182700008
 20
-219.6665463834233
 30
0.0
 11
-27.20404182700008
 21
-421.6665463834207
 31
0.0
  0
LINE
  5
384
330
1F
100
AcDbEntity
  8
0-7__
  6
Continuous
 62
     7
370
     9
100
AcDbLine
 10
-55.2040418270002
 20
46.3334536165803
 30
0.0
 11
-55.2040418270002
 21
-204.6665463834233
 31
0.0
  0
LINE
  5
385
330
1F
100
AcDbEntity
  8
0-7__
  6
Continuous
 62
     7
370
     9
100
AcDbLine
 10
-27.20404182700008
 20
46.3334536165803
 30
0.0
 11
-27.20404182700008
 21
-204.6665463834233
 31
0.0
  0
LINE
  5
386
330
1F
100
AcDbEntity
  8
0-7__
  6
Continuous
 62
     7
370
     9
100
AcDbLine
 10
-55.2040418270002
 20
270.3334536165812
 30
0.0
 11
-55.2040418270002
 21
58.33345361658075
 31
0.0
  0
LINE
  5
387
330
1F
100
AcDbEntity
  8
0-7__
  6
Continuous
 62
     7
370
     9
100
AcDbLine
 10
-27.20404182700008
 20
270.3334536165812
 30
0.0
 11
-27.20404182700008
 21
58.33345361658075
 31
0.0
  0
LINE
  5
388
330
1F
100
AcDbEntity
  8
0-7__
  6
Continuous
 62
     7
370
     9
100
AcDbLine
 10
-55.2040418270002
 20
494.3334536165816
 30
0.0
 11
-55.2040418270002
 21
282.3334536165805
 31
0.0
  0
LINE
  5
389
330
1F
100
AcDbEntity
  8
0-7__
  6
Continuous
 62
     7
370
     9
100
AcDbLine
 10
-27.20404182700008
 20
494.3334536165816
 30
0.0
 11
-27.20404182700008
 21
282.3334536165805
 31
0.0
  0
LINE
  5
38A
330
1F
100
AcDbEntity
  8
0-7__
  6
Continuous
 62
     7
370
     9
100
AcDbLine
 10
-55.2040418270002
 20
697.3334536165811
 30
0.0
 11
-55.2040418270002
 21
506.333453616582
 31
0.0
  0
LINE
  5
38B
330
1F
100
AcDbEntity
  8
0-7__
  6
Continuous
 62
     7
370
     9
100
AcDbLine
 10
-27.20404182700008
 20
697.3334536165811
 30
0.0
 11
-27.20404182700008
 21
506.333453616582
 31
0.0
  0
LINE
  5
38C
330
1F
100
AcDbEntity
  8
0-A_文字
  6
Continuous
 62
     7
370
     9
100
AcDbLine
 10
-43.21518687208197
 20
683.7871218557228
 30
0.0
 11
-6.353680201943348
 21
747.633124251941
 31
0.0
  0
TEXT
  5
38D
330
1F
100
AcDbEntity
  8
0-A_文字
  6
Continuous
 62
     7
370
     9
100
AcDbText
 10
6.785279784462546
 20
758.2231656484493
 30
0.0
 40
45.72
  1
背板連結樹脂
  7
ＭＳ ゴシック
100
AcDbText
  0
LINE
  5
38E
330
1F
100
AcDbEntity
  8
0-A_文字
  6
Continuous
 62
     7
370
     9
100
AcDbLine
 10
-6.353680201943348
 20
747.633124251941
 30
0.0
 11
366.7852797844625
 21
747.633124251941
 31
0.0
  0
LINE
  5
38F
330
1F
100
AcDbEntity
  8
0-A_文字
  6
Continuous
 62
     7
370
     9
100
AcDbLine
 10
-43.21518687208197
 20
2083.582253828264
 30
0.0
 11
-6.353680201943348
 21
2147.428256224481
 31
0.0
  0
LINE
  5
390
330
1F
100
AcDbEntity
  8
0-A_文字
  6
Continuous
 62
     7
370
     9
100
AcDbLine
 10
-6.353680201943348
 20
2147.428256224481
 30
0.0
 11
366.7852797844625
 21
2147.428256224481
 31
0.0
  0
TEXT
  5
391
330
1F
100
AcDbEntity
  8
0-A_文字
  6
Continuous
 62
     7
370
     9
100
AcDbText
 10
72.93813100701811
 20
-137.2400516038343
 30
0.0
 40
45.72
  1
固定棚
  7
ＭＳ ゴシック
100
AcDbText
  0
LINE
  5
392
330
1F
100
AcDbEntity
  8
0-A_文字
  6
Continuous
 62
     7
370
     9
100
AcDbLine
 10
818.9376643504733
 20
-211.6760953965604
 30
0.0
 11
855.7991710206119
 21
-147.8300930003425
 31
0.0
  0
LINE
  5
393
330
1F
100
AcDbEntity
  8
0-A_文字
  6
Continuous
 62
     7
370
     9
100
AcDbLine
 10
855.7991710206119
 20
-147.8300930003425
 30
0.0
 11
1049.772542789848
 21
-147.8300930003425
 31
0.0
  0
LINE
  5
394
330
1F
100
AcDbEntity
  8
0-1_本体
  6
Continuous
 62
    40
370
    15
100
AcDbLine
 10
356.7959581729997
 20
2083.063356107788
 30
0.0
 11
364.7959581729998
 21
2083.063356107788
 31
0.0
  0
LINE
  5
395
330
1F
100
AcDbEntity
  8
0-1_本体
  6
Continuous
 62
    40
370
    15
100
AcDbLine
 10
364.7959581729998
 20
2083.063356107788
 30
0.0
 11
364.7959581729998
 21
2080.063356107788
 31
0.0
  0
LINE
  5
396
330
1F
100
AcDbEntity
  8
0-1_本体
  6
Continuous
 62
    40
370
    15
100
AcDbLine
 10
364.7959581729998
 20
2080.063356107788
 30
0.0
 11
749.2959581729995
 21
2080.063356107788
 31
0.0
  0
LINE
  5
397
330
1F
100
AcDbEntity
  8
0-1_本体
  6
Continuous
 62
    40
370
    15
100
AcDbLine
 10
364.7959581729998
 20
2081.563356107787
 30
0.0
 11
749.2959581729995
 21
2081.563356107787
 31
0.0
  0
LINE
  5
398
330
1F
100
AcDbEntity
  8
0-1_本体
  6
Continuous
 62
     7
370
     9
100
AcDbLine
 10
364.7959581729998
 20
2083.063356107788
 30
0.0
 11
749.2959581729995
 21
2083.063356107788
 31
0.0
  0
LINE
  5
399
330
1F
100
AcDbEntity
  8
0-1_本体
  6
Continuous
 62
    40
370
    15
100
AcDbLine
 10
1144.795958172999
 20
2083.063356107788
 30
0.0
 11
1144.795958172999
 21
2080.063356107788
 31
0.0
  0
LINE
  5
39A
330
1F
100
AcDbEntity
  8
0-1_本体
  6
Continuous
 62
    40
370
    15
100
AcDbLine
 10
1144.795958172999
 20
2080.063356107788
 30
0.0
 11
760.2959581729997
 21
2080.063356107788
 31
0.0
  0
LINE
  5
39B
330
1F
100
AcDbEntity
  8
0-1_本体
  6
Continuous
 62
    40
370
    15
100
AcDbLine
 10
1144.795958172999
 20
2081.563356107787
 30
0.0
 11
760.2959581729997
 21
2081.563356107787
 31
0.0
  0
LINE
  5
39C
330
1F
100
AcDbEntity
  8
0-1_本体
  6
Continuous
 62
     7
370
     9
100
AcDbLine
 10
1144.795958172999
 20
2083.063356107788
 30
0.0
 11
760.2959581729997
 21
2083.063356107788
 31
0.0
  0
LINE
  5
39D
330
1F
100
AcDbEntity
  8
0-1_本体
  6
Continuous
 62
    40
370
    15
100
AcDbLine
 10
1144.795958172999
 20
2083.063356107788
 30
0.0
 11
1152.795958172999
 21
2083.063356107788
 31
0.0
  0
LINE
  5
39E
330
1F
100
AcDbEntity
  8
0-7__
  6
Continuous
 62
     7
370
     9
100
AcDbLine
 10
750.2959581729995
 20
2083.063356107788
 30
0.0
 11
759.2959581729995
 21
2083.063356107788
 31
0.0
  0
LINE
  5
39F
330
1F
100
AcDbEntity
  8
0-7__
  6
Continuous
 62
     7
370
     9
100
AcDbLine
 10
738.7959581729996
 20
2083.563356107788
 30
0.0
 11
738.7959581729996
 21
2083.063356107788
 31
0.0
  0
ARC
  5
3A0
330
1F
100
AcDbEntity
  8
0-7__
  6
Continuous
 62
     7
370
     9
100
AcDbCircle
 10
739.2959581729995
 20
2083.563356107788
 30
0.0
 40
0.5
100
AcDbArc
 50
90.0
 51
180.0
  0
LINE
  5
3A1
330
1F
100
AcDbEntity
  8
0-7__
  6
Continuous
 62
     7
370
     9
100
AcDbLine
 10
770.7959581729995
 20
2083.563356107788
 30
0.0
 11
770.7959581729995
 21
2083.063356107788
 31
0.0
  0
LINE
  5
3A2
330
1F
100
AcDbEntity
  8
0-7__
  6
Continuous
 62
     7
370
     9
100
AcDbLine
 10
770.2959581729997
 20
2084.063356107788
 30
0.0
 11
739.2959581729995
 21
2084.063356107788
 31
0.0
  0
ARC
  5
3A3
330
1F
100
AcDbEntity
  8
0-7__
  6
Continuous
 62
     7
370
     9
100
AcDbCircle
 10
770.2959581729997
 20
2083.563356107788
 30
0.0
 40
0.5
100
AcDbArc
 50
0.0
 51
90.00000000000001
  0
LINE
  5
3A4
330
1F
100
AcDbEntity
  8
0-7__
  6
Continuous
 62
     7
370
     9
100
AcDbLine
 10
740.7959581729995
 20
2080.063356107788
 30
0.0
 11
749.2959581729995
 21
2080.063356107788
 31
0.0
  0
LINE
  5
3A5
330
1F
100
AcDbEntity
  8
0-7__
  6
Continuous
 62
     7
370
     9
100
AcDbLine
 10
740.7959581729995
 20
2079.563356107787
 30
0.0
 11
740.7959581729995
 21
2080.063356107788
 31
0.0
  0
ARC
  5
3A6
330
1F
100
AcDbEntity
  8
0-7__
  6
Continuous
 62
     7
370
     9
100
AcDbCircle
 10
741.2959581729996
 20
2079.563356107787
 30
0.0
 40
0.5
100
AcDbArc
 50
180.0
 51
270.0
  0
LINE
  5
3A7
330
1F
100
AcDbEntity
  8
0-7__
  6
Continuous
 62
     7
370
     9
100
AcDbLine
 10
768.2959581729995
 20
2079.063356107788
 30
0.0
 11
741.2959581729996
 21
2079.063356107788
 31
0.0
  0
LINE
  5
3A8
330
1F
100
AcDbEntity
  8
0-7__
  6
Continuous
 62
     7
370
     9
100
AcDbLine
 10
768.7959581729996
 20
2079.563356107787
 30
0.0
 11
768.7959581729996
 21
2080.063356107788
 31
0.0
  0
ARC
  5
3A9
330
1F
100
AcDbEntity
  8
0-7__
  6
Continuous
 62
     7
370
     9
100
AcDbCircle
 10
768.2959581729995
 20
2079.563356107787
 30
0.0
 40
0.5
100
AcDbArc
 50
270.0
 51
0.0
  0
LINE
  5
3AA
330
1F
100
AcDbEntity
  8
0-7__
  6
Continuous
 62
     7
370
     9
100
AcDbLine
 10
749.2959581729995
 20
2080.063356107788
 30
0.0
 11
749.2959581729995
 21
2083.063356107788
 31
0.0
  0
LINE
  5
3AB
330
1F
100
AcDbEntity
  8
0-7__
  6
Continuous
 62
     7
370
     9
100
AcDbLine
 10
750.2959581729995
 20
2080.063356107788
 30
0.0
 11
750.2959581729995
 21
2083.063356107788
 31
0.0
  0
LINE
  5
3AC
330
1F
100
AcDbEntity
  8
0-7__
  6
Continuous
 62
     7
370
     9
100
AcDbLine
 10
759.2959581729995
 20
2080.063356107788
 30
0.0
 11
759.2959581729995
 21
2083.063356107788
 31
0.0
  0
LINE
  5
3AD
330
1F
100
AcDbEntity
  8
0-7__
  6
Continuous
 62
     7
370
     9
100
AcDbLine
 10
750.2959581729995
 20
2080.063356107788
 30
0.0
 11
759.2959581729995
 21
2080.063356107788
 31
0.0
  0
LINE
  5
3AE
330
1F
100
AcDbEntity
  8
0-7__
  6
Continuous
 62
     7
370
     9
100
AcDbLine
 10
760.2959581729995
 20
2080.063356107788
 30
0.0
 11
760.2959581729995
 21
2083.063356107788
 31
0.0
  0
LINE
  5
3AF
330
1F
100
AcDbEntity
  8
0-7__
  6
Continuous
 62
     7
370
     9
100
AcDbLine
 10
760.2959581729995
 20
2080.063356107788
 30
0.0
 11
768.7959581729996
 21
2080.063356107788
 31
0.0
  0
LINE
  5
3B0
330
1F
100
AcDbEntity
  8
0-7__
  6
Continuous
 62
     7
370
     9
100
AcDbLine
 10
738.7959581729996
 20
2083.063356107788
 30
0.0
 11
749.2959581729995
 21
2083.063356107788
 31
0.0
  0
LINE
  5
3B1
330
1F
100
AcDbEntity
  8
0-7__
  6
Continuous
 62
     7
370
     9
100
AcDbLine
 10
760.2959581729995
 20
2083.063356107788
 30
0.0
 11
770.7959581729995
 21
2083.063356107788
 31
0.0
  0
LINE
  5
3B2
330
1F
100
AcDbEntity
  8
0-7__
  6
Continuous
 62
     7
370
     9
100
AcDbLine
 10
740.7959581729995
 20
-1201.666546383421
 30
0.0
 11
740.7959581729995
 21
-1441.66654638342
 31
0.0
  0
LINE
  5
3B3
330
1F
100
AcDbEntity
  8
0-7__
  6
Continuous
 62
     7
370
     9
100
AcDbLine
 10
768.7959581729996
 20
-1201.666546383421
 30
0.0
 11
768.7959581729996
 21
-1441.66654638342
 31
0.0
  0
LINE
  5
3B4
330
1F
100
AcDbEntity
  8
0-7__
  6
JWW_DASHED1
 62
     7
370
     9
100
AcDbLine
 10
740.7959581729995
 20
-1201.666546383421
 30
0.0
 11
740.7959581729995
 21
-1189.66654638342
 31
0.0
  0
LINE
  5
3B5
330
1F
100
AcDbEntity
  8
0-7__
  6
JWW_DASHED1
 62
     7
370
     9
100
AcDbLine
 10
768.7959581729996
 20
-1201.666546383421
 30
0.0
 11
768.7959581729996
 21
-1189.66654638342
 31
0.0
  0
LINE
  5
3B6
330
1F
100
AcDbEntity
  8
0-7__
  6
JWW_DASHED1
 62
     7
370
     9
100
AcDbLine
 10
740.7959581729995
 20
-945.6665463834207
 30
0.0
 11
740.7959581729995
 21
-933.6665463834197
 31
0.0
  0
LINE
  5
3B7
330
1F
100
AcDbEntity
  8
0-7__
  6
JWW_DASHED1
 62
     7
370
     9
100
AcDbLine
 10
768.7959581729996
 20
-945.6665463834207
 30
0.0
 11
768.7959581729996
 21
-933.6665463834197
 31
0.0
  0
LINE
  5
3B8
330
1F
100
AcDbEntity
  8
0-7__
  6
JWW_DASHED1
 62
     7
370
     9
100
AcDbLine
 10
740.7959581729995
 20
-689.6665463834197
 30
0.0
 11
740.7959581729995
 21
-677.6665463834189
 31
0.0
  0
LINE
  5
3B9
330
1F
100
AcDbEntity
  8
0-7__
  6
JWW_DASHED1
 62
     7
370
     9
100
AcDbLine
 10
768.7959581729996
 20
-689.6665463834197
 30
0.0
 11
768.7959581729996
 21
-677.6665463834189
 31
0.0
  0
LINE
  5
3BA
330
1F
100
AcDbEntity
  8
0-7__
  6
JWW_DASHED1
 62
     7
370
     9
100
AcDbLine
 10
740.7959581729995
 20
-433.6665463834197
 30
0.0
 11
740.7959581729995
 21
-421.6665463834192
 31
0.0
  0
LINE
  5
3BB
330
1F
100
AcDbEntity
  8
0-7__
  6
JWW_DASHED1
 62
     7
370
     9
100
AcDbLine
 10
768.7959581729996
 20
-433.6665463834197
 30
0.0
 11
768.7959581729996
 21
-421.6665463834192
 31
0.0
  0
LINE
  5
3BC
330
1F
100
AcDbEntity
  8
0-7__
  6
JWW_DASHED1
 62
     7
370
     9
100
AcDbLine
 10
740.7959581729995
 20
46.3334536165803
 30
0.0
 11
740.7959581729995
 21
58.33345361658132
 31
0.0
  0
LINE
  5
3BD
330
1F
100
AcDbEntity
  8
0-7__
  6
JWW_DASHED1
 62
     7
370
     9
100
AcDbLine
 10
768.7959581729996
 20
46.3334536165803
 30
0.0
 11
768.7959581729996
 21
58.33345361658132
 31
0.0
  0
LINE
  5
3BE
330
1F
100
AcDbEntity
  8
0-7__
  6
JWW_DASHED1
 62
     7
370
     9
100
AcDbLine
 10
740.7959581729995
 20
270.3334536165812
 30
0.0
 11
740.7959581729995
 21
282.3334536165822
 31
0.0
  0
LINE
  5
3BF
330
1F
100
AcDbEntity
  8
0-7__
  6
JWW_DASHED1
 62
     7
370
     9
100
AcDbLine
 10
768.7959581729996
 20
270.3334536165812
 30
0.0
 11
768.7959581729996
 21
282.3334536165822
 31
0.0
  0
LINE
  5
3C0
330
1F
100
AcDbEntity
  8
0-7__
  6
JWW_DASHED1
 62
     7
370
     9
100
AcDbLine
 10
740.7959581729995
 20
494.3334536165816
 30
0.0
 11
740.7959581729995
 21
506.3334536165826
 31
0.0
  0
LINE
  5
3C1
330
1F
100
AcDbEntity
  8
0-7__
  6
JWW_DASHED1
 62
     7
370
     9
100
AcDbLine
 10
768.7959581729996
 20
494.3334536165816
 30
0.0
 11
768.7959581729996
 21
506.3334536165826
 31
0.0
  0
LINE
  5
3C2
330
1F
100
AcDbEntity
  8
0-7__
  6
Continuous
 62
     7
370
     9
100
AcDbLine
 10
768.7959581729996
 20
-945.6665463834207
 30
0.0
 11
768.7959581729996
 21
-1189.66654638342
 31
0.0
  0
LINE
  5
3C3
330
1F
100
AcDbEntity
  8
0-7__
  6
Continuous
 62
     7
370
     9
100
AcDbLine
 10
740.7959581729995
 20
-945.6665463834207
 30
0.0
 11
740.7959581729995
 21
-1189.66654638342
 31
0.0
  0
LINE
  5
3C4
330
1F
100
AcDbEntity
  8
0-7__
  6
Continuous
 62
     7
370
     9
100
AcDbLine
 10
768.7959581729996
 20
-689.6665463834216
 30
0.0
 11
768.7959581729996
 21
-933.6665463834206
 31
0.0
  0
LINE
  5
3C5
330
1F
100
AcDbEntity
  8
0-7__
  6
Continuous
 62
     7
370
     9
100
AcDbLine
 10
740.7959581729995
 20
-689.6665463834216
 30
0.0
 11
740.7959581729995
 21
-933.6665463834206
 31
0.0
  0
LINE
  5
3C6
330
1F
100
AcDbEntity
  8
0-7__
  6
Continuous
 62
     7
370
     9
100
AcDbLine
 10
768.7959581729996
 20
-433.6665463834214
 30
0.0
 11
768.7959581729996
 21
-677.6665463834206
 31
0.0
  0
LINE
  5
3C7
330
1F
100
AcDbEntity
  8
0-7__
  6
Continuous
 62
     7
370
     9
100
AcDbLine
 10
740.7959581729995
 20
-433.6665463834214
 30
0.0
 11
740.7959581729995
 21
-677.6665463834206
 31
0.0
  0
LINE
  5
3C8
330
1F
100
AcDbEntity
  8
0-7__
  6
Continuous
 62
     7
370
     9
100
AcDbLine
 10
740.7959581729995
 20
-219.6665463834233
 30
0.0
 11
740.7959581729995
 21
-421.6665463834207
 31
0.0
  0
LINE
  5
3C9
330
1F
100
AcDbEntity
  8
0-7__
  6
Continuous
 62
     7
370
     9
100
AcDbLine
 10
768.7959581729996
 20
-219.6665463834233
 30
0.0
 11
768.7959581729996
 21
-421.6665463834207
 31
0.0
  0
LINE
  5
3CA
330
1F
100
AcDbEntity
  8
0-7__
  6
Continuous
 62
     7
370
     9
100
AcDbLine
 10
740.7959581729995
 20
46.3334536165803
 30
0.0
 11
740.7959581729995
 21
-204.6665463834233
 31
0.0
  0
LINE
  5
3CB
330
1F
100
AcDbEntity
  8
0-7__
  6
Continuous
 62
     7
370
     9
100
AcDbLine
 10
768.7959581729996
 20
46.3334536165803
 30
0.0
 11
768.7959581729996
 21
-204.6665463834233
 31
0.0
  0
LINE
  5
3CC
330
1F
100
AcDbEntity
  8
0-7__
  6
Continuous
 62
     7
370
     9
100
AcDbLine
 10
740.7959581729995
 20
270.3334536165812
 30
0.0
 11
740.7959581729995
 21
58.33345361658075
 31
0.0
  0
LINE
  5
3CD
330
1F
100
AcDbEntity
  8
0-7__
  6
Continuous
 62
     7
370
     9
100
AcDbLine
 10
768.7959581729996
 20
270.3334536165812
 30
0.0
 11
768.7959581729996
 21
58.33345361658075
 31
0.0
  0
LINE
  5
3CE
330
1F
100
AcDbEntity
  8
0-7__
  6
Continuous
 62
     7
370
     9
100
AcDbLine
 10
740.7959581729995
 20
494.3334536165816
 30
0.0
 11
740.7959581729995
 21
282.3334536165805
 31
0.0
  0
LINE
  5
3CF
330
1F
100
AcDbEntity
  8
0-7__
  6
Continuous
 62
     7
370
     9
100
AcDbLine
 10
768.7959581729996
 20
494.3334536165816
 30
0.0
 11
768.7959581729996
 21
282.3334536165805
 31
0.0
  0
LINE
  5
3D0
330
1F
100
AcDbEntity
  8
0-7__
  6
Continuous
 62
     7
370
     9
100
AcDbLine
 10
740.7959581729995
 20
697.3334536165811
 30
0.0
 11
740.7959581729995
 21
506.333453616582
 31
0.0
  0
LINE
  5
3D1
330
1F
100
AcDbEntity
  8
0-7__
  6
Continuous
 62
     7
370
     9
100
AcDbLine
 10
768.7959581729996
 20
697.3334536165811
 30
0.0
 11
768.7959581729996
 21
506.333453616582
 31
0.0
  0
TEXT
  5
3D2
330
1F
100
AcDbEntity
  8
0-A_文字
  6
Continuous
 62
     7
370
     9
100
AcDbText
 10
868.9381310070178
 20
-137.2400516038343
 30
0.0
 40
45.72
  1
固定棚
  7
ＭＳ ゴシック
100
AcDbText
  0
LINE
  5
3D3
330
1F
100
AcDbEntity
  8
0-A_文字
  6
Continuous
 62
     7
370
     9
100
AcDbLine
 10
-68.20404182700202
 20
-2151.166546383427
 30
0.0
 11
-68.20404182700202
 21
-2001.166546383427
 31
0.0
  0
LINE
  5
3D4
330
1F
100
AcDbEntity
  8
0-A_文字
  6
Continuous
 62
     7
370
     9
100
AcDbLine
 10
781.7959581730003
 20
-2151.166546383427
 30
0.0
 11
-68.20404182700202
 21
-2151.166546383427
 31
0.0
  0
LINE
  5
3D5
330
1F
100
AcDbEntity
  8
0-A_文字
  6
Continuous
 62
     7
370
     9
100
AcDbLine
 10
781.7959581730003
 20
-2001.166546383427
 30
0.0
 11
781.7959581730003
 21
-2151.166546383427
 31
0.0
  0
LINE
  5
3D6
330
1F
100
AcDbEntity
  8
0-A_文字
  6
Continuous
 62
     7
370
     9
100
AcDbLine
 10
-68.20404182700202
 20
-2001.166546383427
 30
0.0
 11
781.7959581730003
 21
-2001.166546383427
 31
0.0
  0
TEXT
  5
3D7
330
1F
100
AcDbEntity
  8
0-A_文字
  6
Continuous
 62
     7
370
     9
100
AcDbText
 10
51.79595817299003
 20
-2119.246546383426
 30
0.0
 40
91.44
  1
ｷｬﾋﾞﾈｯﾄ図
 41
1.129629629629663
  7
ＭＳ ゴシック
100
AcDbText
  0
TEXT
  5
3D8
330
1F
100
AcDbEntity
  8
0-B_寸法
  6
Continuous
 62
     7
370
   211
100
AcDbText
 10
381.0250404913813
 20
-1732.706546383418
 30
0.0
 40
45.72
  1
15
  7
ＭＳ ゴシック
100
AcDbText
  0
TEXT
  5
3D9
330
1F
100
AcDbEntity
  8
0-B_寸法
  6
Continuous
 62
     7
370
   211
100
AcDbText
 10
270.2604041401003
 20
-1732.706546383418
 30
0.0
 40
45.72
  1
15
  7
ＭＳ ゴシック
100
AcDbText
  0
TEXT
  5
3DA
330
1F
100
AcDbEntity
  8
0-B_寸法
  6
Continuous
 62
     7
370
   211
100
AcDbText
 10
1152.452708648058
 20
-1732.706546383418
 30
0.0
 40
45.72
  1
15
  7
ＭＳ ゴシック
100
AcDbText
  0
TEXT
  5
3DB
330
1F
100
AcDbEntity
  8
0-B_寸法
  6
Continuous
 62
     7
370
   211
100
AcDbText
 10
709.7959581730015
 20
-1832.706546383418
 30
0.0
 40
45.72
  1
796
  7
ＭＳ ゴシック
100
AcDbText
  0
LWPOLYLINE
  5
3DC
330
1F
100
AcDbEntity
  8
0-B_寸法
  6
Continuous
 62
     7
370
     9
100
AcDbPolyline
 90
        4
 70
     1
 43
4.0
 10
1154.795958173003
 20
-1851.166546383418
 42
0.4142135623731
 10
1152.795958173003
 20
-1849.166546383418
 42
0.4142135623731
 10
1150.795958173003
 20
-1851.166546383418
 42
0.4142135623731
 10
1152.795958173003
 20
-1853.166546383418
 42
0.4142135623731
  0
LWPOLYLINE
  5
3DD
330
1F
100
AcDbEntity
  8
0-B_寸法
  6
Continuous
 62
     7
370
     9
100
AcDbPolyline
 90
        4
 70
     1
 43
4.0
 10
358.7959581730008
 20
-1851.166546383418
 42
0.4142135623731
 10
356.7959581730008
 20
-1849.166546383418
 42
0.4142135623731
 10
354.7959581730008
 20
-1851.166546383418
 42
0.4142135623731
 10
356.7959581730008
 20
-1853.166546383418
 42
0.4142135623731
  0
LINE
  5
3DE
330
1F
100
AcDbEntity
  8
0-B_寸法
  6
Continuous
 62
   120
370
     5
100
AcDbLine
 10
356.7959581730008
 20
-1851.166546383418
 30
0.0
 11
1152.795958173003
 21
-1851.166546383418
 31
0.0
  0
LWPOLYLINE
  5
3DF
330
1F
100
AcDbEntity
  8
0-B_寸法
  6
Continuous
 62
     7
370
     9
100
AcDbPolyline
 90
        4
 70
     1
 43
4.0
 10
1154.795958173003
 20
-1751.166546383418
 42
0.4142135623731
 10
1152.795958173003
 20
-1749.166546383418
 42
0.4142135623731
 10
1150.795958173003
 20
-1751.166546383418
 42
0.4142135623731
 10
1152.795958173003
 20
-1753.166546383418
 42
0.4142135623731
  0
TEXT
  5
3E0
330
1F
100
AcDbEntity
  8
0-B_寸法
  6
Continuous
 62
     7
370
   211
100
AcDbText
 10
709.7959581730015
 20
-1732.706546383418
 30
0.0
 40
45.72
  1
766
  7
ＭＳ ゴシック
100
AcDbText
  0
LINE
  5
3E1
330
1F
100
AcDbEntity
  8
0-B_寸法
  6
Continuous
 62
   120
370
     5
100
AcDbLine
 10
1137.795958173003
 20
-1751.166546383418
 30
0.0
 11
1137.795958173003
 21
-1651.166546383418
 31
0.0
  0
LWPOLYLINE
  5
3E2
330
1F
100
AcDbEntity
  8
0-B_寸法
  6
Continuous
 62
     7
370
     9
100
AcDbPolyline
 90
        4
 70
     1
 43
4.0
 10
1139.795958173003
 20
-1751.166546383418
 42
0.4142135623731
 10
1137.795958173003
 20
-1749.166546383418
 42
0.4142135623731
 10
1135.795958173003
 20
-1751.166546383418
 42
0.4142135623731
 10
1137.795958173003
 20
-1753.166546383418
 42
0.4142135623731
  0
LWPOLYLINE
  5
3E3
330
1F
100
AcDbEntity
  8
0-B_寸法
  6
Continuous
 62
     7
370
     9
100
AcDbPolyline
 90
        4
 70
     1
 43
4.0
 10
373.7959581730008
 20
-1751.166546383418
 42
0.4142135623731
 10
371.7959581730008
 20
-1749.166546383418
 42
0.4142135623731
 10
369.7959581730008
 20
-1751.166546383418
 42
0.4142135623731
 10
371.7959581730008
 20
-1753.166546383418
 42
0.4142135623731
  0
LWPOLYLINE
  5
3E4
330
1F
100
AcDbEntity
  8
0-B_寸法
  6
Continuous
 62
     7
370
     9
100
AcDbPolyline
 90
        4
 70
     1
 43
4.0
 10
358.7959581730008
 20
-1751.166546383418
 42
0.4142135623731
 10
356.7959581730008
 20
-1749.166546383418
 42
0.4142135623731
 10
354.7959581730008
 20
-1751.166546383418
 42
0.4142135623731
 10
356.7959581730008
 20
-1753.166546383418
 42
0.4142135623731
  0
LINE
  5
3E5
330
1F
100
AcDbEntity
  8
0-B_寸法
  6
Continuous
 62
   120
370
     5
100
AcDbLine
 10
356.7959581730008
 20
-1751.166546383418
 30
0.0
 11
1152.795958173003
 21
-1751.166546383418
 31
0.0
  0
LINE
  5
3E6
330
1F
100
AcDbEntity
  8
0-B_寸法
  6
Continuous
 62
   120
370
     5
100
AcDbLine
 10
371.7959581730008
 20
-1751.166546383418
 30
0.0
 11
371.7959581730008
 21
-1651.166546383418
 31
0.0
  0
LINE
  5
3E7
330
1F
100
AcDbEntity
  8
0-B_寸法
  6
Continuous
 62
   120
370
     5
100
AcDbLine
 10
1152.795958173003
 20
-1851.166546383418
 30
0.0
 11
1152.795958173003
 21
-1651.166546383418
 31
0.0
  0
LINE
  5
3E8
330
1F
100
AcDbEntity
  8
0-B_寸法
  6
Continuous
 62
   120
370
     5
100
AcDbLine
 10
356.7959581730008
 20
-1851.166546383418
 30
0.0
 11
356.7959581730008
 21
-1651.166546383418
 31
0.0
  0
LINE
  5
3E9
330
1F
100
AcDbEntity
  8
0-B_寸法
  6
Continuous
 62
   120
370
     5
100
AcDbLine
 10
-439.204041827
 20
-1751.166546383418
 30
0.0
 11
356.7959581730008
 21
-1751.166546383418
 31
0.0
  0
LWPOLYLINE
  5
3EA
330
1F
100
AcDbEntity
  8
0-B_寸法
  6
Continuous
 62
     7
370
     9
100
AcDbPolyline
 90
        4
 70
     1
 43
4.0
 10
-437.204041827
 20
-1751.166546383418
 42
0.4142135623731
 10
-439.204041827
 20
-1749.166546383418
 42
0.4142135623731
 10
-441.204041827
 20
-1751.166546383418
 42
0.4142135623731
 10
-439.204041827
 20
-1753.166546383418
 42
0.4142135623731
  0
LWPOLYLINE
  5
3EB
330
1F
100
AcDbEntity
  8
0-B_寸法
  6
Continuous
 62
     7
370
     9
100
AcDbPolyline
 90
        4
 70
     1
 43
4.0
 10
-422.204041827
 20
-1751.166546383418
 42
0.4142135623731
 10
-424.204041827
 20
-1749.166546383418
 42
0.4142135623731
 10
-426.204041827
 20
-1751.166546383418
 42
0.4142135623731
 10
-424.204041827
 20
-1753.166546383418
 42
0.4142135623731
  0
LINE
  5
3EC
330
1F
100
AcDbEntity
  8
0-B_寸法
  6
Continuous
 62
   120
370
     5
100
AcDbLine
 10
-439.204041827
 20
-1851.166546383417
 30
0.0
 11
-439.204041827
 21
-1651.166546383418
 31
0.0
  0
LINE
  5
3ED
330
1F
100
AcDbEntity
  8
0-B_寸法
  6
Continuous
 62
   120
370
     5
100
AcDbLine
 10
-424.204041827
 20
-1751.166546383418
 30
0.0
 11
-424.204041827
 21
-1651.166546383418
 31
0.0
  0
LWPOLYLINE
  5
3EE
330
1F
100
AcDbEntity
  8
0-B_寸法
  6
Continuous
 62
     7
370
     9
100
AcDbPolyline
 90
        4
 70
     1
 43
4.0
 10
343.7959581730008
 20
-1751.166546383418
 42
0.4142135623731
 10
341.7959581730008
 20
-1749.166546383418
 42
0.4142135623731
 10
339.7959581730008
 20
-1751.166546383418
 42
0.4142135623731
 10
341.7959581730008
 20
-1753.166546383418
 42
0.4142135623731
  0
LINE
  5
3EF
330
1F
100
AcDbEntity
  8
0-B_寸法
  6
Continuous
 62
   120
370
     5
100
AcDbLine
 10
341.7959581730008
 20
-1751.166546383418
 30
0.0
 11
341.7959581730008
 21
-1651.166546383418
 31
0.0
  0
TEXT
  5
3F0
330
1F
100
AcDbEntity
  8
0-B_寸法
  6
Continuous
 62
     7
370
   211
100
AcDbText
 10
-86.20404182699986
 20
-1732.706546383418
 30
0.0
 40
45.72
  1
766
  7
ＭＳ ゴシック
100
AcDbText
  0
LINE
  5
3F1
330
1F
100
AcDbEntity
  8
0-B_寸法
  6
Continuous
 62
   120
370
     5
100
AcDbLine
 10
-439.204041827
 20
-1851.166546383417
 30
0.0
 11
356.7959581730008
 21
-1851.166546383417
 31
0.0
  0
LWPOLYLINE
  5
3F2
330
1F
100
AcDbEntity
  8
0-B_寸法
  6
Continuous
 62
     7
370
     9
100
AcDbPolyline
 90
        4
 70
     1
 43
4.0
 10
-437.204041827
 20
-1851.166546383417
 42
0.4142135623731
 10
-439.204041827
 20
-1849.166546383417
 42
0.4142135623731
 10
-441.204041827
 20
-1851.166546383417
 42
0.4142135623731
 10
-439.204041827
 20
-1853.166546383417
 42
0.4142135623731
  0
TEXT
  5
3F3
330
1F
100
AcDbEntity
  8
0-B_寸法
  6
Continuous
 62
     7
370
   211
100
AcDbText
 10
-86.20404182699986
 20
-1832.706546383417
 30
0.0
 40
45.72
  1
796
  7
ＭＳ ゴシック
100
AcDbText
  0
TEXT
  5
3F4
330
1F
100
AcDbEntity
  8
0-B_寸法
  6
Continuous
 62
     7
370
   211
100
AcDbText
 10
-498.7026279390446
 20
-1732.706546383418
 30
0.0
 40
45.72
  1
15
  7
ＭＳ ゴシック
100
AcDbText
  0
LINE
  5
3F5
330
1F
100
AcDbEntity
  8
0-9__
  6
JWW_DASHED1
 62
     7
370
     9
100
AcDbLine
 10
356.7959581730042
 20
-1456.666546383426
 30
0.0
 11
1120.795958173003
 21
-1456.666546383426
 31
0.0
  0
LINE
  5
3F6
330
1F
100
AcDbEntity
  8
0-9__
  6
JWW_DASHED1
 62
     7
370
     9
100
AcDbLine
 10
356.7959581730042
 20
-1520.666546383426
 30
0.0
 11
356.7959581730042
 21
-1456.666546383426
 31
0.0
  0
LINE
  5
3F7
330
1F
100
AcDbEntity
  8
0-9__
  6
JWW_DASHED1
 62
     7
370
     9
100
AcDbLine
 10
1120.795958173003
 20
-1456.666546383426
 30
0.0
 11
1120.795958173003
 21
-1520.666546383426
 31
0.0
  0
LINE
  5
3F8
330
1F
100
AcDbEntity
  8
0-9__
  6
JWW_DASHED1
 62
     7
370
     9
100
AcDbLine
 10
1120.795958173003
 20
-1520.666546383426
 30
0.0
 11
356.7959581730042
 21
-1520.666546383426
 31
0.0
  0
LINE
  5
3F9
330
1F
100
AcDbEntity
  8
0-9__
  6
JWW_DASHED1
 62
     7
370
     9
100
AcDbLine
 10
-407.2040418269945
 20
-1456.666546383426
 30
0.0
 11
356.7959581730042
 21
-1456.666546383426
 31
0.0
  0
LINE
  5
3FA
330
1F
100
AcDbEntity
  8
0-9__
  6
JWW_DASHED1
 62
     7
370
     9
100
AcDbLine
 10
-407.2040418269945
 20
-1520.666546383426
 30
0.0
 11
-407.2040418269945
 21
-1456.666546383426
 31
0.0
  0
LINE
  5
3FB
330
1F
100
AcDbEntity
  8
0-9__
  6
JWW_DASHED1
 62
     7
370
     9
100
AcDbLine
 10
356.7959581730042
 20
-1520.666546383426
 30
0.0
 11
-407.2040418269945
 21
-1520.666546383426
 31
0.0
  0
LWPOLYLINE
  5
3FC
330
1F
100
AcDbEntity
  8
0-B_寸法
  6
Continuous
 62
     7
370
     9
100
AcDbPolyline
 90
        4
 70
     1
 43
4.0
 10
954.6152272103474
 20
-1456.666546383426
 42
0.4142135623731
 10
952.6152272103474
 20
-1454.666546383426
 42
0.4142135623731
 10
950.6152272103474
 20
-1456.666546383426
 42
0.4142135623731
 10
952.6152272103474
 20
-1458.666546383425
 42
0.4142135623731
  0
LINE
  5
3FD
330
1F
100
AcDbEntity
  8
0-B_寸法
  6
Continuous
 62
   120
370
     5
100
AcDbLine
 10
952.6152272103474
 20
-1456.666546383426
 30
0.0
 11
923.3769509270496
 21
-1456.666546383426
 31
0.0
  0
LINE
  5
3FE
330
1F
100
AcDbEntity
  8
0-B_寸法
  6
Continuous
 62
   120
370
     5
100
AcDbLine
 10
952.6152272103474
 20
-1456.666546383426
 30
0.0
 11
952.6152272103474
 21
-1520.666546383426
 31
0.0
  0
LWPOLYLINE
  5
3FF
330
1F
100
AcDbEntity
  8
0-B_寸法
  6
Continuous
 62
     7
370
     9
100
AcDbPolyline
 90
        4
 70
     1
 43
4.0
 10
954.6152272103474
 20
-1520.666546383426
 42
0.4142135623731
 10
952.6152272103474
 20
-1518.666546383426
 42
0.4142135623731
 10
950.6152272103474
 20
-1520.666546383426
 42
0.4142135623731
 10
952.6152272103474
 20
-1522.666546383426
 42
0.4142135623731
  0
LINE
  5
400
330
1F
100
AcDbEntity
  8
0-B_寸法
  6
Continuous
 62
   120
370
     5
100
AcDbLine
 10
952.6152272103474
 20
-1520.666546383426
 30
0.0
 11
923.3769509270496
 21
-1520.666546383426
 31
0.0
  0
TEXT
  5
401
330
1F
100
AcDbEntity
  8
0-B_寸法
  6
Continuous
 62
     7
370
   211
100
AcDbText
 10
934.1552272103473
 20
-1521.166546383426
 30
0.0
 40
45.72
  1
64
 50
90.0
 41
1.083333333333333
  7
ＭＳ ゴシック
100
AcDbText
  0
LWPOLYLINE
  5
402
330
1F
100
AcDbEntity
  8
0-B_寸法
  6
Continuous
 62
     7
370
     9
100
AcDbPolyline
 90
        4
 70
     1
 43
4.0
 10
158.6152272103466
 20
-1456.666546383426
 42
0.4142135623731
 10
156.6152272103466
 20
-1454.666546383426
 42
0.4142135623731
 10
154.6152272103466
 20
-1456.666546383426
 42
0.4142135623731
 10
156.6152272103466
 20
-1458.666546383425
 42
0.4142135623731
  0
LINE
  5
403
330
1F
100
AcDbEntity
  8
0-B_寸法
  6
Continuous
 62
   120
370
     5
100
AcDbLine
 10
156.6152272103466
 20
-1456.666546383426
 30
0.0
 11
127.37695092705
 21
-1456.666546383426
 31
0.0
  0
LINE
  5
404
330
1F
100
AcDbEntity
  8
0-B_寸法
  6
Continuous
 62
   120
370
     5
100
AcDbLine
 10
156.6152272103466
 20
-1456.666546383426
 30
0.0
 11
156.6152272103466
 21
-1520.666546383426
 31
0.0
  0
LWPOLYLINE
  5
405
330
1F
100
AcDbEntity
  8
0-B_寸法
  6
Continuous
 62
     7
370
     9
100
AcDbPolyline
 90
        4
 70
     1
 43
4.0
 10
158.6152272103466
 20
-1520.666546383426
 42
0.4142135623731
 10
156.6152272103466
 20
-1518.666546383426
 42
0.4142135623731
 10
154.6152272103466
 20
-1520.666546383426
 42
0.4142135623731
 10
156.6152272103466
 20
-1522.666546383426
 42
0.4142135623731
  0
LINE
  5
406
330
1F
100
AcDbEntity
  8
0-B_寸法
  6
Continuous
 62
   120
370
     5
100
AcDbLine
 10
156.6152272103466
 20
-1520.666546383426
 30
0.0
 11
127.37695092705
 21
-1520.666546383426
 31
0.0
  0
TEXT
  5
407
330
1F
100
AcDbEntity
  8
0-B_寸法
  6
Continuous
 62
     7
370
   211
100
AcDbText
 10
138.1552272103466
 20
-1521.166546383426
 30
0.0
 40
45.72
  1
64
 50
90.0
 41
1.083333333333333
  7
ＭＳ ゴシック
100
AcDbText
  0
LWPOLYLINE
  5
408
330
1F
100
AcDbEntity
  8
0-B_寸法
  6
Continuous
 62
     7
370
     9
100
AcDbPolyline
 90
        4
 70
     1
 43
4.0
 10
-587.204041827
 20
2083.063356107788
 42
0.4142135623731
 10
-589.204041827
 20
2085.063356107788
 42
0.4142135623731
 10
-591.204041827
 20
2083.063356107788
 42
0.4142135623731
 10
-589.204041827
 20
2081.063356107788
 42
0.4142135623731
  0
LWPOLYLINE
  5
409
330
1F
100
AcDbEntity
  8
0-B_寸法
  6
Continuous
 62
     7
370
     9
100
AcDbPolyline
 90
        4
 70
     1
 43
4.0
 10
-587.204041827
 20
1738.063646437179
 42
0.4142135623731
 10
-589.204041827
 20
1740.063646437179
 42
0.4142135623731
 10
-591.204041827
 20
1738.063646437179
 42
0.4142135623731
 10
-589.204041827
 20
1736.063646437179
 42
0.4142135623731
  0
LINE
  5
40A
330
1F
100
AcDbEntity
  8
0-B_寸法
  6
Continuous
 62
   120
370
     5
100
AcDbLine
 10
-589.204041827
 20
1738.063646437179
 30
0.0
 11
-489.204041827
 21
1738.063646437179
 31
0.0
  0
TEXT
  5
40B
330
1F
100
AcDbEntity
  8
0-B_寸法
  6
Continuous
 62
     7
370
   211
100
AcDbText
 10
-607.664041827
 20
1865.563501272482
 30
0.0
 40
45.72
  1
345
 50
90.0
  7
ＭＳ ゴシック
100
AcDbText
  0
LWPOLYLINE
  5
40C
330
1F
100
AcDbEntity
  8
0-B_寸法
  6
Continuous
 62
     7
370
     9
100
AcDbPolyline
 90
        4
 70
     1
 43
4.0
 10
-587.204041827
 20
1737.062999794443
 42
0.4142135623731
 10
-589.204041827
 20
1739.062999794443
 42
0.4142135623731
 10
-591.204041827
 20
1737.062999794443
 42
0.4142135623731
 10
-589.204041827
 20
1735.062999794443
 42
0.4142135623731
  0
LINE
  5
40D
330
1F
100
AcDbEntity
  8
0-B_寸法
  6
Continuous
 62
   120
370
     5
100
AcDbLine
 10
-589.204041827
 20
1737.062999794443
 30
0.0
 11
-489.204041827
 21
1737.062999794443
 31
0.0
  0
TEXT
  5
40E
330
1F
100
AcDbEntity
  8
0-B_寸法
  6
Continuous
 62
     7
370
   211
100
AcDbText
 10
-607.664041827
 20
1722.563323115811
 30
0.0
 40
45.72
  1
1
 50
90.0
  7
ＭＳ ゴシック
100
AcDbText
  0
LWPOLYLINE
  5
40F
330
1F
100
AcDbEntity
  8
0-B_寸法
  6
Continuous
 62
     7
370
     9
100
AcDbPolyline
 90
        4
 70
     1
 43
4.0
 10
-687.204041827
 20
2083.063356107788
 42
0.4142135623731
 10
-689.204041827
 20
2085.063356107788
 42
0.4142135623731
 10
-691.204041827
 20
2083.063356107788
 42
0.4142135623731
 10
-689.204041827
 20
2081.063356107788
 42
0.4142135623731
  0
LINE
  5
410
330
1F
100
AcDbEntity
  8
0-B_寸法
  6
Continuous
 62
   120
370
     5
100
AcDbLine
 10
-689.204041827
 20
2083.063356107788
 30
0.0
 11
-489.204041827
 21
2083.063356107788
 31
0.0
  0
LINE
  5
411
330
1F
100
AcDbEntity
  8
0-2_扉
  6
Continuous
 62
    40
370
    15
100
AcDbLine
 10
354.7959581729998
 20
1737.063356107788
 30
0.0
 11
-39.20404182699997
 21
1737.063356107788
 31
0.0
  0
LINE
  5
412
330
1F
100
AcDbEntity
  8
0-2_扉
  6
Continuous
 62
    40
370
    15
100
AcDbLine
 10
-43.20404182700031
 20
1737.063356107788
 30
0.0
 11
-437.2040418270001
 21
1737.063356107788
 31
0.0
  0
LINE
  5
413
330
1F
100
AcDbEntity
  8
0-2_扉
  6
Continuous
 62
    40
370
    15
100
AcDbLine
 10
-437.2040418270001
 20
1737.063356107788
 30
0.0
 11
-437.2040418270001
 21
1719.063356107788
 31
0.0
  0
LINE
  5
414
330
1F
100
AcDbEntity
  8
0-2_扉
  6
Continuous
 62
    40
370
    15
100
AcDbLine
 10
354.7959581729998
 20
1737.063356107788
 30
0.0
 11
354.7959581729998
 21
1719.063356107788
 31
0.0
  0
LINE
  5
415
330
1F
100
AcDbEntity
  8
0-B_寸法
  6
Continuous
 62
   120
370
     5
100
AcDbLine
 10
-589.204041827
 20
2083.063356107788
 30
0.0
 11
-589.204041827
 21
1719.063356107788
 31
0.0
  0
LWPOLYLINE
  5
416
330
1F
100
AcDbEntity
  8
0-B_寸法
  6
Continuous
 62
     7
370
     9
100
AcDbPolyline
 90
        4
 70
     1
 43
4.0
 10
-587.204041827
 20
1719.063356107788
 42
0.4142135623731
 10
-589.204041827
 20
1721.063356107788
 42
0.4142135623731
 10
-591.204041827
 20
1719.063356107788
 42
0.4142135623731
 10
-589.204041827
 20
1717.063356107789
 42
0.4142135623731
  0
LINE
  5
417
330
1F
100
AcDbEntity
  8
0-B_寸法
  6
Continuous
 62
   120
370
     5
100
AcDbLine
 10
-689.204041827
 20
2083.063356107788
 30
0.0
 11
-689.204041827
 21
1719.063356107788
 31
0.0
  0
LWPOLYLINE
  5
418
330
1F
100
AcDbEntity
  8
0-B_寸法
  6
Continuous
 62
     7
370
     9
100
AcDbPolyline
 90
        4
 70
     1
 43
4.0
 10
-687.204041827
 20
1719.063356107788
 42
0.4142135623731
 10
-689.204041827
 20
1721.063356107788
 42
0.4142135623731
 10
-691.204041827
 20
1719.063356107788
 42
0.4142135623731
 10
-689.204041827
 20
1717.063356107789
 42
0.4142135623731
  0
LINE
  5
419
330
1F
100
AcDbEntity
  8
0-B_寸法
  6
Continuous
 62
   120
370
     5
100
AcDbLine
 10
-689.204041827
 20
1719.063356107788
 30
0.0
 11
-489.204041827
 21
1719.063356107788
 31
0.0
  0
LINE
  5
41A
330
1F
100
AcDbEntity
  8
0-2_扉
  6
Continuous
 62
    40
370
    15
100
AcDbLine
 10
-43.20404182700031
 20
1737.063356107788
 30
0.0
 11
-43.20404182700031
 21
1719.063356107788
 31
0.0
  0
LINE
  5
41B
330
1F
100
AcDbEntity
  8
0-2_扉
  6
Continuous
 62
    40
370
    15
100
AcDbLine
 10
-39.20404182699997
 20
1737.063356107788
 30
0.0
 11
-39.20404182699997
 21
1719.063356107788
 31
0.0
  0
LINE
  5
41C
330
1F
100
AcDbEntity
  8
0-2_扉
  6
Continuous
 62
    40
370
    15
100
AcDbLine
 10
354.7959581729998
 20
1719.063356107788
 30
0.0
 11
-39.20404182699997
 21
1719.063356107788
 31
0.0
  0
LINE
  5
41D
330
1F
100
AcDbEntity
  8
0-2_扉
  6
Continuous
 62
    40
370
    15
100
AcDbLine
 10
-43.20404182700031
 20
1719.063356107788
 30
0.0
 11
-437.2040418270001
 21
1719.063356107788
 31
0.0
  0
TEXT
  5
41E
330
1F
100
AcDbEntity
  8
0-B_寸法
  6
Continuous
 62
     7
370
   211
100
AcDbText
 10
-707.664041827
 20
1851.563356107786
 30
0.0
 40
45.72
  1
364
 50
90.0
  7
ＭＳ ゴシック
100
AcDbText
  0
TEXT
  5
41F
330
1F
100
AcDbEntity
  8
0-B_寸法
  6
Continuous
 62
     7
370
   211
100
AcDbText
 10
-607.664041827
 20
1650.647621061193
 30
0.0
 40
45.72
  1
18
 50
90.0
  7
ＭＳ ゴシック
100
AcDbText
  0
LINE
  5
420
330
1F
100
AcDbEntity
  8
0-2_扉
  6
Continuous
 62
    40
370
    15
100
AcDbLine
 10
1150.795958172999
 20
1737.063356107788
 30
0.0
 11
756.7959581729991
 21
1737.063356107788
 31
0.0
  0
LINE
  5
421
330
1F
100
AcDbEntity
  8
0-2_扉
  6
Continuous
 62
    40
370
    15
100
AcDbLine
 10
752.7959581729988
 20
1737.063356107788
 30
0.0
 11
358.795958172999
 21
1737.063356107788
 31
0.0
  0
LINE
  5
422
330
1F
100
AcDbEntity
  8
0-2_扉
  6
Continuous
 62
    40
370
    15
100
AcDbLine
 10
358.795958172999
 20
1737.063356107788
 30
0.0
 11
358.795958172999
 21
1719.063356107788
 31
0.0
  0
LINE
  5
423
330
1F
100
AcDbEntity
  8
0-2_扉
  6
Continuous
 62
    40
370
    15
100
AcDbLine
 10
1150.795958172999
 20
1737.063356107788
 30
0.0
 11
1150.795958172999
 21
1719.063356107788
 31
0.0
  0
LINE
  5
424
330
1F
100
AcDbEntity
  8
0-2_扉
  6
Continuous
 62
    40
370
    15
100
AcDbLine
 10
752.7959581729988
 20
1737.063356107788
 30
0.0
 11
752.7959581729988
 21
1719.063356107788
 31
0.0
  0
LINE
  5
425
330
1F
100
AcDbEntity
  8
0-2_扉
  6
Continuous
 62
    40
370
    15
100
AcDbLine
 10
756.7959581729991
 20
1737.063356107788
 30
0.0
 11
756.7959581729991
 21
1719.063356107788
 31
0.0
  0
LINE
  5
426
330
1F
100
AcDbEntity
  8
0-2_扉
  6
Continuous
 62
    40
370
    15
100
AcDbLine
 10
1150.795958172999
 20
1719.063356107788
 30
0.0
 11
756.7959581729991
 21
1719.063356107788
 31
0.0
  0
LINE
  5
427
330
1F
100
AcDbEntity
  8
0-2_扉
  6
Continuous
 62
    40
370
    15
100
AcDbLine
 10
752.7959581729988
 20
1719.063356107788
 30
0.0
 11
358.795958172999
 21
1719.063356107788
 31
0.0
  0
LINE
  5
428
330
1F
100
AcDbEntity
  8
0-0_補助線
  6
JWW_HOJO
 62
   120
370
     5
100
AcDbLine
 10
1202.795958172999
 20
1460.063356107788
 30
0.0
 11
1202.795958172999
 21
2133.063356107788
 31
0.0
  0
LINE
  5
429
330
1F
100
AcDbEntity
  8
0-0_補助線
  6
JWW_HOJO
 62
   120
370
     5
100
AcDbLine
 10
-689.204041827
 20
2133.063356107788
 30
0.0
 11
1202.795958172999
 21
2133.063356107788
 31
0.0
  0
LINE
  5
42A
330
1F
100
AcDbEntity
  8
0-0_補助線
  6
JWW_HOJO
 62
   120
370
     5
100
AcDbLine
 10
-689.204041827
 20
1460.063356107788
 30
0.0
 11
1202.795958172999
 21
1460.063356107788
 31
0.0
  0
LINE
  5
42B
330
1F
100
AcDbEntity
  8
0-0_補助線
  6
JWW_HOJO
 62
   120
370
     5
100
AcDbLine
 10
-689.204041827
 20
1660.063356107788
 30
0.0
 11
1202.795958172999
 21
1660.063356107788
 31
0.0
  0
LINE
  5
42C
330
1F
100
AcDbEntity
  8
0-0_補助線
  6
JWW_HOJO
 62
   120
370
     5
100
AcDbLine
 10
-689.204041827
 20
1560.063356107788
 30
0.0
 11
1202.795958172999
 21
1560.063356107788
 31
0.0
  0
LINE
  5
42D
330
1F
100
AcDbEntity
  8
0-0_補助線
  6
JWW_HOJO
 62
     7
370
     9
100
AcDbLine
 10
-689.204041827
 20
2083.063356107788
 30
0.0
 11
1202.795958172999
 21
2083.063356107788
 31
0.0
  0
LINE
  5
42E
330
1F
100
AcDbEntity
  8
0-0_補助線
  6
JWW_HOJO
 62
     7
370
     9
100
AcDbLine
 10
-689.204041827
 20
1738.063356107788
 30
0.0
 11
1202.795958172999
 21
1738.063356107788
 31
0.0
  0
TEXT
  5
42F
330
1F
100
AcDbEntity
  8
0-B_寸法
  6
Continuous
 62
     7
370
   211
100
AcDbText
 10
-3199.664041827003
 20
-537.1665463834188
 30
0.0
 40
45.72
  1
ＤＨ＝2,163
 50
90.0
  7
ＭＳ ゴシック
100
AcDbText
  0
TEXT
  5
430
330
1F
100
AcDbEntity
  8
0-B_寸法
  6
Continuous
 62
     7
370
   211
100
AcDbText
 10
-3299.664041827003
 20
-447.1665463834188
 30
0.0
 40
45.72
  1
2,169
 50
90.0
  7
ＭＳ ゴシック
100
AcDbText
  0
TEXT
  5
431
330
1F
100
AcDbEntity
  8
0-B_寸法
  6
Continuous
 62
     7
370
   211
100
AcDbText
 10
-3199.664041827003
 20
679.0069953966088
 30
0.0
 40
45.72
  1
3
 50
90.0
  7
ＭＳ ゴシック
100
AcDbText
  0
LINE
  5
432
330
1F
100
AcDbEntity
  8
0-B_寸法
  6
Continuous
 62
   120
370
     5
100
AcDbLine
 10
-3281.204041827003
 20
712.3334536165811
 30
0.0
 11
-3081.204041827003
 21
712.3334536165811
 31
0.0
  0
LINE
  5
433
330
1F
100
AcDbEntity
  8
0-B_寸法
  6
Continuous
 62
   120
370
     5
100
AcDbLine
 10
-3281.204041827003
 20
-1456.666546383419
 30
0.0
 11
-3081.204041827003
 21
-1456.666546383419
 31
0.0
  0
LWPOLYLINE
  5
434
330
1F
100
AcDbEntity
  8
0-B_寸法
  6
Continuous
 62
     7
370
     9
100
AcDbPolyline
 90
        4
 70
     1
 43
4.0
 10
-3279.204041827003
 20
712.3334536165811
 42
0.4142135623731
 10
-3281.204041827003
 20
714.3334536165811
 42
0.4142135623731
 10
-3283.204041827003
 20
712.3334536165811
 42
0.4142135623731
 10
-3281.204041827003
 20
710.3334536165811
 42
0.4142135623731
  0
LWPOLYLINE
  5
435
330
1F
100
AcDbEntity
  8
0-B_寸法
  6
Continuous
 62
     7
370
     9
100
AcDbPolyline
 90
        4
 70
     1
 43
4.0
 10
-3279.204041827003
 20
-1456.666546383419
 42
0.4142135623731
 10
-3281.204041827003
 20
-1454.666546383419
 42
0.4142135623731
 10
-3283.204041827003
 20
-1456.666546383419
 42
0.4142135623731
 10
-3281.204041827003
 20
-1458.666546383419
 42
0.4142135623731
  0
LINE
  5
436
330
1F
100
AcDbEntity
  8
0-B_寸法
  6
Continuous
 62
   120
370
     5
100
AcDbLine
 10
-3281.204041827003
 20
-1456.666546383419
 30
0.0
 11
-3281.204041827003
 21
712.3334536165811
 31
0.0
  0
TEXT
  5
437
330
1F
100
AcDbEntity
  8
0-B_寸法
  6
Continuous
 62
     7
370
   211
100
AcDbText
 10
-2569.204041827002
 20
880.7934536165811
 30
0.0
 40
45.72
  1
ＤＷ＝394
  7
ＭＳ ゴシック
100
AcDbText
  0
TEXT
  5
438
330
1F
100
AcDbEntity
  8
0-B_寸法
  6
Continuous
 62
     7
370
   211
100
AcDbText
 10
-2967.204041827003
 20
880.7934536165811
 30
0.0
 40
45.72
  1
ＤＷ＝394
  7
ＭＳ ゴシック
100
AcDbText
  0
LWPOLYLINE
  5
439
330
1F
100
AcDbEntity
  8
0-B_寸法
  6
Continuous
 62
     7
370
     9
100
AcDbPolyline
 90
        4
 70
     1
 43
4.0
 10
-3179.204041827003
 20
712.3334536165811
 42
0.4142135623731
 10
-3181.204041827003
 20
714.3334536165811
 42
0.4142135623731
 10
-3183.204041827003
 20
712.3334536165811
 42
0.4142135623731
 10
-3181.204041827003
 20
710.3334536165811
 42
0.4142135623731
  0
LINE
  5
43A
330
1F
100
AcDbEntity
  8
0-B_寸法
  6
Continuous
 62
   120
370
     5
100
AcDbLine
 10
-3181.204041827003
 20
709.3334536165816
 30
0.0
 11
-3181.204041827003
 21
712.3334536165811
 31
0.0
  0
LINE
  5
43B
330
1F
100
AcDbEntity
  8
0-B_寸法
  6
Continuous
 62
   120
370
     5
100
AcDbLine
 10
-3181.204041827003
 20
709.3334536165816
 30
0.0
 11
-3081.204041827003
 21
709.3334536165816
 31
0.0
  0
LWPOLYLINE
  5
43C
330
1F
100
AcDbEntity
  8
0-B_寸法
  6
Continuous
 62
     7
370
     9
100
AcDbPolyline
 90
        4
 70
     1
 43
4.0
 10
-3179.204041827003
 20
709.3334536165816
 42
0.4142135623731
 10
-3181.204041827003
 20
711.3334536165816
 42
0.4142135623731
 10
-3183.204041827003
 20
709.3334536165816
 42
0.4142135623731
 10
-3181.204041827003
 20
707.3334536165816
 42
0.4142135623731
  0
LINE
  5
43D
330
1F
100
AcDbEntity
  8
0-B_寸法
  6
Continuous
 62
   120
370
     5
100
AcDbLine
 10
-3181.204041827003
 20
-1453.666533407556
 30
0.0
 11
-3181.204041827003
 21
709.3334536165816
 31
0.0
  0
LINE
  5
43E
330
1F
100
AcDbEntity
  8
0-B_寸法
  6
Continuous
 62
   120
370
     5
100
AcDbLine
 10
-3181.204041827003
 20
-1453.666533407556
 30
0.0
 11
-3081.204041827003
 21
-1453.666533407556
 31
0.0
  0
LWPOLYLINE
  5
43F
330
1F
100
AcDbEntity
  8
0-B_寸法
  6
Continuous
 62
     7
370
     9
100
AcDbPolyline
 90
        4
 70
     1
 43
4.0
 10
-3179.204041827003
 20
-1453.666533407556
 42
0.4142135623731
 10
-3181.204041827003
 20
-1451.666533407556
 42
0.4142135623731
 10
-3183.204041827003
 20
-1453.666533407556
 42
0.4142135623731
 10
-3181.204041827003
 20
-1455.666533407556
 42
0.4142135623731
  0
LWPOLYLINE
  5
440
330
1F
100
AcDbEntity
  8
0-B_寸法
  6
Continuous
 62
     7
370
     9
100
AcDbPolyline
 90
        4
 70
     1
 43
4.0
 10
-3179.204041827003
 20
-1456.666546383419
 42
0.4142135623731
 10
-3181.204041827003
 20
-1454.666546383419
 42
0.4142135623731
 10
-3183.204041827003
 20
-1456.666546383419
 42
0.4142135623731
 10
-3181.204041827003
 20
-1458.666546383419
 42
0.4142135623731
  0
LINE
  5
441
330
1F
100
AcDbEntity
  8
0-B_寸法
  6
Continuous
 62
   120
370
     5
100
AcDbLine
 10
-3181.204041827003
 20
-1456.666546383419
 30
0.0
 11
-3181.204041827003
 21
-1453.666533407556
 31
0.0
  0
LINE
  5
442
330
1F
100
AcDbEntity
  8
0-1_本体
  6
Continuous
 62
     7
370
     9
100
AcDbLine
 10
-2235.204041827001
 20
-1456.666533407557
 30
0.0
 11
-3031.204041827003
 21
-1456.666533407557
 31
0.0
  0
LINE
  5
443
330
1F
100
AcDbEntity
  8
0-1_本体
  6
Continuous
 62
     7
370
     9
100
AcDbLine
 10
-2235.204041827004
 20
-1456.666546383419
 30
0.0
 11
-2235.204041827001
 21
712.3334536165811
 31
0.0
  0
LINE
  5
444
330
1F
100
AcDbEntity
  8
0-B_寸法
  6
Continuous
 62
   120
370
     5
100
AcDbLine
 10
-2235.204041827003
 20
862.3334536165811
 30
0.0
 11
-2235.204041827003
 21
762.3334536165811
 31
0.0
  0
LWPOLYLINE
  5
445
330
1F
100
AcDbEntity
  8
0-B_寸法
  6
Continuous
 62
     7
370
     9
100
AcDbPolyline
 90
        4
 70
     1
 43
4.0
 10
-2233.204041827003
 20
862.3334536165811
 42
0.4142135623731
 10
-2235.204041827003
 20
864.3334536165811
 42
0.4142135623731
 10
-2237.204041827003
 20
862.3334536165811
 42
0.4142135623731
 10
-2235.204041827003
 20
860.3334536165811
 42
0.4142135623731
  0
LINE
  5
446
330
1F
100
AcDbEntity
  8
0-B_寸法
  6
Continuous
 62
   120
370
     5
100
AcDbLine
 10
-2237.204041827002
 20
862.3334536165811
 30
0.0
 11
-2235.204041827003
 21
862.3334536165811
 31
0.0
  0
LINE
  5
447
330
1F
100
AcDbEntity
  8
0-B_寸法
  6
Continuous
 62
   120
370
     5
100
AcDbLine
 10
-2237.204041827002
 20
862.3334536165811
 30
0.0
 11
-2237.204041827002
 21
762.3334536165811
 31
0.0
  0
LWPOLYLINE
  5
448
330
1F
100
AcDbEntity
  8
0-B_寸法
  6
Continuous
 62
     7
370
     9
100
AcDbPolyline
 90
        4
 70
     1
 43
4.0
 10
-2235.204041827002
 20
862.3334536165811
 42
0.4142135623731
 10
-2237.204041827002
 20
864.3334536165811
 42
0.4142135623731
 10
-2239.204041827002
 20
862.3334536165811
 42
0.4142135623731
 10
-2237.204041827002
 20
860.3334536165811
 42
0.4142135623731
  0
LINE
  5
449
330
1F
100
AcDbEntity
  8
0-B_寸法
  6
Continuous
 62
   120
370
     5
100
AcDbLine
 10
-2631.204041827003
 20
862.3334536165811
 30
0.0
 11
-2237.204041827002
 21
862.3334536165811
 31
0.0
  0
TEXT
  5
44A
330
1F
100
AcDbEntity
  8
0-B_寸法
  6
Continuous
 62
     7
370
   211
100
AcDbText
 10
-2648.204041827002
 20
880.7934536165811
 30
0.0
 40
45.72
  1
4
  7
ＭＳ ゴシック
100
AcDbText
  0
LINE
  5
44B
330
1F
100
AcDbEntity
  8
0-B_寸法
  6
Continuous
 62
   120
370
     5
100
AcDbLine
 10
-2631.204041827003
 20
862.3334536165811
 30
0.0
 11
-2631.204041827003
 21
762.3334536165811
 31
0.0
  0
LWPOLYLINE
  5
44C
330
1F
100
AcDbEntity
  8
0-B_寸法
  6
Continuous
 62
     7
370
     9
100
AcDbPolyline
 90
        4
 70
     1
 43
4.0
 10
-2629.204041827003
 20
862.3334536165811
 42
0.4142135623731
 10
-2631.204041827003
 20
864.3334536165811
 42
0.4142135623731
 10
-2633.204041827003
 20
862.3334536165811
 42
0.4142135623731
 10
-2631.204041827003
 20
860.3334536165811
 42
0.4142135623731
  0
LINE
  5
44D
330
1F
100
AcDbEntity
  8
0-B_寸法
  6
Continuous
 62
   120
370
     5
100
AcDbLine
 10
-2635.204041827001
 20
862.3334536165811
 30
0.0
 11
-2631.204041827003
 21
862.3334536165811
 31
0.0
  0
LINE
  5
44E
330
1F
100
AcDbEntity
  8
0-B_寸法
  6
Continuous
 62
   120
370
     5
100
AcDbLine
 10
-2635.204041827001
 20
862.3334536165811
 30
0.0
 11
-2635.204041827001
 21
762.3334536165811
 31
0.0
  0
LWPOLYLINE
  5
44F
330
1F
100
AcDbEntity
  8
0-B_寸法
  6
Continuous
 62
     7
370
     9
100
AcDbPolyline
 90
        4
 70
     1
 43
4.0
 10
-2633.204041827001
 20
862.3334536165811
 42
0.4142135623731
 10
-2635.204041827001
 20
864.3334536165811
 42
0.4142135623731
 10
-2637.204041827001
 20
862.3334536165811
 42
0.4142135623731
 10
-2635.204041827001
 20
860.3334536165811
 42
0.4142135623731
  0
LINE
  5
450
330
1F
100
AcDbEntity
  8
0-B_寸法
  6
Continuous
 62
   120
370
     5
100
AcDbLine
 10
-3029.204041827002
 20
862.3334536165811
 30
0.0
 11
-2635.204041827001
 21
862.3334536165811
 31
0.0
  0
TEXT
  5
451
330
1F
100
AcDbEntity
  8
0-B_寸法
  6
Continuous
 62
     7
370
   211
100
AcDbText
 10
-3045.204041827003
 20
880.7934536165811
 30
0.0
 40
45.72
  1
2
  7
ＭＳ ゴシック
100
AcDbText
  0
LINE
  5
452
330
1F
100
AcDbEntity
  8
0-B_寸法
  6
Continuous
 62
   120
370
     5
100
AcDbLine
 10
-3029.204041827002
 20
862.3334536165811
 30
0.0
 11
-3029.204041827002
 21
762.3334536165811
 31
0.0
  0
LINE
  5
453
330
1F
100
AcDbEntity
  8
0-B_寸法
  6
Continuous
 62
   120
370
     5
100
AcDbLine
 10
-3031.204041827003
 20
862.3334536165811
 30
0.0
 11
-3031.204041827003
 21
762.3334536165811
 31
0.0
  0
LWPOLYLINE
  5
454
330
1F
100
AcDbEntity
  8
0-B_寸法
  6
Continuous
 62
     7
370
     9
100
AcDbPolyline
 90
        4
 70
     1
 43
4.0
 10
-3027.204041827002
 20
862.3334536165811
 42
0.4142135623731
 10
-3029.204041827002
 20
864.3334536165811
 42
0.4142135623731
 10
-3031.204041827002
 20
862.3334536165811
 42
0.4142135623731
 10
-3029.204041827002
 20
860.3334536165811
 42
0.4142135623731
  0
LWPOLYLINE
  5
455
330
1F
100
AcDbEntity
  8
0-B_寸法
  6
Continuous
 62
     7
370
     9
100
AcDbPolyline
 90
        4
 70
     1
 43
4.0
 10
-3029.204041827003
 20
862.3334536165811
 42
0.4142135623731
 10
-3031.204041827003
 20
864.3334536165811
 42
0.4142135623731
 10
-3033.204041827003
 20
862.3334536165811
 42
0.4142135623731
 10
-3031.204041827003
 20
860.3334536165811
 42
0.4142135623731
  0
LINE
  5
456
330
1F
100
AcDbEntity
  8
0-B_寸法
  6
Continuous
 62
   120
370
     5
100
AcDbLine
 10
-3031.204041827003
 20
862.3334536165811
 30
0.0
 11
-3029.204041827002
 21
862.3334536165811
 31
0.0
  0
LINE
  5
457
330
1F
100
AcDbEntity
  8
0-1_本体
  6
Continuous
 62
     7
370
     9
100
AcDbLine
 10
-3031.204041827003
 20
-1456.666546383419
 30
0.0
 11
-3031.204041827003
 21
712.3334536165811
 31
0.0
  0
LINE
  5
458
330
1F
100
AcDbEntity
  8
0-1_本体
  6
Continuous
 62
     7
370
     9
100
AcDbLine
 10
-3031.204041827003
 20
712.3334536165811
 30
0.0
 11
-2235.204041827001
 21
712.3334536165811
 31
0.0
  0
TEXT
  5
459
330
1F
100
AcDbEntity
  8
0-B_寸法
  6
Continuous
 62
     7
370
   211
100
AcDbText
 10
-3199.664041827003
 20
-1443.093844734415
 30
0.0
 40
45.72
  1
3
 50
90.0
  7
ＭＳ ゴシック
100
AcDbText
  0
LINE
  5
45A
330
1F
100
AcDbEntity
  8
0-0_補助線
  6
JWW_HOJO
 62
   120
370
     5
100
AcDbLine
 10
-3281.204041827003
 20
862.3334536165811
 30
0.0
 11
-3281.204041827003
 21
-1851.16654638342
 31
0.0
  0
LINE
  5
45B
330
1F
100
AcDbEntity
  8
0-0_補助線
  6
JWW_HOJO
 62
   120
370
     5
100
AcDbLine
 10
-3181.204041827003
 20
862.3334536165811
 30
0.0
 11
-3181.204041827003
 21
-1851.16654638342
 31
0.0
  0
LINE
  5
45C
330
1F
100
AcDbEntity
  8
0-0_補助線
  6
JWW_HOJO
 62
   120
370
     5
100
AcDbLine
 10
-3081.204041827003
 20
-1851.16654638342
 30
0.0
 11
-3081.204041827003
 21
862.3334536165811
 31
0.0
  0
LINE
  5
45D
330
1F
100
AcDbEntity
  8
0-0_補助線
  6
JWW_HOJO
 62
     7
370
     9
100
AcDbLine
 10
-2235.204041827003
 20
-1851.16654638342
 30
0.0
 11
-2235.204041827003
 21
862.3334536165811
 31
0.0
  0
LINE
  5
45E
330
1F
100
AcDbEntity
  8
0-0_補助線
  6
JWW_HOJO
 62
     7
370
     9
100
AcDbLine
 10
-3031.204041827003
 20
-1851.16654638342
 30
0.0
 11
-3031.204041827003
 21
862.3334536165811
 31
0.0
  0
LINE
  5
45F
330
1F
100
AcDbEntity
  8
0-2_扉
  6
Continuous
 62
    92
370
    13
100
AcDbLine
 10
-2237.204041827002
 20
709.3334536165816
 30
0.0
 11
-2237.204041827002
 21
-1453.66654638342
 31
0.0
  0
LINE
  5
460
330
1F
100
AcDbEntity
  8
0-2_扉
  6
Continuous
 62
    92
370
    13
100
AcDbLine
 10
-2631.204041827003
 20
709.3334536165816
 30
0.0
 11
-2631.204041827003
 21
-1453.66654638342
 31
0.0
  0
LINE
  5
461
330
1F
100
AcDbEntity
  8
0-2_扉
  6
Continuous
 62
    92
370
    13
100
AcDbLine
 10
-2635.204041827001
 20
709.3334536165816
 30
0.0
 11
-2635.204041827001
 21
-1453.66654638342
 31
0.0
  0
LINE
  5
462
330
1F
100
AcDbEntity
  8
0-2_扉
  6
Continuous
 62
    92
370
    13
100
AcDbLine
 10
-3029.204041827002
 20
709.3334536165816
 30
0.0
 11
-3029.204041827002
 21
-1453.66654638342
 31
0.0
  0
LINE
  5
463
330
1F
100
AcDbEntity
  8
0-2_扉
  6
Continuous
 62
    92
370
    13
100
AcDbLine
 10
-2631.204041827003
 20
-1453.66654638342
 30
0.0
 11
-2237.204041827002
 21
-1453.66654638342
 31
0.0
  0
LINE
  5
464
330
1F
100
AcDbEntity
  8
0-2_扉
  6
Continuous
 62
    92
370
    13
100
AcDbLine
 10
-3029.204041827002
 20
-1453.66654638342
 30
0.0
 11
-2635.204041827001
 21
-1453.66654638342
 31
0.0
  0
LINE
  5
465
330
1F
100
AcDbEntity
  8
0-2_扉
  6
Continuous
 62
    92
370
    13
100
AcDbLine
 10
-2631.204041827003
 20
709.3334536165816
 30
0.0
 11
-2237.204041827002
 21
709.3334536165816
 31
0.0
  0
LINE
  5
466
330
1F
100
AcDbEntity
  8
0-2_扉
  6
Continuous
 62
    92
370
    13
100
AcDbLine
 10
-3029.204041827002
 20
709.3334536165816
 30
0.0
 11
-2635.204041827001
 21
709.3334536165816
 31
0.0
  0
LINE
  5
467
330
1F
100
AcDbEntity
  8
0-0_補助線
  6
JWW_HOJO
 62
   120
370
     5
100
AcDbLine
 10
-1289.204041827002
 20
-1851.16654638342
 30
0.0
 11
-1289.204041827002
 21
862.3334536165811
 31
0.0
  0
LINE
  5
468
330
1F
100
AcDbEntity
  8
0-0_補助線
  6
JWW_HOJO
 62
   120
370
     5
100
AcDbLine
 10
-1389.204041827002
 20
-1851.16654638342
 30
0.0
 11
-1389.204041827002
 21
862.3334536165811
 31
0.0
  0
TEXT
  5
469
330
1F
100
AcDbEntity
  8
0-B_寸法
  6
Continuous
 62
     7
370
   211
100
AcDbText
 10
-1773.204041827003
 20
880.7934536165811
 30
0.0
 40
45.72
  1
ＤＷ＝394
  7
ＭＳ ゴシック
100
AcDbText
  0
TEXT
  5
46A
330
1F
100
AcDbEntity
  8
0-B_寸法
  6
Continuous
 62
     7
370
   211
100
AcDbText
 10
-2171.204041827003
 20
880.7934536165811
 30
0.0
 40
45.72
  1
ＤＷ＝394
  7
ＭＳ ゴシック
100
AcDbText
  0
LINE
  5
46B
330
1F
100
AcDbEntity
  8
0-1_本体
  6
Continuous
 62
     7
370
     9
100
AcDbLine
 10
-1439.204041827002
 20
-1456.666533407557
 30
0.0
 11
-2235.204041827004
 21
-1456.666533407557
 31
0.0
  0
LINE
  5
46C
330
1F
100
AcDbEntity
  8
0-1_本体
  6
Continuous
 62
     7
370
     9
100
AcDbLine
 10
-1439.204041827002
 20
-1456.666533407557
 30
0.0
 11
-1439.204041827002
 21
712.3334536165811
 31
0.0
  0
TEXT
  5
46D
330
1F
100
AcDbEntity
  8
0-B_寸法
  6
Continuous
 62
     7
370
   211
100
AcDbText
 10
-1455.204041827003
 20
880.7934536165811
 30
0.0
 40
45.72
  1
2
  7
ＭＳ ゴシック
100
AcDbText
  0
LINE
  5
46E
330
1F
100
AcDbEntity
  8
0-B_寸法
  6
Continuous
 62
   120
370
     5
100
AcDbLine
 10
-1439.204041827004
 20
862.3334536165811
 30
0.0
 11
-1439.204041827004
 21
762.3334536165811
 31
0.0
  0
LWPOLYLINE
  5
46F
330
1F
100
AcDbEntity
  8
0-B_寸法
  6
Continuous
 62
     7
370
     9
100
AcDbPolyline
 90
        4
 70
     1
 43
4.0
 10
-1437.204041827004
 20
862.3334536165811
 42
0.4142135623731
 10
-1439.204041827004
 20
864.3334536165811
 42
0.4142135623731
 10
-1441.204041827004
 20
862.3334536165811
 42
0.4142135623731
 10
-1439.204041827004
 20
860.3334536165811
 42
0.4142135623731
  0
LINE
  5
470
330
1F
100
AcDbEntity
  8
0-B_寸法
  6
Continuous
 62
   120
370
     5
100
AcDbLine
 10
-1441.204041827002
 20
862.3334536165811
 30
0.0
 11
-1439.204041827004
 21
862.3334536165811
 31
0.0
  0
LINE
  5
471
330
1F
100
AcDbEntity
  8
0-B_寸法
  6
Continuous
 62
   120
370
     5
100
AcDbLine
 10
-1441.204041827002
 20
862.3334536165811
 30
0.0
 11
-1441.204041827002
 21
762.3334536165811
 31
0.0
  0
LWPOLYLINE
  5
472
330
1F
100
AcDbEntity
  8
0-B_寸法
  6
Continuous
 62
     7
370
     9
100
AcDbPolyline
 90
        4
 70
     1
 43
4.0
 10
-1439.204041827002
 20
862.3334536165811
 42
0.4142135623731
 10
-1441.204041827002
 20
864.3334536165811
 42
0.4142135623731
 10
-1443.204041827002
 20
862.3334536165811
 42
0.4142135623731
 10
-1441.204041827002
 20
860.3334536165811
 42
0.4142135623731
  0
LINE
  5
473
330
1F
100
AcDbEntity
  8
0-B_寸法
  6
Continuous
 62
   120
370
     5
100
AcDbLine
 10
-1835.204041827003
 20
862.3334536165811
 30
0.0
 11
-1441.204041827002
 21
862.3334536165811
 31
0.0
  0
TEXT
  5
474
330
1F
100
AcDbEntity
  8
0-B_寸法
  6
Continuous
 62
     7
370
   211
100
AcDbText
 10
-1852.204041827002
 20
880.7934536165811
 30
0.0
 40
45.72
  1
4
  7
ＭＳ ゴシック
100
AcDbText
  0
LINE
  5
475
330
1F
100
AcDbEntity
  8
0-B_寸法
  6
Continuous
 62
   120
370
     5
100
AcDbLine
 10
-1835.204041827003
 20
862.3334536165811
 30
0.0
 11
-1835.204041827003
 21
762.3334536165811
 31
0.0
  0
LWPOLYLINE
  5
476
330
1F
100
AcDbEntity
  8
0-B_寸法
  6
Continuous
 62
     7
370
     9
100
AcDbPolyline
 90
        4
 70
     1
 43
4.0
 10
-1833.204041827003
 20
862.3334536165811
 42
0.4142135623731
 10
-1835.204041827003
 20
864.3334536165811
 42
0.4142135623731
 10
-1837.204041827003
 20
862.3334536165811
 42
0.4142135623731
 10
-1835.204041827003
 20
860.3334536165811
 42
0.4142135623731
  0
LINE
  5
477
330
1F
100
AcDbEntity
  8
0-B_寸法
  6
Continuous
 62
   120
370
     5
100
AcDbLine
 10
-1839.204041827002
 20
862.3334536165811
 30
0.0
 11
-1835.204041827003
 21
862.3334536165811
 31
0.0
  0
LINE
  5
478
330
1F
100
AcDbEntity
  8
0-B_寸法
  6
Continuous
 62
   120
370
     5
100
AcDbLine
 10
-1839.204041827002
 20
862.3334536165811
 30
0.0
 11
-1839.204041827002
 21
762.3334536165811
 31
0.0
  0
LWPOLYLINE
  5
479
330
1F
100
AcDbEntity
  8
0-B_寸法
  6
Continuous
 62
     7
370
     9
100
AcDbPolyline
 90
        4
 70
     1
 43
4.0
 10
-1837.204041827002
 20
862.3334536165811
 42
0.4142135623731
 10
-1839.204041827002
 20
864.3334536165811
 42
0.4142135623731
 10
-1841.204041827002
 20
862.3334536165811
 42
0.4142135623731
 10
-1839.204041827002
 20
860.3334536165811
 42
0.4142135623731
  0
LINE
  5
47A
330
1F
100
AcDbEntity
  8
0-B_寸法
  6
Continuous
 62
   120
370
     5
100
AcDbLine
 10
-2233.204041827003
 20
862.3334536165811
 30
0.0
 11
-1839.204041827002
 21
862.3334536165811
 31
0.0
  0
LINE
  5
47B
330
1F
100
AcDbEntity
  8
0-B_寸法
  6
Continuous
 62
   120
370
     5
100
AcDbLine
 10
-2233.204041827003
 20
862.3334536165811
 30
0.0
 11
-2233.204041827003
 21
762.3334536165811
 31
0.0
  0
LWPOLYLINE
  5
47C
330
1F
100
AcDbEntity
  8
0-B_寸法
  6
Continuous
 62
     7
370
     9
100
AcDbPolyline
 90
        4
 70
     1
 43
4.0
 10
-2231.204041827003
 20
862.3334536165811
 42
0.4142135623731
 10
-2233.204041827003
 20
864.3334536165811
 42
0.4142135623731
 10
-2235.204041827003
 20
862.3334536165811
 42
0.4142135623731
 10
-2233.204041827003
 20
860.3334536165811
 42
0.4142135623731
  0
LINE
  5
47D
330
1F
100
AcDbEntity
  8
0-B_寸法
  6
Continuous
 62
   120
370
     5
100
AcDbLine
 10
-2235.204041827004
 20
862.3334536165811
 30
0.0
 11
-2233.204041827003
 21
862.3334536165811
 31
0.0
  0
LINE
  5
47E
330
1F
100
AcDbEntity
  8
0-1_本体
  6
Continuous
 62
     7
370
     9
100
AcDbLine
 10
-2235.204041827004
 20
712.3334536165811
 30
0.0
 11
-1439.204041827002
 21
712.3334536165811
 31
0.0
  0
LINE
  5
47F
330
1F
100
AcDbEntity
  8
0-0_補助線
  6
JWW_HOJO
 62
     7
370
     9
100
AcDbLine
 10
-1439.204041827004
 20
-1851.16654638342
 30
0.0
 11
-1439.204041827004
 21
862.3334536165811
 31
0.0
  0
LINE
  5
480
330
1F
100
AcDbEntity
  8
0-2_扉
  6
Continuous
 62
    92
370
    13
100
AcDbLine
 10
-1441.204041827002
 20
709.3334536165816
 30
0.0
 11
-1441.204041827002
 21
-1453.66654638342
 31
0.0
  0
LINE
  5
481
330
1F
100
AcDbEntity
  8
0-2_扉
  6
Continuous
 62
    92
370
    13
100
AcDbLine
 10
-1835.204041827003
 20
709.3334536165816
 30
0.0
 11
-1835.204041827003
 21
-1453.66654638342
 31
0.0
  0
LINE
  5
482
330
1F
100
AcDbEntity
  8
0-2_扉
  6
Continuous
 62
    92
370
    13
100
AcDbLine
 10
-1839.204041827002
 20
709.3334536165816
 30
0.0
 11
-1839.204041827002
 21
-1453.66654638342
 31
0.0
  0
LINE
  5
483
330
1F
100
AcDbEntity
  8
0-2_扉
  6
Continuous
 62
    92
370
    13
100
AcDbLine
 10
-2233.204041827003
 20
709.3334536165816
 30
0.0
 11
-2233.204041827003
 21
-1453.66654638342
 31
0.0
  0
LINE
  5
484
330
1F
100
AcDbEntity
  8
0-2_扉
  6
Continuous
 62
    92
370
    13
100
AcDbLine
 10
-1835.204041827003
 20
-1453.66654638342
 30
0.0
 11
-1441.204041827002
 21
-1453.66654638342
 31
0.0
  0
LINE
  5
485
330
1F
100
AcDbEntity
  8
0-2_扉
  6
Continuous
 62
    92
370
    13
100
AcDbLine
 10
-2233.204041827003
 20
-1453.66654638342
 30
0.0
 11
-1839.204041827002
 21
-1453.66654638342
 31
0.0
  0
LINE
  5
486
330
1F
100
AcDbEntity
  8
0-2_扉
  6
Continuous
 62
    92
370
    13
100
AcDbLine
 10
-1835.204041827003
 20
709.3334536165816
 30
0.0
 11
-1441.204041827002
 21
709.3334536165816
 31
0.0
  0
LINE
  5
487
330
1F
100
AcDbEntity
  8
0-2_扉
  6
Continuous
 62
    92
370
    13
100
AcDbLine
 10
-2233.204041827003
 20
709.3334536165816
 30
0.0
 11
-1839.204041827002
 21
709.3334536165816
 31
0.0
  0
TEXT
  5
488
330
1F
100
AcDbEntity
  8
0-B_寸法
  6
Continuous
 62
     7
370
   211
100
AcDbText
 10
-2230.204041827004
 20
880.7934536165811
 30
0.0
 40
45.72
  1
2
  7
ＭＳ ゴシック
100
AcDbText
  0
TEXT
  5
489
330
1F
100
AcDbEntity
  8
0-B_寸法
  6
Continuous
 62
     7
370
   211
100
AcDbText
 10
-2270.204041827004
 20
880.7934536165811
 30
0.0
 40
45.72
  1
2
  7
ＭＳ ゴシック
100
AcDbText
  0
LINE
  5
48A
330
1F
100
AcDbEntity
  8
0-A_文字
  6
Continuous
 62
     7
370
     9
100
AcDbLine
 10
-2659.208565026961
 20
-2151.166546383427
 30
0.0
 11
-2659.208565026961
 21
-2001.166546383427
 31
0.0
  0
LINE
  5
48B
330
1F
100
AcDbEntity
  8
0-A_文字
  6
Continuous
 62
     7
370
     9
100
AcDbLine
 10
-1809.208565026956
 20
-2151.166546383427
 30
0.0
 11
-2659.208565026961
 21
-2151.166546383427
 31
0.0
  0
LINE
  5
48C
330
1F
100
AcDbEntity
  8
0-A_文字
  6
Continuous
 62
     7
370
     9
100
AcDbLine
 10
-1809.208565026956
 20
-2001.166546383427
 30
0.0
 11
-1809.208565026956
 21
-2151.166546383427
 31
0.0
  0
LINE
  5
48D
330
1F
100
AcDbEntity
  8
0-A_文字
  6
Continuous
 62
     7
370
     9
100
AcDbLine
 10
-2659.208565026961
 20
-2001.166546383427
 30
0.0
 11
-1809.208565026956
 21
-2001.166546383427
 31
0.0
  0
LINE
  5
48E
330
1F
100
AcDbEntity
  8
0-3_扉仕上
  6
Continuous
 62
     7
370
     9
100
AcDbLine
 10
-3031.204041827003
 20
-1606.666566504382
 30
0.0
 11
-1119.204041827002
 21
-1606.666566504382
 31
0.0
  0
TEXT
  5
48F
330
1F
100
AcDbEntity
  8
0-A_文字
  6
Continuous
 62
     7
370
     9
100
AcDbText
 10
-1419.204041827002
 20
-1598.206566504382
 30
0.0
 40
45.72
  1
▽床(土間)
  7
ＭＳ ゴシック
100
AcDbText
  0
LINE
  5
490
330
1F
100
AcDbEntity
  8
0-B_寸法
  6
Continuous
 62
   120
370
     5
100
AcDbLine
 10
-2235.204041827003
 20
-1851.166546383428
 30
0.0
 11
-3031.204041827004
 21
-1851.166546383428
 31
0.0
  0
LWPOLYLINE
  5
491
330
1F
100
AcDbEntity
  8
0-B_寸法
  6
Continuous
 62
     7
370
     9
100
AcDbPolyline
 90
        4
 70
     1
 43
4.0
 10
-2233.204041827003
 20
-1851.166546383428
 42
0.4142135623731
 10
-2235.204041827003
 20
-1849.166546383428
 42
0.4142135623731
 10
-2237.204041827003
 20
-1851.166546383428
 42
0.4142135623731
 10
-2235.204041827003
 20
-1853.166546383427
 42
0.4142135623731
  0
LWPOLYLINE
  5
492
330
1F
100
AcDbEntity
  8
0-B_寸法
  6
Continuous
 62
     7
370
     9
100
AcDbPolyline
 90
        4
 70
     1
 43
4.0
 10
-3029.204041827004
 20
-1851.166546383428
 42
0.4142135623731
 10
-3031.204041827004
 20
-1849.166546383428
 42
0.4142135623731
 10
-3033.204041827004
 20
-1851.166546383428
 42
0.4142135623731
 10
-3031.204041827004
 20
-1853.166546383427
 42
0.4142135623731
  0
LINE
  5
493
330
1F
100
AcDbEntity
  8
0-B_寸法
  6
Continuous
 62
   120
370
     5
100
AcDbLine
 10
-2235.204041827003
 20
-1851.166546383428
 30
0.0
 11
-2235.204041780465
 21
-1751.166546383425
 31
0.0
  0
LINE
  5
494
330
1F
100
AcDbEntity
  8
0-B_寸法
  6
Continuous
 62
   120
370
     5
100
AcDbLine
 10
-3031.204041827004
 20
-1851.166546383428
 30
0.0
 11
-3031.204041827004
 21
-1751.166546383428
 31
0.0
  0
TEXT
  5
495
330
1F
100
AcDbEntity
  8
0-B_寸法
  6
Continuous
 62
     7
370
   211
100
AcDbText
 10
-2678.204041827005
 20
-1832.706546383428
 30
0.0
 40
45.72
  1
796
  7
ＭＳ ゴシック
100
AcDbText
  0
LINE
  5
496
330
1F
100
AcDbEntity
  8
0-B_寸法
  6
Continuous
 62
   120
370
     5
100
AcDbLine
 10
-1439.204041780465
 20
-1851.166546383425
 30
0.0
 11
-2235.204041780465
 21
-1851.166546383425
 31
0.0
  0
LWPOLYLINE
  5
497
330
1F
100
AcDbEntity
  8
0-B_寸法
  6
Continuous
 62
     7
370
     9
100
AcDbPolyline
 90
        4
 70
     1
 43
4.0
 10
-1437.204041780465
 20
-1851.166546383425
 42
0.4142135623731
 10
-1439.204041780465
 20
-1849.166546383426
 42
0.4142135623731
 10
-1441.204041780465
 20
-1851.166546383425
 42
0.4142135623731
 10
-1439.204041780465
 20
-1853.166546383425
 42
0.4142135623731
  0
LINE
  5
498
330
1F
100
AcDbEntity
  8
0-B_寸法
  6
Continuous
 62
   120
370
     5
100
AcDbLine
 10
-1439.204041780465
 20
-1851.166546383425
 30
0.0
 11
-1439.204041780465
 21
-1751.166546383425
 31
0.0
  0
TEXT
  5
499
330
1F
100
AcDbEntity
  8
0-B_寸法
  6
Continuous
 62
     7
370
   211
100
AcDbText
 10
-1882.204041780465
 20
-1832.706546383425
 30
0.0
 40
45.72
  1
796
  7
ＭＳ ゴシック
100
AcDbText
  0
LINE
  5
49A
330
1F
100
AcDbEntity
  8
0-9__
  6
JWW_DASHED1
 62
     7
370
     9
100
AcDbLine
 10
-2999.204041827002
 20
-1456.666546383428
 30
0.0
 11
-2235.204041827003
 21
-1456.666546383428
 31
0.0
  0
LINE
  5
49B
330
1F
100
AcDbEntity
  8
0-9__
  6
JWW_DASHED1
 62
     7
370
     9
100
AcDbLine
 10
-2999.204041827002
 20
-1520.666546383428
 30
0.0
 11
-2999.204041827002
 21
-1456.666546383428
 31
0.0
  0
LINE
  5
49C
330
1F
100
AcDbEntity
  8
0-9__
  6
JWW_DASHED1
 62
     7
370
     9
100
AcDbLine
 10
-2235.204041827003
 20
-1456.666546383428
 30
0.0
 11
-2235.204041827003
 21
-1520.666546383428
 31
0.0
  0
LINE
  5
49D
330
1F
100
AcDbEntity
  8
0-9__
  6
JWW_DASHED1
 62
     7
370
     9
100
AcDbLine
 10
-2235.204041827003
 20
-1520.666546383428
 30
0.0
 11
-2999.204041827002
 21
-1520.666546383428
 31
0.0
  0
LINE
  5
49E
330
1F
100
AcDbEntity
  8
0-9__
  6
JWW_DASHED1
 62
     7
370
     9
100
AcDbLine
 10
-1471.204041827004
 20
-1456.666546383428
 30
0.0
 11
-2235.204041827003
 21
-1456.666546383428
 31
0.0
  0
LINE
  5
49F
330
1F
100
AcDbEntity
  8
0-9__
  6
JWW_DASHED1
 62
     7
370
     9
100
AcDbLine
 10
-1471.204041827004
 20
-1520.666546383428
 30
0.0
 11
-1471.204041827004
 21
-1456.666546383428
 31
0.0
  0
LINE
  5
4A0
330
1F
100
AcDbEntity
  8
0-9__
  6
JWW_DASHED1
 62
     7
370
     9
100
AcDbLine
 10
-2235.204041827003
 20
-1520.666546383428
 30
0.0
 11
-1471.204041827004
 21
-1520.666546383428
 31
0.0
  0
LINE
  5
4A1
330
1F
100
AcDbEntity
  8
0-B_寸法
  6
Continuous
 62
   120
370
     5
100
AcDbLine
 10
-3031.204041827003
 20
-1751.166546383427
 30
0.0
 11
-2999.204041827002
 21
-1751.166546383427
 31
0.0
  0
LWPOLYLINE
  5
4A2
330
1F
100
AcDbEntity
  8
0-B_寸法
  6
Continuous
 62
     7
370
     9
100
AcDbPolyline
 90
        4
 70
     1
 43
4.0
 10
-3029.204041827003
 20
-1751.166546383427
 42
0.4142135623731
 10
-3031.204041827003
 20
-1749.166546383427
 42
0.4142135623731
 10
-3033.204041827003
 20
-1751.166546383427
 42
0.4142135623731
 10
-3031.204041827003
 20
-1753.166546383427
 42
0.4142135623731
  0
LWPOLYLINE
  5
4A3
330
1F
100
AcDbEntity
  8
0-B_寸法
  6
Continuous
 62
     7
370
     9
100
AcDbPolyline
 90
        4
 70
     1
 43
4.0
 10
-2997.204041827002
 20
-1751.166546383427
 42
0.4142135623731
 10
-2999.204041827002
 20
-1749.166546383427
 42
0.4142135623731
 10
-3001.204041827002
 20
-1751.166546383427
 42
0.4142135623731
 10
-2999.204041827002
 20
-1753.166546383427
 42
0.4142135623731
  0
LINE
  5
4A4
330
1F
100
AcDbEntity
  8
0-B_寸法
  6
Continuous
 62
   120
370
     5
100
AcDbLine
 10
-3031.204041827003
 20
-1751.166546383427
 30
0.0
 11
-3031.204041827003
 21
-1651.166546383427
 31
0.0
  0
LINE
  5
4A5
330
1F
100
AcDbEntity
  8
0-B_寸法
  6
Continuous
 62
   120
370
     5
100
AcDbLine
 10
-2999.204041827002
 20
-1751.166546383427
 30
0.0
 11
-2999.204041827002
 21
-1651.166546383427
 31
0.0
  0
LINE
  5
4A6
330
1F
100
AcDbEntity
  8
0-B_寸法
  6
Continuous
 62
   120
370
     5
100
AcDbLine
 10
-2999.204041827002
 20
-1751.166546383427
 30
0.0
 11
-2235.204041827003
 21
-1751.166546383427
 31
0.0
  0
LWPOLYLINE
  5
4A7
330
1F
100
AcDbEntity
  8
0-B_寸法
  6
Continuous
 62
     7
370
     9
100
AcDbPolyline
 90
        4
 70
     1
 43
4.0
 10
-2233.204041827003
 20
-1751.166546383427
 42
0.4142135623731
 10
-2235.204041827003
 20
-1749.166546383427
 42
0.4142135623731
 10
-2237.204041827003
 20
-1751.166546383427
 42
0.4142135623731
 10
-2235.204041827003
 20
-1753.166546383427
 42
0.4142135623731
  0
LINE
  5
4A8
330
1F
100
AcDbEntity
  8
0-B_寸法
  6
Continuous
 62
   120
370
     5
100
AcDbLine
 10
-2235.204041827003
 20
-1751.166546383427
 30
0.0
 11
-2235.204041827003
 21
-1651.166546383427
 31
0.0
  0
LINE
  5
4A9
330
1F
100
AcDbEntity
  8
0-B_寸法
  6
Continuous
 62
   120
370
     5
100
AcDbLine
 10
-2235.204041827003
 20
-1751.166546383427
 30
0.0
 11
-1471.204041827004
 21
-1751.166546383427
 31
0.0
  0
LWPOLYLINE
  5
4AA
330
1F
100
AcDbEntity
  8
0-B_寸法
  6
Continuous
 62
     7
370
     9
100
AcDbPolyline
 90
        4
 70
     1
 43
4.0
 10
-1469.204041827004
 20
-1751.166546383427
 42
0.4142135623731
 10
-1471.204041827004
 20
-1749.166546383427
 42
0.4142135623731
 10
-1473.204041827004
 20
-1751.166546383427
 42
0.4142135623731
 10
-1471.204041827004
 20
-1753.166546383427
 42
0.4142135623731
  0
LINE
  5
4AB
330
1F
100
AcDbEntity
  8
0-B_寸法
  6
Continuous
 62
   120
370
     5
100
AcDbLine
 10
-1471.204041827004
 20
-1751.166546383427
 30
0.0
 11
-1471.204041827004
 21
-1651.166546383427
 31
0.0
  0
LINE
  5
4AC
330
1F
100
AcDbEntity
  8
0-B_寸法
  6
Continuous
 62
   120
370
     5
100
AcDbLine
 10
-1471.204041827004
 20
-1751.166546383427
 30
0.0
 11
-1439.204041780465
 21
-1751.166546383427
 31
0.0
  0
LWPOLYLINE
  5
4AD
330
1F
100
AcDbEntity
  8
0-B_寸法
  6
Continuous
 62
     7
370
     9
100
AcDbPolyline
 90
        4
 70
     1
 43
4.0
 10
-1437.204041780465
 20
-1751.166546383427
 42
0.4142135623731
 10
-1439.204041780465
 20
-1749.166546383427
 42
0.4142135623731
 10
-1441.204041780465
 20
-1751.166546383427
 42
0.4142135623731
 10
-1439.204041780465
 20
-1753.166546383427
 42
0.4142135623731
  0
LINE
  5
4AE
330
1F
100
AcDbEntity
  8
0-B_寸法
  6
Continuous
 62
   120
370
     5
100
AcDbLine
 10
-1439.204041780465
 20
-1751.166546383427
 30
0.0
 11
-1439.204041780465
 21
-1651.166546383427
 31
0.0
  0
TEXT
  5
4AF
330
1F
100
AcDbEntity
  8
0-B_寸法
  6
Continuous
 62
     7
370
   211
100
AcDbText
 10
-3099.377447751076
 20
-1732.706546383426
 30
0.0
 40
45.72
  1
32
  7
ＭＳ ゴシック
100
AcDbText
  0
TEXT
  5
4B0
330
1F
100
AcDbEntity
  8
0-B_寸法
  6
Continuous
 62
     7
370
   211
100
AcDbText
 10
-1429.758389345065
 20
-1732.706546383426
 30
0.0
 40
45.72
  1
32
  7
ＭＳ ゴシック
100
AcDbText
  0
TEXT
  5
4B1
330
1F
100
AcDbEntity
  8
0-B_寸法
  6
Continuous
 62
     7
370
   211
100
AcDbText
 10
-2782.204041827003
 20
-1732.706546383426
 30
0.0
 40
45.72
  1
支持桟＝764
  7
ＭＳ ゴシック
100
AcDbText
  0
TEXT
  5
4B2
330
1F
100
AcDbEntity
  8
0-B_寸法
  6
Continuous
 62
     7
370
   211
100
AcDbText
 10
-2018.204041827004
 20
-1732.706546383426
 30
0.0
 40
45.72
  1
支持桟＝764
  7
ＭＳ ゴシック
100
AcDbText
  0
LINE
  5
4B3
330
1F
100
AcDbEntity
  8
0-3_扉仕上
  6
JWW_CENTER1
 62
     7
370
     9
100
AcDbLine
 10
-2631.204041827002
 20
709.3334536165816
 30
0.0
 11
-2237.204041827002
 21
-372.1665463834188
 31
0.0
  0
LINE
  5
4B4
330
1F
100
AcDbEntity
  8
0-3_扉仕上
  6
JWW_CENTER1
 62
     7
370
     9
100
AcDbLine
 10
-2237.204041827002
 20
-372.1665463834188
 30
0.0
 11
-2631.204041827002
 21
-1453.666546383419
 31
0.0
  0
LINE
  5
4B5
330
1F
100
AcDbEntity
  8
0-3_扉仕上
  6
JWW_CENTER1
 62
     7
370
     9
100
AcDbLine
 10
-2635.204041827001
 20
709.3334536165816
 30
0.0
 11
-3029.204041827002
 21
-372.1665463834188
 31
0.0
  0
LINE
  5
4B6
330
1F
100
AcDbEntity
  8
0-3_扉仕上
  6
JWW_CENTER1
 62
     7
370
     9
100
AcDbLine
 10
-3029.204041827002
 20
-372.1665463834188
 30
0.0
 11
-2635.204041827001
 21
-1453.666546383419
 31
0.0
  0
LINE
  5
4B7
330
1F
100
AcDbEntity
  8
0-3_扉仕上
  6
JWW_CENTER1
 62
     7
370
     9
100
AcDbLine
 10
-1835.204041827003
 20
709.3334536165816
 30
0.0
 11
-1441.204041827002
 21
-372.1665463834188
 31
0.0
  0
LINE
  5
4B8
330
1F
100
AcDbEntity
  8
0-3_扉仕上
  6
JWW_CENTER1
 62
     7
370
     9
100
AcDbLine
 10
-1441.204041827002
 20
-372.1665463834188
 30
0.0
 11
-1835.204041827003
 21
-1453.666546383419
 31
0.0
  0
LINE
  5
4B9
330
1F
100
AcDbEntity
  8
0-3_扉仕上
  6
JWW_CENTER1
 62
     7
370
     9
100
AcDbLine
 10
-1839.204041827002
 20
709.3334536165816
 30
0.0
 11
-2233.204041827003
 21
-372.1665463834188
 31
0.0
  0
LINE
  5
4BA
330
1F
100
AcDbEntity
  8
0-3_扉仕上
  6
JWW_CENTER1
 62
     7
370
     9
100
AcDbLine
 10
-2233.204041827003
 20
-372.1665463834188
 30
0.0
 11
-1839.204041827002
 21
-1453.666546383419
 31
0.0
  0
LINE
  5
4BB
330
1F
100
AcDbEntity
  8
0-0_補助線
  6
JWW_HOJO
 62
     7
370
     9
100
AcDbLine
 10
2769.795958172981
 20
-1456.666546383419
 30
0.0
 11
-3281.204041827003
 21
-1456.666546383419
 31
0.0
  0
LINE
  5
4BC
330
1F
100
AcDbEntity
  8
0-0_補助線
  6
JWW_HOJO
 62
   120
370
     5
100
AcDbLine
 10
2769.795958172981
 20
762.3334536165811
 30
0.0
 11
-3281.204041827003
 21
762.3334536165811
 31
0.0
  0
LINE
  5
4BD
330
1F
100
AcDbEntity
  8
0-0_補助線
  6
JWW_HOJO
 62
   120
370
     5
100
AcDbLine
 10
2769.795958172981
 20
862.3334536165811
 30
0.0
 11
-3281.204041827003
 21
862.3334536165811
 31
0.0
  0
LINE
  5
4BE
330
1F
100
AcDbEntity
  8
0-B_寸法
  6
JWW_DASHED2
 62
   120
370
     5
100
AcDbLine
 10
2519.795958172995
 20
-1561.666546383426
 30
0.0
 11
-3031.204041827003
 21
-1561.666546383426
 31
0.0
  0
LINE
  5
4BF
330
1F
100
AcDbEntity
  8
0-B_寸法
  6
JWW_DASHED2
 62
   120
370
     5
100
AcDbLine
 10
2519.795958172995
 20
607.3334536165748
 30
0.0
 11
-3031.204041827003
 21
607.3334536165748
 31
0.0
  0
LINE
  5
4C0
330
1F
100
AcDbEntity
  8
0-B_寸法
  6
JWW_DASHED2
 62
   120
370
     5
100
AcDbLine
 10
2519.795958172995
 20
712.3334536165748
 30
0.0
 11
-3031.204041827003
 21
712.3334536165748
 31
0.0
  0
LINE
  5
4C1
330
1F
100
AcDbEntity
  8
0-B_寸法
  6
JWW_DASHED2
 62
   120
370
     5
100
AcDbLine
 10
2519.795958172995
 20
-1456.666546383426
 30
0.0
 11
-3031.204041827003
 21
-1456.666546383426
 31
0.0
  0
LINE
  5
4C2
330
1F
100
AcDbEntity
  8
0-B_寸法
  6
JWW_DASHED2
 62
   120
370
     5
100
AcDbLine
 10
2519.795958172995
 20
-1351.666546383426
 30
0.0
 11
-3031.204041827003
 21
-1351.666546383426
 31
0.0
  0
LINE
  5
4C3
330
1F
100
AcDbEntity
  8
0-A_文字
  6
JWW_CENTER1
 62
     7
370
     9
100
AcDbLine
 10
-3031.204041827001
 20
712.3334536165748
 30
0.0
 11
2519.79595817299
 21
712.3334536165748
 31
0.0
  0
LINE
  5
4C4
330
1F
100
AcDbEntity
  8
0-0_補助線
  6
JWW_HOJO
 62
   120
370
     5
100
AcDbLine
 10
2769.79595817299
 20
-1651.166546383427
 30
0.0
 11
-3281.204041827001
 21
-1651.166546383427
 31
0.0
  0
LINE
  5
4C5
330
1F
100
AcDbEntity
  8
0-0_補助線
  6
JWW_HOJO
 62
   120
370
     5
100
AcDbLine
 10
2769.79595817299
 20
-1751.166546383427
 30
0.0
 11
-3281.204041827001
 21
-1751.166546383427
 31
0.0
  0
LINE
  5
4C6
330
1F
100
AcDbEntity
  8
0-0_補助線
  6
JWW_HOJO
 62
   120
370
     5
100
AcDbLine
 10
2769.79595817299
 20
-1851.166546383427
 30
0.0
 11
-3281.204041827001
 21
-1851.166546383427
 31
0.0
  0
LINE
  5
4C7
330
1F
100
AcDbEntity
  8
0-A_文字
  6
JWW_CENTER1
 62
     7
370
     9
100
AcDbLine
 10
-3031.204041827003
 20
-1606.666546383426
 30
0.0
 11
2519.79595817299
 21
-1606.666546383426
 31
0.0
  0
TEXT
  5
4C8
330
1F
100
AcDbEntity
  8
0-A_文字
  6
Continuous
 62
     7
370
     9
100
AcDbText
 10
-2504.208565026957
 20
-2119.246546383426
 30
0.0
 40
91.44
  1
扉配置図
 41
1.125
  7
ＭＳ ゴシック
100
AcDbText
  0
TEXT
  5
4C9
330
1F
100
AcDbEntity
  8
F-A_文字
  6
Continuous
 62
     7
370
     9
100
AcDbText
 10
2187.44509587464
 20
-2751.542078978275
 30
0.0
 40
45.72
  1
QBW-T601-N_S01
 41
1.154761904761904
  7
ＭＳ ゴシック
100
AcDbText
  0
TEXT
  5
4CA
330
1F
100
AcDbEntity
  8
F-A_文字
  6
Continuous
 62
     7
370
     0
100
AcDbText
 10
3257.445195395262
 20
-2613.209673426644
 30
0.0
 40
45.72
  1
2019.01.30
 41
1.15
  7
ＭＳ ゴシック
100
AcDbText
  0
ENDSEC
  0
SECTION
  2
OBJECTS
  0
DICTIONARY
  5
C
330
0
100
AcDbDictionary
281
     1
  3
ACAD_DETAILVIEWSTYLE
350
502
  3
ACAD_GROUP
350
D
  3
ACAD_LAYOUT
350
1A
  3
ACAD_MATERIAL
350
43
  3
ACAD_MLEADERSTYLE
350
6B
  3
ACAD_MLINESTYLE
350
17
  3
ACAD_PLOTSETTINGS
350
19
  3
ACAD_PLOTSTYLENAME
350
E
  3
ACAD_SCALELIST
350
47
  3
ACAD_SECTIONVIEWSTYLE
350
503
  3
ACAD_TABLESTYLE
350
69
  3
ACAD_VISUALSTYLE
350
2A
  3
ACDB_RECOMPOSE_DATA
350
4FF
  3
AcDbVariableDictionary
350
4CB
  0
SUN
  5
6D
330
29
100
AcDbSun
 90
        1
290
     0
 63
     7
421
 16777215
 40
1.0
291
     1
 91
  2455826
 92
 54000000
292
     0
 70
     2
 71
   256
280
     1
  0
DICTIONARY
  5
502
102
{ACAD_REACTORS
330
C
102
}
330
C
100
AcDbDictionary
281
     1
  0
DICTIONARY
  5
D
102
{ACAD_REACTORS
330
C
102
}
330
C
100
AcDbDictionary
281
     1
  0
DICTIONARY
  5
1A
102
{ACAD_REACTORS
330
C
102
}
330
C
100
AcDbDictionary
281
     1
  3
Layout1
350
1E
  3
Layout2
350
26
  3
Model
350
22
  0
DICTIONARY
  5
43
102
{ACAD_REACTORS
330
C
102
}
330
C
100
AcDbDictionary
281
     1
  3
ByBlock
350
45
  3
ByLayer
350
44
  3
Global
350
46
  0
DICTIONARY
  5
6B
102
{ACAD_REACTORS
330
C
102
}
330
C
100
AcDbDictionary
281
     1
  3
Standard
350
6C
  0
DICTIONARY
  5
17
102
{ACAD_REACTORS
330
C
102
}
330
C
100
AcDbDictionary
281
     1
  3
Standard
350
18
  0
DICTIONARY
  5
19
102
{ACAD_REACTORS
330
C
102
}
330
C
100
AcDbDictionary
281
     1
  0
ACDBDICTIONARYWDFLT
  5
E
102
{ACAD_REACTORS
330
C
102
}
330
C
100
AcDbDictionary
281
     1
  3
Normal
350
F
100
AcDbDictionaryWithDefault
340
F
  0
DICTIONARY
  5
47
102
{ACAD_REACTORS
330
C
102
}
330
C
100
AcDbDictionary
281
     1
  3
A0
350
48
  3
A1
350
49
  3
A2
350
4A
  3
A3
350
4B
  3
A4
350
4C
  3
A5
350
4D
  3
A6
350
4E
  3
A7
350
4F
  3
A8
350
50
  3
A9
350
51
  3
B0
350
52
  3
B1
350
53
  3
B2
350
54
  3
B3
350
55
  3
B4
350
56
  3
B5
350
57
  3
B6
350
58
  3
B7
350
59
  3
B8
350
5A
  3
B9
350
5B
  3
C0
350
5C
  3
C1
350
5D
  3
C2
350
5E
  3
C3
350
5F
  3
C4
350
60
  3
C5
350
61
  3
C6
350
62
  3
C7
350
63
  3
C8
350
64
  3
C9
350
65
  3
D0
350
66
  3
D1
350
67
  3
D2
350
68
  0
DICTIONARY
  5
503
102
{ACAD_REACTORS
330
C
102
}
330
C
100
AcDbDictionary
281
     1
  0
DICTIONARY
  5
69
102
{ACAD_REACTORS
330
C
102
}
330
C
100
AcDbDictionary
281
     1
  3
Standard
350
6A
  0
DICTIONARY
  5
2A
102
{ACAD_REACTORS
330
C
102
}
330
C
100
AcDbDictionary
281
     1
  3
2dWireframe
350
2F
  3
Basic
350
32
  3
Brighten
350
36
  3
ColorChange
350
3A
  3
Conceptual
350
34
  3
Dim
350
35
  3
EdgeColorOff
350
3D
  3
Facepattern
350
39
  3
Flat
350
2B
  3
FlatWithEdges
350
2C
  3
Gouraud
350
2D
  3
GouraudWithEdges
350
2E
  3
Hidden
350
31
  3
JitterOff
350
3B
  3
Linepattern
350
38
  3
OverhangOff
350
3C
  3
Realistic
350
33
  3
Shaded
350
42
  3
Shaded with edges
350
41
  3
Shades of Gray
350
3E
  3
Sketchy
350
3F
  3
Thicken
350
37
  3
Wireframe
350
30
  3
X-Ray
350
40
  0
XRECORD
  5
4FF
102
{ACAD_REACTORS
330
C
102
}
330
C
100
AcDbXrecord
280
     1
 90
        1
330
6A
  0
DICTIONARY
  5
4CB
102
{ACAD_REACTORS
330
C
102
}
330
C
100
AcDbDictionary
281
     1
  3
CANNOSCALE
350
4CC
  3
CENTEREXE
350
504
  3
CENTERLTYPEFILE
350
505
  3
CMLEADERSTYLE
350
501
  3
CTABLESTYLE
350
500
  0
LAYOUT
  5
1E
102
{ACAD_REACTORS
330
1A
102
}
330
1A
100
AcDbPlotSettings
  1

  2
none_device
  4

  6

 40
0.0
 41
0.0
 42
0.0
 43
0.0
 44
0.0
 45
0.0
 46
0.0
 47
0.0
 48
0.0
 49
0.0
140
0.0
141
0.0
142
1.0
143
1.0
 70
   688
 72
     1
 73
     0
 74
     5
  7

 75
    16
 76
     0
 77
     5
 78
   300
147
1.0
148
0.0
149
0.0
100
AcDbLayout
  1
Layout1
 70
     1
 71
     1
 10
0.0
 20
0.0
 11
420.0
 21
297.0
 12
0.0
 22
0.0
 32
0.0
 14
1.000000000000000E+20
 24
1.000000000000000E+20
 34
1.000000000000000E+20
 15
-1.000000000000000E+20
 25
-1.000000000000000E+20
 35
-1.000000000000000E+20
146
0.0
 13
0.0
 23
0.0
 33
0.0
 16
1.0
 26
0.0
 36
0.0
 17
0.0
 27
1.0
 37
0.0
 76
     0
330
1B
  0
LAYOUT
  5
26
102
{ACAD_REACTORS
330
1A
102
}
330
1A
100
AcDbPlotSettings
  1

  2
none_device
  4

  6

 40
0.0
 41
0.0
 42
0.0
 43
0.0
 44
0.0
 45
0.0
 46
0.0
 47
0.0
 48
0.0
 49
0.0
140
0.0
141
0.0
142
1.0
143
1.0
 70
   688
 72
     1
 73
     0
 74
     5
  7

 75
    16
 76
     0
 77
     5
 78
   300
147
1.0
148
0.0
149
0.0
100
AcDbLayout
  1
Layout2
 70
     1
 71
     2
 10
0.0
 20
0.0
 11
0.0
 21
0.0
 12
0.0
 22
0.0
 32
0.0
 14
0.0
 24
0.0
 34
0.0
 15
0.0
 25
0.0
 35
0.0
146
0.0
 13
0.0
 23
0.0
 33
0.0
 16
1.0
 26
0.0
 36
0.0
 17
0.0
 27
1.0
 37
0.0
 76
     0
330
23
  0
LAYOUT
  5
22
102
{ACAD_REACTORS
330
1A
102
}
330
1A
100
AcDbPlotSettings
  1

  2
none_device
  4
Letter_(8.50_x_11.00_Inches)
  6

 40
6.35
 41
6.35
 42
6.35000508
 43
6.35000508
 44
215.9
 45
279.4
 46
0.0
 47
0.0
 48
0.0
 49
0.0
140
0.0
141
0.0
142
1.0
143
1.0
 70
  1712
 72
     1
 73
     0
 74
     0
  7

 75
     0
 76
     0
 77
     5
 78
   300
147
1.0
148
0.0
149
0.0
100
AcDbLayout
  1
Model
 70
     1
 71
     0
 10
-4200.0
 20
-2970.0
 11
4200.0
 21
2970.0
 12
0.0
 22
0.0
 32
0.0
 14
-4200.0
 24
-2970.0
 34
0.0
 15
4200.0
 25
2970.0
 35
0.0
146
0.0
 13
0.0
 23
0.0
 33
0.0
 16
1.0
 26
0.0
 36
0.0
 17
0.0
 27
1.0
 37
0.0
 76
     0
330
1F
331
29
  0
MATERIAL
  5
45
102
{ACAD_REACTORS
330
43
102
}
330
43
100
AcDbMaterial
  1
ByBlock
 72
     1
 94
      127
  0
MATERIAL
  5
44
102
{ACAD_REACTORS
330
43
102
}
330
43
100
AcDbMaterial
  1
ByLayer
 72
     1
 94
      127
  0
MATERIAL
  5
46
102
{ACAD_REACTORS
330
43
102
}
330
43
100
AcDbMaterial
  1
Global
 72
     1
 94
      127
  0
MLEADERSTYLE
  5
6C
102
{ACAD_REACTORS
330
6B
102
}
330
6B
100
AcDbMLeaderStyle
179
     2
170
     2
171
     1
172
     0
 90
        2
 40
0.0
 41
0.0
173
     1
 91
-1056964608
340
14
 92
       -2
290
     1
 42
2.0
291
     1
 43
8.0
  3
Standard
341
0
 44
4.0
300

342
11
174
     1
178
     6
175
     1
176
     0
 93
-1056964608
 45
4.0
292
     0
297
     0
 46
4.0
343
0
 94
-1056964608
 47
1.0
 49
1.0
140
1.0
293
     1
141
0.0
294
     1
177
     0
142
1.0
295
     0
296
     0
143
3.75
271
     0
272
     9
273
     9
  0
MLINESTYLE
  5
18
102
{ACAD_REACTORS
330
17
102
}
330
17
100
AcDbMlineStyle
  2
Standard
 70
     0
  3

 62
   256
 51
90.0
 52
90.0
 71
     2
 49
0.5
 62
   256
  6
BYLAYER
 49
-0.5
 62
   256
  6
BYLAYER
  0
ACDBPLACEHOLDER
  5
F
102
{ACAD_REACTORS
330
E
102
}
330
E
  0
SCALE
  5
48
102
{ACAD_REACTORS
330
47
102
}
330
47
100
AcDbScale
 70
     0
300
1:1
140
1.0
141
1.0
290
     1
  0
SCALE
  5
49
102
{ACAD_REACTORS
330
47
102
}
330
47
100
AcDbScale
 70
     0
300
1:2
140
1.0
141
2.0
290
     0
  0
SCALE
  5
4A
102
{ACAD_REACTORS
330
47
102
}
330
47
100
AcDbScale
 70
     0
300
1:4
140
1.0
141
4.0
290
     0
  0
SCALE
  5
4B
102
{ACAD_REACTORS
330
47
102
}
330
47
100
AcDbScale
 70
     0
300
1:5
140
1.0
141
5.0
290
     0
  0
SCALE
  5
4C
102
{ACAD_REACTORS
330
47
102
}
330
47
100
AcDbScale
 70
     0
300
1:8
140
1.0
141
8.0
290
     0
  0
SCALE
  5
4D
102
{ACAD_REACTORS
330
47
102
}
330
47
100
AcDbScale
 70
     0
300
1:10
140
1.0
141
10.0
290
     0
  0
SCALE
  5
4E
102
{ACAD_REACTORS
330
47
102
}
330
47
100
AcDbScale
 70
     0
300
1:16
140
1.0
141
16.0
290
     0
  0
SCALE
  5
4F
102
{ACAD_REACTORS
330
47
102
}
330
47
100
AcDbScale
 70
     0
300
1:20
140
1.0
141
20.0
290
     0
  0
SCALE
  5
50
102
{ACAD_REACTORS
330
47
102
}
330
47
100
AcDbScale
 70
     0
300
1:30
140
1.0
141
30.0
290
     0
  0
SCALE
  5
51
102
{ACAD_REACTORS
330
47
102
}
330
47
100
AcDbScale
 70
     0
300
1:40
140
1.0
141
40.0
290
     0
  0
SCALE
  5
52
102
{ACAD_REACTORS
330
47
102
}
330
47
100
AcDbScale
 70
     0
300
1:50
140
1.0
141
50.0
290
     0
  0
SCALE
  5
53
102
{ACAD_REACTORS
330
47
102
}
330
47
100
AcDbScale
 70
     0
300
1:100
140
1.0
141
100.0
290
     0
  0
SCALE
  5
54
102
{ACAD_REACTORS
330
47
102
}
330
47
100
AcDbScale
 70
     0
300
2:1
140
2.0
141
1.0
290
     0
  0
SCALE
  5
55
102
{ACAD_REACTORS
330
47
102
}
330
47
100
AcDbScale
 70
     0
300
4:1
140
4.0
141
1.0
290
     0
  0
SCALE
  5
56
102
{ACAD_REACTORS
330
47
102
}
330
47
100
AcDbScale
 70
     0
300
8:1
140
8.0
141
1.0
290
     0
  0
SCALE
  5
57
102
{ACAD_REACTORS
330
47
102
}
330
47
100
AcDbScale
 70
     0
300
10:1
140
10.0
141
1.0
290
     0
  0
SCALE
  5
58
102
{ACAD_REACTORS
330
47
102
}
330
47
100
AcDbScale
 70
     0
300
100:1
140
100.0
141
1.0
290
     0
  0
SCALE
  5
59
102
{ACAD_REACTORS
330
47
102
}
330
47
100
AcDbScale
 70
     0
300
1/128" = 1'-0"
140
0.0078125
141
12.0
290
     0
  0
SCALE
  5
5A
102
{ACAD_REACTORS
330
47
102
}
330
47
100
AcDbScale
 70
     0
300
1/64" = 1'-0"
140
0.015625
141
12.0
290
     0
  0
SCALE
  5
5B
102
{ACAD_REACTORS
330
47
102
}
330
47
100
AcDbScale
 70
     0
300
1/32" = 1'-0"
140
0.03125
141
12.0
290
     0
  0
SCALE
  5
5C
102
{ACAD_REACTORS
330
47
102
}
330
47
100
AcDbScale
 70
     0
300
1/16" = 1'-0"
140
0.0625
141
12.0
290
     0
  0
SCALE
  5
5D
102
{ACAD_REACTORS
330
47
102
}
330
47
100
AcDbScale
 70
     0
300
3/32" = 1'-0"
140
0.09375
141
12.0
290
     0
  0
SCALE
  5
5E
102
{ACAD_REACTORS
330
47
102
}
330
47
100
AcDbScale
 70
     0
300
1/8" = 1'-0"
140
0.125
141
12.0
290
     0
  0
SCALE
  5
5F
102
{ACAD_REACTORS
330
47
102
}
330
47
100
AcDbScale
 70
     0
300
3/16" = 1'-0"
140
0.1875
141
12.0
290
     0
  0
SCALE
  5
60
102
{ACAD_REACTORS
330
47
102
}
330
47
100
AcDbScale
 70
     0
300
1/4" = 1'-0"
140
0.25
141
12.0
290
     0
  0
SCALE
  5
61
102
{ACAD_REACTORS
330
47
102
}
330
47
100
AcDbScale
 70
     0
300
3/8" = 1'-0"
140
0.375
141
12.0
290
     0
  0
SCALE
  5
62
102
{ACAD_REACTORS
330
47
102
}
330
47
100
AcDbScale
 70
     0
300
1/2" = 1'-0"
140
0.5
141
12.0
290
     0
  0
SCALE
  5
63
102
{ACAD_REACTORS
330
47
102
}
330
47
100
AcDbScale
 70
     0
300
3/4" = 1'-0"
140
0.75
141
12.0
290
     0
  0
SCALE
  5
64
102
{ACAD_REACTORS
330
47
102
}
330
47
100
AcDbScale
 70
     0
300
1" = 1'-0"
140
1.0
141
12.0
290
     0
  0
SCALE
  5
65
102
{ACAD_REACTORS
330
47
102
}
330
47
100
AcDbScale
 70
     0
300
1-1/2" = 1'-0"
140
1.5
141
12.0
290
     0
  0
SCALE
  5
66
102
{ACAD_REACTORS
330
47
102
}
330
47
100
AcDbScale
 70
     0
300
3" = 1'-0"
140
3.0
141
12.0
290
     0
  0
SCALE
  5
67
102
{ACAD_REACTORS
330
47
102
}
330
47
100
AcDbScale
 70
     0
300
6" = 1'-0"
140
6.0
141
12.0
290
     0
  0
SCALE
  5
68
102
{ACAD_REACTORS
330
47
102
}
330
47
100
AcDbScale
 70
     0
300
1'-0" = 1'-0"
140
12.0
141
12.0
290
     0
  0
TABLESTYLE
  5
6A
102
{ACAD_REACTORS
330
69
102
}
102
{ACAD_XDICTIONARY
360
4FD
102
}
330
69
100
AcDbTableStyle
  3
Standard
 70
     0
 71
     0
 40
0.06
 41
0.06
280
     0
281
     0
  7
Standard
140
4.5
170
     2
 62
     0
 63
   257
283
     0
 90
        4
 91
        0
  1

274
    -2
284
     1
 64
     0
275
    -2
285
     1
 65
     0
276
    -2
286
     1
 66
     0
277
    -2
287
     1
 67
     0
278
    -2
288
     1
 68
     0
279
    -2
289
     1
 69
     0
  7
Standard
140
6.0
170
     5
 62
     0
 63
   257
283
     0
 90
        4
 91
        0
  1

274
    -2
284
     1
 64
     0
275
    -2
285
     1
 65
     0
276
    -2
286
     1
 66
     0
277
    -2
287
     1
 67
     0
278
    -2
288
     1
 68
     0
279
    -2
289
     1
 69
     0
  7
Standard
140
4.5
170
     5
 62
     0
 63
   257
283
     0
 90
        4
 91
        0
  1

274
    -2
284
     1
 64
     0
275
    -2
285
     1
 65
     0
276
    -2
286
     1
 66
     0
277
    -2
287
     1
 67
     0
278
    -2
288
     1
 68
     0
279
    -2
289
     1
 69
     0
  0
VISUALSTYLE
  5
2F
102
{ACAD_REACTORS
330
2A
102
}
102
{ACAD_XDICTIONARY
360
4D5
102
}
330
2A
100
AcDbVisualStyle
  2
2dWireframe
 70
     4
177
     2
291
     0
 71
     0
176
     1
 72
     2
176
     1
 73
     0
176
     1
 90
        0
176
     1
 40
0.6
176
     1
 41
30.0
176
     1
 62
     5
 63
     7
421
 16777215
176
     1
 74
     1
176
     1
 91
        4
176
     1
 64
     7
176
     1
 65
   257
176
     1
 75
     1
176
     1
175
     1
176
     1
 42
1.0
176
     1
 92
        0
176
     1
 66
   257
176
     1
 43
1.0
176
     1
 76
     1
176
     1
 77
     6
176
     1
 78
     2
176
     1
 67
     7
176
     1
 79
     5
176
     1
170
     0
176
     1
171
     0
176
     1
290
     0
176
     1
 93
        1
176
     1
 44
0.0
176
     1
173
     0
176
     1
  0
VISUALSTYLE
  5
32
102
{ACAD_REACTORS
330
2A
102
}
102
{ACAD_XDICTIONARY
360
4DB
102
}
330
2A
100
AcDbVisualStyle
  2
Basic
 70
     7
177
     2
291
     1
 71
     1
176
     1
 72
     0
176
     1
 73
     1
176
     1
 90
        0
176
     1
 40
0.6
176
     1
 41
30.0
176
     1
 62
     5
 63
     7
421
 16777215
176
     1
 74
     0
176
     1
 91
        4
176
     1
 64
     7
176
     1
 65
   257
176
     1
 75
     1
176
     1
175
     1
176
     1
 42
1.0
176
     1
 92
        8
176
     1
 66
     7
176
     1
 43
1.0
176
     1
 76
     1
176
     1
 77
     6
176
     1
 78
     2
176
     1
 67
     7
176
     1
 79
     5
176
     1
170
     0
176
     1
171
     0
176
     1
290
     0
176
     1
 93
        1
176
     1
 44
0.0
176
     1
173
     0
176
     1
  0
VISUALSTYLE
  5
36
102
{ACAD_REACTORS
330
2A
102
}
102
{ACAD_XDICTIONARY
360
4E3
102
}
330
2A
100
AcDbVisualStyle
  2
Brighten
 70
    12
177
     2
291
     1
 71
     2
176
     1
 72
     2
176
     1
 73
     0
176
     1
 90
        0
176
     1
 40
0.6
176
     1
 41
30.0
176
     1
 62
     5
 63
     7
421
 16777215
176
     1
 74
     1
176
     1
 91
        4
176
     1
 64
     7
176
     1
 65
   257
176
     1
 75
     1
176
     1
175
     1
176
     1
 42
1.0
176
     1
 92
        8
176
     1
 66
     7
176
     1
 43
1.0
176
     1
 76
     1
176
     1
 77
     6
176
     1
 78
     2
176
     1
 67
     7
176
     1
 79
     5
176
     1
170
     0
176
     1
171
     0
176
     1
290
     0
176
     1
 93
        1
176
     1
 44
50.0
176
     1
173
     0
176
     1
  0
VISUALSTYLE
  5
3A
102
{ACAD_REACTORS
330
2A
102
}
102
{ACAD_XDICTIONARY
360
4EB
102
}
330
2A
100
AcDbVisualStyle
  2
ColorChange
 70
    16
177
     2
291
     1
 71
     2
176
     1
 72
     2
176
     1
 73
     3
176
     1
 90
        0
176
     1
 40
0.6
176
     1
 41
30.0
176
     1
 62
     5
 63
     8
421
  8421504
176
     1
 74
     1
176
     1
 91
        4
176
     1
 64
     7
176
     1
 65
   257
176
     1
 75
     1
176
     1
175
     1
176
     1
 42
1.0
176
     1
 92
        8
176
     1
 66
     8
424
  8421504
176
     1
 43
1.0
176
     1
 76
     1
176
     1
 77
     6
176
     1
 78
     2
176
     1
 67
     7
176
     1
 79
     5
176
     1
170
     0
176
     1
171
     0
176
     1
290
     0
176
     1
 93
        1
176
     1
 44
0.0
176
     1
173
     0
176
     1
  0
VISUALSTYLE
  5
34
102
{ACAD_REACTORS
330
2A
102
}
102
{ACAD_XDICTIONARY
360
4DF
102
}
330
2A
100
AcDbVisualStyle
  2
Conceptual
 70
     9
177
     2
291
     0
 71
     3
176
     1
 72
     2
176
     1
 73
     0
176
     1
 90
        0
176
     1
 40
0.6
176
     1
 41
30.0
176
     1
 62
     5
 63
     7
421
 16777215
176
     1
 74
     2
176
     1
 91
        2
176
     1
 64
     7
176
     1
 65
   257
176
     1
 75
     1
176
     1
175
     1
176
     1
 42
179.0
176
     1
 92
        8
176
     1
 66
     7
176
     1
 43
1.0
176
     1
 76
     1
176
     1
 77
     6
176
     1
 78
     2
176
     1
 67
     7
176
     1
 79
     3
176
     1
170
     0
176
     1
171
     0
176
     1
290
     0
176
     1
 93
        1
176
     1
 44
0.0
176
     1
173
     0
176
     1
  0
VISUALSTYLE
  5
35
102
{ACAD_REACTORS
330
2A
102
}
102
{ACAD_XDICTIONARY
360
4E1
102
}
330
2A
100
AcDbVisualStyle
  2
Dim
 70
    11
177
     2
291
     1
 71
     2
176
     1
 72
     2
176
     1
 73
     0
176
     1
 90
        0
176
     1
 40
0.6
176
     1
 41
30.0
176
     1
 62
     5
 63
     7
421
 16777215
176
     1
 74
     1
176
     1
 91
        4
176
     1
 64
     7
176
     1
 65
   257
176
     1
 75
     1
176
     1
175
     1
176
     1
 42
1.0
176
     1
 92
        8
176
     1
 66
     7
176
     1
 43
1.0
176
     1
 76
     1
176
     1
 77
     6
176
     1
 78
     2
176
     1
 67
     7
176
     1
 79
     5
176
     1
170
     0
176
     1
171
     0
176
     1
290
     0
176
     1
 93
        1
176
     1
 44
-50.0
176
     1
173
     0
176
     1
  0
VISUALSTYLE
  5
3D
102
{ACAD_REACTORS
330
2A
102
}
102
{ACAD_XDICTIONARY
360
4F1
102
}
330
2A
100
AcDbVisualStyle
  2
EdgeColorOff
 70
    22
177
     2
291
     1
 71
     2
176
     0
 72
     2
176
     0
 73
     0
176
     0
 90
        0
176
     0
 40
0.6
176
     0
 41
30.0
176
     0
 62
     5
 63
     7
421
 16777215
176
     0
 74
     1
176
     0
 91
        4
176
     0
 64
     7
176
     0
 65
   257
176
     0
 75
     1
176
     0
175
     1
176
     0
 42
1.0
176
     0
 92
        8
176
     2
 66
     7
176
     0
 43
1.0
176
     0
 76
     1
176
     0
 77
     6
176
     0
 78
     2
176
     0
 67
     7
176
     0
 79
     5
176
     0
170
     0
176
     0
171
     0
176
     0
290
     0
176
     0
 93
        1
176
     0
 44
0.0
176
     0
173
     0
176
     0
  0
VISUALSTYLE
  5
39
102
{ACAD_REACTORS
330
2A
102
}
102
{ACAD_XDICTIONARY
360
4E9
102
}
330
2A
100
AcDbVisualStyle
  2
Facepattern
 70
    15
177
     2
291
     1
 71
     2
176
     1
 72
     2
176
     1
 73
     0
176
     1
 90
        0
176
     1
 40
0.6
176
     1
 41
30.0
176
     1
 62
     5
 63
     7
421
 16777215
176
     1
 74
     1
176
     1
 91
        4
176
     1
 64
     7
176
     1
 65
   257
176
     1
 75
     1
176
     1
175
     1
176
     1
 42
1.0
176
     1
 92
        8
176
     1
 66
     7
176
     1
 43
1.0
176
     1
 76
     1
176
     1
 77
     6
176
     1
 78
     2
176
     1
 67
     7
176
     1
 79
     5
176
     1
170
     0
176
     1
171
     0
176
     1
290
     0
176
     1
 93
        1
176
     1
 44
0.0
176
     1
173
     0
176
     1
  0
VISUALSTYLE
  5
2B
102
{ACAD_REACTORS
330
2A
102
}
102
{ACAD_XDICTIONARY
360
4CD
102
}
330
2A
100
AcDbVisualStyle
  2
Flat
 70
     0
177
     2
291
     1
 71
     2
176
     1
 72
     1
176
     1
 73
     1
176
     1
 90
        2
176
     1
 40
0.6
176
     1
 41
30.0
176
     1
 62
     5
 63
     7
421
 16777215
176
     1
 74
     0
176
     1
 91
        0
176
     1
 64
     7
176
     1
 65
   257
176
     1
 75
     1
176
     1
175
     1
176
     1
 42
1.0
176
     1
 92
        8
176
     1
 66
     7
176
     1
 43
1.0
176
     1
 76
     1
176
     1
 77
     6
176
     1
 78
     2
176
     1
 67
     7
176
     1
 79
     5
176
     1
170
     0
176
     1
171
     0
176
     1
290
     0
176
     1
 93
       13
176
     1
 44
0.0
176
     1
173
     0
176
     1
  0
VISUALSTYLE
  5
2C
102
{ACAD_REACTORS
330
2A
102
}
102
{ACAD_XDICTIONARY
360
4CF
102
}
330
2A
100
AcDbVisualStyle
  2
FlatWithEdges
 70
     1
177
     2
291
     1
 71
     2
176
     1
 72
     1
176
     1
 73
     1
176
     1
 90
        2
176
     1
 40
0.6
176
     1
 41
30.0
176
     1
 62
     5
 63
     7
421
 16777215
176
     1
 74
     1
176
     1
 91
        0
176
     1
 64
     7
176
     1
 65
   257
176
     1
 75
     1
176
     1
175
     1
176
     1
 42
1.0
176
     1
 92
        0
176
     1
 66
   257
176
     1
 43
1.0
176
     1
 76
     1
176
     1
 77
     6
176
     1
 78
     2
176
     1
 67
     7
176
     1
 79
     5
176
     1
170
     0
176
     1
171
     0
176
     1
290
     0
176
     1
 93
       13
176
     1
 44
0.0
176
     1
173
     0
176
     1
  0
VISUALSTYLE
  5
2D
102
{ACAD_REACTORS
330
2A
102
}
102
{ACAD_XDICTIONARY
360
4D1
102
}
330
2A
100
AcDbVisualStyle
  2
Gouraud
 70
     2
177
     2
291
     1
 71
     2
176
     1
 72
     2
176
     1
 73
     1
176
     1
 90
        2
176
     1
 40
0.6
176
     1
 41
30.0
176
     1
 62
     5
 63
     7
421
 16777215
176
     1
 74
     0
176
     1
 91
        0
176
     1
 64
     7
176
     1
 65
   257
176
     1
 75
     1
176
     1
175
     1
176
     1
 42
1.0
176
     1
 92
        0
176
     1
 66
     7
176
     1
 43
1.0
176
     1
 76
     1
176
     1
 77
     6
176
     1
 78
     2
176
     1
 67
     7
176
     1
 79
     5
176
     1
170
     0
176
     1
171
     0
176
     1
290
     0
176
     1
 93
       13
176
     1
 44
0.0
176
     1
173
     0
176
     1
  0
VISUALSTYLE
  5
2E
102
{ACAD_REACTORS
330
2A
102
}
102
{ACAD_XDICTIONARY
360
4D3
102
}
330
2A
100
AcDbVisualStyle
  2
GouraudWithEdges
 70
     3
177
     2
291
     1
 71
     2
176
     1
 72
     2
176
     1
 73
     1
176
     1
 90
        2
176
     1
 40
0.6
176
     1
 41
30.0
176
     1
 62
     5
 63
     7
421
 16777215
176
     1
 74
     1
176
     1
 91
        0
176
     1
 64
     7
176
     1
 65
   257
176
     1
 75
     1
176
     1
175
     1
176
     1
 42
1.0
176
     1
 92
        0
176
     1
 66
   257
176
     1
 43
1.0
176
     1
 76
     1
176
     1
 77
     6
176
     1
 78
     2
176
     1
 67
     7
176
     1
 79
     5
176
     1
170
     0
176
     1
171
     0
176
     1
290
     0
176
     1
 93
       13
176
     1
 44
0.0
176
     1
173
     0
176
     1
  0
VISUALSTYLE
  5
31
102
{ACAD_REACTORS
330
2A
102
}
102
{ACAD_XDICTIONARY
360
4D9
102
}
330
2A
100
AcDbVisualStyle
  2
Hidden
 70
     6
177
     2
291
     0
 71
     1
176
     1
 72
     2
176
     1
 73
     2
176
     1
 90
        0
176
     1
 40
0.6
176
     1
 41
30.0
176
     1
 62
     5
 63
     7
421
 16777215
176
     1
 74
     2
176
     1
 91
        2
176
     1
 64
     7
176
     1
 65
   257
176
     1
 75
     2
176
     1
175
     1
176
     1
 42
40.0
176
     1
 92
        0
176
     1
 66
   257
176
     1
 43
1.0
176
     1
 76
     1
176
     1
 77
     6
176
     1
 78
     2
176
     1
 67
     7
176
     1
 79
     3
176
     1
170
     0
176
     1
171
     0
176
     1
290
     0
176
     1
 93
        1
176
     1
 44
0.0
176
     1
173
     0
176
     1
  0
VISUALSTYLE
  5
3B
102
{ACAD_REACTORS
330
2A
102
}
102
{ACAD_XDICTIONARY
360
4ED
102
}
330
2A
100
AcDbVisualStyle
  2
JitterOff
 70
    20
177
     2
291
     1
 71
     2
176
     0
 72
     2
176
     0
 73
     0
176
     0
 90
        0
176
     0
 40
0.6
176
     0
 41
30.0
176
     0
 62
     5
 63
     7
421
 16777215
176
     0
 74
     1
176
     0
 91
        4
176
     0
 64
     7
176
     0
 65
   257
176
     0
 75
     1
176
     0
175
     1
176
     0
 42
1.0
176
     0
 92
       10
176
     2
 66
     7
176
     0
 43
1.0
176
     0
 76
     1
176
     0
 77
     6
176
     0
 78
     2
176
     0
 67
     7
176
     0
 79
     5
176
     0
170
     0
176
     0
171
     0
176
     0
290
     0
176
     0
 93
        1
176
     0
 44
0.0
176
     0
173
     0
176
     0
  0
VISUALSTYLE
  5
38
102
{ACAD_REACTORS
330
2A
102
}
102
{ACAD_XDICTIONARY
360
4E7
102
}
330
2A
100
AcDbVisualStyle
  2
Linepattern
 70
    14
177
     2
291
     1
 71
     2
176
     1
 72
     2
176
     1
 73
     0
176
     1
 90
        0
176
     1
 40
0.6
176
     1
 41
30.0
176
     1
 62
     5
 63
     7
421
 16777215
176
     1
 74
     1
176
     1
 91
        4
176
     1
 64
     7
176
     1
 65
   257
176
     1
 75
     7
176
     1
175
     7
176
     1
 42
1.0
176
     1
 92
        8
176
     1
 66
     7
176
     1
 43
1.0
176
     1
 76
     1
176
     1
 77
     6
176
     1
 78
     2
176
     1
 67
     7
176
     1
 79
     5
176
     1
170
     0
176
     1
171
     0
176
     1
290
     0
176
     1
 93
        1
176
     1
 44
0.0
176
     1
173
     0
176
     1
  0
VISUALSTYLE
  5
3C
102
{ACAD_REACTORS
330
2A
102
}
102
{ACAD_XDICTIONARY
360
4EF
102
}
330
2A
100
AcDbVisualStyle
  2
OverhangOff
 70
    21
177
     2
291
     1
 71
     2
176
     0
 72
     2
176
     0
 73
     0
176
     0
 90
        0
176
     0
 40
0.6
176
     0
 41
30.0
176
     0
 62
     5
 63
     7
421
 16777215
176
     0
 74
     1
176
     0
 91
        4
176
     0
 64
     7
176
     0
 65
   257
176
     0
 75
     1
176
     0
175
     1
176
     0
 42
1.0
176
     0
 92
        9
176
     2
 66
     7
176
     0
 43
1.0
176
     0
 76
     1
176
     0
 77
     6
176
     0
 78
     2
176
     0
 67
     7
176
     0
 79
     5
176
     0
170
     0
176
     0
171
     0
176
     0
290
     0
176
     0
 93
        1
176
     0
 44
0.0
176
     0
173
     0
176
     0
  0
VISUALSTYLE
  5
33
102
{ACAD_REACTORS
330
2A
102
}
102
{ACAD_XDICTIONARY
360
4DD
102
}
330
2A
100
AcDbVisualStyle
  2
Realistic
 70
     8
177
     2
291
     0
 71
     2
176
     1
 72
     3
176
     1
 73
     0
176
     1
 90
        2
176
     1
 40
0.6
176
     1
 41
30.0
176
     1
 62
     5
 63
     7
421
 16777215
176
     1
 74
     0
176
     1
 91
        0
176
     1
 64
     7
176
     1
 65
   257
176
     1
 75
     1
176
     1
175
     1
176
     1
 42
1.0
176
     1
 92
        8
176
     1
 66
   257
176
     1
 43
1.0
176
     1
 76
     1
176
     1
 77
     6
176
     1
 78
     2
176
     1
 67
     7
176
     1
 79
     3
176
     1
170
     0
176
     1
171
     0
176
     1
290
     0
176
     1
 93
       13
176
     1
 44
0.0
176
     1
173
     0
176
     1
  0
VISUALSTYLE
  5
42
102
{ACAD_REACTORS
330
2A
102
}
102
{ACAD_XDICTIONARY
360
4FB
102
}
330
2A
100
AcDbVisualStyle
  2
Shaded
 70
    27
177
     2
291
     0
 71
     2
176
     1
 72
     2
176
     1
 73
     1
176
     1
 90
        2
176
     1
 40
0.6
176
     1
 41
30.0
176
     1
 62
     5
 63
     7
421
 16777215
176
     1
 74
     0
176
     1
 91
        4
176
     1
 64
     7
176
     1
 65
   257
176
     1
 75
     1
176
     1
175
     1
176
     1
 42
1.0
176
     1
 92
        8
176
     1
 66
   257
176
     1
 43
1.0
176
     1
 76
     1
176
     1
 77
     6
176
     1
 78
     2
176
     1
 67
     8
425
  7895160
176
     1
 79
     3
176
     1
170
     0
176
     1
171
     0
176
     1
290
     0
176
     1
 93
        5
176
     1
 44
0.0
176
     1
173
     0
176
     1
  0
VISUALSTYLE
  5
41
102
{ACAD_REACTORS
330
2A
102
}
102
{ACAD_XDICTIONARY
360
4F9
102
}
330
2A
100
AcDbVisualStyle
  2
Shaded with edges
 70
    26
177
     2
291
     0
 71
     2
176
     1
 72
     2
176
     1
 73
     1
176
     1
 90
        2
176
     1
 40
0.6
176
     1
 41
30.0
176
     1
 62
     5
 63
     7
421
 16777215
176
     1
 74
     1
176
     1
 91
       10
176
     1
 64
     7
176
     1
 65
   257
176
     1
 75
     2
176
     1
175
     1
176
     1
 42
1.0
176
     1
 92
        8
176
     1
 66
   257
176
     1
 43
1.0
176
     1
 76
     1
176
     1
 77
     6
176
     1
 78
     2
176
     1
 67
     7
176
     1
 79
     3
176
     1
170
     0
176
     1
171
     0
176
     1
290
     0
176
     1
 93
        5
176
     1
 44
0.0
176
     1
173
     0
176
     1
  0
VISUALSTYLE
  5
3E
102
{ACAD_REACTORS
330
2A
102
}
102
{ACAD_XDICTIONARY
360
4F3
102
}
330
2A
100
AcDbVisualStyle
  2
Shades of Gray
 70
    23
177
     2
291
     0
 71
     2
176
     1
 72
     2
176
     1
 73
     3
176
     1
 90
        0
176
     1
 40
0.6
176
     1
 41
30.0
176
     1
 62
     5
 63
     7
421
 16777215
176
     1
 74
     2
176
     1
 91
        2
176
     1
 64
     7
176
     1
 65
     7
176
     1
 75
     1
176
     1
175
     1
176
     1
 42
40.0
176
     1
 92
        8
176
     1
 66
     7
176
     1
 43
1.0
176
     1
 76
     1
176
     1
 77
     6
176
     1
 78
     2
176
     1
 67
     7
176
     1
 79
     3
176
     1
170
     0
176
     1
171
     0
176
     1
290
     0
176
     1
 93
        1
176
     1
 44
0.0
176
     1
173
     0
176
     1
  0
VISUALSTYLE
  5
3F
102
{ACAD_REACTORS
330
2A
102
}
102
{ACAD_XDICTIONARY
360
4F5
102
}
330
2A
100
AcDbVisualStyle
  2
Sketchy
 70
    24
177
     2
291
     0
 71
     1
176
     1
 72
     2
176
     1
 73
     2
176
     1
 90
        0
176
     1
 40
0.6
176
     1
 41
30.0
176
     1
 62
     5
 63
     7
421
 16777215
176
     1
 74
     2
176
     1
 91
        2
176
     1
 64
     7
176
     1
 65
     7
176
     1
 75
     1
176
     1
175
     1
176
     1
 42
40.0
176
     1
 92
       11
176
     1
 66
     7
176
     1
 43
1.0
176
     1
 76
     1
176
     1
 77
     6
176
     1
 78
     2
176
     1
 67
     7
176
     1
 79
     6
176
     1
170
     0
176
     1
171
     0
176
     1
290
     0
176
     1
 93
        1
176
     1
 44
0.0
176
     1
173
     0
176
     1
  0
VISUALSTYLE
  5
37
102
{ACAD_REACTORS
330
2A
102
}
102
{ACAD_XDICTIONARY
360
4E5
102
}
330
2A
100
AcDbVisualStyle
  2
Thicken
 70
    13
177
     2
291
     1
 71
     2
176
     1
 72
     2
176
     1
 73
     0
176
     1
 90
        0
176
     1
 40
0.6
176
     1
 41
30.0
176
     1
 62
     5
 63
     7
421
 16777215
176
     1
 74
     1
176
     1
 91
        4
176
     1
 64
     7
176
     1
 65
   257
176
     1
 75
     1
176
     1
175
     1
176
     1
 42
1.0
176
     1
 92
       12
176
     1
 66
     7
176
     1
 43
1.0
176
     1
 76
     1
176
     1
 77
     6
176
     1
 78
     2
176
     1
 67
     7
176
     1
 79
     5
176
     1
170
     0
176
     1
171
     0
176
     1
290
     0
176
     1
 93
        1
176
     1
 44
0.0
176
     1
173
     0
176
     1
  0
VISUALSTYLE
  5
30
102
{ACAD_REACTORS
330
2A
102
}
102
{ACAD_XDICTIONARY
360
4D7
102
}
330
2A
100
AcDbVisualStyle
  2
Wireframe
 70
     5
177
     2
291
     0
 71
     0
176
     1
 72
     2
176
     1
 73
     0
176
     1
 90
        0
176
     1
 40
0.6
176
     1
 41
30.0
176
     1
 62
     5
 63
     7
421
 16777215
176
     1
 74
     1
176
     1
 91
        4
176
     1
 64
     7
176
     1
 65
   257
176
     1
 75
     1
176
     1
175
     1
176
     1
 42
1.0
176
     1
 92
        0
176
     1
 66
   257
176
     1
 43
1.0
176
     1
 76
     1
176
     1
 77
     6
176
     1
 78
     2
176
     1
 67
     7
176
     1
 79
     3
176
     1
170
     0
176
     1
171
     0
176
     1
290
     0
176
     1
 93
        1
176
     1
 44
0.0
176
     1
173
     0
176
     1
  0
VISUALSTYLE
  5
40
102
{ACAD_REACTORS
330
2A
102
}
102
{ACAD_XDICTIONARY
360
4F7
102
}
330
2A
100
AcDbVisualStyle
  2
X-Ray
 70
    25
177
     2
291
     0
 71
     2
176
     1
 72
     2
176
     1
 73
     1
176
     1
 90
        1
176
     1
 40
0.5
176
     1
 41
30.0
176
     1
 62
     5
 63
     7
421
 16777215
176
     1
 74
     1
176
     1
 91
        0
176
     1
 64
     7
176
     1
 65
   257
176
     1
 75
     1
176
     1
175
     1
176
     1
 42
1.0
176
     1
 92
        8
176
     1
 66
     7
176
     1
 43
1.0
176
     1
 76
     1
176
     1
 77
     6
176
     1
 78
     2
176
     1
 67
     7
176
     1
 79
     3
176
     1
170
     0
176
     1
171
     0
176
     1
290
     0
176
     1
 93
       13
176
     1
 44
0.0
176
     1
173
     0
176
     1
  0
DICTIONARYVAR
  5
4CC
102
{ACAD_REACTORS
330
4CB
102
}
330
4CB
100
DictionaryVariables
280
     0
  1
1:1
  0
DICTIONARYVAR
  5
504
102
{ACAD_REACTORS
330
4CB
102
}
330
4CB
100
DictionaryVariables
280
     0
  1
3.500000
  0
DICTIONARYVAR
  5
505
102
{ACAD_REACTORS
330
4CB
102
}
330
4CB
100
DictionaryVariables
280
     0
  1
acadiso.lin
  0
DICTIONARYVAR
  5
501
102
{ACAD_REACTORS
330
4CB
102
}
330
4CB
100
DictionaryVariables
280
     0
  1
Standard
  0
DICTIONARYVAR
  5
500
102
{ACAD_REACTORS
330
4CB
102
}
330
4CB
100
DictionaryVariables
280
     0
  1
Standard
  0
DICTIONARY
  5
4FD
330
6A
100
AcDbDictionary
280
     1
281
     1
  3
ACAD_ROUNDTRIP_2008_TABLESTYLE_CELLSTYLEMAP
360
4FE
  0
DICTIONARY
  5
4D5
330
2F
100
AcDbDictionary
280
     1
281
     1
  3
ACAD_XREC_ROUNDTRIP
360
4D6
  0
DICTIONARY
  5
4DB
330
32
100
AcDbDictionary
280
     1
281
     1
  3
ACAD_XREC_ROUNDTRIP
360
4DC
  0
DICTIONARY
  5
4E3
330
36
100
AcDbDictionary
280
     1
281
     1
  3
ACAD_XREC_ROUNDTRIP
360
4E4
  0
DICTIONARY
  5
4EB
330
3A
100
AcDbDictionary
280
     1
281
     1
  3
ACAD_XREC_ROUNDTRIP
360
4EC
  0
DICTIONARY
  5
4DF
330
34
100
AcDbDictionary
280
     1
281
     1
  3
ACAD_XREC_ROUNDTRIP
360
4E0
  0
DICTIONARY
  5
4E1
330
35
100
AcDbDictionary
280
     1
281
     1
  3
ACAD_XREC_ROUNDTRIP
360
4E2
  0
DICTIONARY
  5
4F1
330
3D
100
AcDbDictionary
280
     1
281
     1
  3
ACAD_XREC_ROUNDTRIP
360
4F2
  0
DICTIONARY
  5
4E9
330
39
100
AcDbDictionary
280
     1
281
     1
  3
ACAD_XREC_ROUNDTRIP
360
4EA
  0
DICTIONARY
  5
4CD
330
2B
100
AcDbDictionary
280
     1
281
     1
  3
ACAD_XREC_ROUNDTRIP
360
4CE
  0
DICTIONARY
  5
4CF
330
2C
100
AcDbDictionary
280
     1
281
     1
  3
ACAD_XREC_ROUNDTRIP
360
4D0
  0
DICTIONARY
  5
4D1
330
2D
100
AcDbDictionary
280
     1
281
     1
  3
ACAD_XREC_ROUNDTRIP
360
4D2
  0
DICTIONARY
  5
4D3
330
2E
100
AcDbDictionary
280
     1
281
     1
  3
ACAD_XREC_ROUNDTRIP
360
4D4
  0
DICTIONARY
  5
4D9
330
31
100
AcDbDictionary
280
     1
281
     1
  3
ACAD_XREC_ROUNDTRIP
360
4DA
  0
DICTIONARY
  5
4ED
330
3B
100
AcDbDictionary
280
     1
281
     1
  3
ACAD_XREC_ROUNDTRIP
360
4EE
  0
DICTIONARY
  5
4E7
330
38
100
AcDbDictionary
280
     1
281
     1
  3
ACAD_XREC_ROUNDTRIP
360
4E8
  0
DICTIONARY
  5
4EF
330
3C
100
AcDbDictionary
280
     1
281
     1
  3
ACAD_XREC_ROUNDTRIP
360
4F0
  0
DICTIONARY
  5
4DD
330
33
100
AcDbDictionary
280
     1
281
     1
  3
ACAD_XREC_ROUNDTRIP
360
4DE
  0
DICTIONARY
  5
4FB
330
42
100
AcDbDictionary
280
     1
281
     1
  3
ACAD_XREC_ROUNDTRIP
360
4FC
  0
DICTIONARY
  5
4F9
330
41
100
AcDbDictionary
280
     1
281
     1
  3
ACAD_XREC_ROUNDTRIP
360
4FA
  0
DICTIONARY
  5
4F3
330
3E
100
AcDbDictionary
280
     1
281
     1
  3
ACAD_XREC_ROUNDTRIP
360
4F4
  0
DICTIONARY
  5
4F5
330
3F
100
AcDbDictionary
280
     1
281
     1
  3
ACAD_XREC_ROUNDTRIP
360
4F6
  0
DICTIONARY
  5
4E5
330
37
100
AcDbDictionary
280
     1
281
     1
  3
ACAD_XREC_ROUNDTRIP
360
4E6
  0
DICTIONARY
  5
4D7
330
30
100
AcDbDictionary
280
     1
281
     1
  3
ACAD_XREC_ROUNDTRIP
360
4D8
  0
DICTIONARY
  5
4F7
330
40
100
AcDbDictionary
280
     1
281
     1
  3
ACAD_XREC_ROUNDTRIP
360
4F8
  0
CELLSTYLEMAP
  5
4FE
102
{ACAD_REACTORS
330
4FD
102
}
330
4FD
100
AcDbCellStyleMap
 90
        3
300
CELLSTYLE
  1
TABLEFORMAT_BEGIN
 90
        5
170
     1
 91
        0
 92
    32768
 62
   257
 93
        1
300
CONTENTFORMAT
  1
CONTENTFORMAT_BEGIN
 90
        0
 91
        0
 92
        4
 93
        0
300

 40
0.0
140
1.0
 94
        5
 62
     0
340
11
144
6.0
309
CONTENTFORMAT_END
171
     1
301
MARGIN
  1
CELLMARGIN_BEGIN
 40
1.5
 40
1.5
 40
1.5
 40
1.5
 40
1.5
 40
1.5
309
CELLMARGIN_END
 94
        6
 95
        1
302
GRIDFORMAT
  1
GRIDFORMAT_BEGIN
 90
        0
 91
        1
 62
     0
 92
       -2
340
14
 93
        0
 40
0.045
309
GRIDFORMAT_END
 95
        2
302
GRIDFORMAT
  1
GRIDFORMAT_BEGIN
 90
        0
 91
        1
 62
     0
 92
       -2
340
14
 93
        0
 40
0.045
309
GRIDFORMAT_END
 95
        4
302
GRIDFORMAT
  1
GRIDFORMAT_BEGIN
 90
        0
 91
        1
 62
     0
 92
       -2
340
14
 93
        0
 40
0.045
309
GRIDFORMAT_END
 95
        8
302
GRIDFORMAT
  1
GRIDFORMAT_BEGIN
 90
        0
 91
        1
 62
     0
 92
       -2
340
14
 93
        0
 40
0.045
309
GRIDFORMAT_END
 95
       16
302
GRIDFORMAT
  1
GRIDFORMAT_BEGIN
 90
        0
 91
        1
 62
     0
 92
       -2
340
14
 93
        0
 40
0.045
309
GRIDFORMAT_END
 95
       32
302
GRIDFORMAT
  1
GRIDFORMAT_BEGIN
 90
        0
 91
        1
 62
     0
 92
       -2
340
14
 93
        0
 40
0.045
309
GRIDFORMAT_END
309
TABLEFORMAT_END
  1
CELLSTYLE_BEGIN
 90
        1
 91
        1
300
_TITLE
309
CELLSTYLE_END
300
CELLSTYLE
  1
TABLEFORMAT_BEGIN
 90
        5
170
     1
 91
        0
 92
        0
 62
   257
 93
        1
300
CONTENTFORMAT
  1
CONTENTFORMAT_BEGIN
 90
        0
 91
        0
 92
        4
 93
        0
300

 40
0.0
140
1.0
 94
        5
 62
     0
340
11
144
4.5
309
CONTENTFORMAT_END
171
     1
301
MARGIN
  1
CELLMARGIN_BEGIN
 40
1.5
 40
1.5
 40
1.5
 40
1.5
 40
1.5
 40
1.5
309
CELLMARGIN_END
 94
        6
 95
        1
302
GRIDFORMAT
  1
GRIDFORMAT_BEGIN
 90
        0
 91
        1
 62
     0
 92
       -2
340
14
 93
        0
 40
0.045
309
GRIDFORMAT_END
 95
        2
302
GRIDFORMAT
  1
GRIDFORMAT_BEGIN
 90
        0
 91
        1
 62
     0
 92
       -2
340
14
 93
        0
 40
0.045
309
GRIDFORMAT_END
 95
        4
302
GRIDFORMAT
  1
GRIDFORMAT_BEGIN
 90
        0
 91
        1
 62
     0
 92
       -2
340
14
 93
        0
 40
0.045
309
GRIDFORMAT_END
 95
        8
302
GRIDFORMAT
  1
GRIDFORMAT_BEGIN
 90
        0
 91
        1
 62
     0
 92
       -2
340
14
 93
        0
 40
0.045
309
GRIDFORMAT_END
 95
       16
302
GRIDFORMAT
  1
GRIDFORMAT_BEGIN
 90
        0
 91
        1
 62
     0
 92
       -2
340
14
 93
        0
 40
0.045
309
GRIDFORMAT_END
 95
       32
302
GRIDFORMAT
  1
GRIDFORMAT_BEGIN
 90
        0
 91
        1
 62
     0
 92
       -2
340
14
 93
        0
 40
0.045
309
GRIDFORMAT_END
309
TABLEFORMAT_END
  1
CELLSTYLE_BEGIN
 90
        2
 91
        1
300
_HEADER
309
CELLSTYLE_END
300
CELLSTYLE
  1
TABLEFORMAT_BEGIN
 90
        5
170
     1
 91
        0
 92
        0
 62
   257
 93
        1
300
CONTENTFORMAT
  1
CONTENTFORMAT_BEGIN
 90
        0
 91
        0
 92
        4
 93
        0
300

 40
0.0
140
1.0
 94
        2
 62
     0
340
11
144
4.5
309
CONTENTFORMAT_END
171
     1
301
MARGIN
  1
CELLMARGIN_BEGIN
 40
1.5
 40
1.5
 40
1.5
 40
1.5
 40
1.5
 40
1.5
309
CELLMARGIN_END
 94
        6
 95
        1
302
GRIDFORMAT
  1
GRIDFORMAT_BEGIN
 90
        0
 91
        1
 62
     0
 92
       -2
340
14
 93
        0
 40
0.045
309
GRIDFORMAT_END
 95
        2
302
GRIDFORMAT
  1
GRIDFORMAT_BEGIN
 90
        0
 91
        1
 62
     0
 92
       -2
340
14
 93
        0
 40
0.045
309
GRIDFORMAT_END
 95
        4
302
GRIDFORMAT
  1
GRIDFORMAT_BEGIN
 90
        0
 91
        1
 62
     0
 92
       -2
340
14
 93
        0
 40
0.045
309
GRIDFORMAT_END
 95
        8
302
GRIDFORMAT
  1
GRIDFORMAT_BEGIN
 90
        0
 91
        1
 62
     0
 92
       -2
340
14
 93
        0
 40
0.045
309
GRIDFORMAT_END
 95
       16
302
GRIDFORMAT
  1
GRIDFORMAT_BEGIN
 90
        0
 91
        1
 62
     0
 92
       -2
340
14
 93
        0
 40
0.045
309
GRIDFORMAT_END
 95
       32
302
GRIDFORMAT
  1
GRIDFORMAT_BEGIN
 90
        0
 91
        1
 62
     0
 92
       -2
340
14
 93
        0
 40
0.045
309
GRIDFORMAT_END
309
TABLEFORMAT_END
  1
CELLSTYLE_BEGIN
 90
        3
 91
        2
300
_DATA
309
CELLSTYLE_END
  0
XRECORD
  5
4D6
102
{ACAD_REACTORS
330
4D5
102
}
330
4D5
100
AcDbXrecord
280
     1
102
RTVSPost2010Prop28
280
     1
102
RTVSPost2010PropOp28
 70
     1
102
RTVSPost2010Prop29
280
     1
102
RTVSPost2010PropOp29
 70
     1
102
RTVSPost2010Prop30
280
     0
102
RTVSPost2010PropOp30
 70
     1
102
RTVSPost2010Prop31
280
     0
102
RTVSPost2010PropOp31
 70
     1
102
RTVSPost2010Prop32
280
     0
102
RTVSPost2010PropOp32
 70
     1
102
RTVSPost2010Prop33
280
     0
102
RTVSPost2010PropOp33
 70
     1
102
RTVSPost2010Prop34
280
     0
102
RTVSPost2010PropOp34
 70
     1
102
RTVSPost2010Prop35
280
     0
102
RTVSPost2010PropOp35
 70
     1
102
RTVSPost2010Prop36
280
     0
102
RTVSPost2010PropOp36
 70
     1
102
RTVSPost2010Prop37
 90
       50
102
RTVSPost2010PropOp37
 70
     1
102
RTVSPost2010Prop38
140
0.0
102
RTVSPost2010PropOp38
 70
     1
102
RTVSPost2010Prop39
140
1.0
102
RTVSPost2010PropOp39
 70
     1
102
RTVSPost2010Prop40
 90
        0
102
RTVSPost2010PropOp40
 70
     1
102
RTVSPost2010Prop41ColorIndex
 90
       18
102
RTVSPost2010Prop41ColorRGB
 90
        0
102
RTVSPost2010PropOp41
 70
     1
102
RTVSPost2010Prop42
 90
       50
102
RTVSPost2010PropOp42
 70
     1
102
RTVSPost2010Prop43
 90
        3
102
RTVSPost2010PropOp43
 70
     1
102
RTVSPost2010Prop44ColorIndex
 90
        5
102
RTVSPost2010Prop44ColorRGB
 90
      255
102
RTVSPost2010PropOp44
 70
     1
102
RTVSPost2010Prop45
280
     0
102
RTVSPost2010PropOp45
 70
     1
102
RTVSPost2010Prop46
 90
       50
102
RTVSPost2010PropOp46
 70
     1
102
RTVSPost2010Prop47
 90
       50
102
RTVSPost2010PropOp47
 70
     1
102
RTVSPost2010Prop48
 90
       50
102
RTVSPost2010PropOp48
 70
     1
102
RTVSPost2010Prop49
280
     0
102
RTVSPost2010PropOp49
 70
     1
102
RTVSPost2010Prop50
 90
       50
102
RTVSPost2010PropOp50
 70
     1
102
RTVSPost2010Prop51ColorIndex
 90
      256
102
RTVSPost2010Prop51ColorRGB
 90
-16777216
102
RTVSPost2010PropOp51
 70
     0
102
RTVSPost2010Prop52
140
1.0
102
RTVSPost2010PropOp52
 70
     0
102
RTVSPost2010Prop53
 90
        2
102
RTVSPost2010PropOp53
 70
     1
102
RTVSPost2010Prop54
  1
strokes_ogs.tif
102
RTVSPost2010PropOp54
 70
     1
102
RTVSPost2010Prop55
280
     0
102
RTVSPost2010PropOp55
 70
     1
102
RTVSPost2010Prop56
140
1.0
102
RTVSPost2010PropOp56
 70
     1
102
RTVSPost2010Prop57
140
1.0
102
RTVSPost2010PropOp57
 70
     1
  0
XRECORD
  5
4DC
102
{ACAD_REACTORS
330
4DB
102
}
330
4DB
100
AcDbXrecord
280
     1
102
RTVSPost2010Prop28
280
     0
102
RTVSPost2010PropOp28
 70
     1
102
RTVSPost2010Prop29
280
     1
102
RTVSPost2010PropOp29
 70
     1
102
RTVSPost2010Prop30
280
     1
102
RTVSPost2010PropOp30
 70
     1
102
RTVSPost2010Prop31
280
     0
102
RTVSPost2010PropOp31
 70
     1
102
RTVSPost2010Prop32
280
     0
102
RTVSPost2010PropOp32
 70
     1
102
RTVSPost2010Prop33
280
     0
102
RTVSPost2010PropOp33
 70
     1
102
RTVSPost2010Prop34
280
     0
102
RTVSPost2010PropOp34
 70
     1
102
RTVSPost2010Prop35
280
     0
102
RTVSPost2010PropOp35
 70
     1
102
RTVSPost2010Prop36
280
     0
102
RTVSPost2010PropOp36
 70
     1
102
RTVSPost2010Prop37
 90
       50
102
RTVSPost2010PropOp37
 70
     1
102
RTVSPost2010Prop38
140
0.0
102
RTVSPost2010PropOp38
 70
     1
102
RTVSPost2010Prop39
140
1.0
102
RTVSPost2010PropOp39
 70
     1
102
RTVSPost2010Prop40
 90
        0
102
RTVSPost2010PropOp40
 70
     1
102
RTVSPost2010Prop41ColorIndex
 90
       18
102
RTVSPost2010Prop41ColorRGB
 90
        0
102
RTVSPost2010PropOp41
 70
     1
102
RTVSPost2010Prop42
 90
       50
102
RTVSPost2010PropOp42
 70
     1
102
RTVSPost2010Prop43
 90
        3
102
RTVSPost2010PropOp43
 70
     1
102
RTVSPost2010Prop44ColorIndex
 90
        5
102
RTVSPost2010Prop44ColorRGB
 90
      255
102
RTVSPost2010PropOp44
 70
     1
102
RTVSPost2010Prop45
280
     0
102
RTVSPost2010PropOp45
 70
     1
102
RTVSPost2010Prop46
 90
       50
102
RTVSPost2010PropOp46
 70
     1
102
RTVSPost2010Prop47
 90
       50
102
RTVSPost2010PropOp47
 70
     1
102
RTVSPost2010Prop48
 90
       50
102
RTVSPost2010PropOp48
 70
     1
102
RTVSPost2010Prop49
280
     0
102
RTVSPost2010PropOp49
 70
     1
102
RTVSPost2010Prop50
 90
       50
102
RTVSPost2010PropOp50
 70
     1
102
RTVSPost2010Prop51ColorIndex
 90
      256
102
RTVSPost2010Prop51ColorRGB
 90
-16777216
102
RTVSPost2010PropOp51
 70
     0
102
RTVSPost2010Prop52
140
1.0
102
RTVSPost2010PropOp52
 70
     0
102
RTVSPost2010Prop53
 90
        2
102
RTVSPost2010PropOp53
 70
     1
102
RTVSPost2010Prop54
  1
strokes_ogs.tif
102
RTVSPost2010PropOp54
 70
     1
102
RTVSPost2010Prop55
280
     0
102
RTVSPost2010PropOp55
 70
     1
102
RTVSPost2010Prop56
140
1.0
102
RTVSPost2010PropOp56
 70
     1
102
RTVSPost2010Prop57
140
1.0
102
RTVSPost2010PropOp57
 70
     1
  0
XRECORD
  5
4E4
102
{ACAD_REACTORS
330
4E3
102
}
330
4E3
100
AcDbXrecord
280
     1
102
RTVSPost2010Prop28
280
     0
102
RTVSPost2010PropOp28
 70
     1
102
RTVSPost2010Prop29
280
     1
102
RTVSPost2010PropOp29
 70
     1
102
RTVSPost2010Prop30
280
     1
102
RTVSPost2010PropOp30
 70
     1
102
RTVSPost2010Prop31
280
     0
102
RTVSPost2010PropOp31
 70
     1
102
RTVSPost2010Prop32
280
     0
102
RTVSPost2010PropOp32
 70
     1
102
RTVSPost2010Prop33
280
     0
102
RTVSPost2010PropOp33
 70
     1
102
RTVSPost2010Prop34
280
     0
102
RTVSPost2010PropOp34
 70
     1
102
RTVSPost2010Prop35
280
     0
102
RTVSPost2010PropOp35
 70
     1
102
RTVSPost2010Prop36
280
     0
102
RTVSPost2010PropOp36
 70
     1
102
RTVSPost2010Prop37
 90
       50
102
RTVSPost2010PropOp37
 70
     1
102
RTVSPost2010Prop38
140
0.0
102
RTVSPost2010PropOp38
 70
     1
102
RTVSPost2010Prop39
140
1.0
102
RTVSPost2010PropOp39
 70
     1
102
RTVSPost2010Prop40
 90
        0
102
RTVSPost2010PropOp40
 70
     1
102
RTVSPost2010Prop41ColorIndex
 90
       18
102
RTVSPost2010Prop41ColorRGB
 90
        0
102
RTVSPost2010PropOp41
 70
     1
102
RTVSPost2010Prop42
 90
       50
102
RTVSPost2010PropOp42
 70
     1
102
RTVSPost2010Prop43
 90
        3
102
RTVSPost2010PropOp43
 70
     1
102
RTVSPost2010Prop44ColorIndex
 90
        5
102
RTVSPost2010Prop44ColorRGB
 90
      255
102
RTVSPost2010PropOp44
 70
     1
102
RTVSPost2010Prop45
280
     0
102
RTVSPost2010PropOp45
 70
     1
102
RTVSPost2010Prop46
 90
       50
102
RTVSPost2010PropOp46
 70
     1
102
RTVSPost2010Prop47
 90
       50
102
RTVSPost2010PropOp47
 70
     1
102
RTVSPost2010Prop48
 90
       50
102
RTVSPost2010PropOp48
 70
     1
102
RTVSPost2010Prop49
280
     0
102
RTVSPost2010PropOp49
 70
     1
102
RTVSPost2010Prop50
 90
       50
102
RTVSPost2010PropOp50
 70
     1
102
RTVSPost2010Prop51ColorIndex
 90
      256
102
RTVSPost2010Prop51ColorRGB
 90
-16777216
102
RTVSPost2010PropOp51
 70
     0
102
RTVSPost2010Prop52
140
1.0
102
RTVSPost2010PropOp52
 70
     0
102
RTVSPost2010Prop53
 90
        2
102
RTVSPost2010PropOp53
 70
     1
102
RTVSPost2010Prop54
  1
strokes_ogs.tif
102
RTVSPost2010PropOp54
 70
     1
102
RTVSPost2010Prop55
280
     0
102
RTVSPost2010PropOp55
 70
     1
102
RTVSPost2010Prop56
140
1.0
102
RTVSPost2010PropOp56
 70
     1
102
RTVSPost2010Prop57
140
1.0
102
RTVSPost2010PropOp57
 70
     1
  0
XRECORD
  5
4EC
102
{ACAD_REACTORS
330
4EB
102
}
330
4EB
100
AcDbXrecord
280
     1
102
RTVSPost2010Prop28
280
     0
102
RTVSPost2010PropOp28
 70
     1
102
RTVSPost2010Prop29
280
     1
102
RTVSPost2010PropOp29
 70
     1
102
RTVSPost2010Prop30
280
     1
102
RTVSPost2010PropOp30
 70
     1
102
RTVSPost2010Prop31
280
     0
102
RTVSPost2010PropOp31
 70
     1
102
RTVSPost2010Prop32
280
     0
102
RTVSPost2010PropOp32
 70
     1
102
RTVSPost2010Prop33
280
     0
102
RTVSPost2010PropOp33
 70
     1
102
RTVSPost2010Prop34
280
     0
102
RTVSPost2010PropOp34
 70
     1
102
RTVSPost2010Prop35
280
     0
102
RTVSPost2010PropOp35
 70
     1
102
RTVSPost2010Prop36
280
     0
102
RTVSPost2010PropOp36
 70
     1
102
RTVSPost2010Prop37
 90
       50
102
RTVSPost2010PropOp37
 70
     1
102
RTVSPost2010Prop38
140
0.0
102
RTVSPost2010PropOp38
 70
     1
102
RTVSPost2010Prop39
140
1.0
102
RTVSPost2010PropOp39
 70
     1
102
RTVSPost2010Prop40
 90
        0
102
RTVSPost2010PropOp40
 70
     1
102
RTVSPost2010Prop41ColorIndex
 90
       18
102
RTVSPost2010Prop41ColorRGB
 90
        0
102
RTVSPost2010PropOp41
 70
     1
102
RTVSPost2010Prop42
 90
       50
102
RTVSPost2010PropOp42
 70
     1
102
RTVSPost2010Prop43
 90
        3
102
RTVSPost2010PropOp43
 70
     1
102
RTVSPost2010Prop44ColorIndex
 90
        5
102
RTVSPost2010Prop44ColorRGB
 90
      255
102
RTVSPost2010PropOp44
 70
     1
102
RTVSPost2010Prop45
280
     0
102
RTVSPost2010PropOp45
 70
     1
102
RTVSPost2010Prop46
 90
       50
102
RTVSPost2010PropOp46
 70
     1
102
RTVSPost2010Prop47
 90
       50
102
RTVSPost2010PropOp47
 70
     1
102
RTVSPost2010Prop48
 90
       50
102
RTVSPost2010PropOp48
 70
     1
102
RTVSPost2010Prop49
280
     0
102
RTVSPost2010PropOp49
 70
     1
102
RTVSPost2010Prop50
 90
       50
102
RTVSPost2010PropOp50
 70
     1
102
RTVSPost2010Prop51ColorIndex
 90
      256
102
RTVSPost2010Prop51ColorRGB
 90
-16777216
102
RTVSPost2010PropOp51
 70
     0
102
RTVSPost2010Prop52
140
1.0
102
RTVSPost2010PropOp52
 70
     0
102
RTVSPost2010Prop53
 90
        2
102
RTVSPost2010PropOp53
 70
     1
102
RTVSPost2010Prop54
  1
strokes_ogs.tif
102
RTVSPost2010PropOp54
 70
     1
102
RTVSPost2010Prop55
280
     0
102
RTVSPost2010PropOp55
 70
     1
102
RTVSPost2010Prop56
140
1.0
102
RTVSPost2010PropOp56
 70
     1
102
RTVSPost2010Prop57
140
1.0
102
RTVSPost2010PropOp57
 70
     1
  0
XRECORD
  5
4E0
102
{ACAD_REACTORS
330
4DF
102
}
330
4DF
100
AcDbXrecord
280
     1
102
RTVSPost2010Prop28
280
     0
102
RTVSPost2010PropOp28
 70
     1
102
RTVSPost2010Prop29
280
     1
102
RTVSPost2010PropOp29
 70
     1
102
RTVSPost2010Prop30
280
     1
102
RTVSPost2010PropOp30
 70
     1
102
RTVSPost2010Prop31
280
     0
102
RTVSPost2010PropOp31
 70
     1
102
RTVSPost2010Prop32
280
     0
102
RTVSPost2010PropOp32
 70
     1
102
RTVSPost2010Prop33
280
     0
102
RTVSPost2010PropOp33
 70
     1
102
RTVSPost2010Prop34
280
     0
102
RTVSPost2010PropOp34
 70
     1
102
RTVSPost2010Prop35
280
     0
102
RTVSPost2010PropOp35
 70
     1
102
RTVSPost2010Prop36
280
     0
102
RTVSPost2010PropOp36
 70
     1
102
RTVSPost2010Prop37
 90
       50
102
RTVSPost2010PropOp37
 70
     1
102
RTVSPost2010Prop38
140
0.0
102
RTVSPost2010PropOp38
 70
     1
102
RTVSPost2010Prop39
140
1.0
102
RTVSPost2010PropOp39
 70
     1
102
RTVSPost2010Prop40
 90
        0
102
RTVSPost2010PropOp40
 70
     1
102
RTVSPost2010Prop41ColorIndex
 90
       18
102
RTVSPost2010Prop41ColorRGB
 90
        0
102
RTVSPost2010PropOp41
 70
     1
102
RTVSPost2010Prop42
 90
       50
102
RTVSPost2010PropOp42
 70
     1
102
RTVSPost2010Prop43
 90
        3
102
RTVSPost2010PropOp43
 70
     1
102
RTVSPost2010Prop44ColorIndex
 90
        5
102
RTVSPost2010Prop44ColorRGB
 90
      255
102
RTVSPost2010PropOp44
 70
     1
102
RTVSPost2010Prop45
280
     0
102
RTVSPost2010PropOp45
 70
     1
102
RTVSPost2010Prop46
 90
       50
102
RTVSPost2010PropOp46
 70
     1
102
RTVSPost2010Prop47
 90
       50
102
RTVSPost2010PropOp47
 70
     1
102
RTVSPost2010Prop48
 90
       50
102
RTVSPost2010PropOp48
 70
     1
102
RTVSPost2010Prop49
280
     0
102
RTVSPost2010PropOp49
 70
     1
102
RTVSPost2010Prop50
 90
       50
102
RTVSPost2010PropOp50
 70
     1
102
RTVSPost2010Prop51ColorIndex
 90
      256
102
RTVSPost2010Prop51ColorRGB
 90
-16777216
102
RTVSPost2010PropOp51
 70
     0
102
RTVSPost2010Prop52
140
1.0
102
RTVSPost2010PropOp52
 70
     0
102
RTVSPost2010Prop53
 90
        2
102
RTVSPost2010PropOp53
 70
     1
102
RTVSPost2010Prop54
  1
strokes_ogs.tif
102
RTVSPost2010PropOp54
 70
     1
102
RTVSPost2010Prop55
280
     0
102
RTVSPost2010PropOp55
 70
     1
102
RTVSPost2010Prop56
140
1.0
102
RTVSPost2010PropOp56
 70
     1
102
RTVSPost2010Prop57
140
1.0
102
RTVSPost2010PropOp57
 70
     1
  0
XRECORD
  5
4E2
102
{ACAD_REACTORS
330
4E1
102
}
330
4E1
100
AcDbXrecord
280
     1
102
RTVSPost2010Prop28
280
     0
102
RTVSPost2010PropOp28
 70
     1
102
RTVSPost2010Prop29
280
     1
102
RTVSPost2010PropOp29
 70
     1
102
RTVSPost2010Prop30
280
     1
102
RTVSPost2010PropOp30
 70
     1
102
RTVSPost2010Prop31
280
     0
102
RTVSPost2010PropOp31
 70
     1
102
RTVSPost2010Prop32
280
     0
102
RTVSPost2010PropOp32
 70
     1
102
RTVSPost2010Prop33
280
     0
102
RTVSPost2010PropOp33
 70
     1
102
RTVSPost2010Prop34
280
     0
102
RTVSPost2010PropOp34
 70
     1
102
RTVSPost2010Prop35
280
     0
102
RTVSPost2010PropOp35
 70
     1
102
RTVSPost2010Prop36
280
     0
102
RTVSPost2010PropOp36
 70
     1
102
RTVSPost2010Prop37
 90
       50
102
RTVSPost2010PropOp37
 70
     1
102
RTVSPost2010Prop38
140
0.0
102
RTVSPost2010PropOp38
 70
     1
102
RTVSPost2010Prop39
140
1.0
102
RTVSPost2010PropOp39
 70
     1
102
RTVSPost2010Prop40
 90
        0
102
RTVSPost2010PropOp40
 70
     1
102
RTVSPost2010Prop41ColorIndex
 90
       18
102
RTVSPost2010Prop41ColorRGB
 90
        0
102
RTVSPost2010PropOp41
 70
     1
102
RTVSPost2010Prop42
 90
       50
102
RTVSPost2010PropOp42
 70
     1
102
RTVSPost2010Prop43
 90
        3
102
RTVSPost2010PropOp43
 70
     1
102
RTVSPost2010Prop44ColorIndex
 90
        5
102
RTVSPost2010Prop44ColorRGB
 90
      255
102
RTVSPost2010PropOp44
 70
     1
102
RTVSPost2010Prop45
280
     0
102
RTVSPost2010PropOp45
 70
     1
102
RTVSPost2010Prop46
 90
       50
102
RTVSPost2010PropOp46
 70
     1
102
RTVSPost2010Prop47
 90
       50
102
RTVSPost2010PropOp47
 70
     1
102
RTVSPost2010Prop48
 90
       50
102
RTVSPost2010PropOp48
 70
     1
102
RTVSPost2010Prop49
280
     0
102
RTVSPost2010PropOp49
 70
     1
102
RTVSPost2010Prop50
 90
       50
102
RTVSPost2010PropOp50
 70
     1
102
RTVSPost2010Prop51ColorIndex
 90
      256
102
RTVSPost2010Prop51ColorRGB
 90
-16777216
102
RTVSPost2010PropOp51
 70
     0
102
RTVSPost2010Prop52
140
1.0
102
RTVSPost2010PropOp52
 70
     0
102
RTVSPost2010Prop53
 90
        2
102
RTVSPost2010PropOp53
 70
     1
102
RTVSPost2010Prop54
  1
strokes_ogs.tif
102
RTVSPost2010PropOp54
 70
     1
102
RTVSPost2010Prop55
280
     0
102
RTVSPost2010PropOp55
 70
     1
102
RTVSPost2010Prop56
140
1.0
102
RTVSPost2010PropOp56
 70
     1
102
RTVSPost2010Prop57
140
1.0
102
RTVSPost2010PropOp57
 70
     1
  0
XRECORD
  5
4F2
102
{ACAD_REACTORS
330
4F1
102
}
330
4F1
100
AcDbXrecord
280
     1
102
RTVSPost2010Prop28
280
     0
102
RTVSPost2010PropOp28
 70
     0
102
RTVSPost2010Prop29
280
     1
102
RTVSPost2010PropOp29
 70
     0
102
RTVSPost2010Prop30
280
     1
102
RTVSPost2010PropOp30
 70
     0
102
RTVSPost2010Prop31
280
     0
102
RTVSPost2010PropOp31
 70
     0
102
RTVSPost2010Prop32
280
     0
102
RTVSPost2010PropOp32
 70
     0
102
RTVSPost2010Prop33
280
     0
102
RTVSPost2010PropOp33
 70
     0
102
RTVSPost2010Prop34
280
     0
102
RTVSPost2010PropOp34
 70
     0
102
RTVSPost2010Prop35
280
     0
102
RTVSPost2010PropOp35
 70
     0
102
RTVSPost2010Prop36
280
     0
102
RTVSPost2010PropOp36
 70
     0
102
RTVSPost2010Prop37
 90
       50
102
RTVSPost2010PropOp37
 70
     0
102
RTVSPost2010Prop38
140
0.0
102
RTVSPost2010PropOp38
 70
     0
102
RTVSPost2010Prop39
140
1.0
102
RTVSPost2010PropOp39
 70
     0
102
RTVSPost2010Prop40
 90
        0
102
RTVSPost2010PropOp40
 70
     0
102
RTVSPost2010Prop41ColorIndex
 90
       18
102
RTVSPost2010Prop41ColorRGB
 90
        0
102
RTVSPost2010PropOp41
 70
     0
102
RTVSPost2010Prop42
 90
       50
102
RTVSPost2010PropOp42
 70
     0
102
RTVSPost2010Prop43
 90
        3
102
RTVSPost2010PropOp43
 70
     0
102
RTVSPost2010Prop44ColorIndex
 90
        5
102
RTVSPost2010Prop44ColorRGB
 90
      255
102
RTVSPost2010PropOp44
 70
     0
102
RTVSPost2010Prop45
280
     0
102
RTVSPost2010PropOp45
 70
     0
102
RTVSPost2010Prop46
 90
       50
102
RTVSPost2010PropOp46
 70
     0
102
RTVSPost2010Prop47
 90
       50
102
RTVSPost2010PropOp47
 70
     0
102
RTVSPost2010Prop48
 90
       50
102
RTVSPost2010PropOp48
 70
     0
102
RTVSPost2010Prop49
280
     0
102
RTVSPost2010PropOp49
 70
     0
102
RTVSPost2010Prop50
 90
       50
102
RTVSPost2010PropOp50
 70
     0
102
RTVSPost2010Prop51ColorIndex
 90
      256
102
RTVSPost2010Prop51ColorRGB
 90
-16777216
102
RTVSPost2010PropOp51
 70
     0
102
RTVSPost2010Prop52
140
1.0
102
RTVSPost2010PropOp52
 70
     0
102
RTVSPost2010Prop53
 90
        2
102
RTVSPost2010PropOp53
 70
     0
102
RTVSPost2010Prop54
  1
strokes_ogs.tif
102
RTVSPost2010PropOp54
 70
     0
102
RTVSPost2010Prop55
280
     0
102
RTVSPost2010PropOp55
 70
     0
102
RTVSPost2010Prop56
140
1.0
102
RTVSPost2010PropOp56
 70
     0
102
RTVSPost2010Prop57
140
1.0
102
RTVSPost2010PropOp57
 70
     0
  0
XRECORD
  5
4EA
102
{ACAD_REACTORS
330
4E9
102
}
330
4E9
100
AcDbXrecord
280
     1
102
RTVSPost2010Prop28
280
     0
102
RTVSPost2010PropOp28
 70
     1
102
RTVSPost2010Prop29
280
     1
102
RTVSPost2010PropOp29
 70
     1
102
RTVSPost2010Prop30
280
     1
102
RTVSPost2010PropOp30
 70
     1
102
RTVSPost2010Prop31
280
     0
102
RTVSPost2010PropOp31
 70
     1
102
RTVSPost2010Prop32
280
     0
102
RTVSPost2010PropOp32
 70
     1
102
RTVSPost2010Prop33
280
     0
102
RTVSPost2010PropOp33
 70
     1
102
RTVSPost2010Prop34
280
     0
102
RTVSPost2010PropOp34
 70
     1
102
RTVSPost2010Prop35
280
     0
102
RTVSPost2010PropOp35
 70
     1
102
RTVSPost2010Prop36
280
     0
102
RTVSPost2010PropOp36
 70
     1
102
RTVSPost2010Prop37
 90
       50
102
RTVSPost2010PropOp37
 70
     1
102
RTVSPost2010Prop38
140
0.0
102
RTVSPost2010PropOp38
 70
     1
102
RTVSPost2010Prop39
140
1.0
102
RTVSPost2010PropOp39
 70
     1
102
RTVSPost2010Prop40
 90
        0
102
RTVSPost2010PropOp40
 70
     1
102
RTVSPost2010Prop41ColorIndex
 90
       18
102
RTVSPost2010Prop41ColorRGB
 90
        0
102
RTVSPost2010PropOp41
 70
     1
102
RTVSPost2010Prop42
 90
       50
102
RTVSPost2010PropOp42
 70
     1
102
RTVSPost2010Prop43
 90
        3
102
RTVSPost2010PropOp43
 70
     1
102
RTVSPost2010Prop44ColorIndex
 90
        5
102
RTVSPost2010Prop44ColorRGB
 90
      255
102
RTVSPost2010PropOp44
 70
     1
102
RTVSPost2010Prop45
280
     0
102
RTVSPost2010PropOp45
 70
     1
102
RTVSPost2010Prop46
 90
       50
102
RTVSPost2010PropOp46
 70
     1
102
RTVSPost2010Prop47
 90
       50
102
RTVSPost2010PropOp47
 70
     1
102
RTVSPost2010Prop48
 90
       50
102
RTVSPost2010PropOp48
 70
     1
102
RTVSPost2010Prop49
280
     0
102
RTVSPost2010PropOp49
 70
     1
102
RTVSPost2010Prop50
 90
       50
102
RTVSPost2010PropOp50
 70
     1
102
RTVSPost2010Prop51ColorIndex
 90
      256
102
RTVSPost2010Prop51ColorRGB
 90
-16777216
102
RTVSPost2010PropOp51
 70
     0
102
RTVSPost2010Prop52
140
1.0
102
RTVSPost2010PropOp52
 70
     0
102
RTVSPost2010Prop53
 90
        2
102
RTVSPost2010PropOp53
 70
     1
102
RTVSPost2010Prop54
  1
strokes_ogs.tif
102
RTVSPost2010PropOp54
 70
     1
102
RTVSPost2010Prop55
280
     0
102
RTVSPost2010PropOp55
 70
     1
102
RTVSPost2010Prop56
140
1.0
102
RTVSPost2010PropOp56
 70
     1
102
RTVSPost2010Prop57
140
1.0
102
RTVSPost2010PropOp57
 70
     1
  0
XRECORD
  5
4CE
102
{ACAD_REACTORS
330
4CD
102
}
330
4CD
100
AcDbXrecord
280
     1
102
RTVSPost2010Prop28
280
     0
102
RTVSPost2010PropOp28
 70
     1
102
RTVSPost2010Prop29
280
     1
102
RTVSPost2010PropOp29
 70
     1
102
RTVSPost2010Prop30
280
     1
102
RTVSPost2010PropOp30
 70
     1
102
RTVSPost2010Prop31
280
     0
102
RTVSPost2010PropOp31
 70
     1
102
RTVSPost2010Prop32
280
     0
102
RTVSPost2010PropOp32
 70
     1
102
RTVSPost2010Prop33
280
     0
102
RTVSPost2010PropOp33
 70
     1
102
RTVSPost2010Prop34
280
     0
102
RTVSPost2010PropOp34
 70
     1
102
RTVSPost2010Prop35
280
     0
102
RTVSPost2010PropOp35
 70
     1
102
RTVSPost2010Prop36
280
     0
102
RTVSPost2010PropOp36
 70
     1
102
RTVSPost2010Prop37
 90
       50
102
RTVSPost2010PropOp37
 70
     1
102
RTVSPost2010Prop38
140
0.0
102
RTVSPost2010PropOp38
 70
     1
102
RTVSPost2010Prop39
140
1.0
102
RTVSPost2010PropOp39
 70
     1
102
RTVSPost2010Prop40
 90
        0
102
RTVSPost2010PropOp40
 70
     1
102
RTVSPost2010Prop41ColorIndex
 90
       18
102
RTVSPost2010Prop41ColorRGB
 90
        0
102
RTVSPost2010PropOp41
 70
     1
102
RTVSPost2010Prop42
 90
       50
102
RTVSPost2010PropOp42
 70
     1
102
RTVSPost2010Prop43
 90
        3
102
RTVSPost2010PropOp43
 70
     1
102
RTVSPost2010Prop44ColorIndex
 90
        5
102
RTVSPost2010Prop44ColorRGB
 90
      255
102
RTVSPost2010PropOp44
 70
     1
102
RTVSPost2010Prop45
280
     0
102
RTVSPost2010PropOp45
 70
     1
102
RTVSPost2010Prop46
 90
       50
102
RTVSPost2010PropOp46
 70
     1
102
RTVSPost2010Prop47
 90
       50
102
RTVSPost2010PropOp47
 70
     1
102
RTVSPost2010Prop48
 90
       50
102
RTVSPost2010PropOp48
 70
     1
102
RTVSPost2010Prop49
280
     0
102
RTVSPost2010PropOp49
 70
     1
102
RTVSPost2010Prop50
 90
       50
102
RTVSPost2010PropOp50
 70
     1
102
RTVSPost2010Prop51ColorIndex
 90
      256
102
RTVSPost2010Prop51ColorRGB
 90
-16777216
102
RTVSPost2010PropOp51
 70
     0
102
RTVSPost2010Prop52
140
1.0
102
RTVSPost2010PropOp52
 70
     0
102
RTVSPost2010Prop53
 90
        2
102
RTVSPost2010PropOp53
 70
     1
102
RTVSPost2010Prop54
  1
strokes_ogs.tif
102
RTVSPost2010PropOp54
 70
     1
102
RTVSPost2010Prop55
280
     0
102
RTVSPost2010PropOp55
 70
     1
102
RTVSPost2010Prop56
140
1.0
102
RTVSPost2010PropOp56
 70
     1
102
RTVSPost2010Prop57
140
1.0
102
RTVSPost2010PropOp57
 70
     1
  0
XRECORD
  5
4D0
102
{ACAD_REACTORS
330
4CF
102
}
330
4CF
100
AcDbXrecord
280
     1
102
RTVSPost2010Prop28
280
     0
102
RTVSPost2010PropOp28
 70
     1
102
RTVSPost2010Prop29
280
     1
102
RTVSPost2010PropOp29
 70
     1
102
RTVSPost2010Prop30
280
     1
102
RTVSPost2010PropOp30
 70
     1
102
RTVSPost2010Prop31
280
     0
102
RTVSPost2010PropOp31
 70
     1
102
RTVSPost2010Prop32
280
     0
102
RTVSPost2010PropOp32
 70
     1
102
RTVSPost2010Prop33
280
     0
102
RTVSPost2010PropOp33
 70
     1
102
RTVSPost2010Prop34
280
     0
102
RTVSPost2010PropOp34
 70
     1
102
RTVSPost2010Prop35
280
     0
102
RTVSPost2010PropOp35
 70
     1
102
RTVSPost2010Prop36
280
     0
102
RTVSPost2010PropOp36
 70
     1
102
RTVSPost2010Prop37
 90
       50
102
RTVSPost2010PropOp37
 70
     1
102
RTVSPost2010Prop38
140
0.0
102
RTVSPost2010PropOp38
 70
     1
102
RTVSPost2010Prop39
140
1.0
102
RTVSPost2010PropOp39
 70
     1
102
RTVSPost2010Prop40
 90
        0
102
RTVSPost2010PropOp40
 70
     1
102
RTVSPost2010Prop41ColorIndex
 90
       18
102
RTVSPost2010Prop41ColorRGB
 90
        0
102
RTVSPost2010PropOp41
 70
     1
102
RTVSPost2010Prop42
 90
       50
102
RTVSPost2010PropOp42
 70
     1
102
RTVSPost2010Prop43
 90
        3
102
RTVSPost2010PropOp43
 70
     1
102
RTVSPost2010Prop44ColorIndex
 90
        5
102
RTVSPost2010Prop44ColorRGB
 90
      255
102
RTVSPost2010PropOp44
 70
     1
102
RTVSPost2010Prop45
280
     0
102
RTVSPost2010PropOp45
 70
     1
102
RTVSPost2010Prop46
 90
       50
102
RTVSPost2010PropOp46
 70
     1
102
RTVSPost2010Prop47
 90
       50
102
RTVSPost2010PropOp47
 70
     1
102
RTVSPost2010Prop48
 90
       50
102
RTVSPost2010PropOp48
 70
     1
102
RTVSPost2010Prop49
280
     0
102
RTVSPost2010PropOp49
 70
     1
102
RTVSPost2010Prop50
 90
       50
102
RTVSPost2010PropOp50
 70
     1
102
RTVSPost2010Prop51ColorIndex
 90
      256
102
RTVSPost2010Prop51ColorRGB
 90
-16777216
102
RTVSPost2010PropOp51
 70
     0
102
RTVSPost2010Prop52
140
1.0
102
RTVSPost2010PropOp52
 70
     0
102
RTVSPost2010Prop53
 90
        2
102
RTVSPost2010PropOp53
 70
     1
102
RTVSPost2010Prop54
  1
strokes_ogs.tif
102
RTVSPost2010PropOp54
 70
     1
102
RTVSPost2010Prop55
280
     0
102
RTVSPost2010PropOp55
 70
     1
102
RTVSPost2010Prop56
140
1.0
102
RTVSPost2010PropOp56
 70
     1
102
RTVSPost2010Prop57
140
1.0
102
RTVSPost2010PropOp57
 70
     1
  0
XRECORD
  5
4D2
102
{ACAD_REACTORS
330
4D1
102
}
330
4D1
100
AcDbXrecord
280
     1
102
RTVSPost2010Prop28
280
     0
102
RTVSPost2010PropOp28
 70
     1
102
RTVSPost2010Prop29
280
     1
102
RTVSPost2010PropOp29
 70
     1
102
RTVSPost2010Prop30
280
     1
102
RTVSPost2010PropOp30
 70
     1
102
RTVSPost2010Prop31
280
     0
102
RTVSPost2010PropOp31
 70
     1
102
RTVSPost2010Prop32
280
     0
102
RTVSPost2010PropOp32
 70
     1
102
RTVSPost2010Prop33
280
     0
102
RTVSPost2010PropOp33
 70
     1
102
RTVSPost2010Prop34
280
     0
102
RTVSPost2010PropOp34
 70
     1
102
RTVSPost2010Prop35
280
     0
102
RTVSPost2010PropOp35
 70
     1
102
RTVSPost2010Prop36
280
     0
102
RTVSPost2010PropOp36
 70
     1
102
RTVSPost2010Prop37
 90
       50
102
RTVSPost2010PropOp37
 70
     1
102
RTVSPost2010Prop38
140
0.0
102
RTVSPost2010PropOp38
 70
     1
102
RTVSPost2010Prop39
140
1.0
102
RTVSPost2010PropOp39
 70
     1
102
RTVSPost2010Prop40
 90
        0
102
RTVSPost2010PropOp40
 70
     1
102
RTVSPost2010Prop41ColorIndex
 90
       18
102
RTVSPost2010Prop41ColorRGB
 90
        0
102
RTVSPost2010PropOp41
 70
     1
102
RTVSPost2010Prop42
 90
       50
102
RTVSPost2010PropOp42
 70
     1
102
RTVSPost2010Prop43
 90
        3
102
RTVSPost2010PropOp43
 70
     1
102
RTVSPost2010Prop44ColorIndex
 90
        5
102
RTVSPost2010Prop44ColorRGB
 90
      255
102
RTVSPost2010PropOp44
 70
     1
102
RTVSPost2010Prop45
280
     0
102
RTVSPost2010PropOp45
 70
     1
102
RTVSPost2010Prop46
 90
       50
102
RTVSPost2010PropOp46
 70
     1
102
RTVSPost2010Prop47
 90
       50
102
RTVSPost2010PropOp47
 70
     1
102
RTVSPost2010Prop48
 90
       50
102
RTVSPost2010PropOp48
 70
     1
102
RTVSPost2010Prop49
280
     0
102
RTVSPost2010PropOp49
 70
     1
102
RTVSPost2010Prop50
 90
       50
102
RTVSPost2010PropOp50
 70
     1
102
RTVSPost2010Prop51ColorIndex
 90
      256
102
RTVSPost2010Prop51ColorRGB
 90
-16777216
102
RTVSPost2010PropOp51
 70
     0
102
RTVSPost2010Prop52
140
1.0
102
RTVSPost2010PropOp52
 70
     0
102
RTVSPost2010Prop53
 90
        2
102
RTVSPost2010PropOp53
 70
     1
102
RTVSPost2010Prop54
  1
strokes_ogs.tif
102
RTVSPost2010PropOp54
 70
     1
102
RTVSPost2010Prop55
280
     0
102
RTVSPost2010PropOp55
 70
     1
102
RTVSPost2010Prop56
140
1.0
102
RTVSPost2010PropOp56
 70
     1
102
RTVSPost2010Prop57
140
1.0
102
RTVSPost2010PropOp57
 70
     1
  0
XRECORD
  5
4D4
102
{ACAD_REACTORS
330
4D3
102
}
330
4D3
100
AcDbXrecord
280
     1
102
RTVSPost2010Prop28
280
     0
102
RTVSPost2010PropOp28
 70
     1
102
RTVSPost2010Prop29
280
     1
102
RTVSPost2010PropOp29
 70
     1
102
RTVSPost2010Prop30
280
     1
102
RTVSPost2010PropOp30
 70
     1
102
RTVSPost2010Prop31
280
     0
102
RTVSPost2010PropOp31
 70
     1
102
RTVSPost2010Prop32
280
     0
102
RTVSPost2010PropOp32
 70
     1
102
RTVSPost2010Prop33
280
     0
102
RTVSPost2010PropOp33
 70
     1
102
RTVSPost2010Prop34
280
     0
102
RTVSPost2010PropOp34
 70
     1
102
RTVSPost2010Prop35
280
     0
102
RTVSPost2010PropOp35
 70
     1
102
RTVSPost2010Prop36
280
     0
102
RTVSPost2010PropOp36
 70
     1
102
RTVSPost2010Prop37
 90
       50
102
RTVSPost2010PropOp37
 70
     1
102
RTVSPost2010Prop38
140
0.0
102
RTVSPost2010PropOp38
 70
     1
102
RTVSPost2010Prop39
140
1.0
102
RTVSPost2010PropOp39
 70
     1
102
RTVSPost2010Prop40
 90
        0
102
RTVSPost2010PropOp40
 70
     1
102
RTVSPost2010Prop41ColorIndex
 90
       18
102
RTVSPost2010Prop41ColorRGB
 90
        0
102
RTVSPost2010PropOp41
 70
     1
102
RTVSPost2010Prop42
 90
       50
102
RTVSPost2010PropOp42
 70
     1
102
RTVSPost2010Prop43
 90
        3
102
RTVSPost2010PropOp43
 70
     1
102
RTVSPost2010Prop44ColorIndex
 90
        5
102
RTVSPost2010Prop44ColorRGB
 90
      255
102
RTVSPost2010PropOp44
 70
     1
102
RTVSPost2010Prop45
280
     0
102
RTVSPost2010PropOp45
 70
     1
102
RTVSPost2010Prop46
 90
       50
102
RTVSPost2010PropOp46
 70
     1
102
RTVSPost2010Prop47
 90
       50
102
RTVSPost2010PropOp47
 70
     1
102
RTVSPost2010Prop48
 90
       50
102
RTVSPost2010PropOp48
 70
     1
102
RTVSPost2010Prop49
280
     0
102
RTVSPost2010PropOp49
 70
     1
102
RTVSPost2010Prop50
 90
       50
102
RTVSPost2010PropOp50
 70
     1
102
RTVSPost2010Prop51ColorIndex
 90
      256
102
RTVSPost2010Prop51ColorRGB
 90
-16777216
102
RTVSPost2010PropOp51
 70
     0
102
RTVSPost2010Prop52
140
1.0
102
RTVSPost2010PropOp52
 70
     0
102
RTVSPost2010Prop53
 90
        2
102
RTVSPost2010PropOp53
 70
     1
102
RTVSPost2010Prop54
  1
strokes_ogs.tif
102
RTVSPost2010PropOp54
 70
     1
102
RTVSPost2010Prop55
280
     0
102
RTVSPost2010PropOp55
 70
     1
102
RTVSPost2010Prop56
140
1.0
102
RTVSPost2010PropOp56
 70
     1
102
RTVSPost2010Prop57
140
1.0
102
RTVSPost2010PropOp57
 70
     1
  0
XRECORD
  5
4DA
102
{ACAD_REACTORS
330
4D9
102
}
330
4D9
100
AcDbXrecord
280
     1
102
RTVSPost2010Prop28
280
     0
102
RTVSPost2010PropOp28
 70
     1
102
RTVSPost2010Prop29
280
     1
102
RTVSPost2010PropOp29
 70
     1
102
RTVSPost2010Prop30
280
     1
102
RTVSPost2010PropOp30
 70
     1
102
RTVSPost2010Prop31
280
     0
102
RTVSPost2010PropOp31
 70
     1
102
RTVSPost2010Prop32
280
     0
102
RTVSPost2010PropOp32
 70
     1
102
RTVSPost2010Prop33
280
     0
102
RTVSPost2010PropOp33
 70
     1
102
RTVSPost2010Prop34
280
     0
102
RTVSPost2010PropOp34
 70
     1
102
RTVSPost2010Prop35
280
     0
102
RTVSPost2010PropOp35
 70
     1
102
RTVSPost2010Prop36
280
     0
102
RTVSPost2010PropOp36
 70
     1
102
RTVSPost2010Prop37
 90
       50
102
RTVSPost2010PropOp37
 70
     1
102
RTVSPost2010Prop38
140
0.0
102
RTVSPost2010PropOp38
 70
     1
102
RTVSPost2010Prop39
140
1.0
102
RTVSPost2010PropOp39
 70
     1
102
RTVSPost2010Prop40
 90
        0
102
RTVSPost2010PropOp40
 70
     1
102
RTVSPost2010Prop41ColorIndex
 90
       18
102
RTVSPost2010Prop41ColorRGB
 90
        0
102
RTVSPost2010PropOp41
 70
     1
102
RTVSPost2010Prop42
 90
       50
102
RTVSPost2010PropOp42
 70
     1
102
RTVSPost2010Prop43
 90
        3
102
RTVSPost2010PropOp43
 70
     1
102
RTVSPost2010Prop44ColorIndex
 90
        5
102
RTVSPost2010Prop44ColorRGB
 90
      255
102
RTVSPost2010PropOp44
 70
     1
102
RTVSPost2010Prop45
280
     0
102
RTVSPost2010PropOp45
 70
     1
102
RTVSPost2010Prop46
 90
       50
102
RTVSPost2010PropOp46
 70
     1
102
RTVSPost2010Prop47
 90
       50
102
RTVSPost2010PropOp47
 70
     1
102
RTVSPost2010Prop48
 90
       50
102
RTVSPost2010PropOp48
 70
     1
102
RTVSPost2010Prop49
280
     0
102
RTVSPost2010PropOp49
 70
     1
102
RTVSPost2010Prop50
 90
       50
102
RTVSPost2010PropOp50
 70
     1
102
RTVSPost2010Prop51ColorIndex
 90
      256
102
RTVSPost2010Prop51ColorRGB
 90
-16777216
102
RTVSPost2010PropOp51
 70
     0
102
RTVSPost2010Prop52
140
1.0
102
RTVSPost2010PropOp52
 70
     0
102
RTVSPost2010Prop53
 90
        2
102
RTVSPost2010PropOp53
 70
     1
102
RTVSPost2010Prop54
  1
strokes_ogs.tif
102
RTVSPost2010PropOp54
 70
     1
102
RTVSPost2010Prop55
280
     0
102
RTVSPost2010PropOp55
 70
     1
102
RTVSPost2010Prop56
140
1.0
102
RTVSPost2010PropOp56
 70
     1
102
RTVSPost2010Prop57
140
1.0
102
RTVSPost2010PropOp57
 70
     1
  0
XRECORD
  5
4EE
102
{ACAD_REACTORS
330
4ED
102
}
330
4ED
100
AcDbXrecord
280
     1
102
RTVSPost2010Prop28
280
     0
102
RTVSPost2010PropOp28
 70
     0
102
RTVSPost2010Prop29
280
     1
102
RTVSPost2010PropOp29
 70
     0
102
RTVSPost2010Prop30
280
     1
102
RTVSPost2010PropOp30
 70
     0
102
RTVSPost2010Prop31
280
     0
102
RTVSPost2010PropOp31
 70
     0
102
RTVSPost2010Prop32
280
     0
102
RTVSPost2010PropOp32
 70
     0
102
RTVSPost2010Prop33
280
     0
102
RTVSPost2010PropOp33
 70
     0
102
RTVSPost2010Prop34
280
     0
102
RTVSPost2010PropOp34
 70
     0
102
RTVSPost2010Prop35
280
     0
102
RTVSPost2010PropOp35
 70
     0
102
RTVSPost2010Prop36
280
     0
102
RTVSPost2010PropOp36
 70
     0
102
RTVSPost2010Prop37
 90
       50
102
RTVSPost2010PropOp37
 70
     0
102
RTVSPost2010Prop38
140
0.0
102
RTVSPost2010PropOp38
 70
     0
102
RTVSPost2010Prop39
140
1.0
102
RTVSPost2010PropOp39
 70
     0
102
RTVSPost2010Prop40
 90
        0
102
RTVSPost2010PropOp40
 70
     0
102
RTVSPost2010Prop41ColorIndex
 90
       18
102
RTVSPost2010Prop41ColorRGB
 90
        0
102
RTVSPost2010PropOp41
 70
     0
102
RTVSPost2010Prop42
 90
       50
102
RTVSPost2010PropOp42
 70
     0
102
RTVSPost2010Prop43
 90
        3
102
RTVSPost2010PropOp43
 70
     0
102
RTVSPost2010Prop44ColorIndex
 90
        5
102
RTVSPost2010Prop44ColorRGB
 90
      255
102
RTVSPost2010PropOp44
 70
     0
102
RTVSPost2010Prop45
280
     0
102
RTVSPost2010PropOp45
 70
     0
102
RTVSPost2010Prop46
 90
       50
102
RTVSPost2010PropOp46
 70
     0
102
RTVSPost2010Prop47
 90
       50
102
RTVSPost2010PropOp47
 70
     0
102
RTVSPost2010Prop48
 90
       50
102
RTVSPost2010PropOp48
 70
     0
102
RTVSPost2010Prop49
280
     0
102
RTVSPost2010PropOp49
 70
     0
102
RTVSPost2010Prop50
 90
       50
102
RTVSPost2010PropOp50
 70
     0
102
RTVSPost2010Prop51ColorIndex
 90
      256
102
RTVSPost2010Prop51ColorRGB
 90
-16777216
102
RTVSPost2010PropOp51
 70
     0
102
RTVSPost2010Prop52
140
1.0
102
RTVSPost2010PropOp52
 70
     0
102
RTVSPost2010Prop53
 90
        2
102
RTVSPost2010PropOp53
 70
     0
102
RTVSPost2010Prop54
  1
strokes_ogs.tif
102
RTVSPost2010PropOp54
 70
     0
102
RTVSPost2010Prop55
280
     0
102
RTVSPost2010PropOp55
 70
     0
102
RTVSPost2010Prop56
140
1.0
102
RTVSPost2010PropOp56
 70
     0
102
RTVSPost2010Prop57
140
1.0
102
RTVSPost2010PropOp57
 70
     0
  0
XRECORD
  5
4E8
102
{ACAD_REACTORS
330
4E7
102
}
330
4E7
100
AcDbXrecord
280
     1
102
RTVSPost2010Prop28
280
     0
102
RTVSPost2010PropOp28
 70
     1
102
RTVSPost2010Prop29
280
     1
102
RTVSPost2010PropOp29
 70
     1
102
RTVSPost2010Prop30
280
     1
102
RTVSPost2010PropOp30
 70
     1
102
RTVSPost2010Prop31
280
     0
102
RTVSPost2010PropOp31
 70
     1
102
RTVSPost2010Prop32
280
     0
102
RTVSPost2010PropOp32
 70
     1
102
RTVSPost2010Prop33
280
     0
102
RTVSPost2010PropOp33
 70
     1
102
RTVSPost2010Prop34
280
     0
102
RTVSPost2010PropOp34
 70
     1
102
RTVSPost2010Prop35
280
     0
102
RTVSPost2010PropOp35
 70
     1
102
RTVSPost2010Prop36
280
     0
102
RTVSPost2010PropOp36
 70
     1
102
RTVSPost2010Prop37
 90
       50
102
RTVSPost2010PropOp37
 70
     1
102
RTVSPost2010Prop38
140
0.0
102
RTVSPost2010PropOp38
 70
     1
102
RTVSPost2010Prop39
140
1.0
102
RTVSPost2010PropOp39
 70
     1
102
RTVSPost2010Prop40
 90
        0
102
RTVSPost2010PropOp40
 70
     1
102
RTVSPost2010Prop41ColorIndex
 90
       18
102
RTVSPost2010Prop41ColorRGB
 90
        0
102
RTVSPost2010PropOp41
 70
     1
102
RTVSPost2010Prop42
 90
       50
102
RTVSPost2010PropOp42
 70
     1
102
RTVSPost2010Prop43
 90
        3
102
RTVSPost2010PropOp43
 70
     1
102
RTVSPost2010Prop44ColorIndex
 90
        5
102
RTVSPost2010Prop44ColorRGB
 90
      255
102
RTVSPost2010PropOp44
 70
     1
102
RTVSPost2010Prop45
280
     0
102
RTVSPost2010PropOp45
 70
     1
102
RTVSPost2010Prop46
 90
       50
102
RTVSPost2010PropOp46
 70
     1
102
RTVSPost2010Prop47
 90
       50
102
RTVSPost2010PropOp47
 70
     1
102
RTVSPost2010Prop48
 90
       50
102
RTVSPost2010PropOp48
 70
     1
102
RTVSPost2010Prop49
280
     0
102
RTVSPost2010PropOp49
 70
     1
102
RTVSPost2010Prop50
 90
       50
102
RTVSPost2010PropOp50
 70
     1
102
RTVSPost2010Prop51ColorIndex
 90
      256
102
RTVSPost2010Prop51ColorRGB
 90
-16777216
102
RTVSPost2010PropOp51
 70
     0
102
RTVSPost2010Prop52
140
1.0
102
RTVSPost2010PropOp52
 70
     0
102
RTVSPost2010Prop53
 90
        2
102
RTVSPost2010PropOp53
 70
     1
102
RTVSPost2010Prop54
  1
strokes_ogs.tif
102
RTVSPost2010PropOp54
 70
     1
102
RTVSPost2010Prop55
280
     0
102
RTVSPost2010PropOp55
 70
     1
102
RTVSPost2010Prop56
140
1.0
102
RTVSPost2010PropOp56
 70
     1
102
RTVSPost2010Prop57
140
1.0
102
RTVSPost2010PropOp57
 70
     1
  0
XRECORD
  5
4F0
102
{ACAD_REACTORS
330
4EF
102
}
330
4EF
100
AcDbXrecord
280
     1
102
RTVSPost2010Prop28
280
     0
102
RTVSPost2010PropOp28
 70
     0
102
RTVSPost2010Prop29
280
     1
102
RTVSPost2010PropOp29
 70
     0
102
RTVSPost2010Prop30
280
     1
102
RTVSPost2010PropOp30
 70
     0
102
RTVSPost2010Prop31
280
     0
102
RTVSPost2010PropOp31
 70
     0
102
RTVSPost2010Prop32
280
     0
102
RTVSPost2010PropOp32
 70
     0
102
RTVSPost2010Prop33
280
     0
102
RTVSPost2010PropOp33
 70
     0
102
RTVSPost2010Prop34
280
     0
102
RTVSPost2010PropOp34
 70
     0
102
RTVSPost2010Prop35
280
     0
102
RTVSPost2010PropOp35
 70
     0
102
RTVSPost2010Prop36
280
     0
102
RTVSPost2010PropOp36
 70
     0
102
RTVSPost2010Prop37
 90
       50
102
RTVSPost2010PropOp37
 70
     0
102
RTVSPost2010Prop38
140
0.0
102
RTVSPost2010PropOp38
 70
     0
102
RTVSPost2010Prop39
140
1.0
102
RTVSPost2010PropOp39
 70
     0
102
RTVSPost2010Prop40
 90
        0
102
RTVSPost2010PropOp40
 70
     0
102
RTVSPost2010Prop41ColorIndex
 90
       18
102
RTVSPost2010Prop41ColorRGB
 90
        0
102
RTVSPost2010PropOp41
 70
     0
102
RTVSPost2010Prop42
 90
       50
102
RTVSPost2010PropOp42
 70
     0
102
RTVSPost2010Prop43
 90
        3
102
RTVSPost2010PropOp43
 70
     0
102
RTVSPost2010Prop44ColorIndex
 90
        5
102
RTVSPost2010Prop44ColorRGB
 90
      255
102
RTVSPost2010PropOp44
 70
     0
102
RTVSPost2010Prop45
280
     0
102
RTVSPost2010PropOp45
 70
     0
102
RTVSPost2010Prop46
 90
       50
102
RTVSPost2010PropOp46
 70
     0
102
RTVSPost2010Prop47
 90
       50
102
RTVSPost2010PropOp47
 70
     0
102
RTVSPost2010Prop48
 90
       50
102
RTVSPost2010PropOp48
 70
     0
102
RTVSPost2010Prop49
280
     0
102
RTVSPost2010PropOp49
 70
     0
102
RTVSPost2010Prop50
 90
       50
102
RTVSPost2010PropOp50
 70
     0
102
RTVSPost2010Prop51ColorIndex
 90
      256
102
RTVSPost2010Prop51ColorRGB
 90
-16777216
102
RTVSPost2010PropOp51
 70
     0
102
RTVSPost2010Prop52
140
1.0
102
RTVSPost2010PropOp52
 70
     0
102
RTVSPost2010Prop53
 90
        2
102
RTVSPost2010PropOp53
 70
     0
102
RTVSPost2010Prop54
  1
strokes_ogs.tif
102
RTVSPost2010PropOp54
 70
     0
102
RTVSPost2010Prop55
280
     0
102
RTVSPost2010PropOp55
 70
     0
102
RTVSPost2010Prop56
140
1.0
102
RTVSPost2010PropOp56
 70
     0
102
RTVSPost2010Prop57
140
1.0
102
RTVSPost2010PropOp57
 70
     0
  0
XRECORD
  5
4DE
102
{ACAD_REACTORS
330
4DD
102
}
330
4DD
100
AcDbXrecord
280
     1
102
RTVSPost2010Prop28
280
     0
102
RTVSPost2010PropOp28
 70
     1
102
RTVSPost2010Prop29
280
     1
102
RTVSPost2010PropOp29
 70
     1
102
RTVSPost2010Prop30
280
     1
102
RTVSPost2010PropOp30
 70
     1
102
RTVSPost2010Prop31
280
     0
102
RTVSPost2010PropOp31
 70
     1
102
RTVSPost2010Prop32
280
     0
102
RTVSPost2010PropOp32
 70
     1
102
RTVSPost2010Prop33
280
     0
102
RTVSPost2010PropOp33
 70
     1
102
RTVSPost2010Prop34
280
     0
102
RTVSPost2010PropOp34
 70
     1
102
RTVSPost2010Prop35
280
     0
102
RTVSPost2010PropOp35
 70
     1
102
RTVSPost2010Prop36
280
     0
102
RTVSPost2010PropOp36
 70
     1
102
RTVSPost2010Prop37
 90
       50
102
RTVSPost2010PropOp37
 70
     1
102
RTVSPost2010Prop38
140
0.0
102
RTVSPost2010PropOp38
 70
     1
102
RTVSPost2010Prop39
140
1.0
102
RTVSPost2010PropOp39
 70
     1
102
RTVSPost2010Prop40
 90
        0
102
RTVSPost2010PropOp40
 70
     1
102
RTVSPost2010Prop41ColorIndex
 90
       18
102
RTVSPost2010Prop41ColorRGB
 90
        0
102
RTVSPost2010PropOp41
 70
     1
102
RTVSPost2010Prop42
 90
       50
102
RTVSPost2010PropOp42
 70
     1
102
RTVSPost2010Prop43
 90
        3
102
RTVSPost2010PropOp43
 70
     1
102
RTVSPost2010Prop44ColorIndex
 90
        5
102
RTVSPost2010Prop44ColorRGB
 90
      255
102
RTVSPost2010PropOp44
 70
     1
102
RTVSPost2010Prop45
280
     0
102
RTVSPost2010PropOp45
 70
     1
102
RTVSPost2010Prop46
 90
       50
102
RTVSPost2010PropOp46
 70
     1
102
RTVSPost2010Prop47
 90
       50
102
RTVSPost2010PropOp47
 70
     1
102
RTVSPost2010Prop48
 90
       50
102
RTVSPost2010PropOp48
 70
     1
102
RTVSPost2010Prop49
280
     0
102
RTVSPost2010PropOp49
 70
     1
102
RTVSPost2010Prop50
 90
       50
102
RTVSPost2010PropOp50
 70
     1
102
RTVSPost2010Prop51ColorIndex
 90
      256
102
RTVSPost2010Prop51ColorRGB
 90
-16777216
102
RTVSPost2010PropOp51
 70
     0
102
RTVSPost2010Prop52
140
1.0
102
RTVSPost2010PropOp52
 70
     0
102
RTVSPost2010Prop53
 90
        2
102
RTVSPost2010PropOp53
 70
     1
102
RTVSPost2010Prop54
  1
strokes_ogs.tif
102
RTVSPost2010PropOp54
 70
     1
102
RTVSPost2010Prop55
280
     0
102
RTVSPost2010PropOp55
 70
     1
102
RTVSPost2010Prop56
140
1.0
102
RTVSPost2010PropOp56
 70
     1
102
RTVSPost2010Prop57
140
1.0
102
RTVSPost2010PropOp57
 70
     1
  0
XRECORD
  5
4FC
102
{ACAD_REACTORS
330
4FB
102
}
330
4FB
100
AcDbXrecord
280
     1
102
RTVSPost2010Prop28
280
     0
102
RTVSPost2010PropOp28
 70
     1
102
RTVSPost2010Prop29
280
     1
102
RTVSPost2010PropOp29
 70
     1
102
RTVSPost2010Prop30
280
     1
102
RTVSPost2010PropOp30
 70
     1
102
RTVSPost2010Prop31
280
     0
102
RTVSPost2010PropOp31
 70
     1
102
RTVSPost2010Prop32
280
     0
102
RTVSPost2010PropOp32
 70
     1
102
RTVSPost2010Prop33
280
     0
102
RTVSPost2010PropOp33
 70
     1
102
RTVSPost2010Prop34
280
     0
102
RTVSPost2010PropOp34
 70
     1
102
RTVSPost2010Prop35
280
     0
102
RTVSPost2010PropOp35
 70
     1
102
RTVSPost2010Prop36
280
     0
102
RTVSPost2010PropOp36
 70
     1
102
RTVSPost2010Prop37
 90
       50
102
RTVSPost2010PropOp37
 70
     1
102
RTVSPost2010Prop38
140
0.0
102
RTVSPost2010PropOp38
 70
     1
102
RTVSPost2010Prop39
140
1.0
102
RTVSPost2010PropOp39
 70
     1
102
RTVSPost2010Prop40
 90
        0
102
RTVSPost2010PropOp40
 70
     1
102
RTVSPost2010Prop41ColorIndex
 90
       18
102
RTVSPost2010Prop41ColorRGB
 90
        0
102
RTVSPost2010PropOp41
 70
     1
102
RTVSPost2010Prop42
 90
       50
102
RTVSPost2010PropOp42
 70
     1
102
RTVSPost2010Prop43
 90
        3
102
RTVSPost2010PropOp43
 70
     1
102
RTVSPost2010Prop44ColorIndex
 90
        5
102
RTVSPost2010Prop44ColorRGB
 90
      255
102
RTVSPost2010PropOp44
 70
     1
102
RTVSPost2010Prop45
280
     0
102
RTVSPost2010PropOp45
 70
     1
102
RTVSPost2010Prop46
 90
       50
102
RTVSPost2010PropOp46
 70
     1
102
RTVSPost2010Prop47
 90
       50
102
RTVSPost2010PropOp47
 70
     1
102
RTVSPost2010Prop48
 90
       50
102
RTVSPost2010PropOp48
 70
     1
102
RTVSPost2010Prop49
280
     0
102
RTVSPost2010PropOp49
 70
     1
102
RTVSPost2010Prop50
 90
       50
102
RTVSPost2010PropOp50
 70
     1
102
RTVSPost2010Prop51ColorIndex
 90
      256
102
RTVSPost2010Prop51ColorRGB
 90
-16777216
102
RTVSPost2010PropOp51
 70
     0
102
RTVSPost2010Prop52
140
1.0
102
RTVSPost2010PropOp52
 70
     0
102
RTVSPost2010Prop53
 90
        2
102
RTVSPost2010PropOp53
 70
     1
102
RTVSPost2010Prop54
  1
strokes_ogs.tif
102
RTVSPost2010PropOp54
 70
     1
102
RTVSPost2010Prop55
280
     0
102
RTVSPost2010PropOp55
 70
     1
102
RTVSPost2010Prop56
140
1.0
102
RTVSPost2010PropOp56
 70
     1
102
RTVSPost2010Prop57
140
1.0
102
RTVSPost2010PropOp57
 70
     1
  0
XRECORD
  5
4FA
102
{ACAD_REACTORS
330
4F9
102
}
330
4F9
100
AcDbXrecord
280
     1
102
RTVSPost2010Prop28
280
     0
102
RTVSPost2010PropOp28
 70
     1
102
RTVSPost2010Prop29
280
     1
102
RTVSPost2010PropOp29
 70
     1
102
RTVSPost2010Prop30
280
     1
102
RTVSPost2010PropOp30
 70
     1
102
RTVSPost2010Prop31
280
     0
102
RTVSPost2010PropOp31
 70
     1
102
RTVSPost2010Prop32
280
     0
102
RTVSPost2010PropOp32
 70
     1
102
RTVSPost2010Prop33
280
     0
102
RTVSPost2010PropOp33
 70
     1
102
RTVSPost2010Prop34
280
     0
102
RTVSPost2010PropOp34
 70
     1
102
RTVSPost2010Prop35
280
     0
102
RTVSPost2010PropOp35
 70
     1
102
RTVSPost2010Prop36
280
     0
102
RTVSPost2010PropOp36
 70
     1
102
RTVSPost2010Prop37
 90
       50
102
RTVSPost2010PropOp37
 70
     1
102
RTVSPost2010Prop38
140
0.0
102
RTVSPost2010PropOp38
 70
     1
102
RTVSPost2010Prop39
140
1.0
102
RTVSPost2010PropOp39
 70
     1
102
RTVSPost2010Prop40
 90
        0
102
RTVSPost2010PropOp40
 70
     1
102
RTVSPost2010Prop41ColorIndex
 90
       18
102
RTVSPost2010Prop41ColorRGB
 90
        0
102
RTVSPost2010PropOp41
 70
     1
102
RTVSPost2010Prop42
 90
       50
102
RTVSPost2010PropOp42
 70
     1
102
RTVSPost2010Prop43
 90
        3
102
RTVSPost2010PropOp43
 70
     1
102
RTVSPost2010Prop44ColorIndex
 90
        5
102
RTVSPost2010Prop44ColorRGB
 90
      255
102
RTVSPost2010PropOp44
 70
     1
102
RTVSPost2010Prop45
280
     0
102
RTVSPost2010PropOp45
 70
     1
102
RTVSPost2010Prop46
 90
       50
102
RTVSPost2010PropOp46
 70
     1
102
RTVSPost2010Prop47
 90
       50
102
RTVSPost2010PropOp47
 70
     1
102
RTVSPost2010Prop48
 90
       50
102
RTVSPost2010PropOp48
 70
     1
102
RTVSPost2010Prop49
280
     0
102
RTVSPost2010PropOp49
 70
     1
102
RTVSPost2010Prop50
 90
       50
102
RTVSPost2010PropOp50
 70
     1
102
RTVSPost2010Prop51ColorIndex
 90
      256
102
RTVSPost2010Prop51ColorRGB
 90
-16777216
102
RTVSPost2010PropOp51
 70
     0
102
RTVSPost2010Prop52
140
1.0
102
RTVSPost2010PropOp52
 70
     0
102
RTVSPost2010Prop53
 90
        2
102
RTVSPost2010PropOp53
 70
     1
102
RTVSPost2010Prop54
  1
strokes_ogs.tif
102
RTVSPost2010PropOp54
 70
     1
102
RTVSPost2010Prop55
280
     0
102
RTVSPost2010PropOp55
 70
     1
102
RTVSPost2010Prop56
140
1.0
102
RTVSPost2010PropOp56
 70
     1
102
RTVSPost2010Prop57
140
1.0
102
RTVSPost2010PropOp57
 70
     1
  0
XRECORD
  5
4F4
102
{ACAD_REACTORS
330
4F3
102
}
330
4F3
100
AcDbXrecord
280
     1
102
RTVSPost2010Prop28
280
     0
102
RTVSPost2010PropOp28
 70
     1
102
RTVSPost2010Prop29
280
     1
102
RTVSPost2010PropOp29
 70
     1
102
RTVSPost2010Prop30
280
     1
102
RTVSPost2010PropOp30
 70
     1
102
RTVSPost2010Prop31
280
     0
102
RTVSPost2010PropOp31
 70
     1
102
RTVSPost2010Prop32
280
     0
102
RTVSPost2010PropOp32
 70
     1
102
RTVSPost2010Prop33
280
     0
102
RTVSPost2010PropOp33
 70
     1
102
RTVSPost2010Prop34
280
     0
102
RTVSPost2010PropOp34
 70
     1
102
RTVSPost2010Prop35
280
     0
102
RTVSPost2010PropOp35
 70
     1
102
RTVSPost2010Prop36
280
     0
102
RTVSPost2010PropOp36
 70
     1
102
RTVSPost2010Prop37
 90
       50
102
RTVSPost2010PropOp37
 70
     1
102
RTVSPost2010Prop38
140
0.0
102
RTVSPost2010PropOp38
 70
     1
102
RTVSPost2010Prop39
140
1.0
102
RTVSPost2010PropOp39
 70
     1
102
RTVSPost2010Prop40
 90
        0
102
RTVSPost2010PropOp40
 70
     1
102
RTVSPost2010Prop41ColorIndex
 90
       18
102
RTVSPost2010Prop41ColorRGB
 90
        0
102
RTVSPost2010PropOp41
 70
     1
102
RTVSPost2010Prop42
 90
       50
102
RTVSPost2010PropOp42
 70
     1
102
RTVSPost2010Prop43
 90
        3
102
RTVSPost2010PropOp43
 70
     1
102
RTVSPost2010Prop44ColorIndex
 90
        5
102
RTVSPost2010Prop44ColorRGB
 90
      255
102
RTVSPost2010PropOp44
 70
     1
102
RTVSPost2010Prop45
280
     0
102
RTVSPost2010PropOp45
 70
     1
102
RTVSPost2010Prop46
 90
       50
102
RTVSPost2010PropOp46
 70
     1
102
RTVSPost2010Prop47
 90
       50
102
RTVSPost2010PropOp47
 70
     1
102
RTVSPost2010Prop48
 90
       50
102
RTVSPost2010PropOp48
 70
     1
102
RTVSPost2010Prop49
280
     0
102
RTVSPost2010PropOp49
 70
     1
102
RTVSPost2010Prop50
 90
       50
102
RTVSPost2010PropOp50
 70
     1
102
RTVSPost2010Prop51ColorIndex
 90
      256
102
RTVSPost2010Prop51ColorRGB
 90
-16777216
102
RTVSPost2010PropOp51
 70
     0
102
RTVSPost2010Prop52
140
1.0
102
RTVSPost2010PropOp52
 70
     0
102
RTVSPost2010Prop53
 90
        2
102
RTVSPost2010PropOp53
 70
     1
102
RTVSPost2010Prop54
  1
strokes_ogs.tif
102
RTVSPost2010PropOp54
 70
     1
102
RTVSPost2010Prop55
280
     0
102
RTVSPost2010PropOp55
 70
     1
102
RTVSPost2010Prop56
140
1.0
102
RTVSPost2010PropOp56
 70
     1
102
RTVSPost2010Prop57
140
1.0
102
RTVSPost2010PropOp57
 70
     1
  0
XRECORD
  5
4F6
102
{ACAD_REACTORS
330
4F5
102
}
330
4F5
100
AcDbXrecord
280
     1
102
RTVSPost2010Prop28
280
     0
102
RTVSPost2010PropOp28
 70
     1
102
RTVSPost2010Prop29
280
     1
102
RTVSPost2010PropOp29
 70
     1
102
RTVSPost2010Prop30
280
     1
102
RTVSPost2010PropOp30
 70
     1
102
RTVSPost2010Prop31
280
     0
102
RTVSPost2010PropOp31
 70
     1
102
RTVSPost2010Prop32
280
     0
102
RTVSPost2010PropOp32
 70
     1
102
RTVSPost2010Prop33
280
     0
102
RTVSPost2010PropOp33
 70
     1
102
RTVSPost2010Prop34
280
     0
102
RTVSPost2010PropOp34
 70
     1
102
RTVSPost2010Prop35
280
     0
102
RTVSPost2010PropOp35
 70
     1
102
RTVSPost2010Prop36
280
     0
102
RTVSPost2010PropOp36
 70
     1
102
RTVSPost2010Prop37
 90
       50
102
RTVSPost2010PropOp37
 70
     1
102
RTVSPost2010Prop38
140
0.0
102
RTVSPost2010PropOp38
 70
     1
102
RTVSPost2010Prop39
140
1.0
102
RTVSPost2010PropOp39
 70
     1
102
RTVSPost2010Prop40
 90
        0
102
RTVSPost2010PropOp40
 70
     1
102
RTVSPost2010Prop41ColorIndex
 90
       18
102
RTVSPost2010Prop41ColorRGB
 90
        0
102
RTVSPost2010PropOp41
 70
     1
102
RTVSPost2010Prop42
 90
       50
102
RTVSPost2010PropOp42
 70
     1
102
RTVSPost2010Prop43
 90
        3
102
RTVSPost2010PropOp43
 70
     1
102
RTVSPost2010Prop44ColorIndex
 90
        5
102
RTVSPost2010Prop44ColorRGB
 90
      255
102
RTVSPost2010PropOp44
 70
     1
102
RTVSPost2010Prop45
280
     0
102
RTVSPost2010PropOp45
 70
     1
102
RTVSPost2010Prop46
 90
       50
102
RTVSPost2010PropOp46
 70
     1
102
RTVSPost2010Prop47
 90
       50
102
RTVSPost2010PropOp47
 70
     1
102
RTVSPost2010Prop48
 90
       50
102
RTVSPost2010PropOp48
 70
     1
102
RTVSPost2010Prop49
280
     0
102
RTVSPost2010PropOp49
 70
     1
102
RTVSPost2010Prop50
 90
       50
102
RTVSPost2010PropOp50
 70
     1
102
RTVSPost2010Prop51ColorIndex
 90
      256
102
RTVSPost2010Prop51ColorRGB
 90
-16777216
102
RTVSPost2010PropOp51
 70
     0
102
RTVSPost2010Prop52
140
1.0
102
RTVSPost2010PropOp52
 70
     0
102
RTVSPost2010Prop53
 90
        2
102
RTVSPost2010PropOp53
 70
     1
102
RTVSPost2010Prop54
  1
strokes_ogs.tif
102
RTVSPost2010PropOp54
 70
     1
102
RTVSPost2010Prop55
280
     0
102
RTVSPost2010PropOp55
 70
     1
102
RTVSPost2010Prop56
140
1.0
102
RTVSPost2010PropOp56
 70
     1
102
RTVSPost2010Prop57
140
1.0
102
RTVSPost2010PropOp57
 70
     1
  0
XRECORD
  5
4E6
102
{ACAD_REACTORS
330
4E5
102
}
330
4E5
100
AcDbXrecord
280
     1
102
RTVSPost2010Prop28
280
     0
102
RTVSPost2010PropOp28
 70
     1
102
RTVSPost2010Prop29
280
     1
102
RTVSPost2010PropOp29
 70
     1
102
RTVSPost2010Prop30
280
     1
102
RTVSPost2010PropOp30
 70
     1
102
RTVSPost2010Prop31
280
     0
102
RTVSPost2010PropOp31
 70
     1
102
RTVSPost2010Prop32
280
     0
102
RTVSPost2010PropOp32
 70
     1
102
RTVSPost2010Prop33
280
     0
102
RTVSPost2010PropOp33
 70
     1
102
RTVSPost2010Prop34
280
     0
102
RTVSPost2010PropOp34
 70
     1
102
RTVSPost2010Prop35
280
     0
102
RTVSPost2010PropOp35
 70
     1
102
RTVSPost2010Prop36
280
     0
102
RTVSPost2010PropOp36
 70
     1
102
RTVSPost2010Prop37
 90
       50
102
RTVSPost2010PropOp37
 70
     1
102
RTVSPost2010Prop38
140
0.0
102
RTVSPost2010PropOp38
 70
     1
102
RTVSPost2010Prop39
140
1.0
102
RTVSPost2010PropOp39
 70
     1
102
RTVSPost2010Prop40
 90
        0
102
RTVSPost2010PropOp40
 70
     1
102
RTVSPost2010Prop41ColorIndex
 90
       18
102
RTVSPost2010Prop41ColorRGB
 90
        0
102
RTVSPost2010PropOp41
 70
     1
102
RTVSPost2010Prop42
 90
       50
102
RTVSPost2010PropOp42
 70
     1
102
RTVSPost2010Prop43
 90
        3
102
RTVSPost2010PropOp43
 70
     1
102
RTVSPost2010Prop44ColorIndex
 90
        5
102
RTVSPost2010Prop44ColorRGB
 90
      255
102
RTVSPost2010PropOp44
 70
     1
102
RTVSPost2010Prop45
280
     0
102
RTVSPost2010PropOp45
 70
     1
102
RTVSPost2010Prop46
 90
       50
102
RTVSPost2010PropOp46
 70
     1
102
RTVSPost2010Prop47
 90
       50
102
RTVSPost2010PropOp47
 70
     1
102
RTVSPost2010Prop48
 90
       50
102
RTVSPost2010PropOp48
 70
     1
102
RTVSPost2010Prop49
280
     0
102
RTVSPost2010PropOp49
 70
     1
102
RTVSPost2010Prop50
 90
       50
102
RTVSPost2010PropOp50
 70
     1
102
RTVSPost2010Prop51ColorIndex
 90
      256
102
RTVSPost2010Prop51ColorRGB
 90
-16777216
102
RTVSPost2010PropOp51
 70
     0
102
RTVSPost2010Prop52
140
1.0
102
RTVSPost2010PropOp52
 70
     0
102
RTVSPost2010Prop53
 90
        2
102
RTVSPost2010PropOp53
 70
     1
102
RTVSPost2010Prop54
  1
strokes_ogs.tif
102
RTVSPost2010PropOp54
 70
     1
102
RTVSPost2010Prop55
280
     0
102
RTVSPost2010PropOp55
 70
     1
102
RTVSPost2010Prop56
140
1.0
102
RTVSPost2010PropOp56
 70
     1
102
RTVSPost2010Prop57
140
1.0
102
RTVSPost2010PropOp57
 70
     1
  0
XRECORD
  5
4D8
102
{ACAD_REACTORS
330
4D7
102
}
330
4D7
100
AcDbXrecord
280
     1
102
RTVSPost2010Prop28
280
     0
102
RTVSPost2010PropOp28
 70
     1
102
RTVSPost2010Prop29
280
     1
102
RTVSPost2010PropOp29
 70
     1
102
RTVSPost2010Prop30
280
     1
102
RTVSPost2010PropOp30
 70
     1
102
RTVSPost2010Prop31
280
     0
102
RTVSPost2010PropOp31
 70
     1
102
RTVSPost2010Prop32
280
     0
102
RTVSPost2010PropOp32
 70
     1
102
RTVSPost2010Prop33
280
     0
102
RTVSPost2010PropOp33
 70
     1
102
RTVSPost2010Prop34
280
     0
102
RTVSPost2010PropOp34
 70
     1
102
RTVSPost2010Prop35
280
     0
102
RTVSPost2010PropOp35
 70
     1
102
RTVSPost2010Prop36
280
     0
102
RTVSPost2010PropOp36
 70
     1
102
RTVSPost2010Prop37
 90
       50
102
RTVSPost2010PropOp37
 70
     1
102
RTVSPost2010Prop38
140
0.0
102
RTVSPost2010PropOp38
 70
     1
102
RTVSPost2010Prop39
140
1.0
102
RTVSPost2010PropOp39
 70
     1
102
RTVSPost2010Prop40
 90
        0
102
RTVSPost2010PropOp40
 70
     1
102
RTVSPost2010Prop41ColorIndex
 90
       18
102
RTVSPost2010Prop41ColorRGB
 90
        0
102
RTVSPost2010PropOp41
 70
     1
102
RTVSPost2010Prop42
 90
       50
102
RTVSPost2010PropOp42
 70
     1
102
RTVSPost2010Prop43
 90
        3
102
RTVSPost2010PropOp43
 70
     1
102
RTVSPost2010Prop44ColorIndex
 90
        5
102
RTVSPost2010Prop44ColorRGB
 90
      255
102
RTVSPost2010PropOp44
 70
     1
102
RTVSPost2010Prop45
280
     0
102
RTVSPost2010PropOp45
 70
     1
102
RTVSPost2010Prop46
 90
       50
102
RTVSPost2010PropOp46
 70
     1
102
RTVSPost2010Prop47
 90
       50
102
RTVSPost2010PropOp47
 70
     1
102
RTVSPost2010Prop48
 90
       50
102
RTVSPost2010PropOp48
 70
     1
102
RTVSPost2010Prop49
280
     0
102
RTVSPost2010PropOp49
 70
     1
102
RTVSPost2010Prop50
 90
       50
102
RTVSPost2010PropOp50
 70
     1
102
RTVSPost2010Prop51ColorIndex
 90
      256
102
RTVSPost2010Prop51ColorRGB
 90
-16777216
102
RTVSPost2010PropOp51
 70
     0
102
RTVSPost2010Prop52
140
1.0
102
RTVSPost2010PropOp52
 70
     0
102
RTVSPost2010Prop53
 90
        2
102
RTVSPost2010PropOp53
 70
     1
102
RTVSPost2010Prop54
  1
strokes_ogs.tif
102
RTVSPost2010PropOp54
 70
     1
102
RTVSPost2010Prop55
280
     0
102
RTVSPost2010PropOp55
 70
     1
102
RTVSPost2010Prop56
140
1.0
102
RTVSPost2010PropOp56
 70
     1
102
RTVSPost2010Prop57
140
1.0
102
RTVSPost2010PropOp57
 70
     1
  0
XRECORD
  5
4F8
102
{ACAD_REACTORS
330
4F7
102
}
330
4F7
100
AcDbXrecord
280
     1
102
RTVSPost2010Prop28
280
     0
102
RTVSPost2010PropOp28
 70
     1
102
RTVSPost2010Prop29
280
     1
102
RTVSPost2010PropOp29
 70
     1
102
RTVSPost2010Prop30
280
     1
102
RTVSPost2010PropOp30
 70
     1
102
RTVSPost2010Prop31
280
     0
102
RTVSPost2010PropOp31
 70
     1
102
RTVSPost2010Prop32
280
     0
102
RTVSPost2010PropOp32
 70
     1
102
RTVSPost2010Prop33
280
     0
102
RTVSPost2010PropOp33
 70
     1
102
RTVSPost2010Prop34
280
     0
102
RTVSPost2010PropOp34
 70
     1
102
RTVSPost2010Prop35
280
     0
102
RTVSPost2010PropOp35
 70
     1
102
RTVSPost2010Prop36
280
     0
102
RTVSPost2010PropOp36
 70
     1
102
RTVSPost2010Prop37
 90
       50
102
RTVSPost2010PropOp37
 70
     1
102
RTVSPost2010Prop38
140
0.0
102
RTVSPost2010PropOp38
 70
     1
102
RTVSPost2010Prop39
140
1.0
102
RTVSPost2010PropOp39
 70
     1
102
RTVSPost2010Prop40
 90
        0
102
RTVSPost2010PropOp40
 70
     1
102
RTVSPost2010Prop41ColorIndex
 90
       18
102
RTVSPost2010Prop41ColorRGB
 90
        0
102
RTVSPost2010PropOp41
 70
     1
102
RTVSPost2010Prop42
 90
       50
102
RTVSPost2010PropOp42
 70
     1
102
RTVSPost2010Prop43
 90
        3
102
RTVSPost2010PropOp43
 70
     1
102
RTVSPost2010Prop44ColorIndex
 90
        5
102
RTVSPost2010Prop44ColorRGB
 90
      255
102
RTVSPost2010PropOp44
 70
     1
102
RTVSPost2010Prop45
280
     0
102
RTVSPost2010PropOp45
 70
     1
102
RTVSPost2010Prop46
 90
       50
102
RTVSPost2010PropOp46
 70
     1
102
RTVSPost2010Prop47
 90
       50
102
RTVSPost2010PropOp47
 70
     1
102
RTVSPost2010Prop48
 90
       50
102
RTVSPost2010PropOp48
 70
     1
102
RTVSPost2010Prop49
280
     0
102
RTVSPost2010PropOp49
 70
     1
102
RTVSPost2010Prop50
 90
       50
102
RTVSPost2010PropOp50
 70
     1
102
RTVSPost2010Prop51ColorIndex
 90
      256
102
RTVSPost2010Prop51ColorRGB
 90
-16777216
102
RTVSPost2010PropOp51
 70
     0
102
RTVSPost2010Prop52
140
1.0
102
RTVSPost2010PropOp52
 70
     0
102
RTVSPost2010Prop53
 90
        2
102
RTVSPost2010PropOp53
 70
     1
102
RTVSPost2010Prop54
  1
strokes_ogs.tif
102
RTVSPost2010PropOp54
 70
     1
102
RTVSPost2010Prop55
280
     0
102
RTVSPost2010PropOp55
 70
     1
102
RTVSPost2010Prop56
140
1.0
102
RTVSPost2010PropOp56
 70
     1
102
RTVSPost2010Prop57
140
1.0
102
RTVSPost2010PropOp57
 70
     1
  0
ENDSEC
  0
EOF
