  0
SECTION
  2
HEADER
  9
$ACADVER
  1
AC1024
  9
$ACADMAINTVER
 70
     6
  9
$DWGCODEPAGE
  3
ANSI_932
  9
$INSBASE
 10
0.0
 20
0.0
 30
0.0
  9
$EXTMIN
 10
-21000.0
 20
-14850.0
 30
0.0
  9
$EXTMAX
 10
21000.0
 20
14850.0
 30
0.0
  9
$LIMMIN
 10
-21000.0
 20
-14850.0
  9
$LIMMAX
 10
21000.0
 20
14850.0
  9
$ORTHOMODE
 70
     0
  9
$REGENMODE
 70
     1
  9
$FILLMODE
 70
     1
  9
$QTEXTMODE
 70
     0
  9
$MIRRTEXT
 70
     1
  9
$LTSCALE
 40
100.0
  9
$ATTMODE
 70
     1
  9
$TEXTSIZE
 40
2.5
  9
$TRACEWID
 40
1.0
  9
$TEXTSTYLE
  7
Standard
  9
$CLAYER
  8
0
  9
$CELTYPE
  6
ByLayer
  9
$CECOLOR
 62
   256
  9
$CELTSCALE
 40
1.0
  9
$DISPSILH
 70
     0
  9
$DIMSCALE
 40
1.0
  9
$DIMASZ
 40
2.5
  9
$DIMEXO
 40
0.625
  9
$DIMDLI
 40
3.75
  9
$DIMRND
 40
0.0
  9
$DIMDLE
 40
0.0
  9
$DIMEXE
 40
1.25
  9
$DIMTP
 40
0.0
  9
$DIMTM
 40
0.0
  9
$DIMTXT
 40
2.5
  9
$DIMCEN
 40
2.5
  9
$DIMTSZ
 40
0.0
  9
$DIMTOL
 70
     0
  9
$DIMLIM
 70
     0
  9
$DIMTIH
 70
     0
  9
$DIMTOH
 70
     0
  9
$DIMSE1
 70
     0
  9
$DIMSE2
 70
     0
  9
$DIMTAD
 70
     1
  9
$DIMZIN
 70
     8
  9
$DIMBLK
  1

  9
$DIMASO
 70
     1
  9
$DIMSHO
 70
     1
  9
$DIMPOST
  1

  9
$DIMAPOST
  1

  9
$DIMALT
 70
     0
  9
$DIMALTD
 70
     3
  9
$DIMALTF
 40
0.03937007874016
  9
$DIMLFAC
 40
1.0
  9
$DIMTOFL
 70
     1
  9
$DIMTVP
 40
0.0
  9
$DIMTIX
 70
     0
  9
$DIMSOXD
 70
     0
  9
$DIMSAH
 70
     0
  9
$DIMBLK1
  1

  9
$DIMBLK2
  1

  9
$DIMSTYLE
  2
ISO-25
  9
$DIMCLRD
 70
     0
  9
$DIMCLRE
 70
     0
  9
$DIMCLRT
 70
     0
  9
$DIMTFAC
 40
1.0
  9
$DIMGAP
 40
0.625
  9
$DIMJUST
 70
     0
  9
$DIMSD1
 70
     0
  9
$DIMSD2
 70
     0
  9
$DIMTOLJ
 70
     0
  9
$DIMTZIN
 70
     8
  9
$DIMALTZ
 70
     0
  9
$DIMALTTZ
 70
     0
  9
$DIMUPT
 70
     0
  9
$DIMDEC
 70
     2
  9
$DIMTDEC
 70
     2
  9
$DIMALTU
 70
     2
  9
$DIMALTTD
 70
     3
  9
$DIMTXSTY
  7
Standard
  9
$DIMAUNIT
 70
     0
  9
$DIMADEC
 70
     0
  9
$DIMALTRND
 40
0.0
  9
$DIMAZIN
 70
     0
  9
$DIMDSEP
 70
    44
  9
$DIMATFIT
 70
     3
  9
$DIMFRAC
 70
     0
  9
$DIMLDRBLK
  1

  9
$DIMLUNIT
 70
     2
  9
$DIMLWD
 70
    -2
  9
$DIMLWE
 70
    -2
  9
$DIMTMOVE
 70
     0
  9
$DIMFXL
 40
1.0
  9
$DIMFXLON
 70
     0
  9
$DIMJOGANG
 40
0.7853981633974483
  9
$DIMTFILL
 70
     0
  9
$DIMTFILLCLR
 70
     0
  9
$DIMARCSYM
 70
     0
  9
$DIMLTYPE
  6

  9
$DIMLTEX1
  6

  9
$DIMLTEX2
  6

  9
$DIMTXTDIRECTION
 70
     0
  9
$LUNITS
 70
     2
  9
$LUPREC
 70
     4
  9
$SKETCHINC
 40
1.0
  9
$FILLETRAD
 40
10.0
  9
$AUNITS
 70
     0
  9
$AUPREC
 70
     0
  9
$MENU
  1
.
  9
$ELEVATION
 40
0.0
  9
$PELEVATION
 40
0.0
  9
$THICKNESS
 40
0.0
  9
$LIMCHECK
 70
     0
  9
$CHAMFERA
 40
0.0
  9
$CHAMFERB
 40
0.0
  9
$CHAMFERC
 40
0.0
  9
$CHAMFERD
 40
0.0
  9
$SKPOLY
 70
     0
  9
$TDCREATE
 40
2458155.656007118
  9
$TDUCREATE
 40
2458155.281007118
  9
$TDUPDATE
 40
2458155.656007292
  9
$TDUUPDATE
 40
2458155.281007292
  9
$TDINDWG
 40
0.0000000116
  9
$TDUSRTIMER
 40
0.0000000116
  9
$USRTIMER
 70
     1
  9
$ANGBASE
 50
0.0
  9
$ANGDIR
 70
     0
  9
$PDMODE
 70
     0
  9
$PDSIZE
 40
0.0
  9
$PLINEWID
 40
0.0
  9
$SPLFRAME
 70
     0
  9
$SPLINETYPE
 70
     6
  9
$SPLINESEGS
 70
     8
  9
$HANDSEED
  5
4B5
  9
$SURFTAB1
 70
     6
  9
$SURFTAB2
 70
     6
  9
$SURFTYPE
 70
     6
  9
$SURFU
 70
     6
  9
$SURFV
 70
     6
  9
$UCSBASE
  2

  9
$UCSNAME
  2

  9
$UCSORG
 10
0.0
 20
0.0
 30
0.0
  9
$UCSXDIR
 10
1.0
 20
0.0
 30
0.0
  9
$UCSYDIR
 10
0.0
 20
1.0
 30
0.0
  9
$UCSORTHOREF
  2

  9
$UCSORTHOVIEW
 70
     0
  9
$UCSORGTOP
 10
0.0
 20
0.0
 30
0.0
  9
$UCSORGBOTTOM
 10
0.0
 20
0.0
 30
0.0
  9
$UCSORGLEFT
 10
0.0
 20
0.0
 30
0.0
  9
$UCSORGRIGHT
 10
0.0
 20
0.0
 30
0.0
  9
$UCSORGFRONT
 10
0.0
 20
0.0
 30
0.0
  9
$UCSORGBACK
 10
0.0
 20
0.0
 30
0.0
  9
$PUCSBASE
  2

  9
$PUCSNAME
  2

  9
$PUCSORG
 10
0.0
 20
0.0
 30
0.0
  9
$PUCSXDIR
 10
1.0
 20
0.0
 30
0.0
  9
$PUCSYDIR
 10
0.0
 20
1.0
 30
0.0
  9
$PUCSORTHOREF
  2

  9
$PUCSORTHOVIEW
 70
     0
  9
$PUCSORGTOP
 10
0.0
 20
0.0
 30
0.0
  9
$PUCSORGBOTTOM
 10
0.0
 20
0.0
 30
0.0
  9
$PUCSORGLEFT
 10
0.0
 20
0.0
 30
0.0
  9
$PUCSORGRIGHT
 10
0.0
 20
0.0
 30
0.0
  9
$PUCSORGFRONT
 10
0.0
 20
0.0
 30
0.0
  9
$PUCSORGBACK
 10
0.0
 20
0.0
 30
0.0
  9
$USERI1
 70
     0
  9
$USERI2
 70
     0
  9
$USERI3
 70
     0
  9
$USERI4
 70
     0
  9
$USERI5
 70
     0
  9
$USERR1
 40
0.0
  9
$USERR2
 40
0.0
  9
$USERR3
 40
0.0
  9
$USERR4
 40
0.0
  9
$USERR5
 40
0.0
  9
$WORLDVIEW
 70
     1
  9
$SHADEDGE
 70
     3
  9
$SHADEDIF
 70
    70
  9
$TILEMODE
 70
     1
  9
$MAXACTVP
 70
    64
  9
$PINSBASE
 10
0.0
 20
0.0
 30
0.0
  9
$PLIMCHECK
 70
     0
  9
$PEXTMIN
 10
1.000000000000000E+20
 20
1.000000000000000E+20
 30
1.000000000000000E+20
  9
$PEXTMAX
 10
-1.000000000000000E+20
 20
-1.000000000000000E+20
 30
-1.000000000000000E+20
  9
$PLIMMIN
 10
0.0
 20
0.0
  9
$PLIMMAX
 10
420.0
 20
297.0
  9
$UNITMODE
 70
     0
  9
$VISRETAIN
 70
     1
  9
$PLINEGEN
 70
     0
  9
$PSLTSCALE
 70
     1
  9
$TREEDEPTH
 70
  3020
  9
$CMLSTYLE
  2
Standard
  9
$CMLJUST
 70
     0
  9
$CMLSCALE
 40
20.0
  9
$PROXYGRAPHICS
 70
     1
  9
$MEASUREMENT
 70
     1
  9
$CELWEIGHT
370
    -1
  9
$ENDCAPS
280
     0
  9
$JOINSTYLE
280
     0
  9
$LWDISPLAY
290
     0
  9
$INSUNITS
 70
     4
  9
$HYPERLINKBASE
  1

  9
$STYLESHEET
  1

  9
$XEDIT
290
     1
  9
$CEPSNTYPE
380
     0
  9
$PSTYLEMODE
290
     1
  9
$FINGERPRINTGUID
  2
{FE80C82B-D2F2-4AF3-A5F6-B09F66DE5D70}
  9
$VERSIONGUID
  2
{FAEB1C32-E019-11D5-929B-00C0DF256EC4}
  9
$EXTNAMES
290
     1
  9
$PSVPSCALE
 40
0.0
  9
$OLESTARTUP
290
     0
  9
$SORTENTS
280
   127
  9
$INDEXCTL
280
     0
  9
$HIDETEXT
280
     1
  9
$XCLIPFRAME
280
     2
  9
$HALOGAP
280
     0
  9
$OBSCOLOR
 70
   257
  9
$OBSLTYPE
280
     0
  9
$INTERSECTIONDISPLAY
280
     0
  9
$INTERSECTIONCOLOR
 70
   257
  9
$DIMASSOC
280
     2
  9
$PROJECTNAME
  1

  9
$CAMERADISPLAY
290
     0
  9
$LENSLENGTH
 40
50.0
  9
$CAMERAHEIGHT
 40
0.0
  9
$STEPSPERSEC
 40
2.0
  9
$STEPSIZE
 40
6.0
  9
$3DDWFPREC
 40
2.0
  9
$PSOLWIDTH
 40
5.0
  9
$PSOLHEIGHT
 40
80.0
  9
$LOFTANG1
 40
1.570796326794897
  9
$LOFTANG2
 40
1.570796326794897
  9
$LOFTMAG1
 40
0.0
  9
$LOFTMAG2
 40
0.0
  9
$LOFTPARAM
 70
     7
  9
$LOFTNORMALS
280
     1
  9
$LATITUDE
 40
37.795
  9
$LONGITUDE
 40
-122.394
  9
$NORTHDIRECTION
 40
0.0
  9
$TIMEZONE
 70
 -8000
  9
$LIGHTGLYPHDISPLAY
280
     1
  9
$TILEMODELIGHTSYNCH
280
     1
  9
$CMATERIAL
347
44
  9
$SOLIDHIST
280
     0
  9
$SHOWHIST
280
     1
  9
$DWFFRAME
280
     2
  9
$DGNFRAME
280
     2
  9
$REALWORLDSCALE
290
     1
  9
$INTERFERECOLOR
 62
   256
  9
$CSHADOW
280
     0
  9
$SHADOWPLANELOCATION
 40
0.0
  0
ENDSEC
  0
SECTION
  2
CLASSES
  0
CLASS
  1
ACDBDICTIONARYWDFLT
  2
AcDbDictionaryWithDefault
  3
ObjectDBX Classes
 90
        0
 91
        4
280
     0
281
     0
  0
CLASS
  1
VISUALSTYLE
  2
AcDbVisualStyle
  3
ObjectDBX Classes
 90
     4095
 91
        4
280
     0
281
     0
  0
CLASS
  1
MATERIAL
  2
AcDbMaterial
  3
ObjectDBX Classes
 90
     1153
 91
        4
280
     0
281
     0
  0
CLASS
  1
SCALE
  2
AcDbScale
  3
ObjectDBX Classes
 90
     1153
 91
        4
280
     0
281
     0
  0
CLASS
  1
TABLESTYLE
  2
AcDbTableStyle
  3
ObjectDBX Classes
 90
     4095
 91
        4
280
     0
281
     0
  0
CLASS
  1
MLEADERSTYLE
  2
AcDbMLeaderStyle
  3
ACDB_MLEADERSTYLE_CLASS
 90
     4095
 91
        4
280
     0
281
     0
  0
CLASS
  1
SUN
  2
AcDbSun
  3
SCENEOE
 90
     1153
 91
        4
280
     0
281
     0
  0
CLASS
  1
DICTIONARYVAR
  2
AcDbDictionaryVar
  3
ObjectDBX Classes
 90
        0
 91
        4
280
     0
281
     0
  0
CLASS
  1
CELLSTYLEMAP
  2
AcDbCellStyleMap
  3
ObjectDBX Classes
 90
     1152
 91
        4
280
     0
281
     0
  0
ENDSEC
  0
SECTION
  2
TABLES
  0
TABLE
  2
VPORT
  5
8
330
0
100
AcDbSymbolTable
 70
     1
  0
VPORT
  5
29
330
8
100
AcDbSymbolTableRecord
100
AcDbViewportTableRecord
  2
*Active
 70
     0
 10
0.0
 20
0.0
 11
1.0
 21
1.0
 12
0.0
 22
0.0
 13
0.0
 23
0.0
 14
10.0
 24
10.0
 15
10.0
 25
10.0
 16
0.0
 26
0.0
 36
1.0
 17
0.0
 27
0.0
 37
0.0
 40
32670.0
 41
1.414141414141414
 42
50.0
 43
0.0
 44
0.0
 50
0.0
 51
0.0
 71
     0
 72
 10000
 73
     1
 74
     3
 75
     0
 76
     0
 77
     0
 78
     0
281
     0
 65
     1
110
0.0
120
0.0
130
0.0
111
1.0
121
0.0
131
0.0
112
0.0
122
1.0
132
0.0
 79
     0
146
0.0
348
2F
 60
     3
 61
     5
292
     1
282
     1
141
0.0
142
0.0
 63
   250
361
6D
  0
ENDTAB
  0
TABLE
  2
LTYPE
  5
5
330
0
100
AcDbSymbolTable
 70
     5
  0
LTYPE
  5
14
330
5
100
AcDbSymbolTableRecord
100
AcDbLinetypeTableRecord
  2
ByBlock
 70
     0
  3

 72
    65
 73
     0
 40
0.0
  0
LTYPE
  5
15
330
5
100
AcDbSymbolTableRecord
100
AcDbLinetypeTableRecord
  2
ByLayer
 70
     0
  3

 72
    65
 73
     0
 40
0.0
  0
LTYPE
  5
16
330
5
100
AcDbSymbolTableRecord
100
AcDbLinetypeTableRecord
  2
Continuous
 70
     0
  3
Solid line
 72
    65
 73
     0
 40
0.0
  0
LTYPE
  5
6F
330
5
100
AcDbSymbolTableRecord
100
AcDbLinetypeTableRecord
  2
JWW_HOJO
 70
     0
  3
  -   -   -   -   -   -   -   - 
 72
    65
 73
     2
 40
1.693333333333333
 49
-1.27
 74
     0
 49
0.4233333333333333
 74
     0
  0
LTYPE
  5
70
330
5
100
AcDbSymbolTableRecord
100
AcDbLinetypeTableRecord
  2
JWW_CENTER1
 70
     0
  3
-----  --  ----------  --  -----
 72
    65
 73
     4
 40
6.773333333333333
 49
4.233333333333333
 74
     0
 49
-0.8466666666666667
 74
     0
 49
0.8466666666666667
 74
     0
 49
-0.8466666666666667
 74
     0
  0
LTYPE
  5
71
330
5
100
AcDbSymbolTableRecord
100
AcDbLinetypeTableRecord
  2
JWW_DASHED1
 70
     0
  3
-  --  --  --  --  --  --  --  -
 72
    65
 73
     2
 40
0.3386666666666667
 49
0.1693333333333333
 74
     0
 49
-0.1693333333333333
 74
     0
  0
LTYPE
  5
72
330
5
100
AcDbSymbolTableRecord
100
AcDbLinetypeTableRecord
  2
JWW_DASHED2
 70
     0
  3
--    ----    ----    ----    --
 72
    65
 73
     2
 40
3.386666666666667
 49
1.693333333333333
 74
     0
 49
-1.693333333333333
 74
     0
  0
ENDTAB
  0
TABLE
  2
LAYER
  5
2
330
0
100
AcDbSymbolTable
 70
    16
  0
LAYER
  5
10
330
2
100
AcDbSymbolTableRecord
100
AcDbLayerTableRecord
  2
0
 70
     0
 62
     7
  6
Continuous
370
    -3
390
F
347
46
  0
LAYER
  5
73
330
2
100
AcDbSymbolTableRecord
100
AcDbLayerTableRecord
  2
0-2
 70
     0
 62
     7
  6
Continuous
370
    -3
390
F
347
46
  0
LAYER
  5
74
330
2
100
AcDbSymbolTableRecord
100
AcDbLayerTableRecord
  2
固定棚
 70
     0
 62
     7
  6
Continuous
370
    -3
390
F
347
46
  0
LAYER
  5
75
330
2
100
AcDbSymbolTableRecord
100
AcDbLayerTableRecord
  2
F-0_補助線
 70
     0
 62
     7
  6
Continuous
370
    -3
390
F
347
46
  0
LAYER
  5
76
330
2
100
AcDbSymbolTableRecord
100
AcDbLayerTableRecord
  2
枠
 70
     0
 62
     7
  6
Continuous
370
    -3
390
F
347
46
  0
LAYER
  5
77
330
2
100
AcDbSymbolTableRecord
100
AcDbLayerTableRecord
  2
0-A_文字
 70
     0
 62
     7
  6
Continuous
370
    -3
390
F
347
46
  0
LAYER
  5
78
330
2
100
AcDbSymbolTableRecord
100
AcDbLayerTableRecord
  2
0-B_寸法
 70
     0
 62
     7
  6
Continuous
370
    -3
390
F
347
46
  0
LAYER
  5
79
330
2
100
AcDbSymbolTableRecord
100
AcDbLayerTableRecord
  2
0-0_補助線
 70
     0
 62
    -7
  6
Continuous
370
    -3
390
F
347
46
  0
LAYER
  5
7A
330
2
100
AcDbSymbolTableRecord
100
AcDbLayerTableRecord
  2
側板
 70
     0
 62
     7
  6
Continuous
370
    -3
390
F
347
46
  0
LAYER
  5
7B
330
2
100
AcDbSymbolTableRecord
100
AcDbLayerTableRecord
  2
桟木・巾木
 70
     0
 62
     7
  6
Continuous
370
    -3
390
F
347
46
  0
LAYER
  5
7C
330
2
100
AcDbSymbolTableRecord
100
AcDbLayerTableRecord
  2
可動棚
 70
     0
 62
     7
  6
Continuous
370
    -3
390
F
347
46
  0
LAYER
  5
7D
330
2
100
AcDbSymbolTableRecord
100
AcDbLayerTableRecord
  2
0-E
 70
     0
 62
     7
  6
Continuous
370
    -3
390
F
347
46
  0
LAYER
  5
7E
330
2
100
AcDbSymbolTableRecord
100
AcDbLayerTableRecord
  2
パイプハンガー
 70
     0
 62
     7
  6
Continuous
370
    -3
390
F
347
46
  0
LAYER
  5
7F
330
2
100
AcDbSymbolTableRecord
100
AcDbLayerTableRecord
  2
F-A_文字
 70
     0
 62
     7
  6
Continuous
370
    -3
390
F
347
46
  0
LAYER
  5
80
330
2
100
AcDbSymbolTableRecord
100
AcDbLayerTableRecord
  2
ハッチ
 70
     0
 62
     7
  6
Continuous
370
    -3
390
F
347
46
  0
LAYER
  5
81
330
2
100
AcDbSymbolTableRecord
100
AcDbLayerTableRecord
  2
0-8
 70
     0
 62
     7
  6
Continuous
370
    -3
390
F
347
46
  0
ENDTAB
  0
TABLE
  2
STYLE
  5
3
330
0
100
AcDbSymbolTable
 70
     2
  0
STYLE
  5
11
330
3
100
AcDbSymbolTableRecord
100
AcDbTextStyleTableRecord
  2
Standard
 70
     0
 40
0.0
 41
1.0
 50
0.0
 71
     0
 42
2.5
  3
txt
  4

  0
STYLE
  5
6E
330
3
100
AcDbSymbolTableRecord
100
AcDbTextStyleTableRecord
  2
ＭＳ ゴシック
 70
     0
 40
1.0
 41
1.0
 50
0.0
 71
     0
 42
2.5
  3

  4

1001
ACAD
1000
MS Gothic
1071
    32817
  0
ENDTAB
  0
TABLE
  2
VIEW
  5
6
330
0
100
AcDbSymbolTable
 70
     0
  0
ENDTAB
  0
TABLE
  2
UCS
  5
7
330
0
100
AcDbSymbolTable
 70
     0
  0
ENDTAB
  0
TABLE
  2
APPID
  5
9
330
0
100
AcDbSymbolTable
 70
     1
  0
APPID
  5
12
330
9
100
AcDbSymbolTableRecord
100
AcDbRegAppTableRecord
  2
ACAD
 70
     0
  0
ENDTAB
  0
TABLE
  2
DIMSTYLE
  5
A
330
0
100
AcDbSymbolTable
 70
     1
100
AcDbDimStyleTable
  0
DIMSTYLE
105
27
330
A
100
AcDbSymbolTableRecord
100
AcDbDimStyleTableRecord
  2
ISO-25
 70
     0
 41
2.5
 42
0.625
 43
3.75
 44
1.25
 73
     0
 74
     0
 77
     1
 78
     8
140
2.5
141
2.5
143
0.03937007874016
147
0.625
171
     3
172
     1
178
     0
271
     2
272
     2
274
     3
278
    44
283
     0
284
     8
340
11
  0
ENDTAB
  0
TABLE
  2
BLOCK_RECORD
  5
1
330
0
100
AcDbSymbolTable
 70
     1
  0
BLOCK_RECORD
  5
1F
330
1
100
AcDbSymbolTableRecord
100
AcDbBlockTableRecord
  2
*Model_Space
340
22
 70
     0
280
     1
281
     0
  0
BLOCK_RECORD
  5
1B
330
1
100
AcDbSymbolTableRecord
100
AcDbBlockTableRecord
  2
*Paper_Space
340
1E
 70
     0
280
     1
281
     0
  0
BLOCK_RECORD
  5
23
330
1
100
AcDbSymbolTableRecord
100
AcDbBlockTableRecord
  2
*Paper_Space0
340
26
 70
     0
280
     1
281
     0
  0
ENDTAB
  0
ENDSEC
  0
SECTION
  2
BLOCKS
  0
BLOCK
  5
20
330
1F
100
AcDbEntity
  8
0
100
AcDbBlockBegin
  2
*Model_Space
 70
     0
 10
0.0
 20
0.0
 30
0.0
  3
*Model_Space
  1

  0
ENDBLK
  5
21
330
1F
100
AcDbEntity
  8
0
100
AcDbBlockEnd
  0
BLOCK
  5
1C
330
1B
100
AcDbEntity
 67
     1
  8
0
100
AcDbBlockBegin
  2
*Paper_Space
 70
     0
 10
0.0
 20
0.0
 30
0.0
  3
*Paper_Space
  1

  0
ENDBLK
  5
1D
330
1B
100
AcDbEntity
 67
     1
  8
0
100
AcDbBlockEnd
  0
BLOCK
  5
24
330
23
100
AcDbEntity
  8
0
100
AcDbBlockBegin
  2
*Paper_Space0
 70
     0
 10
0.0
 20
0.0
 30
0.0
  3
*Paper_Space0
  1

  0
ENDBLK
  5
25
330
23
100
AcDbEntity
  8
0
100
AcDbBlockEnd
  0
ENDSEC
  0
SECTION
  2
ENTITIES
  0
LINE
  5
82
330
1F
100
AcDbEntity
  8
0-2
  6
Continuous
 62
    92
370
    13
100
AcDbLine
 10
-8548.303603277565
 20
1258.663137429153
 30
0.0
 11
-8578.303603277567
 21
1258.663137429153
 31
0.0
  0
LINE
  5
83
330
1F
100
AcDbEntity
  8
固定棚
  6
Continuous
 62
    40
370
    15
100
AcDbLine
 10
9089.180350962479
 20
-5996.336862570779
 30
0.0
 11
9089.180350962479
 21
-6101.336862570783
 31
0.0
  0
LINE
  5
84
330
1F
100
AcDbEntity
  8
F-0_補助線
  6
JWW_HOJO
 62
   120
370
     5
100
AcDbLine
 10
-20610.15464313034
 20
-15155.19783912201
 30
0.0
 11
-20610.15464313034
 21
14444.80084119894
 31
0.0
  0
LINE
  5
85
330
1F
100
AcDbEntity
  8
F-0_補助線
  6
JWW_HOJO
 62
   120
370
     5
100
AcDbLine
 10
-20610.15464313034
 20
14444.80084119894
 30
0.0
 11
20389.84205767203
 21
14444.80084119894
 31
0.0
  0
LINE
  5
86
330
1F
100
AcDbEntity
  8
F-0_補助線
  6
JWW_HOJO
 62
   120
370
     5
100
AcDbLine
 10
20389.84205767203
 20
14444.80084119894
 30
0.0
 11
20389.84205767203
 21
-15155.19783912201
 31
0.0
  0
LINE
  5
87
330
1F
100
AcDbEntity
  8
F-0_補助線
  6
JWW_HOJO
 62
   120
370
     5
100
AcDbLine
 10
20389.84205767203
 20
-15155.19783912201
 30
0.0
 11
-20610.15464313034
 21
-15155.19783912201
 31
0.0
  0
LINE
  5
88
330
1F
100
AcDbEntity
  8
枠
  6
Continuous
 62
   200
370
    20
100
AcDbLine
 10
19389.84123287263
 20
13611.46805773188
 30
0.0
 11
19389.84123287263
 21
-14321.86505565495
 31
0.0
  0
LINE
  5
89
330
1F
100
AcDbEntity
  8
枠
  6
Continuous
 62
   200
370
    20
100
AcDbLine
 10
-19610.15459158037
 20
13611.46805773188
 30
0.0
 11
-19610.15459158037
 21
-14321.86505565495
 31
0.0
  0
LINE
  5
8A
330
1F
100
AcDbEntity
  8
枠
  6
Continuous
 62
   200
370
    20
100
AcDbLine
 10
-19576.82127714868
 20
13611.46805773188
 30
0.0
 11
-19576.82127714868
 21
-14321.86505565495
 31
0.0
  0
LINE
  5
8B
330
1F
100
AcDbEntity
  8
枠
  6
Continuous
 62
   200
370
    20
100
AcDbLine
 10
-19593.48789570206
 20
13611.46805773188
 30
0.0
 11
-19593.48789570206
 21
-14321.86505565495
 31
0.0
  0
LINE
  5
8C
330
1F
100
AcDbEntity
  8
枠
  6
Continuous
 62
   200
370
    20
100
AcDbLine
 10
19373.17368641992
 20
13611.46805773188
 30
0.0
 11
19373.17368641992
 21
-14321.86505565495
 31
0.0
  0
LINE
  5
8D
330
1F
100
AcDbEntity
  8
枠
  6
Continuous
 62
   200
370
    20
100
AcDbLine
 10
19356.50861436545
 20
13611.46805773188
 30
0.0
 11
19356.50861436545
 21
-14321.86505565495
 31
0.0
  0
LINE
  5
8E
330
1F
100
AcDbEntity
  8
枠
  6
Continuous
 62
   200
370
    20
100
AcDbLine
 10
-19610.15381833092
 20
13611.46805773188
 30
0.0
 11
19389.84123287263
 21
13611.46805773188
 31
0.0
  0
LINE
  5
8F
330
1F
100
AcDbEntity
  8
枠
  6
Continuous
 62
   200
370
    20
100
AcDbLine
 10
-19610.15381833092
 20
13578.1354392247
 30
0.0
 11
19389.84123287263
 21
13578.1354392247
 31
0.0
  0
LINE
  5
90
330
1F
100
AcDbEntity
  8
枠
  6
Continuous
 62
   200
370
    20
100
AcDbLine
 10
-19610.15381833092
 20
13594.80051127917
 30
0.0
 11
19389.84123287263
 21
13594.80051127917
 31
0.0
  0
LINE
  5
91
330
1F
100
AcDbEntity
  8
0-A_文字
  6
Continuous
 62
     7
370
     9
100
AcDbLine
 10
-19076.82127714868
 20
12328.1354392247
 30
0.0
 11
-10076.82127714868
 21
12328.1354392247
 31
0.0
  0
LINE
  5
92
330
1F
100
AcDbEntity
  8
0-A_文字
  6
Continuous
 62
     7
370
     9
100
AcDbLine
 10
-10076.82127714868
 20
12328.1354392247
 30
0.0
 11
-10076.82127714868
 21
13078.1354392247
 31
0.0
  0
LINE
  5
93
330
1F
100
AcDbEntity
  8
0-A_文字
  6
Continuous
 62
     7
370
     9
100
AcDbLine
 10
-10076.82127714868
 20
13078.1354392247
 30
0.0
 11
-19076.82127714868
 21
13078.1354392247
 31
0.0
  0
LINE
  5
94
330
1F
100
AcDbEntity
  8
0-A_文字
  6
Continuous
 62
     7
370
     9
100
AcDbLine
 10
-19076.82127714868
 20
13078.1354392247
 30
0.0
 11
-19076.82127714868
 21
12328.1354392247
 31
0.0
  0
LINE
  5
95
330
1F
100
AcDbEntity
  8
0-A_文字
  6
Continuous
 62
     7
370
     9
100
AcDbLine
 10
-2371.684825470546
 20
-11306.33686257085
 30
0.0
 11
1378.315174740364
 21
-11306.33686257085
 31
0.0
  0
LINE
  5
96
330
1F
100
AcDbEntity
  8
0-A_文字
  6
Continuous
 62
     7
370
     9
100
AcDbLine
 10
1378.315174740364
 20
-10556.33686257085
 30
0.0
 11
-2371.684825470546
 21
-10556.33686257085
 31
0.0
  0
LINE
  5
97
330
1F
100
AcDbEntity
  8
0-A_文字
  6
Continuous
 62
     7
370
     9
100
AcDbLine
 10
-2371.684825470546
 20
-10556.33686257085
 30
0.0
 11
-2371.684825470546
 21
-11306.33686257085
 31
0.0
  0
LINE
  5
98
330
1F
100
AcDbEntity
  8
0-A_文字
  6
Continuous
 62
     7
370
     9
100
AcDbLine
 10
1378.315174740364
 20
-10556.33686257085
 30
0.0
 11
1378.315174740364
 21
-11306.33686257085
 31
0.0
  0
LINE
  5
99
330
1F
100
AcDbEntity
  8
0-A_文字
  6
Continuous
 62
     7
370
     9
100
AcDbLine
 10
-12144.1687797106
 20
-11306.33686257085
 30
0.0
 11
-8394.168779499689
 21
-11306.33686257085
 31
0.0
  0
LINE
  5
9A
330
1F
100
AcDbEntity
  8
0-A_文字
  6
Continuous
 62
     7
370
     9
100
AcDbLine
 10
-8394.168779499689
 20
-10556.33686257085
 30
0.0
 11
-12144.1687797106
 21
-10556.33686257085
 31
0.0
  0
LINE
  5
9B
330
1F
100
AcDbEntity
  8
0-A_文字
  6
Continuous
 62
     7
370
     9
100
AcDbLine
 10
-12144.1687797106
 20
-10556.33686257085
 30
0.0
 11
-12144.1687797106
 21
-11306.33686257085
 31
0.0
  0
LINE
  5
9C
330
1F
100
AcDbEntity
  8
0-A_文字
  6
Continuous
 62
     7
370
     9
100
AcDbLine
 10
-8394.168779499689
 20
-10556.33686257085
 30
0.0
 11
-8394.168779499689
 21
-11306.33686257085
 31
0.0
  0
TEXT
  5
9D
330
1F
100
AcDbEntity
  8
0-A_文字
  6
Continuous
 62
     7
370
     9
100
AcDbText
 10
-11369.16877960514
 20
-11074.93686257085
 30
0.0
 40
304.8
  1
正面展開図
 41
1.1
  7
ＭＳ ゴシック
100
AcDbText
  0
TEXT
  5
9E
330
1F
100
AcDbEntity
  8
0-A_文字
  6
Continuous
 62
     7
370
     9
100
AcDbText
 10
-1596.684825365094
 20
-11074.93686257085
 30
0.0
 40
304.8
  1
展開図・・
 41
1.1
  7
ＭＳ ゴシック
100
AcDbText
  0
LINE
  5
9F
330
1F
100
AcDbEntity
  8
0-A_文字
  6
Continuous
 62
     7
370
     9
100
AcDbLine
 10
-2246.684825365095
 20
6747.924128477733
 30
0.0
 11
1253.315174634908
 21
6747.924128477733
 31
0.0
  0
LINE
  5
A0
330
1F
100
AcDbEntity
  8
0-A_文字
  6
Continuous
 62
     7
370
     9
100
AcDbLine
 10
1253.315174634908
 20
7497.924128477727
 30
0.0
 11
-2246.684825365095
 21
7497.924128477727
 31
0.0
  0
LINE
  5
A1
330
1F
100
AcDbEntity
  8
0-A_文字
  6
Continuous
 62
     7
370
     9
100
AcDbLine
 10
-2246.684825365095
 20
7497.924128477727
 30
0.0
 11
-2246.684825365095
 21
6747.924128477733
 31
0.0
  0
LINE
  5
A2
330
1F
100
AcDbEntity
  8
0-A_文字
  6
Continuous
 62
     7
370
     9
100
AcDbLine
 10
1253.315174634908
 20
7497.924128477727
 30
0.0
 11
1253.315174634908
 21
6747.924128477733
 31
0.0
  0
TEXT
  5
A3
330
1F
100
AcDbEntity
  8
0-A_文字
  6
Continuous
 62
     7
370
     9
100
AcDbText
 10
-1596.684825365094
 20
6979.324128477732
 30
0.0
 40
304.8
  1
平面図・・
 41
1.1
  7
ＭＳ ゴシック
100
AcDbText
  0
TEXT
  5
A4
330
1F
100
AcDbEntity
  8
0-B_寸法
  6
Continuous
 62
     7
370
   211
100
AcDbText
 10
-1954.097842002711
 20
-9449.936862570848
 30
0.0
 40
304.8
  1
15
 41
1.0625
  7
ＭＳ ゴシック
100
AcDbText
  0
LINE
  5
A5
330
1F
100
AcDbEntity
  8
0-B_寸法
  6
Continuous
 62
   120
370
     5
100
AcDbLine
 10
-2125.81964903752
 20
-9556.336862570848
 30
0.0
 11
-2125.81964903752
 21
-8806.336862570848
 31
0.0
  0
LINE
  5
A6
330
1F
100
AcDbEntity
  8
0-2
  6
Continuous
 62
    92
370
    13
100
AcDbLine
 10
-1945.819649037519
 20
1258.663137429153
 30
0.0
 11
-1945.819649037519
 21
-8556.33686257085
 31
0.0
  0
LINE
  5
A7
330
1F
100
AcDbEntity
  8
0-2
  6
Continuous
 62
    92
370
    13
100
AcDbLine
 10
-2020.819649037519
 20
5888.66313742915
 30
0.0
 11
-2020.819649037519
 21
-8556.33686257085
 31
0.0
  0
LINE
  5
A8
330
1F
100
AcDbEntity
  8
0-0_補助線
  6
JWW_HOJO
 62
   120
370
     5
100
AcDbLine
 10
-2270.819649037519
 20
1613.663137429151
 30
0.0
 11
-2270.819649037519
 21
-8806.336862570848
 31
0.0
  0
TEXT
  5
A9
330
1F
100
AcDbEntity
  8
0-A_文字
  6
Continuous
 62
     7
370
     9
100
AcDbText
 10
11076.21896274403
 20
2010.654723785276
 30
0.0
 40
228.6
  1
桟木
 41
1.083333333333333
  7
ＭＳ ゴシック
100
AcDbText
  0
CIRCLE
  5
AA
330
1F
100
AcDbEntity
  8
側板
  6
Continuous
 62
   120
370
     5
100
AcDbCircle
 10
10269.18035096248
 20
831.1631374291494
 30
0.0
 40
12.5
  0
CIRCLE
  5
AB
330
1F
100
AcDbEntity
  8
側板
  6
Continuous
 62
   120
370
     5
100
AcDbCircle
 10
10269.18035096248
 20
671.1631374291528
 30
0.0
 40
12.5
  0
CIRCLE
  5
AC
330
1F
100
AcDbEntity
  8
側板
  6
Continuous
 62
   120
370
     5
100
AcDbCircle
 10
10269.18035096248
 20
511.1631374291534
 30
0.0
 40
12.5
  0
CIRCLE
  5
AD
330
1F
100
AcDbEntity
  8
側板
  6
Continuous
 62
   120
370
     5
100
AcDbCircle
 10
10269.18035096248
 20
351.1631374291539
 30
0.0
 40
12.5
  0
CIRCLE
  5
AE
330
1F
100
AcDbEntity
  8
側板
  6
Continuous
 62
   120
370
     5
100
AcDbCircle
 10
10269.18035096248
 20
191.1631374291574
 30
0.0
 40
12.5
  0
CIRCLE
  5
AF
330
1F
100
AcDbEntity
  8
側板
  6
Continuous
 62
   120
370
     5
100
AcDbCircle
 10
10269.18035096248
 20
31.16313742915793
 30
0.0
 40
12.5
  0
CIRCLE
  5
B0
330
1F
100
AcDbEntity
  8
側板
  6
Continuous
 62
   120
370
     5
100
AcDbCircle
 10
10269.18035096248
 20
-128.8368625708415
 30
0.0
 40
12.5
  0
CIRCLE
  5
B1
330
1F
100
AcDbEntity
  8
側板
  6
Continuous
 62
   120
370
     5
100
AcDbCircle
 10
10269.18035096248
 20
-288.8368625708381
 30
0.0
 40
12.5
  0
CIRCLE
  5
B2
330
1F
100
AcDbEntity
  8
側板
  6
Continuous
 62
   120
370
     5
100
AcDbCircle
 10
10269.18035096248
 20
-448.8368625708361
 30
0.0
 40
12.5
  0
CIRCLE
  5
B3
330
1F
100
AcDbEntity
  8
側板
  6
Continuous
 62
   120
370
     5
100
AcDbCircle
 10
10269.18035096248
 20
-608.8368625708341
 30
0.0
 40
12.5
  0
CIRCLE
  5
B4
330
1F
100
AcDbEntity
  8
側板
  6
Continuous
 62
   120
370
     5
100
AcDbCircle
 10
10269.18035096248
 20
-768.8368625708335
 30
0.0
 40
12.5
  0
CIRCLE
  5
B5
330
1F
100
AcDbEntity
  8
側板
  6
Continuous
 62
   120
370
     5
100
AcDbCircle
 10
10269.18035096248
 20
-928.8368625708345
 30
0.0
 40
12.5
  0
CIRCLE
  5
B6
330
1F
100
AcDbEntity
  8
側板
  6
Continuous
 62
   120
370
     5
100
AcDbCircle
 10
10269.18035096248
 20
-1088.836862570829
 30
0.0
 40
12.5
  0
CIRCLE
  5
B7
330
1F
100
AcDbEntity
  8
側板
  6
Continuous
 62
   120
370
     5
100
AcDbCircle
 10
10269.18035096248
 20
-1248.836862570829
 30
0.0
 40
12.5
  0
CIRCLE
  5
B8
330
1F
100
AcDbEntity
  8
側板
  6
Continuous
 62
   120
370
     5
100
AcDbCircle
 10
10269.18035096248
 20
-1408.836862570826
 30
0.0
 40
12.5
  0
CIRCLE
  5
B9
330
1F
100
AcDbEntity
  8
側板
  6
Continuous
 62
   120
370
     5
100
AcDbCircle
 10
10269.18035096248
 20
-1568.836862570825
 30
0.0
 40
12.5
  0
CIRCLE
  5
BA
330
1F
100
AcDbEntity
  8
側板
  6
Continuous
 62
   120
370
     5
100
AcDbCircle
 10
10269.18035096248
 20
-1728.836862570824
 30
0.0
 40
12.5
  0
CIRCLE
  5
BB
330
1F
100
AcDbEntity
  8
側板
  6
Continuous
 62
   120
370
     5
100
AcDbCircle
 10
10269.18035096248
 20
-1888.836862570821
 30
0.0
 40
12.5
  0
CIRCLE
  5
BC
330
1F
100
AcDbEntity
  8
側板
  6
Continuous
 62
   120
370
     5
100
AcDbCircle
 10
10269.18035096248
 20
-2048.83686257082
 30
0.0
 40
12.5
  0
CIRCLE
  5
BD
330
1F
100
AcDbEntity
  8
側板
  6
Continuous
 62
   120
370
     5
100
AcDbCircle
 10
10269.18035096248
 20
-2208.83686257082
 30
0.0
 40
12.5
  0
CIRCLE
  5
BE
330
1F
100
AcDbEntity
  8
側板
  6
Continuous
 62
   120
370
     5
100
AcDbCircle
 10
10269.18035096248
 20
-2368.836862570816
 30
0.0
 40
12.5
  0
CIRCLE
  5
BF
330
1F
100
AcDbEntity
  8
側板
  6
Continuous
 62
   120
370
     5
100
AcDbCircle
 10
10269.18035096248
 20
-2528.836862570816
 30
0.0
 40
12.5
  0
CIRCLE
  5
C0
330
1F
100
AcDbEntity
  8
側板
  6
Continuous
 62
   120
370
     5
100
AcDbCircle
 10
10269.18035096248
 20
-2688.836862570811
 30
0.0
 40
12.5
  0
CIRCLE
  5
C1
330
1F
100
AcDbEntity
  8
側板
  6
Continuous
 62
   120
370
     5
100
AcDbCircle
 10
10269.18035096248
 20
-2848.836862570812
 30
0.0
 40
12.5
  0
CIRCLE
  5
C2
330
1F
100
AcDbEntity
  8
側板
  6
Continuous
 62
   120
370
     5
100
AcDbCircle
 10
10269.18035096248
 20
-3008.836862570811
 30
0.0
 40
12.5
  0
CIRCLE
  5
C3
330
1F
100
AcDbEntity
  8
側板
  6
Continuous
 62
   120
370
     5
100
AcDbCircle
 10
10269.18035096248
 20
-3168.836862570805
 30
0.0
 40
12.5
  0
CIRCLE
  5
C4
330
1F
100
AcDbEntity
  8
側板
  6
Continuous
 62
   120
370
     5
100
AcDbCircle
 10
10269.18035096248
 20
-3328.836862570807
 30
0.0
 40
12.5
  0
CIRCLE
  5
C5
330
1F
100
AcDbEntity
  8
側板
  6
Continuous
 62
   120
370
     5
100
AcDbCircle
 10
10269.18035096248
 20
-3488.836862570807
 30
0.0
 40
12.5
  0
CIRCLE
  5
C6
330
1F
100
AcDbEntity
  8
側板
  6
Continuous
 62
   120
370
     5
100
AcDbCircle
 10
10269.18035096248
 20
-3648.836862570801
 30
0.0
 40
12.5
  0
CIRCLE
  5
C7
330
1F
100
AcDbEntity
  8
側板
  6
Continuous
 62
   120
370
     5
100
AcDbCircle
 10
10269.18035096248
 20
-3808.836862570803
 30
0.0
 40
12.5
  0
CIRCLE
  5
C8
330
1F
100
AcDbEntity
  8
側板
  6
Continuous
 62
   120
370
     5
100
AcDbCircle
 10
10269.18035096248
 20
-3968.836862570799
 30
0.0
 40
12.5
  0
CIRCLE
  5
C9
330
1F
100
AcDbEntity
  8
側板
  6
Continuous
 62
   120
370
     5
100
AcDbCircle
 10
10269.18035096248
 20
-4128.836862570802
 30
0.0
 40
12.5
  0
CIRCLE
  5
CA
330
1F
100
AcDbEntity
  8
側板
  6
Continuous
 62
   120
370
     5
100
AcDbCircle
 10
10269.18035096248
 20
-4288.836862570798
 30
0.0
 40
12.5
  0
CIRCLE
  5
CB
330
1F
100
AcDbEntity
  8
側板
  6
Continuous
 62
   120
370
     5
100
AcDbCircle
 10
10269.18035096248
 20
-4448.836862570795
 30
0.0
 40
12.5
  0
CIRCLE
  5
CC
330
1F
100
AcDbEntity
  8
側板
  6
Continuous
 62
   120
370
     5
100
AcDbCircle
 10
10269.18035096248
 20
-4608.836862570792
 30
0.0
 40
12.5
  0
CIRCLE
  5
CD
330
1F
100
AcDbEntity
  8
側板
  6
Continuous
 62
   120
370
     5
100
AcDbCircle
 10
10269.18035096248
 20
-4768.836862570794
 30
0.0
 40
12.5
  0
CIRCLE
  5
CE
330
1F
100
AcDbEntity
  8
側板
  6
Continuous
 62
   120
370
     5
100
AcDbCircle
 10
10269.18035096248
 20
-4928.83686257079
 30
0.0
 40
12.5
  0
CIRCLE
  5
CF
330
1F
100
AcDbEntity
  8
側板
  6
Continuous
 62
   120
370
     5
100
AcDbCircle
 10
10269.18035096248
 20
-5088.836862570791
 30
0.0
 40
12.5
  0
CIRCLE
  5
D0
330
1F
100
AcDbEntity
  8
側板
  6
Continuous
 62
   120
370
     5
100
AcDbCircle
 10
10269.18035096248
 20
-5248.836862570788
 30
0.0
 40
12.5
  0
CIRCLE
  5
D1
330
1F
100
AcDbEntity
  8
側板
  6
Continuous
 62
   120
370
     5
100
AcDbCircle
 10
10269.18035096248
 20
-5408.836862570786
 30
0.0
 40
12.5
  0
CIRCLE
  5
D2
330
1F
100
AcDbEntity
  8
側板
  6
Continuous
 62
   120
370
     5
100
AcDbCircle
 10
10269.18035096248
 20
-5568.836862570786
 30
0.0
 40
12.5
  0
CIRCLE
  5
D3
330
1F
100
AcDbEntity
  8
側板
  6
Continuous
 62
   120
370
     5
100
AcDbCircle
 10
10269.18035096248
 20
-5728.836862570782
 30
0.0
 40
12.5
  0
CIRCLE
  5
D4
330
1F
100
AcDbEntity
  8
側板
  6
Continuous
 62
   120
370
     5
100
AcDbCircle
 10
10269.18035096248
 20
-5888.836862570781
 30
0.0
 40
12.5
  0
CIRCLE
  5
D5
330
1F
100
AcDbEntity
  8
側板
  6
Continuous
 62
   120
370
     5
100
AcDbCircle
 10
10269.18035096248
 20
-6048.836862570782
 30
0.0
 40
12.5
  0
CIRCLE
  5
D6
330
1F
100
AcDbEntity
  8
側板
  6
Continuous
 62
   120
370
     5
100
AcDbCircle
 10
10269.18035096248
 20
-6208.836862570777
 30
0.0
 40
12.5
  0
CIRCLE
  5
D7
330
1F
100
AcDbEntity
  8
側板
  6
Continuous
 62
   120
370
     5
100
AcDbCircle
 10
10269.18035096248
 20
-6368.836862570777
 30
0.0
 40
12.5
  0
CIRCLE
  5
D8
330
1F
100
AcDbEntity
  8
側板
  6
Continuous
 62
   120
370
     5
100
AcDbCircle
 10
10269.18035096248
 20
-6528.836862570779
 30
0.0
 40
12.5
  0
CIRCLE
  5
D9
330
1F
100
AcDbEntity
  8
側板
  6
Continuous
 62
   120
370
     5
100
AcDbCircle
 10
10269.18035096248
 20
-6688.836862570773
 30
0.0
 40
12.5
  0
CIRCLE
  5
DA
330
1F
100
AcDbEntity
  8
側板
  6
Continuous
 62
   120
370
     5
100
AcDbCircle
 10
10269.18035096248
 20
-6848.836862570772
 30
0.0
 40
12.5
  0
CIRCLE
  5
DB
330
1F
100
AcDbEntity
  8
側板
  6
Continuous
 62
   120
370
     5
100
AcDbCircle
 10
10269.18035096248
 20
-7008.836862570769
 30
0.0
 40
12.5
  0
CIRCLE
  5
DC
330
1F
100
AcDbEntity
  8
側板
  6
Continuous
 62
   120
370
     5
100
AcDbCircle
 10
10269.18035096248
 20
-7168.836862570768
 30
0.0
 40
12.5
  0
CIRCLE
  5
DD
330
1F
100
AcDbEntity
  8
側板
  6
Continuous
 62
   120
370
     5
100
AcDbCircle
 10
10269.18035096248
 20
-7328.836862570768
 30
0.0
 40
12.5
  0
CIRCLE
  5
DE
330
1F
100
AcDbEntity
  8
側板
  6
Continuous
 62
   120
370
     5
100
AcDbCircle
 10
10269.18035096248
 20
-7488.836862570764
 30
0.0
 40
12.5
  0
CIRCLE
  5
DF
330
1F
100
AcDbEntity
  8
側板
  6
Continuous
 62
   120
370
     5
100
AcDbCircle
 10
10269.18035096248
 20
-7648.836862570764
 30
0.0
 40
12.5
  0
CIRCLE
  5
E0
330
1F
100
AcDbEntity
  8
側板
  6
Continuous
 62
   120
370
     5
100
AcDbCircle
 10
10269.18035096248
 20
-7808.836862570763
 30
0.0
 40
12.5
  0
CIRCLE
  5
E1
330
1F
100
AcDbEntity
  8
側板
  6
Continuous
 62
   120
370
     5
100
AcDbCircle
 10
10269.18035096248
 20
-7968.836862570765
 30
0.0
 40
12.5
  0
CIRCLE
  5
E2
330
1F
100
AcDbEntity
  8
側板
  6
Continuous
 62
   120
370
     5
100
AcDbCircle
 10
10269.18035096248
 20
-8128.836862570759
 30
0.0
 40
12.5
  0
LINE
  5
E3
330
1F
100
AcDbEntity
  8
側板
  6
Continuous
 62
    92
370
    13
100
AcDbLine
 10
10574.18035096248
 20
-8556.33686257085
 30
0.0
 11
10574.18035096248
 21
1258.663137429153
 31
0.0
  0
TEXT
  5
E4
330
1F
100
AcDbEntity
  8
0-A_文字
  6
Continuous
 62
     7
370
     9
100
AcDbText
 10
11090.53679926814
 20
-9322.746953435888
 30
0.0
 40
228.6
  1
巾木
 41
1.083333333333333
  7
ＭＳ ゴシック
100
AcDbText
  0
LINE
  5
E5
330
1F
100
AcDbEntity
  8
桟木・巾木
  6
Continuous
 62
    40
370
    15
100
AcDbLine
 10
10574.18035117339
 20
-8256.336863909404
 30
0.0
 11
10574.18035117339
 21
-8556.336863909404
 31
0.0
  0
LINE
  5
E6
330
1F
100
AcDbEntity
  8
桟木・巾木
  6
Continuous
 62
    40
370
    15
100
AcDbLine
 10
10499.18035117339
 20
-8256.336863909404
 30
0.0
 11
10574.18035117339
 21
-8256.336863909404
 31
0.0
  0
LINE
  5
E7
330
1F
100
AcDbEntity
  8
桟木・巾木
  6
Continuous
 62
    40
370
    15
100
AcDbLine
 10
10574.18035117339
 20
-8556.336863909404
 30
0.0
 11
10499.18035117339
 21
-8556.336863909404
 31
0.0
  0
LINE
  5
E8
330
1F
100
AcDbEntity
  8
桟木・巾木
  6
Continuous
 62
    40
370
    15
100
AcDbLine
 10
10499.18035117339
 20
-8556.336863909404
 30
0.0
 11
10499.18035117339
 21
-8256.336863909404
 31
0.0
  0
LINE
  5
E9
330
1F
100
AcDbEntity
  8
0-A_文字
  6
Continuous
 62
     7
370
     9
100
AcDbLine
 10
10555.13178178015
 20
-8437.69826051938
 30
0.0
 11
11090.53679926814
 21
-9365.046953435887
 31
0.0
  0
LINE
  5
EA
330
1F
100
AcDbEntity
  8
0-A_文字
  6
Continuous
 62
     7
370
     9
100
AcDbLine
 10
11090.53679926814
 20
-9365.046953435887
 30
0.0
 11
11720.67411605332
 21
-9365.046953435887
 31
0.0
  0
LINE
  5
EB
330
1F
100
AcDbEntity
  8
桟木・巾木
  6
Continuous
 62
    40
370
    15
100
AcDbLine
 10
10574.18035096248
 20
1258.663137429153
 30
0.0
 11
10499.18035096248
 21
1258.663137429153
 31
0.0
  0
LINE
  5
EC
330
1F
100
AcDbEntity
  8
桟木・巾木
  6
Continuous
 62
    40
370
    15
100
AcDbLine
 10
10574.18035096248
 20
1258.663137429153
 30
0.0
 11
10574.18035096248
 21
958.6631374291528
 31
0.0
  0
LINE
  5
ED
330
1F
100
AcDbEntity
  8
桟木・巾木
  6
Continuous
 62
    40
370
    15
100
AcDbLine
 10
10499.18035096248
 20
958.6631374291528
 30
0.0
 11
10499.18035096248
 21
1258.663137429153
 31
0.0
  0
LINE
  5
EE
330
1F
100
AcDbEntity
  8
桟木・巾木
  6
Continuous
 62
    40
370
    15
100
AcDbLine
 10
10574.18035096248
 20
958.6631374291528
 30
0.0
 11
10516.70084344752
 21
958.6631374291528
 31
0.0
  0
LINE
  5
EF
330
1F
100
AcDbEntity
  8
桟木・巾木
  6
Continuous
 62
    40
370
    15
100
AcDbLine
 10
10516.70084344752
 20
958.6631374291528
 30
0.0
 11
10499.18035096248
 21
958.6631374291528
 31
0.0
  0
LINE
  5
F0
330
1F
100
AcDbEntity
  8
0-A_文字
  6
Continuous
 62
     7
370
     9
100
AcDbLine
 10
11076.21896274403
 20
1968.354723785276
 30
0.0
 11
11706.35627952921
 21
1968.354723785276
 31
0.0
  0
LINE
  5
F1
330
1F
100
AcDbEntity
  8
0-A_文字
  6
Continuous
 62
     7
370
     9
100
AcDbLine
 10
10540.81394525604
 20
1041.006030868769
 30
0.0
 11
11076.21896274403
 21
1968.354723785276
 31
0.0
  0
LINE
  5
F2
330
1F
100
AcDbEntity
  8
0-2
  6
Continuous
 62
    40
370
    15
100
AcDbLine
 10
10574.18035096248
 20
1363.663136090594
 30
0.0
 11
10574.18035096248
 21
1258.663137429153
 31
0.0
  0
LINE
  5
F3
330
1F
100
AcDbEntity
  8
0-0_補助線
  6
JWW_HOJO
 62
   120
370
     5
100
AcDbLine
 10
10269.18035096248
 20
1508.663137429153
 30
0.0
 11
10269.18035096248
 21
-8806.336863909404
 31
0.0
  0
LINE
  5
F4
330
1F
100
AcDbEntity
  8
0-0_補助線
  6
JWW_HOJO
 62
   120
370
     5
100
AcDbLine
 10
9174.18035096248
 20
1508.663137429153
 30
0.0
 11
9174.18035096248
 21
-8806.336863909404
 31
0.0
  0
LINE
  5
F5
330
1F
100
AcDbEntity
  8
0-0_補助線
  6
JWW_HOJO
 62
     7
370
     9
100
AcDbLine
 10
10574.18035117339
 20
3008.663137429153
 30
0.0
 11
10574.18035117339
 21
-11411.86586414445
 31
0.0
  0
LINE
  5
F6
330
1F
100
AcDbEntity
  8
0-A_文字
  6
Continuous
 62
     7
370
     9
100
AcDbLine
 10
7574.180350317933
 20
-11306.33686257085
 30
0.0
 11
11324.18035052884
 21
-11306.33686257085
 31
0.0
  0
LINE
  5
F7
330
1F
100
AcDbEntity
  8
0-A_文字
  6
Continuous
 62
     7
370
     9
100
AcDbLine
 10
11324.18035052884
 20
-10556.33686257085
 30
0.0
 11
7574.180350317933
 21
-10556.33686257085
 31
0.0
  0
LINE
  5
F8
330
1F
100
AcDbEntity
  8
0-A_文字
  6
Continuous
 62
     7
370
     9
100
AcDbLine
 10
7574.180350317933
 20
-10556.33686257085
 30
0.0
 11
7574.180350317933
 21
-11306.33686257085
 31
0.0
  0
LINE
  5
F9
330
1F
100
AcDbEntity
  8
0-A_文字
  6
Continuous
 62
     7
370
     9
100
AcDbLine
 10
11324.18035052884
 20
-10556.33686257085
 30
0.0
 11
11324.18035052884
 21
-11306.33686257085
 31
0.0
  0
TEXT
  5
FA
330
1F
100
AcDbEntity
  8
0-A_文字
  6
Continuous
 62
     7
370
     9
100
AcDbText
 10
7899.180350423386
 20
-11074.93686257085
 30
0.0
 40
304.8
  1
ａ－ａ’断面図
 41
1.107142857142857
  7
ＭＳ ゴシック
100
AcDbText
  0
LWPOLYLINE
  5
FB
330
1F
100
AcDbEntity
  8
0-B_寸法
  6
Continuous
 62
     7
370
     9
100
AcDbPolyline
 90
        4
 70
     1
 43
20.0
 10
-2010.819649037519
 20
-9556.336862570848
 42
0.4142135623731
 10
-2020.819649037519
 20
-9546.336862570848
 42
0.4142135623731
 10
-2030.819649037519
 20
-9556.336862570848
 42
0.4142135623731
 10
-2020.819649037519
 20
-9566.336862570846
 42
0.4142135623731
  0
LWPOLYLINE
  5
FC
330
1F
100
AcDbEntity
  8
0-B_寸法
  6
Continuous
 62
     7
370
     9
100
AcDbPolyline
 90
        4
 70
     1
 43
20.0
 10
-1935.819649037519
 20
-9556.336862570848
 42
0.4142135623731
 10
-1945.819649037519
 20
-9546.336862570848
 42
0.4142135623731
 10
-1955.819649037519
 20
-9556.336862570848
 42
0.4142135623731
 10
-1945.819649037519
 20
-9566.336862570846
 42
0.4142135623731
  0
LINE
  5
FD
330
1F
100
AcDbEntity
  8
0-B_寸法
  6
Continuous
 62
   120
370
     5
100
AcDbLine
 10
-2020.819649037519
 20
-9556.336862570848
 30
0.0
 11
-2020.819649037519
 21
-8806.336862570848
 31
0.0
  0
LINE
  5
FE
330
1F
100
AcDbEntity
  8
0-B_寸法
  6
Continuous
 62
   120
370
     5
100
AcDbLine
 10
-1945.819649037519
 20
-9556.336862570848
 30
0.0
 11
-2020.819649037519
 21
-9556.336862570848
 31
0.0
  0
LINE
  5
FF
330
1F
100
AcDbEntity
  8
0-B_寸法
  6
Continuous
 62
   120
370
     5
100
AcDbLine
 10
-1945.819649037519
 20
-9556.336862570848
 30
0.0
 11
-1945.819649037519
 21
-8806.336862570848
 31
0.0
  0
LWPOLYLINE
  5
100
330
1F
100
AcDbEntity
  8
0-B_寸法
  6
Continuous
 62
     7
370
     9
100
AcDbPolyline
 90
        4
 70
     1
 43
20.0
 10
-2010.819649037519
 20
-10056.33686257085
 42
0.4142135623731
 10
-2020.819649037519
 20
-10046.33686257085
 42
0.4142135623731
 10
-2030.819649037519
 20
-10056.33686257085
 42
0.4142135623731
 10
-2020.819649037519
 20
-10066.33686257085
 42
0.4142135623731
  0
LINE
  5
101
330
1F
100
AcDbEntity
  8
0-B_寸法
  6
Continuous
 62
   120
370
     5
100
AcDbLine
 10
-2020.819649037519
 20
-10056.33686257085
 30
0.0
 11
-2020.819649037519
 21
-9556.336862570848
 31
0.0
  0
LWPOLYLINE
  5
102
330
1F
100
AcDbEntity
  8
0-B_寸法
  6
Continuous
 62
     7
370
     9
100
AcDbPolyline
 90
        4
 70
     1
 43
20.0
 10
10584.18035096248
 20
-10056.33686257085
 42
0.4142135623731
 10
10574.18035096248
 20
-10046.33686257085
 42
0.4142135623731
 10
10564.18035096248
 20
-10056.33686257085
 42
0.4142135623731
 10
10574.18035096248
 20
-10066.33686257085
 42
0.4142135623731
  0
LINE
  5
103
330
1F
100
AcDbEntity
  8
0-B_寸法
  6
Continuous
 62
   120
370
     5
100
AcDbLine
 10
10269.18035096248
 20
2258.663137429153
 30
0.0
 11
10269.18035096248
 21
1508.663137429153
 31
0.0
  0
LINE
  5
104
330
1F
100
AcDbEntity
  8
0-B_寸法
  6
Continuous
 62
   120
370
     5
100
AcDbLine
 10
10574.18035096248
 20
2258.663137429153
 30
0.0
 11
10574.18035096248
 21
1508.663137429153
 31
0.0
  0
LINE
  5
105
330
1F
100
AcDbEntity
  8
0-B_寸法
  6
Continuous
 62
   120
370
     5
100
AcDbLine
 10
10574.18035096248
 20
-10056.33686257085
 30
0.0
 11
10574.18035096248
 21
-8806.336862570848
 31
0.0
  0
LWPOLYLINE
  5
106
330
1F
100
AcDbEntity
  8
0-B_寸法
  6
Continuous
 62
     7
370
     9
100
AcDbPolyline
 90
        4
 70
     1
 43
20.0
 10
10279.18035096248
 20
2258.663137429153
 42
0.4142135623731
 10
10269.18035096248
 20
2268.663137429153
 42
0.4142135623731
 10
10259.18035096248
 20
2258.663137429153
 42
0.4142135623731
 10
10269.18035096248
 20
2248.663137429153
 42
0.4142135623731
  0
LWPOLYLINE
  5
107
330
1F
100
AcDbEntity
  8
0-B_寸法
  6
Continuous
 62
     7
370
     9
100
AcDbPolyline
 90
        4
 70
     1
 43
20.0
 10
10584.18035096248
 20
2258.663137429153
 42
0.4142135623731
 10
10574.18035096248
 20
2268.663137429153
 42
0.4142135623731
 10
10564.18035096248
 20
2258.663137429153
 42
0.4142135623731
 10
10574.18035096248
 20
2248.663137429153
 42
0.4142135623731
  0
LINE
  5
108
330
1F
100
AcDbEntity
  8
0-B_寸法
  6
Continuous
 62
   120
370
     5
100
AcDbLine
 10
10269.18035096248
 20
2258.663137429153
 30
0.0
 11
10574.18035096248
 21
2258.663137429153
 31
0.0
  0
LINE
  5
109
330
1F
100
AcDbEntity
  8
0-B_寸法
  6
Continuous
 62
   120
370
     5
100
AcDbLine
 10
10499.18035117339
 20
-7756.336863909405
 30
0.0
 11
10574.18035117339
 21
-7756.336863909405
 31
0.0
  0
LWPOLYLINE
  5
10A
330
1F
100
AcDbEntity
  8
0-B_寸法
  6
Continuous
 62
     7
370
     9
100
AcDbPolyline
 90
        4
 70
     1
 43
20.0
 10
10509.18035117339
 20
-7756.336863909405
 42
0.4142135623731
 10
10499.18035117339
 20
-7746.336863909406
 42
0.4142135623731
 10
10489.18035117339
 20
-7756.336863909405
 42
0.4142135623731
 10
10499.18035117339
 20
-7766.336863909404
 42
0.4142135623731
  0
LWPOLYLINE
  5
10B
330
1F
100
AcDbEntity
  8
0-B_寸法
  6
Continuous
 62
     7
370
     9
100
AcDbPolyline
 90
        4
 70
     1
 43
20.0
 10
10584.18035117339
 20
-7756.336863909405
 42
0.4142135623731
 10
10574.18035117339
 20
-7746.336863909406
 42
0.4142135623731
 10
10564.18035117339
 20
-7756.336863909405
 42
0.4142135623731
 10
10574.18035117339
 20
-7766.336863909404
 42
0.4142135623731
  0
LINE
  5
10C
330
1F
100
AcDbEntity
  8
0-B_寸法
  6
Continuous
 62
   120
370
     5
100
AcDbLine
 10
10499.18035117339
 20
-7756.336863909405
 30
0.0
 11
10499.18035117339
 21
-8006.336863909405
 31
0.0
  0
LINE
  5
10D
330
1F
100
AcDbEntity
  8
0-B_寸法
  6
Continuous
 62
   120
370
     5
100
AcDbLine
 10
10574.18035117339
 20
-7756.336863909405
 30
0.0
 11
10574.18035117339
 21
-8006.336863909405
 31
0.0
  0
LINE
  5
10E
330
1F
100
AcDbEntity
  8
0-B_寸法
  6
Continuous
 62
   120
370
     5
100
AcDbLine
 10
9999.180351173385
 20
-8256.336863909404
 30
0.0
 11
9999.180351173385
 21
-8556.336863909404
 31
0.0
  0
LWPOLYLINE
  5
10F
330
1F
100
AcDbEntity
  8
0-B_寸法
  6
Continuous
 62
     7
370
     9
100
AcDbPolyline
 90
        4
 70
     1
 43
20.0
 10
10009.18035117339
 20
-8256.336863909404
 42
0.4142135623731
 10
9999.180351173385
 20
-8246.336863909406
 42
0.4142135623731
 10
9989.180351173385
 20
-8256.336863909404
 42
0.4142135623731
 10
9999.180351173385
 20
-8266.336863909404
 42
0.4142135623731
  0
LWPOLYLINE
  5
110
330
1F
100
AcDbEntity
  8
0-B_寸法
  6
Continuous
 62
     7
370
     9
100
AcDbPolyline
 90
        4
 70
     1
 43
20.0
 10
10009.18035117339
 20
-8556.336863909404
 42
0.4142135623731
 10
9999.180351173385
 20
-8546.336863909406
 42
0.4142135623731
 10
9989.180351173385
 20
-8556.336863909404
 42
0.4142135623731
 10
9999.180351173385
 20
-8566.336863909404
 42
0.4142135623731
  0
LINE
  5
111
330
1F
100
AcDbEntity
  8
0-B_寸法
  6
Continuous
 62
   120
370
     5
100
AcDbLine
 10
9999.180351173385
 20
-8256.336863909404
 30
0.0
 11
10249.18035117339
 21
-8256.336863909404
 31
0.0
  0
LINE
  5
112
330
1F
100
AcDbEntity
  8
0-B_寸法
  6
Continuous
 62
   120
370
     5
100
AcDbLine
 10
9999.180351173385
 20
-8556.336863909404
 30
0.0
 11
10249.18035117339
 21
-8556.336863909404
 31
0.0
  0
LINE
  5
113
330
1F
100
AcDbEntity
  8
0-B_寸法
  6
Continuous
 62
   120
370
     5
100
AcDbLine
 10
10499.18035096248
 20
458.6631374291528
 30
0.0
 11
10574.18035096248
 21
458.6631374291528
 31
0.0
  0
LWPOLYLINE
  5
114
330
1F
100
AcDbEntity
  8
0-B_寸法
  6
Continuous
 62
     7
370
     9
100
AcDbPolyline
 90
        4
 70
     1
 43
20.0
 10
10509.18035096248
 20
458.6631374291528
 42
0.4142135623731
 10
10499.18035096248
 20
468.6631374291528
 42
0.4142135623731
 10
10489.18035096248
 20
458.6631374291528
 42
0.4142135623731
 10
10499.18035096248
 20
448.6631374291529
 42
0.4142135623731
  0
LWPOLYLINE
  5
115
330
1F
100
AcDbEntity
  8
0-B_寸法
  6
Continuous
 62
     7
370
     9
100
AcDbPolyline
 90
        4
 70
     1
 43
20.0
 10
10584.18035096248
 20
458.6631374291528
 42
0.4142135623731
 10
10574.18035096248
 20
468.6631374291528
 42
0.4142135623731
 10
10564.18035096248
 20
458.6631374291528
 42
0.4142135623731
 10
10574.18035096248
 20
448.6631374291529
 42
0.4142135623731
  0
LINE
  5
116
330
1F
100
AcDbEntity
  8
0-B_寸法
  6
Continuous
 62
   120
370
     5
100
AcDbLine
 10
10499.18035096248
 20
458.6631374291528
 30
0.0
 11
10499.18035096248
 21
708.6631374291528
 31
0.0
  0
LINE
  5
117
330
1F
100
AcDbEntity
  8
0-B_寸法
  6
Continuous
 62
   120
370
     5
100
AcDbLine
 10
10574.18035096248
 20
458.6631374291528
 30
0.0
 11
10574.18035096248
 21
708.6631374291528
 31
0.0
  0
LINE
  5
118
330
1F
100
AcDbEntity
  8
0-B_寸法
  6
Continuous
 62
   120
370
     5
100
AcDbLine
 10
9999.180350962479
 20
1258.663137429153
 30
0.0
 11
9999.180350962479
 21
958.6631374291528
 31
0.0
  0
LWPOLYLINE
  5
119
330
1F
100
AcDbEntity
  8
0-B_寸法
  6
Continuous
 62
     7
370
     9
100
AcDbPolyline
 90
        4
 70
     1
 43
20.0
 10
10009.18035096248
 20
1258.663137429153
 42
0.4142135623731
 10
9999.180350962479
 20
1268.663137429153
 42
0.4142135623731
 10
9989.180350962479
 20
1258.663137429153
 42
0.4142135623731
 10
9999.180350962479
 20
1248.663137429153
 42
0.4142135623731
  0
LWPOLYLINE
  5
11A
330
1F
100
AcDbEntity
  8
0-B_寸法
  6
Continuous
 62
     7
370
     9
100
AcDbPolyline
 90
        4
 70
     1
 43
20.0
 10
10009.18035096248
 20
958.6631374291528
 42
0.4142135623731
 10
9999.180350962479
 20
968.6631374291528
 42
0.4142135623731
 10
9989.180350962479
 20
958.6631374291528
 42
0.4142135623731
 10
9999.180350962479
 20
948.6631374291528
 42
0.4142135623731
  0
LINE
  5
11B
330
1F
100
AcDbEntity
  8
0-B_寸法
  6
Continuous
 62
   120
370
     5
100
AcDbLine
 10
9999.180350962479
 20
1258.663137429153
 30
0.0
 11
10249.18035096248
 21
1258.663137429153
 31
0.0
  0
LINE
  5
11C
330
1F
100
AcDbEntity
  8
0-B_寸法
  6
Continuous
 62
   120
370
     5
100
AcDbLine
 10
9999.180350962479
 20
958.6631374291528
 30
0.0
 11
10249.18035096248
 21
958.6631374291528
 31
0.0
  0
TEXT
  5
11D
330
1F
100
AcDbEntity
  8
0-B_寸法
  6
Continuous
 62
     7
370
   211
100
AcDbText
 10
10588.64244836344
 20
515.0631374291528
 30
0.0
 40
304.8
  1
15
 41
1.0625
  7
ＭＳ ゴシック
100
AcDbText
  0
TEXT
  5
11E
330
1F
100
AcDbEntity
  8
0-B_寸法
  6
Continuous
 62
     7
370
   211
100
AcDbText
 10
10209.18035096248
 20
2365.063137429153
 30
0.0
 40
304.8
  1
61
 41
1.0625
  7
ＭＳ ゴシック
100
AcDbText
  0
TEXT
  5
11F
330
1F
100
AcDbEntity
  8
0-B_寸法
  6
Continuous
 62
     7
370
   211
100
AcDbText
 10
9942.780351173385
 20
-8510.235752215993
 30
0.0
 40
304.8
  1
60
 50
90.0
 41
1.0625
  7
ＭＳ ゴシック
100
AcDbText
  0
TEXT
  5
120
330
1F
100
AcDbEntity
  8
0-B_寸法
  6
Continuous
 62
     7
370
   211
100
AcDbText
 10
9926.76546905669
 20
804.3146044799569
 30
0.0
 40
304.8
  1
60
 50
90.0
 41
1.0625
  7
ＭＳ ゴシック
100
AcDbText
  0
LINE
  5
121
330
1F
100
AcDbEntity
  8
0-2
  6
Continuous
 62
    92
370
    13
100
AcDbLine
 10
-11793.30360327757
 20
-8556.33686257085
 30
0.0
 11
-11793.30360327757
 21
5888.66313742915
 31
0.0
  0
LINE
  5
122
330
1F
100
AcDbEntity
  8
0-0_補助線
  6
JWW_HOJO
 62
   120
370
     5
100
AcDbLine
 10
-12043.30360327757
 20
1613.663137429151
 30
0.0
 11
-12043.30360327757
 21
-8806.336862570848
 31
0.0
  0
LINE
  5
123
330
1F
100
AcDbEntity
  8
0-0_補助線
  6
JWW_HOJO
 62
   120
370
     5
100
AcDbLine
 10
-12793.30360327757
 20
2363.663137429148
 30
0.0
 11
-12793.30360327757
 21
-10056.33686257085
 31
0.0
  0
LINE
  5
124
330
1F
100
AcDbEntity
  8
0-2
  6
Continuous
 62
    92
370
    13
100
AcDbLine
 10
-11898.30360327757
 20
5888.66313742915
 30
0.0
 11
-11898.30360327757
 21
-8556.33686257085
 31
0.0
  0
LINE
  5
125
330
1F
100
AcDbEntity
  8
0-2
  6
Continuous
 62
    92
370
    13
100
AcDbLine
 10
-11898.30360327757
 20
5888.66313742915
 30
0.0
 11
-11793.30360327757
 21
5888.66313742915
 31
0.0
  0
LINE
  5
126
330
1F
100
AcDbEntity
  8
0-2
  6
Continuous
 62
    92
370
    13
100
AcDbLine
 10
-11793.30360327757
 20
-8556.33686257085
 30
0.0
 11
-11898.30360327757
 21
-8556.33686257085
 31
0.0
  0
TEXT
  5
127
330
1F
100
AcDbEntity
  8
0-B_寸法
  6
Continuous
 62
     7
370
   211
100
AcDbText
 10
-1960.598500410992
 20
8104.324128477727
 30
0.0
 40
304.8
  1
15
 41
1.0625
  7
ＭＳ ゴシック
100
AcDbText
  0
LINE
  5
128
330
1F
100
AcDbEntity
  8
0-2
  6
Continuous
 62
    40
370
    15
100
AcDbLine
 10
-2020.819649037519
 20
8997.924128477727
 30
0.0
 11
-1945.819649037519
 21
8997.924128477727
 31
0.0
  0
LINE
  5
129
330
1F
100
AcDbEntity
  8
0-B_寸法
  6
Continuous
 62
   120
370
     5
100
AcDbLine
 10
-2020.819649037519
 20
7997.924128477727
 30
0.0
 11
-1945.819649037519
 21
7997.924128477727
 31
0.0
  0
LWPOLYLINE
  5
12A
330
1F
100
AcDbEntity
  8
0-B_寸法
  6
Continuous
 62
     7
370
     9
100
AcDbPolyline
 90
        4
 70
     1
 43
20.0
 10
-2010.819649037519
 20
7997.924128477727
 42
0.4142135623731
 10
-2020.819649037519
 20
8007.924128477727
 42
0.4142135623731
 10
-2030.819649037519
 20
7997.924128477727
 42
0.4142135623731
 10
-2020.819649037519
 20
7987.924128477728
 42
0.4142135623731
  0
LWPOLYLINE
  5
12B
330
1F
100
AcDbEntity
  8
0-B_寸法
  6
Continuous
 62
     7
370
     9
100
AcDbPolyline
 90
        4
 70
     1
 43
20.0
 10
-1935.819649037519
 20
7997.924128477727
 42
0.4142135623731
 10
-1945.819649037519
 20
8007.924128477727
 42
0.4142135623731
 10
-1955.819649037519
 20
7997.924128477727
 42
0.4142135623731
 10
-1945.819649037519
 20
7987.924128477728
 42
0.4142135623731
  0
LINE
  5
12C
330
1F
100
AcDbEntity
  8
0-B_寸法
  6
Continuous
 62
   120
370
     5
100
AcDbLine
 10
-2020.819649037519
 20
7997.924128477727
 30
0.0
 11
-2020.819649037519
 21
8747.924128477727
 31
0.0
  0
LINE
  5
12D
330
1F
100
AcDbEntity
  8
0-B_寸法
  6
Continuous
 62
   120
370
     5
100
AcDbLine
 10
-1945.819649037519
 20
7997.924128477727
 30
0.0
 11
-1945.819649037519
 21
8747.924128477727
 31
0.0
  0
LINE
  5
12E
330
1F
100
AcDbEntity
  8
0-B_寸法
  6
Continuous
 62
   120
370
     5
100
AcDbLine
 10
-2020.819649037519
 20
7997.924128477727
 30
0.0
 11
-2125.819649037519
 21
7997.924128477727
 31
0.0
  0
LWPOLYLINE
  5
12F
330
1F
100
AcDbEntity
  8
0-B_寸法
  6
Continuous
 62
     7
370
     9
100
AcDbPolyline
 90
        4
 70
     1
 43
20.0
 10
-2115.819649037519
 20
7997.924128477727
 42
0.4142135623731
 10
-2125.819649037519
 20
8007.924128477727
 42
0.4142135623731
 10
-2135.819649037519
 20
7997.924128477727
 42
0.4142135623731
 10
-2125.819649037519
 20
7987.924128477728
 42
0.4142135623731
  0
LINE
  5
130
330
1F
100
AcDbEntity
  8
0-B_寸法
  6
Continuous
 62
   120
370
     5
100
AcDbLine
 10
-2125.819649037519
 20
7997.924128477727
 30
0.0
 11
-2125.819649037519
 21
8747.924128477727
 31
0.0
  0
TEXT
  5
131
330
1F
100
AcDbEntity
  8
0-B_寸法
  6
Continuous
 62
     7
370
   211
100
AcDbText
 10
-2569.515052385412
 20
8104.324128477727
 30
0.0
 40
304.8
  1
21
 41
1.0625
  7
ＭＳ ゴシック
100
AcDbText
  0
LINE
  5
132
330
1F
100
AcDbEntity
  8
0-2
  6
Continuous
 62
    92
370
    13
100
AcDbLine
 10
-2125.81964903752
 20
5888.66313742915
 30
0.0
 11
-2125.81964903752
 21
-8556.33686257085
 31
0.0
  0
LINE
  5
133
330
1F
100
AcDbEntity
  8
0-2
  6
Continuous
 62
    92
370
    13
100
AcDbLine
 10
-2125.81964903752
 20
5888.66313742915
 30
0.0
 11
-2020.819649037519
 21
5888.66313742915
 31
0.0
  0
LINE
  5
134
330
1F
100
AcDbEntity
  8
0-2
  6
Continuous
 62
    92
370
    13
100
AcDbLine
 10
-2020.819649037519
 20
-8556.33686257085
 30
0.0
 11
-2125.81964903752
 21
-8556.33686257085
 31
0.0
  0
LINE
  5
135
330
1F
100
AcDbEntity
  8
0-B_寸法
  6
Continuous
 62
   120
370
     5
100
AcDbLine
 10
-2020.819649037519
 20
-9556.336862570848
 30
0.0
 11
-2125.81964903752
 21
-9556.336862570848
 31
0.0
  0
LWPOLYLINE
  5
136
330
1F
100
AcDbEntity
  8
0-B_寸法
  6
Continuous
 62
     7
370
     9
100
AcDbPolyline
 90
        4
 70
     1
 43
20.0
 10
-2115.81964903752
 20
-9556.336862570848
 42
0.4142135623731
 10
-2125.81964903752
 20
-9546.336862570848
 42
0.4142135623731
 10
-2135.819649037521
 20
-9556.336862570848
 42
0.4142135623731
 10
-2125.81964903752
 20
-9566.336862570846
 42
0.4142135623731
  0
TEXT
  5
137
330
1F
100
AcDbEntity
  8
0-B_寸法
  6
Continuous
 62
     7
370
   211
100
AcDbText
 10
-2579.598550698096
 20
-9449.936862570848
 30
0.0
 40
304.8
  1
21
 41
1.062500000000004
  7
ＭＳ ゴシック
100
AcDbText
  0
LINE
  5
138
330
1F
100
AcDbEntity
  8
0-0_補助線
  6
JWW_HOJO
 62
   120
370
     5
100
AcDbLine
 10
-13443.30360327757
 20
2363.663137429148
 30
0.0
 11
-13443.30360327757
 21
-10056.33686257085
 31
0.0
  0
LINE
  5
139
330
1F
100
AcDbEntity
  8
0-0_補助線
  6
JWW_HOJO
 62
   120
370
     5
100
AcDbLine
 10
-10170.80360327757
 20
1363.663137429151
 30
0.0
 11
-10170.80360327757
 21
2363.663137429148
 31
0.0
  0
LINE
  5
13A
330
1F
100
AcDbEntity
  8
0-0_補助線
  6
JWW_HOJO
 62
   120
370
     5
100
AcDbLine
 10
-12793.30360327757
 20
-9556.336862570848
 30
0.0
 11
-7548.303603277569
 21
-9556.336862570848
 31
0.0
  0
LINE
  5
13B
330
1F
100
AcDbEntity
  8
0-2
  6
Continuous
 62
    92
370
    13
100
AcDbLine
 10
-11793.30360327757
 20
-8556.33686257085
 30
0.0
 11
-8548.303603277565
 21
-8556.33686257085
 31
0.0
  0
LINE
  5
13C
330
1F
100
AcDbEntity
  8
0-0_補助線
  6
JWW_HOJO
 62
   120
370
     5
100
AcDbLine
 10
-7548.303603277569
 20
2363.663137429148
 30
0.0
 11
-7548.303603277569
 21
-10056.33686257085
 31
0.0
  0
LINE
  5
13D
330
1F
100
AcDbEntity
  8
0-0_補助線
  6
JWW_HOJO
 62
   120
370
     5
100
AcDbLine
 10
-12043.30360327757
 20
-8806.336862570848
 30
0.0
 11
-7548.303603277569
 21
-8806.336862570848
 31
0.0
  0
LINE
  5
13E
330
1F
100
AcDbEntity
  8
0-0_補助線
  6
JWW_HOJO
 62
   120
370
     5
100
AcDbLine
 10
-13443.30360327757
 20
-10056.33686257085
 30
0.0
 11
-7548.303603277569
 21
-10056.33686257085
 31
0.0
  0
LINE
  5
13F
330
1F
100
AcDbEntity
  8
0-B_寸法
  6
Continuous
 62
   120
370
     5
100
AcDbLine
 10
-450.8196490375191
 20
-9556.336862570848
 30
0.0
 11
-1945.819649037519
 21
-9556.336862570848
 31
0.0
  0
LINE
  5
140
330
1F
100
AcDbEntity
  8
0-B_寸法
  6
Continuous
 62
   120
370
     5
100
AcDbLine
 10
-345.8196490375208
 20
-9556.336862570848
 30
0.0
 11
-450.8196490375191
 21
-9556.336862570848
 31
0.0
  0
LINE
  5
141
330
1F
100
AcDbEntity
  8
0-0_補助線
  6
JWW_HOJO
 62
   120
370
     5
100
AcDbLine
 10
-398.31964903752
 20
1363.663137429151
 30
0.0
 11
-398.31964903752
 21
2363.663137429148
 31
0.0
  0
LINE
  5
142
330
1F
100
AcDbEntity
  8
0-B_寸法
  6
Continuous
 62
   120
370
     5
100
AcDbLine
 10
-1945.819649037519
 20
7997.924128477727
 30
0.0
 11
-450.8196490375162
 21
7997.924128477727
 31
0.0
  0
LINE
  5
143
330
1F
100
AcDbEntity
  8
0-B_寸法
  6
Continuous
 62
   120
370
     5
100
AcDbLine
 10
-450.8196490375162
 20
7997.924128477727
 30
0.0
 11
-345.8196490375194
 21
7997.924128477727
 31
0.0
  0
LINE
  5
144
330
1F
100
AcDbEntity
  8
0-2
  6
Continuous
 62
    92
370
    13
100
AcDbLine
 10
1149.18035096248
 20
-8556.33686257085
 30
0.0
 11
1149.18035096248
 21
1258.663137429153
 31
0.0
  0
LINE
  5
145
330
1F
100
AcDbEntity
  8
0-2
  6
Continuous
 62
    92
370
    13
100
AcDbLine
 10
-2020.819649037519
 20
-8556.33686257085
 30
0.0
 11
1224.18035096248
 21
-8556.33686257085
 31
0.0
  0
LINE
  5
146
330
1F
100
AcDbEntity
  8
0-0_補助線
  6
JWW_HOJO
 62
   120
370
     5
100
AcDbLine
 10
2224.18035096248
 20
2363.663137429148
 30
0.0
 11
2224.18035096248
 21
-10056.33686257085
 31
0.0
  0
LWPOLYLINE
  5
147
330
1F
100
AcDbEntity
  8
0-B_寸法
  6
Continuous
 62
     7
370
     9
100
AcDbPolyline
 90
        4
 70
     1
 43
20.0
 10
1159.18035096248
 20
-9556.336862570848
 42
0.4142135623731
 10
1149.18035096248
 20
-9546.336862570848
 42
0.4142135623731
 10
1139.18035096248
 20
-9556.336862570848
 42
0.4142135623731
 10
1149.18035096248
 20
-9566.336862570846
 42
0.4142135623731
  0
LWPOLYLINE
  5
148
330
1F
100
AcDbEntity
  8
0-B_寸法
  6
Continuous
 62
     7
370
     9
100
AcDbPolyline
 90
        4
 70
     1
 43
20.0
 10
1234.18035096248
 20
-9556.336862570848
 42
0.4142135623731
 10
1224.18035096248
 20
-9546.336862570848
 42
0.4142135623731
 10
1214.18035096248
 20
-9556.336862570848
 42
0.4142135623731
 10
1224.18035096248
 20
-9566.336862570846
 42
0.4142135623731
  0
LINE
  5
149
330
1F
100
AcDbEntity
  8
0-B_寸法
  6
Continuous
 62
   120
370
     5
100
AcDbLine
 10
1149.18035096248
 20
-9556.336862570848
 30
0.0
 11
1149.18035096248
 21
-8806.336862570848
 31
0.0
  0
LINE
  5
14A
330
1F
100
AcDbEntity
  8
0-B_寸法
  6
Continuous
 62
   120
370
     5
100
AcDbLine
 10
1224.18035096248
 20
-9556.336862570848
 30
0.0
 11
1224.18035096248
 21
-8806.336862570848
 31
0.0
  0
LINE
  5
14B
330
1F
100
AcDbEntity
  8
0-B_寸法
  6
Continuous
 62
   120
370
     5
100
AcDbLine
 10
1224.18035096248
 20
-9556.336862570848
 30
0.0
 11
1149.18035096248
 21
-9556.336862570848
 31
0.0
  0
LINE
  5
14C
330
1F
100
AcDbEntity
  8
0-B_寸法
  6
Continuous
 62
   120
370
     5
100
AcDbLine
 10
-2020.819649037519
 20
-10056.33686257085
 30
0.0
 11
1224.18035096248
 21
-10056.33686257085
 31
0.0
  0
LWPOLYLINE
  5
14D
330
1F
100
AcDbEntity
  8
0-B_寸法
  6
Continuous
 62
     7
370
     9
100
AcDbPolyline
 90
        4
 70
     1
 43
20.0
 10
1234.18035096248
 20
-10056.33686257085
 42
0.4142135623731
 10
1224.18035096248
 20
-10046.33686257085
 42
0.4142135623731
 10
1214.18035096248
 20
-10056.33686257085
 42
0.4142135623731
 10
1224.18035096248
 20
-10066.33686257085
 42
0.4142135623731
  0
LINE
  5
14E
330
1F
100
AcDbEntity
  8
0-B_寸法
  6
Continuous
 62
   120
370
     5
100
AcDbLine
 10
1224.18035096248
 20
-10056.33686257085
 30
0.0
 11
1224.18035096248
 21
-9556.336862570848
 31
0.0
  0
TEXT
  5
14F
330
1F
100
AcDbEntity
  8
0-B_寸法
  6
Continuous
 62
     7
370
   211
100
AcDbText
 10
1224.18035096248
 20
-9449.936862570848
 30
0.0
 40
304.8
  1
15
 41
1.0625
  7
ＭＳ ゴシック
100
AcDbText
  0
LINE
  5
150
330
1F
100
AcDbEntity
  8
0-B_寸法
  6
Continuous
 62
   120
370
     5
100
AcDbLine
 10
1149.18035096248
 20
-9556.336862570848
 30
0.0
 11
-345.8196490375208
 21
-9556.336862570848
 31
0.0
  0
LINE
  5
151
330
1F
100
AcDbEntity
  8
0-2
  6
Continuous
 62
    40
370
    15
100
AcDbLine
 10
1149.18035096248
 20
8997.924128477727
 30
0.0
 11
1224.18035096248
 21
8997.924128477727
 31
0.0
  0
LINE
  5
152
330
1F
100
AcDbEntity
  8
0-0_補助線
  6
JWW_HOJO
 62
   120
370
     5
100
AcDbLine
 10
-2270.819649037519
 20
8747.924128477727
 30
0.0
 11
1474.18035096248
 21
8747.924128477727
 31
0.0
  0
LINE
  5
153
330
1F
100
AcDbEntity
  8
0-0_補助線
  6
JWW_HOJO
 62
   120
370
     5
100
AcDbLine
 10
-3020.819649037519
 20
7997.924128477727
 30
0.0
 11
2224.18035096248
 21
7997.924128477727
 31
0.0
  0
LINE
  5
154
330
1F
100
AcDbEntity
  8
0-0_補助線
  6
JWW_HOJO
 62
     7
370
     9
100
AcDbLine
 10
-3520.819649037523
 20
8997.924128477727
 30
0.0
 11
2724.18035096248
 21
8997.924128477727
 31
0.0
  0
TEXT
  5
155
330
1F
100
AcDbEntity
  8
0-B_寸法
  6
Continuous
 62
     7
370
   211
100
AcDbText
 10
1252.053529514519
 20
8104.324128477727
 30
0.0
 40
304.8
  1
15
 41
1.0625
  7
ＭＳ ゴシック
100
AcDbText
  0
LWPOLYLINE
  5
156
330
1F
100
AcDbEntity
  8
0-B_寸法
  6
Continuous
 62
     7
370
     9
100
AcDbPolyline
 90
        4
 70
     1
 43
20.0
 10
1159.18035096248
 20
7997.924128477727
 42
0.4142135623731
 10
1149.18035096248
 20
8007.924128477727
 42
0.4142135623731
 10
1139.18035096248
 20
7997.924128477727
 42
0.4142135623731
 10
1149.18035096248
 20
7987.924128477728
 42
0.4142135623731
  0
LINE
  5
157
330
1F
100
AcDbEntity
  8
0-B_寸法
  6
Continuous
 62
   120
370
     5
100
AcDbLine
 10
1149.18035096248
 20
7997.924128477727
 30
0.0
 11
1149.18035096248
 21
8747.924128477727
 31
0.0
  0
LWPOLYLINE
  5
158
330
1F
100
AcDbEntity
  8
0-B_寸法
  6
Continuous
 62
     7
370
     9
100
AcDbPolyline
 90
        4
 70
     1
 43
20.0
 10
1234.18035096248
 20
7997.924128477727
 42
0.4142135623731
 10
1224.18035096248
 20
8007.924128477727
 42
0.4142135623731
 10
1214.18035096248
 20
7997.924128477727
 42
0.4142135623731
 10
1224.18035096248
 20
7987.924128477728
 42
0.4142135623731
  0
LINE
  5
159
330
1F
100
AcDbEntity
  8
0-B_寸法
  6
Continuous
 62
   120
370
     5
100
AcDbLine
 10
1224.18035096248
 20
7997.924128477727
 30
0.0
 11
1224.18035096248
 21
8747.924128477727
 31
0.0
  0
LINE
  5
15A
330
1F
100
AcDbEntity
  8
0-B_寸法
  6
Continuous
 62
   120
370
     5
100
AcDbLine
 10
1149.18035096248
 20
7997.924128477727
 30
0.0
 11
1224.18035096248
 21
7997.924128477727
 31
0.0
  0
LINE
  5
15B
330
1F
100
AcDbEntity
  8
0-B_寸法
  6
Continuous
 62
   120
370
     5
100
AcDbLine
 10
-345.8196490375194
 20
7997.924128477727
 30
0.0
 11
1149.18035096248
 21
7997.924128477727
 31
0.0
  0
LINE
  5
15C
330
1F
100
AcDbEntity
  8
0-0_補助線
  6
JWW_HOJO
 62
   120
370
     5
100
AcDbLine
 10
-3520.819649037523
 20
7497.924128477727
 30
0.0
 11
2724.18035096248
 21
7497.924128477727
 31
0.0
  0
LINE
  5
15D
330
1F
100
AcDbEntity
  8
固定棚
  6
Continuous
 62
    92
370
    13
100
AcDbLine
 10
1149.18035096248
 20
9012.924128477727
 30
0.0
 11
-1945.819649037519
 21
9012.924128477727
 31
0.0
  0
LINE
  5
15E
330
1F
100
AcDbEntity
  8
桟木・巾木
  6
Continuous
 62
     7
370
     9
100
AcDbLine
 10
-1945.819649037519
 20
-8256.33686257085
 30
0.0
 11
1149.18035096248
 21
-8256.33686257085
 31
0.0
  0
LINE
  5
15F
330
1F
100
AcDbEntity
  8
桟木・巾木
  6
Continuous
 62
     7
370
     9
100
AcDbLine
 10
1149.18035096248
 20
958.6631374291528
 30
0.0
 11
-1945.819649037519
 21
958.6631374291528
 31
0.0
  0
LINE
  5
160
330
1F
100
AcDbEntity
  8
0-A_文字
  6
Continuous
 62
     7
370
     9
100
AcDbLine
 10
-997.834579410835
 20
8747.924128477727
 30
0.0
 11
-738.0269582755034
 21
8897.924128477727
 31
0.0
  0
LINE
  5
161
330
1F
100
AcDbEntity
  8
0-A_文字
  6
Continuous
 62
     7
370
     9
100
AcDbLine
 10
-997.834579410835
 20
8747.924128477727
 30
0.0
 11
-738.0269582755034
 21
8597.924128477727
 31
0.0
  0
LINE
  5
162
330
1F
100
AcDbEntity
  8
0-A_文字
  6
JWW_CENTER1
 62
     7
370
     9
100
AcDbLine
 10
2.165420589165024
 20
8747.924128477727
 30
0.0
 11
-997.834579410835
 21
8747.924128477727
 31
0.0
  0
TEXT
  5
163
330
1F
100
AcDbEntity
  8
0-A_文字
  6
Continuous
 62
     7
370
     9
100
AcDbText
 10
2.165420589165024
 20
8404.324128477727
 30
0.0
 40
304.8
  1
ａ
  7
ＭＳ ゴシック
100
AcDbText
  0
TEXT
  5
164
330
1F
100
AcDbEntity
  8
0-A_文字
  6
Continuous
 62
     7
370
     9
100
AcDbText
 10
25.28389219341634
 20
1599.635662778121
 30
0.0
 40
228.6
  1
桟木
 41
1.083333333333333
  7
ＭＳ ゴシック
100
AcDbText
  0
LINE
  5
165
330
1F
100
AcDbEntity
  8
0-A_文字
  6
Continuous
 62
     7
370
     9
100
AcDbLine
 10
675.2838921934164
 20
1557.335662778121
 30
0.0
 11
2.36271385077842
 21
1557.335662778121
 31
0.0
  0
LINE
  5
166
330
1F
100
AcDbEntity
  8
0-A_文字
  6
Continuous
 62
     7
370
     9
100
AcDbLine
 10
-271.7752252638597
 20
1082.514823949341
 30
0.0
 11
2.36271385077842
 21
1557.335662778121
 31
0.0
  0
TEXT
  5
167
330
1F
100
AcDbEntity
  8
0-B_寸法
  6
Continuous
 62
     7
370
   211
100
AcDbText
 10
-723.31964903752
 20
-10015.71943579508
 30
0.0
 40
304.8
  1
649
 41
1.083333333333333
  7
ＭＳ ゴシック
100
AcDbText
  0
TEXT
  5
168
330
1F
100
AcDbEntity
  8
0-B_寸法
  6
Continuous
 62
     7
370
   211
100
AcDbText
 10
-723.31964903752
 20
8104.324128477727
 30
0.0
 40
304.8
  1
619
 41
1.083333333333333
  7
ＭＳ ゴシック
100
AcDbText
  0
TEXT
  5
169
330
1F
100
AcDbEntity
  8
0-B_寸法
  6
Continuous
 62
     7
370
   211
100
AcDbText
 10
-723.31964903752
 20
-9449.936862570848
 30
0.0
 40
304.8
  1
619
 41
1.083333333333333
  7
ＭＳ ゴシック
100
AcDbText
  0
LINE
  5
16A
330
1F
100
AcDbEntity
  8
0-A_文字
  6
Continuous
 62
     7
370
     9
100
AcDbLine
 10
-2060.496278817344
 20
3543.538953891983
 30
0.0
 11
-1786.358339702706
 21
4018.359792720762
 31
0.0
  0
TEXT
  5
16B
330
1F
100
AcDbEntity
  8
0-A_文字
  6
Continuous
 62
     7
370
     9
100
AcDbText
 10
-1763.437161360069
 20
4060.659792720762
 30
0.0
 40
228.6
  1
サイドパネル(現場カット)
 41
1.159722222222222
  7
ＭＳ ゴシック
100
AcDbText
  0
TEXT
  5
16C
330
1F
100
AcDbEntity
  8
0-A_文字
  6
Continuous
 62
     7
370
     9
100
AcDbText
 10
-11535.92111560012
 20
4060.659792720762
 30
0.0
 40
228.6
  1
サイドパネル(現場カット)
 41
1.159722222222222
  7
ＭＳ ゴシック
100
AcDbText
  0
LINE
  5
16D
330
1F
100
AcDbEntity
  8
0-A_文字
  6
Continuous
 62
     7
370
     9
100
AcDbLine
 10
-7413.607101317845
 20
4018.359792720762
 30
0.0
 11
-11558.84229394276
 21
4018.359792720762
 31
0.0
  0
LINE
  5
16E
330
1F
100
AcDbEntity
  8
0-A_文字
  6
Continuous
 62
     7
370
     9
100
AcDbLine
 10
-11832.9802330574
 20
3543.538953891983
 30
0.0
 11
-11558.84229394276
 21
4018.359792720762
 31
0.0
  0
LINE
  5
16F
330
1F
100
AcDbEntity
  8
0-B_寸法
  6
Continuous
 62
   120
370
     5
100
AcDbLine
 10
-2125.81964903752
 20
2363.663137429148
 30
0.0
 11
-2020.819649037519
 21
2363.663137429148
 31
0.0
  0
LWPOLYLINE
  5
170
330
1F
100
AcDbEntity
  8
0-B_寸法
  6
Continuous
 62
     7
370
     9
100
AcDbPolyline
 90
        4
 70
     1
 43
20.0
 10
-2115.81964903752
 20
2363.663137429148
 42
0.4142135623731
 10
-2125.81964903752
 20
2373.663137429148
 42
0.4142135623731
 10
-2135.819649037521
 20
2363.663137429148
 42
0.4142135623731
 10
-2125.81964903752
 20
2353.663137429148
 42
0.4142135623731
  0
LWPOLYLINE
  5
171
330
1F
100
AcDbEntity
  8
0-B_寸法
  6
Continuous
 62
     7
370
     9
100
AcDbPolyline
 90
        4
 70
     1
 43
20.0
 10
-2010.819649037519
 20
2363.663137429148
 42
0.4142135623731
 10
-2020.819649037519
 20
2373.663137429148
 42
0.4142135623731
 10
-2030.819649037519
 20
2363.663137429148
 42
0.4142135623731
 10
-2020.819649037519
 20
2353.663137429148
 42
0.4142135623731
  0
LINE
  5
172
330
1F
100
AcDbEntity
  8
0-B_寸法
  6
Continuous
 62
   120
370
     5
100
AcDbLine
 10
-2125.81964903752
 20
2363.663137429148
 30
0.0
 11
-2125.81964903752
 21
1613.663137429151
 31
0.0
  0
LINE
  5
173
330
1F
100
AcDbEntity
  8
0-B_寸法
  6
Continuous
 62
   120
370
     5
100
AcDbLine
 10
-2020.819649037519
 20
2363.663137429148
 30
0.0
 11
-2020.819649037519
 21
1613.663137429151
 31
0.0
  0
TEXT
  5
174
330
1F
100
AcDbEntity
  8
0-B_寸法
  6
Continuous
 62
     7
370
   211
100
AcDbText
 10
-2285.81964903752
 20
2420.063137429148
 30
0.0
 40
304.8
  1
21
 41
1.0625
  7
ＭＳ ゴシック
100
AcDbText
  0
LINE
  5
175
330
1F
100
AcDbEntity
  8
0-B_寸法
  6
Continuous
 62
   120
370
     5
100
AcDbLine
 10
-2020.819649037519
 20
2363.663137429148
 30
0.0
 11
1224.18035096248
 21
2363.663137429148
 31
0.0
  0
LWPOLYLINE
  5
176
330
1F
100
AcDbEntity
  8
0-B_寸法
  6
Continuous
 62
     7
370
     9
100
AcDbPolyline
 90
        4
 70
     1
 43
20.0
 10
1234.18035096248
 20
2363.663137429148
 42
0.4142135623731
 10
1224.18035096248
 20
2373.663137429148
 42
0.4142135623731
 10
1214.18035096248
 20
2363.663137429148
 42
0.4142135623731
 10
1224.18035096248
 20
2353.663137429148
 42
0.4142135623731
  0
LINE
  5
177
330
1F
100
AcDbEntity
  8
0-B_寸法
  6
Continuous
 62
   120
370
     5
100
AcDbLine
 10
1224.18035096248
 20
2363.663137429148
 30
0.0
 11
1224.18035096248
 21
1613.663137429151
 31
0.0
  0
TEXT
  5
178
330
1F
100
AcDbEntity
  8
0-B_寸法
  6
Continuous
 62
     7
370
   211
100
AcDbText
 10
-723.31964903752
 20
2420.063137429148
 30
0.0
 40
304.8
  1
649
 41
1.083333333333333
  7
ＭＳ ゴシック
100
AcDbText
  0
LWPOLYLINE
  5
179
330
1F
100
AcDbEntity
  8
0-B_寸法
  6
Continuous
 62
     7
370
     9
100
AcDbPolyline
 90
        4
 70
     1
 43
20.0
 10
-8538.303603277567
 20
2363.663137429148
 42
0.4142135623731
 10
-8548.303603277565
 20
2373.663137429148
 42
0.4142135623731
 10
-8558.303603277565
 20
2363.663137429148
 42
0.4142135623731
 10
-8548.303603277565
 20
2353.663137429148
 42
0.4142135623731
  0
LINE
  5
17A
330
1F
100
AcDbEntity
  8
0-B_寸法
  6
Continuous
 62
   120
370
     5
100
AcDbLine
 10
-8548.303603277565
 20
2363.663137429148
 30
0.0
 11
-8548.303603277565
 21
1613.663137429148
 31
0.0
  0
LINE
  5
17B
330
1F
100
AcDbEntity
  8
固定棚
  6
Continuous
 62
    92
370
    13
100
AcDbLine
 10
1149.18035096248
 20
-6101.336862570783
 30
0.0
 11
-1945.819649037525
 21
-6101.336862570783
 31
0.0
  0
LINE
  5
17C
330
1F
100
AcDbEntity
  8
固定棚
  6
Continuous
 62
    92
370
    13
100
AcDbLine
 10
1149.18035096248
 20
-5996.336862570782
 30
0.0
 11
-1945.819649037525
 21
-5996.336862570782
 31
0.0
  0
LINE
  5
17D
330
1F
100
AcDbEntity
  8
0-A_文字
  6
Continuous
 62
     7
370
     9
100
AcDbLine
 10
-1073.408328117258
 20
-6051.649243359333
 30
0.0
 11
-898.3196490375228
 21
-5748.386755363112
 31
0.0
  0
LINE
  5
17E
330
1F
100
AcDbEntity
  8
0-A_文字
  6
Continuous
 62
     7
370
     9
100
AcDbLine
 10
101.6803509624772
 20
-5748.386755363112
 30
0.0
 11
-898.3196490375228
 21
-5748.386755363112
 31
0.0
  0
TEXT
  5
17F
330
1F
100
AcDbEntity
  8
0-A_文字
  6
Continuous
 62
     7
370
     9
100
AcDbText
 10
-898.3196490375228
 20
-5706.086755363112
 30
0.0
 40
228.6
  1
固定棚
 41
1.111111111111111
  7
ＭＳ ゴシック
100
AcDbText
  0
LINE
  5
180
330
1F
100
AcDbEntity
  8
固定棚
  6
Continuous
 62
    92
370
    13
100
AcDbLine
 10
1149.18035096248
 20
-1141.33686257083
 30
0.0
 11
-1945.819649037525
 21
-1141.33686257083
 31
0.0
  0
LINE
  5
181
330
1F
100
AcDbEntity
  8
固定棚
  6
Continuous
 62
    92
370
    13
100
AcDbLine
 10
1149.18035096248
 20
-1036.336862570829
 30
0.0
 11
-1945.819649037525
 21
-1036.336862570829
 31
0.0
  0
LINE
  5
182
330
1F
100
AcDbEntity
  8
0-A_文字
  6
Continuous
 62
     7
370
     9
100
AcDbLine
 10
-1073.408328117258
 20
-1091.64924335938
 30
0.0
 11
-898.3196490375228
 21
-788.386755363159
 31
0.0
  0
LINE
  5
183
330
1F
100
AcDbEntity
  8
0-A_文字
  6
Continuous
 62
     7
370
     9
100
AcDbLine
 10
101.6803509624772
 20
-788.386755363159
 30
0.0
 11
-898.3196490375228
 21
-788.386755363159
 31
0.0
  0
TEXT
  5
184
330
1F
100
AcDbEntity
  8
0-A_文字
  6
Continuous
 62
     7
370
     9
100
AcDbText
 10
-898.3196490375228
 20
-746.0867553631604
 30
0.0
 40
228.6
  1
固定棚
 41
1.111111111111111
  7
ＭＳ ゴシック
100
AcDbText
  0
LINE
  5
185
330
1F
100
AcDbEntity
  8
固定棚
  6
Continuous
 62
    40
370
    15
100
AcDbLine
 10
10574.18035117339
 20
-5996.336862570779
 30
0.0
 11
10574.18035117339
 21
-6101.336862570783
 31
0.0
  0
LINE
  5
186
330
1F
100
AcDbEntity
  8
固定棚
  6
Continuous
 62
    40
370
    15
100
AcDbLine
 10
10574.18035117339
 20
-1036.336862570826
 30
0.0
 11
10574.18035117339
 21
-1141.33686257083
 31
0.0
  0
LINE
  5
187
330
1F
100
AcDbEntity
  8
可動棚
  6
Continuous
 62
    40
370
    15
100
AcDbLine
 10
10574.18035117339
 20
148.6631374291576
 30
0.0
 11
10574.18035117339
 21
43.66313742915793
 31
0.0
  0
LINE
  5
188
330
1F
100
AcDbEntity
  8
可動棚
  6
Continuous
 62
    92
370
    13
100
AcDbLine
 10
1149.18035096248
 20
148.6631374291576
 30
0.0
 11
-1945.819649037525
 21
148.6631374291576
 31
0.0
  0
LINE
  5
189
330
1F
100
AcDbEntity
  8
可動棚
  6
Continuous
 62
    92
370
    13
100
AcDbLine
 10
1149.18035096248
 20
43.66313742915793
 30
0.0
 11
-1945.819649037525
 21
43.66313742915793
 31
0.0
  0
TEXT
  5
18A
330
1F
100
AcDbEntity
  8
0-A_文字
  6
Continuous
 62
     7
370
     9
100
AcDbText
 10
-898.3196490375228
 20
438.9132446368278
 30
0.0
 40
228.6
  1
可動棚
 41
1.111111111111111
  7
ＭＳ ゴシック
100
AcDbText
  0
LINE
  5
18B
330
1F
100
AcDbEntity
  8
0-A_文字
  6
Continuous
 62
     7
370
     9
100
AcDbLine
 10
-1073.408328117258
 20
93.35075664060781
 30
0.0
 11
-898.3196490375228
 21
396.6132446368292
 31
0.0
  0
LINE
  5
18C
330
1F
100
AcDbEntity
  8
0-A_文字
  6
Continuous
 62
     7
370
     9
100
AcDbLine
 10
101.6803509624772
 20
396.6132446368292
 30
0.0
 11
-898.3196490375228
 21
396.6132446368292
 31
0.0
  0
LINE
  5
18D
330
1F
100
AcDbEntity
  8
可動棚
  6
Continuous
 62
    40
370
    15
100
AcDbLine
 10
10574.18035117339
 20
-4331.336862570795
 30
0.0
 11
10574.18035117339
 21
-4436.336862570795
 31
0.0
  0
LINE
  5
18E
330
1F
100
AcDbEntity
  8
可動棚
  6
Continuous
 62
    92
370
    13
100
AcDbLine
 10
1149.18035096248
 20
-4331.336862570795
 30
0.0
 11
-1945.819649037525
 21
-4331.336862570795
 31
0.0
  0
LINE
  5
18F
330
1F
100
AcDbEntity
  8
可動棚
  6
Continuous
 62
    92
370
    13
100
AcDbLine
 10
1149.18035096248
 20
-4436.336862570795
 30
0.0
 11
-1945.819649037525
 21
-4436.336862570795
 31
0.0
  0
TEXT
  5
190
330
1F
100
AcDbEntity
  8
0-A_文字
  6
Continuous
 62
     7
370
     9
100
AcDbText
 10
-898.3196490375228
 20
-4041.086755363125
 30
0.0
 40
228.6
  1
可動棚
 41
1.111111111111111
  7
ＭＳ ゴシック
100
AcDbText
  0
LINE
  5
191
330
1F
100
AcDbEntity
  8
0-A_文字
  6
Continuous
 62
     7
370
     9
100
AcDbLine
 10
-1073.408328117258
 20
-4386.649243359345
 30
0.0
 11
-898.3196490375228
 21
-4083.386755363123
 31
0.0
  0
LINE
  5
192
330
1F
100
AcDbEntity
  8
0-A_文字
  6
Continuous
 62
     7
370
     9
100
AcDbLine
 10
101.6803509624772
 20
-4083.386755363123
 30
0.0
 11
-898.3196490375228
 21
-4083.386755363123
 31
0.0
  0
LINE
  5
193
330
1F
100
AcDbEntity
  8
可動棚
  6
Continuous
 62
    40
370
    15
100
AcDbLine
 10
10574.18035117339
 20
-2571.336862570811
 30
0.0
 11
10574.18035117339
 21
-2676.336862570811
 31
0.0
  0
LINE
  5
194
330
1F
100
AcDbEntity
  8
可動棚
  6
Continuous
 62
    92
370
    13
100
AcDbLine
 10
1149.18035096248
 20
-2571.336862570811
 30
0.0
 11
-1945.819649037525
 21
-2571.336862570811
 31
0.0
  0
LINE
  5
195
330
1F
100
AcDbEntity
  8
可動棚
  6
Continuous
 62
    92
370
    13
100
AcDbLine
 10
1149.18035096248
 20
-2676.336862570811
 30
0.0
 11
-1945.819649037525
 21
-2676.336862570811
 31
0.0
  0
TEXT
  5
196
330
1F
100
AcDbEntity
  8
0-A_文字
  6
Continuous
 62
     7
370
     9
100
AcDbText
 10
-898.3196490375228
 20
-2281.086755363141
 30
0.0
 40
228.6
  1
可動棚
 41
1.111111111111111
  7
ＭＳ ゴシック
100
AcDbText
  0
LINE
  5
197
330
1F
100
AcDbEntity
  8
0-A_文字
  6
Continuous
 62
     7
370
     9
100
AcDbLine
 10
-1073.408328117258
 20
-2626.649243359361
 30
0.0
 11
-898.3196490375228
 21
-2323.38675536314
 31
0.0
  0
LINE
  5
198
330
1F
100
AcDbEntity
  8
0-A_文字
  6
Continuous
 62
     7
370
     9
100
AcDbLine
 10
101.6803509624772
 20
-2323.38675536314
 30
0.0
 11
-898.3196490375228
 21
-2323.38675536314
 31
0.0
  0
LINE
  5
199
330
1F
100
AcDbEntity
  8
可動棚
  6
Continuous
 62
    40
370
    15
100
AcDbLine
 10
10574.18035117339
 20
-7051.336862570768
 30
0.0
 11
10574.18035117339
 21
-7156.336862570768
 31
0.0
  0
LINE
  5
19A
330
1F
100
AcDbEntity
  8
可動棚
  6
Continuous
 62
    92
370
    13
100
AcDbLine
 10
1149.18035096248
 20
-7051.336862570768
 30
0.0
 11
-1945.819649037525
 21
-7051.336862570768
 31
0.0
  0
LINE
  5
19B
330
1F
100
AcDbEntity
  8
可動棚
  6
Continuous
 62
    92
370
    13
100
AcDbLine
 10
1149.18035096248
 20
-7156.336862570768
 30
0.0
 11
-1945.819649037525
 21
-7156.336862570768
 31
0.0
  0
TEXT
  5
19C
330
1F
100
AcDbEntity
  8
0-A_文字
  6
Continuous
 62
     7
370
     9
100
AcDbText
 10
-898.3196490375228
 20
-6761.086755363098
 30
0.0
 40
228.6
  1
可動棚
 41
1.111111111111111
  7
ＭＳ ゴシック
100
AcDbText
  0
LINE
  5
19D
330
1F
100
AcDbEntity
  8
0-A_文字
  6
Continuous
 62
     7
370
     9
100
AcDbLine
 10
-1073.408328117258
 20
-7106.649243359318
 30
0.0
 11
-898.3196490375228
 21
-6803.386755363097
 31
0.0
  0
LINE
  5
19E
330
1F
100
AcDbEntity
  8
0-A_文字
  6
Continuous
 62
     7
370
     9
100
AcDbLine
 10
101.6803509624772
 20
-6803.386755363097
 30
0.0
 11
-898.3196490375228
 21
-6803.386755363097
 31
0.0
  0
CIRCLE
  5
19F
330
1F
100
AcDbEntity
  8
側板
  6
Continuous
 62
   120
370
     5
100
AcDbCircle
 10
9259.180350962486
 20
831.1631374291494
 30
0.0
 40
12.5
  0
CIRCLE
  5
1A0
330
1F
100
AcDbEntity
  8
側板
  6
Continuous
 62
   120
370
     5
100
AcDbCircle
 10
9259.180350962486
 20
671.1631374291528
 30
0.0
 40
12.5
  0
CIRCLE
  5
1A1
330
1F
100
AcDbEntity
  8
側板
  6
Continuous
 62
   120
370
     5
100
AcDbCircle
 10
9259.180350962486
 20
511.1631374291534
 30
0.0
 40
12.5
  0
CIRCLE
  5
1A2
330
1F
100
AcDbEntity
  8
側板
  6
Continuous
 62
   120
370
     5
100
AcDbCircle
 10
9259.180350962486
 20
351.1631374291539
 30
0.0
 40
12.5
  0
CIRCLE
  5
1A3
330
1F
100
AcDbEntity
  8
側板
  6
Continuous
 62
   120
370
     5
100
AcDbCircle
 10
9259.180350962486
 20
191.1631374291574
 30
0.0
 40
12.5
  0
CIRCLE
  5
1A4
330
1F
100
AcDbEntity
  8
側板
  6
Continuous
 62
   120
370
     5
100
AcDbCircle
 10
9259.180350962486
 20
31.16313742915793
 30
0.0
 40
12.5
  0
CIRCLE
  5
1A5
330
1F
100
AcDbEntity
  8
側板
  6
Continuous
 62
   120
370
     5
100
AcDbCircle
 10
9259.180350962486
 20
-128.8368625708415
 30
0.0
 40
12.5
  0
CIRCLE
  5
1A6
330
1F
100
AcDbEntity
  8
側板
  6
Continuous
 62
   120
370
     5
100
AcDbCircle
 10
9259.180350962486
 20
-288.8368625708381
 30
0.0
 40
12.5
  0
CIRCLE
  5
1A7
330
1F
100
AcDbEntity
  8
側板
  6
Continuous
 62
   120
370
     5
100
AcDbCircle
 10
9259.180350962486
 20
-448.8368625708361
 30
0.0
 40
12.5
  0
CIRCLE
  5
1A8
330
1F
100
AcDbEntity
  8
側板
  6
Continuous
 62
   120
370
     5
100
AcDbCircle
 10
9259.180350962486
 20
-608.8368625708341
 30
0.0
 40
12.5
  0
CIRCLE
  5
1A9
330
1F
100
AcDbEntity
  8
側板
  6
Continuous
 62
   120
370
     5
100
AcDbCircle
 10
9259.180350962486
 20
-768.8368625708335
 30
0.0
 40
12.5
  0
CIRCLE
  5
1AA
330
1F
100
AcDbEntity
  8
側板
  6
Continuous
 62
   120
370
     5
100
AcDbCircle
 10
9259.180350962486
 20
-928.8368625708345
 30
0.0
 40
12.5
  0
CIRCLE
  5
1AB
330
1F
100
AcDbEntity
  8
側板
  6
Continuous
 62
   120
370
     5
100
AcDbCircle
 10
9259.180350962486
 20
-1088.836862570829
 30
0.0
 40
12.5
  0
CIRCLE
  5
1AC
330
1F
100
AcDbEntity
  8
側板
  6
Continuous
 62
   120
370
     5
100
AcDbCircle
 10
9259.180350962486
 20
-1248.836862570829
 30
0.0
 40
12.5
  0
CIRCLE
  5
1AD
330
1F
100
AcDbEntity
  8
側板
  6
Continuous
 62
   120
370
     5
100
AcDbCircle
 10
9259.180350962486
 20
-1408.836862570826
 30
0.0
 40
12.5
  0
CIRCLE
  5
1AE
330
1F
100
AcDbEntity
  8
側板
  6
Continuous
 62
   120
370
     5
100
AcDbCircle
 10
9259.180350962486
 20
-1568.836862570825
 30
0.0
 40
12.5
  0
CIRCLE
  5
1AF
330
1F
100
AcDbEntity
  8
側板
  6
Continuous
 62
   120
370
     5
100
AcDbCircle
 10
9259.180350962486
 20
-1728.836862570824
 30
0.0
 40
12.5
  0
CIRCLE
  5
1B0
330
1F
100
AcDbEntity
  8
側板
  6
Continuous
 62
   120
370
     5
100
AcDbCircle
 10
9259.180350962486
 20
-1888.836862570821
 30
0.0
 40
12.5
  0
CIRCLE
  5
1B1
330
1F
100
AcDbEntity
  8
側板
  6
Continuous
 62
   120
370
     5
100
AcDbCircle
 10
9259.180350962486
 20
-2048.83686257082
 30
0.0
 40
12.5
  0
CIRCLE
  5
1B2
330
1F
100
AcDbEntity
  8
側板
  6
Continuous
 62
   120
370
     5
100
AcDbCircle
 10
9259.180350962486
 20
-2208.83686257082
 30
0.0
 40
12.5
  0
CIRCLE
  5
1B3
330
1F
100
AcDbEntity
  8
側板
  6
Continuous
 62
   120
370
     5
100
AcDbCircle
 10
9259.180350962486
 20
-2368.836862570816
 30
0.0
 40
12.5
  0
CIRCLE
  5
1B4
330
1F
100
AcDbEntity
  8
側板
  6
Continuous
 62
   120
370
     5
100
AcDbCircle
 10
9259.180350962486
 20
-2528.836862570816
 30
0.0
 40
12.5
  0
CIRCLE
  5
1B5
330
1F
100
AcDbEntity
  8
側板
  6
Continuous
 62
   120
370
     5
100
AcDbCircle
 10
9259.180350962486
 20
-2688.836862570811
 30
0.0
 40
12.5
  0
CIRCLE
  5
1B6
330
1F
100
AcDbEntity
  8
側板
  6
Continuous
 62
   120
370
     5
100
AcDbCircle
 10
9259.180350962486
 20
-2848.836862570812
 30
0.0
 40
12.5
  0
CIRCLE
  5
1B7
330
1F
100
AcDbEntity
  8
側板
  6
Continuous
 62
   120
370
     5
100
AcDbCircle
 10
9259.180350962486
 20
-3008.836862570811
 30
0.0
 40
12.5
  0
CIRCLE
  5
1B8
330
1F
100
AcDbEntity
  8
側板
  6
Continuous
 62
   120
370
     5
100
AcDbCircle
 10
9259.180350962486
 20
-3168.836862570805
 30
0.0
 40
12.5
  0
CIRCLE
  5
1B9
330
1F
100
AcDbEntity
  8
側板
  6
Continuous
 62
   120
370
     5
100
AcDbCircle
 10
9259.180350962486
 20
-3328.836862570807
 30
0.0
 40
12.5
  0
CIRCLE
  5
1BA
330
1F
100
AcDbEntity
  8
側板
  6
Continuous
 62
   120
370
     5
100
AcDbCircle
 10
9259.180350962486
 20
-3488.836862570807
 30
0.0
 40
12.5
  0
CIRCLE
  5
1BB
330
1F
100
AcDbEntity
  8
側板
  6
Continuous
 62
   120
370
     5
100
AcDbCircle
 10
9259.180350962486
 20
-3648.836862570801
 30
0.0
 40
12.5
  0
CIRCLE
  5
1BC
330
1F
100
AcDbEntity
  8
側板
  6
Continuous
 62
   120
370
     5
100
AcDbCircle
 10
9259.180350962486
 20
-3808.836862570803
 30
0.0
 40
12.5
  0
CIRCLE
  5
1BD
330
1F
100
AcDbEntity
  8
側板
  6
Continuous
 62
   120
370
     5
100
AcDbCircle
 10
9259.180350962486
 20
-3968.836862570799
 30
0.0
 40
12.5
  0
CIRCLE
  5
1BE
330
1F
100
AcDbEntity
  8
側板
  6
Continuous
 62
   120
370
     5
100
AcDbCircle
 10
9259.180350962486
 20
-4128.836862570802
 30
0.0
 40
12.5
  0
CIRCLE
  5
1BF
330
1F
100
AcDbEntity
  8
側板
  6
Continuous
 62
   120
370
     5
100
AcDbCircle
 10
9259.180350962486
 20
-4288.836862570798
 30
0.0
 40
12.5
  0
CIRCLE
  5
1C0
330
1F
100
AcDbEntity
  8
側板
  6
Continuous
 62
   120
370
     5
100
AcDbCircle
 10
9259.180350962486
 20
-4448.836862570795
 30
0.0
 40
12.5
  0
CIRCLE
  5
1C1
330
1F
100
AcDbEntity
  8
側板
  6
Continuous
 62
   120
370
     5
100
AcDbCircle
 10
9259.180350962486
 20
-4608.836862570792
 30
0.0
 40
12.5
  0
CIRCLE
  5
1C2
330
1F
100
AcDbEntity
  8
側板
  6
Continuous
 62
   120
370
     5
100
AcDbCircle
 10
9259.180350962486
 20
-4768.836862570794
 30
0.0
 40
12.5
  0
CIRCLE
  5
1C3
330
1F
100
AcDbEntity
  8
側板
  6
Continuous
 62
   120
370
     5
100
AcDbCircle
 10
9259.180350962486
 20
-4928.83686257079
 30
0.0
 40
12.5
  0
CIRCLE
  5
1C4
330
1F
100
AcDbEntity
  8
側板
  6
Continuous
 62
   120
370
     5
100
AcDbCircle
 10
9259.180350962486
 20
-5088.836862570791
 30
0.0
 40
12.5
  0
CIRCLE
  5
1C5
330
1F
100
AcDbEntity
  8
側板
  6
Continuous
 62
   120
370
     5
100
AcDbCircle
 10
9259.180350962486
 20
-5248.836862570788
 30
0.0
 40
12.5
  0
CIRCLE
  5
1C6
330
1F
100
AcDbEntity
  8
側板
  6
Continuous
 62
   120
370
     5
100
AcDbCircle
 10
9259.180350962486
 20
-5408.836862570786
 30
0.0
 40
12.5
  0
CIRCLE
  5
1C7
330
1F
100
AcDbEntity
  8
側板
  6
Continuous
 62
   120
370
     5
100
AcDbCircle
 10
9259.180350962486
 20
-5568.836862570786
 30
0.0
 40
12.5
  0
CIRCLE
  5
1C8
330
1F
100
AcDbEntity
  8
側板
  6
Continuous
 62
   120
370
     5
100
AcDbCircle
 10
9259.180350962486
 20
-5728.836862570782
 30
0.0
 40
12.5
  0
CIRCLE
  5
1C9
330
1F
100
AcDbEntity
  8
側板
  6
Continuous
 62
   120
370
     5
100
AcDbCircle
 10
9259.180350962486
 20
-5888.836862570781
 30
0.0
 40
12.5
  0
CIRCLE
  5
1CA
330
1F
100
AcDbEntity
  8
側板
  6
Continuous
 62
   120
370
     5
100
AcDbCircle
 10
9259.180350962486
 20
-6048.836862570782
 30
0.0
 40
12.5
  0
CIRCLE
  5
1CB
330
1F
100
AcDbEntity
  8
側板
  6
Continuous
 62
   120
370
     5
100
AcDbCircle
 10
9259.180350962486
 20
-6208.836862570777
 30
0.0
 40
12.5
  0
CIRCLE
  5
1CC
330
1F
100
AcDbEntity
  8
側板
  6
Continuous
 62
   120
370
     5
100
AcDbCircle
 10
9259.180350962486
 20
-6368.836862570777
 30
0.0
 40
12.5
  0
CIRCLE
  5
1CD
330
1F
100
AcDbEntity
  8
側板
  6
Continuous
 62
   120
370
     5
100
AcDbCircle
 10
9259.180350962486
 20
-6528.836862570779
 30
0.0
 40
12.5
  0
CIRCLE
  5
1CE
330
1F
100
AcDbEntity
  8
側板
  6
Continuous
 62
   120
370
     5
100
AcDbCircle
 10
9259.180350962486
 20
-6688.836862570773
 30
0.0
 40
12.5
  0
CIRCLE
  5
1CF
330
1F
100
AcDbEntity
  8
側板
  6
Continuous
 62
   120
370
     5
100
AcDbCircle
 10
9259.180350962486
 20
-6848.836862570772
 30
0.0
 40
12.5
  0
CIRCLE
  5
1D0
330
1F
100
AcDbEntity
  8
側板
  6
Continuous
 62
   120
370
     5
100
AcDbCircle
 10
9259.180350962486
 20
-7008.836862570769
 30
0.0
 40
12.5
  0
CIRCLE
  5
1D1
330
1F
100
AcDbEntity
  8
側板
  6
Continuous
 62
   120
370
     5
100
AcDbCircle
 10
9259.180350962486
 20
-7168.836862570768
 30
0.0
 40
12.5
  0
CIRCLE
  5
1D2
330
1F
100
AcDbEntity
  8
側板
  6
Continuous
 62
   120
370
     5
100
AcDbCircle
 10
9259.180350962486
 20
-7328.836862570768
 30
0.0
 40
12.5
  0
CIRCLE
  5
1D3
330
1F
100
AcDbEntity
  8
側板
  6
Continuous
 62
   120
370
     5
100
AcDbCircle
 10
9259.180350962486
 20
-7488.836862570764
 30
0.0
 40
12.5
  0
CIRCLE
  5
1D4
330
1F
100
AcDbEntity
  8
側板
  6
Continuous
 62
   120
370
     5
100
AcDbCircle
 10
9259.180350962486
 20
-7648.836862570764
 30
0.0
 40
12.5
  0
CIRCLE
  5
1D5
330
1F
100
AcDbEntity
  8
側板
  6
Continuous
 62
   120
370
     5
100
AcDbCircle
 10
9259.180350962486
 20
-7808.836862570763
 30
0.0
 40
12.5
  0
CIRCLE
  5
1D6
330
1F
100
AcDbEntity
  8
側板
  6
Continuous
 62
   120
370
     5
100
AcDbCircle
 10
9259.180350962486
 20
-7968.836862570765
 30
0.0
 40
12.5
  0
CIRCLE
  5
1D7
330
1F
100
AcDbEntity
  8
側板
  6
Continuous
 62
   120
370
     5
100
AcDbCircle
 10
9259.180350962486
 20
-8128.836862570759
 30
0.0
 40
12.5
  0
LINE
  5
1D8
330
1F
100
AcDbEntity
  8
0-A_文字
  6
Continuous
 62
     7
370
     9
100
AcDbLine
 10
8574.180350962473
 20
-1375.356079728252
 30
0.0
 11
8574.180350962473
 21
124.6439202717454
 31
0.0
  0
LINE
  5
1D9
330
1F
100
AcDbEntity
  8
0-A_文字
  6
Continuous
 62
     7
370
     9
100
AcDbLine
 10
9074.180350962479
 20
413.3190548665624
 30
0.0
 11
8574.180350962473
 21
124.6439202717454
 31
0.0
  0
LINE
  5
1DA
330
1F
100
AcDbEntity
  8
側板
  6
Continuous
 62
    92
370
    13
100
AcDbLine
 10
9074.180350962479
 20
-8556.33686257085
 30
0.0
 11
9074.180350962479
 21
1258.663137429153
 31
0.0
  0
LINE
  5
1DB
330
1F
100
AcDbEntity
  8
側板
  6
Continuous
 62
    92
370
    13
100
AcDbLine
 10
9074.180350962479
 20
1258.663137429153
 30
0.0
 11
10574.18035096248
 21
1258.663137429153
 31
0.0
  0
LINE
  5
1DC
330
1F
100
AcDbEntity
  8
側板
  6
Continuous
 62
    92
370
    13
100
AcDbLine
 10
10574.18035096248
 20
-8556.33686257085
 30
0.0
 11
9074.180350962479
 21
-8556.33686257085
 31
0.0
  0
TEXT
  5
1DD
330
1F
100
AcDbEntity
  8
0-A_文字
  6
Continuous
 62
     7
370
     9
100
AcDbText
 10
8456.880350962474
 20
-1125.356079728255
 30
0.0
 40
228.6
  1
化粧面
 50
90.0
 41
1.111111111111111
  7
ＭＳ ゴシック
100
AcDbText
  0
LINE
  5
1DE
330
1F
100
AcDbEntity
  8
0-2
  6
Continuous
 62
    40
370
    15
100
AcDbLine
 10
9074.180349673385
 20
1363.663136090594
 30
0.0
 11
10574.18035096248
 21
1363.663136090594
 31
0.0
  0
LINE
  5
1DF
330
1F
100
AcDbEntity
  8
0-2
  6
Continuous
 62
    40
370
    15
100
AcDbLine
 10
10574.18035096248
 20
1258.663137429153
 30
0.0
 11
9074.180349673385
 21
1258.663137429153
 31
0.0
  0
LINE
  5
1E0
330
1F
100
AcDbEntity
  8
0-2
  6
Continuous
 62
    40
370
    15
100
AcDbLine
 10
9074.180349673385
 20
1258.663137429153
 30
0.0
 11
9074.180349673385
 21
1363.663136090594
 31
0.0
  0
LINE
  5
1E1
330
1F
100
AcDbEntity
  8
0-0_補助線
  6
JWW_HOJO
 62
   120
370
     5
100
AcDbLine
 10
8824.180350962479
 20
-8806.336863909404
 30
0.0
 11
8824.180350962479
 21
1508.663137429153
 31
0.0
  0
LINE
  5
1E2
330
1F
100
AcDbEntity
  8
0-0_補助線
  6
JWW_HOJO
 62
     7
370
     9
100
AcDbLine
 10
9074.180349673385
 20
3008.663137429153
 30
0.0
 11
9074.180349673385
 21
-11411.86586414445
 31
0.0
  0
TEXT
  5
1E3
330
1F
100
AcDbEntity
  8
0-E
  6
Continuous
 62
     9
370
     5
100
AcDbText
 10
9116.680350317933
 20
795.2631374291494
 30
0.0
 40
76.2
  1
57
  7
ＭＳ ゴシック
100
AcDbText
  0
TEXT
  5
1E4
330
1F
100
AcDbEntity
  8
0-E
  6
Continuous
 62
     9
370
     5
100
AcDbText
 10
9116.680350317933
 20
635.26313742915
 30
0.0
 40
76.2
  1
56
  7
ＭＳ ゴシック
100
AcDbText
  0
TEXT
  5
1E5
330
1F
100
AcDbEntity
  8
0-E
  6
Continuous
 62
     9
370
     5
100
AcDbText
 10
9116.680350317933
 20
475.2631374291534
 30
0.0
 40
76.2
  1
55
  7
ＭＳ ゴシック
100
AcDbText
  0
TEXT
  5
1E6
330
1F
100
AcDbEntity
  8
0-E
  6
Continuous
 62
     9
370
     5
100
AcDbText
 10
9116.680350317933
 20
315.2631374291483
 30
0.0
 40
76.2
  1
54
  7
ＭＳ ゴシック
100
AcDbText
  0
TEXT
  5
1E7
330
1F
100
AcDbEntity
  8
0-E
  6
Continuous
 62
     9
370
     5
100
AcDbText
 10
9116.680350317933
 20
155.2631374291488
 30
0.0
 40
76.2
  1
53
  7
ＭＳ ゴシック
100
AcDbText
  0
TEXT
  5
1E8
330
1F
100
AcDbEntity
  8
0-E
  6
Continuous
 62
     9
370
     5
100
AcDbText
 10
9116.680350317933
 20
-4.736862570850597
 30
0.0
 40
76.2
  1
52
  7
ＭＳ ゴシック
100
AcDbText
  0
TEXT
  5
1E9
330
1F
100
AcDbEntity
  8
0-E
  6
Continuous
 62
     9
370
     5
100
AcDbText
 10
9116.680350317933
 20
-164.7368625708529
 30
0.0
 40
76.2
  1
51
  7
ＭＳ ゴシック
100
AcDbText
  0
TEXT
  5
1EA
330
1F
100
AcDbEntity
  8
0-E
  6
Continuous
 62
     9
370
     5
100
AcDbText
 10
9116.680350317933
 20
-324.7368625708523
 30
0.0
 40
76.2
  1
50
  7
ＭＳ ゴシック
100
AcDbText
  0
TEXT
  5
1EB
330
1F
100
AcDbEntity
  8
0-E
  6
Continuous
 62
     9
370
     5
100
AcDbText
 10
9116.680350317933
 20
-484.7368625708517
 30
0.0
 40
76.2
  1
49
  7
ＭＳ ゴシック
100
AcDbText
  0
TEXT
  5
1EC
330
1F
100
AcDbEntity
  8
0-E
  6
Continuous
 62
     9
370
     5
100
AcDbText
 10
9116.680350317933
 20
-644.7368625708497
 30
0.0
 40
76.2
  1
48
  7
ＭＳ ゴシック
100
AcDbText
  0
TEXT
  5
1ED
330
1F
100
AcDbEntity
  8
0-E
  6
Continuous
 62
     9
370
     5
100
AcDbText
 10
9116.680350317933
 20
-804.7368625708519
 30
0.0
 40
76.2
  1
47
  7
ＭＳ ゴシック
100
AcDbText
  0
TEXT
  5
1EE
330
1F
100
AcDbEntity
  8
0-E
  6
Continuous
 62
     9
370
     5
100
AcDbText
 10
9116.680350317933
 20
-964.7368625708528
 30
0.0
 40
76.2
  1
46
  7
ＭＳ ゴシック
100
AcDbText
  0
TEXT
  5
1EF
330
1F
100
AcDbEntity
  8
0-E
  6
Continuous
 62
     9
370
     5
100
AcDbText
 10
9116.680350317933
 20
-1124.736862570852
 30
0.0
 40
76.2
  1
45
  7
ＭＳ ゴシック
100
AcDbText
  0
TEXT
  5
1F0
330
1F
100
AcDbEntity
  8
0-E
  6
Continuous
 62
     9
370
     5
100
AcDbText
 10
9116.680350317933
 20
-1284.736862570852
 30
0.0
 40
76.2
  1
44
  7
ＭＳ ゴシック
100
AcDbText
  0
TEXT
  5
1F1
330
1F
100
AcDbEntity
  8
0-E
  6
Continuous
 62
     9
370
     5
100
AcDbText
 10
9116.680350317933
 20
-1444.736862570853
 30
0.0
 40
76.2
  1
43
  7
ＭＳ ゴシック
100
AcDbText
  0
TEXT
  5
1F2
330
1F
100
AcDbEntity
  8
0-E
  6
Continuous
 62
     9
370
     5
100
AcDbText
 10
9116.680350317933
 20
-1604.736862570852
 30
0.0
 40
76.2
  1
42
  7
ＭＳ ゴシック
100
AcDbText
  0
TEXT
  5
1F3
330
1F
100
AcDbEntity
  8
0-E
  6
Continuous
 62
     9
370
     5
100
AcDbText
 10
9116.680350317933
 20
-1764.736862570853
 30
0.0
 40
76.2
  1
41
  7
ＭＳ ゴシック
100
AcDbText
  0
TEXT
  5
1F4
330
1F
100
AcDbEntity
  8
0-E
  6
Continuous
 62
     9
370
     5
100
AcDbText
 10
9116.680350317933
 20
-1924.736862570852
 30
0.0
 40
76.2
  1
40
  7
ＭＳ ゴシック
100
AcDbText
  0
TEXT
  5
1F5
330
1F
100
AcDbEntity
  8
0-E
  6
Continuous
 62
     9
370
     5
100
AcDbText
 10
9116.680350317933
 20
-2084.736862570852
 30
0.0
 40
76.2
  1
39
  7
ＭＳ ゴシック
100
AcDbText
  0
TEXT
  5
1F6
330
1F
100
AcDbEntity
  8
0-E
  6
Continuous
 62
     9
370
     5
100
AcDbText
 10
9116.680350317933
 20
-2244.736862570853
 30
0.0
 40
76.2
  1
38
  7
ＭＳ ゴシック
100
AcDbText
  0
TEXT
  5
1F7
330
1F
100
AcDbEntity
  8
0-E
  6
Continuous
 62
     9
370
     5
100
AcDbText
 10
9116.680350317933
 20
-2404.736862570852
 30
0.0
 40
76.2
  1
37
  7
ＭＳ ゴシック
100
AcDbText
  0
TEXT
  5
1F8
330
1F
100
AcDbEntity
  8
0-E
  6
Continuous
 62
     9
370
     5
100
AcDbText
 10
9116.680350317933
 20
-2564.736862570853
 30
0.0
 40
76.2
  1
36
  7
ＭＳ ゴシック
100
AcDbText
  0
TEXT
  5
1F9
330
1F
100
AcDbEntity
  8
0-E
  6
Continuous
 62
     9
370
     5
100
AcDbText
 10
9116.680350317933
 20
-2724.736862570852
 30
0.0
 40
76.2
  1
35
  7
ＭＳ ゴシック
100
AcDbText
  0
TEXT
  5
1FA
330
1F
100
AcDbEntity
  8
0-E
  6
Continuous
 62
     9
370
     5
100
AcDbText
 10
9116.680350317933
 20
-2884.736862570855
 30
0.0
 40
76.2
  1
34
  7
ＭＳ ゴシック
100
AcDbText
  0
TEXT
  5
1FB
330
1F
100
AcDbEntity
  8
0-E
  6
Continuous
 62
     9
370
     5
100
AcDbText
 10
9116.680350317933
 20
-3044.736862570854
 30
0.0
 40
76.2
  1
33
  7
ＭＳ ゴシック
100
AcDbText
  0
TEXT
  5
1FC
330
1F
100
AcDbEntity
  8
0-E
  6
Continuous
 62
     9
370
     5
100
AcDbText
 10
9116.680350317933
 20
-3204.736862570851
 30
0.0
 40
76.2
  1
32
  7
ＭＳ ゴシック
100
AcDbText
  0
TEXT
  5
1FD
330
1F
100
AcDbEntity
  8
0-E
  6
Continuous
 62
     9
370
     5
100
AcDbText
 10
9116.680350317933
 20
-3364.736862570853
 30
0.0
 40
76.2
  1
31
  7
ＭＳ ゴシック
100
AcDbText
  0
TEXT
  5
1FE
330
1F
100
AcDbEntity
  8
0-E
  6
Continuous
 62
     9
370
     5
100
AcDbText
 10
9116.680350317933
 20
-3524.736862570855
 30
0.0
 40
76.2
  1
30
  7
ＭＳ ゴシック
100
AcDbText
  0
TEXT
  5
1FF
330
1F
100
AcDbEntity
  8
0-E
  6
Continuous
 62
     9
370
     5
100
AcDbText
 10
9116.680350317933
 20
-3684.736862570855
 30
0.0
 40
76.2
  1
29
  7
ＭＳ ゴシック
100
AcDbText
  0
TEXT
  5
200
330
1F
100
AcDbEntity
  8
0-E
  6
Continuous
 62
     9
370
     5
100
AcDbText
 10
9116.680350317933
 20
-3844.736862570854
 30
0.0
 40
76.2
  1
28
  7
ＭＳ ゴシック
100
AcDbText
  0
TEXT
  5
201
330
1F
100
AcDbEntity
  8
0-E
  6
Continuous
 62
     9
370
     5
100
AcDbText
 10
9116.680350317933
 20
-4004.736862570855
 30
0.0
 40
76.2
  1
27
  7
ＭＳ ゴシック
100
AcDbText
  0
TEXT
  5
202
330
1F
100
AcDbEntity
  8
0-E
  6
Continuous
 62
     9
370
     5
100
AcDbText
 10
9116.680350317933
 20
-4164.736862570852
 30
0.0
 40
76.2
  1
26
  7
ＭＳ ゴシック
100
AcDbText
  0
TEXT
  5
203
330
1F
100
AcDbEntity
  8
0-E
  6
Continuous
 62
     9
370
     5
100
AcDbText
 10
9116.680350317933
 20
-4324.736862570855
 30
0.0
 40
76.2
  1
25
  7
ＭＳ ゴシック
100
AcDbText
  0
TEXT
  5
204
330
1F
100
AcDbEntity
  8
0-E
  6
Continuous
 62
     9
370
     5
100
AcDbText
 10
9116.680350317933
 20
-4484.736862570854
 30
0.0
 40
76.2
  1
24
  7
ＭＳ ゴシック
100
AcDbText
  0
TEXT
  5
205
330
1F
100
AcDbEntity
  8
0-E
  6
Continuous
 62
     9
370
     5
100
AcDbText
 10
9116.680350317933
 20
-4644.736862570853
 30
0.0
 40
76.2
  1
23
  7
ＭＳ ゴシック
100
AcDbText
  0
TEXT
  5
206
330
1F
100
AcDbEntity
  8
0-E
  6
Continuous
 62
     9
370
     5
100
AcDbText
 10
9116.680350317933
 20
-4804.736862570856
 30
0.0
 40
76.2
  1
22
  7
ＭＳ ゴシック
100
AcDbText
  0
TEXT
  5
207
330
1F
100
AcDbEntity
  8
0-E
  6
Continuous
 62
     9
370
     5
100
AcDbText
 10
9116.680350317933
 20
-4964.736862570852
 30
0.0
 40
76.2
  1
21
  7
ＭＳ ゴシック
100
AcDbText
  0
TEXT
  5
208
330
1F
100
AcDbEntity
  8
0-E
  6
Continuous
 62
     9
370
     5
100
AcDbText
 10
9116.680350317933
 20
-5124.736862570855
 30
0.0
 40
76.2
  1
20
  7
ＭＳ ゴシック
100
AcDbText
  0
TEXT
  5
209
330
1F
100
AcDbEntity
  8
0-E
  6
Continuous
 62
     9
370
     5
100
AcDbText
 10
9116.680350317933
 20
-5284.736862570856
 30
0.0
 40
76.2
  1
19
  7
ＭＳ ゴシック
100
AcDbText
  0
TEXT
  5
20A
330
1F
100
AcDbEntity
  8
0-E
  6
Continuous
 62
     9
370
     5
100
AcDbText
 10
9116.680350317933
 20
-5444.736862570857
 30
0.0
 40
76.2
  1
18
  7
ＭＳ ゴシック
100
AcDbText
  0
TEXT
  5
20B
330
1F
100
AcDbEntity
  8
0-E
  6
Continuous
 62
     9
370
     5
100
AcDbText
 10
9116.680350317933
 20
-5604.736862570856
 30
0.0
 40
76.2
  1
17
  7
ＭＳ ゴシック
100
AcDbText
  0
TEXT
  5
20C
330
1F
100
AcDbEntity
  8
0-E
  6
Continuous
 62
     9
370
     5
100
AcDbText
 10
9116.680350317933
 20
-5764.736862570854
 30
0.0
 40
76.2
  1
16
  7
ＭＳ ゴシック
100
AcDbText
  0
TEXT
  5
20D
330
1F
100
AcDbEntity
  8
0-E
  6
Continuous
 62
     9
370
     5
100
AcDbText
 10
9116.680350317933
 20
-5924.736862570856
 30
0.0
 40
76.2
  1
15
  7
ＭＳ ゴシック
100
AcDbText
  0
TEXT
  5
20E
330
1F
100
AcDbEntity
  8
0-E
  6
Continuous
 62
     9
370
     5
100
AcDbText
 10
9116.680350317933
 20
-6084.736862570857
 30
0.0
 40
76.2
  1
14
  7
ＭＳ ゴシック
100
AcDbText
  0
TEXT
  5
20F
330
1F
100
AcDbEntity
  8
0-E
  6
Continuous
 62
     9
370
     5
100
AcDbText
 10
9116.680350317933
 20
-6244.736862570857
 30
0.0
 40
76.2
  1
13
  7
ＭＳ ゴシック
100
AcDbText
  0
TEXT
  5
210
330
1F
100
AcDbEntity
  8
0-E
  6
Continuous
 62
     9
370
     5
100
AcDbText
 10
9116.680350317933
 20
-6404.736862570856
 30
0.0
 40
76.2
  1
12
  7
ＭＳ ゴシック
100
AcDbText
  0
TEXT
  5
211
330
1F
100
AcDbEntity
  8
0-E
  6
Continuous
 62
     9
370
     5
100
AcDbText
 10
9116.680350317933
 20
-6564.736862570854
 30
0.0
 40
76.2
  1
11
  7
ＭＳ ゴシック
100
AcDbText
  0
TEXT
  5
212
330
1F
100
AcDbEntity
  8
0-E
  6
Continuous
 62
     9
370
     5
100
AcDbText
 10
9116.680350317933
 20
-6724.736862570855
 30
0.0
 40
76.2
  1
10
  7
ＭＳ ゴシック
100
AcDbText
  0
TEXT
  5
213
330
1F
100
AcDbEntity
  8
0-E
  6
Continuous
 62
     9
370
     5
100
AcDbText
 10
9141.680350317933
 20
-6884.736862570854
 30
0.0
 40
76.2
  1
9
  7
ＭＳ ゴシック
100
AcDbText
  0
TEXT
  5
214
330
1F
100
AcDbEntity
  8
0-E
  6
Continuous
 62
     9
370
     5
100
AcDbText
 10
9141.680350317933
 20
-7044.736862570853
 30
0.0
 40
76.2
  1
8
  7
ＭＳ ゴシック
100
AcDbText
  0
TEXT
  5
215
330
1F
100
AcDbEntity
  8
0-E
  6
Continuous
 62
     9
370
     5
100
AcDbText
 10
9141.680350317933
 20
-7204.736862570853
 30
0.0
 40
76.2
  1
7
  7
ＭＳ ゴシック
100
AcDbText
  0
TEXT
  5
216
330
1F
100
AcDbEntity
  8
0-E
  6
Continuous
 62
     9
370
     5
100
AcDbText
 10
9141.680350317933
 20
-7364.736862570852
 30
0.0
 40
76.2
  1
6
  7
ＭＳ ゴシック
100
AcDbText
  0
TEXT
  5
217
330
1F
100
AcDbEntity
  8
0-E
  6
Continuous
 62
     9
370
     5
100
AcDbText
 10
9141.680350317933
 20
-7524.736862570852
 30
0.0
 40
76.2
  1
5
  7
ＭＳ ゴシック
100
AcDbText
  0
TEXT
  5
218
330
1F
100
AcDbEntity
  8
0-E
  6
Continuous
 62
     9
370
     5
100
AcDbText
 10
9141.680350317933
 20
-7684.736862570851
 30
0.0
 40
76.2
  1
4
  7
ＭＳ ゴシック
100
AcDbText
  0
TEXT
  5
219
330
1F
100
AcDbEntity
  8
0-E
  6
Continuous
 62
     9
370
     5
100
AcDbText
 10
9141.680350317933
 20
-7844.73686257085
 30
0.0
 40
76.2
  1
3
  7
ＭＳ ゴシック
100
AcDbText
  0
TEXT
  5
21A
330
1F
100
AcDbEntity
  8
0-E
  6
Continuous
 62
     9
370
     5
100
AcDbText
 10
9141.680350317933
 20
-8004.73686257085
 30
0.0
 40
76.2
  1
2
  7
ＭＳ ゴシック
100
AcDbText
  0
TEXT
  5
21B
330
1F
100
AcDbEntity
  8
0-E
  6
Continuous
 62
     9
370
     5
100
AcDbText
 10
9141.680350317933
 20
-8164.73686257085
 30
0.0
 40
76.2
  1
1
  7
ＭＳ ゴシック
100
AcDbText
  0
LWPOLYLINE
  5
21C
330
1F
100
AcDbEntity
  8
0-B_寸法
  6
Continuous
 62
     7
370
     9
100
AcDbPolyline
 90
        4
 70
     1
 43
20.0
 10
9084.180350962479
 20
-10056.33686257085
 42
0.4142135623731
 10
9074.180350962479
 20
-10046.33686257085
 42
0.4142135623731
 10
9064.180350962479
 20
-10056.33686257085
 42
0.4142135623731
 10
9074.180350962479
 20
-10066.33686257085
 42
0.4142135623731
  0
LINE
  5
21D
330
1F
100
AcDbEntity
  8
0-B_寸法
  6
Continuous
 62
   120
370
     5
100
AcDbLine
 10
9074.180350962479
 20
2258.663137429153
 30
0.0
 11
9074.180350962479
 21
1508.663137429153
 31
0.0
  0
LINE
  5
21E
330
1F
100
AcDbEntity
  8
0-B_寸法
  6
Continuous
 62
   120
370
     5
100
AcDbLine
 10
9259.180350962486
 20
2258.663137429153
 30
0.0
 11
9259.180350962486
 21
1508.663137429153
 31
0.0
  0
LINE
  5
21F
330
1F
100
AcDbEntity
  8
0-B_寸法
  6
Continuous
 62
   120
370
     5
100
AcDbLine
 10
10574.18035096248
 20
-10056.33686257085
 30
0.0
 11
9074.180350962479
 21
-10056.33686257085
 31
0.0
  0
LINE
  5
220
330
1F
100
AcDbEntity
  8
0-B_寸法
  6
Continuous
 62
   120
370
     5
100
AcDbLine
 10
9074.180350962479
 20
-10056.33686257085
 30
0.0
 11
9074.180350962479
 21
-8806.336862570848
 31
0.0
  0
LWPOLYLINE
  5
221
330
1F
100
AcDbEntity
  8
0-B_寸法
  6
Continuous
 62
     7
370
     9
100
AcDbPolyline
 90
        4
 70
     1
 43
20.0
 10
9084.180350962479
 20
2258.663137429153
 42
0.4142135623731
 10
9074.180350962479
 20
2268.663137429153
 42
0.4142135623731
 10
9064.180350962479
 20
2258.663137429153
 42
0.4142135623731
 10
9074.180350962479
 20
2248.663137429153
 42
0.4142135623731
  0
LWPOLYLINE
  5
222
330
1F
100
AcDbEntity
  8
0-B_寸法
  6
Continuous
 62
     7
370
     9
100
AcDbPolyline
 90
        4
 70
     1
 43
20.0
 10
9269.180350962486
 20
2258.663137429153
 42
0.4142135623731
 10
9259.180350962486
 20
2268.663137429153
 42
0.4142135623731
 10
9249.180350962488
 20
2258.663137429153
 42
0.4142135623731
 10
9259.180350962486
 20
2248.663137429153
 42
0.4142135623731
  0
LINE
  5
223
330
1F
100
AcDbEntity
  8
0-B_寸法
  6
Continuous
 62
   120
370
     5
100
AcDbLine
 10
9074.180350962479
 20
2258.663137429153
 30
0.0
 11
9259.180350962486
 21
2258.663137429153
 31
0.0
  0
LINE
  5
224
330
1F
100
AcDbEntity
  8
0-B_寸法
  6
Continuous
 62
   120
370
     5
100
AcDbLine
 10
9259.180350962486
 20
2258.663137429153
 30
0.0
 11
10269.18035096248
 21
2258.663137429153
 31
0.0
  0
LINE
  5
225
330
1F
100
AcDbEntity
  8
0-B_寸法
  6
Continuous
 62
   120
370
     5
100
AcDbLine
 10
8074.180350962479
 20
1258.663137429153
 30
0.0
 11
8824.180350962479
 21
1258.663137429153
 31
0.0
  0
LINE
  5
226
330
1F
100
AcDbEntity
  8
0-0_補助線
  6
JWW_HOJO
 62
   120
370
     5
100
AcDbLine
 10
7424.180350962477
 20
-10056.3368639094
 30
0.0
 11
7424.180350962477
 21
3008.663137429153
 31
0.0
  0
LWPOLYLINE
  5
227
330
1F
100
AcDbEntity
  8
0-B_寸法
  6
Continuous
 62
     7
370
     9
100
AcDbPolyline
 90
        4
 70
     1
 43
20.0
 10
7434.180350962477
 20
1258.663137429153
 42
0.4142135623731
 10
7424.180350962477
 20
1268.663137429153
 42
0.4142135623731
 10
7414.180350962478
 20
1258.663137429153
 42
0.4142135623731
 10
7424.180350962477
 20
1248.663137429153
 42
0.4142135623731
  0
LWPOLYLINE
  5
228
330
1F
100
AcDbEntity
  8
0-B_寸法
  6
Continuous
 62
     7
370
     9
100
AcDbPolyline
 90
        4
 70
     1
 43
20.0
 10
7434.180350962477
 20
831.1631374291494
 42
0.4142135623731
 10
7424.180350962477
 20
841.1631374291494
 42
0.4142135623731
 10
7414.180350962478
 20
831.1631374291494
 42
0.4142135623731
 10
7424.180350962477
 20
821.1631374291494
 42
0.4142135623731
  0
LWPOLYLINE
  5
229
330
1F
100
AcDbEntity
  8
0-B_寸法
  6
Continuous
 62
     7
370
     9
100
AcDbPolyline
 90
        4
 70
     1
 43
20.0
 10
7434.180350962477
 20
-8556.33686257085
 42
0.4142135623731
 10
7424.180350962477
 20
-8546.336862570852
 42
0.4142135623731
 10
7414.180350962478
 20
-8556.33686257085
 42
0.4142135623731
 10
7424.180350962477
 20
-8566.33686257085
 42
0.4142135623731
  0
LWPOLYLINE
  5
22A
330
1F
100
AcDbEntity
  8
0-B_寸法
  6
Continuous
 62
     7
370
     9
100
AcDbPolyline
 90
        4
 70
     1
 43
20.0
 10
7434.180350962477
 20
-8128.83686257085
 42
0.4142135623731
 10
7424.180350962477
 20
-8118.836862570851
 42
0.4142135623731
 10
7414.180350962478
 20
-8128.83686257085
 42
0.4142135623731
 10
7424.180350962477
 20
-8138.83686257085
 42
0.4142135623731
  0
LINE
  5
22B
330
1F
100
AcDbEntity
  8
0-B_寸法
  6
Continuous
 62
   120
370
     5
100
AcDbLine
 10
7424.180350962477
 20
1258.663137429153
 30
0.0
 11
7424.180350962477
 21
831.1631374291494
 31
0.0
  0
LINE
  5
22C
330
1F
100
AcDbEntity
  8
0-B_寸法
  6
Continuous
 62
   120
370
     5
100
AcDbLine
 10
7424.180350962477
 20
-8128.83686257085
 30
0.0
 11
7424.180350962477
 21
-8556.33686257085
 31
0.0
  0
LINE
  5
22D
330
1F
100
AcDbEntity
  8
0-B_寸法
  6
Continuous
 62
   120
370
     5
100
AcDbLine
 10
7424.180350962477
 20
831.1631374291494
 30
0.0
 11
7424.180350962477
 21
-8128.83686257085
 31
0.0
  0
LINE
  5
22E
330
1F
100
AcDbEntity
  8
0-B_寸法
  6
Continuous
 62
   120
370
     5
100
AcDbLine
 10
7424.180350962477
 20
1258.663137429153
 30
0.0
 11
8074.180350962479
 21
1258.663137429153
 31
0.0
  0
TEXT
  5
22F
330
1F
100
AcDbEntity
  8
0-B_寸法
  6
Continuous
 62
     7
370
   211
100
AcDbText
 10
7317.780350962477
 20
-4198.83686257085
 30
0.0
 40
304.8
  1
1,792
 50
90.0
 41
1.1
  7
ＭＳ ゴシック
100
AcDbText
  0
TEXT
  5
230
330
1F
100
AcDbEntity
  8
0-B_寸法
  6
Continuous
 62
     7
370
   211
100
AcDbText
 10
7317.780350962472
 20
-8613.906591762609
 30
0.0
 40
304.8
  1
85.5
 50
90.0
 41
1.09375
  7
ＭＳ ゴシック
100
AcDbText
  0
TEXT
  5
231
330
1F
100
AcDbEntity
  8
0-B_寸法
  6
Continuous
 62
     7
370
   211
100
AcDbText
 10
7317.780350962477
 20
407.4759540333847
 30
0.0
 40
304.8
  1
85.5
 50
90.0
 41
1.09375
  7
ＭＳ ゴシック
100
AcDbText
  0
LINE
  5
232
330
1F
100
AcDbEntity
  8
0-0_補助線
  6
JWW_HOJO
 62
   120
370
     5
100
AcDbLine
 10
9259.180350962479
 20
1508.663137429153
 30
0.0
 11
9259.180350962479
 21
-8806.336863909404
 31
0.0
  0
LINE
  5
233
330
1F
100
AcDbEntity
  8
固定棚
  6
Continuous
 62
    40
370
    15
100
AcDbLine
 10
9089.180350962479
 20
-5996.336862570779
 30
0.0
 11
10574.18035117339
 21
-5996.336862570779
 31
0.0
  0
LINE
  5
234
330
1F
100
AcDbEntity
  8
固定棚
  6
Continuous
 62
    40
370
    15
100
AcDbLine
 10
9089.180350962479
 20
-6101.336862570783
 30
0.0
 11
10574.18035117339
 21
-6101.336862570783
 31
0.0
  0
LINE
  5
235
330
1F
100
AcDbEntity
  8
固定棚
  6
Continuous
 62
    40
370
    15
100
AcDbLine
 10
9089.180350962479
 20
-1036.336862570826
 30
0.0
 11
10574.18035117339
 21
-1036.336862570826
 31
0.0
  0
LINE
  5
236
330
1F
100
AcDbEntity
  8
固定棚
  6
Continuous
 62
    40
370
    15
100
AcDbLine
 10
9089.180350962479
 20
-1141.33686257083
 30
0.0
 11
10574.18035117339
 21
-1141.33686257083
 31
0.0
  0
LINE
  5
237
330
1F
100
AcDbEntity
  8
固定棚
  6
Continuous
 62
    40
370
    15
100
AcDbLine
 10
9089.180350962479
 20
-1036.336862570826
 30
0.0
 11
9089.180350962479
 21
-1141.33686257083
 31
0.0
  0
LINE
  5
238
330
1F
100
AcDbEntity
  8
可動棚
  6
Continuous
 62
    40
370
    15
100
AcDbLine
 10
9089.180350962479
 20
148.6631374291576
 30
0.0
 11
10574.18035117339
 21
148.6631374291576
 31
0.0
  0
LINE
  5
239
330
1F
100
AcDbEntity
  8
可動棚
  6
Continuous
 62
    40
370
    15
100
AcDbLine
 10
9089.180350962479
 20
43.66313742915793
 30
0.0
 11
10574.18035117339
 21
43.66313742915793
 31
0.0
  0
LINE
  5
23A
330
1F
100
AcDbEntity
  8
可動棚
  6
Continuous
 62
    40
370
    15
100
AcDbLine
 10
9089.180350962479
 20
148.6631374291576
 30
0.0
 11
9089.180350962479
 21
43.66313742915793
 31
0.0
  0
LINE
  5
23B
330
1F
100
AcDbEntity
  8
可動棚
  6
Continuous
 62
    40
370
    15
100
AcDbLine
 10
9089.180350962479
 20
-4331.336862570795
 30
0.0
 11
10574.18035117339
 21
-4331.336862570795
 31
0.0
  0
LINE
  5
23C
330
1F
100
AcDbEntity
  8
可動棚
  6
Continuous
 62
    40
370
    15
100
AcDbLine
 10
9089.180350962479
 20
-4436.336862570795
 30
0.0
 11
10574.18035117339
 21
-4436.336862570795
 31
0.0
  0
LINE
  5
23D
330
1F
100
AcDbEntity
  8
可動棚
  6
Continuous
 62
    40
370
    15
100
AcDbLine
 10
9089.180350962479
 20
-4331.336862570795
 30
0.0
 11
9089.180350962479
 21
-4436.336862570795
 31
0.0
  0
LINE
  5
23E
330
1F
100
AcDbEntity
  8
可動棚
  6
Continuous
 62
    40
370
    15
100
AcDbLine
 10
9089.180350962479
 20
-2571.336862570811
 30
0.0
 11
10574.18035117339
 21
-2571.336862570811
 31
0.0
  0
LINE
  5
23F
330
1F
100
AcDbEntity
  8
可動棚
  6
Continuous
 62
    40
370
    15
100
AcDbLine
 10
9089.180350962479
 20
-2676.336862570811
 30
0.0
 11
10574.18035117339
 21
-2676.336862570811
 31
0.0
  0
LINE
  5
240
330
1F
100
AcDbEntity
  8
可動棚
  6
Continuous
 62
    40
370
    15
100
AcDbLine
 10
9089.180350962479
 20
-2571.336862570811
 30
0.0
 11
9089.180350962479
 21
-2676.336862570811
 31
0.0
  0
LINE
  5
241
330
1F
100
AcDbEntity
  8
可動棚
  6
Continuous
 62
    40
370
    15
100
AcDbLine
 10
9089.180350962479
 20
-7051.336862570768
 30
0.0
 11
10574.18035117339
 21
-7051.336862570768
 31
0.0
  0
LINE
  5
242
330
1F
100
AcDbEntity
  8
可動棚
  6
Continuous
 62
    40
370
    15
100
AcDbLine
 10
9089.180350962479
 20
-7156.336862570768
 30
0.0
 11
10574.18035117339
 21
-7156.336862570768
 31
0.0
  0
LINE
  5
243
330
1F
100
AcDbEntity
  8
可動棚
  6
Continuous
 62
    40
370
    15
100
AcDbLine
 10
9089.180350962479
 20
-7051.336862570768
 30
0.0
 11
9089.180350962479
 21
-7156.336862570768
 31
0.0
  0
TEXT
  5
244
330
1F
100
AcDbEntity
  8
0-B_寸法
  6
Continuous
 62
     7
370
   211
100
AcDbText
 10
8954.180350962482
 20
2365.063137429153
 30
0.0
 40
304.8
  1
37
 41
1.0625
  7
ＭＳ ゴシック
100
AcDbText
  0
TEXT
  5
245
330
1F
100
AcDbEntity
  8
0-A_文字
  6
Continuous
 62
     7
370
     9
100
AcDbText
 10
9415.893329545395
 20
-5706.086755363109
 30
0.0
 40
228.6
  1
固定棚
 41
1.111111111111109
  7
ＭＳ ゴシック
100
AcDbText
  0
LINE
  5
246
330
1F
100
AcDbEntity
  8
0-A_文字
  6
Continuous
 62
     7
370
     9
100
AcDbLine
 10
10415.89332954539
 20
-5748.386755363109
 30
0.0
 11
9415.893329545392
 21
-5748.386755363109
 31
0.0
  0
LINE
  5
247
330
1F
100
AcDbEntity
  8
0-A_文字
  6
Continuous
 62
     7
370
     9
100
AcDbLine
 10
9240.804650465663
 20
-6051.649243359331
 30
0.0
 11
9415.893329545392
 21
-5748.386755363109
 31
0.0
  0
TEXT
  5
248
330
1F
100
AcDbEntity
  8
0-A_文字
  6
Continuous
 62
     7
370
     9
100
AcDbText
 10
9415.893329545395
 20
-746.086755363156
 30
0.0
 40
228.6
  1
固定棚
 41
1.111111111111109
  7
ＭＳ ゴシック
100
AcDbText
  0
LINE
  5
249
330
1F
100
AcDbEntity
  8
0-A_文字
  6
Continuous
 62
     7
370
     9
100
AcDbLine
 10
10415.89332954539
 20
-788.386755363156
 30
0.0
 11
9415.893329545392
 21
-788.386755363156
 31
0.0
  0
LINE
  5
24A
330
1F
100
AcDbEntity
  8
0-A_文字
  6
Continuous
 62
     7
370
     9
100
AcDbLine
 10
9240.804650465663
 20
-1091.649243359379
 30
0.0
 11
9415.893329545392
 21
-788.386755363156
 31
0.0
  0
TEXT
  5
24B
330
1F
100
AcDbEntity
  8
0-A_文字
  6
Continuous
 62
     7
370
     9
100
AcDbText
 10
9415.893329545395
 20
436.5989205718504
 30
0.0
 40
228.6
  1
可動棚
 41
1.111111111111109
  7
ＭＳ ゴシック
100
AcDbText
  0
LINE
  5
24C
330
1F
100
AcDbEntity
  8
0-A_文字
  6
Continuous
 62
     7
370
     9
100
AcDbLine
 10
10415.89332954539
 20
394.2989205718533
 30
0.0
 11
9415.893329545392
 21
394.2989205718533
 31
0.0
  0
LINE
  5
24D
330
1F
100
AcDbEntity
  8
0-A_文字
  6
Continuous
 62
     7
370
     9
100
AcDbLine
 10
9240.804650465663
 20
91.03643257562908
 30
0.0
 11
9415.893329545392
 21
394.2989205718533
 31
0.0
  0
TEXT
  5
24E
330
1F
100
AcDbEntity
  8
0-A_文字
  6
Continuous
 62
     7
370
     9
100
AcDbText
 10
9415.893329545395
 20
-4043.401079428102
 30
0.0
 40
228.6
  1
可動棚
 41
1.111111111111109
  7
ＭＳ ゴシック
100
AcDbText
  0
LINE
  5
24F
330
1F
100
AcDbEntity
  8
0-A_文字
  6
Continuous
 62
     7
370
     9
100
AcDbLine
 10
10415.89332954539
 20
-4085.7010794281
 30
0.0
 11
9415.893329545392
 21
-4085.7010794281
 31
0.0
  0
LINE
  5
250
330
1F
100
AcDbEntity
  8
0-A_文字
  6
Continuous
 62
     7
370
     9
100
AcDbLine
 10
9240.804650465663
 20
-4388.963567424324
 30
0.0
 11
9415.893329545392
 21
-4085.7010794281
 31
0.0
  0
TEXT
  5
251
330
1F
100
AcDbEntity
  8
0-A_文字
  6
Continuous
 62
     7
370
     9
100
AcDbText
 10
9415.893329545395
 20
-2283.401079428118
 30
0.0
 40
228.6
  1
可動棚
 41
1.111111111111109
  7
ＭＳ ゴシック
100
AcDbText
  0
LINE
  5
252
330
1F
100
AcDbEntity
  8
0-A_文字
  6
Continuous
 62
     7
370
     9
100
AcDbLine
 10
10415.89332954539
 20
-2325.701079428116
 30
0.0
 11
9415.893329545392
 21
-2325.701079428116
 31
0.0
  0
LINE
  5
253
330
1F
100
AcDbEntity
  8
0-A_文字
  6
Continuous
 62
     7
370
     9
100
AcDbLine
 10
9240.804650465663
 20
-2628.96356742434
 30
0.0
 11
9415.893329545392
 21
-2325.701079428116
 31
0.0
  0
TEXT
  5
254
330
1F
100
AcDbEntity
  8
0-A_文字
  6
Continuous
 62
     7
370
     9
100
AcDbText
 10
9415.893329545395
 20
-6763.401079428076
 30
0.0
 40
228.6
  1
可動棚
 41
1.111111111111109
  7
ＭＳ ゴシック
100
AcDbText
  0
LINE
  5
255
330
1F
100
AcDbEntity
  8
0-A_文字
  6
Continuous
 62
     7
370
     9
100
AcDbLine
 10
10415.89332954539
 20
-6805.701079428073
 30
0.0
 11
9415.893329545392
 21
-6805.701079428073
 31
0.0
  0
LINE
  5
256
330
1F
100
AcDbEntity
  8
0-A_文字
  6
Continuous
 62
     7
370
     9
100
AcDbLine
 10
9240.804650465663
 20
-7108.963567424297
 30
0.0
 11
9415.893329545392
 21
-6805.701079428073
 31
0.0
  0
LINE
  5
257
330
1F
100
AcDbEntity
  8
0-B_寸法
  6
Continuous
 62
   120
370
     5
100
AcDbLine
 10
7424.180350962477
 20
831.1631374291494
 30
0.0
 11
8824.180350962479
 21
831.1631374291494
 31
0.0
  0
LINE
  5
258
330
1F
100
AcDbEntity
  8
0-B_寸法
  6
Continuous
 62
   120
370
     5
100
AcDbLine
 10
7424.180350962477
 20
-8128.83686257085
 30
0.0
 11
8824.180350962479
 21
-8128.83686257085
 31
0.0
  0
LINE
  5
259
330
1F
100
AcDbEntity
  8
0-B_寸法
  6
Continuous
 62
   120
370
     5
100
AcDbLine
 10
7424.180350962477
 20
-8556.33686257085
 30
0.0
 11
8824.180350962479
 21
-8556.33686257085
 31
0.0
  0
TEXT
  5
25A
330
1F
100
AcDbEntity
  8
0-A_文字
  6
Continuous
 62
     7
370
     9
100
AcDbText
 10
7561.680350423386
 20
3065.063137429153
 30
0.0
 40
304.8
  1
【側板：Ｄ＝300】
 41
1.110294117647059
  7
ＭＳ ゴシック
100
AcDbText
  0
TEXT
  5
25B
330
1F
100
AcDbEntity
  8
0-B_寸法
  6
Continuous
 62
     7
370
   211
100
AcDbText
 10
9499.180350962479
 20
-9999.936862570854
 30
0.0
 40
304.8
  1
300
 41
1.083333333333333
  7
ＭＳ ゴシック
100
AcDbText
  0
LINE
  5
25C
330
1F
100
AcDbEntity
  8
0-0_補助線
  6
JWW_HOJO
 62
   120
370
     5
100
AcDbLine
 10
-2370.819649037514
 20
2363.663137429148
 30
0.0
 11
-2370.819649037514
 21
-9556.336862570848
 31
0.0
  0
LINE
  5
25D
330
1F
100
AcDbEntity
  8
0-0_補助線
  6
JWW_HOJO
 62
   120
370
     5
100
AcDbLine
 10
-3020.819649037519
 20
2363.663137429148
 30
0.0
 11
-3020.819649037519
 21
-10056.33686257085
 31
0.0
  0
LINE
  5
25E
330
1F
100
AcDbEntity
  8
0-B_寸法
  6
Continuous
 62
   120
370
     5
100
AcDbLine
 10
-3020.819649037519
 20
1363.663136090594
 30
0.0
 11
-3020.819649037519
 21
1258.663137429153
 31
0.0
  0
LWPOLYLINE
  5
25F
330
1F
100
AcDbEntity
  8
0-B_寸法
  6
Continuous
 62
     7
370
     9
100
AcDbPolyline
 90
        4
 70
     1
 43
20.0
 10
-3010.819649037519
 20
1363.663136090594
 42
0.4142135623731
 10
-3020.819649037519
 20
1373.663136090594
 42
0.4142135623731
 10
-3030.819649037519
 20
1363.663136090594
 42
0.4142135623731
 10
-3020.819649037519
 20
1353.663136090594
 42
0.4142135623731
  0
LWPOLYLINE
  5
260
330
1F
100
AcDbEntity
  8
0-B_寸法
  6
Continuous
 62
     7
370
     9
100
AcDbPolyline
 90
        4
 70
     1
 43
20.0
 10
-3010.819649037519
 20
1258.663137429153
 42
0.4142135623731
 10
-3020.819649037519
 20
1268.663137429153
 42
0.4142135623731
 10
-3030.819649037519
 20
1258.663137429153
 42
0.4142135623731
 10
-3020.819649037519
 20
1248.663137429153
 42
0.4142135623731
  0
LINE
  5
261
330
1F
100
AcDbEntity
  8
0-B_寸法
  6
Continuous
 62
   120
370
     5
100
AcDbLine
 10
-3020.819649037519
 20
1258.663137429153
 30
0.0
 11
-2270.819649037519
 21
1258.663137429153
 31
0.0
  0
LINE
  5
262
330
1F
100
AcDbEntity
  8
0-B_寸法
  6
Continuous
 62
   120
370
     5
100
AcDbLine
 10
-3020.819649037519
 20
1258.663137429153
 30
0.0
 11
-3020.819649037519
 21
-8556.33686257085
 31
0.0
  0
LWPOLYLINE
  5
263
330
1F
100
AcDbEntity
  8
0-B_寸法
  6
Continuous
 62
     7
370
     9
100
AcDbPolyline
 90
        4
 70
     1
 43
20.0
 10
-3010.819649037519
 20
-8556.33686257085
 42
0.4142135623731
 10
-3020.819649037519
 20
-8546.33686257085
 42
0.4142135623731
 10
-3030.819649037519
 20
-8556.33686257085
 42
0.4142135623731
 10
-3020.819649037519
 20
-8566.336862570848
 42
0.4142135623731
  0
TEXT
  5
264
330
1F
100
AcDbEntity
  8
0-B_寸法
  6
Continuous
 62
     7
370
   211
100
AcDbText
 10
-3077.219649037519
 20
-4146.336863240128
 30
0.0
 40
304.8
  1
1,963
 50
90.0
 41
1.1
  7
ＭＳ ゴシック
100
AcDbText
  0
LINE
  5
265
330
1F
100
AcDbEntity
  8
0-0_補助線
  6
JWW_HOJO
 62
   120
370
     5
100
AcDbLine
 10
-3670.819649037516
 20
2363.663137429148
 30
0.0
 11
-3670.819649037516
 21
-10056.33686257085
 31
0.0
  0
LINE
  5
266
330
1F
100
AcDbEntity
  8
0-B_寸法
  6
Continuous
 62
   120
370
     5
100
AcDbLine
 10
-3670.819649037516
 20
-8556.33686257085
 30
0.0
 11
-2270.819649037519
 21
-8556.33686257085
 31
0.0
  0
LINE
  5
267
330
1F
100
AcDbEntity
  8
0-B_寸法
  6
Continuous
 62
   120
370
     5
100
AcDbLine
 10
-3670.819649037516
 20
1363.663136090594
 30
0.0
 11
-2270.819649037519
 21
1363.663136090594
 31
0.0
  0
LINE
  5
268
330
1F
100
AcDbEntity
  8
0-B_寸法
  6
Continuous
 62
   120
370
     5
100
AcDbLine
 10
-3670.819649037516
 20
1363.663136090594
 30
0.0
 11
-3670.819649037516
 21
-8556.33686257085
 31
0.0
  0
LWPOLYLINE
  5
269
330
1F
100
AcDbEntity
  8
0-B_寸法
  6
Continuous
 62
     7
370
     9
100
AcDbPolyline
 90
        4
 70
     1
 43
20.0
 10
-3660.819649037516
 20
1363.663136090594
 42
0.4142135623731
 10
-3670.819649037516
 20
1373.663136090594
 42
0.4142135623731
 10
-3680.819649037516
 20
1363.663136090594
 42
0.4142135623731
 10
-3670.819649037516
 20
1353.663136090594
 42
0.4142135623731
  0
LWPOLYLINE
  5
26A
330
1F
100
AcDbEntity
  8
0-B_寸法
  6
Continuous
 62
     7
370
     9
100
AcDbPolyline
 90
        4
 70
     1
 43
20.0
 10
-3660.819649037516
 20
-8556.33686257085
 42
0.4142135623731
 10
-3670.819649037516
 20
-8546.33686257085
 42
0.4142135623731
 10
-3680.819649037516
 20
-8556.33686257085
 42
0.4142135623731
 10
-3670.819649037516
 20
-8566.336862570848
 42
0.4142135623731
  0
TEXT
  5
26B
330
1F
100
AcDbEntity
  8
0-B_寸法
  6
Continuous
 62
     7
370
   211
100
AcDbText
 10
-3727.219649037516
 20
-4146.336863240128
 30
0.0
 40
304.8
  1
1,984
 50
90.0
 41
1.1
  7
ＭＳ ゴシック
100
AcDbText
  0
TEXT
  5
26C
330
1F
100
AcDbEntity
  8
0-B_寸法
  6
Continuous
 62
     7
370
   211
100
AcDbText
 10
-3077.219649037519
 20
902.2479610340035
 30
0.0
 40
304.8
  1
21
 50
90.0
 41
1.0625
  7
ＭＳ ゴシック
100
AcDbText
  0
LINE
  5
26D
330
1F
100
AcDbEntity
  8
0-0_補助線
  6
JWW_HOJO
 62
   120
370
     5
100
AcDbLine
 10
-2370.819649037514
 20
-9556.336862570848
 30
0.0
 11
2224.18035096248
 21
-9556.336862570848
 31
0.0
  0
LWPOLYLINE
  5
26E
330
1F
100
AcDbEntity
  8
0-B_寸法
  6
Continuous
 62
     7
370
     9
100
AcDbPolyline
 90
        4
 70
     1
 43
20.0
 10
2234.18035096248
 20
-8556.336863909404
 42
0.4142135623731
 10
2224.18035096248
 20
-8546.336863909406
 42
0.4142135623731
 10
2214.18035096248
 20
-8556.336863909404
 42
0.4142135623731
 10
2224.18035096248
 20
-8566.336863909404
 42
0.4142135623731
  0
LINE
  5
26F
330
1F
100
AcDbEntity
  8
0-B_寸法
  6
Continuous
 62
   120
370
     5
100
AcDbLine
 10
2224.18035096248
 20
-8556.336863909404
 30
0.0
 11
1474.18035096248
 21
-8556.336863909404
 31
0.0
  0
LINE
  5
270
330
1F
100
AcDbEntity
  8
0-B_寸法
  6
Continuous
 62
   120
370
     5
100
AcDbLine
 10
2224.18035096248
 20
-8556.336863909404
 30
0.0
 11
2224.18035096248
 21
-6048.836862570781
 31
0.0
  0
LWPOLYLINE
  5
271
330
1F
100
AcDbEntity
  8
0-B_寸法
  6
Continuous
 62
     7
370
     9
100
AcDbPolyline
 90
        4
 70
     1
 43
20.0
 10
2234.18035096248
 20
-6048.836862570781
 42
0.4142135623731
 10
2224.18035096248
 20
-6038.836862570781
 42
0.4142135623731
 10
2214.18035096248
 20
-6048.836862570781
 42
0.4142135623731
 10
2224.18035096248
 20
-6058.836862570781
 42
0.4142135623731
  0
LINE
  5
272
330
1F
100
AcDbEntity
  8
0-B_寸法
  6
Continuous
 62
   120
370
     5
100
AcDbLine
 10
2224.18035096248
 20
-6048.836862570781
 30
0.0
 11
1474.18035096248
 21
-6048.836862570781
 31
0.0
  0
LINE
  5
273
330
1F
100
AcDbEntity
  8
0-B_寸法
  6
Continuous
 62
   120
370
     5
100
AcDbLine
 10
-12793.30360327757
 20
-8556.33686257085
 30
0.0
 11
-12793.30360327757
 21
-8441.33686257085
 31
0.0
  0
LWPOLYLINE
  5
274
330
1F
100
AcDbEntity
  8
0-B_寸法
  6
Continuous
 62
     7
370
     9
100
AcDbPolyline
 90
        4
 70
     1
 43
20.0
 10
-12783.30360327757
 20
-8556.33686257085
 42
0.4142135623731
 10
-12793.30360327757
 20
-8546.33686257085
 42
0.4142135623731
 10
-12803.30360327757
 20
-8556.33686257085
 42
0.4142135623731
 10
-12793.30360327757
 20
-8566.336862570848
 42
0.4142135623731
  0
LWPOLYLINE
  5
275
330
1F
100
AcDbEntity
  8
0-B_寸法
  6
Continuous
 62
     7
370
     9
100
AcDbPolyline
 90
        4
 70
     1
 43
20.0
 10
-12783.30360327757
 20
-8441.33686257085
 42
0.4142135623731
 10
-12793.30360327757
 20
-8431.33686257085
 42
0.4142135623731
 10
-12803.30360327757
 20
-8441.33686257085
 42
0.4142135623731
 10
-12793.30360327757
 20
-8451.33686257085
 42
0.4142135623731
  0
LINE
  5
276
330
1F
100
AcDbEntity
  8
0-B_寸法
  6
Continuous
 62
   120
370
     5
100
AcDbLine
 10
-12793.30360327757
 20
-8556.33686257085
 30
0.0
 11
-12043.30360327757
 21
-8556.33686257085
 31
0.0
  0
LINE
  5
277
330
1F
100
AcDbEntity
  8
0-B_寸法
  6
Continuous
 62
   120
370
     5
100
AcDbLine
 10
-12793.30360327757
 20
-8441.33686257085
 30
0.0
 11
-12043.30360327757
 21
-8441.33686257085
 31
0.0
  0
TEXT
  5
278
330
1F
100
AcDbEntity
  8
0-B_寸法
  6
Continuous
 62
     7
370
   211
100
AcDbText
 10
-12849.70360327757
 20
-8711.336862570848
 30
0.0
 40
304.8
  1
23
 50
90.0
 41
1.0625
  7
ＭＳ ゴシック
100
AcDbText
  0
LINE
  5
279
330
1F
100
AcDbEntity
  8
0-B_寸法
  6
Continuous
 62
   120
370
     5
100
AcDbLine
 10
-12793.30360327757
 20
-8441.33686257085
 30
0.0
 11
-12793.30360327757
 21
-6056.336862570851
 31
0.0
  0
LWPOLYLINE
  5
27A
330
1F
100
AcDbEntity
  8
0-B_寸法
  6
Continuous
 62
     7
370
     9
100
AcDbPolyline
 90
        4
 70
     1
 43
20.0
 10
-12783.30360327757
 20
-6056.336862570851
 42
0.4142135623731
 10
-12793.30360327757
 20
-6046.336862570851
 42
0.4142135623731
 10
-12803.30360327757
 20
-6056.336862570851
 42
0.4142135623731
 10
-12793.30360327757
 20
-6066.336862570851
 42
0.4142135623731
  0
LINE
  5
27B
330
1F
100
AcDbEntity
  8
0-B_寸法
  6
Continuous
 62
   120
370
     5
100
AcDbLine
 10
-12793.30360327757
 20
-6056.336862570851
 30
0.0
 11
-12043.30360327757
 21
-6056.336862570851
 31
0.0
  0
LINE
  5
27C
330
1F
100
AcDbEntity
  8
0-B_寸法
  6
Continuous
 62
   120
370
     5
100
AcDbLine
 10
-12793.30360327757
 20
-6056.336862570851
 30
0.0
 11
-12793.30360327757
 21
-5996.336862570782
 31
0.0
  0
LWPOLYLINE
  5
27D
330
1F
100
AcDbEntity
  8
0-B_寸法
  6
Continuous
 62
     7
370
     9
100
AcDbPolyline
 90
        4
 70
     1
 43
20.0
 10
-12783.30360327757
 20
-5996.336862570782
 42
0.4142135623731
 10
-12793.30360327757
 20
-5986.336862570782
 42
0.4142135623731
 10
-12803.30360327757
 20
-5996.336862570782
 42
0.4142135623731
 10
-12793.30360327757
 20
-6006.336862570782
 42
0.4142135623731
  0
LINE
  5
27E
330
1F
100
AcDbEntity
  8
0-B_寸法
  6
Continuous
 62
   120
370
     5
100
AcDbLine
 10
-12793.30360327757
 20
-5996.336862570782
 30
0.0
 11
-12043.30360327757
 21
-5996.336862570782
 31
0.0
  0
TEXT
  5
27F
330
1F
100
AcDbEntity
  8
0-B_寸法
  6
Continuous
 62
     7
370
   211
100
AcDbText
 10
-12849.70360327757
 20
-6238.836862570816
 30
0.0
 40
304.8
  1
12
 50
90.0
 41
1.0625
  7
ＭＳ ゴシック
100
AcDbText
  0
LINE
  5
280
330
1F
100
AcDbEntity
  8
0-B_寸法
  6
Continuous
 62
   120
370
     5
100
AcDbLine
 10
-12793.30360327757
 20
-5996.336862570782
 30
0.0
 11
-12793.30360327757
 21
-1141.33686257083
 31
0.0
  0
LWPOLYLINE
  5
281
330
1F
100
AcDbEntity
  8
0-B_寸法
  6
Continuous
 62
     7
370
     9
100
AcDbPolyline
 90
        4
 70
     1
 43
20.0
 10
-12783.30360327757
 20
-1141.33686257083
 42
0.4142135623731
 10
-12793.30360327757
 20
-1131.33686257083
 42
0.4142135623731
 10
-12803.30360327757
 20
-1141.33686257083
 42
0.4142135623731
 10
-12793.30360327757
 20
-1151.33686257083
 42
0.4142135623731
  0
LINE
  5
282
330
1F
100
AcDbEntity
  8
0-B_寸法
  6
Continuous
 62
   120
370
     5
100
AcDbLine
 10
-12793.30360327757
 20
-1141.33686257083
 30
0.0
 11
-12043.30360327757
 21
-1141.33686257083
 31
0.0
  0
TEXT
  5
283
330
1F
100
AcDbEntity
  8
0-B_寸法
  6
Continuous
 62
     7
370
   211
100
AcDbText
 10
-12849.70360327757
 20
-3893.836862570806
 30
0.0
 40
304.8
  1
971
 50
90.0
 41
1.083333333333333
  7
ＭＳ ゴシック
100
AcDbText
  0
LINE
  5
284
330
1F
100
AcDbEntity
  8
0-B_寸法
  6
Continuous
 62
   120
370
     5
100
AcDbLine
 10
-12793.30360327757
 20
-1141.33686257083
 30
0.0
 11
-12793.30360327757
 21
-1081.336862570848
 31
0.0
  0
LWPOLYLINE
  5
285
330
1F
100
AcDbEntity
  8
0-B_寸法
  6
Continuous
 62
     7
370
     9
100
AcDbPolyline
 90
        4
 70
     1
 43
20.0
 10
-12783.30360327757
 20
-1081.336862570848
 42
0.4142135623731
 10
-12793.30360327757
 20
-1071.336862570848
 42
0.4142135623731
 10
-12803.30360327757
 20
-1081.336862570848
 42
0.4142135623731
 10
-12793.30360327757
 20
-1091.336862570848
 42
0.4142135623731
  0
LINE
  5
286
330
1F
100
AcDbEntity
  8
0-B_寸法
  6
Continuous
 62
   120
370
     5
100
AcDbLine
 10
-12793.30360327757
 20
-1081.336862570848
 30
0.0
 11
-12043.30360327757
 21
-1081.336862570848
 31
0.0
  0
TEXT
  5
287
330
1F
100
AcDbEntity
  8
0-B_寸法
  6
Continuous
 62
     7
370
   211
100
AcDbText
 10
-12849.70360327757
 20
-1323.836862570839
 30
0.0
 40
304.8
  1
12
 50
90.0
 41
1.0625
  7
ＭＳ ゴシック
100
AcDbText
  0
LINE
  5
288
330
1F
100
AcDbEntity
  8
0-B_寸法
  6
Continuous
 62
   120
370
     5
100
AcDbLine
 10
-12793.30360327757
 20
-1081.336862570848
 30
0.0
 11
-12793.30360327757
 21
1303.663137429152
 31
0.0
  0
LWPOLYLINE
  5
289
330
1F
100
AcDbEntity
  8
0-B_寸法
  6
Continuous
 62
     7
370
     9
100
AcDbPolyline
 90
        4
 70
     1
 43
20.0
 10
-12783.30360327757
 20
1303.663137429152
 42
0.4142135623731
 10
-12793.30360327757
 20
1313.663137429152
 42
0.4142135623731
 10
-12803.30360327757
 20
1303.663137429152
 42
0.4142135623731
 10
-12793.30360327757
 20
1293.663137429152
 42
0.4142135623731
  0
LINE
  5
28A
330
1F
100
AcDbEntity
  8
0-B_寸法
  6
Continuous
 62
   120
370
     5
100
AcDbLine
 10
-12793.30360327757
 20
1303.663137429152
 30
0.0
 11
-12043.30360327757
 21
1303.663137429152
 31
0.0
  0
LINE
  5
28B
330
1F
100
AcDbEntity
  8
0-B_寸法
  6
Continuous
 62
   120
370
     5
100
AcDbLine
 10
-12793.30360327757
 20
1303.663137429152
 30
0.0
 11
-12793.30360327757
 21
1363.663137429151
 31
0.0
  0
LWPOLYLINE
  5
28C
330
1F
100
AcDbEntity
  8
0-B_寸法
  6
Continuous
 62
     7
370
     9
100
AcDbPolyline
 90
        4
 70
     1
 43
20.0
 10
-12783.30360327757
 20
1363.663137429151
 42
0.4142135623731
 10
-12793.30360327757
 20
1373.663137429151
 42
0.4142135623731
 10
-12803.30360327757
 20
1363.663137429151
 42
0.4142135623731
 10
-12793.30360327757
 20
1353.663137429151
 42
0.4142135623731
  0
LINE
  5
28D
330
1F
100
AcDbEntity
  8
0-B_寸法
  6
Continuous
 62
   120
370
     5
100
AcDbLine
 10
-12793.30360327757
 20
1363.663137429151
 30
0.0
 11
-12043.30360327757
 21
1363.663137429151
 31
0.0
  0
TEXT
  5
28E
330
1F
100
AcDbEntity
  8
0-B_寸法
  6
Continuous
 62
     7
370
   211
100
AcDbText
 10
-12849.70360327757
 20
1121.163137429151
 30
0.0
 40
304.8
  1
12
 50
90.0
 41
1.0625
  7
ＭＳ ゴシック
100
AcDbText
  0
LINE
  5
28F
330
1F
100
AcDbEntity
  8
0-B_寸法
  6
Continuous
 62
   120
370
     5
100
AcDbLine
 10
-13443.30360327757
 20
1363.663137429151
 30
0.0
 11
-13443.30360327757
 21
-8556.33686257085
 31
0.0
  0
LWPOLYLINE
  5
290
330
1F
100
AcDbEntity
  8
0-B_寸法
  6
Continuous
 62
     7
370
     9
100
AcDbPolyline
 90
        4
 70
     1
 43
20.0
 10
-13433.30360327757
 20
1363.663137429151
 42
0.4142135623731
 10
-13443.30360327757
 20
1373.663137429151
 42
0.4142135623731
 10
-13453.30360327757
 20
1363.663137429151
 42
0.4142135623731
 10
-13443.30360327757
 20
1353.663137429151
 42
0.4142135623731
  0
LWPOLYLINE
  5
291
330
1F
100
AcDbEntity
  8
0-B_寸法
  6
Continuous
 62
     7
370
     9
100
AcDbPolyline
 90
        4
 70
     1
 43
20.0
 10
-13433.30360327757
 20
-8556.33686257085
 42
0.4142135623731
 10
-13443.30360327757
 20
-8546.33686257085
 42
0.4142135623731
 10
-13453.30360327757
 20
-8556.33686257085
 42
0.4142135623731
 10
-13443.30360327757
 20
-8566.336862570848
 42
0.4142135623731
  0
LINE
  5
292
330
1F
100
AcDbEntity
  8
0-B_寸法
  6
Continuous
 62
   120
370
     5
100
AcDbLine
 10
-13443.30360327757
 20
1363.663137429151
 30
0.0
 11
-12793.30360327757
 21
1363.663137429151
 31
0.0
  0
LINE
  5
293
330
1F
100
AcDbEntity
  8
0-B_寸法
  6
Continuous
 62
   120
370
     5
100
AcDbLine
 10
-13443.30360327757
 20
-8556.33686257085
 30
0.0
 11
-12793.30360327757
 21
-8556.33686257085
 31
0.0
  0
TEXT
  5
294
330
1F
100
AcDbEntity
  8
0-B_寸法
  6
Continuous
 62
     7
370
   211
100
AcDbText
 10
-13499.70360327757
 20
-4146.336862570849
 30
0.0
 40
304.8
  1
1,984
 50
90.0
 41
1.1
  7
ＭＳ ゴシック
100
AcDbText
  0
TEXT
  5
295
330
1F
100
AcDbEntity
  8
0-B_寸法
  6
Continuous
 62
     7
370
   211
100
AcDbText
 10
2167.78035096248
 20
-7852.586863240092
 30
0.0
 40
304.8
  1
501.5
 50
90.0
 41
1.1
  7
ＭＳ ゴシック
100
AcDbText
  0
TEXT
  5
296
330
1F
100
AcDbEntity
  8
0-A_文字
  6
Continuous
 62
     7
370
     9
100
AcDbText
 10
-17026.82127714868
 20
12559.5354392247
 30
0.0
 40
304.8
  1
洗面所モデルプラン　３
 41
1.113636363636364
  7
ＭＳ ゴシック
100
AcDbText
  0
TEXT
  5
297
330
1F
100
AcDbEntity
  8
0-B_寸法
  6
Continuous
 62
     7
370
   211
100
AcDbText
 10
-12849.70360327757
 20
-663.8368625708481
 30
0.0
 40
304.8
  1
扉Ｈ＝477
 50
90.0
 41
0.861111111111111
  7
ＭＳ ゴシック
100
AcDbText
  0
TEXT
  5
298
330
1F
100
AcDbEntity
  8
0-B_寸法
  6
Continuous
 62
     7
370
   211
100
AcDbText
 10
-12849.70360327757
 20
-8023.83686257085
 30
0.0
 40
304.8
  1
扉Ｈ＝477
 50
90.0
 41
0.861111111111111
  7
ＭＳ ゴシック
100
AcDbText
  0
LINE
  5
299
330
1F
100
AcDbEntity
  8
0-2
  6
Continuous
 62
    92
370
    13
100
AcDbLine
 10
-11763.30360327757
 20
1258.663137429153
 30
0.0
 11
-11793.30360327757
 21
1258.663137429153
 31
0.0
  0
LINE
  5
29A
330
1F
100
AcDbEntity
  8
パイプハンガー
  6
Continuous
 62
    40
370
    15
100
AcDbLine
 10
-11763.30360327757
 20
-8441.33686257085
 30
0.0
 11
-10178.30360327757
 21
-8441.33686257085
 31
0.0
  0
LINE
  5
29B
330
1F
100
AcDbEntity
  8
パイプハンガー
  6
Continuous
 62
    40
370
    15
100
AcDbLine
 10
-10178.30360327757
 20
-8441.33686257085
 30
0.0
 11
-10178.30360327757
 21
-6056.336862570851
 31
0.0
  0
LINE
  5
29C
330
1F
100
AcDbEntity
  8
パイプハンガー
  6
Continuous
 62
    40
370
    15
100
AcDbLine
 10
-10178.30360327757
 20
-6056.336862570851
 30
0.0
 11
-11763.30360327757
 21
-6056.336862570851
 31
0.0
  0
LINE
  5
29D
330
1F
100
AcDbEntity
  8
パイプハンガー
  6
Continuous
 62
    40
370
    15
100
AcDbLine
 10
-11763.30360327757
 20
-6056.336862570851
 30
0.0
 11
-11763.30360327757
 21
-8441.33686257085
 31
0.0
  0
LINE
  5
29E
330
1F
100
AcDbEntity
  8
パイプハンガー
  6
JWW_DASHED1
 62
     7
370
     9
100
AcDbLine
 10
-11763.30360327757
 20
-6608.836862570851
 30
0.0
 11
-11545.86041823961
 21
-6608.836862570851
 31
0.0
  0
LINE
  5
29F
330
1F
100
AcDbEntity
  8
パイプハンガー
  6
JWW_DASHED1
 62
     7
370
     9
100
AcDbLine
 10
-11655.80360327757
 20
-6724.607113719179
 30
0.0
 11
-11655.80360327757
 21
-6499.801166630053
 31
0.0
  0
CIRCLE
  5
2A0
330
1F
100
AcDbEntity
  8
パイプハンガー
  6
JWW_DASHED1
 62
     7
370
     9
100
AcDbCircle
 10
-11655.80360327757
 20
-6608.836862570851
 30
0.0
 40
87.5
  0
LINE
  5
2A1
330
1F
100
AcDbEntity
  8
パイプハンガー
  6
JWW_DASHED1
 62
     7
370
     9
100
AcDbLine
 10
-11763.30360327757
 20
-7888.83686257085
 30
0.0
 11
-11545.86041823961
 21
-7888.83686257085
 31
0.0
  0
LINE
  5
2A2
330
1F
100
AcDbEntity
  8
パイプハンガー
  6
JWW_DASHED1
 62
     7
370
     9
100
AcDbLine
 10
-11655.80360327757
 20
-8004.607113719178
 30
0.0
 11
-11655.80360327757
 21
-7779.801166630051
 31
0.0
  0
CIRCLE
  5
2A3
330
1F
100
AcDbEntity
  8
パイプハンガー
  6
JWW_DASHED1
 62
     7
370
     9
100
AcDbCircle
 10
-11655.80360327757
 20
-7888.83686257085
 30
0.0
 40
87.5
  0
LINE
  5
2A4
330
1F
100
AcDbEntity
  8
0-B_寸法
  6
JWW_CENTER1
 62
    92
370
    13
100
AcDbLine
 10
-10178.30360327757
 20
-6056.336862570851
 30
0.0
 11
-11763.30360327757
 21
-7248.83686257085
 31
0.0
  0
LINE
  5
2A5
330
1F
100
AcDbEntity
  8
0-B_寸法
  6
JWW_CENTER1
 62
    92
370
    13
100
AcDbLine
 10
-11763.30360327757
 20
-7248.83686257085
 30
0.0
 11
-10178.30360327757
 21
-8441.33686257085
 31
0.0
  0
LINE
  5
2A6
330
1F
100
AcDbEntity
  8
パイプハンガー
  6
Continuous
 62
    40
370
    15
100
AcDbLine
 10
-11763.30360327757
 20
-1081.336862570848
 30
0.0
 11
-10178.30360327757
 21
-1081.336862570848
 31
0.0
  0
LINE
  5
2A7
330
1F
100
AcDbEntity
  8
パイプハンガー
  6
Continuous
 62
    40
370
    15
100
AcDbLine
 10
-10178.30360327757
 20
-1081.336862570848
 30
0.0
 11
-10178.30360327757
 21
1303.663137429152
 31
0.0
  0
LINE
  5
2A8
330
1F
100
AcDbEntity
  8
パイプハンガー
  6
Continuous
 62
    40
370
    15
100
AcDbLine
 10
-10178.30360327757
 20
1303.663137429152
 30
0.0
 11
-11763.30360327757
 21
1303.663137429152
 31
0.0
  0
LINE
  5
2A9
330
1F
100
AcDbEntity
  8
パイプハンガー
  6
Continuous
 62
    40
370
    15
100
AcDbLine
 10
-11763.30360327757
 20
1303.663137429152
 30
0.0
 11
-11763.30360327757
 21
-1081.336862570848
 31
0.0
  0
LINE
  5
2AA
330
1F
100
AcDbEntity
  8
パイプハンガー
  6
JWW_DASHED1
 62
     7
370
     9
100
AcDbLine
 10
-11763.30360327757
 20
751.1631374291511
 30
0.0
 11
-11545.86041823961
 21
751.1631374291511
 31
0.0
  0
LINE
  5
2AB
330
1F
100
AcDbEntity
  8
パイプハンガー
  6
JWW_DASHED1
 62
     7
370
     9
100
AcDbLine
 10
-11655.80360327757
 20
635.3928862808232
 30
0.0
 11
-11655.80360327757
 21
860.1988333699495
 31
0.0
  0
CIRCLE
  5
2AC
330
1F
100
AcDbEntity
  8
パイプハンガー
  6
JWW_DASHED1
 62
     7
370
     9
100
AcDbCircle
 10
-11655.80360327757
 20
751.1631374291511
 30
0.0
 40
87.5
  0
LINE
  5
2AD
330
1F
100
AcDbEntity
  8
パイプハンガー
  6
JWW_DASHED1
 62
     7
370
     9
100
AcDbLine
 10
-11763.30360327757
 20
-528.8368625708472
 30
0.0
 11
-11545.86041823961
 21
-528.8368625708472
 31
0.0
  0
LINE
  5
2AE
330
1F
100
AcDbEntity
  8
パイプハンガー
  6
JWW_DASHED1
 62
     7
370
     9
100
AcDbLine
 10
-11655.80360327757
 20
-644.6071137191751
 30
0.0
 11
-11655.80360327757
 21
-419.8011666300488
 31
0.0
  0
CIRCLE
  5
2AF
330
1F
100
AcDbEntity
  8
パイプハンガー
  6
JWW_DASHED1
 62
     7
370
     9
100
AcDbCircle
 10
-11655.80360327757
 20
-528.8368625708472
 30
0.0
 40
87.5
  0
LINE
  5
2B0
330
1F
100
AcDbEntity
  8
0-B_寸法
  6
JWW_CENTER1
 62
    92
370
    13
100
AcDbLine
 10
-10178.30360327757
 20
1303.663137429152
 30
0.0
 11
-11763.30360327757
 21
111.163137429152
 31
0.0
  0
LINE
  5
2B1
330
1F
100
AcDbEntity
  8
0-B_寸法
  6
JWW_CENTER1
 62
    92
370
    13
100
AcDbLine
 10
-11763.30360327757
 20
111.163137429152
 30
0.0
 11
-10178.30360327757
 21
-1081.336862570848
 31
0.0
  0
LINE
  5
2B2
330
1F
100
AcDbEntity
  8
0-2
  6
Continuous
 62
    92
370
    13
100
AcDbLine
 10
-11720.80360327757
 20
-1081.336862570848
 30
0.0
 11
-11720.80360327757
 21
-6056.336862570851
 31
0.0
  0
LINE
  5
2B3
330
1F
100
AcDbEntity
  8
0-2
  6
Continuous
 62
    92
370
    13
100
AcDbLine
 10
-11720.80360327757
 20
-8441.33686257085
 30
0.0
 11
-11720.80360327757
 21
-8556.33686257085
 31
0.0
  0
LINE
  5
2B4
330
1F
100
AcDbEntity
  8
パイプハンガー
  6
Continuous
 62
    40
370
    15
100
AcDbLine
 10
-8578.303603277565
 20
-8441.33686257085
 30
0.0
 11
-10163.30360327757
 21
-8441.33686257085
 31
0.0
  0
LINE
  5
2B5
330
1F
100
AcDbEntity
  8
パイプハンガー
  6
Continuous
 62
    40
370
    15
100
AcDbLine
 10
-10163.30360327757
 20
-8441.33686257085
 30
0.0
 11
-10163.30360327757
 21
-6056.336862570851
 31
0.0
  0
LINE
  5
2B6
330
1F
100
AcDbEntity
  8
パイプハンガー
  6
Continuous
 62
    40
370
    15
100
AcDbLine
 10
-10163.30360327757
 20
-6056.336862570851
 30
0.0
 11
-8578.303603277565
 21
-6056.336862570851
 31
0.0
  0
LINE
  5
2B7
330
1F
100
AcDbEntity
  8
パイプハンガー
  6
Continuous
 62
    40
370
    15
100
AcDbLine
 10
-8578.303603277565
 20
-6056.336862570851
 30
0.0
 11
-8578.303603277565
 21
-8441.33686257085
 31
0.0
  0
LINE
  5
2B8
330
1F
100
AcDbEntity
  8
パイプハンガー
  6
JWW_DASHED1
 62
     7
370
     9
100
AcDbLine
 10
-8578.303603277565
 20
-6608.836862570851
 30
0.0
 11
-8795.74678831553
 21
-6608.836862570851
 31
0.0
  0
LINE
  5
2B9
330
1F
100
AcDbEntity
  8
パイプハンガー
  6
JWW_DASHED1
 62
     7
370
     9
100
AcDbLine
 10
-8685.803603277567
 20
-6724.607113719179
 30
0.0
 11
-8685.803603277567
 21
-6499.801166630053
 31
0.0
  0
CIRCLE
  5
2BA
330
1F
100
AcDbEntity
  8
パイプハンガー
  6
JWW_DASHED1
 62
     7
370
     9
100
AcDbCircle
 10
-8685.803603277567
 20
-6608.836862570851
 30
0.0
 40
87.5
  0
LINE
  5
2BB
330
1F
100
AcDbEntity
  8
パイプハンガー
  6
JWW_DASHED1
 62
     7
370
     9
100
AcDbLine
 10
-8685.803603277567
 20
-8004.607113719178
 30
0.0
 11
-8685.803603277567
 21
-7779.801166630051
 31
0.0
  0
CIRCLE
  5
2BC
330
1F
100
AcDbEntity
  8
パイプハンガー
  6
JWW_DASHED1
 62
     7
370
     9
100
AcDbCircle
 10
-8685.803603277567
 20
-7888.83686257085
 30
0.0
 40
87.5
  0
LINE
  5
2BD
330
1F
100
AcDbEntity
  8
0-B_寸法
  6
JWW_CENTER1
 62
    92
370
    13
100
AcDbLine
 10
-10163.30360327757
 20
-6056.336862570851
 30
0.0
 11
-8578.303603277565
 21
-7248.83686257085
 31
0.0
  0
LINE
  5
2BE
330
1F
100
AcDbEntity
  8
0-B_寸法
  6
JWW_CENTER1
 62
    92
370
    13
100
AcDbLine
 10
-8578.303603277565
 20
-7248.83686257085
 30
0.0
 11
-10163.30360327757
 21
-8441.33686257085
 31
0.0
  0
LINE
  5
2BF
330
1F
100
AcDbEntity
  8
パイプハンガー
  6
Continuous
 62
    40
370
    15
100
AcDbLine
 10
-8578.303603277565
 20
-1081.336862570848
 30
0.0
 11
-10163.30360327757
 21
-1081.336862570848
 31
0.0
  0
LINE
  5
2C0
330
1F
100
AcDbEntity
  8
パイプハンガー
  6
Continuous
 62
    40
370
    15
100
AcDbLine
 10
-10163.30360327757
 20
-1081.336862570848
 30
0.0
 11
-10163.30360327757
 21
1303.663137429152
 31
0.0
  0
LINE
  5
2C1
330
1F
100
AcDbEntity
  8
パイプハンガー
  6
Continuous
 62
    40
370
    15
100
AcDbLine
 10
-10163.30360327757
 20
1303.663137429152
 30
0.0
 11
-8578.303603277565
 21
1303.663137429152
 31
0.0
  0
LINE
  5
2C2
330
1F
100
AcDbEntity
  8
パイプハンガー
  6
Continuous
 62
    40
370
    15
100
AcDbLine
 10
-8578.303603277565
 20
1303.663137429152
 30
0.0
 11
-8578.303603277565
 21
-1081.336862570848
 31
0.0
  0
LINE
  5
2C3
330
1F
100
AcDbEntity
  8
パイプハンガー
  6
JWW_DASHED1
 62
     7
370
     9
100
AcDbLine
 10
-8578.303603277565
 20
751.1631374291511
 30
0.0
 11
-8795.74678831553
 21
751.1631374291511
 31
0.0
  0
LINE
  5
2C4
330
1F
100
AcDbEntity
  8
パイプハンガー
  6
JWW_DASHED1
 62
     7
370
     9
100
AcDbLine
 10
-8685.803603277567
 20
635.3928862808232
 30
0.0
 11
-8685.803603277567
 21
860.1988333699495
 31
0.0
  0
CIRCLE
  5
2C5
330
1F
100
AcDbEntity
  8
パイプハンガー
  6
JWW_DASHED1
 62
     7
370
     9
100
AcDbCircle
 10
-8685.803603277567
 20
751.1631374291511
 30
0.0
 40
87.5
  0
LINE
  5
2C6
330
1F
100
AcDbEntity
  8
パイプハンガー
  6
JWW_DASHED1
 62
     7
370
     9
100
AcDbLine
 10
-8578.303603277565
 20
-528.8368625708472
 30
0.0
 11
-8795.74678831553
 21
-528.8368625708472
 31
0.0
  0
LINE
  5
2C7
330
1F
100
AcDbEntity
  8
パイプハンガー
  6
JWW_DASHED1
 62
     7
370
     9
100
AcDbLine
 10
-8685.803603277567
 20
-644.6071137191751
 30
0.0
 11
-8685.803603277567
 21
-419.8011666300488
 31
0.0
  0
CIRCLE
  5
2C8
330
1F
100
AcDbEntity
  8
パイプハンガー
  6
JWW_DASHED1
 62
     7
370
     9
100
AcDbCircle
 10
-8685.803603277567
 20
-528.8368625708472
 30
0.0
 40
87.5
  0
LINE
  5
2C9
330
1F
100
AcDbEntity
  8
0-B_寸法
  6
JWW_CENTER1
 62
    92
370
    13
100
AcDbLine
 10
-10163.30360327757
 20
1303.663137429152
 30
0.0
 11
-8578.303603277565
 21
111.163137429152
 31
0.0
  0
LINE
  5
2CA
330
1F
100
AcDbEntity
  8
0-B_寸法
  6
JWW_CENTER1
 62
    92
370
    13
100
AcDbLine
 10
-8578.303603277565
 20
111.163137429152
 30
0.0
 11
-10163.30360327757
 21
-1081.336862570848
 31
0.0
  0
LINE
  5
2CB
330
1F
100
AcDbEntity
  8
0-2
  6
Continuous
 62
    92
370
    13
100
AcDbLine
 10
-8620.803603277565
 20
-6056.336862570851
 30
0.0
 11
-8620.803603277565
 21
-1081.336862570848
 31
0.0
  0
LINE
  5
2CC
330
1F
100
AcDbEntity
  8
0-2
  6
Continuous
 62
    92
370
    13
100
AcDbLine
 10
-8620.803603277565
 20
-8556.33686257085
 30
0.0
 11
-8620.803603277565
 21
-8441.33686257085
 31
0.0
  0
LINE
  5
2CD
330
1F
100
AcDbEntity
  8
0-2
  6
Continuous
 62
    92
370
    13
100
AcDbLine
 10
-10163.30360327757
 20
1258.663137429153
 30
0.0
 11
-10178.30360327757
 21
1258.663137429153
 31
0.0
  0
LINE
  5
2CE
330
1F
100
AcDbEntity
  8
固定棚
  6
Continuous
 62
    92
370
    13
100
AcDbLine
 10
-8620.803603277573
 20
-5996.336862570782
 30
0.0
 11
-11720.80360327758
 21
-5996.336862570782
 31
0.0
  0
LINE
  5
2CF
330
1F
100
AcDbEntity
  8
固定棚
  6
Continuous
 62
    92
370
    13
100
AcDbLine
 10
-10163.30360327757
 20
-6101.336862570783
 30
0.0
 11
-10178.30360327757
 21
-6101.336862570783
 31
0.0
  0
LINE
  5
2D0
330
1F
100
AcDbEntity
  8
可動棚
  6
Continuous
 62
    92
370
    13
100
AcDbLine
 10
-10163.30360327757
 20
-7051.336862570768
 30
0.0
 11
-10178.30360327757
 21
-7051.336862570768
 31
0.0
  0
LINE
  5
2D1
330
1F
100
AcDbEntity
  8
可動棚
  6
Continuous
 62
    92
370
    13
100
AcDbLine
 10
-10163.30360327757
 20
-7156.336862570768
 30
0.0
 11
-10178.30360327757
 21
-7156.336862570768
 31
0.0
  0
LINE
  5
2D2
330
1F
100
AcDbEntity
  8
固定棚
  6
Continuous
 62
    92
370
    13
100
AcDbLine
 10
-8620.803603277573
 20
-1141.33686257083
 30
0.0
 11
-11720.80360327758
 21
-1141.33686257083
 31
0.0
  0
LINE
  5
2D3
330
1F
100
AcDbEntity
  8
固定棚
  6
Continuous
 62
    92
370
    13
100
AcDbLine
 10
-10163.30360327757
 20
-1036.336862570829
 30
0.0
 11
-10178.30360327757
 21
-1036.336862570829
 31
0.0
  0
LINE
  5
2D4
330
1F
100
AcDbEntity
  8
可動棚
  6
Continuous
 62
    92
370
    13
100
AcDbLine
 10
-10163.30360327757
 20
148.6631374291576
 30
0.0
 11
-10178.30360327757
 21
148.6631374291576
 31
0.0
  0
LINE
  5
2D5
330
1F
100
AcDbEntity
  8
可動棚
  6
Continuous
 62
    92
370
    13
100
AcDbLine
 10
-10163.30360327757
 20
43.66313742915793
 30
0.0
 11
-10178.30360327757
 21
43.66313742915793
 31
0.0
  0
LINE
  5
2D6
330
1F
100
AcDbEntity
  8
可動棚
  6
Continuous
 62
    92
370
    13
100
AcDbLine
 10
-8620.803603277578
 20
-4331.336862570795
 30
0.0
 11
-11720.80360327759
 21
-4331.336862570795
 31
0.0
  0
LINE
  5
2D7
330
1F
100
AcDbEntity
  8
可動棚
  6
Continuous
 62
    92
370
    13
100
AcDbLine
 10
-8620.803603277578
 20
-4436.336862570795
 30
0.0
 11
-11720.80360327759
 21
-4436.336862570795
 31
0.0
  0
LINE
  5
2D8
330
1F
100
AcDbEntity
  8
可動棚
  6
Continuous
 62
    92
370
    13
100
AcDbLine
 10
-8620.803603277578
 20
-2571.336862570811
 30
0.0
 11
-11720.80360327759
 21
-2571.336862570811
 31
0.0
  0
LINE
  5
2D9
330
1F
100
AcDbEntity
  8
可動棚
  6
Continuous
 62
    92
370
    13
100
AcDbLine
 10
-8620.803603277578
 20
-2676.336862570811
 30
0.0
 11
-11720.80360327759
 21
-2676.336862570811
 31
0.0
  0
LINE
  5
2DA
330
1F
100
AcDbEntity
  8
パイプハンガー
  6
Continuous
 62
    40
370
    15
100
AcDbLine
 10
-390.8196490375195
 20
8992.924128477727
 30
0.0
 11
-390.8196490375195
 21
8917.924128477727
 31
0.0
  0
LINE
  5
2DB
330
1F
100
AcDbEntity
  8
パイプハンガー
  6
Continuous
 62
    40
370
    15
100
AcDbLine
 10
1194.180350962481
 20
8917.924128477727
 30
0.0
 11
-390.8196490375195
 21
8917.924128477727
 31
0.0
  0
LINE
  5
2DC
330
1F
100
AcDbEntity
  8
パイプハンガー
  6
Continuous
 62
    40
370
    15
100
AcDbLine
 10
1194.180350962481
 20
8992.924128477727
 30
0.0
 11
-390.8196490375195
 21
8992.924128477727
 31
0.0
  0
LINE
  5
2DD
330
1F
100
AcDbEntity
  8
パイプハンガー
  6
Continuous
 62
    40
370
    15
100
AcDbLine
 10
1194.180350962481
 20
8992.924128477727
 30
0.0
 11
1194.180350962481
 21
8917.924128477727
 31
0.0
  0
LINE
  5
2DE
330
1F
100
AcDbEntity
  8
パイプハンガー
  6
Continuous
 62
    40
370
    15
100
AcDbLine
 10
-1990.81964903752
 20
8992.924128477727
 30
0.0
 11
-1990.81964903752
 21
8917.924128477727
 31
0.0
  0
LINE
  5
2DF
330
1F
100
AcDbEntity
  8
パイプハンガー
  6
Continuous
 62
    40
370
    15
100
AcDbLine
 10
-405.8196490375202
 20
8992.924128477727
 30
0.0
 11
-405.8196490375202
 21
8917.924128477727
 31
0.0
  0
LINE
  5
2E0
330
1F
100
AcDbEntity
  8
パイプハンガー
  6
Continuous
 62
    40
370
    15
100
AcDbLine
 10
-405.8196490375202
 20
8992.924128477727
 30
0.0
 11
-1990.81964903752
 21
8992.924128477727
 31
0.0
  0
LINE
  5
2E1
330
1F
100
AcDbEntity
  8
パイプハンガー
  6
Continuous
 62
    40
370
    15
100
AcDbLine
 10
-405.8196490375202
 20
8917.924128477727
 30
0.0
 11
-1990.81964903752
 21
8917.924128477727
 31
0.0
  0
LWPOLYLINE
  5
2E2
330
1F
100
AcDbEntity
  8
0-B_寸法
  6
Continuous
 62
     7
370
     9
100
AcDbPolyline
 90
        4
 70
     1
 43
20.0
 10
-11783.30360327757
 20
2363.663137429148
 42
0.4142135623731
 10
-11793.30360327757
 20
2373.663137429148
 42
0.4142135623731
 10
-11803.30360327757
 20
2363.663137429148
 42
0.4142135623731
 10
-11793.30360327757
 20
2353.663137429148
 42
0.4142135623731
  0
LINE
  5
2E3
330
1F
100
AcDbEntity
  8
0-B_寸法
  6
Continuous
 62
   120
370
     5
100
AcDbLine
 10
-11793.30360327757
 20
2363.663137429148
 30
0.0
 11
-11793.30360327757
 21
1613.663137429148
 31
0.0
  0
LINE
  5
2E4
330
1F
100
AcDbEntity
  8
0-B_寸法
  6
Continuous
 62
   120
370
     5
100
AcDbLine
 10
-11793.30360327757
 20
2363.663137429148
 30
0.0
 11
-11763.30360327757
 21
2363.663137429148
 31
0.0
  0
LWPOLYLINE
  5
2E5
330
1F
100
AcDbEntity
  8
0-B_寸法
  6
Continuous
 62
     7
370
     9
100
AcDbPolyline
 90
        4
 70
     1
 43
20.0
 10
-11753.30360327757
 20
2363.663137429148
 42
0.4142135623731
 10
-11763.30360327757
 20
2373.663137429148
 42
0.4142135623731
 10
-11773.30360327757
 20
2363.663137429148
 42
0.4142135623731
 10
-11763.30360327757
 20
2353.663137429148
 42
0.4142135623731
  0
LINE
  5
2E6
330
1F
100
AcDbEntity
  8
0-B_寸法
  6
Continuous
 62
   120
370
     5
100
AcDbLine
 10
-11763.30360327757
 20
2363.663137429148
 30
0.0
 11
-11763.30360327757
 21
1613.663137429148
 31
0.0
  0
LINE
  5
2E7
330
1F
100
AcDbEntity
  8
0-B_寸法
  6
Continuous
 62
   120
370
     5
100
AcDbLine
 10
-11763.30360327757
 20
2363.663137429148
 30
0.0
 11
-10178.30360327757
 21
2363.663137429148
 31
0.0
  0
LWPOLYLINE
  5
2E8
330
1F
100
AcDbEntity
  8
0-B_寸法
  6
Continuous
 62
     7
370
     9
100
AcDbPolyline
 90
        4
 70
     1
 43
20.0
 10
-10168.30360327757
 20
2363.663137429148
 42
0.4142135623731
 10
-10178.30360327757
 20
2373.663137429148
 42
0.4142135623731
 10
-10188.30360327757
 20
2363.663137429148
 42
0.4142135623731
 10
-10178.30360327757
 20
2353.663137429148
 42
0.4142135623731
  0
LINE
  5
2E9
330
1F
100
AcDbEntity
  8
0-B_寸法
  6
Continuous
 62
   120
370
     5
100
AcDbLine
 10
-10178.30360327757
 20
2363.663137429148
 30
0.0
 11
-10178.30360327757
 21
1613.663137429148
 31
0.0
  0
LWPOLYLINE
  5
2EA
330
1F
100
AcDbEntity
  8
0-B_寸法
  6
Continuous
 62
     7
370
     9
100
AcDbPolyline
 90
        4
 70
     1
 43
20.0
 10
-10153.30360327757
 20
2363.663137429148
 42
0.4142135623731
 10
-10163.30360327757
 20
2373.663137429148
 42
0.4142135623731
 10
-10173.30360327757
 20
2363.663137429148
 42
0.4142135623731
 10
-10163.30360327757
 20
2353.663137429148
 42
0.4142135623731
  0
LINE
  5
2EB
330
1F
100
AcDbEntity
  8
0-B_寸法
  6
Continuous
 62
   120
370
     5
100
AcDbLine
 10
-10163.30360327757
 20
2363.663137429148
 30
0.0
 11
-10163.30360327757
 21
1613.663137429148
 31
0.0
  0
LINE
  5
2EC
330
1F
100
AcDbEntity
  8
0-B_寸法
  6
Continuous
 62
   120
370
     5
100
AcDbLine
 10
-10163.30360327757
 20
2363.663137429148
 30
0.0
 11
-8578.303603277567
 21
2363.663137429148
 31
0.0
  0
LWPOLYLINE
  5
2ED
330
1F
100
AcDbEntity
  8
0-B_寸法
  6
Continuous
 62
     7
370
     9
100
AcDbPolyline
 90
        4
 70
     1
 43
20.0
 10
-8568.303603277567
 20
2363.663137429148
 42
0.4142135623731
 10
-8578.303603277567
 20
2373.663137429148
 42
0.4142135623731
 10
-8588.303603277567
 20
2363.663137429148
 42
0.4142135623731
 10
-8578.303603277567
 20
2353.663137429148
 42
0.4142135623731
  0
LINE
  5
2EE
330
1F
100
AcDbEntity
  8
0-B_寸法
  6
Continuous
 62
   120
370
     5
100
AcDbLine
 10
-8578.303603277567
 20
2363.663137429148
 30
0.0
 11
-8578.303603277567
 21
1613.663137429148
 31
0.0
  0
LINE
  5
2EF
330
1F
100
AcDbEntity
  8
0-B_寸法
  6
Continuous
 62
   120
370
     5
100
AcDbLine
 10
-8578.303603277567
 20
2363.663137429148
 30
0.0
 11
-8548.303603277565
 21
2363.663137429148
 31
0.0
  0
LINE
  5
2F0
330
1F
100
AcDbEntity
  8
0-B_寸法
  6
Continuous
 62
   120
370
     5
100
AcDbLine
 10
-10178.30360327757
 20
2363.663137429148
 30
0.0
 11
-10163.30360327757
 21
2363.663137429148
 31
0.0
  0
TEXT
  5
2F1
330
1F
100
AcDbEntity
  8
0-B_寸法
  6
Continuous
 62
     7
370
   211
100
AcDbText
 10
-8664.518669159088
 20
2413.171635751115
 30
0.0
 40
304.8
  1
6
  7
ＭＳ ゴシック
100
AcDbText
  0
TEXT
  5
2F2
330
1F
100
AcDbEntity
  8
0-B_寸法
  6
Continuous
 62
     7
370
   211
100
AcDbText
 10
-9920.803603277567
 20
2413.171635751115
 30
0.0
 40
304.8
  1
扉Ｗ＝317
 41
0.611111111111111
  7
ＭＳ ゴシック
100
AcDbText
  0
TEXT
  5
2F3
330
1F
100
AcDbEntity
  8
0-B_寸法
  6
Continuous
 62
     7
370
   211
100
AcDbText
 10
-10270.80360327757
 20
2413.171635751115
 30
0.0
 40
304.8
  1
3
  7
ＭＳ ゴシック
100
AcDbText
  0
TEXT
  5
2F4
330
1F
100
AcDbEntity
  8
0-B_寸法
  6
Continuous
 62
     7
370
   211
100
AcDbText
 10
-11520.80360327757
 20
2413.171635751115
 30
0.0
 40
304.8
  1
扉Ｗ＝317
 41
0.611111111111111
  7
ＭＳ ゴシック
100
AcDbText
  0
TEXT
  5
2F5
330
1F
100
AcDbEntity
  8
0-B_寸法
  6
Continuous
 62
     7
370
   211
100
AcDbText
 10
-11867.08229767946
 20
2413.171635751115
 30
0.0
 40
304.8
  1
6
  7
ＭＳ ゴシック
100
AcDbText
  0
TEXT
  5
2F6
330
1F
100
AcDbEntity
  8
0-B_寸法
  6
Continuous
 62
     7
370
   211
100
AcDbText
 10
-11726.58179624276
 20
-9449.936862570848
 30
0.0
 40
304.8
  1
15
 41
1.0625
  7
ＭＳ ゴシック
100
AcDbText
  0
LINE
  5
2F7
330
1F
100
AcDbEntity
  8
0-B_寸法
  6
Continuous
 62
   120
370
     5
100
AcDbLine
 10
-11898.30360327757
 20
-9556.336862570848
 30
0.0
 11
-11898.30360327757
 21
-8806.336862570848
 31
0.0
  0
LWPOLYLINE
  5
2F8
330
1F
100
AcDbEntity
  8
0-B_寸法
  6
Continuous
 62
     7
370
     9
100
AcDbPolyline
 90
        4
 70
     1
 43
20.0
 10
-11783.30360327757
 20
-9556.336862570848
 42
0.4142135623731
 10
-11793.30360327757
 20
-9546.336862570848
 42
0.4142135623731
 10
-11803.30360327757
 20
-9556.336862570848
 42
0.4142135623731
 10
-11793.30360327757
 20
-9566.336862570846
 42
0.4142135623731
  0
LWPOLYLINE
  5
2F9
330
1F
100
AcDbEntity
  8
0-B_寸法
  6
Continuous
 62
     7
370
     9
100
AcDbPolyline
 90
        4
 70
     1
 43
20.0
 10
-11708.30360327757
 20
-9556.336862570848
 42
0.4142135623731
 10
-11718.30360327757
 20
-9546.336862570848
 42
0.4142135623731
 10
-11728.30360327757
 20
-9556.336862570848
 42
0.4142135623731
 10
-11718.30360327757
 20
-9566.336862570846
 42
0.4142135623731
  0
LINE
  5
2FA
330
1F
100
AcDbEntity
  8
0-B_寸法
  6
Continuous
 62
   120
370
     5
100
AcDbLine
 10
-11793.30360327757
 20
-9556.336862570848
 30
0.0
 11
-11793.30360327757
 21
-8806.336862570848
 31
0.0
  0
LINE
  5
2FB
330
1F
100
AcDbEntity
  8
0-B_寸法
  6
Continuous
 62
   120
370
     5
100
AcDbLine
 10
-11718.30360327757
 20
-9556.336862570848
 30
0.0
 11
-11793.30360327757
 21
-9556.336862570848
 31
0.0
  0
LINE
  5
2FC
330
1F
100
AcDbEntity
  8
0-B_寸法
  6
Continuous
 62
   120
370
     5
100
AcDbLine
 10
-11718.30360327757
 20
-9556.336862570848
 30
0.0
 11
-11718.30360327757
 21
-8806.336862570848
 31
0.0
  0
LWPOLYLINE
  5
2FD
330
1F
100
AcDbEntity
  8
0-B_寸法
  6
Continuous
 62
     7
370
     9
100
AcDbPolyline
 90
        4
 70
     1
 43
20.0
 10
-11783.30360327757
 20
-10056.33686257085
 42
0.4142135623731
 10
-11793.30360327757
 20
-10046.33686257085
 42
0.4142135623731
 10
-11803.30360327757
 20
-10056.33686257085
 42
0.4142135623731
 10
-11793.30360327757
 20
-10066.33686257085
 42
0.4142135623731
  0
LINE
  5
2FE
330
1F
100
AcDbEntity
  8
0-B_寸法
  6
Continuous
 62
   120
370
     5
100
AcDbLine
 10
-11793.30360327757
 20
-10056.33686257085
 30
0.0
 11
-11793.30360327757
 21
-9556.336862570848
 31
0.0
  0
LINE
  5
2FF
330
1F
100
AcDbEntity
  8
0-B_寸法
  6
Continuous
 62
   120
370
     5
100
AcDbLine
 10
-11793.30360327757
 20
-9556.336862570848
 30
0.0
 11
-11898.30360327757
 21
-9556.336862570848
 31
0.0
  0
LWPOLYLINE
  5
300
330
1F
100
AcDbEntity
  8
0-B_寸法
  6
Continuous
 62
     7
370
     9
100
AcDbPolyline
 90
        4
 70
     1
 43
20.0
 10
-11888.30360327757
 20
-9556.336862570848
 42
0.4142135623731
 10
-11898.30360327757
 20
-9546.336862570848
 42
0.4142135623731
 10
-11908.30360327757
 20
-9556.336862570848
 42
0.4142135623731
 10
-11898.30360327757
 20
-9566.336862570846
 42
0.4142135623731
  0
TEXT
  5
301
330
1F
100
AcDbEntity
  8
0-B_寸法
  6
Continuous
 62
     7
370
   211
100
AcDbText
 10
-12352.08250493815
 20
-9449.936862570848
 30
0.0
 40
304.8
  1
21
 41
1.062500000000007
  7
ＭＳ ゴシック
100
AcDbText
  0
LINE
  5
302
330
1F
100
AcDbEntity
  8
0-B_寸法
  6
Continuous
 62
   120
370
     5
100
AcDbLine
 10
-10223.30360327757
 20
-9556.336862570848
 30
0.0
 11
-11718.30360327757
 21
-9556.336862570848
 31
0.0
  0
LINE
  5
303
330
1F
100
AcDbEntity
  8
0-B_寸法
  6
Continuous
 62
   120
370
     5
100
AcDbLine
 10
-10118.30360327757
 20
-9556.336862570848
 30
0.0
 11
-10223.30360327757
 21
-9556.336862570848
 31
0.0
  0
LWPOLYLINE
  5
304
330
1F
100
AcDbEntity
  8
0-B_寸法
  6
Continuous
 62
     7
370
     9
100
AcDbPolyline
 90
        4
 70
     1
 43
20.0
 10
-8613.30360327757
 20
-9556.336862570848
 42
0.4142135623731
 10
-8623.30360327757
 20
-9546.336862570848
 42
0.4142135623731
 10
-8633.303603277569
 20
-9556.336862570848
 42
0.4142135623731
 10
-8623.30360327757
 20
-9566.336862570846
 42
0.4142135623731
  0
LWPOLYLINE
  5
305
330
1F
100
AcDbEntity
  8
0-B_寸法
  6
Continuous
 62
     7
370
     9
100
AcDbPolyline
 90
        4
 70
     1
 43
20.0
 10
-8538.30360327757
 20
-9556.336862570848
 42
0.4142135623731
 10
-8548.30360327757
 20
-9546.336862570848
 42
0.4142135623731
 10
-8558.303603277569
 20
-9556.336862570848
 42
0.4142135623731
 10
-8548.30360327757
 20
-9566.336862570846
 42
0.4142135623731
  0
LINE
  5
306
330
1F
100
AcDbEntity
  8
0-B_寸法
  6
Continuous
 62
   120
370
     5
100
AcDbLine
 10
-8623.30360327757
 20
-9556.336862570848
 30
0.0
 11
-8623.30360327757
 21
-8806.336862570848
 31
0.0
  0
LINE
  5
307
330
1F
100
AcDbEntity
  8
0-B_寸法
  6
Continuous
 62
   120
370
     5
100
AcDbLine
 10
-8548.30360327757
 20
-9556.336862570848
 30
0.0
 11
-8548.30360327757
 21
-8806.336862570848
 31
0.0
  0
LINE
  5
308
330
1F
100
AcDbEntity
  8
0-B_寸法
  6
Continuous
 62
   120
370
     5
100
AcDbLine
 10
-8548.30360327757
 20
-9556.336862570848
 30
0.0
 11
-8623.30360327757
 21
-9556.336862570848
 31
0.0
  0
LINE
  5
309
330
1F
100
AcDbEntity
  8
0-B_寸法
  6
Continuous
 62
   120
370
     5
100
AcDbLine
 10
-11793.30360327757
 20
-10056.33686257085
 30
0.0
 11
-8548.30360327757
 21
-10056.33686257085
 31
0.0
  0
LWPOLYLINE
  5
30A
330
1F
100
AcDbEntity
  8
0-B_寸法
  6
Continuous
 62
     7
370
     9
100
AcDbPolyline
 90
        4
 70
     1
 43
20.0
 10
-8538.30360327757
 20
-10056.33686257085
 42
0.4142135623731
 10
-8548.30360327757
 20
-10046.33686257085
 42
0.4142135623731
 10
-8558.303603277569
 20
-10056.33686257085
 42
0.4142135623731
 10
-8548.30360327757
 20
-10066.33686257085
 42
0.4142135623731
  0
LINE
  5
30B
330
1F
100
AcDbEntity
  8
0-B_寸法
  6
Continuous
 62
   120
370
     5
100
AcDbLine
 10
-8548.30360327757
 20
-10056.33686257085
 30
0.0
 11
-8548.30360327757
 21
-9556.336862570848
 31
0.0
  0
TEXT
  5
30C
330
1F
100
AcDbEntity
  8
0-B_寸法
  6
Continuous
 62
     7
370
   211
100
AcDbText
 10
-8548.30360327757
 20
-9449.936862570848
 30
0.0
 40
304.8
  1
15
 41
1.0625
  7
ＭＳ ゴシック
100
AcDbText
  0
LINE
  5
30D
330
1F
100
AcDbEntity
  8
0-B_寸法
  6
Continuous
 62
   120
370
     5
100
AcDbLine
 10
-8623.30360327757
 20
-9556.336862570848
 30
0.0
 11
-10118.30360327757
 21
-9556.336862570848
 31
0.0
  0
TEXT
  5
30E
330
1F
100
AcDbEntity
  8
0-B_寸法
  6
Continuous
 62
     7
370
   211
100
AcDbText
 10
-10495.80360327757
 20
-10015.71943579508
 30
0.0
 40
304.8
  1
649
 41
1.083333333333333
  7
ＭＳ ゴシック
100
AcDbText
  0
TEXT
  5
30F
330
1F
100
AcDbEntity
  8
0-B_寸法
  6
Continuous
 62
     7
370
   211
100
AcDbText
 10
-10495.80360327757
 20
-9449.936862570848
 30
0.0
 40
304.8
  1
619
 41
1.083333333333333
  7
ＭＳ ゴシック
100
AcDbText
  0
LINE
  5
310
330
1F
100
AcDbEntity
  8
固定棚
  6
Continuous
 62
    92
370
    13
100
AcDbLine
 10
-1945.819649037519
 20
10497.92412847773
 30
0.0
 11
1149.18035096248
 21
10497.92412847773
 31
0.0
  0
LINE
  5
311
330
1F
100
AcDbEntity
  8
0-2
  6
Continuous
 62
    40
370
    15
100
AcDbLine
 10
-1945.819649037519
 20
8997.924128477727
 30
0.0
 11
-1945.819649037519
 21
10497.92412847773
 31
0.0
  0
LINE
  5
312
330
1F
100
AcDbEntity
  8
0-2
  6
Continuous
 62
    40
370
    15
100
AcDbLine
 10
-2020.819649037519
 20
10497.92412847773
 30
0.0
 11
-1945.819649037519
 21
10497.92412847773
 31
0.0
  0
LINE
  5
313
330
1F
100
AcDbEntity
  8
0-0_補助線
  6
JWW_HOJO
 62
   120
370
     5
100
AcDbLine
 10
-2270.819649037519
 20
10747.92412847773
 30
0.0
 11
-2270.819649037519
 21
8747.924128477727
 31
0.0
  0
LINE
  5
314
330
1F
100
AcDbEntity
  8
0-0_補助線
  6
JWW_HOJO
 62
   120
370
     5
100
AcDbLine
 10
-3020.819649037519
 20
11497.92412847773
 30
0.0
 11
-3020.819649037519
 21
7997.924128477727
 31
0.0
  0
LINE
  5
315
330
1F
100
AcDbEntity
  8
0-0_補助線
  6
JWW_HOJO
 62
   120
370
     5
100
AcDbLine
 10
-3520.819649037523
 20
11997.92412847773
 30
0.0
 11
-3520.819649037523
 21
7497.924128477727
 31
0.0
  0
LINE
  5
316
330
1F
100
AcDbEntity
  8
0-0_補助線
  6
JWW_HOJO
 62
     7
370
     9
100
AcDbLine
 10
-2020.819649037519
 20
11997.92412847773
 30
0.0
 11
-2020.819649037519
 21
-11411.86586414445
 31
0.0
  0
LWPOLYLINE
  5
317
330
1F
100
AcDbEntity
  8
0-B_寸法
  6
Continuous
 62
     7
370
     9
100
AcDbPolyline
 90
        4
 70
     1
 43
20.0
 10
-2010.819649037519
 20
11497.92412847773
 42
0.4142135623731
 10
-2020.819649037519
 20
11507.92412847773
 42
0.4142135623731
 10
-2030.819649037519
 20
11497.92412847773
 42
0.4142135623731
 10
-2020.819649037519
 20
11487.92412847773
 42
0.4142135623731
  0
LINE
  5
318
330
1F
100
AcDbEntity
  8
0-B_寸法
  6
Continuous
 62
   120
370
     5
100
AcDbLine
 10
-2020.819649037519
 20
11497.92412847773
 30
0.0
 11
-2020.819649037519
 21
10747.92412847773
 31
0.0
  0
LINE
  5
319
330
1F
100
AcDbEntity
  8
0-2
  6
Continuous
 62
    40
370
    15
100
AcDbLine
 10
1149.18035096248
 20
8997.924128477727
 30
0.0
 11
1149.18035096248
 21
10497.92412847773
 31
0.0
  0
LINE
  5
31A
330
1F
100
AcDbEntity
  8
0-2
  6
Continuous
 62
    40
370
    15
100
AcDbLine
 10
1224.18035096248
 20
8997.924128477727
 30
0.0
 11
1224.18035096248
 21
10497.92412847773
 31
0.0
  0
LINE
  5
31B
330
1F
100
AcDbEntity
  8
0-2
  6
Continuous
 62
    40
370
    15
100
AcDbLine
 10
1149.18035096248
 20
10497.92412847773
 30
0.0
 11
1224.18035096248
 21
10497.92412847773
 31
0.0
  0
LINE
  5
31C
330
1F
100
AcDbEntity
  8
0-0_補助線
  6
JWW_HOJO
 62
   120
370
     5
100
AcDbLine
 10
1474.18035096248
 20
10747.92412847773
 30
0.0
 11
1474.18035096248
 21
8747.924128477727
 31
0.0
  0
LINE
  5
31D
330
1F
100
AcDbEntity
  8
0-0_補助線
  6
JWW_HOJO
 62
   120
370
     5
100
AcDbLine
 10
-2270.819649037519
 20
10747.92412847773
 30
0.0
 11
1474.18035096248
 21
10747.92412847773
 31
0.0
  0
LINE
  5
31E
330
1F
100
AcDbEntity
  8
0-0_補助線
  6
JWW_HOJO
 62
   120
370
     5
100
AcDbLine
 10
2224.18035096248
 20
11497.92412847773
 30
0.0
 11
2224.18035096248
 21
7997.924128477727
 31
0.0
  0
LINE
  5
31F
330
1F
100
AcDbEntity
  8
0-0_補助線
  6
JWW_HOJO
 62
   120
370
     5
100
AcDbLine
 10
-3020.819649037519
 20
11497.92412847773
 30
0.0
 11
2224.18035096248
 21
11497.92412847773
 31
0.0
  0
LINE
  5
320
330
1F
100
AcDbEntity
  8
0-0_補助線
  6
JWW_HOJO
 62
   120
370
     5
100
AcDbLine
 10
2724.18035096248
 20
11997.92412847773
 30
0.0
 11
2724.18035096248
 21
7497.924128477727
 31
0.0
  0
LINE
  5
321
330
1F
100
AcDbEntity
  8
0-0_補助線
  6
JWW_HOJO
 62
   120
370
     5
100
AcDbLine
 10
-3520.819649037523
 20
11997.92412847773
 30
0.0
 11
2724.18035096248
 21
11997.92412847773
 31
0.0
  0
LINE
  5
322
330
1F
100
AcDbEntity
  8
0-0_補助線
  6
JWW_HOJO
 62
     7
370
     9
100
AcDbLine
 10
1224.18035096248
 20
11997.92412847773
 30
0.0
 11
1224.18035096248
 21
-11411.86586414445
 31
0.0
  0
LINE
  5
323
330
1F
100
AcDbEntity
  8
0-B_寸法
  6
Continuous
 62
   120
370
     5
100
AcDbLine
 10
-2020.819649037519
 20
11497.92412847773
 30
0.0
 11
1224.18035096248
 21
11497.92412847773
 31
0.0
  0
LWPOLYLINE
  5
324
330
1F
100
AcDbEntity
  8
0-B_寸法
  6
Continuous
 62
     7
370
     9
100
AcDbPolyline
 90
        4
 70
     1
 43
20.0
 10
1234.18035096248
 20
11497.92412847773
 42
0.4142135623731
 10
1224.18035096248
 20
11507.92412847773
 42
0.4142135623731
 10
1214.18035096248
 20
11497.92412847773
 42
0.4142135623731
 10
1224.18035096248
 20
11487.92412847773
 42
0.4142135623731
  0
LINE
  5
325
330
1F
100
AcDbEntity
  8
0-B_寸法
  6
Continuous
 62
   120
370
     5
100
AcDbLine
 10
1224.18035096248
 20
11497.92412847773
 30
0.0
 11
1224.18035096248
 21
10747.92412847773
 31
0.0
  0
LINE
  5
326
330
1F
100
AcDbEntity
  8
0-A_文字
  6
Continuous
 62
     7
370
     9
100
AcDbLine
 10
-997.834579410835
 20
10747.92412847773
 30
0.0
 11
-738.0269582755034
 21
10597.92412847773
 31
0.0
  0
LINE
  5
327
330
1F
100
AcDbEntity
  8
0-A_文字
  6
Continuous
 62
     7
370
     9
100
AcDbLine
 10
-997.834579410835
 20
10747.92412847773
 30
0.0
 11
-738.0269582755034
 21
10897.92412847773
 31
0.0
  0
LINE
  5
328
330
1F
100
AcDbEntity
  8
0-A_文字
  6
JWW_CENTER1
 62
     7
370
     9
100
AcDbLine
 10
2.165420589165024
 20
10747.92412847773
 30
0.0
 11
-997.834579410835
 21
10747.92412847773
 31
0.0
  0
LINE
  5
329
330
1F
100
AcDbEntity
  8
0-A_文字
  6
JWW_CENTER1
 62
     7
370
     9
100
AcDbLine
 10
2.165420589165024
 20
10747.92412847773
 30
0.0
 11
2.165420589165024
 21
8747.924128477727
 31
0.0
  0
TEXT
  5
32A
330
1F
100
AcDbEntity
  8
0-A_文字
  6
Continuous
 62
     7
370
     9
100
AcDbText
 10
2.165420589167866
 20
10804.32412847773
 30
0.0
 40
304.8
  1
ａ’
 41
1.0625
  7
ＭＳ ゴシック
100
AcDbText
  0
TEXT
  5
32B
330
1F
100
AcDbEntity
  8
0-B_寸法
  6
Continuous
 62
     7
370
   211
100
AcDbText
 10
-723.31964903752
 20
11563.09131246602
 30
0.0
 40
304.8
  1
649
 41
1.083333333333333
  7
ＭＳ ゴシック
100
AcDbText
  0
LINE
  5
32C
330
1F
100
AcDbEntity
  8
パイプハンガー
  6
Continuous
 62
    40
370
    15
100
AcDbLine
 10
8994.180349673385
 20
1303.663137429154
 30
0.0
 11
9069.180349673385
 21
1303.663137429154
 31
0.0
  0
LINE
  5
32D
330
1F
100
AcDbEntity
  8
パイプハンガー
  6
Continuous
 62
    40
370
    15
100
AcDbLine
 10
8994.180349673385
 20
-8441.336862283953
 30
0.0
 11
9069.180349673385
 21
-8441.336862283953
 31
0.0
  0
LINE
  5
32E
330
1F
100
AcDbEntity
  8
パイプハンガー
  6
Continuous
 62
    40
370
    15
100
AcDbLine
 10
8994.180349673385
 20
-1081.336862570848
 30
0.0
 11
9069.180349673385
 21
-1081.336862570848
 31
0.0
  0
LINE
  5
32F
330
1F
100
AcDbEntity
  8
パイプハンガー
  6
Continuous
 62
    40
370
    15
100
AcDbLine
 10
8994.180349673385
 20
-6056.336862570851
 30
0.0
 11
9069.180349673385
 21
-6056.336862570851
 31
0.0
  0
LINE
  5
330
330
1F
100
AcDbEntity
  8
パイプハンガー
  6
Continuous
 62
    40
370
    15
100
AcDbLine
 10
8994.180349673385
 20
1303.663137429154
 30
0.0
 11
8994.180349673385
 21
-1081.336862570848
 31
0.0
  0
LINE
  5
331
330
1F
100
AcDbEntity
  8
パイプハンガー
  6
Continuous
 62
    40
370
    15
100
AcDbLine
 10
9069.180349673385
 20
1303.663137429154
 30
0.0
 11
9069.180349673385
 21
-1081.336862570848
 31
0.0
  0
LINE
  5
332
330
1F
100
AcDbEntity
  8
パイプハンガー
  6
Continuous
 62
    40
370
    15
100
AcDbLine
 10
8994.180349673385
 20
-6056.336862570851
 30
0.0
 11
8994.180349673385
 21
-8441.336862283953
 31
0.0
  0
LINE
  5
333
330
1F
100
AcDbEntity
  8
パイプハンガー
  6
Continuous
 62
    40
370
    15
100
AcDbLine
 10
9069.180349673385
 20
-6056.336862570851
 30
0.0
 11
9069.180349673385
 21
-8441.336862283953
 31
0.0
  0
LINE
  5
334
330
1F
100
AcDbEntity
  8
0-A_文字
  6
Continuous
 62
     7
370
     9
100
AcDbLine
 10
2426.511369938991
 20
4018.359792720762
 30
0.0
 11
-1786.358339702706
 21
4018.359792720762
 31
0.0
  0
LWPOLYLINE
  5
335
330
1F
100
AcDbEntity
  8
0-B_寸法
  6
Continuous
 62
     7
370
     9
100
AcDbPolyline
 90
        4
 70
     1
 43
20.0
 10
-3731.745957304345
 20
10497.92412847773
 42
0.4142135623731
 10
-3741.745957304345
 20
10507.92412847773
 42
0.4142135623731
 10
-3751.745957304345
 20
10497.92412847773
 42
0.4142135623731
 10
-3741.745957304345
 20
10487.92412847773
 42
0.4142135623731
  0
LINE
  5
336
330
1F
100
AcDbEntity
  8
0-B_寸法
  6
Continuous
 62
   120
370
     5
100
AcDbLine
 10
-3741.745957304345
 20
10497.92412847773
 30
0.0
 11
-3741.745957304345
 21
8997.924128477727
 31
0.0
  0
LWPOLYLINE
  5
337
330
1F
100
AcDbEntity
  8
0-B_寸法
  6
Continuous
 62
     7
370
     9
100
AcDbPolyline
 90
        4
 70
     1
 43
20.0
 10
-3731.745957304345
 20
8997.924128477727
 42
0.4142135623731
 10
-3741.745957304345
 20
9007.924128477727
 42
0.4142135623731
 10
-3751.745957304345
 20
8997.924128477727
 42
0.4142135623731
 10
-3741.745957304345
 20
8987.924128477727
 42
0.4142135623731
  0
TEXT
  5
338
330
1F
100
AcDbEntity
  8
0-B_寸法
  6
Continuous
 62
     7
370
   211
100
AcDbText
 10
-3825.843654017211
 20
9497.924128477727
 30
0.0
 40
228.6
  1
300
 50
90.0
 41
1.111111111111111
  7
ＭＳ ゴシック
100
AcDbText
  0
LINE
  5
339
330
1F
100
AcDbEntity
  8
0-B_寸法
  6
Continuous
 62
   120
370
     5
100
AcDbLine
 10
-2770.819649037519
 20
10497.92412847773
 30
0.0
 11
-2770.819649037519
 21
9012.924128477727
 31
0.0
  0
LWPOLYLINE
  5
33A
330
1F
100
AcDbEntity
  8
0-B_寸法
  6
Continuous
 62
     7
370
     9
100
AcDbPolyline
 90
        4
 70
     1
 43
20.0
 10
-2760.819649037519
 20
10497.92412847773
 42
0.4142135623731
 10
-2770.819649037519
 20
10507.92412847773
 42
0.4142135623731
 10
-2780.819649037519
 20
10497.92412847773
 42
0.4142135623731
 10
-2770.819649037519
 20
10487.92412847773
 42
0.4142135623731
  0
LWPOLYLINE
  5
33B
330
1F
100
AcDbEntity
  8
0-B_寸法
  6
Continuous
 62
     7
370
     9
100
AcDbPolyline
 90
        4
 70
     1
 43
20.0
 10
-2760.819649037519
 20
9012.924128477727
 42
0.4142135623731
 10
-2770.819649037519
 20
9022.924128477727
 42
0.4142135623731
 10
-2780.819649037519
 20
9012.924128477727
 42
0.4142135623731
 10
-2770.819649037519
 20
9002.924128477729
 42
0.4142135623731
  0
LINE
  5
33C
330
1F
100
AcDbEntity
  8
0-B_寸法
  6
Continuous
 62
   120
370
     5
100
AcDbLine
 10
-2770.819649037519
 20
10497.92412847773
 30
0.0
 11
-2270.819649037519
 21
10497.92412847773
 31
0.0
  0
LINE
  5
33D
330
1F
100
AcDbEntity
  8
0-B_寸法
  6
Continuous
 62
   120
370
     5
100
AcDbLine
 10
-2770.819649037519
 20
9012.924128477727
 30
0.0
 11
-2270.819649037519
 21
9012.924128477727
 31
0.0
  0
LINE
  5
33E
330
1F
100
AcDbEntity
  8
0-B_寸法
  6
Continuous
 62
   120
370
     5
100
AcDbLine
 10
-3741.745957304345
 20
10497.92412847773
 30
0.0
 11
-2770.819649037519
 21
10497.92412847773
 31
0.0
  0
LINE
  5
33F
330
1F
100
AcDbEntity
  8
0-B_寸法
  6
Continuous
 62
   120
370
     5
100
AcDbLine
 10
-3741.745957304345
 20
8997.924128477727
 30
0.0
 11
-2270.819649037519
 21
8997.924128477727
 31
0.0
  0
LINE
  5
340
330
1F
100
AcDbEntity
  8
0-2
  6
Continuous
 62
    40
370
    15
100
AcDbLine
 10
-2125.819649037519
 20
10497.92412847773
 30
0.0
 11
-2020.819649037519
 21
10497.92412847773
 31
0.0
  0
LINE
  5
341
330
1F
100
AcDbEntity
  8
0-2
  6
Continuous
 62
    40
370
    15
100
AcDbLine
 10
-2020.819649037519
 20
8887.924128477727
 30
0.0
 11
-2020.819649037519
 21
10497.92412847773
 31
0.0
  0
LINE
  5
342
330
1F
100
AcDbEntity
  8
0-2
  6
Continuous
 62
    40
370
    15
100
AcDbLine
 10
-2125.819649037519
 20
8887.924128477727
 30
0.0
 11
-2020.819649037519
 21
8887.924128477727
 31
0.0
  0
LINE
  5
343
330
1F
100
AcDbEntity
  8
0-2
  6
Continuous
 62
    40
370
    15
100
AcDbLine
 10
-2125.819649037519
 20
8887.924128477727
 30
0.0
 11
-2125.819649037519
 21
10497.92412847773
 31
0.0
  0
LWPOLYLINE
  5
344
330
1F
100
AcDbEntity
  8
0-B_寸法
  6
Continuous
 62
     7
370
     9
100
AcDbPolyline
 90
        4
 70
     1
 43
20.0
 10
-3260.819649037519
 20
10497.92412847773
 42
0.4142135623731
 10
-3270.819649037519
 20
10507.92412847773
 42
0.4142135623731
 10
-3280.819649037519
 20
10497.92412847773
 42
0.4142135623731
 10
-3270.819649037519
 20
10487.92412847773
 42
0.4142135623731
  0
LINE
  5
345
330
1F
100
AcDbEntity
  8
0-B_寸法
  6
Continuous
 62
   120
370
     5
100
AcDbLine
 10
-3270.819649037519
 20
10497.92412847773
 30
0.0
 11
-3270.819649037519
 21
8887.924128477727
 31
0.0
  0
LWPOLYLINE
  5
346
330
1F
100
AcDbEntity
  8
0-B_寸法
  6
Continuous
 62
     7
370
     9
100
AcDbPolyline
 90
        4
 70
     1
 43
20.0
 10
-3260.819649037519
 20
8887.924128477727
 42
0.4142135623731
 10
-3270.819649037519
 20
8897.924128477727
 42
0.4142135623731
 10
-3280.819649037519
 20
8887.924128477727
 42
0.4142135623731
 10
-3270.819649037519
 20
8877.924128477729
 42
0.4142135623731
  0
TEXT
  5
347
330
1F
100
AcDbEntity
  8
0-B_寸法
  6
Continuous
 62
     7
370
   211
100
AcDbText
 10
-2875.974814133149
 20
9005.424128477725
 30
0.0
 40
228.6
  1
固定棚=297
 50
90.0
 41
0.9999999999999999
  7
ＭＳ ゴシック
100
AcDbText
  0
TEXT
  5
348
330
1F
100
AcDbEntity
  8
0-B_寸法
  6
Continuous
 62
     7
370
   211
100
AcDbText
 10
-3375.974814133149
 20
8855.424128477725
 30
0.0
 40
228.6
  1
サイドパネル＝322
 50
90.0
 41
0.7058823529411763
  7
ＭＳ ゴシック
100
AcDbText
  0
LINE
  5
349
330
1F
100
AcDbEntity
  8
0-B_寸法
  6
Continuous
 62
   120
370
     5
100
AcDbLine
 10
-3270.819649037519
 20
8887.924128477727
 30
0.0
 11
-2270.819649037519
 21
8887.924128477727
 31
0.0
  0
TEXT
  5
34A
330
1F
100
AcDbEntity
  8
0-B_寸法
  6
Continuous
 62
     7
370
   211
100
AcDbText
 10
9450.051432976374
 20
2365.063137429153
 30
0.0
 40
304.8
  1
202
 41
1.083333333333333
  7
ＭＳ ゴシック
100
AcDbText
  0
LINE
  5
34B
330
1F
100
AcDbEntity
  8
0-A_文字
  6
Continuous
 62
     7
370
     9
100
AcDbLine
 10
481.6460217661806
 20
-8869.548510561704
 30
0.0
 11
1118.208385212883
 21
-8869.548510561704
 31
0.0
  0
LINE
  5
34C
330
1F
100
AcDbEntity
  8
0-A_文字
  6
Continuous
 62
     7
370
     9
100
AcDbLine
 10
237.8769642649353
 20
-8447.328117656369
 30
0.0
 11
481.6460217661806
 21
-8869.548510561704
 31
0.0
  0
TEXT
  5
34D
330
1F
100
AcDbEntity
  8
0-A_文字
  6
Continuous
 62
     7
370
     9
100
AcDbText
 10
481.646021766182
 20
-8827.248510561705
 30
0.0
 40
228.6
  1
巾木
 41
1.083333333333333
  7
ＭＳ ゴシック
100
AcDbText
  0
TEXT
  5
34E
330
1F
100
AcDbEntity
  8
0-B_寸法
  6
Continuous
 62
     7
370
   211
100
AcDbText
 10
10440.53247684901
 20
-7699.936863909405
 30
0.0
 40
304.8
  1
15
 41
1.0625
  7
ＭＳ ゴシック
100
AcDbText
  0
LINE
  5
34F
330
1F
100
AcDbEntity
  8
可動棚
  6
Continuous
 62
    92
370
    13
100
AcDbLine
 10
-10163.30360327757
 20
-8011.336862570759
 30
0.0
 11
-10178.30360327757
 21
-8011.336862570759
 31
0.0
  0
LINE
  5
350
330
1F
100
AcDbEntity
  8
可動棚
  6
Continuous
 62
    92
370
    13
100
AcDbLine
 10
-10163.30360327757
 20
-8116.336862570759
 30
0.0
 11
-10178.30360327757
 21
-8116.336862570759
 31
0.0
  0
LINE
  5
351
330
1F
100
AcDbEntity
  8
パイプハンガー
  6
JWW_DASHED1
 62
     7
370
     9
100
AcDbLine
 10
-8578.303603277565
 20
-7888.83686257085
 30
0.0
 11
-8795.74678831553
 21
-7888.83686257085
 31
0.0
  0
LINE
  5
352
330
1F
100
AcDbEntity
  8
固定棚
  6
Continuous
 62
    40
370
    15
100
AcDbLine
 10
9089.180350962479
 20
-8076.336862570755
 30
0.0
 11
9089.180350962479
 21
-8181.33686257076
 31
0.0
  0
LINE
  5
353
330
1F
100
AcDbEntity
  8
固定棚
  6
Continuous
 62
    92
370
    13
100
AcDbLine
 10
1149.18035096248
 20
-8181.33686257076
 30
0.0
 11
-1945.819649037525
 21
-8181.33686257076
 31
0.0
  0
LINE
  5
354
330
1F
100
AcDbEntity
  8
固定棚
  6
Continuous
 62
    92
370
    13
100
AcDbLine
 10
1149.18035096248
 20
-8076.336862570759
 30
0.0
 11
-1945.819649037525
 21
-8076.336862570759
 31
0.0
  0
LINE
  5
355
330
1F
100
AcDbEntity
  8
0-A_文字
  6
Continuous
 62
     7
370
     9
100
AcDbLine
 10
-1073.408328117258
 20
-8131.649243359309
 30
0.0
 11
-898.3196490375228
 21
-7828.386755363088
 31
0.0
  0
LINE
  5
356
330
1F
100
AcDbEntity
  8
0-A_文字
  6
Continuous
 62
     7
370
     9
100
AcDbLine
 10
101.6803509624772
 20
-7828.386755363088
 30
0.0
 11
-898.3196490375228
 21
-7828.386755363088
 31
0.0
  0
LINE
  5
357
330
1F
100
AcDbEntity
  8
固定棚
  6
Continuous
 62
    40
370
    15
100
AcDbLine
 10
10574.18035117339
 20
-8076.336862570755
 30
0.0
 11
10574.18035117339
 21
-8181.33686257076
 31
0.0
  0
LINE
  5
358
330
1F
100
AcDbEntity
  8
固定棚
  6
Continuous
 62
    40
370
    15
100
AcDbLine
 10
9089.180350962479
 20
-8076.336862570755
 30
0.0
 11
10574.18035117339
 21
-8076.336862570755
 31
0.0
  0
LINE
  5
359
330
1F
100
AcDbEntity
  8
固定棚
  6
Continuous
 62
    40
370
    15
100
AcDbLine
 10
9089.180350962479
 20
-8181.33686257076
 30
0.0
 11
10574.18035117339
 21
-8181.33686257076
 31
0.0
  0
LINE
  5
35A
330
1F
100
AcDbEntity
  8
0-A_文字
  6
Continuous
 62
     7
370
     9
100
AcDbLine
 10
9240.804650465663
 20
-8131.649243359308
 30
0.0
 11
9415.893329545392
 21
-7828.386755363085
 31
0.0
  0
LINE
  5
35B
330
1F
100
AcDbEntity
  8
0-A_文字
  6
Continuous
 62
     7
370
     9
100
AcDbLine
 10
10415.89332954539
 20
-7828.386755363085
 30
0.0
 11
9415.893329545392
 21
-7828.386755363085
 31
0.0
  0
TEXT
  5
35C
330
1F
100
AcDbEntity
  8
F-A_文字
  6
Continuous
 62
     7
370
     0
100
AcDbText
 10
17690.49852634324
 20
-14614.6493186882
 30
0.0
 40
228.6
  1
,
 41
0.9999999999999998
  7
ＭＳ ゴシック
100
AcDbText
  0
TEXT
  5
35D
330
1F
100
AcDbEntity
  8
F-A_文字
  6
Continuous
 62
     7
370
     0
100
AcDbText
 10
16802.96956325425
 20
-14619.29606341628
 30
0.0
 40
228.6
  1
$y
 41
1.083333333333333
  7
ＭＳ ゴシック
100
AcDbText
  0
TEXT
  5
35E
330
1F
100
AcDbEntity
  8
F-A_文字
  6
Continuous
 62
     7
370
     0
100
AcDbText
 10
17318.75863338365
 20
-14619.29606341628
 30
0.0
 40
228.6
  1
$m
 41
1.083333333333333
  7
ＭＳ ゴシック
100
AcDbText
  0
TEXT
  5
35F
330
1F
100
AcDbEntity
  8
F-A_文字
  6
Continuous
 62
     7
370
     0
100
AcDbText
 10
17834.54774166001
 20
-14619.29606341628
 30
0.0
 40
228.6
  1
$d
 41
1.083333333333333
  7
ＭＳ ゴシック
100
AcDbText
  0
TEXT
  5
360
330
1F
100
AcDbEntity
  8
F-A_文字
  6
Continuous
 62
     7
370
     0
100
AcDbText
 10
18350.33684993638
 20
-14619.29606341628
 30
0.0
 40
228.6
  1
印刷
 41
1.083333333333333
  7
ＭＳ ゴシック
100
AcDbText
  0
TEXT
  5
361
330
1F
100
AcDbEntity
  8
F-A_文字
  6
Continuous
 62
     7
370
     0
100
AcDbText
 10
17160.76916957748
 20
-14623.94281768112
 30
0.0
 40
228.6
  1
,
 41
0.9999999999999998
  7
ＭＳ ゴシック
100
AcDbText
  0
TEXT
  5
362
330
1F
100
AcDbEntity
  8
F-A_文字
  6
Continuous
 62
     7
370
     0
100
AcDbText
 10
19084.52306056871
 20
-14610.00256919174
 30
0.0
 40
228.6
  1
）
 41
0.9999999999999998
  7
ＭＳ ゴシック
100
AcDbText
  0
TEXT
  5
363
330
1F
100
AcDbEntity
  8
F-A_文字
  6
Continuous
 62
     7
370
     0
100
AcDbText
 10
16336.62327104633
 20
-14623.94281768112
 30
0.0
 40
228.6
  1
（
 41
0.9999999999999998
  7
ＭＳ ゴシック
100
AcDbText
  0
LINE
  5
364
330
1F
100
AcDbEntity
  8
F-0_補助線
  6
JWW_HOJO
 62
     7
370
     9
100
AcDbLine
 10
3223.177315537322
 20
-12955.19839070662
 30
0.0
 11
3223.177315537322
 21
-14288.53174122327
 31
0.0
  0
LINE
  5
365
330
1F
100
AcDbEntity
  8
F-0_補助線
  6
JWW_HOJO
 62
     7
370
     9
100
AcDbLine
 10
1556.5117486032
 20
-12955.19839070662
 30
0.0
 11
1556.5117486032
 21
-14288.53174122327
 31
0.0
  0
LINE
  5
366
330
1F
100
AcDbEntity
  8
枠
  6
Continuous
 62
   200
370
    20
100
AcDbLine
 10
19389.84123287263
 20
-14321.86505565495
 30
0.0
 11
-19610.15381833093
 21
-14321.86505565495
 31
0.0
  0
LINE
  5
367
330
1F
100
AcDbEntity
  8
枠
  6
Continuous
 62
   200
370
    20
100
AcDbLine
 10
19389.84123287263
 20
-14305.19835977664
 30
0.0
 11
-19610.15381833093
 21
-14305.19835977664
 31
0.0
  0
LINE
  5
368
330
1F
100
AcDbEntity
  8
枠
  6
Continuous
 62
   200
370
    20
100
AcDbLine
 10
19389.84123287263
 20
-14288.53174122327
 30
0.0
 11
-19610.15381833093
 21
-14288.53174122327
 31
0.0
  0
LINE
  5
369
330
1F
100
AcDbEntity
  8
枠
  6
Continuous
 62
   200
370
    20
100
AcDbLine
 10
14356.50943916486
 20
-12955.19839070662
 30
0.0
 11
14356.50943916486
 21
-14288.53174122327
 31
0.0
  0
LINE
  5
36A
330
1F
100
AcDbEntity
  8
枠
  6
Continuous
 62
   200
370
    20
100
AcDbLine
 10
9356.50778956604
 20
-12955.19839070662
 30
0.0
 11
9356.50778956604
 21
-14288.53174122327
 31
0.0
  0
LINE
  5
36B
330
1F
100
AcDbEntity
  8
枠
  6
Continuous
 62
   200
370
    20
100
AcDbLine
 10
-110.1550555300349
 20
-12955.19839070662
 30
0.0
 11
-110.1550555300349
 21
-14288.53174122327
 31
0.0
  0
LINE
  5
36C
330
1F
100
AcDbEntity
  8
枠
  6
Continuous
 62
   200
370
    20
100
AcDbLine
 10
-110.1550555300349
 20
-13621.86483399011
 30
0.0
 11
19356.50861436545
 21
-13621.88292802714
 31
0.0
  0
LINE
  5
36D
330
1F
100
AcDbEntity
  8
F-0_補助線
  6
JWW_HOJO
 62
     7
370
     9
100
AcDbLine
 10
-19576.82127714869
 20
-13621.86483399126
 30
0.0
 11
-110.1550555300349
 21
-13621.86483399126
 31
0.0
  0
LINE
  5
36E
330
1F
100
AcDbEntity
  8
F-0_補助線
  6
JWW_HOJO
 62
     7
370
     9
100
AcDbLine
 10
-19576.82127714869
 20
-13321.86483399126
 30
0.0
 11
-110.1550555300349
 21
-13321.86483399126
 31
0.0
  0
LINE
  5
36F
330
1F
100
AcDbEntity
  8
F-0_補助線
  6
JWW_HOJO
 62
     7
370
     9
100
AcDbLine
 10
-19576.82127714869
 20
-13921.86483399126
 30
0.0
 11
-110.1550555300349
 21
-13921.86483399126
 31
0.0
  0
LINE
  5
370
330
1F
100
AcDbEntity
  8
F-0_補助線
  6
JWW_HOJO
 62
     7
370
     9
100
AcDbLine
 10
-110.1555047821279
 20
-14105.1975129899
 30
0.0
 11
19356.50816511335
 21
-14105.21560702693
 31
0.0
  0
LINE
  5
371
330
1F
100
AcDbEntity
  8
F-0_補助線
  6
JWW_HOJO
 62
     7
370
     9
100
AcDbLine
 10
-110.1552259356225
 20
-13805.19751299003
 30
0.0
 11
19356.50844395986
 21
-13805.21560702706
 31
0.0
  0
LINE
  5
372
330
1F
100
AcDbEntity
  8
F-0_補助線
  6
JWW_HOJO
 62
     7
370
     9
100
AcDbLine
 10
-110.1548851232224
 20
-13438.53083779019
 30
0.0
 11
19356.50878477226
 21
-13438.54893182722
 31
0.0
  0
LINE
  5
373
330
1F
100
AcDbEntity
  8
F-0_補助線
  6
JWW_HOJO
 62
     7
370
     9
100
AcDbLine
 10
-110.154606276717
 20
-13138.53083779032
 30
0.0
 11
19356.50906361876
 21
-13138.54893182735
 31
0.0
  0
LINE
  5
374
330
1F
100
AcDbEntity
  8
F-0_補助線
  6
JWW_HOJO
 62
     7
370
     9
100
AcDbLine
 10
9656.50778956604
 20
-12955.19839070662
 30
0.0
 11
9656.50778956604
 21
-14288.53174122327
 31
0.0
  0
LINE
  5
375
330
1F
100
AcDbEntity
  8
F-0_補助線
  6
JWW_HOJO
 62
     7
370
     9
100
AcDbLine
 10
189.8449444699651
 20
-12955.19839070662
 30
0.0
 11
189.8449444699651
 21
-14288.53174122327
 31
0.0
  0
LINE
  5
376
330
1F
100
AcDbEntity
  8
F-0_補助線
  6
JWW_HOJO
 62
     7
370
     9
100
AcDbLine
 10
14656.50943916486
 20
-12955.19839070662
 30
0.0
 11
14656.50943916486
 21
-14288.53174122327
 31
0.0
  0
TEXT
  5
377
330
1F
100
AcDbEntity
  8
F-A_文字
  6
Continuous
 62
     7
370
     0
100
AcDbText
 10
14656.50943916486
 20
-13210.34456323247
 30
0.0
 40
152.4
  1
ＤＡＴＥ
  7
ＭＳ ゴシック
100
AcDbText
  0
TEXT
  5
378
330
1F
100
AcDbEntity
  8
F-A_文字
  6
Continuous
 62
     7
370
     0
100
AcDbText
 10
14656.50943916486
 20
-13877.01123843275
 30
0.0
 40
152.4
  1
ＮＯ．
  7
ＭＳ ゴシック
100
AcDbText
  0
TEXT
  5
379
330
1F
100
AcDbEntity
  8
F-A_文字
  6
Continuous
 62
     7
370
     0
100
AcDbText
 10
9656.50778956604
 20
-13210.3399157892
 30
0.0
 40
152.4
  1
ＳＣＡＬＥ
 41
0.9999999999999999
  7
ＭＳ ゴシック
100
AcDbText
  0
TEXT
  5
37A
330
1F
100
AcDbEntity
  8
F-A_文字
  6
Continuous
 62
     7
370
     0
100
AcDbText
 10
9656.50778956604
 20
-13877.00659098949
 30
0.0
 40
152.4
  1
ＦＩＬＥ
  7
ＭＳ ゴシック
100
AcDbText
  0
TEXT
  5
37B
330
1F
100
AcDbEntity
  8
F-A_文字
  6
Continuous
 62
     7
370
     0
100
AcDbText
 10
189.8449444699651
 20
-13210.33111663641
 30
0.0
 40
152.4
  1
図面名
  7
ＭＳ ゴシック
100
AcDbText
  0
TEXT
  5
37C
330
1F
100
AcDbEntity
  8
F-A_文字
  6
Continuous
 62
     7
370
     0
100
AcDbText
 10
5206.507789566038
 20
-14098.80631214305
 30
0.0
 40
304.8
  1
ウッドワン・・・
 41
1.109375
  7
ＭＳ ゴシック
100
AcDbText
  0
TEXT
  5
37D
330
1F
100
AcDbEntity
  8
F-A_文字
  6
Continuous
 62
     7
370
     0
100
AcDbText
 10
4506.507789566038
 20
-13907.00061128378
 30
0.0
 40
152.4
  1
株式
  7
ＭＳ ゴシック
100
AcDbText
  0
TEXT
  5
37E
330
1F
100
AcDbEntity
  8
F-A_文字
  6
Continuous
 62
     7
370
     0
100
AcDbText
 10
4506.507789566038
 20
-14147.00061128391
 30
0.0
 40
152.4
  1
会社
  7
ＭＳ ゴシック
100
AcDbText
  0
LINE
  5
37F
330
1F
100
AcDbEntity
  8
枠
  6
Continuous
 62
   200
370
    20
100
AcDbLine
 10
19389.84123287263
 20
-12955.19839070662
 30
0.0
 11
-19610.15381833093
 21
-12955.19839070662
 31
0.0
  0
LINE
  5
380
330
1F
100
AcDbEntity
  8
枠
  6
Continuous
 62
   200
370
    20
100
AcDbLine
 10
19389.84123287263
 20
-12938.53177215325
 30
0.0
 11
-19610.15381833093
 21
-12938.53177215325
 31
0.0
  0
LINE
  5
381
330
1F
100
AcDbEntity
  8
F-0_補助線
  6
JWW_HOJO
 62
     7
370
     9
100
AcDbLine
 10
-17101.97923230646
 20
-12955.19839070662
 30
0.0
 11
-17101.97923230646
 21
-14321.86559692956
 31
0.0
  0
LINE
  5
382
330
1F
100
AcDbEntity
  8
F-0_補助線
  6
JWW_HOJO
 62
     7
370
     9
100
AcDbLine
 10
-310.1550555300349
 20
-12955.19839070662
 30
0.0
 11
-310.1550555300349
 21
-14288.53174122327
 31
0.0
  0
TEXT
  5
383
330
1F
100
AcDbEntity
  8
F-A_文字
  6
Continuous
 62
     7
370
     0
100
AcDbText
 10
11669.00861436545
 20
-13396.24210008771
 30
0.0
 40
228.6
  1
1/20
 41
1.125
  7
ＭＳ ゴシック
100
AcDbText
  0
TEXT
  5
384
330
1F
100
AcDbEntity
  8
F-A_文字
  6
Continuous
 62
     7
370
     0
100
AcDbText
 10
3223.177315537322
 20
-13396.23393608363
 30
0.0
 40
228.6
  1
e･ra･bo
 41
1.142857142857143
  7
ＭＳ ゴシック
100
AcDbText
  0
TEXT
  5
385
330
1F
100
AcDbEntity
  8
F-A_文字
  6
Continuous
 62
     7
370
     9
100
AcDbText
 10
16844.0088021391
 20
-14062.91342272991
 30
0.0
 40
228.6
  1
03
 41
1.083333333333333
  7
ＭＳ ゴシック
100
AcDbText
  0
TEXT
  5
386
330
1F
100
AcDbEntity
  8
F-A_文字
  6
Continuous
 62
     7
370
     0
100
AcDbText
 10
-17076.82127714869
 20
-13729.56483399126
 30
0.0
 40
228.6
  1
ｅ・ｒａ・ｂｏ　洗面所　モデルプラン３
 41
1.157894736842105
  7
ＭＳ ゴシック
100
AcDbText
  0
TEXT
  5
387
330
1F
100
AcDbEntity
  8
0-A_文字
  6
Continuous
 62
     7
370
     9
100
AcDbText
 10
-898.3196490375228
 20
-7786.08675536309
 30
0.0
 40
228.6
  1
可動棚
 41
1.111111111111111
  7
ＭＳ ゴシック
100
AcDbText
  0
TEXT
  5
388
330
1F
100
AcDbEntity
  8
0-A_文字
  6
Continuous
 62
     7
370
     9
100
AcDbText
 10
9415.893329545395
 20
-7786.086755363085
 30
0.0
 40
228.6
  1
可動棚
 41
1.111111111111111
  7
ＭＳ ゴシック
100
AcDbText
  0
LINE
  5
389
330
1F
100
AcDbEntity
  8
ハッチ
  6
Continuous
 62
   120
370
     5
100
AcDbLine
 10
-3.599877158257669
 20
-6101.336862570765
 30
0.0
 11
101.4001228417619
 21
-5996.336862570747
 31
0.0
  0
LINE
  5
38A
330
1F
100
AcDbEntity
  8
ハッチ
  6
Continuous
 62
   120
370
     5
100
AcDbLine
 10
-74.31055527691584
 20
-6101.33686257076
 30
0.0
 11
30.68944472304835
 21
-5996.336862570793
 31
0.0
  0
LINE
  5
38B
330
1F
100
AcDbEntity
  8
ハッチ
  6
Continuous
 62
   120
370
     5
100
AcDbLine
 10
-145.0212333955783
 20
-6101.336862570754
 30
0.0
 11
-40.02123339561123
 21
-5996.336862570787
 31
0.0
  0
LINE
  5
38C
330
1F
100
AcDbEntity
  8
ハッチ
  6
Continuous
 62
   120
370
     5
100
AcDbLine
 10
-215.7319115142379
 20
-6101.336862570747
 30
0.0
 11
-110.7319115142737
 21
-5996.336862570782
 31
0.0
  0
LINE
  5
38D
330
1F
100
AcDbEntity
  8
ハッチ
  6
Continuous
 62
   120
370
     5
100
AcDbLine
 10
-286.4425896328975
 20
-6101.33686257074
 30
0.0
 11
-181.4425896329332
 21
-5996.336862570776
 31
0.0
  0
LINE
  5
38E
330
1F
100
AcDbEntity
  8
ハッチ
  6
Continuous
 62
   120
370
     5
100
AcDbLine
 10
-357.1532677516125
 20
-6101.336862570788
 30
0.0
 11
-252.1532677515914
 21
-5996.336862570769
 31
0.0
  0
LINE
  5
38F
330
1F
100
AcDbEntity
  8
ハッチ
  6
Continuous
 62
   120
370
     5
100
AcDbLine
 10
-427.8639458700916
 20
-6101.336862570783
 30
0.0
 11
-322.8639458700719
 21
-5996.336862570763
 31
0.0
  0
LINE
  5
390
330
1F
100
AcDbEntity
  8
ハッチ
  6
Continuous
 62
   120
370
     5
100
AcDbLine
 10
-498.574623988754
 20
-6101.336862570778
 30
0.0
 11
-393.5746239887344
 21
-5996.336862570759
 31
0.0
  0
LINE
  5
391
330
1F
100
AcDbEntity
  8
ハッチ
  6
Continuous
 62
   120
370
     5
100
AcDbLine
 10
-569.2853021074164
 20
-6101.336862570775
 30
0.0
 11
-464.2853021073954
 21
-5996.336862570754
 31
0.0
  0
LINE
  5
392
330
1F
100
AcDbEntity
  8
ハッチ
  6
Continuous
 62
   120
370
     5
100
AcDbLine
 10
-639.9959802260788
 20
-6101.33686257077
 30
0.0
 11
-534.9959802260578
 21
-5996.336862570747
 31
0.0
  0
LINE
  5
393
330
1F
100
AcDbEntity
  8
ハッチ
  6
Continuous
 62
   120
370
     5
100
AcDbLine
 10
-710.7066583447413
 20
-6101.336862570765
 30
0.0
 11
-605.7066583447203
 21
-5996.336862570744
 31
0.0
  0
LINE
  5
394
330
1F
100
AcDbEntity
  8
ハッチ
  6
Continuous
 62
   120
370
     5
100
AcDbLine
 10
-781.4173364634023
 20
-6101.33686257076
 30
0.0
 11
-676.4173364633798
 21
-5996.336862570737
 31
0.0
  0
LINE
  5
395
330
1F
100
AcDbEntity
  8
ハッチ
  6
Continuous
 62
   120
370
     5
100
AcDbLine
 10
-852.1280145820633
 20
-6101.336862570754
 30
0.0
 11
-747.1280145820451
 21
-5996.336862570736
 31
0.0
  0
LINE
  5
396
330
1F
100
AcDbEntity
  8
ハッチ
  6
Continuous
 62
   120
370
     5
100
AcDbLine
 10
-922.8386927007499
 20
-6101.336862570774
 30
0.0
 11
-817.8386927007317
 21
-5996.336862570756
 31
0.0
  0
LINE
  5
397
330
1F
100
AcDbEntity
  8
ハッチ
  6
Continuous
 62
   120
370
     5
100
AcDbLine
 10
-993.5493708194081
 20
-6101.336862570765
 30
0.0
 11
-888.5493708193912
 21
-5996.336862570749
 31
0.0
  0
LINE
  5
398
330
1F
100
AcDbEntity
  8
ハッチ
  6
Continuous
 62
   120
370
     5
100
AcDbLine
 10
-1064.260048938069
 20
-6101.33686257076
 30
0.0
 11
-959.2600489380509
 21
-5996.336862570742
 31
0.0
  0
LINE
  5
399
330
1F
100
AcDbEntity
  8
ハッチ
  6
Continuous
 62
   120
370
     5
100
AcDbLine
 10
-1134.97072705673
 20
-6101.336862570754
 30
0.0
 11
-1029.970727056712
 21
-5996.336862570736
 31
0.0
  0
LINE
  5
39A
330
1F
100
AcDbEntity
  8
ハッチ
  6
Continuous
 62
   120
370
     5
100
AcDbLine
 10
-1205.68140517539
 20
-6101.336862570747
 30
0.0
 11
-1100.681405175424
 21
-5996.336862570782
 31
0.0
  0
LINE
  5
39B
330
1F
100
AcDbEntity
  8
ハッチ
  6
Continuous
 62
   120
370
     5
100
AcDbLine
 10
-1276.392083294052
 20
-6101.336862570743
 30
0.0
 11
-1171.392083294085
 21
-5996.336862570776
 31
0.0
  0
LINE
  5
39C
330
1F
100
AcDbEntity
  8
ハッチ
  6
Continuous
 62
   120
370
     5
100
AcDbLine
 10
-1347.102761412712
 20
-6101.336862570735
 30
0.0
 11
-1242.102761412746
 21
-5996.33686257077
 31
0.0
  0
LINE
  5
39D
330
1F
100
AcDbEntity
  8
ハッチ
  6
Continuous
 62
   120
370
     5
100
AcDbLine
 10
-1417.813439531425
 20
-6101.336862570783
 30
0.0
 11
-1312.813439531407
 21
-5996.336862570764
 31
0.0
  0
LINE
  5
39E
330
1F
100
AcDbEntity
  8
ハッチ
  6
Continuous
 62
   120
370
     5
100
AcDbLine
 10
-1488.524117649933
 20
-6101.336862570805
 30
0.0
 11
-1383.524117649909
 21
-5996.336862570782
 31
0.0
  0
LINE
  5
39F
330
1F
100
AcDbEntity
  8
ハッチ
  6
Continuous
 62
   120
370
     5
100
AcDbLine
 10
-1559.234795768592
 20
-6101.336862570798
 30
0.0
 11
-1454.23479576857
 21
-5996.336862570776
 31
0.0
  0
LINE
  5
3A0
330
1F
100
AcDbEntity
  8
ハッチ
  6
Continuous
 62
   120
370
     5
100
AcDbLine
 10
-1629.945473887255
 20
-6101.336862570794
 30
0.0
 11
-1524.945473887232
 21
-5996.336862570772
 31
0.0
  0
LINE
  5
3A1
330
1F
100
AcDbEntity
  8
ハッチ
  6
Continuous
 62
   120
370
     5
100
AcDbLine
 10
-1700.656152005916
 20
-6101.336862570788
 30
0.0
 11
-1595.656152005895
 21
-5996.336862570767
 31
0.0
  0
LINE
  5
3A2
330
1F
100
AcDbEntity
  8
ハッチ
  6
Continuous
 62
   120
370
     5
100
AcDbLine
 10
-1771.36683012458
 20
-6101.336862570785
 30
0.0
 11
-1666.366830124557
 21
-5996.336862570763
 31
0.0
  0
LINE
  5
3A3
330
1F
100
AcDbEntity
  8
ハッチ
  6
Continuous
 62
   120
370
     5
100
AcDbLine
 10
-1842.077508243239
 20
-6101.336862570778
 30
0.0
 11
-1737.07750824322
 21
-5996.336862570759
 31
0.0
  0
LINE
  5
3A4
330
1F
100
AcDbEntity
  8
ハッチ
  6
Continuous
 62
   120
370
     5
100
AcDbLine
 10
-1912.788186361903
 20
-6101.336862570775
 30
0.0
 11
-1807.788186361881
 21
-5996.336862570754
 31
0.0
  0
LINE
  5
3A5
330
1F
100
AcDbEntity
  8
ハッチ
  6
Continuous
 62
   120
370
     5
100
AcDbLine
 10
-1945.819649037536
 20
-6063.657647127742
 30
0.0
 11
-1878.498864480542
 21
-5996.336862570747
 31
0.0
  0
LINE
  5
3A6
330
1F
100
AcDbEntity
  8
ハッチ
  6
Continuous
 62
   120
370
     5
100
AcDbLine
 10
844.9282602655479
 20
-6101.336862570765
 30
0.0
 11
949.9282602655676
 21
-5996.336862570747
 31
0.0
  0
LINE
  5
3A7
330
1F
100
AcDbEntity
  8
ハッチ
  6
Continuous
 62
   120
370
     5
100
AcDbLine
 10
774.2175821468898
 20
-6101.33686257076
 30
0.0
 11
879.2175821468539
 21
-5996.336862570793
 31
0.0
  0
LINE
  5
3A8
330
1F
100
AcDbEntity
  8
ハッチ
  6
Continuous
 62
   120
370
     5
100
AcDbLine
 10
703.5069040282274
 20
-6101.336862570754
 30
0.0
 11
808.5069040281944
 21
-5996.336862570787
 31
0.0
  0
LINE
  5
3A9
330
1F
100
AcDbEntity
  8
ハッチ
  6
Continuous
 62
   120
370
     5
100
AcDbLine
 10
632.7962259095677
 20
-6101.336862570747
 30
0.0
 11
737.7962259095319
 21
-5996.336862570782
 31
0.0
  0
LINE
  5
3AA
330
1F
100
AcDbEntity
  8
ハッチ
  6
Continuous
 62
   120
370
     5
100
AcDbLine
 10
562.0855477909082
 20
-6101.33686257074
 30
0.0
 11
667.0855477908724
 21
-5996.336862570776
 31
0.0
  0
LINE
  5
3AB
330
1F
100
AcDbEntity
  8
ハッチ
  6
Continuous
 62
   120
370
     5
100
AcDbLine
 10
491.3748696721932
 20
-6101.336862570788
 30
0.0
 11
596.3748696722142
 21
-5996.336862570769
 31
0.0
  0
LINE
  5
3AC
330
1F
100
AcDbEntity
  8
ハッチ
  6
Continuous
 62
   120
370
     5
100
AcDbLine
 10
420.6641915537141
 20
-6101.336862570783
 30
0.0
 11
525.6641915537336
 21
-5996.336862570763
 31
0.0
  0
LINE
  5
3AD
330
1F
100
AcDbEntity
  8
ハッチ
  6
Continuous
 62
   120
370
     5
100
AcDbLine
 10
349.9535134350516
 20
-6101.336862570778
 30
0.0
 11
454.9535134350713
 21
-5996.336862570759
 31
0.0
  0
LINE
  5
3AE
330
1F
100
AcDbEntity
  8
ハッチ
  6
Continuous
 62
   120
370
     5
100
AcDbLine
 10
279.2428353163892
 20
-6101.336862570775
 30
0.0
 11
384.2428353164103
 21
-5996.336862570754
 31
0.0
  0
LINE
  5
3AF
330
1F
100
AcDbEntity
  8
ハッチ
  6
Continuous
 62
   120
370
     5
100
AcDbLine
 10
208.5321571977268
 20
-6101.33686257077
 30
0.0
 11
313.5321571977478
 21
-5996.336862570747
 31
0.0
  0
LINE
  5
3B0
330
1F
100
AcDbEntity
  8
ハッチ
  6
Continuous
 62
   120
370
     5
100
AcDbLine
 10
137.8214790790643
 20
-6101.336862570765
 30
0.0
 11
242.8214790790854
 21
-5996.336862570744
 31
0.0
  0
LINE
  5
3B1
330
1F
100
AcDbEntity
  8
ハッチ
  6
Continuous
 62
   120
370
     5
100
AcDbLine
 10
67.11080096040334
 20
-6101.33686257076
 30
0.0
 11
172.1108009604258
 21
-5996.336862570737
 31
0.0
  0
LINE
  5
3B2
330
1F
100
AcDbEntity
  8
ハッチ
  6
Continuous
 62
   120
370
     5
100
AcDbLine
 10
986.3496165028699
 20
-6101.336862570765
 30
0.0
 11
1091.349616502891
 21
-5996.336862570744
 31
0.0
  0
LINE
  5
3B3
330
1F
100
AcDbEntity
  8
ハッチ
  6
Continuous
 62
   120
370
     5
100
AcDbLine
 10
915.6389383842089
 20
-6101.33686257076
 30
0.0
 11
1020.638938384231
 21
-5996.336862570737
 31
0.0
  0
LINE
  5
3B4
330
1F
100
AcDbEntity
  8
ハッチ
  6
Continuous
 62
   120
370
     5
100
AcDbLine
 10
1057.060294621532
 20
-6101.33686257077
 30
0.0
 11
1149.18035096248
 21
-6009.216806229821
 31
0.0
  0
LINE
  5
3B5
330
1F
100
AcDbEntity
  8
ハッチ
  6
Continuous
 62
   120
370
     5
100
AcDbLine
 10
1127.770972740195
 20
-6101.336862570775
 30
0.0
 11
1149.18035096248
 21
-6079.927484348489
 31
0.0
  0
LINE
  5
3B6
330
1F
100
AcDbEntity
  8
ハッチ
  6
Continuous
 62
   120
370
     5
100
AcDbLine
 10
-3.599877158257669
 20
-1141.336862570813
 30
0.0
 11
101.4001228417619
 21
-1036.336862570795
 31
0.0
  0
LINE
  5
3B7
330
1F
100
AcDbEntity
  8
ハッチ
  6
Continuous
 62
   120
370
     5
100
AcDbLine
 10
-74.31055527691584
 20
-1141.336862570807
 30
0.0
 11
30.68944472304835
 21
-1036.33686257084
 31
0.0
  0
LINE
  5
3B8
330
1F
100
AcDbEntity
  8
ハッチ
  6
Continuous
 62
   120
370
     5
100
AcDbLine
 10
-145.0212333955783
 20
-1141.336862570802
 30
0.0
 11
-40.02123339561123
 21
-1036.336862570835
 31
0.0
  0
LINE
  5
3B9
330
1F
100
AcDbEntity
  8
ハッチ
  6
Continuous
 62
   120
370
     5
100
AcDbLine
 10
-215.7319115142379
 20
-1141.336862570795
 30
0.0
 11
-110.7319115142737
 21
-1036.336862570829
 31
0.0
  0
LINE
  5
3BA
330
1F
100
AcDbEntity
  8
ハッチ
  6
Continuous
 62
   120
370
     5
100
AcDbLine
 10
-286.4425896328975
 20
-1141.336862570788
 30
0.0
 11
-181.4425896329332
 21
-1036.336862570823
 31
0.0
  0
LINE
  5
3BB
330
1F
100
AcDbEntity
  8
ハッチ
  6
Continuous
 62
   120
370
     5
100
AcDbLine
 10
-357.1532677516125
 20
-1141.336862570836
 30
0.0
 11
-252.1532677515914
 21
-1036.336862570816
 31
0.0
  0
LINE
  5
3BC
330
1F
100
AcDbEntity
  8
ハッチ
  6
Continuous
 62
   120
370
     5
100
AcDbLine
 10
-427.8639458700916
 20
-1141.33686257083
 30
0.0
 11
-322.8639458700719
 21
-1036.336862570811
 31
0.0
  0
LINE
  5
3BD
330
1F
100
AcDbEntity
  8
ハッチ
  6
Continuous
 62
   120
370
     5
100
AcDbLine
 10
-498.574623988754
 20
-1141.336862570826
 30
0.0
 11
-393.5746239887344
 21
-1036.336862570806
 31
0.0
  0
LINE
  5
3BE
330
1F
100
AcDbEntity
  8
ハッチ
  6
Continuous
 62
   120
370
     5
100
AcDbLine
 10
-569.2853021074164
 20
-1141.336862570823
 30
0.0
 11
-464.2853021073954
 21
-1036.336862570801
 31
0.0
  0
LINE
  5
3BF
330
1F
100
AcDbEntity
  8
ハッチ
  6
Continuous
 62
   120
370
     5
100
AcDbLine
 10
-639.9959802260788
 20
-1141.336862570817
 30
0.0
 11
-534.9959802260578
 21
-1036.336862570795
 31
0.0
  0
LINE
  5
3C0
330
1F
100
AcDbEntity
  8
ハッチ
  6
Continuous
 62
   120
370
     5
100
AcDbLine
 10
-710.7066583447413
 20
-1141.336862570813
 30
0.0
 11
-605.7066583447203
 21
-1036.336862570792
 31
0.0
  0
LINE
  5
3C1
330
1F
100
AcDbEntity
  8
ハッチ
  6
Continuous
 62
   120
370
     5
100
AcDbLine
 10
-781.4173364634023
 20
-1141.336862570807
 30
0.0
 11
-676.4173364633798
 21
-1036.336862570785
 31
0.0
  0
LINE
  5
3C2
330
1F
100
AcDbEntity
  8
ハッチ
  6
Continuous
 62
   120
370
     5
100
AcDbLine
 10
-852.1280145820633
 20
-1141.336862570802
 30
0.0
 11
-747.1280145820451
 21
-1036.336862570784
 31
0.0
  0
LINE
  5
3C3
330
1F
100
AcDbEntity
  8
ハッチ
  6
Continuous
 62
   120
370
     5
100
AcDbLine
 10
-922.8386927007499
 20
-1141.336862570822
 30
0.0
 11
-817.8386927007317
 21
-1036.336862570804
 31
0.0
  0
LINE
  5
3C4
330
1F
100
AcDbEntity
  8
ハッチ
  6
Continuous
 62
   120
370
     5
100
AcDbLine
 10
-993.5493708194081
 20
-1141.336862570813
 30
0.0
 11
-888.5493708193912
 21
-1036.336862570796
 31
0.0
  0
LINE
  5
3C5
330
1F
100
AcDbEntity
  8
ハッチ
  6
Continuous
 62
   120
370
     5
100
AcDbLine
 10
-1064.260048938069
 20
-1141.336862570807
 30
0.0
 11
-959.2600489380509
 21
-1036.336862570789
 31
0.0
  0
LINE
  5
3C6
330
1F
100
AcDbEntity
  8
ハッチ
  6
Continuous
 62
   120
370
     5
100
AcDbLine
 10
-1134.97072705673
 20
-1141.336862570802
 30
0.0
 11
-1029.970727056712
 21
-1036.336862570784
 31
0.0
  0
LINE
  5
3C7
330
1F
100
AcDbEntity
  8
ハッチ
  6
Continuous
 62
   120
370
     5
100
AcDbLine
 10
-1205.68140517539
 20
-1141.336862570795
 30
0.0
 11
-1100.681405175424
 21
-1036.336862570829
 31
0.0
  0
LINE
  5
3C8
330
1F
100
AcDbEntity
  8
ハッチ
  6
Continuous
 62
   120
370
     5
100
AcDbLine
 10
-1276.392083294052
 20
-1141.33686257079
 30
0.0
 11
-1171.392083294085
 21
-1036.336862570823
 31
0.0
  0
LINE
  5
3C9
330
1F
100
AcDbEntity
  8
ハッチ
  6
Continuous
 62
   120
370
     5
100
AcDbLine
 10
-1347.102761412712
 20
-1141.336862570783
 30
0.0
 11
-1242.102761412746
 21
-1036.336862570818
 31
0.0
  0
LINE
  5
3CA
330
1F
100
AcDbEntity
  8
ハッチ
  6
Continuous
 62
   120
370
     5
100
AcDbLine
 10
-1417.813439531425
 20
-1141.33686257083
 30
0.0
 11
-1312.813439531407
 21
-1036.336862570812
 31
0.0
  0
LINE
  5
3CB
330
1F
100
AcDbEntity
  8
ハッチ
  6
Continuous
 62
   120
370
     5
100
AcDbLine
 10
-1488.524117649933
 20
-1141.336862570853
 30
0.0
 11
-1383.524117649909
 21
-1036.336862570829
 31
0.0
  0
LINE
  5
3CC
330
1F
100
AcDbEntity
  8
ハッチ
  6
Continuous
 62
   120
370
     5
100
AcDbLine
 10
-1559.234795768592
 20
-1141.336862570846
 30
0.0
 11
-1454.23479576857
 21
-1036.336862570823
 31
0.0
  0
LINE
  5
3CD
330
1F
100
AcDbEntity
  8
ハッチ
  6
Continuous
 62
   120
370
     5
100
AcDbLine
 10
-1629.945473887255
 20
-1141.336862570842
 30
0.0
 11
-1524.945473887232
 21
-1036.336862570819
 31
0.0
  0
LINE
  5
3CE
330
1F
100
AcDbEntity
  8
ハッチ
  6
Continuous
 62
   120
370
     5
100
AcDbLine
 10
-1700.656152005916
 20
-1141.336862570836
 30
0.0
 11
-1595.656152005895
 21
-1036.336862570815
 31
0.0
  0
LINE
  5
3CF
330
1F
100
AcDbEntity
  8
ハッチ
  6
Continuous
 62
   120
370
     5
100
AcDbLine
 10
-1771.36683012458
 20
-1141.336862570833
 30
0.0
 11
-1666.366830124557
 21
-1036.336862570811
 31
0.0
  0
LINE
  5
3D0
330
1F
100
AcDbEntity
  8
ハッチ
  6
Continuous
 62
   120
370
     5
100
AcDbLine
 10
-1842.077508243239
 20
-1141.336862570826
 30
0.0
 11
-1737.07750824322
 21
-1036.336862570806
 31
0.0
  0
LINE
  5
3D1
330
1F
100
AcDbEntity
  8
ハッチ
  6
Continuous
 62
   120
370
     5
100
AcDbLine
 10
-1912.788186361903
 20
-1141.336862570823
 30
0.0
 11
-1807.788186361881
 21
-1036.336862570801
 31
0.0
  0
LINE
  5
3D2
330
1F
100
AcDbEntity
  8
ハッチ
  6
Continuous
 62
   120
370
     5
100
AcDbLine
 10
-1945.819649037536
 20
-1103.65764712779
 30
0.0
 11
-1878.498864480542
 21
-1036.336862570795
 31
0.0
  0
LINE
  5
3D3
330
1F
100
AcDbEntity
  8
ハッチ
  6
Continuous
 62
   120
370
     5
100
AcDbLine
 10
844.9282602655479
 20
-1141.336862570813
 30
0.0
 11
949.9282602655676
 21
-1036.336862570795
 31
0.0
  0
LINE
  5
3D4
330
1F
100
AcDbEntity
  8
ハッチ
  6
Continuous
 62
   120
370
     5
100
AcDbLine
 10
774.2175821468898
 20
-1141.336862570807
 30
0.0
 11
879.2175821468539
 21
-1036.33686257084
 31
0.0
  0
LINE
  5
3D5
330
1F
100
AcDbEntity
  8
ハッチ
  6
Continuous
 62
   120
370
     5
100
AcDbLine
 10
703.5069040282274
 20
-1141.336862570802
 30
0.0
 11
808.5069040281944
 21
-1036.336862570835
 31
0.0
  0
LINE
  5
3D6
330
1F
100
AcDbEntity
  8
ハッチ
  6
Continuous
 62
   120
370
     5
100
AcDbLine
 10
632.7962259095677
 20
-1141.336862570795
 30
0.0
 11
737.7962259095319
 21
-1036.336862570829
 31
0.0
  0
LINE
  5
3D7
330
1F
100
AcDbEntity
  8
ハッチ
  6
Continuous
 62
   120
370
     5
100
AcDbLine
 10
562.0855477909082
 20
-1141.336862570788
 30
0.0
 11
667.0855477908724
 21
-1036.336862570823
 31
0.0
  0
LINE
  5
3D8
330
1F
100
AcDbEntity
  8
ハッチ
  6
Continuous
 62
   120
370
     5
100
AcDbLine
 10
491.3748696721932
 20
-1141.336862570836
 30
0.0
 11
596.3748696722142
 21
-1036.336862570816
 31
0.0
  0
LINE
  5
3D9
330
1F
100
AcDbEntity
  8
ハッチ
  6
Continuous
 62
   120
370
     5
100
AcDbLine
 10
420.6641915537141
 20
-1141.33686257083
 30
0.0
 11
525.6641915537336
 21
-1036.336862570811
 31
0.0
  0
LINE
  5
3DA
330
1F
100
AcDbEntity
  8
ハッチ
  6
Continuous
 62
   120
370
     5
100
AcDbLine
 10
349.9535134350516
 20
-1141.336862570826
 30
0.0
 11
454.9535134350713
 21
-1036.336862570806
 31
0.0
  0
LINE
  5
3DB
330
1F
100
AcDbEntity
  8
ハッチ
  6
Continuous
 62
   120
370
     5
100
AcDbLine
 10
279.2428353163892
 20
-1141.336862570823
 30
0.0
 11
384.2428353164103
 21
-1036.336862570801
 31
0.0
  0
LINE
  5
3DC
330
1F
100
AcDbEntity
  8
ハッチ
  6
Continuous
 62
   120
370
     5
100
AcDbLine
 10
208.5321571977268
 20
-1141.336862570817
 30
0.0
 11
313.5321571977478
 21
-1036.336862570795
 31
0.0
  0
LINE
  5
3DD
330
1F
100
AcDbEntity
  8
ハッチ
  6
Continuous
 62
   120
370
     5
100
AcDbLine
 10
137.8214790790643
 20
-1141.336862570813
 30
0.0
 11
242.8214790790854
 21
-1036.336862570792
 31
0.0
  0
LINE
  5
3DE
330
1F
100
AcDbEntity
  8
ハッチ
  6
Continuous
 62
   120
370
     5
100
AcDbLine
 10
67.11080096040334
 20
-1141.336862570807
 30
0.0
 11
172.1108009604258
 21
-1036.336862570785
 31
0.0
  0
LINE
  5
3DF
330
1F
100
AcDbEntity
  8
ハッチ
  6
Continuous
 62
   120
370
     5
100
AcDbLine
 10
986.3496165028699
 20
-1141.336862570813
 30
0.0
 11
1091.349616502891
 21
-1036.336862570792
 31
0.0
  0
LINE
  5
3E0
330
1F
100
AcDbEntity
  8
ハッチ
  6
Continuous
 62
   120
370
     5
100
AcDbLine
 10
915.6389383842089
 20
-1141.336862570807
 30
0.0
 11
1020.638938384231
 21
-1036.336862570785
 31
0.0
  0
LINE
  5
3E1
330
1F
100
AcDbEntity
  8
ハッチ
  6
Continuous
 62
   120
370
     5
100
AcDbLine
 10
1057.060294621532
 20
-1141.336862570817
 30
0.0
 11
1149.18035096248
 21
-1049.216806229868
 31
0.0
  0
LINE
  5
3E2
330
1F
100
AcDbEntity
  8
ハッチ
  6
Continuous
 62
   120
370
     5
100
AcDbLine
 10
1127.770972740195
 20
-1141.336862570823
 30
0.0
 11
1149.18035096248
 21
-1119.927484348537
 31
0.0
  0
LINE
  5
3E3
330
1F
100
AcDbEntity
  8
ハッチ
  6
Continuous
 62
   120
370
     5
100
AcDbLine
 10
10503.84223924935
 20
-6101.336862570734
 30
0.0
 11
10574.18035096246
 21
-6030.998750857627
 31
0.0
  0
LINE
  5
3E4
330
1F
100
AcDbEntity
  8
ハッチ
  6
Continuous
 62
   120
370
     5
100
AcDbLine
 10
10433.13156113069
 20
-6101.336862570729
 30
0.0
 11
10538.13156113065
 21
-5996.336862570762
 31
0.0
  0
LINE
  5
3E5
330
1F
100
AcDbEntity
  8
ハッチ
  6
Continuous
 62
   120
370
     5
100
AcDbLine
 10
10362.42088301203
 20
-6101.336862570723
 30
0.0
 11
10467.420883012
 21
-5996.336862570756
 31
0.0
  0
LINE
  5
3E6
330
1F
100
AcDbEntity
  8
ハッチ
  6
Continuous
 62
   120
370
     5
100
AcDbLine
 10
10291.71020489331
 20
-6101.336862570772
 30
0.0
 11
10396.71020489333
 21
-5996.33686257075
 31
0.0
  0
LINE
  5
3E7
330
1F
100
AcDbEntity
  8
ハッチ
  6
Continuous
 62
   120
370
     5
100
AcDbLine
 10
10220.9995267748
 20
-6101.336862570797
 30
0.0
 11
10325.99952677482
 21
-5996.336862570779
 31
0.0
  0
LINE
  5
3E8
330
1F
100
AcDbEntity
  8
ハッチ
  6
Continuous
 62
   120
370
     5
100
AcDbLine
 10
10150.28884865614
 20
-6101.33686257079
 30
0.0
 11
10255.28884865616
 21
-5996.336862570773
 31
0.0
  0
LINE
  5
3E9
330
1F
100
AcDbEntity
  8
ハッチ
  6
Continuous
 62
   120
370
     5
100
AcDbLine
 10
10079.57817053748
 20
-6101.336862570783
 30
0.0
 11
10184.5781705375
 21
-5996.336862570766
 31
0.0
  0
LINE
  5
3EA
330
1F
100
AcDbEntity
  8
ハッチ
  6
Continuous
 62
   120
370
     5
100
AcDbLine
 10
10008.86749241882
 20
-6101.336862570774
 30
0.0
 11
10113.86749241884
 21
-5996.336862570756
 31
0.0
  0
LINE
  5
3EB
330
1F
100
AcDbEntity
  8
ハッチ
  6
Continuous
 62
   120
370
     5
100
AcDbLine
 10
9938.15681430016
 20
-6101.336862570768
 30
0.0
 11
10043.15681430018
 21
-5996.336862570754
 31
0.0
  0
LINE
  5
3EC
330
1F
100
AcDbEntity
  8
ハッチ
  6
Continuous
 62
   120
370
     5
100
AcDbLine
 10
9867.446136181501
 20
-6101.336862570763
 30
0.0
 11
9972.44613618152
 21
-5996.336862570744
 31
0.0
  0
LINE
  5
3ED
330
1F
100
AcDbEntity
  8
ハッチ
  6
Continuous
 62
   120
370
     5
100
AcDbLine
 10
9796.735458062843
 20
-6101.336862570757
 30
0.0
 11
9901.735458062862
 21
-5996.336862570739
 31
0.0
  0
LINE
  5
3EE
330
1F
100
AcDbEntity
  8
ハッチ
  6
Continuous
 62
   120
370
     5
100
AcDbLine
 10
9726.024779944182
 20
-6101.336862570752
 30
0.0
 11
9831.0247799442
 21
-5996.336862570734
 31
0.0
  0
LINE
  5
3EF
330
1F
100
AcDbEntity
  8
ハッチ
  6
Continuous
 62
   120
370
     5
100
AcDbLine
 10
9655.31410182552
 20
-6101.33686257074
 30
0.0
 11
9760.314101825537
 21
-5996.336862570726
 31
0.0
  0
LINE
  5
3F0
330
1F
100
AcDbEntity
  8
ハッチ
  6
Continuous
 62
   120
370
     5
100
AcDbLine
 10
9584.603423706863
 20
-6101.336862570737
 30
0.0
 11
9689.603423706876
 21
-5996.336862570719
 31
0.0
  0
LINE
  5
3F1
330
1F
100
AcDbEntity
  8
ハッチ
  6
Continuous
 62
   120
370
     5
100
AcDbLine
 10
9513.8927455882
 20
-6101.336862570729
 30
0.0
 11
9618.892745588219
 21
-5996.336862570711
 31
0.0
  0
LINE
  5
3F2
330
1F
100
AcDbEntity
  8
ハッチ
  6
Continuous
 62
   120
370
     5
100
AcDbLine
 10
9443.182067469521
 20
-6101.336862570752
 30
0.0
 11
9548.182067469485
 21
-5996.336862570783
 31
0.0
  0
LINE
  5
3F3
330
1F
100
AcDbEntity
  8
ハッチ
  6
Continuous
 62
   120
370
     5
100
AcDbLine
 10
9372.471389350854
 20
-6101.336862570745
 30
0.0
 11
9477.471389350827
 21
-5996.336862570779
 31
0.0
  0
LINE
  5
3F4
330
1F
100
AcDbEntity
  8
ハッチ
  6
Continuous
 62
   120
370
     5
100
AcDbLine
 10
9301.760711232193
 20
-6101.33686257074
 30
0.0
 11
9406.76071123216
 21
-5996.336862570773
 31
0.0
  0
LINE
  5
3F5
330
1F
100
AcDbEntity
  8
ハッチ
  6
Continuous
 62
   120
370
     5
100
AcDbLine
 10
9231.050033113477
 20
-6101.336862570785
 30
0.0
 11
9336.050033113499
 21
-5996.336862570767
 31
0.0
  0
LINE
  5
3F6
330
1F
100
AcDbEntity
  8
ハッチ
  6
Continuous
 62
   120
370
     5
100
AcDbLine
 10
9160.339354994814
 20
-6101.336862570783
 30
0.0
 11
9265.339354994838
 21
-5996.336862570762
 31
0.0
  0
LINE
  5
3F7
330
1F
100
AcDbEntity
  8
ハッチ
  6
Continuous
 62
   120
370
     5
100
AcDbLine
 10
9089.628676876335
 20
-6101.336862570783
 30
0.0
 11
9194.628676876353
 21
-5996.336862570764
 31
0.0
  0
LINE
  5
3F8
330
1F
100
AcDbEntity
  8
ハッチ
  6
Continuous
 62
   120
370
     5
100
AcDbLine
 10
10503.84223924935
 20
-1141.336862570782
 30
0.0
 11
10574.18035096246
 21
-1070.998750857675
 31
0.0
  0
LINE
  5
3F9
330
1F
100
AcDbEntity
  8
ハッチ
  6
Continuous
 62
   120
370
     5
100
AcDbLine
 10
10433.13156113069
 20
-1141.336862570776
 30
0.0
 11
10538.13156113065
 21
-1036.336862570809
 31
0.0
  0
LINE
  5
3FA
330
1F
100
AcDbEntity
  8
ハッチ
  6
Continuous
 62
   120
370
     5
100
AcDbLine
 10
10362.42088301203
 20
-1141.33686257077
 30
0.0
 11
10467.420883012
 21
-1036.336862570804
 31
0.0
  0
LINE
  5
3FB
330
1F
100
AcDbEntity
  8
ハッチ
  6
Continuous
 62
   120
370
     5
100
AcDbLine
 10
10291.71020489331
 20
-1141.336862570819
 30
0.0
 11
10396.71020489333
 21
-1036.336862570798
 31
0.0
  0
LINE
  5
3FC
330
1F
100
AcDbEntity
  8
ハッチ
  6
Continuous
 62
   120
370
     5
100
AcDbLine
 10
10220.9995267748
 20
-1141.336862570844
 30
0.0
 11
10325.99952677482
 21
-1036.336862570826
 31
0.0
  0
LINE
  5
3FD
330
1F
100
AcDbEntity
  8
ハッチ
  6
Continuous
 62
   120
370
     5
100
AcDbLine
 10
10150.28884865614
 20
-1141.336862570837
 30
0.0
 11
10255.28884865616
 21
-1036.33686257082
 31
0.0
  0
LINE
  5
3FE
330
1F
100
AcDbEntity
  8
ハッチ
  6
Continuous
 62
   120
370
     5
100
AcDbLine
 10
10079.57817053748
 20
-1141.33686257083
 30
0.0
 11
10184.5781705375
 21
-1036.336862570813
 31
0.0
  0
LINE
  5
3FF
330
1F
100
AcDbEntity
  8
ハッチ
  6
Continuous
 62
   120
370
     5
100
AcDbLine
 10
10008.86749241882
 20
-1141.336862570822
 30
0.0
 11
10113.86749241884
 21
-1036.336862570804
 31
0.0
  0
LINE
  5
400
330
1F
100
AcDbEntity
  8
ハッチ
  6
Continuous
 62
   120
370
     5
100
AcDbLine
 10
9938.15681430016
 20
-1141.336862570816
 30
0.0
 11
10043.15681430018
 21
-1036.336862570801
 31
0.0
  0
LINE
  5
401
330
1F
100
AcDbEntity
  8
ハッチ
  6
Continuous
 62
   120
370
     5
100
AcDbLine
 10
9867.446136181501
 20
-1141.33686257081
 30
0.0
 11
9972.44613618152
 21
-1036.336862570792
 31
0.0
  0
LINE
  5
402
330
1F
100
AcDbEntity
  8
ハッチ
  6
Continuous
 62
   120
370
     5
100
AcDbLine
 10
9796.735458062843
 20
-1141.336862570804
 30
0.0
 11
9901.735458062862
 21
-1036.336862570786
 31
0.0
  0
LINE
  5
403
330
1F
100
AcDbEntity
  8
ハッチ
  6
Continuous
 62
   120
370
     5
100
AcDbLine
 10
9726.024779944182
 20
-1141.336862570799
 30
0.0
 11
9831.0247799442
 21
-1036.336862570781
 31
0.0
  0
LINE
  5
404
330
1F
100
AcDbEntity
  8
ハッチ
  6
Continuous
 62
   120
370
     5
100
AcDbLine
 10
9655.31410182552
 20
-1141.336862570788
 30
0.0
 11
9760.314101825537
 21
-1036.336862570774
 31
0.0
  0
LINE
  5
405
330
1F
100
AcDbEntity
  8
ハッチ
  6
Continuous
 62
   120
370
     5
100
AcDbLine
 10
9584.603423706863
 20
-1141.336862570785
 30
0.0
 11
9689.603423706876
 21
-1036.336862570766
 31
0.0
  0
LINE
  5
406
330
1F
100
AcDbEntity
  8
ハッチ
  6
Continuous
 62
   120
370
     5
100
AcDbLine
 10
9513.8927455882
 20
-1141.336862570776
 30
0.0
 11
9618.892745588219
 21
-1036.336862570758
 31
0.0
  0
LINE
  5
407
330
1F
100
AcDbEntity
  8
ハッチ
  6
Continuous
 62
   120
370
     5
100
AcDbLine
 10
9443.182067469521
 20
-1141.336862570799
 30
0.0
 11
9548.182067469485
 21
-1036.33686257083
 31
0.0
  0
LINE
  5
408
330
1F
100
AcDbEntity
  8
ハッチ
  6
Continuous
 62
   120
370
     5
100
AcDbLine
 10
9372.471389350854
 20
-1141.336862570793
 30
0.0
 11
9477.471389350827
 21
-1036.336862570826
 31
0.0
  0
LINE
  5
409
330
1F
100
AcDbEntity
  8
ハッチ
  6
Continuous
 62
   120
370
     5
100
AcDbLine
 10
9301.760711232193
 20
-1141.336862570788
 30
0.0
 11
9406.76071123216
 21
-1036.33686257082
 31
0.0
  0
LINE
  5
40A
330
1F
100
AcDbEntity
  8
ハッチ
  6
Continuous
 62
   120
370
     5
100
AcDbLine
 10
9231.050033113477
 20
-1141.336862570833
 30
0.0
 11
9336.050033113499
 21
-1036.336862570815
 31
0.0
  0
LINE
  5
40B
330
1F
100
AcDbEntity
  8
ハッチ
  6
Continuous
 62
   120
370
     5
100
AcDbLine
 10
9160.339354994814
 20
-1141.33686257083
 30
0.0
 11
9265.339354994838
 21
-1036.336862570809
 31
0.0
  0
LINE
  5
40C
330
1F
100
AcDbEntity
  8
ハッチ
  6
Continuous
 62
   120
370
     5
100
AcDbLine
 10
9089.628676876335
 20
-1141.33686257083
 30
0.0
 11
9194.628676876353
 21
-1036.336862570812
 31
0.0
  0
LINE
  5
40D
330
1F
100
AcDbEntity
  8
ハッチ
  6
Continuous
 62
   120
370
     5
100
AcDbLine
 10
9089.180350962479
 20
-6031.074510365966
 30
0.0
 11
9123.917998757688
 21
-5996.336862570756
 31
0.0
  0
LINE
  5
40E
330
1F
100
AcDbEntity
  8
ハッチ
  6
Continuous
 62
   120
370
     5
100
AcDbLine
 10
9089.180350962479
 20
-1071.074510366013
 30
0.0
 11
9123.917998757688
 21
-1036.336862570804
 31
0.0
  0
LINE
  5
40F
330
1F
100
AcDbEntity
  8
0-0_補助線
  6
JWW_HOJO
 62
   120
370
     5
100
AcDbLine
 10
2874.18035096248
 20
2363.663137429148
 30
0.0
 11
-3670.819649037516
 21
2363.663137429148
 31
0.0
  0
LINE
  5
410
330
1F
100
AcDbEntity
  8
0-0_補助線
  6
JWW_HOJO
 62
   120
370
     5
100
AcDbLine
 10
2224.18035096248
 20
1613.663137429151
 30
0.0
 11
-2270.819649037519
 21
1613.663137429151
 31
0.0
  0
LINE
  5
411
330
1F
100
AcDbEntity
  8
0-0_補助線
  6
JWW_HOJO
 62
   120
370
     5
100
AcDbLine
 10
-2270.819649037519
 20
-8806.336862570848
 30
0.0
 11
2224.18035096248
 21
-8806.336862570848
 31
0.0
  0
LINE
  5
412
330
1F
100
AcDbEntity
  8
0-0_補助線
  6
JWW_HOJO
 62
   120
370
     5
100
AcDbLine
 10
-3670.819649037516
 20
-10056.33686257085
 30
0.0
 11
2874.18035096248
 21
-10056.33686257085
 31
0.0
  0
LINE
  5
413
330
1F
100
AcDbEntity
  8
0-0_補助線
  6
JWW_HOJO
 62
   120
370
     5
100
AcDbLine
 10
2874.18035096248
 20
2363.663137429148
 30
0.0
 11
2874.18035096248
 21
-10056.33686257085
 31
0.0
  0
LINE
  5
414
330
1F
100
AcDbEntity
  8
0-0_補助線
  6
JWW_HOJO
 62
   120
370
     5
100
AcDbLine
 10
8074.180350962479
 20
-9556.336863909404
 30
0.0
 11
8074.180350962479
 21
2258.663137429153
 31
0.0
  0
LINE
  5
415
330
1F
100
AcDbEntity
  8
0-0_補助線
  6
JWW_HOJO
 62
   120
370
     5
100
AcDbLine
 10
1474.18035096248
 20
2363.663137429148
 30
0.0
 11
1474.18035096248
 21
-10056.33686257085
 31
0.0
  0
TEXT
  5
416
330
1F
100
AcDbEntity
  8
F-A_文字
  6
Continuous
 62
     7
370
     9
100
AcDbText
 10
11056.50861436545
 20
-14062.908775288
 30
0.0
 40
228.6
  1
WT-003a_C02
 41
1.151515151515151
  7
ＭＳ ゴシック
100
AcDbText
  0
LINE
  5
417
330
1F
100
AcDbEntity
  8
0-2
  6
Continuous
 62
    92
370
    13
100
AcDbLine
 10
-8548.303603277565
 20
-8556.33686257085
 30
0.0
 11
-8548.303603277565
 21
1363.663137429158
 31
0.0
  0
LINE
  5
418
330
1F
100
AcDbEntity
  8
0-2
  6
Continuous
 62
    92
370
    13
100
AcDbLine
 10
-8548.303603277565
 20
1363.663137429151
 30
0.0
 11
-11793.30360327757
 21
1363.663137429151
 31
0.0
  0
LINE
  5
419
330
1F
100
AcDbEntity
  8
0-0_補助線
  6
JWW_HOJO
 62
   120
370
     5
100
AcDbLine
 10
-13443.30360327757
 20
2363.663137429148
 30
0.0
 11
-7548.303603277569
 21
2363.663137429148
 31
0.0
  0
LINE
  5
41A
330
1F
100
AcDbEntity
  8
0-0_補助線
  6
JWW_HOJO
 62
   120
370
     5
100
AcDbLine
 10
-8298.303603277565
 20
-10056.33686257085
 30
0.0
 11
-8298.303603277565
 21
2363.663137429148
 31
0.0
  0
LINE
  5
41B
330
1F
100
AcDbEntity
  8
0-0_補助線
  6
JWW_HOJO
 62
   120
370
     5
100
AcDbLine
 10
-7548.303603277569
 20
1613.663137429151
 30
0.0
 11
-12043.30360327757
 21
1613.663137429151
 31
0.0
  0
LINE
  5
41C
330
1F
100
AcDbEntity
  8
0-2
  6
Continuous
 62
    92
370
    13
100
AcDbLine
 10
1224.18035096248
 20
1363.663137429151
 30
0.0
 11
-2020.819649037519
 21
1363.663137429151
 31
0.0
  0
LINE
  5
41D
330
1F
100
AcDbEntity
  8
0-2
  6
Continuous
 62
    92
370
    13
100
AcDbLine
 10
1224.18035096248
 20
1258.663137429153
 30
0.0
 11
-2020.819649037519
 21
1258.663137429153
 31
0.0
  0
LINE
  5
41E
330
1F
100
AcDbEntity
  8
0-2
  6
Continuous
 62
    92
370
    13
100
AcDbLine
 10
1224.18035096248
 20
-8556.33686257085
 30
0.0
 11
1224.18035096248
 21
1363.663137429151
 31
0.0
  0
LINE
  5
41F
330
1F
100
AcDbEntity
  8
0-0_補助線
  6
JWW_HOJO
 62
     7
370
     9
100
AcDbLine
 10
-3520.819649037523
 20
10497.92412847773
 30
0.0
 11
2724.18035096248
 21
10497.92412847773
 31
0.0
  0
LINE
  5
420
330
1F
100
AcDbEntity
  8
0-B_寸法
  6
Continuous
 62
   120
370
     5
100
AcDbLine
 10
2874.18035096248
 20
-8556.336863909404
 30
0.0
 11
2874.18035096248
 21
-1088.836862570828
 31
0.0
  0
LWPOLYLINE
  5
421
330
1F
100
AcDbEntity
  8
0-B_寸法
  6
Continuous
 62
     7
370
     9
100
AcDbPolyline
 90
        4
 70
     1
 43
20.0
 10
2884.18035096248
 20
-8556.336863909404
 42
0.4142135623731
 10
2874.18035096248
 20
-8546.336863909406
 42
0.4142135623731
 10
2864.18035096248
 20
-8556.336863909404
 42
0.4142135623731
 10
2874.18035096248
 20
-8566.336863909404
 42
0.4142135623731
  0
LWPOLYLINE
  5
422
330
1F
100
AcDbEntity
  8
0-B_寸法
  6
Continuous
 62
     7
370
     9
100
AcDbPolyline
 90
        4
 70
     1
 43
20.0
 10
2884.18035096248
 20
-1088.836862570828
 42
0.4142135623731
 10
2874.18035096248
 20
-1078.836862570828
 42
0.4142135623731
 10
2864.18035096248
 20
-1088.836862570828
 42
0.4142135623731
 10
2874.18035096248
 20
-1098.836862570828
 42
0.4142135623731
  0
LINE
  5
423
330
1F
100
AcDbEntity
  8
0-B_寸法
  6
Continuous
 62
   120
370
     5
100
AcDbLine
 10
2874.18035096248
 20
-8556.336863909404
 30
0.0
 11
2224.18035096248
 21
-8556.336863909404
 31
0.0
  0
TEXT
  5
424
330
1F
100
AcDbEntity
  8
0-B_寸法
  6
Continuous
 62
     7
370
   211
100
AcDbText
 10
2817.78035096248
 20
-5597.586863240117
 30
0.0
 40
304.8
  1
1,493.5
 50
90.0
 41
1.107142857142857
  7
ＭＳ ゴシック
100
AcDbText
  0
LINE
  5
425
330
1F
100
AcDbEntity
  8
0-B_寸法
  6
Continuous
 62
   120
370
     5
100
AcDbLine
 10
2874.18035096248
 20
-1088.836862570828
 30
0.0
 11
1474.18035096248
 21
-1088.836862570828
 31
0.0
  0
LWPOLYLINE
  5
426
330
1F
100
AcDbEntity
  8
0-B_寸法
  6
Continuous
 62
     7
370
     9
100
AcDbPolyline
 90
        4
 70
     1
 43
20.0
 10
1234.18035096248
 20
11497.92412847773
 42
0.4142135623731
 10
1224.18035096248
 20
11507.92412847773
 42
0.4142135623731
 10
1214.18035096248
 20
11497.92412847773
 42
0.4142135623731
 10
1224.18035096248
 20
11487.92412847773
 42
0.4142135623731
  0
LINE
  5
427
330
1F
100
AcDbEntity
  8
0-B_寸法
  6
Continuous
 62
   120
370
     5
100
AcDbLine
 10
1224.18035096248
 20
11497.92412847773
 30
0.0
 11
1224.18035096248
 21
10747.92412847773
 31
0.0
  0
TEXT
  5
428
330
1F
100
AcDbEntity
  8
F-A_文字
  6
Continuous
 62
     7
370
     0
100
AcDbText
 10
16144.00902676515
 20
-13371.24674752985
 30
0.0
 40
228.6
  1
2018.01.22
 41
1.15
  7
ＭＳ ゴシック
100
AcDbText
  0
LINE
  5
429
330
1F
100
AcDbEntity
  8
0-0_補助線
  6
JWW_HOJO
 62
   120
370
     5
100
AcDbLine
 10
10974.18035096248
 20
-8806.336863909404
 30
0.0
 11
10974.18035096248
 21
1508.663137429153
 31
0.0
  0
LINE
  5
42A
330
1F
100
AcDbEntity
  8
0-0_補助線
  6
JWW_HOJO
 62
   120
370
     5
100
AcDbLine
 10
12374.18035096248
 20
3008.663137429153
 30
0.0
 11
12374.18035096248
 21
-10056.3368639094
 31
0.0
  0
LINE
  5
42B
330
1F
100
AcDbEntity
  8
0-0_補助線
  6
JWW_HOJO
 62
     7
370
     9
100
AcDbLine
 10
-11944.11831976531
 20
1363.663136090594
 30
0.0
 11
12374.18035096248
 21
1363.663136090594
 31
0.0
  0
LINE
  5
42C
330
1F
100
AcDbEntity
  8
0-0_補助線
  6
JWW_HOJO
 62
   120
370
     5
100
AcDbLine
 10
8824.180350962479
 20
-8806.336863909404
 30
0.0
 11
10974.18035096248
 21
-8806.336863909404
 31
0.0
  0
LINE
  5
42D
330
1F
100
AcDbEntity
  8
0-0_補助線
  6
JWW_HOJO
 62
   120
370
     5
100
AcDbLine
 10
8824.180350962479
 20
1508.663137429153
 30
0.0
 11
10974.18035096248
 21
1508.663137429153
 31
0.0
  0
LINE
  5
42E
330
1F
100
AcDbEntity
  8
0-0_補助線
  6
JWW_HOJO
 62
   120
370
     5
100
AcDbLine
 10
8824.180350962479
 20
-8288.836862570852
 30
0.0
 11
10974.18035096248
 21
-8288.836862570852
 31
0.0
  0
LINE
  5
42F
330
1F
100
AcDbEntity
  8
0-0_補助線
  6
JWW_HOJO
 62
   120
370
     5
100
AcDbLine
 10
8824.180350962479
 20
991.1631374291488
 30
0.0
 11
10974.18035096248
 21
991.1631374291488
 31
0.0
  0
LINE
  5
430
330
1F
100
AcDbEntity
  8
0-0_補助線
  6
JWW_HOJO
 62
     7
370
     9
100
AcDbLine
 10
8824.180350962479
 20
831.1631374291494
 30
0.0
 11
10974.18035096248
 21
831.1631374291494
 31
0.0
  0
LINE
  5
431
330
1F
100
AcDbEntity
  8
0-0_補助線
  6
JWW_HOJO
 62
     7
370
     9
100
AcDbLine
 10
10974.18035096248
 20
-8128.83686257085
 30
0.0
 11
8824.180350962479
 21
-8128.83686257085
 31
0.0
  0
LINE
  5
432
330
1F
100
AcDbEntity
  8
0-0_補助線
  6
JWW_HOJO
 62
   120
370
     5
100
AcDbLine
 10
8824.180350962479
 20
831.1631374291494
 30
0.0
 11
10974.18035096248
 21
831.1631374291494
 31
0.0
  0
LINE
  5
433
330
1F
100
AcDbEntity
  8
0-0_補助線
  6
JWW_HOJO
 62
   120
370
     5
100
AcDbLine
 10
8824.180350962479
 20
-768.8368625708478
 30
0.0
 11
10974.18035096248
 21
-768.8368625708478
 31
0.0
  0
LINE
  5
434
330
1F
100
AcDbEntity
  8
0-0_補助線
  6
JWW_HOJO
 62
   120
370
     5
100
AcDbLine
 10
8824.180350962479
 20
-928.8368625708472
 30
0.0
 11
10974.18035096248
 21
-928.8368625708472
 31
0.0
  0
LINE
  5
435
330
1F
100
AcDbEntity
  8
0-0_補助線
  6
JWW_HOJO
 62
   120
370
     5
100
AcDbLine
 10
8824.180350962479
 20
-2688.836862570845
 30
0.0
 11
10974.18035096248
 21
-2688.836862570845
 31
0.0
  0
LINE
  5
436
330
1F
100
AcDbEntity
  8
0-0_補助線
  6
JWW_HOJO
 62
   120
370
     5
100
AcDbLine
 10
8824.180350962479
 20
-2848.836862570846
 30
0.0
 11
10974.18035096248
 21
-2848.836862570846
 31
0.0
  0
LINE
  5
437
330
1F
100
AcDbEntity
  8
0-0_補助線
  6
JWW_HOJO
 62
   120
370
     5
100
AcDbLine
 10
8824.180350962479
 20
-4448.836862570852
 30
0.0
 11
10974.18035096248
 21
-4448.836862570852
 31
0.0
  0
LINE
  5
438
330
1F
100
AcDbEntity
  8
0-0_補助線
  6
JWW_HOJO
 62
   120
370
     5
100
AcDbLine
 10
8824.180350962479
 20
-4608.836862570848
 30
0.0
 11
10974.18035096248
 21
-4608.836862570848
 31
0.0
  0
LINE
  5
439
330
1F
100
AcDbEntity
  8
0-0_補助線
  6
JWW_HOJO
 62
   120
370
     5
100
AcDbLine
 10
8824.180350962479
 20
-6368.836862570848
 30
0.0
 11
10974.18035096248
 21
-6368.836862570848
 31
0.0
  0
LINE
  5
43A
330
1F
100
AcDbEntity
  8
0-0_補助線
  6
JWW_HOJO
 62
   120
370
     5
100
AcDbLine
 10
8824.180350962479
 20
-6528.836862570847
 30
0.0
 11
10974.18035096248
 21
-6528.836862570847
 31
0.0
  0
LINE
  5
43B
330
1F
100
AcDbEntity
  8
0-0_補助線
  6
JWW_HOJO
 62
   120
370
     5
100
AcDbLine
 10
8824.180350962479
 20
-8128.836862570853
 30
0.0
 11
10974.18035096248
 21
-8128.836862570853
 31
0.0
  0
LINE
  5
43C
330
1F
100
AcDbEntity
  8
0-0_補助線
  6
JWW_HOJO
 62
   120
370
     5
100
AcDbLine
 10
7424.180350962477
 20
3008.663137429153
 30
0.0
 11
12374.18035096248
 21
3008.663137429153
 31
0.0
  0
LINE
  5
43D
330
1F
100
AcDbEntity
  8
0-0_補助線
  6
JWW_HOJO
 62
   120
370
     5
100
AcDbLine
 10
7424.180350962477
 20
-10056.3368639094
 30
0.0
 11
12374.18035096248
 21
-10056.3368639094
 31
0.0
  0
LINE
  5
43E
330
1F
100
AcDbEntity
  8
0-0_補助線
  6
JWW_HOJO
 62
     7
370
     9
100
AcDbLine
 10
-11944.11831976531
 20
-8556.336863909404
 30
0.0
 11
12374.18035096248
 21
-8556.336863909404
 31
0.0
  0
LINE
  5
43F
330
1F
100
AcDbEntity
  8
0-0_補助線
  6
JWW_HOJO
 62
   120
370
     5
100
AcDbLine
 10
8074.180350962479
 20
-9556.336863909404
 30
0.0
 11
11724.18035096248
 21
-9556.336863909404
 31
0.0
  0
LINE
  5
440
330
1F
100
AcDbEntity
  8
0-0_補助線
  6
JWW_HOJO
 62
   120
370
     5
100
AcDbLine
 10
11724.18035096248
 20
2258.663137429153
 30
0.0
 11
11724.18035096248
 21
-9556.336863909404
 31
0.0
  0
LINE
  5
441
330
1F
100
AcDbEntity
  8
0-0_補助線
  6
JWW_HOJO
 62
   120
370
     5
100
AcDbLine
 10
8074.180350962479
 20
2258.663137429153
 30
0.0
 11
11724.18035096248
 21
2258.663137429153
 31
0.0
  0
TEXT
  5
442
330
1F
100
AcDbEntity
  8
0-A_文字
  6
Continuous
 62
     7
370
     9
100
AcDbText
 10
10971.26059053496
 20
-7586.081335788867
 30
0.0
 40
228.6
  1
下地
 41
1.083333333333333
  7
ＭＳ ゴシック
100
AcDbText
  0
TEXT
  5
443
330
1F
100
AcDbEntity
  8
0-B_寸法
  6
Continuous
 62
     7
370
   211
100
AcDbText
 10
11667.78035117339
 20
788.6631347520392
 30
0.0
 40
304.8
  1
100
 50
90.0
 41
1.083333333333333
  7
ＭＳ ゴシック
100
AcDbText
  0
TEXT
  5
444
330
1F
100
AcDbEntity
  8
0-B_寸法
  6
Continuous
 62
     7
370
   211
100
AcDbText
 10
11667.78035117339
 20
-3981.336863909405
 30
0.0
 40
304.8
  1
100
 50
90.0
 41
1.083333333333333
  7
ＭＳ ゴシック
100
AcDbText
  0
TEXT
  5
445
330
1F
100
AcDbEntity
  8
0-B_寸法
  6
Continuous
 62
     7
370
   211
100
AcDbText
 10
12951.16886623524
 20
-4198.836863909401
 30
0.0
 40
304.8
  1
1,963
 50
90.0
 41
1.1
  7
ＭＳ ゴシック
100
AcDbText
  0
TEXT
  5
446
330
1F
100
AcDbEntity
  8
0-B_寸法
  6
Continuous
 62
     7
370
   211
100
AcDbText
 10
11667.78035117339
 20
-6306.336863909405
 30
0.0
 40
304.8
  1
830
 50
90.0
 41
1.083333333333333
  7
ＭＳ ゴシック
100
AcDbText
  0
TEXT
  5
447
330
1F
100
AcDbEntity
  8
0-B_寸法
  6
Continuous
 62
     7
370
   211
100
AcDbText
 10
12317.78035117339
 20
-6531.336863909405
 30
0.0
 40
304.8
  1
1,030
 50
90.0
 41
1.1
  7
ＭＳ ゴシック
100
AcDbText
  0
TEXT
  5
448
330
1F
100
AcDbEntity
  8
0-B_寸法
  6
Continuous
 62
     7
370
   211
100
AcDbText
 10
11667.78035117339
 20
-8631.336863909404
 30
0.0
 40
304.8
  1
100
 50
90.0
 41
1.083333333333333
  7
ＭＳ ゴシック
100
AcDbText
  0
LINE
  5
449
330
1F
100
AcDbEntity
  8
0-8
  6
Continuous
 62
    92
370
    13
100
AcDbLine
 10
10574.18035117339
 20
-8556.336863909404
 30
0.0
 11
10724.18035117339
 21
-8556.336863909404
 31
0.0
  0
LINE
  5
44A
330
1F
100
AcDbEntity
  8
0-8
  6
Continuous
 62
    92
370
    13
100
AcDbLine
 10
10574.18035117339
 20
-8056.336863909405
 30
0.0
 11
10574.18035117339
 21
-8556.336863909404
 31
0.0
  0
LINE
  5
44B
330
1F
100
AcDbEntity
  8
0-8
  6
Continuous
 62
    92
370
    13
100
AcDbLine
 10
10724.18035117339
 20
-8056.336863909405
 30
0.0
 11
10574.18035117339
 21
-8056.336863909405
 31
0.0
  0
LINE
  5
44C
330
1F
100
AcDbEntity
  8
0-8
  6
Continuous
 62
    92
370
    13
100
AcDbLine
 10
10724.18035117339
 20
-8556.336863909404
 30
0.0
 11
10724.18035117339
 21
-8056.336863909405
 31
0.0
  0
LINE
  5
44D
330
1F
100
AcDbEntity
  8
0-8
  6
Continuous
 62
     7
370
     9
100
AcDbLine
 10
10574.18035117339
 20
-8556.336863909404
 30
0.0
 11
10724.18035117339
 21
-8056.336863909405
 31
0.0
  0
LINE
  5
44E
330
1F
100
AcDbEntity
  8
0-8
  6
Continuous
 62
     7
370
     9
100
AcDbLine
 10
10574.18035117339
 20
-8056.336863909405
 30
0.0
 11
10724.18035117339
 21
-8556.336863909404
 31
0.0
  0
LINE
  5
44F
330
1F
100
AcDbEntity
  8
0-8
  6
Continuous
 62
    92
370
    13
100
AcDbLine
 10
10574.18035117339
 20
863.6631347520392
 30
0.0
 11
10724.18035117339
 21
863.6631347520392
 31
0.0
  0
LINE
  5
450
330
1F
100
AcDbEntity
  8
0-8
  6
Continuous
 62
    92
370
    13
100
AcDbLine
 10
10574.18035117339
 20
1363.663134752039
 30
0.0
 11
10574.18035117339
 21
863.6631347520392
 31
0.0
  0
LINE
  5
451
330
1F
100
AcDbEntity
  8
0-8
  6
Continuous
 62
    92
370
    13
100
AcDbLine
 10
10724.18035117339
 20
1363.663134752039
 30
0.0
 11
10574.18035117339
 21
1363.663134752039
 31
0.0
  0
LINE
  5
452
330
1F
100
AcDbEntity
  8
0-8
  6
Continuous
 62
    92
370
    13
100
AcDbLine
 10
10724.18035117339
 20
863.6631347520392
 30
0.0
 11
10724.18035117339
 21
1363.663134752039
 31
0.0
  0
LINE
  5
453
330
1F
100
AcDbEntity
  8
0-8
  6
Continuous
 62
     7
370
     9
100
AcDbLine
 10
10574.18035117339
 20
863.6631347520392
 30
0.0
 11
10724.18035117339
 21
1363.663134752039
 31
0.0
  0
LINE
  5
454
330
1F
100
AcDbEntity
  8
0-8
  6
Continuous
 62
     7
370
     9
100
AcDbLine
 10
10574.18035117339
 20
1363.663134752039
 30
0.0
 11
10724.18035117339
 21
863.6631347520392
 31
0.0
  0
LINE
  5
455
330
1F
100
AcDbEntity
  8
0-8
  6
Continuous
 62
    92
370
    13
100
AcDbLine
 10
10574.18035117339
 20
-3906.336863909405
 30
0.0
 11
10724.18035117339
 21
-3906.336863909405
 31
0.0
  0
LINE
  5
456
330
1F
100
AcDbEntity
  8
0-8
  6
Continuous
 62
    92
370
    13
100
AcDbLine
 10
10574.18035117339
 20
-3406.336863909405
 30
0.0
 11
10574.18035117339
 21
-3906.336863909405
 31
0.0
  0
LINE
  5
457
330
1F
100
AcDbEntity
  8
0-8
  6
Continuous
 62
    92
370
    13
100
AcDbLine
 10
10724.18035117339
 20
-3406.336863909405
 30
0.0
 11
10574.18035117339
 21
-3406.336863909405
 31
0.0
  0
LINE
  5
458
330
1F
100
AcDbEntity
  8
0-8
  6
Continuous
 62
    92
370
    13
100
AcDbLine
 10
10724.18035117339
 20
-3906.336863909405
 30
0.0
 11
10724.18035117339
 21
-3406.336863909405
 31
0.0
  0
LINE
  5
459
330
1F
100
AcDbEntity
  8
0-8
  6
Continuous
 62
     7
370
     9
100
AcDbLine
 10
10574.18035117339
 20
-3906.336863909405
 30
0.0
 11
10724.18035117339
 21
-3406.336863909405
 31
0.0
  0
LINE
  5
45A
330
1F
100
AcDbEntity
  8
0-8
  6
Continuous
 62
     7
370
     9
100
AcDbLine
 10
10574.18035117339
 20
-3406.336863909405
 30
0.0
 11
10724.18035117339
 21
-3906.336863909405
 31
0.0
  0
LINE
  5
45B
330
1F
100
AcDbEntity
  8
0-B_寸法
  6
Continuous
 62
   120
370
     5
100
AcDbLine
 10
11724.18035117339
 20
-8556.336863909404
 30
0.0
 11
11724.18035117339
 21
-8056.336863909405
 31
0.0
  0
LWPOLYLINE
  5
45C
330
1F
100
AcDbEntity
  8
0-B_寸法
  6
Continuous
 62
     7
370
     9
100
AcDbPolyline
 90
        4
 70
     1
 43
20.0
 10
11734.18035117339
 20
-8556.336863909404
 42
0.4142135623731
 10
11724.18035117339
 20
-8546.336863909406
 42
0.4142135623731
 10
11714.18035117339
 20
-8556.336863909404
 42
0.4142135623731
 10
11724.18035117339
 20
-8566.336863909404
 42
0.4142135623731
  0
LWPOLYLINE
  5
45D
330
1F
100
AcDbEntity
  8
0-B_寸法
  6
Continuous
 62
     7
370
     9
100
AcDbPolyline
 90
        4
 70
     1
 43
20.0
 10
11734.18035117339
 20
-8056.336863909405
 42
0.4142135623731
 10
11724.18035117339
 20
-8046.336863909406
 42
0.4142135623731
 10
11714.18035117339
 20
-8056.336863909405
 42
0.4142135623731
 10
11724.18035117339
 20
-8066.336863909404
 42
0.4142135623731
  0
LINE
  5
45E
330
1F
100
AcDbEntity
  8
0-B_寸法
  6
Continuous
 62
   120
370
     5
100
AcDbLine
 10
11724.18035117339
 20
-8056.336863909405
 30
0.0
 11
10974.18035117339
 21
-8056.336863909405
 31
0.0
  0
LINE
  5
45F
330
1F
100
AcDbEntity
  8
0-B_寸法
  6
Continuous
 62
   120
370
     5
100
AcDbLine
 10
11724.18035117339
 20
-8056.336863909405
 30
0.0
 11
11724.18035117339
 21
-3906.336863909405
 31
0.0
  0
LWPOLYLINE
  5
460
330
1F
100
AcDbEntity
  8
0-B_寸法
  6
Continuous
 62
     7
370
     9
100
AcDbPolyline
 90
        4
 70
     1
 43
20.0
 10
11734.18035117339
 20
-3906.336863909405
 42
0.4142135623731
 10
11724.18035117339
 20
-3896.336863909405
 42
0.4142135623731
 10
11714.18035117339
 20
-3906.336863909405
 42
0.4142135623731
 10
11724.18035117339
 20
-3916.336863909405
 42
0.4142135623731
  0
LINE
  5
461
330
1F
100
AcDbEntity
  8
0-B_寸法
  6
Continuous
 62
   120
370
     5
100
AcDbLine
 10
11724.18035117339
 20
-3906.336863909405
 30
0.0
 11
10974.18035117339
 21
-3906.336863909405
 31
0.0
  0
LINE
  5
462
330
1F
100
AcDbEntity
  8
0-B_寸法
  6
Continuous
 62
   120
370
     5
100
AcDbLine
 10
11724.18035117339
 20
-3906.336863909405
 30
0.0
 11
11724.18035117339
 21
-3406.336863909405
 31
0.0
  0
LWPOLYLINE
  5
463
330
1F
100
AcDbEntity
  8
0-B_寸法
  6
Continuous
 62
     7
370
     9
100
AcDbPolyline
 90
        4
 70
     1
 43
20.0
 10
11734.18035117339
 20
-3406.336863909405
 42
0.4142135623731
 10
11724.18035117339
 20
-3396.336863909405
 42
0.4142135623731
 10
11714.18035117339
 20
-3406.336863909405
 42
0.4142135623731
 10
11724.18035117339
 20
-3416.336863909405
 42
0.4142135623731
  0
LINE
  5
464
330
1F
100
AcDbEntity
  8
0-B_寸法
  6
Continuous
 62
   120
370
     5
100
AcDbLine
 10
11724.18035117339
 20
1363.663134752039
 30
0.0
 11
11724.18035117339
 21
863.6631347520392
 31
0.0
  0
LWPOLYLINE
  5
465
330
1F
100
AcDbEntity
  8
0-B_寸法
  6
Continuous
 62
     7
370
     9
100
AcDbPolyline
 90
        4
 70
     1
 43
20.0
 10
11734.18035117339
 20
1363.663134752039
 42
0.4142135623731
 10
11724.18035117339
 20
1373.663134752039
 42
0.4142135623731
 10
11714.18035117339
 20
1363.663134752039
 42
0.4142135623731
 10
11724.18035117339
 20
1353.663134752039
 42
0.4142135623731
  0
LWPOLYLINE
  5
466
330
1F
100
AcDbEntity
  8
0-B_寸法
  6
Continuous
 62
     7
370
     9
100
AcDbPolyline
 90
        4
 70
     1
 43
20.0
 10
11734.18035117339
 20
863.6631347520392
 42
0.4142135623731
 10
11724.18035117339
 20
873.6631347520392
 42
0.4142135623731
 10
11714.18035117339
 20
863.6631347520392
 42
0.4142135623731
 10
11724.18035117339
 20
853.6631347520392
 42
0.4142135623731
  0
LINE
  5
467
330
1F
100
AcDbEntity
  8
0-B_寸法
  6
Continuous
 62
   120
370
     5
100
AcDbLine
 10
11724.18035117339
 20
1363.663134752039
 30
0.0
 11
10974.18035117339
 21
1363.663134752039
 31
0.0
  0
LINE
  5
468
330
1F
100
AcDbEntity
  8
0-B_寸法
  6
Continuous
 62
   120
370
     5
100
AcDbLine
 10
11724.18035117339
 20
863.6631347520392
 30
0.0
 11
10974.18035117339
 21
863.6631347520392
 31
0.0
  0
LINE
  5
469
330
1F
100
AcDbEntity
  8
0-A_文字
  6
Continuous
 62
     7
370
     9
100
AcDbLine
 10
10724.18035117339
 20
-8056.336863909405
 30
0.0
 11
10971.26059053497
 21
-7628.381335788868
 31
0.0
  0
LINE
  5
46A
330
1F
100
AcDbEntity
  8
0-A_文字
  6
Continuous
 62
     7
370
     9
100
AcDbLine
 10
10971.26059053497
 20
-7628.381335788868
 30
0.0
 11
11601.39790732015
 21
-7628.381335788868
 31
0.0
  0
LINE
  5
46B
330
1F
100
AcDbEntity
  8
0-B_寸法
  6
Continuous
 62
   120
370
     5
100
AcDbLine
 10
12374.18035117339
 20
-3406.336863909405
 30
0.0
 11
10974.18035117339
 21
-3406.336863909405
 31
0.0
  0
LINE
  5
46C
330
1F
100
AcDbEntity
  8
0-B_寸法
  6
Continuous
 62
   120
370
     5
100
AcDbLine
 10
12374.18035117339
 20
-8556.336863909404
 30
0.0
 11
12374.18035117339
 21
-3406.336863909405
 31
0.0
  0
LWPOLYLINE
  5
46D
330
1F
100
AcDbEntity
  8
0-B_寸法
  6
Continuous
 62
     7
370
     9
100
AcDbPolyline
 90
        4
 70
     1
 43
20.0
 10
12384.18035117339
 20
-8556.336863909404
 42
0.4142135623731
 10
12374.18035117339
 20
-8546.336863909406
 42
0.4142135623731
 10
12364.18035117339
 20
-8556.336863909404
 42
0.4142135623731
 10
12374.18035117339
 20
-8566.336863909404
 42
0.4142135623731
  0
LWPOLYLINE
  5
46E
330
1F
100
AcDbEntity
  8
0-B_寸法
  6
Continuous
 62
     7
370
     9
100
AcDbPolyline
 90
        4
 70
     1
 43
20.0
 10
12384.18035117339
 20
-3406.336863909405
 42
0.4142135623731
 10
12374.18035117339
 20
-3396.336863909405
 42
0.4142135623731
 10
12364.18035117339
 20
-3406.336863909405
 42
0.4142135623731
 10
12374.18035117339
 20
-3416.336863909405
 42
0.4142135623731
  0
LINE
  5
46F
330
1F
100
AcDbEntity
  8
0-B_寸法
  6
Continuous
 62
   120
370
     5
100
AcDbLine
 10
13024.18035117339
 20
1258.663136090604
 30
0.0
 11
13024.18035117339
 21
-8556.336863909404
 31
0.0
  0
LWPOLYLINE
  5
470
330
1F
100
AcDbEntity
  8
0-B_寸法
  6
Continuous
 62
     7
370
     9
100
AcDbPolyline
 90
        4
 70
     1
 43
20.0
 10
13034.18035117339
 20
1258.663136090604
 42
0.4142135623731
 10
13024.18035117339
 20
1268.663136090604
 42
0.4142135623731
 10
13014.18035117339
 20
1258.663136090604
 42
0.4142135623731
 10
13024.18035117339
 20
1248.663136090604
 42
0.4142135623731
  0
LWPOLYLINE
  5
471
330
1F
100
AcDbEntity
  8
0-B_寸法
  6
Continuous
 62
     7
370
     9
100
AcDbPolyline
 90
        4
 70
     1
 43
20.0
 10
13034.18035117339
 20
-8556.336863909404
 42
0.4142135623731
 10
13024.18035117339
 20
-8546.336863909406
 42
0.4142135623731
 10
13014.18035117339
 20
-8556.336863909404
 42
0.4142135623731
 10
13024.18035117339
 20
-8566.336863909404
 42
0.4142135623731
  0
LINE
  5
472
330
1F
100
AcDbEntity
  8
0-B_寸法
  6
Continuous
 62
   120
370
     5
100
AcDbLine
 10
13024.18035117339
 20
-8556.336863909404
 30
0.0
 11
10974.18035117339
 21
-8556.336863909404
 31
0.0
  0
LINE
  5
473
330
1F
100
AcDbEntity
  8
0-B_寸法
  6
Continuous
 62
   120
370
     5
100
AcDbLine
 10
13024.18035117339
 20
1258.663136090604
 30
0.0
 11
11724.18035117339
 21
1258.663136090604
 31
0.0
  0
LINE
  5
474
330
1F
100
AcDbEntity
  8
0-B_寸法
  6
JWW_DASHED2
 62
   120
370
     5
100
AcDbLine
 10
10574.18035117339
 20
1363.663134752039
 30
0.0
 11
-11898.30360327757
 21
1363.663134752039
 31
0.0
  0
LINE
  5
475
330
1F
100
AcDbEntity
  8
0-B_寸法
  6
JWW_DASHED2
 62
   120
370
     5
100
AcDbLine
 10
10574.18035117339
 20
-8556.336863909404
 30
0.0
 11
-11898.30360327757
 21
-8556.336863909404
 31
0.0
  0
LINE
  5
476
330
1F
100
AcDbEntity
  8
0-B_寸法
  6
JWW_DASHED2
 62
   120
370
     5
100
AcDbLine
 10
10574.18035117339
 20
863.6631347520392
 30
0.0
 11
-11898.30360327757
 21
863.6631347520392
 31
0.0
  0
LINE
  5
477
330
1F
100
AcDbEntity
  8
0-B_寸法
  6
JWW_DASHED2
 62
   120
370
     5
100
AcDbLine
 10
10574.18035117339
 20
-3406.336863909405
 30
0.0
 11
-11898.30360327757
 21
-3406.336863909405
 31
0.0
  0
LINE
  5
478
330
1F
100
AcDbEntity
  8
0-B_寸法
  6
JWW_DASHED2
 62
   120
370
     5
100
AcDbLine
 10
10574.18035117339
 20
-3906.336863909405
 30
0.0
 11
-11898.30360327757
 21
-3906.336863909405
 31
0.0
  0
LINE
  5
479
330
1F
100
AcDbEntity
  8
0-B_寸法
  6
JWW_DASHED2
 62
   120
370
     5
100
AcDbLine
 10
10574.18035117339
 20
-8056.336863909405
 30
0.0
 11
-11898.30360327757
 21
-8056.336863909405
 31
0.0
  0
ENDSEC
  0
SECTION
  2
OBJECTS
  0
DICTIONARY
  5
C
330
0
100
AcDbDictionary
281
     1
  3
ACAD_DETAILVIEWSTYLE
350
4B1
  3
ACAD_GROUP
350
D
  3
ACAD_LAYOUT
350
1A
  3
ACAD_MATERIAL
350
43
  3
ACAD_MLEADERSTYLE
350
6B
  3
ACAD_MLINESTYLE
350
17
  3
ACAD_PLOTSETTINGS
350
19
  3
ACAD_PLOTSTYLENAME
350
E
  3
ACAD_SCALELIST
350
47
  3
ACAD_SECTIONVIEWSTYLE
350
4B2
  3
ACAD_TABLESTYLE
350
69
  3
ACAD_VISUALSTYLE
350
2A
  3
ACDB_RECOMPOSE_DATA
350
4AE
  3
AcDbVariableDictionary
350
47A
  0
SUN
  5
6D
330
29
100
AcDbSun
 90
        1
290
     0
 63
     7
421
 16777215
 40
1.0
291
     1
 91
  2455826
 92
 54000000
292
     0
 70
     2
 71
   256
280
     1
  0
DICTIONARY
  5
4B1
102
{ACAD_REACTORS
330
C
102
}
330
C
100
AcDbDictionary
281
     1
  0
DICTIONARY
  5
D
102
{ACAD_REACTORS
330
C
102
}
330
C
100
AcDbDictionary
281
     1
  0
DICTIONARY
  5
1A
102
{ACAD_REACTORS
330
C
102
}
330
C
100
AcDbDictionary
281
     1
  3
Layout1
350
1E
  3
Layout2
350
26
  3
Model
350
22
  0
DICTIONARY
  5
43
102
{ACAD_REACTORS
330
C
102
}
330
C
100
AcDbDictionary
281
     1
  3
ByBlock
350
45
  3
ByLayer
350
44
  3
Global
350
46
  0
DICTIONARY
  5
6B
102
{ACAD_REACTORS
330
C
102
}
330
C
100
AcDbDictionary
281
     1
  3
Standard
350
6C
  0
DICTIONARY
  5
17
102
{ACAD_REACTORS
330
C
102
}
330
C
100
AcDbDictionary
281
     1
  3
Standard
350
18
  0
DICTIONARY
  5
19
102
{ACAD_REACTORS
330
C
102
}
330
C
100
AcDbDictionary
281
     1
  0
ACDBDICTIONARYWDFLT
  5
E
102
{ACAD_REACTORS
330
C
102
}
330
C
100
AcDbDictionary
281
     1
  3
Normal
350
F
100
AcDbDictionaryWithDefault
340
F
  0
DICTIONARY
  5
47
102
{ACAD_REACTORS
330
C
102
}
330
C
100
AcDbDictionary
281
     1
  3
A0
350
48
  3
A1
350
49
  3
A2
350
4A
  3
A3
350
4B
  3
A4
350
4C
  3
A5
350
4D
  3
A6
350
4E
  3
A7
350
4F
  3
A8
350
50
  3
A9
350
51
  3
B0
350
52
  3
B1
350
53
  3
B2
350
54
  3
B3
350
55
  3
B4
350
56
  3
B5
350
57
  3
B6
350
58
  3
B7
350
59
  3
B8
350
5A
  3
B9
350
5B
  3
C0
350
5C
  3
C1
350
5D
  3
C2
350
5E
  3
C3
350
5F
  3
C4
350
60
  3
C5
350
61
  3
C6
350
62
  3
C7
350
63
  3
C8
350
64
  3
C9
350
65
  3
D0
350
66
  3
D1
350
67
  3
D2
350
68
  0
DICTIONARY
  5
4B2
102
{ACAD_REACTORS
330
C
102
}
330
C
100
AcDbDictionary
281
     1
  0
DICTIONARY
  5
69
102
{ACAD_REACTORS
330
C
102
}
330
C
100
AcDbDictionary
281
     1
  3
Standard
350
6A
  0
DICTIONARY
  5
2A
102
{ACAD_REACTORS
330
C
102
}
330
C
100
AcDbDictionary
281
     1
  3
2dWireframe
350
2F
  3
Basic
350
32
  3
Brighten
350
36
  3
ColorChange
350
3A
  3
Conceptual
350
34
  3
Dim
350
35
  3
EdgeColorOff
350
3D
  3
Facepattern
350
39
  3
Flat
350
2B
  3
FlatWithEdges
350
2C
  3
Gouraud
350
2D
  3
GouraudWithEdges
350
2E
  3
Hidden
350
31
  3
JitterOff
350
3B
  3
Linepattern
350
38
  3
OverhangOff
350
3C
  3
Realistic
350
33
  3
Shaded
350
42
  3
Shaded with edges
350
41
  3
Shades of Gray
350
3E
  3
Sketchy
350
3F
  3
Thicken
350
37
  3
Wireframe
350
30
  3
X-Ray
350
40
  0
XRECORD
  5
4AE
102
{ACAD_REACTORS
330
C
102
}
330
C
100
AcDbXrecord
280
     1
 90
        1
330
6A
  0
DICTIONARY
  5
47A
102
{ACAD_REACTORS
330
C
102
}
330
C
100
AcDbDictionary
281
     1
  3
CANNOSCALE
350
47B
  3
CENTEREXE
350
4B3
  3
CENTERLTYPEFILE
350
4B4
  3
CMLEADERSTYLE
350
4B0
  3
CTABLESTYLE
350
4AF
  0
LAYOUT
  5
1E
102
{ACAD_REACTORS
330
1A
102
}
330
1A
100
AcDbPlotSettings
  1

  2
none_device
  4

  6

 40
0.0
 41
0.0
 42
0.0
 43
0.0
 44
0.0
 45
0.0
 46
0.0
 47
0.0
 48
0.0
 49
0.0
140
0.0
141
0.0
142
1.0
143
1.0
 70
   688
 72
     1
 73
     0
 74
     5
  7

 75
    16
 76
     0
 77
     5
 78
   300
147
1.0
148
0.0
149
0.0
100
AcDbLayout
  1
Layout1
 70
     1
 71
     1
 10
0.0
 20
0.0
 11
420.0
 21
297.0
 12
0.0
 22
0.0
 32
0.0
 14
1.000000000000000E+20
 24
1.000000000000000E+20
 34
1.000000000000000E+20
 15
-1.000000000000000E+20
 25
-1.000000000000000E+20
 35
-1.000000000000000E+20
146
0.0
 13
0.0
 23
0.0
 33
0.0
 16
1.0
 26
0.0
 36
0.0
 17
0.0
 27
1.0
 37
0.0
 76
     0
330
1B
  0
LAYOUT
  5
26
102
{ACAD_REACTORS
330
1A
102
}
330
1A
100
AcDbPlotSettings
  1

  2
none_device
  4

  6

 40
0.0
 41
0.0
 42
0.0
 43
0.0
 44
0.0
 45
0.0
 46
0.0
 47
0.0
 48
0.0
 49
0.0
140
0.0
141
0.0
142
1.0
143
1.0
 70
   688
 72
     1
 73
     0
 74
     5
  7

 75
    16
 76
     0
 77
     5
 78
   300
147
1.0
148
0.0
149
0.0
100
AcDbLayout
  1
Layout2
 70
     1
 71
     2
 10
0.0
 20
0.0
 11
0.0
 21
0.0
 12
0.0
 22
0.0
 32
0.0
 14
0.0
 24
0.0
 34
0.0
 15
0.0
 25
0.0
 35
0.0
146
0.0
 13
0.0
 23
0.0
 33
0.0
 16
1.0
 26
0.0
 36
0.0
 17
0.0
 27
1.0
 37
0.0
 76
     0
330
23
  0
LAYOUT
  5
22
102
{ACAD_REACTORS
330
1A
102
}
330
1A
100
AcDbPlotSettings
  1

  2
none_device
  4
Letter_(8.50_x_11.00_Inches)
  6

 40
6.35
 41
6.35
 42
6.35000508
 43
6.35000508
 44
215.9
 45
279.4
 46
0.0
 47
0.0
 48
0.0
 49
0.0
140
0.0
141
0.0
142
1.0
143
1.0
 70
  1712
 72
     1
 73
     0
 74
     0
  7

 75
     0
 76
     0
 77
     5
 78
   300
147
1.0
148
0.0
149
0.0
100
AcDbLayout
  1
Model
 70
     1
 71
     0
 10
-21000.0
 20
-14850.0
 11
21000.0
 21
14850.0
 12
0.0
 22
0.0
 32
0.0
 14
-21000.0
 24
-14850.0
 34
0.0
 15
21000.0
 25
14850.0
 35
0.0
146
0.0
 13
0.0
 23
0.0
 33
0.0
 16
1.0
 26
0.0
 36
0.0
 17
0.0
 27
1.0
 37
0.0
 76
     0
330
1F
331
29
  0
MATERIAL
  5
45
102
{ACAD_REACTORS
330
43
102
}
330
43
100
AcDbMaterial
  1
ByBlock
 72
     1
 94
      127
  0
MATERIAL
  5
44
102
{ACAD_REACTORS
330
43
102
}
330
43
100
AcDbMaterial
  1
ByLayer
 72
     1
 94
      127
  0
MATERIAL
  5
46
102
{ACAD_REACTORS
330
43
102
}
330
43
100
AcDbMaterial
  1
Global
 72
     1
 94
      127
  0
MLEADERSTYLE
  5
6C
102
{ACAD_REACTORS
330
6B
102
}
330
6B
100
AcDbMLeaderStyle
179
     2
170
     2
171
     1
172
     0
 90
        2
 40
0.0
 41
0.0
173
     1
 91
-1056964608
340
14
 92
       -2
290
     1
 42
2.0
291
     1
 43
8.0
  3
Standard
341
0
 44
4.0
300

342
11
174
     1
178
     6
175
     1
176
     0
 93
-1056964608
 45
4.0
292
     0
297
     0
 46
4.0
343
0
 94
-1056964608
 47
1.0
 49
1.0
140
1.0
293
     1
141
0.0
294
     1
177
     0
142
1.0
295
     0
296
     0
143
3.75
271
     0
272
     9
273
     9
  0
MLINESTYLE
  5
18
102
{ACAD_REACTORS
330
17
102
}
330
17
100
AcDbMlineStyle
  2
Standard
 70
     0
  3

 62
   256
 51
90.0
 52
90.0
 71
     2
 49
0.5
 62
   256
  6
BYLAYER
 49
-0.5
 62
   256
  6
BYLAYER
  0
ACDBPLACEHOLDER
  5
F
102
{ACAD_REACTORS
330
E
102
}
330
E
  0
SCALE
  5
48
102
{ACAD_REACTORS
330
47
102
}
330
47
100
AcDbScale
 70
     0
300
1:1
140
1.0
141
1.0
290
     1
  0
SCALE
  5
49
102
{ACAD_REACTORS
330
47
102
}
330
47
100
AcDbScale
 70
     0
300
1:2
140
1.0
141
2.0
290
     0
  0
SCALE
  5
4A
102
{ACAD_REACTORS
330
47
102
}
330
47
100
AcDbScale
 70
     0
300
1:4
140
1.0
141
4.0
290
     0
  0
SCALE
  5
4B
102
{ACAD_REACTORS
330
47
102
}
330
47
100
AcDbScale
 70
     0
300
1:5
140
1.0
141
5.0
290
     0
  0
SCALE
  5
4C
102
{ACAD_REACTORS
330
47
102
}
330
47
100
AcDbScale
 70
     0
300
1:8
140
1.0
141
8.0
290
     0
  0
SCALE
  5
4D
102
{ACAD_REACTORS
330
47
102
}
330
47
100
AcDbScale
 70
     0
300
1:10
140
1.0
141
10.0
290
     0
  0
SCALE
  5
4E
102
{ACAD_REACTORS
330
47
102
}
330
47
100
AcDbScale
 70
     0
300
1:16
140
1.0
141
16.0
290
     0
  0
SCALE
  5
4F
102
{ACAD_REACTORS
330
47
102
}
330
47
100
AcDbScale
 70
     0
300
1:20
140
1.0
141
20.0
290
     0
  0
SCALE
  5
50
102
{ACAD_REACTORS
330
47
102
}
330
47
100
AcDbScale
 70
     0
300
1:30
140
1.0
141
30.0
290
     0
  0
SCALE
  5
51
102
{ACAD_REACTORS
330
47
102
}
330
47
100
AcDbScale
 70
     0
300
1:40
140
1.0
141
40.0
290
     0
  0
SCALE
  5
52
102
{ACAD_REACTORS
330
47
102
}
330
47
100
AcDbScale
 70
     0
300
1:50
140
1.0
141
50.0
290
     0
  0
SCALE
  5
53
102
{ACAD_REACTORS
330
47
102
}
330
47
100
AcDbScale
 70
     0
300
1:100
140
1.0
141
100.0
290
     0
  0
SCALE
  5
54
102
{ACAD_REACTORS
330
47
102
}
330
47
100
AcDbScale
 70
     0
300
2:1
140
2.0
141
1.0
290
     0
  0
SCALE
  5
55
102
{ACAD_REACTORS
330
47
102
}
330
47
100
AcDbScale
 70
     0
300
4:1
140
4.0
141
1.0
290
     0
  0
SCALE
  5
56
102
{ACAD_REACTORS
330
47
102
}
330
47
100
AcDbScale
 70
     0
300
8:1
140
8.0
141
1.0
290
     0
  0
SCALE
  5
57
102
{ACAD_REACTORS
330
47
102
}
330
47
100
AcDbScale
 70
     0
300
10:1
140
10.0
141
1.0
290
     0
  0
SCALE
  5
58
102
{ACAD_REACTORS
330
47
102
}
330
47
100
AcDbScale
 70
     0
300
100:1
140
100.0
141
1.0
290
     0
  0
SCALE
  5
59
102
{ACAD_REACTORS
330
47
102
}
330
47
100
AcDbScale
 70
     0
300
1/128" = 1'-0"
140
0.0078125
141
12.0
290
     0
  0
SCALE
  5
5A
102
{ACAD_REACTORS
330
47
102
}
330
47
100
AcDbScale
 70
     0
300
1/64" = 1'-0"
140
0.015625
141
12.0
290
     0
  0
SCALE
  5
5B
102
{ACAD_REACTORS
330
47
102
}
330
47
100
AcDbScale
 70
     0
300
1/32" = 1'-0"
140
0.03125
141
12.0
290
     0
  0
SCALE
  5
5C
102
{ACAD_REACTORS
330
47
102
}
330
47
100
AcDbScale
 70
     0
300
1/16" = 1'-0"
140
0.0625
141
12.0
290
     0
  0
SCALE
  5
5D
102
{ACAD_REACTORS
330
47
102
}
330
47
100
AcDbScale
 70
     0
300
3/32" = 1'-0"
140
0.09375
141
12.0
290
     0
  0
SCALE
  5
5E
102
{ACAD_REACTORS
330
47
102
}
330
47
100
AcDbScale
 70
     0
300
1/8" = 1'-0"
140
0.125
141
12.0
290
     0
  0
SCALE
  5
5F
102
{ACAD_REACTORS
330
47
102
}
330
47
100
AcDbScale
 70
     0
300
3/16" = 1'-0"
140
0.1875
141
12.0
290
     0
  0
SCALE
  5
60
102
{ACAD_REACTORS
330
47
102
}
330
47
100
AcDbScale
 70
     0
300
1/4" = 1'-0"
140
0.25
141
12.0
290
     0
  0
SCALE
  5
61
102
{ACAD_REACTORS
330
47
102
}
330
47
100
AcDbScale
 70
     0
300
3/8" = 1'-0"
140
0.375
141
12.0
290
     0
  0
SCALE
  5
62
102
{ACAD_REACTORS
330
47
102
}
330
47
100
AcDbScale
 70
     0
300
1/2" = 1'-0"
140
0.5
141
12.0
290
     0
  0
SCALE
  5
63
102
{ACAD_REACTORS
330
47
102
}
330
47
100
AcDbScale
 70
     0
300
3/4" = 1'-0"
140
0.75
141
12.0
290
     0
  0
SCALE
  5
64
102
{ACAD_REACTORS
330
47
102
}
330
47
100
AcDbScale
 70
     0
300
1" = 1'-0"
140
1.0
141
12.0
290
     0
  0
SCALE
  5
65
102
{ACAD_REACTORS
330
47
102
}
330
47
100
AcDbScale
 70
     0
300
1-1/2" = 1'-0"
140
1.5
141
12.0
290
     0
  0
SCALE
  5
66
102
{ACAD_REACTORS
330
47
102
}
330
47
100
AcDbScale
 70
     0
300
3" = 1'-0"
140
3.0
141
12.0
290
     0
  0
SCALE
  5
67
102
{ACAD_REACTORS
330
47
102
}
330
47
100
AcDbScale
 70
     0
300
6" = 1'-0"
140
6.0
141
12.0
290
     0
  0
SCALE
  5
68
102
{ACAD_REACTORS
330
47
102
}
330
47
100
AcDbScale
 70
     0
300
1'-0" = 1'-0"
140
12.0
141
12.0
290
     0
  0
TABLESTYLE
  5
6A
102
{ACAD_REACTORS
330
69
102
}
102
{ACAD_XDICTIONARY
360
4AC
102
}
330
69
100
AcDbTableStyle
  3
Standard
 70
     0
 71
     0
 40
0.06
 41
0.06
280
     0
281
     0
  7
Standard
140
4.5
170
     2
 62
     0
 63
   257
283
     0
 90
        4
 91
        0
  1

274
    -2
284
     1
 64
     0
275
    -2
285
     1
 65
     0
276
    -2
286
     1
 66
     0
277
    -2
287
     1
 67
     0
278
    -2
288
     1
 68
     0
279
    -2
289
     1
 69
     0
  7
Standard
140
6.0
170
     5
 62
     0
 63
   257
283
     0
 90
        4
 91
        0
  1

274
    -2
284
     1
 64
     0
275
    -2
285
     1
 65
     0
276
    -2
286
     1
 66
     0
277
    -2
287
     1
 67
     0
278
    -2
288
     1
 68
     0
279
    -2
289
     1
 69
     0
  7
Standard
140
4.5
170
     5
 62
     0
 63
   257
283
     0
 90
        4
 91
        0
  1

274
    -2
284
     1
 64
     0
275
    -2
285
     1
 65
     0
276
    -2
286
     1
 66
     0
277
    -2
287
     1
 67
     0
278
    -2
288
     1
 68
     0
279
    -2
289
     1
 69
     0
  0
VISUALSTYLE
  5
2F
102
{ACAD_REACTORS
330
2A
102
}
102
{ACAD_XDICTIONARY
360
484
102
}
330
2A
100
AcDbVisualStyle
  2
2dWireframe
 70
     4
177
     2
291
     0
 71
     0
176
     1
 72
     2
176
     1
 73
     0
176
     1
 90
        0
176
     1
 40
0.6
176
     1
 41
30.0
176
     1
 62
     5
 63
     7
421
 16777215
176
     1
 74
     1
176
     1
 91
        4
176
     1
 64
     7
176
     1
 65
   257
176
     1
 75
     1
176
     1
175
     1
176
     1
 42
1.0
176
     1
 92
        0
176
     1
 66
   257
176
     1
 43
1.0
176
     1
 76
     1
176
     1
 77
     6
176
     1
 78
     2
176
     1
 67
     7
176
     1
 79
     5
176
     1
170
     0
176
     1
171
     0
176
     1
290
     0
176
     1
 93
        1
176
     1
 44
0.0
176
     1
173
     0
176
     1
  0
VISUALSTYLE
  5
32
102
{ACAD_REACTORS
330
2A
102
}
102
{ACAD_XDICTIONARY
360
48A
102
}
330
2A
100
AcDbVisualStyle
  2
Basic
 70
     7
177
     2
291
     1
 71
     1
176
     1
 72
     0
176
     1
 73
     1
176
     1
 90
        0
176
     1
 40
0.6
176
     1
 41
30.0
176
     1
 62
     5
 63
     7
421
 16777215
176
     1
 74
     0
176
     1
 91
        4
176
     1
 64
     7
176
     1
 65
   257
176
     1
 75
     1
176
     1
175
     1
176
     1
 42
1.0
176
     1
 92
        8
176
     1
 66
     7
176
     1
 43
1.0
176
     1
 76
     1
176
     1
 77
     6
176
     1
 78
     2
176
     1
 67
     7
176
     1
 79
     5
176
     1
170
     0
176
     1
171
     0
176
     1
290
     0
176
     1
 93
        1
176
     1
 44
0.0
176
     1
173
     0
176
     1
  0
VISUALSTYLE
  5
36
102
{ACAD_REACTORS
330
2A
102
}
102
{ACAD_XDICTIONARY
360
492
102
}
330
2A
100
AcDbVisualStyle
  2
Brighten
 70
    12
177
     2
291
     1
 71
     2
176
     1
 72
     2
176
     1
 73
     0
176
     1
 90
        0
176
     1
 40
0.6
176
     1
 41
30.0
176
     1
 62
     5
 63
     7
421
 16777215
176
     1
 74
     1
176
     1
 91
        4
176
     1
 64
     7
176
     1
 65
   257
176
     1
 75
     1
176
     1
175
     1
176
     1
 42
1.0
176
     1
 92
        8
176
     1
 66
     7
176
     1
 43
1.0
176
     1
 76
     1
176
     1
 77
     6
176
     1
 78
     2
176
     1
 67
     7
176
     1
 79
     5
176
     1
170
     0
176
     1
171
     0
176
     1
290
     0
176
     1
 93
        1
176
     1
 44
50.0
176
     1
173
     0
176
     1
  0
VISUALSTYLE
  5
3A
102
{ACAD_REACTORS
330
2A
102
}
102
{ACAD_XDICTIONARY
360
49A
102
}
330
2A
100
AcDbVisualStyle
  2
ColorChange
 70
    16
177
     2
291
     1
 71
     2
176
     1
 72
     2
176
     1
 73
     3
176
     1
 90
        0
176
     1
 40
0.6
176
     1
 41
30.0
176
     1
 62
     5
 63
     8
421
  8421504
176
     1
 74
     1
176
     1
 91
        4
176
     1
 64
     7
176
     1
 65
   257
176
     1
 75
     1
176
     1
175
     1
176
     1
 42
1.0
176
     1
 92
        8
176
     1
 66
     8
424
  8421504
176
     1
 43
1.0
176
     1
 76
     1
176
     1
 77
     6
176
     1
 78
     2
176
     1
 67
     7
176
     1
 79
     5
176
     1
170
     0
176
     1
171
     0
176
     1
290
     0
176
     1
 93
        1
176
     1
 44
0.0
176
     1
173
     0
176
     1
  0
VISUALSTYLE
  5
34
102
{ACAD_REACTORS
330
2A
102
}
102
{ACAD_XDICTIONARY
360
48E
102
}
330
2A
100
AcDbVisualStyle
  2
Conceptual
 70
     9
177
     2
291
     0
 71
     3
176
     1
 72
     2
176
     1
 73
     0
176
     1
 90
        0
176
     1
 40
0.6
176
     1
 41
30.0
176
     1
 62
     5
 63
     7
421
 16777215
176
     1
 74
     2
176
     1
 91
        2
176
     1
 64
     7
176
     1
 65
   257
176
     1
 75
     1
176
     1
175
     1
176
     1
 42
179.0
176
     1
 92
        8
176
     1
 66
     7
176
     1
 43
1.0
176
     1
 76
     1
176
     1
 77
     6
176
     1
 78
     2
176
     1
 67
     7
176
     1
 79
     3
176
     1
170
     0
176
     1
171
     0
176
     1
290
     0
176
     1
 93
        1
176
     1
 44
0.0
176
     1
173
     0
176
     1
  0
VISUALSTYLE
  5
35
102
{ACAD_REACTORS
330
2A
102
}
102
{ACAD_XDICTIONARY
360
490
102
}
330
2A
100
AcDbVisualStyle
  2
Dim
 70
    11
177
     2
291
     1
 71
     2
176
     1
 72
     2
176
     1
 73
     0
176
     1
 90
        0
176
     1
 40
0.6
176
     1
 41
30.0
176
     1
 62
     5
 63
     7
421
 16777215
176
     1
 74
     1
176
     1
 91
        4
176
     1
 64
     7
176
     1
 65
   257
176
     1
 75
     1
176
     1
175
     1
176
     1
 42
1.0
176
     1
 92
        8
176
     1
 66
     7
176
     1
 43
1.0
176
     1
 76
     1
176
     1
 77
     6
176
     1
 78
     2
176
     1
 67
     7
176
     1
 79
     5
176
     1
170
     0
176
     1
171
     0
176
     1
290
     0
176
     1
 93
        1
176
     1
 44
-50.0
176
     1
173
     0
176
     1
  0
VISUALSTYLE
  5
3D
102
{ACAD_REACTORS
330
2A
102
}
102
{ACAD_XDICTIONARY
360
4A0
102
}
330
2A
100
AcDbVisualStyle
  2
EdgeColorOff
 70
    22
177
     2
291
     1
 71
     2
176
     0
 72
     2
176
     0
 73
     0
176
     0
 90
        0
176
     0
 40
0.6
176
     0
 41
30.0
176
     0
 62
     5
 63
     7
421
 16777215
176
     0
 74
     1
176
     0
 91
        4
176
     0
 64
     7
176
     0
 65
   257
176
     0
 75
     1
176
     0
175
     1
176
     0
 42
1.0
176
     0
 92
        8
176
     2
 66
     7
176
     0
 43
1.0
176
     0
 76
     1
176
     0
 77
     6
176
     0
 78
     2
176
     0
 67
     7
176
     0
 79
     5
176
     0
170
     0
176
     0
171
     0
176
     0
290
     0
176
     0
 93
        1
176
     0
 44
0.0
176
     0
173
     0
176
     0
  0
VISUALSTYLE
  5
39
102
{ACAD_REACTORS
330
2A
102
}
102
{ACAD_XDICTIONARY
360
498
102
}
330
2A
100
AcDbVisualStyle
  2
Facepattern
 70
    15
177
     2
291
     1
 71
     2
176
     1
 72
     2
176
     1
 73
     0
176
     1
 90
        0
176
     1
 40
0.6
176
     1
 41
30.0
176
     1
 62
     5
 63
     7
421
 16777215
176
     1
 74
     1
176
     1
 91
        4
176
     1
 64
     7
176
     1
 65
   257
176
     1
 75
     1
176
     1
175
     1
176
     1
 42
1.0
176
     1
 92
        8
176
     1
 66
     7
176
     1
 43
1.0
176
     1
 76
     1
176
     1
 77
     6
176
     1
 78
     2
176
     1
 67
     7
176
     1
 79
     5
176
     1
170
     0
176
     1
171
     0
176
     1
290
     0
176
     1
 93
        1
176
     1
 44
0.0
176
     1
173
     0
176
     1
  0
VISUALSTYLE
  5
2B
102
{ACAD_REACTORS
330
2A
102
}
102
{ACAD_XDICTIONARY
360
47C
102
}
330
2A
100
AcDbVisualStyle
  2
Flat
 70
     0
177
     2
291
     1
 71
     2
176
     1
 72
     1
176
     1
 73
     1
176
     1
 90
        2
176
     1
 40
0.6
176
     1
 41
30.0
176
     1
 62
     5
 63
     7
421
 16777215
176
     1
 74
     0
176
     1
 91
        0
176
     1
 64
     7
176
     1
 65
   257
176
     1
 75
     1
176
     1
175
     1
176
     1
 42
1.0
176
     1
 92
        8
176
     1
 66
     7
176
     1
 43
1.0
176
     1
 76
     1
176
     1
 77
     6
176
     1
 78
     2
176
     1
 67
     7
176
     1
 79
     5
176
     1
170
     0
176
     1
171
     0
176
     1
290
     0
176
     1
 93
       13
176
     1
 44
0.0
176
     1
173
     0
176
     1
  0
VISUALSTYLE
  5
2C
102
{ACAD_REACTORS
330
2A
102
}
102
{ACAD_XDICTIONARY
360
47E
102
}
330
2A
100
AcDbVisualStyle
  2
FlatWithEdges
 70
     1
177
     2
291
     1
 71
     2
176
     1
 72
     1
176
     1
 73
     1
176
     1
 90
        2
176
     1
 40
0.6
176
     1
 41
30.0
176
     1
 62
     5
 63
     7
421
 16777215
176
     1
 74
     1
176
     1
 91
        0
176
     1
 64
     7
176
     1
 65
   257
176
     1
 75
     1
176
     1
175
     1
176
     1
 42
1.0
176
     1
 92
        0
176
     1
 66
   257
176
     1
 43
1.0
176
     1
 76
     1
176
     1
 77
     6
176
     1
 78
     2
176
     1
 67
     7
176
     1
 79
     5
176
     1
170
     0
176
     1
171
     0
176
     1
290
     0
176
     1
 93
       13
176
     1
 44
0.0
176
     1
173
     0
176
     1
  0
VISUALSTYLE
  5
2D
102
{ACAD_REACTORS
330
2A
102
}
102
{ACAD_XDICTIONARY
360
480
102
}
330
2A
100
AcDbVisualStyle
  2
Gouraud
 70
     2
177
     2
291
     1
 71
     2
176
     1
 72
     2
176
     1
 73
     1
176
     1
 90
        2
176
     1
 40
0.6
176
     1
 41
30.0
176
     1
 62
     5
 63
     7
421
 16777215
176
     1
 74
     0
176
     1
 91
        0
176
     1
 64
     7
176
     1
 65
   257
176
     1
 75
     1
176
     1
175
     1
176
     1
 42
1.0
176
     1
 92
        0
176
     1
 66
     7
176
     1
 43
1.0
176
     1
 76
     1
176
     1
 77
     6
176
     1
 78
     2
176
     1
 67
     7
176
     1
 79
     5
176
     1
170
     0
176
     1
171
     0
176
     1
290
     0
176
     1
 93
       13
176
     1
 44
0.0
176
     1
173
     0
176
     1
  0
VISUALSTYLE
  5
2E
102
{ACAD_REACTORS
330
2A
102
}
102
{ACAD_XDICTIONARY
360
482
102
}
330
2A
100
AcDbVisualStyle
  2
GouraudWithEdges
 70
     3
177
     2
291
     1
 71
     2
176
     1
 72
     2
176
     1
 73
     1
176
     1
 90
        2
176
     1
 40
0.6
176
     1
 41
30.0
176
     1
 62
     5
 63
     7
421
 16777215
176
     1
 74
     1
176
     1
 91
        0
176
     1
 64
     7
176
     1
 65
   257
176
     1
 75
     1
176
     1
175
     1
176
     1
 42
1.0
176
     1
 92
        0
176
     1
 66
   257
176
     1
 43
1.0
176
     1
 76
     1
176
     1
 77
     6
176
     1
 78
     2
176
     1
 67
     7
176
     1
 79
     5
176
     1
170
     0
176
     1
171
     0
176
     1
290
     0
176
     1
 93
       13
176
     1
 44
0.0
176
     1
173
     0
176
     1
  0
VISUALSTYLE
  5
31
102
{ACAD_REACTORS
330
2A
102
}
102
{ACAD_XDICTIONARY
360
488
102
}
330
2A
100
AcDbVisualStyle
  2
Hidden
 70
     6
177
     2
291
     0
 71
     1
176
     1
 72
     2
176
     1
 73
     2
176
     1
 90
        0
176
     1
 40
0.6
176
     1
 41
30.0
176
     1
 62
     5
 63
     7
421
 16777215
176
     1
 74
     2
176
     1
 91
        2
176
     1
 64
     7
176
     1
 65
   257
176
     1
 75
     2
176
     1
175
     1
176
     1
 42
40.0
176
     1
 92
        0
176
     1
 66
   257
176
     1
 43
1.0
176
     1
 76
     1
176
     1
 77
     6
176
     1
 78
     2
176
     1
 67
     7
176
     1
 79
     3
176
     1
170
     0
176
     1
171
     0
176
     1
290
     0
176
     1
 93
        1
176
     1
 44
0.0
176
     1
173
     0
176
     1
  0
VISUALSTYLE
  5
3B
102
{ACAD_REACTORS
330
2A
102
}
102
{ACAD_XDICTIONARY
360
49C
102
}
330
2A
100
AcDbVisualStyle
  2
JitterOff
 70
    20
177
     2
291
     1
 71
     2
176
     0
 72
     2
176
     0
 73
     0
176
     0
 90
        0
176
     0
 40
0.6
176
     0
 41
30.0
176
     0
 62
     5
 63
     7
421
 16777215
176
     0
 74
     1
176
     0
 91
        4
176
     0
 64
     7
176
     0
 65
   257
176
     0
 75
     1
176
     0
175
     1
176
     0
 42
1.0
176
     0
 92
       10
176
     2
 66
     7
176
     0
 43
1.0
176
     0
 76
     1
176
     0
 77
     6
176
     0
 78
     2
176
     0
 67
     7
176
     0
 79
     5
176
     0
170
     0
176
     0
171
     0
176
     0
290
     0
176
     0
 93
        1
176
     0
 44
0.0
176
     0
173
     0
176
     0
  0
VISUALSTYLE
  5
38
102
{ACAD_REACTORS
330
2A
102
}
102
{ACAD_XDICTIONARY
360
496
102
}
330
2A
100
AcDbVisualStyle
  2
Linepattern
 70
    14
177
     2
291
     1
 71
     2
176
     1
 72
     2
176
     1
 73
     0
176
     1
 90
        0
176
     1
 40
0.6
176
     1
 41
30.0
176
     1
 62
     5
 63
     7
421
 16777215
176
     1
 74
     1
176
     1
 91
        4
176
     1
 64
     7
176
     1
 65
   257
176
     1
 75
     7
176
     1
175
     7
176
     1
 42
1.0
176
     1
 92
        8
176
     1
 66
     7
176
     1
 43
1.0
176
     1
 76
     1
176
     1
 77
     6
176
     1
 78
     2
176
     1
 67
     7
176
     1
 79
     5
176
     1
170
     0
176
     1
171
     0
176
     1
290
     0
176
     1
 93
        1
176
     1
 44
0.0
176
     1
173
     0
176
     1
  0
VISUALSTYLE
  5
3C
102
{ACAD_REACTORS
330
2A
102
}
102
{ACAD_XDICTIONARY
360
49E
102
}
330
2A
100
AcDbVisualStyle
  2
OverhangOff
 70
    21
177
     2
291
     1
 71
     2
176
     0
 72
     2
176
     0
 73
     0
176
     0
 90
        0
176
     0
 40
0.6
176
     0
 41
30.0
176
     0
 62
     5
 63
     7
421
 16777215
176
     0
 74
     1
176
     0
 91
        4
176
     0
 64
     7
176
     0
 65
   257
176
     0
 75
     1
176
     0
175
     1
176
     0
 42
1.0
176
     0
 92
        9
176
     2
 66
     7
176
     0
 43
1.0
176
     0
 76
     1
176
     0
 77
     6
176
     0
 78
     2
176
     0
 67
     7
176
     0
 79
     5
176
     0
170
     0
176
     0
171
     0
176
     0
290
     0
176
     0
 93
        1
176
     0
 44
0.0
176
     0
173
     0
176
     0
  0
VISUALSTYLE
  5
33
102
{ACAD_REACTORS
330
2A
102
}
102
{ACAD_XDICTIONARY
360
48C
102
}
330
2A
100
AcDbVisualStyle
  2
Realistic
 70
     8
177
     2
291
     0
 71
     2
176
     1
 72
     3
176
     1
 73
     0
176
     1
 90
        2
176
     1
 40
0.6
176
     1
 41
30.0
176
     1
 62
     5
 63
     7
421
 16777215
176
     1
 74
     0
176
     1
 91
        0
176
     1
 64
     7
176
     1
 65
   257
176
     1
 75
     1
176
     1
175
     1
176
     1
 42
1.0
176
     1
 92
        8
176
     1
 66
   257
176
     1
 43
1.0
176
     1
 76
     1
176
     1
 77
     6
176
     1
 78
     2
176
     1
 67
     7
176
     1
 79
     3
176
     1
170
     0
176
     1
171
     0
176
     1
290
     0
176
     1
 93
       13
176
     1
 44
0.0
176
     1
173
     0
176
     1
  0
VISUALSTYLE
  5
42
102
{ACAD_REACTORS
330
2A
102
}
102
{ACAD_XDICTIONARY
360
4AA
102
}
330
2A
100
AcDbVisualStyle
  2
Shaded
 70
    27
177
     2
291
     0
 71
     2
176
     1
 72
     2
176
     1
 73
     1
176
     1
 90
        2
176
     1
 40
0.6
176
     1
 41
30.0
176
     1
 62
     5
 63
     7
421
 16777215
176
     1
 74
     0
176
     1
 91
        4
176
     1
 64
     7
176
     1
 65
   257
176
     1
 75
     1
176
     1
175
     1
176
     1
 42
1.0
176
     1
 92
        8
176
     1
 66
   257
176
     1
 43
1.0
176
     1
 76
     1
176
     1
 77
     6
176
     1
 78
     2
176
     1
 67
     8
425
  7895160
176
     1
 79
     3
176
     1
170
     0
176
     1
171
     0
176
     1
290
     0
176
     1
 93
        5
176
     1
 44
0.0
176
     1
173
     0
176
     1
  0
VISUALSTYLE
  5
41
102
{ACAD_REACTORS
330
2A
102
}
102
{ACAD_XDICTIONARY
360
4A8
102
}
330
2A
100
AcDbVisualStyle
  2
Shaded with edges
 70
    26
177
     2
291
     0
 71
     2
176
     1
 72
     2
176
     1
 73
     1
176
     1
 90
        2
176
     1
 40
0.6
176
     1
 41
30.0
176
     1
 62
     5
 63
     7
421
 16777215
176
     1
 74
     1
176
     1
 91
       10
176
     1
 64
     7
176
     1
 65
   257
176
     1
 75
     2
176
     1
175
     1
176
     1
 42
1.0
176
     1
 92
        8
176
     1
 66
   257
176
     1
 43
1.0
176
     1
 76
     1
176
     1
 77
     6
176
     1
 78
     2
176
     1
 67
     7
176
     1
 79
     3
176
     1
170
     0
176
     1
171
     0
176
     1
290
     0
176
     1
 93
        5
176
     1
 44
0.0
176
     1
173
     0
176
     1
  0
VISUALSTYLE
  5
3E
102
{ACAD_REACTORS
330
2A
102
}
102
{ACAD_XDICTIONARY
360
4A2
102
}
330
2A
100
AcDbVisualStyle
  2
Shades of Gray
 70
    23
177
     2
291
     0
 71
     2
176
     1
 72
     2
176
     1
 73
     3
176
     1
 90
        0
176
     1
 40
0.6
176
     1
 41
30.0
176
     1
 62
     5
 63
     7
421
 16777215
176
     1
 74
     2
176
     1
 91
        2
176
     1
 64
     7
176
     1
 65
     7
176
     1
 75
     1
176
     1
175
     1
176
     1
 42
40.0
176
     1
 92
        8
176
     1
 66
     7
176
     1
 43
1.0
176
     1
 76
     1
176
     1
 77
     6
176
     1
 78
     2
176
     1
 67
     7
176
     1
 79
     3
176
     1
170
     0
176
     1
171
     0
176
     1
290
     0
176
     1
 93
        1
176
     1
 44
0.0
176
     1
173
     0
176
     1
  0
VISUALSTYLE
  5
3F
102
{ACAD_REACTORS
330
2A
102
}
102
{ACAD_XDICTIONARY
360
4A4
102
}
330
2A
100
AcDbVisualStyle
  2
Sketchy
 70
    24
177
     2
291
     0
 71
     1
176
     1
 72
     2
176
     1
 73
     2
176
     1
 90
        0
176
     1
 40
0.6
176
     1
 41
30.0
176
     1
 62
     5
 63
     7
421
 16777215
176
     1
 74
     2
176
     1
 91
        2
176
     1
 64
     7
176
     1
 65
     7
176
     1
 75
     1
176
     1
175
     1
176
     1
 42
40.0
176
     1
 92
       11
176
     1
 66
     7
176
     1
 43
1.0
176
     1
 76
     1
176
     1
 77
     6
176
     1
 78
     2
176
     1
 67
     7
176
     1
 79
     6
176
     1
170
     0
176
     1
171
     0
176
     1
290
     0
176
     1
 93
        1
176
     1
 44
0.0
176
     1
173
     0
176
     1
  0
VISUALSTYLE
  5
37
102
{ACAD_REACTORS
330
2A
102
}
102
{ACAD_XDICTIONARY
360
494
102
}
330
2A
100
AcDbVisualStyle
  2
Thicken
 70
    13
177
     2
291
     1
 71
     2
176
     1
 72
     2
176
     1
 73
     0
176
     1
 90
        0
176
     1
 40
0.6
176
     1
 41
30.0
176
     1
 62
     5
 63
     7
421
 16777215
176
     1
 74
     1
176
     1
 91
        4
176
     1
 64
     7
176
     1
 65
   257
176
     1
 75
     1
176
     1
175
     1
176
     1
 42
1.0
176
     1
 92
       12
176
     1
 66
     7
176
     1
 43
1.0
176
     1
 76
     1
176
     1
 77
     6
176
     1
 78
     2
176
     1
 67
     7
176
     1
 79
     5
176
     1
170
     0
176
     1
171
     0
176
     1
290
     0
176
     1
 93
        1
176
     1
 44
0.0
176
     1
173
     0
176
     1
  0
VISUALSTYLE
  5
30
102
{ACAD_REACTORS
330
2A
102
}
102
{ACAD_XDICTIONARY
360
486
102
}
330
2A
100
AcDbVisualStyle
  2
Wireframe
 70
     5
177
     2
291
     0
 71
     0
176
     1
 72
     2
176
     1
 73
     0
176
     1
 90
        0
176
     1
 40
0.6
176
     1
 41
30.0
176
     1
 62
     5
 63
     7
421
 16777215
176
     1
 74
     1
176
     1
 91
        4
176
     1
 64
     7
176
     1
 65
   257
176
     1
 75
     1
176
     1
175
     1
176
     1
 42
1.0
176
     1
 92
        0
176
     1
 66
   257
176
     1
 43
1.0
176
     1
 76
     1
176
     1
 77
     6
176
     1
 78
     2
176
     1
 67
     7
176
     1
 79
     3
176
     1
170
     0
176
     1
171
     0
176
     1
290
     0
176
     1
 93
        1
176
     1
 44
0.0
176
     1
173
     0
176
     1
  0
VISUALSTYLE
  5
40
102
{ACAD_REACTORS
330
2A
102
}
102
{ACAD_XDICTIONARY
360
4A6
102
}
330
2A
100
AcDbVisualStyle
  2
X-Ray
 70
    25
177
     2
291
     0
 71
     2
176
     1
 72
     2
176
     1
 73
     1
176
     1
 90
        1
176
     1
 40
0.5
176
     1
 41
30.0
176
     1
 62
     5
 63
     7
421
 16777215
176
     1
 74
     1
176
     1
 91
        0
176
     1
 64
     7
176
     1
 65
   257
176
     1
 75
     1
176
     1
175
     1
176
     1
 42
1.0
176
     1
 92
        8
176
     1
 66
     7
176
     1
 43
1.0
176
     1
 76
     1
176
     1
 77
     6
176
     1
 78
     2
176
     1
 67
     7
176
     1
 79
     3
176
     1
170
     0
176
     1
171
     0
176
     1
290
     0
176
     1
 93
       13
176
     1
 44
0.0
176
     1
173
     0
176
     1
  0
DICTIONARYVAR
  5
47B
102
{ACAD_REACTORS
330
47A
102
}
330
47A
100
DictionaryVariables
280
     0
  1
1:1
  0
DICTIONARYVAR
  5
4B3
102
{ACAD_REACTORS
330
47A
102
}
330
47A
100
DictionaryVariables
280
     0
  1
3.500000
  0
DICTIONARYVAR
  5
4B4
102
{ACAD_REACTORS
330
47A
102
}
330
47A
100
DictionaryVariables
280
     0
  1
acadiso.lin
  0
DICTIONARYVAR
  5
4B0
102
{ACAD_REACTORS
330
47A
102
}
330
47A
100
DictionaryVariables
280
     0
  1
Standard
  0
DICTIONARYVAR
  5
4AF
102
{ACAD_REACTORS
330
47A
102
}
330
47A
100
DictionaryVariables
280
     0
  1
Standard
  0
DICTIONARY
  5
4AC
330
6A
100
AcDbDictionary
280
     1
281
     1
  3
ACAD_ROUNDTRIP_2008_TABLESTYLE_CELLSTYLEMAP
360
4AD
  0
DICTIONARY
  5
484
330
2F
100
AcDbDictionary
280
     1
281
     1
  3
ACAD_XREC_ROUNDTRIP
360
485
  0
DICTIONARY
  5
48A
330
32
100
AcDbDictionary
280
     1
281
     1
  3
ACAD_XREC_ROUNDTRIP
360
48B
  0
DICTIONARY
  5
492
330
36
100
AcDbDictionary
280
     1
281
     1
  3
ACAD_XREC_ROUNDTRIP
360
493
  0
DICTIONARY
  5
49A
330
3A
100
AcDbDictionary
280
     1
281
     1
  3
ACAD_XREC_ROUNDTRIP
360
49B
  0
DICTIONARY
  5
48E
330
34
100
AcDbDictionary
280
     1
281
     1
  3
ACAD_XREC_ROUNDTRIP
360
48F
  0
DICTIONARY
  5
490
330
35
100
AcDbDictionary
280
     1
281
     1
  3
ACAD_XREC_ROUNDTRIP
360
491
  0
DICTIONARY
  5
4A0
330
3D
100
AcDbDictionary
280
     1
281
     1
  3
ACAD_XREC_ROUNDTRIP
360
4A1
  0
DICTIONARY
  5
498
330
39
100
AcDbDictionary
280
     1
281
     1
  3
ACAD_XREC_ROUNDTRIP
360
499
  0
DICTIONARY
  5
47C
330
2B
100
AcDbDictionary
280
     1
281
     1
  3
ACAD_XREC_ROUNDTRIP
360
47D
  0
DICTIONARY
  5
47E
330
2C
100
AcDbDictionary
280
     1
281
     1
  3
ACAD_XREC_ROUNDTRIP
360
47F
  0
DICTIONARY
  5
480
330
2D
100
AcDbDictionary
280
     1
281
     1
  3
ACAD_XREC_ROUNDTRIP
360
481
  0
DICTIONARY
  5
482
330
2E
100
AcDbDictionary
280
     1
281
     1
  3
ACAD_XREC_ROUNDTRIP
360
483
  0
DICTIONARY
  5
488
330
31
100
AcDbDictionary
280
     1
281
     1
  3
ACAD_XREC_ROUNDTRIP
360
489
  0
DICTIONARY
  5
49C
330
3B
100
AcDbDictionary
280
     1
281
     1
  3
ACAD_XREC_ROUNDTRIP
360
49D
  0
DICTIONARY
  5
496
330
38
100
AcDbDictionary
280
     1
281
     1
  3
ACAD_XREC_ROUNDTRIP
360
497
  0
DICTIONARY
  5
49E
330
3C
100
AcDbDictionary
280
     1
281
     1
  3
ACAD_XREC_ROUNDTRIP
360
49F
  0
DICTIONARY
  5
48C
330
33
100
AcDbDictionary
280
     1
281
     1
  3
ACAD_XREC_ROUNDTRIP
360
48D
  0
DICTIONARY
  5
4AA
330
42
100
AcDbDictionary
280
     1
281
     1
  3
ACAD_XREC_ROUNDTRIP
360
4AB
  0
DICTIONARY
  5
4A8
330
41
100
AcDbDictionary
280
     1
281
     1
  3
ACAD_XREC_ROUNDTRIP
360
4A9
  0
DICTIONARY
  5
4A2
330
3E
100
AcDbDictionary
280
     1
281
     1
  3
ACAD_XREC_ROUNDTRIP
360
4A3
  0
DICTIONARY
  5
4A4
330
3F
100
AcDbDictionary
280
     1
281
     1
  3
ACAD_XREC_ROUNDTRIP
360
4A5
  0
DICTIONARY
  5
494
330
37
100
AcDbDictionary
280
     1
281
     1
  3
ACAD_XREC_ROUNDTRIP
360
495
  0
DICTIONARY
  5
486
330
30
100
AcDbDictionary
280
     1
281
     1
  3
ACAD_XREC_ROUNDTRIP
360
487
  0
DICTIONARY
  5
4A6
330
40
100
AcDbDictionary
280
     1
281
     1
  3
ACAD_XREC_ROUNDTRIP
360
4A7
  0
CELLSTYLEMAP
  5
4AD
102
{ACAD_REACTORS
330
4AC
102
}
330
4AC
100
AcDbCellStyleMap
 90
        3
300
CELLSTYLE
  1
TABLEFORMAT_BEGIN
 90
        5
170
     1
 91
        0
 92
    32768
 62
   257
 93
        1
300
CONTENTFORMAT
  1
CONTENTFORMAT_BEGIN
 90
        0
 91
        0
 92
        4
 93
        0
300

 40
0.0
140
1.0
 94
        5
 62
     0
340
11
144
6.0
309
CONTENTFORMAT_END
171
     1
301
MARGIN
  1
CELLMARGIN_BEGIN
 40
1.5
 40
1.5
 40
1.5
 40
1.5
 40
1.5
 40
1.5
309
CELLMARGIN_END
 94
        6
 95
        1
302
GRIDFORMAT
  1
GRIDFORMAT_BEGIN
 90
        0
 91
        1
 62
     0
 92
       -2
340
14
 93
        0
 40
0.045
309
GRIDFORMAT_END
 95
        2
302
GRIDFORMAT
  1
GRIDFORMAT_BEGIN
 90
        0
 91
        1
 62
     0
 92
       -2
340
14
 93
        0
 40
0.045
309
GRIDFORMAT_END
 95
        4
302
GRIDFORMAT
  1
GRIDFORMAT_BEGIN
 90
        0
 91
        1
 62
     0
 92
       -2
340
14
 93
        0
 40
0.045
309
GRIDFORMAT_END
 95
        8
302
GRIDFORMAT
  1
GRIDFORMAT_BEGIN
 90
        0
 91
        1
 62
     0
 92
       -2
340
14
 93
        0
 40
0.045
309
GRIDFORMAT_END
 95
       16
302
GRIDFORMAT
  1
GRIDFORMAT_BEGIN
 90
        0
 91
        1
 62
     0
 92
       -2
340
14
 93
        0
 40
0.045
309
GRIDFORMAT_END
 95
       32
302
GRIDFORMAT
  1
GRIDFORMAT_BEGIN
 90
        0
 91
        1
 62
     0
 92
       -2
340
14
 93
        0
 40
0.045
309
GRIDFORMAT_END
309
TABLEFORMAT_END
  1
CELLSTYLE_BEGIN
 90
        1
 91
        1
300
_TITLE
309
CELLSTYLE_END
300
CELLSTYLE
  1
TABLEFORMAT_BEGIN
 90
        5
170
     1
 91
        0
 92
        0
 62
   257
 93
        1
300
CONTENTFORMAT
  1
CONTENTFORMAT_BEGIN
 90
        0
 91
        0
 92
        4
 93
        0
300

 40
0.0
140
1.0
 94
        5
 62
     0
340
11
144
4.5
309
CONTENTFORMAT_END
171
     1
301
MARGIN
  1
CELLMARGIN_BEGIN
 40
1.5
 40
1.5
 40
1.5
 40
1.5
 40
1.5
 40
1.5
309
CELLMARGIN_END
 94
        6
 95
        1
302
GRIDFORMAT
  1
GRIDFORMAT_BEGIN
 90
        0
 91
        1
 62
     0
 92
       -2
340
14
 93
        0
 40
0.045
309
GRIDFORMAT_END
 95
        2
302
GRIDFORMAT
  1
GRIDFORMAT_BEGIN
 90
        0
 91
        1
 62
     0
 92
       -2
340
14
 93
        0
 40
0.045
309
GRIDFORMAT_END
 95
        4
302
GRIDFORMAT
  1
GRIDFORMAT_BEGIN
 90
        0
 91
        1
 62
     0
 92
       -2
340
14
 93
        0
 40
0.045
309
GRIDFORMAT_END
 95
        8
302
GRIDFORMAT
  1
GRIDFORMAT_BEGIN
 90
        0
 91
        1
 62
     0
 92
       -2
340
14
 93
        0
 40
0.045
309
GRIDFORMAT_END
 95
       16
302
GRIDFORMAT
  1
GRIDFORMAT_BEGIN
 90
        0
 91
        1
 62
     0
 92
       -2
340
14
 93
        0
 40
0.045
309
GRIDFORMAT_END
 95
       32
302
GRIDFORMAT
  1
GRIDFORMAT_BEGIN
 90
        0
 91
        1
 62
     0
 92
       -2
340
14
 93
        0
 40
0.045
309
GRIDFORMAT_END
309
TABLEFORMAT_END
  1
CELLSTYLE_BEGIN
 90
        2
 91
        1
300
_HEADER
309
CELLSTYLE_END
300
CELLSTYLE
  1
TABLEFORMAT_BEGIN
 90
        5
170
     1
 91
        0
 92
        0
 62
   257
 93
        1
300
CONTENTFORMAT
  1
CONTENTFORMAT_BEGIN
 90
        0
 91
        0
 92
        4
 93
        0
300

 40
0.0
140
1.0
 94
        2
 62
     0
340
11
144
4.5
309
CONTENTFORMAT_END
171
     1
301
MARGIN
  1
CELLMARGIN_BEGIN
 40
1.5
 40
1.5
 40
1.5
 40
1.5
 40
1.5
 40
1.5
309
CELLMARGIN_END
 94
        6
 95
        1
302
GRIDFORMAT
  1
GRIDFORMAT_BEGIN
 90
        0
 91
        1
 62
     0
 92
       -2
340
14
 93
        0
 40
0.045
309
GRIDFORMAT_END
 95
        2
302
GRIDFORMAT
  1
GRIDFORMAT_BEGIN
 90
        0
 91
        1
 62
     0
 92
       -2
340
14
 93
        0
 40
0.045
309
GRIDFORMAT_END
 95
        4
302
GRIDFORMAT
  1
GRIDFORMAT_BEGIN
 90
        0
 91
        1
 62
     0
 92
       -2
340
14
 93
        0
 40
0.045
309
GRIDFORMAT_END
 95
        8
302
GRIDFORMAT
  1
GRIDFORMAT_BEGIN
 90
        0
 91
        1
 62
     0
 92
       -2
340
14
 93
        0
 40
0.045
309
GRIDFORMAT_END
 95
       16
302
GRIDFORMAT
  1
GRIDFORMAT_BEGIN
 90
        0
 91
        1
 62
     0
 92
       -2
340
14
 93
        0
 40
0.045
309
GRIDFORMAT_END
 95
       32
302
GRIDFORMAT
  1
GRIDFORMAT_BEGIN
 90
        0
 91
        1
 62
     0
 92
       -2
340
14
 93
        0
 40
0.045
309
GRIDFORMAT_END
309
TABLEFORMAT_END
  1
CELLSTYLE_BEGIN
 90
        3
 91
        2
300
_DATA
309
CELLSTYLE_END
  0
XRECORD
  5
485
102
{ACAD_REACTORS
330
484
102
}
330
484
100
AcDbXrecord
280
     1
102
RTVSPost2010Prop28
280
     1
102
RTVSPost2010PropOp28
 70
     1
102
RTVSPost2010Prop29
280
     1
102
RTVSPost2010PropOp29
 70
     1
102
RTVSPost2010Prop30
280
     0
102
RTVSPost2010PropOp30
 70
     1
102
RTVSPost2010Prop31
280
     0
102
RTVSPost2010PropOp31
 70
     1
102
RTVSPost2010Prop32
280
     0
102
RTVSPost2010PropOp32
 70
     1
102
RTVSPost2010Prop33
280
     0
102
RTVSPost2010PropOp33
 70
     1
102
RTVSPost2010Prop34
280
     0
102
RTVSPost2010PropOp34
 70
     1
102
RTVSPost2010Prop35
280
     0
102
RTVSPost2010PropOp35
 70
     1
102
RTVSPost2010Prop36
280
     0
102
RTVSPost2010PropOp36
 70
     1
102
RTVSPost2010Prop37
 90
       50
102
RTVSPost2010PropOp37
 70
     1
102
RTVSPost2010Prop38
140
0.0
102
RTVSPost2010PropOp38
 70
     1
102
RTVSPost2010Prop39
140
1.0
102
RTVSPost2010PropOp39
 70
     1
102
RTVSPost2010Prop40
 90
        0
102
RTVSPost2010PropOp40
 70
     1
102
RTVSPost2010Prop41ColorIndex
 90
       18
102
RTVSPost2010Prop41ColorRGB
 90
        0
102
RTVSPost2010PropOp41
 70
     1
102
RTVSPost2010Prop42
 90
       50
102
RTVSPost2010PropOp42
 70
     1
102
RTVSPost2010Prop43
 90
        3
102
RTVSPost2010PropOp43
 70
     1
102
RTVSPost2010Prop44ColorIndex
 90
        5
102
RTVSPost2010Prop44ColorRGB
 90
      255
102
RTVSPost2010PropOp44
 70
     1
102
RTVSPost2010Prop45
280
     0
102
RTVSPost2010PropOp45
 70
     1
102
RTVSPost2010Prop46
 90
       50
102
RTVSPost2010PropOp46
 70
     1
102
RTVSPost2010Prop47
 90
       50
102
RTVSPost2010PropOp47
 70
     1
102
RTVSPost2010Prop48
 90
       50
102
RTVSPost2010PropOp48
 70
     1
102
RTVSPost2010Prop49
280
     0
102
RTVSPost2010PropOp49
 70
     1
102
RTVSPost2010Prop50
 90
       50
102
RTVSPost2010PropOp50
 70
     1
102
RTVSPost2010Prop51ColorIndex
 90
      256
102
RTVSPost2010Prop51ColorRGB
 90
-16777216
102
RTVSPost2010PropOp51
 70
     0
102
RTVSPost2010Prop52
140
1.0
102
RTVSPost2010PropOp52
 70
     0
102
RTVSPost2010Prop53
 90
        2
102
RTVSPost2010PropOp53
 70
     1
102
RTVSPost2010Prop54
  1
strokes_ogs.tif
102
RTVSPost2010PropOp54
 70
     1
102
RTVSPost2010Prop55
280
     0
102
RTVSPost2010PropOp55
 70
     1
102
RTVSPost2010Prop56
140
1.0
102
RTVSPost2010PropOp56
 70
     1
102
RTVSPost2010Prop57
140
1.0
102
RTVSPost2010PropOp57
 70
     1
  0
XRECORD
  5
48B
102
{ACAD_REACTORS
330
48A
102
}
330
48A
100
AcDbXrecord
280
     1
102
RTVSPost2010Prop28
280
     0
102
RTVSPost2010PropOp28
 70
     1
102
RTVSPost2010Prop29
280
     1
102
RTVSPost2010PropOp29
 70
     1
102
RTVSPost2010Prop30
280
     1
102
RTVSPost2010PropOp30
 70
     1
102
RTVSPost2010Prop31
280
     0
102
RTVSPost2010PropOp31
 70
     1
102
RTVSPost2010Prop32
280
     0
102
RTVSPost2010PropOp32
 70
     1
102
RTVSPost2010Prop33
280
     0
102
RTVSPost2010PropOp33
 70
     1
102
RTVSPost2010Prop34
280
     0
102
RTVSPost2010PropOp34
 70
     1
102
RTVSPost2010Prop35
280
     0
102
RTVSPost2010PropOp35
 70
     1
102
RTVSPost2010Prop36
280
     0
102
RTVSPost2010PropOp36
 70
     1
102
RTVSPost2010Prop37
 90
       50
102
RTVSPost2010PropOp37
 70
     1
102
RTVSPost2010Prop38
140
0.0
102
RTVSPost2010PropOp38
 70
     1
102
RTVSPost2010Prop39
140
1.0
102
RTVSPost2010PropOp39
 70
     1
102
RTVSPost2010Prop40
 90
        0
102
RTVSPost2010PropOp40
 70
     1
102
RTVSPost2010Prop41ColorIndex
 90
       18
102
RTVSPost2010Prop41ColorRGB
 90
        0
102
RTVSPost2010PropOp41
 70
     1
102
RTVSPost2010Prop42
 90
       50
102
RTVSPost2010PropOp42
 70
     1
102
RTVSPost2010Prop43
 90
        3
102
RTVSPost2010PropOp43
 70
     1
102
RTVSPost2010Prop44ColorIndex
 90
        5
102
RTVSPost2010Prop44ColorRGB
 90
      255
102
RTVSPost2010PropOp44
 70
     1
102
RTVSPost2010Prop45
280
     0
102
RTVSPost2010PropOp45
 70
     1
102
RTVSPost2010Prop46
 90
       50
102
RTVSPost2010PropOp46
 70
     1
102
RTVSPost2010Prop47
 90
       50
102
RTVSPost2010PropOp47
 70
     1
102
RTVSPost2010Prop48
 90
       50
102
RTVSPost2010PropOp48
 70
     1
102
RTVSPost2010Prop49
280
     0
102
RTVSPost2010PropOp49
 70
     1
102
RTVSPost2010Prop50
 90
       50
102
RTVSPost2010PropOp50
 70
     1
102
RTVSPost2010Prop51ColorIndex
 90
      256
102
RTVSPost2010Prop51ColorRGB
 90
-16777216
102
RTVSPost2010PropOp51
 70
     0
102
RTVSPost2010Prop52
140
1.0
102
RTVSPost2010PropOp52
 70
     0
102
RTVSPost2010Prop53
 90
        2
102
RTVSPost2010PropOp53
 70
     1
102
RTVSPost2010Prop54
  1
strokes_ogs.tif
102
RTVSPost2010PropOp54
 70
     1
102
RTVSPost2010Prop55
280
     0
102
RTVSPost2010PropOp55
 70
     1
102
RTVSPost2010Prop56
140
1.0
102
RTVSPost2010PropOp56
 70
     1
102
RTVSPost2010Prop57
140
1.0
102
RTVSPost2010PropOp57
 70
     1
  0
XRECORD
  5
493
102
{ACAD_REACTORS
330
492
102
}
330
492
100
AcDbXrecord
280
     1
102
RTVSPost2010Prop28
280
     0
102
RTVSPost2010PropOp28
 70
     1
102
RTVSPost2010Prop29
280
     1
102
RTVSPost2010PropOp29
 70
     1
102
RTVSPost2010Prop30
280
     1
102
RTVSPost2010PropOp30
 70
     1
102
RTVSPost2010Prop31
280
     0
102
RTVSPost2010PropOp31
 70
     1
102
RTVSPost2010Prop32
280
     0
102
RTVSPost2010PropOp32
 70
     1
102
RTVSPost2010Prop33
280
     0
102
RTVSPost2010PropOp33
 70
     1
102
RTVSPost2010Prop34
280
     0
102
RTVSPost2010PropOp34
 70
     1
102
RTVSPost2010Prop35
280
     0
102
RTVSPost2010PropOp35
 70
     1
102
RTVSPost2010Prop36
280
     0
102
RTVSPost2010PropOp36
 70
     1
102
RTVSPost2010Prop37
 90
       50
102
RTVSPost2010PropOp37
 70
     1
102
RTVSPost2010Prop38
140
0.0
102
RTVSPost2010PropOp38
 70
     1
102
RTVSPost2010Prop39
140
1.0
102
RTVSPost2010PropOp39
 70
     1
102
RTVSPost2010Prop40
 90
        0
102
RTVSPost2010PropOp40
 70
     1
102
RTVSPost2010Prop41ColorIndex
 90
       18
102
RTVSPost2010Prop41ColorRGB
 90
        0
102
RTVSPost2010PropOp41
 70
     1
102
RTVSPost2010Prop42
 90
       50
102
RTVSPost2010PropOp42
 70
     1
102
RTVSPost2010Prop43
 90
        3
102
RTVSPost2010PropOp43
 70
     1
102
RTVSPost2010Prop44ColorIndex
 90
        5
102
RTVSPost2010Prop44ColorRGB
 90
      255
102
RTVSPost2010PropOp44
 70
     1
102
RTVSPost2010Prop45
280
     0
102
RTVSPost2010PropOp45
 70
     1
102
RTVSPost2010Prop46
 90
       50
102
RTVSPost2010PropOp46
 70
     1
102
RTVSPost2010Prop47
 90
       50
102
RTVSPost2010PropOp47
 70
     1
102
RTVSPost2010Prop48
 90
       50
102
RTVSPost2010PropOp48
 70
     1
102
RTVSPost2010Prop49
280
     0
102
RTVSPost2010PropOp49
 70
     1
102
RTVSPost2010Prop50
 90
       50
102
RTVSPost2010PropOp50
 70
     1
102
RTVSPost2010Prop51ColorIndex
 90
      256
102
RTVSPost2010Prop51ColorRGB
 90
-16777216
102
RTVSPost2010PropOp51
 70
     0
102
RTVSPost2010Prop52
140
1.0
102
RTVSPost2010PropOp52
 70
     0
102
RTVSPost2010Prop53
 90
        2
102
RTVSPost2010PropOp53
 70
     1
102
RTVSPost2010Prop54
  1
strokes_ogs.tif
102
RTVSPost2010PropOp54
 70
     1
102
RTVSPost2010Prop55
280
     0
102
RTVSPost2010PropOp55
 70
     1
102
RTVSPost2010Prop56
140
1.0
102
RTVSPost2010PropOp56
 70
     1
102
RTVSPost2010Prop57
140
1.0
102
RTVSPost2010PropOp57
 70
     1
  0
XRECORD
  5
49B
102
{ACAD_REACTORS
330
49A
102
}
330
49A
100
AcDbXrecord
280
     1
102
RTVSPost2010Prop28
280
     0
102
RTVSPost2010PropOp28
 70
     1
102
RTVSPost2010Prop29
280
     1
102
RTVSPost2010PropOp29
 70
     1
102
RTVSPost2010Prop30
280
     1
102
RTVSPost2010PropOp30
 70
     1
102
RTVSPost2010Prop31
280
     0
102
RTVSPost2010PropOp31
 70
     1
102
RTVSPost2010Prop32
280
     0
102
RTVSPost2010PropOp32
 70
     1
102
RTVSPost2010Prop33
280
     0
102
RTVSPost2010PropOp33
 70
     1
102
RTVSPost2010Prop34
280
     0
102
RTVSPost2010PropOp34
 70
     1
102
RTVSPost2010Prop35
280
     0
102
RTVSPost2010PropOp35
 70
     1
102
RTVSPost2010Prop36
280
     0
102
RTVSPost2010PropOp36
 70
     1
102
RTVSPost2010Prop37
 90
       50
102
RTVSPost2010PropOp37
 70
     1
102
RTVSPost2010Prop38
140
0.0
102
RTVSPost2010PropOp38
 70
     1
102
RTVSPost2010Prop39
140
1.0
102
RTVSPost2010PropOp39
 70
     1
102
RTVSPost2010Prop40
 90
        0
102
RTVSPost2010PropOp40
 70
     1
102
RTVSPost2010Prop41ColorIndex
 90
       18
102
RTVSPost2010Prop41ColorRGB
 90
        0
102
RTVSPost2010PropOp41
 70
     1
102
RTVSPost2010Prop42
 90
       50
102
RTVSPost2010PropOp42
 70
     1
102
RTVSPost2010Prop43
 90
        3
102
RTVSPost2010PropOp43
 70
     1
102
RTVSPost2010Prop44ColorIndex
 90
        5
102
RTVSPost2010Prop44ColorRGB
 90
      255
102
RTVSPost2010PropOp44
 70
     1
102
RTVSPost2010Prop45
280
     0
102
RTVSPost2010PropOp45
 70
     1
102
RTVSPost2010Prop46
 90
       50
102
RTVSPost2010PropOp46
 70
     1
102
RTVSPost2010Prop47
 90
       50
102
RTVSPost2010PropOp47
 70
     1
102
RTVSPost2010Prop48
 90
       50
102
RTVSPost2010PropOp48
 70
     1
102
RTVSPost2010Prop49
280
     0
102
RTVSPost2010PropOp49
 70
     1
102
RTVSPost2010Prop50
 90
       50
102
RTVSPost2010PropOp50
 70
     1
102
RTVSPost2010Prop51ColorIndex
 90
      256
102
RTVSPost2010Prop51ColorRGB
 90
-16777216
102
RTVSPost2010PropOp51
 70
     0
102
RTVSPost2010Prop52
140
1.0
102
RTVSPost2010PropOp52
 70
     0
102
RTVSPost2010Prop53
 90
        2
102
RTVSPost2010PropOp53
 70
     1
102
RTVSPost2010Prop54
  1
strokes_ogs.tif
102
RTVSPost2010PropOp54
 70
     1
102
RTVSPost2010Prop55
280
     0
102
RTVSPost2010PropOp55
 70
     1
102
RTVSPost2010Prop56
140
1.0
102
RTVSPost2010PropOp56
 70
     1
102
RTVSPost2010Prop57
140
1.0
102
RTVSPost2010PropOp57
 70
     1
  0
XRECORD
  5
48F
102
{ACAD_REACTORS
330
48E
102
}
330
48E
100
AcDbXrecord
280
     1
102
RTVSPost2010Prop28
280
     0
102
RTVSPost2010PropOp28
 70
     1
102
RTVSPost2010Prop29
280
     1
102
RTVSPost2010PropOp29
 70
     1
102
RTVSPost2010Prop30
280
     1
102
RTVSPost2010PropOp30
 70
     1
102
RTVSPost2010Prop31
280
     0
102
RTVSPost2010PropOp31
 70
     1
102
RTVSPost2010Prop32
280
     0
102
RTVSPost2010PropOp32
 70
     1
102
RTVSPost2010Prop33
280
     0
102
RTVSPost2010PropOp33
 70
     1
102
RTVSPost2010Prop34
280
     0
102
RTVSPost2010PropOp34
 70
     1
102
RTVSPost2010Prop35
280
     0
102
RTVSPost2010PropOp35
 70
     1
102
RTVSPost2010Prop36
280
     0
102
RTVSPost2010PropOp36
 70
     1
102
RTVSPost2010Prop37
 90
       50
102
RTVSPost2010PropOp37
 70
     1
102
RTVSPost2010Prop38
140
0.0
102
RTVSPost2010PropOp38
 70
     1
102
RTVSPost2010Prop39
140
1.0
102
RTVSPost2010PropOp39
 70
     1
102
RTVSPost2010Prop40
 90
        0
102
RTVSPost2010PropOp40
 70
     1
102
RTVSPost2010Prop41ColorIndex
 90
       18
102
RTVSPost2010Prop41ColorRGB
 90
        0
102
RTVSPost2010PropOp41
 70
     1
102
RTVSPost2010Prop42
 90
       50
102
RTVSPost2010PropOp42
 70
     1
102
RTVSPost2010Prop43
 90
        3
102
RTVSPost2010PropOp43
 70
     1
102
RTVSPost2010Prop44ColorIndex
 90
        5
102
RTVSPost2010Prop44ColorRGB
 90
      255
102
RTVSPost2010PropOp44
 70
     1
102
RTVSPost2010Prop45
280
     0
102
RTVSPost2010PropOp45
 70
     1
102
RTVSPost2010Prop46
 90
       50
102
RTVSPost2010PropOp46
 70
     1
102
RTVSPost2010Prop47
 90
       50
102
RTVSPost2010PropOp47
 70
     1
102
RTVSPost2010Prop48
 90
       50
102
RTVSPost2010PropOp48
 70
     1
102
RTVSPost2010Prop49
280
     0
102
RTVSPost2010PropOp49
 70
     1
102
RTVSPost2010Prop50
 90
       50
102
RTVSPost2010PropOp50
 70
     1
102
RTVSPost2010Prop51ColorIndex
 90
      256
102
RTVSPost2010Prop51ColorRGB
 90
-16777216
102
RTVSPost2010PropOp51
 70
     0
102
RTVSPost2010Prop52
140
1.0
102
RTVSPost2010PropOp52
 70
     0
102
RTVSPost2010Prop53
 90
        2
102
RTVSPost2010PropOp53
 70
     1
102
RTVSPost2010Prop54
  1
strokes_ogs.tif
102
RTVSPost2010PropOp54
 70
     1
102
RTVSPost2010Prop55
280
     0
102
RTVSPost2010PropOp55
 70
     1
102
RTVSPost2010Prop56
140
1.0
102
RTVSPost2010PropOp56
 70
     1
102
RTVSPost2010Prop57
140
1.0
102
RTVSPost2010PropOp57
 70
     1
  0
XRECORD
  5
491
102
{ACAD_REACTORS
330
490
102
}
330
490
100
AcDbXrecord
280
     1
102
RTVSPost2010Prop28
280
     0
102
RTVSPost2010PropOp28
 70
     1
102
RTVSPost2010Prop29
280
     1
102
RTVSPost2010PropOp29
 70
     1
102
RTVSPost2010Prop30
280
     1
102
RTVSPost2010PropOp30
 70
     1
102
RTVSPost2010Prop31
280
     0
102
RTVSPost2010PropOp31
 70
     1
102
RTVSPost2010Prop32
280
     0
102
RTVSPost2010PropOp32
 70
     1
102
RTVSPost2010Prop33
280
     0
102
RTVSPost2010PropOp33
 70
     1
102
RTVSPost2010Prop34
280
     0
102
RTVSPost2010PropOp34
 70
     1
102
RTVSPost2010Prop35
280
     0
102
RTVSPost2010PropOp35
 70
     1
102
RTVSPost2010Prop36
280
     0
102
RTVSPost2010PropOp36
 70
     1
102
RTVSPost2010Prop37
 90
       50
102
RTVSPost2010PropOp37
 70
     1
102
RTVSPost2010Prop38
140
0.0
102
RTVSPost2010PropOp38
 70
     1
102
RTVSPost2010Prop39
140
1.0
102
RTVSPost2010PropOp39
 70
     1
102
RTVSPost2010Prop40
 90
        0
102
RTVSPost2010PropOp40
 70
     1
102
RTVSPost2010Prop41ColorIndex
 90
       18
102
RTVSPost2010Prop41ColorRGB
 90
        0
102
RTVSPost2010PropOp41
 70
     1
102
RTVSPost2010Prop42
 90
       50
102
RTVSPost2010PropOp42
 70
     1
102
RTVSPost2010Prop43
 90
        3
102
RTVSPost2010PropOp43
 70
     1
102
RTVSPost2010Prop44ColorIndex
 90
        5
102
RTVSPost2010Prop44ColorRGB
 90
      255
102
RTVSPost2010PropOp44
 70
     1
102
RTVSPost2010Prop45
280
     0
102
RTVSPost2010PropOp45
 70
     1
102
RTVSPost2010Prop46
 90
       50
102
RTVSPost2010PropOp46
 70
     1
102
RTVSPost2010Prop47
 90
       50
102
RTVSPost2010PropOp47
 70
     1
102
RTVSPost2010Prop48
 90
       50
102
RTVSPost2010PropOp48
 70
     1
102
RTVSPost2010Prop49
280
     0
102
RTVSPost2010PropOp49
 70
     1
102
RTVSPost2010Prop50
 90
       50
102
RTVSPost2010PropOp50
 70
     1
102
RTVSPost2010Prop51ColorIndex
 90
      256
102
RTVSPost2010Prop51ColorRGB
 90
-16777216
102
RTVSPost2010PropOp51
 70
     0
102
RTVSPost2010Prop52
140
1.0
102
RTVSPost2010PropOp52
 70
     0
102
RTVSPost2010Prop53
 90
        2
102
RTVSPost2010PropOp53
 70
     1
102
RTVSPost2010Prop54
  1
strokes_ogs.tif
102
RTVSPost2010PropOp54
 70
     1
102
RTVSPost2010Prop55
280
     0
102
RTVSPost2010PropOp55
 70
     1
102
RTVSPost2010Prop56
140
1.0
102
RTVSPost2010PropOp56
 70
     1
102
RTVSPost2010Prop57
140
1.0
102
RTVSPost2010PropOp57
 70
     1
  0
XRECORD
  5
4A1
102
{ACAD_REACTORS
330
4A0
102
}
330
4A0
100
AcDbXrecord
280
     1
102
RTVSPost2010Prop28
280
     0
102
RTVSPost2010PropOp28
 70
     0
102
RTVSPost2010Prop29
280
     1
102
RTVSPost2010PropOp29
 70
     0
102
RTVSPost2010Prop30
280
     1
102
RTVSPost2010PropOp30
 70
     0
102
RTVSPost2010Prop31
280
     0
102
RTVSPost2010PropOp31
 70
     0
102
RTVSPost2010Prop32
280
     0
102
RTVSPost2010PropOp32
 70
     0
102
RTVSPost2010Prop33
280
     0
102
RTVSPost2010PropOp33
 70
     0
102
RTVSPost2010Prop34
280
     0
102
RTVSPost2010PropOp34
 70
     0
102
RTVSPost2010Prop35
280
     0
102
RTVSPost2010PropOp35
 70
     0
102
RTVSPost2010Prop36
280
     0
102
RTVSPost2010PropOp36
 70
     0
102
RTVSPost2010Prop37
 90
       50
102
RTVSPost2010PropOp37
 70
     0
102
RTVSPost2010Prop38
140
0.0
102
RTVSPost2010PropOp38
 70
     0
102
RTVSPost2010Prop39
140
1.0
102
RTVSPost2010PropOp39
 70
     0
102
RTVSPost2010Prop40
 90
        0
102
RTVSPost2010PropOp40
 70
     0
102
RTVSPost2010Prop41ColorIndex
 90
       18
102
RTVSPost2010Prop41ColorRGB
 90
        0
102
RTVSPost2010PropOp41
 70
     0
102
RTVSPost2010Prop42
 90
       50
102
RTVSPost2010PropOp42
 70
     0
102
RTVSPost2010Prop43
 90
        3
102
RTVSPost2010PropOp43
 70
     0
102
RTVSPost2010Prop44ColorIndex
 90
        5
102
RTVSPost2010Prop44ColorRGB
 90
      255
102
RTVSPost2010PropOp44
 70
     0
102
RTVSPost2010Prop45
280
     0
102
RTVSPost2010PropOp45
 70
     0
102
RTVSPost2010Prop46
 90
       50
102
RTVSPost2010PropOp46
 70
     0
102
RTVSPost2010Prop47
 90
       50
102
RTVSPost2010PropOp47
 70
     0
102
RTVSPost2010Prop48
 90
       50
102
RTVSPost2010PropOp48
 70
     0
102
RTVSPost2010Prop49
280
     0
102
RTVSPost2010PropOp49
 70
     0
102
RTVSPost2010Prop50
 90
       50
102
RTVSPost2010PropOp50
 70
     0
102
RTVSPost2010Prop51ColorIndex
 90
      256
102
RTVSPost2010Prop51ColorRGB
 90
-16777216
102
RTVSPost2010PropOp51
 70
     0
102
RTVSPost2010Prop52
140
1.0
102
RTVSPost2010PropOp52
 70
     0
102
RTVSPost2010Prop53
 90
        2
102
RTVSPost2010PropOp53
 70
     0
102
RTVSPost2010Prop54
  1
strokes_ogs.tif
102
RTVSPost2010PropOp54
 70
     0
102
RTVSPost2010Prop55
280
     0
102
RTVSPost2010PropOp55
 70
     0
102
RTVSPost2010Prop56
140
1.0
102
RTVSPost2010PropOp56
 70
     0
102
RTVSPost2010Prop57
140
1.0
102
RTVSPost2010PropOp57
 70
     0
  0
XRECORD
  5
499
102
{ACAD_REACTORS
330
498
102
}
330
498
100
AcDbXrecord
280
     1
102
RTVSPost2010Prop28
280
     0
102
RTVSPost2010PropOp28
 70
     1
102
RTVSPost2010Prop29
280
     1
102
RTVSPost2010PropOp29
 70
     1
102
RTVSPost2010Prop30
280
     1
102
RTVSPost2010PropOp30
 70
     1
102
RTVSPost2010Prop31
280
     0
102
RTVSPost2010PropOp31
 70
     1
102
RTVSPost2010Prop32
280
     0
102
RTVSPost2010PropOp32
 70
     1
102
RTVSPost2010Prop33
280
     0
102
RTVSPost2010PropOp33
 70
     1
102
RTVSPost2010Prop34
280
     0
102
RTVSPost2010PropOp34
 70
     1
102
RTVSPost2010Prop35
280
     0
102
RTVSPost2010PropOp35
 70
     1
102
RTVSPost2010Prop36
280
     0
102
RTVSPost2010PropOp36
 70
     1
102
RTVSPost2010Prop37
 90
       50
102
RTVSPost2010PropOp37
 70
     1
102
RTVSPost2010Prop38
140
0.0
102
RTVSPost2010PropOp38
 70
     1
102
RTVSPost2010Prop39
140
1.0
102
RTVSPost2010PropOp39
 70
     1
102
RTVSPost2010Prop40
 90
        0
102
RTVSPost2010PropOp40
 70
     1
102
RTVSPost2010Prop41ColorIndex
 90
       18
102
RTVSPost2010Prop41ColorRGB
 90
        0
102
RTVSPost2010PropOp41
 70
     1
102
RTVSPost2010Prop42
 90
       50
102
RTVSPost2010PropOp42
 70
     1
102
RTVSPost2010Prop43
 90
        3
102
RTVSPost2010PropOp43
 70
     1
102
RTVSPost2010Prop44ColorIndex
 90
        5
102
RTVSPost2010Prop44ColorRGB
 90
      255
102
RTVSPost2010PropOp44
 70
     1
102
RTVSPost2010Prop45
280
     0
102
RTVSPost2010PropOp45
 70
     1
102
RTVSPost2010Prop46
 90
       50
102
RTVSPost2010PropOp46
 70
     1
102
RTVSPost2010Prop47
 90
       50
102
RTVSPost2010PropOp47
 70
     1
102
RTVSPost2010Prop48
 90
       50
102
RTVSPost2010PropOp48
 70
     1
102
RTVSPost2010Prop49
280
     0
102
RTVSPost2010PropOp49
 70
     1
102
RTVSPost2010Prop50
 90
       50
102
RTVSPost2010PropOp50
 70
     1
102
RTVSPost2010Prop51ColorIndex
 90
      256
102
RTVSPost2010Prop51ColorRGB
 90
-16777216
102
RTVSPost2010PropOp51
 70
     0
102
RTVSPost2010Prop52
140
1.0
102
RTVSPost2010PropOp52
 70
     0
102
RTVSPost2010Prop53
 90
        2
102
RTVSPost2010PropOp53
 70
     1
102
RTVSPost2010Prop54
  1
strokes_ogs.tif
102
RTVSPost2010PropOp54
 70
     1
102
RTVSPost2010Prop55
280
     0
102
RTVSPost2010PropOp55
 70
     1
102
RTVSPost2010Prop56
140
1.0
102
RTVSPost2010PropOp56
 70
     1
102
RTVSPost2010Prop57
140
1.0
102
RTVSPost2010PropOp57
 70
     1
  0
XRECORD
  5
47D
102
{ACAD_REACTORS
330
47C
102
}
330
47C
100
AcDbXrecord
280
     1
102
RTVSPost2010Prop28
280
     0
102
RTVSPost2010PropOp28
 70
     1
102
RTVSPost2010Prop29
280
     1
102
RTVSPost2010PropOp29
 70
     1
102
RTVSPost2010Prop30
280
     1
102
RTVSPost2010PropOp30
 70
     1
102
RTVSPost2010Prop31
280
     0
102
RTVSPost2010PropOp31
 70
     1
102
RTVSPost2010Prop32
280
     0
102
RTVSPost2010PropOp32
 70
     1
102
RTVSPost2010Prop33
280
     0
102
RTVSPost2010PropOp33
 70
     1
102
RTVSPost2010Prop34
280
     0
102
RTVSPost2010PropOp34
 70
     1
102
RTVSPost2010Prop35
280
     0
102
RTVSPost2010PropOp35
 70
     1
102
RTVSPost2010Prop36
280
     0
102
RTVSPost2010PropOp36
 70
     1
102
RTVSPost2010Prop37
 90
       50
102
RTVSPost2010PropOp37
 70
     1
102
RTVSPost2010Prop38
140
0.0
102
RTVSPost2010PropOp38
 70
     1
102
RTVSPost2010Prop39
140
1.0
102
RTVSPost2010PropOp39
 70
     1
102
RTVSPost2010Prop40
 90
        0
102
RTVSPost2010PropOp40
 70
     1
102
RTVSPost2010Prop41ColorIndex
 90
       18
102
RTVSPost2010Prop41ColorRGB
 90
        0
102
RTVSPost2010PropOp41
 70
     1
102
RTVSPost2010Prop42
 90
       50
102
RTVSPost2010PropOp42
 70
     1
102
RTVSPost2010Prop43
 90
        3
102
RTVSPost2010PropOp43
 70
     1
102
RTVSPost2010Prop44ColorIndex
 90
        5
102
RTVSPost2010Prop44ColorRGB
 90
      255
102
RTVSPost2010PropOp44
 70
     1
102
RTVSPost2010Prop45
280
     0
102
RTVSPost2010PropOp45
 70
     1
102
RTVSPost2010Prop46
 90
       50
102
RTVSPost2010PropOp46
 70
     1
102
RTVSPost2010Prop47
 90
       50
102
RTVSPost2010PropOp47
 70
     1
102
RTVSPost2010Prop48
 90
       50
102
RTVSPost2010PropOp48
 70
     1
102
RTVSPost2010Prop49
280
     0
102
RTVSPost2010PropOp49
 70
     1
102
RTVSPost2010Prop50
 90
       50
102
RTVSPost2010PropOp50
 70
     1
102
RTVSPost2010Prop51ColorIndex
 90
      256
102
RTVSPost2010Prop51ColorRGB
 90
-16777216
102
RTVSPost2010PropOp51
 70
     0
102
RTVSPost2010Prop52
140
1.0
102
RTVSPost2010PropOp52
 70
     0
102
RTVSPost2010Prop53
 90
        2
102
RTVSPost2010PropOp53
 70
     1
102
RTVSPost2010Prop54
  1
strokes_ogs.tif
102
RTVSPost2010PropOp54
 70
     1
102
RTVSPost2010Prop55
280
     0
102
RTVSPost2010PropOp55
 70
     1
102
RTVSPost2010Prop56
140
1.0
102
RTVSPost2010PropOp56
 70
     1
102
RTVSPost2010Prop57
140
1.0
102
RTVSPost2010PropOp57
 70
     1
  0
XRECORD
  5
47F
102
{ACAD_REACTORS
330
47E
102
}
330
47E
100
AcDbXrecord
280
     1
102
RTVSPost2010Prop28
280
     0
102
RTVSPost2010PropOp28
 70
     1
102
RTVSPost2010Prop29
280
     1
102
RTVSPost2010PropOp29
 70
     1
102
RTVSPost2010Prop30
280
     1
102
RTVSPost2010PropOp30
 70
     1
102
RTVSPost2010Prop31
280
     0
102
RTVSPost2010PropOp31
 70
     1
102
RTVSPost2010Prop32
280
     0
102
RTVSPost2010PropOp32
 70
     1
102
RTVSPost2010Prop33
280
     0
102
RTVSPost2010PropOp33
 70
     1
102
RTVSPost2010Prop34
280
     0
102
RTVSPost2010PropOp34
 70
     1
102
RTVSPost2010Prop35
280
     0
102
RTVSPost2010PropOp35
 70
     1
102
RTVSPost2010Prop36
280
     0
102
RTVSPost2010PropOp36
 70
     1
102
RTVSPost2010Prop37
 90
       50
102
RTVSPost2010PropOp37
 70
     1
102
RTVSPost2010Prop38
140
0.0
102
RTVSPost2010PropOp38
 70
     1
102
RTVSPost2010Prop39
140
1.0
102
RTVSPost2010PropOp39
 70
     1
102
RTVSPost2010Prop40
 90
        0
102
RTVSPost2010PropOp40
 70
     1
102
RTVSPost2010Prop41ColorIndex
 90
       18
102
RTVSPost2010Prop41ColorRGB
 90
        0
102
RTVSPost2010PropOp41
 70
     1
102
RTVSPost2010Prop42
 90
       50
102
RTVSPost2010PropOp42
 70
     1
102
RTVSPost2010Prop43
 90
        3
102
RTVSPost2010PropOp43
 70
     1
102
RTVSPost2010Prop44ColorIndex
 90
        5
102
RTVSPost2010Prop44ColorRGB
 90
      255
102
RTVSPost2010PropOp44
 70
     1
102
RTVSPost2010Prop45
280
     0
102
RTVSPost2010PropOp45
 70
     1
102
RTVSPost2010Prop46
 90
       50
102
RTVSPost2010PropOp46
 70
     1
102
RTVSPost2010Prop47
 90
       50
102
RTVSPost2010PropOp47
 70
     1
102
RTVSPost2010Prop48
 90
       50
102
RTVSPost2010PropOp48
 70
     1
102
RTVSPost2010Prop49
280
     0
102
RTVSPost2010PropOp49
 70
     1
102
RTVSPost2010Prop50
 90
       50
102
RTVSPost2010PropOp50
 70
     1
102
RTVSPost2010Prop51ColorIndex
 90
      256
102
RTVSPost2010Prop51ColorRGB
 90
-16777216
102
RTVSPost2010PropOp51
 70
     0
102
RTVSPost2010Prop52
140
1.0
102
RTVSPost2010PropOp52
 70
     0
102
RTVSPost2010Prop53
 90
        2
102
RTVSPost2010PropOp53
 70
     1
102
RTVSPost2010Prop54
  1
strokes_ogs.tif
102
RTVSPost2010PropOp54
 70
     1
102
RTVSPost2010Prop55
280
     0
102
RTVSPost2010PropOp55
 70
     1
102
RTVSPost2010Prop56
140
1.0
102
RTVSPost2010PropOp56
 70
     1
102
RTVSPost2010Prop57
140
1.0
102
RTVSPost2010PropOp57
 70
     1
  0
XRECORD
  5
481
102
{ACAD_REACTORS
330
480
102
}
330
480
100
AcDbXrecord
280
     1
102
RTVSPost2010Prop28
280
     0
102
RTVSPost2010PropOp28
 70
     1
102
RTVSPost2010Prop29
280
     1
102
RTVSPost2010PropOp29
 70
     1
102
RTVSPost2010Prop30
280
     1
102
RTVSPost2010PropOp30
 70
     1
102
RTVSPost2010Prop31
280
     0
102
RTVSPost2010PropOp31
 70
     1
102
RTVSPost2010Prop32
280
     0
102
RTVSPost2010PropOp32
 70
     1
102
RTVSPost2010Prop33
280
     0
102
RTVSPost2010PropOp33
 70
     1
102
RTVSPost2010Prop34
280
     0
102
RTVSPost2010PropOp34
 70
     1
102
RTVSPost2010Prop35
280
     0
102
RTVSPost2010PropOp35
 70
     1
102
RTVSPost2010Prop36
280
     0
102
RTVSPost2010PropOp36
 70
     1
102
RTVSPost2010Prop37
 90
       50
102
RTVSPost2010PropOp37
 70
     1
102
RTVSPost2010Prop38
140
0.0
102
RTVSPost2010PropOp38
 70
     1
102
RTVSPost2010Prop39
140
1.0
102
RTVSPost2010PropOp39
 70
     1
102
RTVSPost2010Prop40
 90
        0
102
RTVSPost2010PropOp40
 70
     1
102
RTVSPost2010Prop41ColorIndex
 90
       18
102
RTVSPost2010Prop41ColorRGB
 90
        0
102
RTVSPost2010PropOp41
 70
     1
102
RTVSPost2010Prop42
 90
       50
102
RTVSPost2010PropOp42
 70
     1
102
RTVSPost2010Prop43
 90
        3
102
RTVSPost2010PropOp43
 70
     1
102
RTVSPost2010Prop44ColorIndex
 90
        5
102
RTVSPost2010Prop44ColorRGB
 90
      255
102
RTVSPost2010PropOp44
 70
     1
102
RTVSPost2010Prop45
280
     0
102
RTVSPost2010PropOp45
 70
     1
102
RTVSPost2010Prop46
 90
       50
102
RTVSPost2010PropOp46
 70
     1
102
RTVSPost2010Prop47
 90
       50
102
RTVSPost2010PropOp47
 70
     1
102
RTVSPost2010Prop48
 90
       50
102
RTVSPost2010PropOp48
 70
     1
102
RTVSPost2010Prop49
280
     0
102
RTVSPost2010PropOp49
 70
     1
102
RTVSPost2010Prop50
 90
       50
102
RTVSPost2010PropOp50
 70
     1
102
RTVSPost2010Prop51ColorIndex
 90
      256
102
RTVSPost2010Prop51ColorRGB
 90
-16777216
102
RTVSPost2010PropOp51
 70
     0
102
RTVSPost2010Prop52
140
1.0
102
RTVSPost2010PropOp52
 70
     0
102
RTVSPost2010Prop53
 90
        2
102
RTVSPost2010PropOp53
 70
     1
102
RTVSPost2010Prop54
  1
strokes_ogs.tif
102
RTVSPost2010PropOp54
 70
     1
102
RTVSPost2010Prop55
280
     0
102
RTVSPost2010PropOp55
 70
     1
102
RTVSPost2010Prop56
140
1.0
102
RTVSPost2010PropOp56
 70
     1
102
RTVSPost2010Prop57
140
1.0
102
RTVSPost2010PropOp57
 70
     1
  0
XRECORD
  5
483
102
{ACAD_REACTORS
330
482
102
}
330
482
100
AcDbXrecord
280
     1
102
RTVSPost2010Prop28
280
     0
102
RTVSPost2010PropOp28
 70
     1
102
RTVSPost2010Prop29
280
     1
102
RTVSPost2010PropOp29
 70
     1
102
RTVSPost2010Prop30
280
     1
102
RTVSPost2010PropOp30
 70
     1
102
RTVSPost2010Prop31
280
     0
102
RTVSPost2010PropOp31
 70
     1
102
RTVSPost2010Prop32
280
     0
102
RTVSPost2010PropOp32
 70
     1
102
RTVSPost2010Prop33
280
     0
102
RTVSPost2010PropOp33
 70
     1
102
RTVSPost2010Prop34
280
     0
102
RTVSPost2010PropOp34
 70
     1
102
RTVSPost2010Prop35
280
     0
102
RTVSPost2010PropOp35
 70
     1
102
RTVSPost2010Prop36
280
     0
102
RTVSPost2010PropOp36
 70
     1
102
RTVSPost2010Prop37
 90
       50
102
RTVSPost2010PropOp37
 70
     1
102
RTVSPost2010Prop38
140
0.0
102
RTVSPost2010PropOp38
 70
     1
102
RTVSPost2010Prop39
140
1.0
102
RTVSPost2010PropOp39
 70
     1
102
RTVSPost2010Prop40
 90
        0
102
RTVSPost2010PropOp40
 70
     1
102
RTVSPost2010Prop41ColorIndex
 90
       18
102
RTVSPost2010Prop41ColorRGB
 90
        0
102
RTVSPost2010PropOp41
 70
     1
102
RTVSPost2010Prop42
 90
       50
102
RTVSPost2010PropOp42
 70
     1
102
RTVSPost2010Prop43
 90
        3
102
RTVSPost2010PropOp43
 70
     1
102
RTVSPost2010Prop44ColorIndex
 90
        5
102
RTVSPost2010Prop44ColorRGB
 90
      255
102
RTVSPost2010PropOp44
 70
     1
102
RTVSPost2010Prop45
280
     0
102
RTVSPost2010PropOp45
 70
     1
102
RTVSPost2010Prop46
 90
       50
102
RTVSPost2010PropOp46
 70
     1
102
RTVSPost2010Prop47
 90
       50
102
RTVSPost2010PropOp47
 70
     1
102
RTVSPost2010Prop48
 90
       50
102
RTVSPost2010PropOp48
 70
     1
102
RTVSPost2010Prop49
280
     0
102
RTVSPost2010PropOp49
 70
     1
102
RTVSPost2010Prop50
 90
       50
102
RTVSPost2010PropOp50
 70
     1
102
RTVSPost2010Prop51ColorIndex
 90
      256
102
RTVSPost2010Prop51ColorRGB
 90
-16777216
102
RTVSPost2010PropOp51
 70
     0
102
RTVSPost2010Prop52
140
1.0
102
RTVSPost2010PropOp52
 70
     0
102
RTVSPost2010Prop53
 90
        2
102
RTVSPost2010PropOp53
 70
     1
102
RTVSPost2010Prop54
  1
strokes_ogs.tif
102
RTVSPost2010PropOp54
 70
     1
102
RTVSPost2010Prop55
280
     0
102
RTVSPost2010PropOp55
 70
     1
102
RTVSPost2010Prop56
140
1.0
102
RTVSPost2010PropOp56
 70
     1
102
RTVSPost2010Prop57
140
1.0
102
RTVSPost2010PropOp57
 70
     1
  0
XRECORD
  5
489
102
{ACAD_REACTORS
330
488
102
}
330
488
100
AcDbXrecord
280
     1
102
RTVSPost2010Prop28
280
     0
102
RTVSPost2010PropOp28
 70
     1
102
RTVSPost2010Prop29
280
     1
102
RTVSPost2010PropOp29
 70
     1
102
RTVSPost2010Prop30
280
     1
102
RTVSPost2010PropOp30
 70
     1
102
RTVSPost2010Prop31
280
     0
102
RTVSPost2010PropOp31
 70
     1
102
RTVSPost2010Prop32
280
     0
102
RTVSPost2010PropOp32
 70
     1
102
RTVSPost2010Prop33
280
     0
102
RTVSPost2010PropOp33
 70
     1
102
RTVSPost2010Prop34
280
     0
102
RTVSPost2010PropOp34
 70
     1
102
RTVSPost2010Prop35
280
     0
102
RTVSPost2010PropOp35
 70
     1
102
RTVSPost2010Prop36
280
     0
102
RTVSPost2010PropOp36
 70
     1
102
RTVSPost2010Prop37
 90
       50
102
RTVSPost2010PropOp37
 70
     1
102
RTVSPost2010Prop38
140
0.0
102
RTVSPost2010PropOp38
 70
     1
102
RTVSPost2010Prop39
140
1.0
102
RTVSPost2010PropOp39
 70
     1
102
RTVSPost2010Prop40
 90
        0
102
RTVSPost2010PropOp40
 70
     1
102
RTVSPost2010Prop41ColorIndex
 90
       18
102
RTVSPost2010Prop41ColorRGB
 90
        0
102
RTVSPost2010PropOp41
 70
     1
102
RTVSPost2010Prop42
 90
       50
102
RTVSPost2010PropOp42
 70
     1
102
RTVSPost2010Prop43
 90
        3
102
RTVSPost2010PropOp43
 70
     1
102
RTVSPost2010Prop44ColorIndex
 90
        5
102
RTVSPost2010Prop44ColorRGB
 90
      255
102
RTVSPost2010PropOp44
 70
     1
102
RTVSPost2010Prop45
280
     0
102
RTVSPost2010PropOp45
 70
     1
102
RTVSPost2010Prop46
 90
       50
102
RTVSPost2010PropOp46
 70
     1
102
RTVSPost2010Prop47
 90
       50
102
RTVSPost2010PropOp47
 70
     1
102
RTVSPost2010Prop48
 90
       50
102
RTVSPost2010PropOp48
 70
     1
102
RTVSPost2010Prop49
280
     0
102
RTVSPost2010PropOp49
 70
     1
102
RTVSPost2010Prop50
 90
       50
102
RTVSPost2010PropOp50
 70
     1
102
RTVSPost2010Prop51ColorIndex
 90
      256
102
RTVSPost2010Prop51ColorRGB
 90
-16777216
102
RTVSPost2010PropOp51
 70
     0
102
RTVSPost2010Prop52
140
1.0
102
RTVSPost2010PropOp52
 70
     0
102
RTVSPost2010Prop53
 90
        2
102
RTVSPost2010PropOp53
 70
     1
102
RTVSPost2010Prop54
  1
strokes_ogs.tif
102
RTVSPost2010PropOp54
 70
     1
102
RTVSPost2010Prop55
280
     0
102
RTVSPost2010PropOp55
 70
     1
102
RTVSPost2010Prop56
140
1.0
102
RTVSPost2010PropOp56
 70
     1
102
RTVSPost2010Prop57
140
1.0
102
RTVSPost2010PropOp57
 70
     1
  0
XRECORD
  5
49D
102
{ACAD_REACTORS
330
49C
102
}
330
49C
100
AcDbXrecord
280
     1
102
RTVSPost2010Prop28
280
     0
102
RTVSPost2010PropOp28
 70
     0
102
RTVSPost2010Prop29
280
     1
102
RTVSPost2010PropOp29
 70
     0
102
RTVSPost2010Prop30
280
     1
102
RTVSPost2010PropOp30
 70
     0
102
RTVSPost2010Prop31
280
     0
102
RTVSPost2010PropOp31
 70
     0
102
RTVSPost2010Prop32
280
     0
102
RTVSPost2010PropOp32
 70
     0
102
RTVSPost2010Prop33
280
     0
102
RTVSPost2010PropOp33
 70
     0
102
RTVSPost2010Prop34
280
     0
102
RTVSPost2010PropOp34
 70
     0
102
RTVSPost2010Prop35
280
     0
102
RTVSPost2010PropOp35
 70
     0
102
RTVSPost2010Prop36
280
     0
102
RTVSPost2010PropOp36
 70
     0
102
RTVSPost2010Prop37
 90
       50
102
RTVSPost2010PropOp37
 70
     0
102
RTVSPost2010Prop38
140
0.0
102
RTVSPost2010PropOp38
 70
     0
102
RTVSPost2010Prop39
140
1.0
102
RTVSPost2010PropOp39
 70
     0
102
RTVSPost2010Prop40
 90
        0
102
RTVSPost2010PropOp40
 70
     0
102
RTVSPost2010Prop41ColorIndex
 90
       18
102
RTVSPost2010Prop41ColorRGB
 90
        0
102
RTVSPost2010PropOp41
 70
     0
102
RTVSPost2010Prop42
 90
       50
102
RTVSPost2010PropOp42
 70
     0
102
RTVSPost2010Prop43
 90
        3
102
RTVSPost2010PropOp43
 70
     0
102
RTVSPost2010Prop44ColorIndex
 90
        5
102
RTVSPost2010Prop44ColorRGB
 90
      255
102
RTVSPost2010PropOp44
 70
     0
102
RTVSPost2010Prop45
280
     0
102
RTVSPost2010PropOp45
 70
     0
102
RTVSPost2010Prop46
 90
       50
102
RTVSPost2010PropOp46
 70
     0
102
RTVSPost2010Prop47
 90
       50
102
RTVSPost2010PropOp47
 70
     0
102
RTVSPost2010Prop48
 90
       50
102
RTVSPost2010PropOp48
 70
     0
102
RTVSPost2010Prop49
280
     0
102
RTVSPost2010PropOp49
 70
     0
102
RTVSPost2010Prop50
 90
       50
102
RTVSPost2010PropOp50
 70
     0
102
RTVSPost2010Prop51ColorIndex
 90
      256
102
RTVSPost2010Prop51ColorRGB
 90
-16777216
102
RTVSPost2010PropOp51
 70
     0
102
RTVSPost2010Prop52
140
1.0
102
RTVSPost2010PropOp52
 70
     0
102
RTVSPost2010Prop53
 90
        2
102
RTVSPost2010PropOp53
 70
     0
102
RTVSPost2010Prop54
  1
strokes_ogs.tif
102
RTVSPost2010PropOp54
 70
     0
102
RTVSPost2010Prop55
280
     0
102
RTVSPost2010PropOp55
 70
     0
102
RTVSPost2010Prop56
140
1.0
102
RTVSPost2010PropOp56
 70
     0
102
RTVSPost2010Prop57
140
1.0
102
RTVSPost2010PropOp57
 70
     0
  0
XRECORD
  5
497
102
{ACAD_REACTORS
330
496
102
}
330
496
100
AcDbXrecord
280
     1
102
RTVSPost2010Prop28
280
     0
102
RTVSPost2010PropOp28
 70
     1
102
RTVSPost2010Prop29
280
     1
102
RTVSPost2010PropOp29
 70
     1
102
RTVSPost2010Prop30
280
     1
102
RTVSPost2010PropOp30
 70
     1
102
RTVSPost2010Prop31
280
     0
102
RTVSPost2010PropOp31
 70
     1
102
RTVSPost2010Prop32
280
     0
102
RTVSPost2010PropOp32
 70
     1
102
RTVSPost2010Prop33
280
     0
102
RTVSPost2010PropOp33
 70
     1
102
RTVSPost2010Prop34
280
     0
102
RTVSPost2010PropOp34
 70
     1
102
RTVSPost2010Prop35
280
     0
102
RTVSPost2010PropOp35
 70
     1
102
RTVSPost2010Prop36
280
     0
102
RTVSPost2010PropOp36
 70
     1
102
RTVSPost2010Prop37
 90
       50
102
RTVSPost2010PropOp37
 70
     1
102
RTVSPost2010Prop38
140
0.0
102
RTVSPost2010PropOp38
 70
     1
102
RTVSPost2010Prop39
140
1.0
102
RTVSPost2010PropOp39
 70
     1
102
RTVSPost2010Prop40
 90
        0
102
RTVSPost2010PropOp40
 70
     1
102
RTVSPost2010Prop41ColorIndex
 90
       18
102
RTVSPost2010Prop41ColorRGB
 90
        0
102
RTVSPost2010PropOp41
 70
     1
102
RTVSPost2010Prop42
 90
       50
102
RTVSPost2010PropOp42
 70
     1
102
RTVSPost2010Prop43
 90
        3
102
RTVSPost2010PropOp43
 70
     1
102
RTVSPost2010Prop44ColorIndex
 90
        5
102
RTVSPost2010Prop44ColorRGB
 90
      255
102
RTVSPost2010PropOp44
 70
     1
102
RTVSPost2010Prop45
280
     0
102
RTVSPost2010PropOp45
 70
     1
102
RTVSPost2010Prop46
 90
       50
102
RTVSPost2010PropOp46
 70
     1
102
RTVSPost2010Prop47
 90
       50
102
RTVSPost2010PropOp47
 70
     1
102
RTVSPost2010Prop48
 90
       50
102
RTVSPost2010PropOp48
 70
     1
102
RTVSPost2010Prop49
280
     0
102
RTVSPost2010PropOp49
 70
     1
102
RTVSPost2010Prop50
 90
       50
102
RTVSPost2010PropOp50
 70
     1
102
RTVSPost2010Prop51ColorIndex
 90
      256
102
RTVSPost2010Prop51ColorRGB
 90
-16777216
102
RTVSPost2010PropOp51
 70
     0
102
RTVSPost2010Prop52
140
1.0
102
RTVSPost2010PropOp52
 70
     0
102
RTVSPost2010Prop53
 90
        2
102
RTVSPost2010PropOp53
 70
     1
102
RTVSPost2010Prop54
  1
strokes_ogs.tif
102
RTVSPost2010PropOp54
 70
     1
102
RTVSPost2010Prop55
280
     0
102
RTVSPost2010PropOp55
 70
     1
102
RTVSPost2010Prop56
140
1.0
102
RTVSPost2010PropOp56
 70
     1
102
RTVSPost2010Prop57
140
1.0
102
RTVSPost2010PropOp57
 70
     1
  0
XRECORD
  5
49F
102
{ACAD_REACTORS
330
49E
102
}
330
49E
100
AcDbXrecord
280
     1
102
RTVSPost2010Prop28
280
     0
102
RTVSPost2010PropOp28
 70
     0
102
RTVSPost2010Prop29
280
     1
102
RTVSPost2010PropOp29
 70
     0
102
RTVSPost2010Prop30
280
     1
102
RTVSPost2010PropOp30
 70
     0
102
RTVSPost2010Prop31
280
     0
102
RTVSPost2010PropOp31
 70
     0
102
RTVSPost2010Prop32
280
     0
102
RTVSPost2010PropOp32
 70
     0
102
RTVSPost2010Prop33
280
     0
102
RTVSPost2010PropOp33
 70
     0
102
RTVSPost2010Prop34
280
     0
102
RTVSPost2010PropOp34
 70
     0
102
RTVSPost2010Prop35
280
     0
102
RTVSPost2010PropOp35
 70
     0
102
RTVSPost2010Prop36
280
     0
102
RTVSPost2010PropOp36
 70
     0
102
RTVSPost2010Prop37
 90
       50
102
RTVSPost2010PropOp37
 70
     0
102
RTVSPost2010Prop38
140
0.0
102
RTVSPost2010PropOp38
 70
     0
102
RTVSPost2010Prop39
140
1.0
102
RTVSPost2010PropOp39
 70
     0
102
RTVSPost2010Prop40
 90
        0
102
RTVSPost2010PropOp40
 70
     0
102
RTVSPost2010Prop41ColorIndex
 90
       18
102
RTVSPost2010Prop41ColorRGB
 90
        0
102
RTVSPost2010PropOp41
 70
     0
102
RTVSPost2010Prop42
 90
       50
102
RTVSPost2010PropOp42
 70
     0
102
RTVSPost2010Prop43
 90
        3
102
RTVSPost2010PropOp43
 70
     0
102
RTVSPost2010Prop44ColorIndex
 90
        5
102
RTVSPost2010Prop44ColorRGB
 90
      255
102
RTVSPost2010PropOp44
 70
     0
102
RTVSPost2010Prop45
280
     0
102
RTVSPost2010PropOp45
 70
     0
102
RTVSPost2010Prop46
 90
       50
102
RTVSPost2010PropOp46
 70
     0
102
RTVSPost2010Prop47
 90
       50
102
RTVSPost2010PropOp47
 70
     0
102
RTVSPost2010Prop48
 90
       50
102
RTVSPost2010PropOp48
 70
     0
102
RTVSPost2010Prop49
280
     0
102
RTVSPost2010PropOp49
 70
     0
102
RTVSPost2010Prop50
 90
       50
102
RTVSPost2010PropOp50
 70
     0
102
RTVSPost2010Prop51ColorIndex
 90
      256
102
RTVSPost2010Prop51ColorRGB
 90
-16777216
102
RTVSPost2010PropOp51
 70
     0
102
RTVSPost2010Prop52
140
1.0
102
RTVSPost2010PropOp52
 70
     0
102
RTVSPost2010Prop53
 90
        2
102
RTVSPost2010PropOp53
 70
     0
102
RTVSPost2010Prop54
  1
strokes_ogs.tif
102
RTVSPost2010PropOp54
 70
     0
102
RTVSPost2010Prop55
280
     0
102
RTVSPost2010PropOp55
 70
     0
102
RTVSPost2010Prop56
140
1.0
102
RTVSPost2010PropOp56
 70
     0
102
RTVSPost2010Prop57
140
1.0
102
RTVSPost2010PropOp57
 70
     0
  0
XRECORD
  5
48D
102
{ACAD_REACTORS
330
48C
102
}
330
48C
100
AcDbXrecord
280
     1
102
RTVSPost2010Prop28
280
     0
102
RTVSPost2010PropOp28
 70
     1
102
RTVSPost2010Prop29
280
     1
102
RTVSPost2010PropOp29
 70
     1
102
RTVSPost2010Prop30
280
     1
102
RTVSPost2010PropOp30
 70
     1
102
RTVSPost2010Prop31
280
     0
102
RTVSPost2010PropOp31
 70
     1
102
RTVSPost2010Prop32
280
     0
102
RTVSPost2010PropOp32
 70
     1
102
RTVSPost2010Prop33
280
     0
102
RTVSPost2010PropOp33
 70
     1
102
RTVSPost2010Prop34
280
     0
102
RTVSPost2010PropOp34
 70
     1
102
RTVSPost2010Prop35
280
     0
102
RTVSPost2010PropOp35
 70
     1
102
RTVSPost2010Prop36
280
     0
102
RTVSPost2010PropOp36
 70
     1
102
RTVSPost2010Prop37
 90
       50
102
RTVSPost2010PropOp37
 70
     1
102
RTVSPost2010Prop38
140
0.0
102
RTVSPost2010PropOp38
 70
     1
102
RTVSPost2010Prop39
140
1.0
102
RTVSPost2010PropOp39
 70
     1
102
RTVSPost2010Prop40
 90
        0
102
RTVSPost2010PropOp40
 70
     1
102
RTVSPost2010Prop41ColorIndex
 90
       18
102
RTVSPost2010Prop41ColorRGB
 90
        0
102
RTVSPost2010PropOp41
 70
     1
102
RTVSPost2010Prop42
 90
       50
102
RTVSPost2010PropOp42
 70
     1
102
RTVSPost2010Prop43
 90
        3
102
RTVSPost2010PropOp43
 70
     1
102
RTVSPost2010Prop44ColorIndex
 90
        5
102
RTVSPost2010Prop44ColorRGB
 90
      255
102
RTVSPost2010PropOp44
 70
     1
102
RTVSPost2010Prop45
280
     0
102
RTVSPost2010PropOp45
 70
     1
102
RTVSPost2010Prop46
 90
       50
102
RTVSPost2010PropOp46
 70
     1
102
RTVSPost2010Prop47
 90
       50
102
RTVSPost2010PropOp47
 70
     1
102
RTVSPost2010Prop48
 90
       50
102
RTVSPost2010PropOp48
 70
     1
102
RTVSPost2010Prop49
280
     0
102
RTVSPost2010PropOp49
 70
     1
102
RTVSPost2010Prop50
 90
       50
102
RTVSPost2010PropOp50
 70
     1
102
RTVSPost2010Prop51ColorIndex
 90
      256
102
RTVSPost2010Prop51ColorRGB
 90
-16777216
102
RTVSPost2010PropOp51
 70
     0
102
RTVSPost2010Prop52
140
1.0
102
RTVSPost2010PropOp52
 70
     0
102
RTVSPost2010Prop53
 90
        2
102
RTVSPost2010PropOp53
 70
     1
102
RTVSPost2010Prop54
  1
strokes_ogs.tif
102
RTVSPost2010PropOp54
 70
     1
102
RTVSPost2010Prop55
280
     0
102
RTVSPost2010PropOp55
 70
     1
102
RTVSPost2010Prop56
140
1.0
102
RTVSPost2010PropOp56
 70
     1
102
RTVSPost2010Prop57
140
1.0
102
RTVSPost2010PropOp57
 70
     1
  0
XRECORD
  5
4AB
102
{ACAD_REACTORS
330
4AA
102
}
330
4AA
100
AcDbXrecord
280
     1
102
RTVSPost2010Prop28
280
     0
102
RTVSPost2010PropOp28
 70
     1
102
RTVSPost2010Prop29
280
     1
102
RTVSPost2010PropOp29
 70
     1
102
RTVSPost2010Prop30
280
     1
102
RTVSPost2010PropOp30
 70
     1
102
RTVSPost2010Prop31
280
     0
102
RTVSPost2010PropOp31
 70
     1
102
RTVSPost2010Prop32
280
     0
102
RTVSPost2010PropOp32
 70
     1
102
RTVSPost2010Prop33
280
     0
102
RTVSPost2010PropOp33
 70
     1
102
RTVSPost2010Prop34
280
     0
102
RTVSPost2010PropOp34
 70
     1
102
RTVSPost2010Prop35
280
     0
102
RTVSPost2010PropOp35
 70
     1
102
RTVSPost2010Prop36
280
     0
102
RTVSPost2010PropOp36
 70
     1
102
RTVSPost2010Prop37
 90
       50
102
RTVSPost2010PropOp37
 70
     1
102
RTVSPost2010Prop38
140
0.0
102
RTVSPost2010PropOp38
 70
     1
102
RTVSPost2010Prop39
140
1.0
102
RTVSPost2010PropOp39
 70
     1
102
RTVSPost2010Prop40
 90
        0
102
RTVSPost2010PropOp40
 70
     1
102
RTVSPost2010Prop41ColorIndex
 90
       18
102
RTVSPost2010Prop41ColorRGB
 90
        0
102
RTVSPost2010PropOp41
 70
     1
102
RTVSPost2010Prop42
 90
       50
102
RTVSPost2010PropOp42
 70
     1
102
RTVSPost2010Prop43
 90
        3
102
RTVSPost2010PropOp43
 70
     1
102
RTVSPost2010Prop44ColorIndex
 90
        5
102
RTVSPost2010Prop44ColorRGB
 90
      255
102
RTVSPost2010PropOp44
 70
     1
102
RTVSPost2010Prop45
280
     0
102
RTVSPost2010PropOp45
 70
     1
102
RTVSPost2010Prop46
 90
       50
102
RTVSPost2010PropOp46
 70
     1
102
RTVSPost2010Prop47
 90
       50
102
RTVSPost2010PropOp47
 70
     1
102
RTVSPost2010Prop48
 90
       50
102
RTVSPost2010PropOp48
 70
     1
102
RTVSPost2010Prop49
280
     0
102
RTVSPost2010PropOp49
 70
     1
102
RTVSPost2010Prop50
 90
       50
102
RTVSPost2010PropOp50
 70
     1
102
RTVSPost2010Prop51ColorIndex
 90
      256
102
RTVSPost2010Prop51ColorRGB
 90
-16777216
102
RTVSPost2010PropOp51
 70
     0
102
RTVSPost2010Prop52
140
1.0
102
RTVSPost2010PropOp52
 70
     0
102
RTVSPost2010Prop53
 90
        2
102
RTVSPost2010PropOp53
 70
     1
102
RTVSPost2010Prop54
  1
strokes_ogs.tif
102
RTVSPost2010PropOp54
 70
     1
102
RTVSPost2010Prop55
280
     0
102
RTVSPost2010PropOp55
 70
     1
102
RTVSPost2010Prop56
140
1.0
102
RTVSPost2010PropOp56
 70
     1
102
RTVSPost2010Prop57
140
1.0
102
RTVSPost2010PropOp57
 70
     1
  0
XRECORD
  5
4A9
102
{ACAD_REACTORS
330
4A8
102
}
330
4A8
100
AcDbXrecord
280
     1
102
RTVSPost2010Prop28
280
     0
102
RTVSPost2010PropOp28
 70
     1
102
RTVSPost2010Prop29
280
     1
102
RTVSPost2010PropOp29
 70
     1
102
RTVSPost2010Prop30
280
     1
102
RTVSPost2010PropOp30
 70
     1
102
RTVSPost2010Prop31
280
     0
102
RTVSPost2010PropOp31
 70
     1
102
RTVSPost2010Prop32
280
     0
102
RTVSPost2010PropOp32
 70
     1
102
RTVSPost2010Prop33
280
     0
102
RTVSPost2010PropOp33
 70
     1
102
RTVSPost2010Prop34
280
     0
102
RTVSPost2010PropOp34
 70
     1
102
RTVSPost2010Prop35
280
     0
102
RTVSPost2010PropOp35
 70
     1
102
RTVSPost2010Prop36
280
     0
102
RTVSPost2010PropOp36
 70
     1
102
RTVSPost2010Prop37
 90
       50
102
RTVSPost2010PropOp37
 70
     1
102
RTVSPost2010Prop38
140
0.0
102
RTVSPost2010PropOp38
 70
     1
102
RTVSPost2010Prop39
140
1.0
102
RTVSPost2010PropOp39
 70
     1
102
RTVSPost2010Prop40
 90
        0
102
RTVSPost2010PropOp40
 70
     1
102
RTVSPost2010Prop41ColorIndex
 90
       18
102
RTVSPost2010Prop41ColorRGB
 90
        0
102
RTVSPost2010PropOp41
 70
     1
102
RTVSPost2010Prop42
 90
       50
102
RTVSPost2010PropOp42
 70
     1
102
RTVSPost2010Prop43
 90
        3
102
RTVSPost2010PropOp43
 70
     1
102
RTVSPost2010Prop44ColorIndex
 90
        5
102
RTVSPost2010Prop44ColorRGB
 90
      255
102
RTVSPost2010PropOp44
 70
     1
102
RTVSPost2010Prop45
280
     0
102
RTVSPost2010PropOp45
 70
     1
102
RTVSPost2010Prop46
 90
       50
102
RTVSPost2010PropOp46
 70
     1
102
RTVSPost2010Prop47
 90
       50
102
RTVSPost2010PropOp47
 70
     1
102
RTVSPost2010Prop48
 90
       50
102
RTVSPost2010PropOp48
 70
     1
102
RTVSPost2010Prop49
280
     0
102
RTVSPost2010PropOp49
 70
     1
102
RTVSPost2010Prop50
 90
       50
102
RTVSPost2010PropOp50
 70
     1
102
RTVSPost2010Prop51ColorIndex
 90
      256
102
RTVSPost2010Prop51ColorRGB
 90
-16777216
102
RTVSPost2010PropOp51
 70
     0
102
RTVSPost2010Prop52
140
1.0
102
RTVSPost2010PropOp52
 70
     0
102
RTVSPost2010Prop53
 90
        2
102
RTVSPost2010PropOp53
 70
     1
102
RTVSPost2010Prop54
  1
strokes_ogs.tif
102
RTVSPost2010PropOp54
 70
     1
102
RTVSPost2010Prop55
280
     0
102
RTVSPost2010PropOp55
 70
     1
102
RTVSPost2010Prop56
140
1.0
102
RTVSPost2010PropOp56
 70
     1
102
RTVSPost2010Prop57
140
1.0
102
RTVSPost2010PropOp57
 70
     1
  0
XRECORD
  5
4A3
102
{ACAD_REACTORS
330
4A2
102
}
330
4A2
100
AcDbXrecord
280
     1
102
RTVSPost2010Prop28
280
     0
102
RTVSPost2010PropOp28
 70
     1
102
RTVSPost2010Prop29
280
     1
102
RTVSPost2010PropOp29
 70
     1
102
RTVSPost2010Prop30
280
     1
102
RTVSPost2010PropOp30
 70
     1
102
RTVSPost2010Prop31
280
     0
102
RTVSPost2010PropOp31
 70
     1
102
RTVSPost2010Prop32
280
     0
102
RTVSPost2010PropOp32
 70
     1
102
RTVSPost2010Prop33
280
     0
102
RTVSPost2010PropOp33
 70
     1
102
RTVSPost2010Prop34
280
     0
102
RTVSPost2010PropOp34
 70
     1
102
RTVSPost2010Prop35
280
     0
102
RTVSPost2010PropOp35
 70
     1
102
RTVSPost2010Prop36
280
     0
102
RTVSPost2010PropOp36
 70
     1
102
RTVSPost2010Prop37
 90
       50
102
RTVSPost2010PropOp37
 70
     1
102
RTVSPost2010Prop38
140
0.0
102
RTVSPost2010PropOp38
 70
     1
102
RTVSPost2010Prop39
140
1.0
102
RTVSPost2010PropOp39
 70
     1
102
RTVSPost2010Prop40
 90
        0
102
RTVSPost2010PropOp40
 70
     1
102
RTVSPost2010Prop41ColorIndex
 90
       18
102
RTVSPost2010Prop41ColorRGB
 90
        0
102
RTVSPost2010PropOp41
 70
     1
102
RTVSPost2010Prop42
 90
       50
102
RTVSPost2010PropOp42
 70
     1
102
RTVSPost2010Prop43
 90
        3
102
RTVSPost2010PropOp43
 70
     1
102
RTVSPost2010Prop44ColorIndex
 90
        5
102
RTVSPost2010Prop44ColorRGB
 90
      255
102
RTVSPost2010PropOp44
 70
     1
102
RTVSPost2010Prop45
280
     0
102
RTVSPost2010PropOp45
 70
     1
102
RTVSPost2010Prop46
 90
       50
102
RTVSPost2010PropOp46
 70
     1
102
RTVSPost2010Prop47
 90
       50
102
RTVSPost2010PropOp47
 70
     1
102
RTVSPost2010Prop48
 90
       50
102
RTVSPost2010PropOp48
 70
     1
102
RTVSPost2010Prop49
280
     0
102
RTVSPost2010PropOp49
 70
     1
102
RTVSPost2010Prop50
 90
       50
102
RTVSPost2010PropOp50
 70
     1
102
RTVSPost2010Prop51ColorIndex
 90
      256
102
RTVSPost2010Prop51ColorRGB
 90
-16777216
102
RTVSPost2010PropOp51
 70
     0
102
RTVSPost2010Prop52
140
1.0
102
RTVSPost2010PropOp52
 70
     0
102
RTVSPost2010Prop53
 90
        2
102
RTVSPost2010PropOp53
 70
     1
102
RTVSPost2010Prop54
  1
strokes_ogs.tif
102
RTVSPost2010PropOp54
 70
     1
102
RTVSPost2010Prop55
280
     0
102
RTVSPost2010PropOp55
 70
     1
102
RTVSPost2010Prop56
140
1.0
102
RTVSPost2010PropOp56
 70
     1
102
RTVSPost2010Prop57
140
1.0
102
RTVSPost2010PropOp57
 70
     1
  0
XRECORD
  5
4A5
102
{ACAD_REACTORS
330
4A4
102
}
330
4A4
100
AcDbXrecord
280
     1
102
RTVSPost2010Prop28
280
     0
102
RTVSPost2010PropOp28
 70
     1
102
RTVSPost2010Prop29
280
     1
102
RTVSPost2010PropOp29
 70
     1
102
RTVSPost2010Prop30
280
     1
102
RTVSPost2010PropOp30
 70
     1
102
RTVSPost2010Prop31
280
     0
102
RTVSPost2010PropOp31
 70
     1
102
RTVSPost2010Prop32
280
     0
102
RTVSPost2010PropOp32
 70
     1
102
RTVSPost2010Prop33
280
     0
102
RTVSPost2010PropOp33
 70
     1
102
RTVSPost2010Prop34
280
     0
102
RTVSPost2010PropOp34
 70
     1
102
RTVSPost2010Prop35
280
     0
102
RTVSPost2010PropOp35
 70
     1
102
RTVSPost2010Prop36
280
     0
102
RTVSPost2010PropOp36
 70
     1
102
RTVSPost2010Prop37
 90
       50
102
RTVSPost2010PropOp37
 70
     1
102
RTVSPost2010Prop38
140
0.0
102
RTVSPost2010PropOp38
 70
     1
102
RTVSPost2010Prop39
140
1.0
102
RTVSPost2010PropOp39
 70
     1
102
RTVSPost2010Prop40
 90
        0
102
RTVSPost2010PropOp40
 70
     1
102
RTVSPost2010Prop41ColorIndex
 90
       18
102
RTVSPost2010Prop41ColorRGB
 90
        0
102
RTVSPost2010PropOp41
 70
     1
102
RTVSPost2010Prop42
 90
       50
102
RTVSPost2010PropOp42
 70
     1
102
RTVSPost2010Prop43
 90
        3
102
RTVSPost2010PropOp43
 70
     1
102
RTVSPost2010Prop44ColorIndex
 90
        5
102
RTVSPost2010Prop44ColorRGB
 90
      255
102
RTVSPost2010PropOp44
 70
     1
102
RTVSPost2010Prop45
280
     0
102
RTVSPost2010PropOp45
 70
     1
102
RTVSPost2010Prop46
 90
       50
102
RTVSPost2010PropOp46
 70
     1
102
RTVSPost2010Prop47
 90
       50
102
RTVSPost2010PropOp47
 70
     1
102
RTVSPost2010Prop48
 90
       50
102
RTVSPost2010PropOp48
 70
     1
102
RTVSPost2010Prop49
280
     0
102
RTVSPost2010PropOp49
 70
     1
102
RTVSPost2010Prop50
 90
       50
102
RTVSPost2010PropOp50
 70
     1
102
RTVSPost2010Prop51ColorIndex
 90
      256
102
RTVSPost2010Prop51ColorRGB
 90
-16777216
102
RTVSPost2010PropOp51
 70
     0
102
RTVSPost2010Prop52
140
1.0
102
RTVSPost2010PropOp52
 70
     0
102
RTVSPost2010Prop53
 90
        2
102
RTVSPost2010PropOp53
 70
     1
102
RTVSPost2010Prop54
  1
strokes_ogs.tif
102
RTVSPost2010PropOp54
 70
     1
102
RTVSPost2010Prop55
280
     0
102
RTVSPost2010PropOp55
 70
     1
102
RTVSPost2010Prop56
140
1.0
102
RTVSPost2010PropOp56
 70
     1
102
RTVSPost2010Prop57
140
1.0
102
RTVSPost2010PropOp57
 70
     1
  0
XRECORD
  5
495
102
{ACAD_REACTORS
330
494
102
}
330
494
100
AcDbXrecord
280
     1
102
RTVSPost2010Prop28
280
     0
102
RTVSPost2010PropOp28
 70
     1
102
RTVSPost2010Prop29
280
     1
102
RTVSPost2010PropOp29
 70
     1
102
RTVSPost2010Prop30
280
     1
102
RTVSPost2010PropOp30
 70
     1
102
RTVSPost2010Prop31
280
     0
102
RTVSPost2010PropOp31
 70
     1
102
RTVSPost2010Prop32
280
     0
102
RTVSPost2010PropOp32
 70
     1
102
RTVSPost2010Prop33
280
     0
102
RTVSPost2010PropOp33
 70
     1
102
RTVSPost2010Prop34
280
     0
102
RTVSPost2010PropOp34
 70
     1
102
RTVSPost2010Prop35
280
     0
102
RTVSPost2010PropOp35
 70
     1
102
RTVSPost2010Prop36
280
     0
102
RTVSPost2010PropOp36
 70
     1
102
RTVSPost2010Prop37
 90
       50
102
RTVSPost2010PropOp37
 70
     1
102
RTVSPost2010Prop38
140
0.0
102
RTVSPost2010PropOp38
 70
     1
102
RTVSPost2010Prop39
140
1.0
102
RTVSPost2010PropOp39
 70
     1
102
RTVSPost2010Prop40
 90
        0
102
RTVSPost2010PropOp40
 70
     1
102
RTVSPost2010Prop41ColorIndex
 90
       18
102
RTVSPost2010Prop41ColorRGB
 90
        0
102
RTVSPost2010PropOp41
 70
     1
102
RTVSPost2010Prop42
 90
       50
102
RTVSPost2010PropOp42
 70
     1
102
RTVSPost2010Prop43
 90
        3
102
RTVSPost2010PropOp43
 70
     1
102
RTVSPost2010Prop44ColorIndex
 90
        5
102
RTVSPost2010Prop44ColorRGB
 90
      255
102
RTVSPost2010PropOp44
 70
     1
102
RTVSPost2010Prop45
280
     0
102
RTVSPost2010PropOp45
 70
     1
102
RTVSPost2010Prop46
 90
       50
102
RTVSPost2010PropOp46
 70
     1
102
RTVSPost2010Prop47
 90
       50
102
RTVSPost2010PropOp47
 70
     1
102
RTVSPost2010Prop48
 90
       50
102
RTVSPost2010PropOp48
 70
     1
102
RTVSPost2010Prop49
280
     0
102
RTVSPost2010PropOp49
 70
     1
102
RTVSPost2010Prop50
 90
       50
102
RTVSPost2010PropOp50
 70
     1
102
RTVSPost2010Prop51ColorIndex
 90
      256
102
RTVSPost2010Prop51ColorRGB
 90
-16777216
102
RTVSPost2010PropOp51
 70
     0
102
RTVSPost2010Prop52
140
1.0
102
RTVSPost2010PropOp52
 70
     0
102
RTVSPost2010Prop53
 90
        2
102
RTVSPost2010PropOp53
 70
     1
102
RTVSPost2010Prop54
  1
strokes_ogs.tif
102
RTVSPost2010PropOp54
 70
     1
102
RTVSPost2010Prop55
280
     0
102
RTVSPost2010PropOp55
 70
     1
102
RTVSPost2010Prop56
140
1.0
102
RTVSPost2010PropOp56
 70
     1
102
RTVSPost2010Prop57
140
1.0
102
RTVSPost2010PropOp57
 70
     1
  0
XRECORD
  5
487
102
{ACAD_REACTORS
330
486
102
}
330
486
100
AcDbXrecord
280
     1
102
RTVSPost2010Prop28
280
     0
102
RTVSPost2010PropOp28
 70
     1
102
RTVSPost2010Prop29
280
     1
102
RTVSPost2010PropOp29
 70
     1
102
RTVSPost2010Prop30
280
     1
102
RTVSPost2010PropOp30
 70
     1
102
RTVSPost2010Prop31
280
     0
102
RTVSPost2010PropOp31
 70
     1
102
RTVSPost2010Prop32
280
     0
102
RTVSPost2010PropOp32
 70
     1
102
RTVSPost2010Prop33
280
     0
102
RTVSPost2010PropOp33
 70
     1
102
RTVSPost2010Prop34
280
     0
102
RTVSPost2010PropOp34
 70
     1
102
RTVSPost2010Prop35
280
     0
102
RTVSPost2010PropOp35
 70
     1
102
RTVSPost2010Prop36
280
     0
102
RTVSPost2010PropOp36
 70
     1
102
RTVSPost2010Prop37
 90
       50
102
RTVSPost2010PropOp37
 70
     1
102
RTVSPost2010Prop38
140
0.0
102
RTVSPost2010PropOp38
 70
     1
102
RTVSPost2010Prop39
140
1.0
102
RTVSPost2010PropOp39
 70
     1
102
RTVSPost2010Prop40
 90
        0
102
RTVSPost2010PropOp40
 70
     1
102
RTVSPost2010Prop41ColorIndex
 90
       18
102
RTVSPost2010Prop41ColorRGB
 90
        0
102
RTVSPost2010PropOp41
 70
     1
102
RTVSPost2010Prop42
 90
       50
102
RTVSPost2010PropOp42
 70
     1
102
RTVSPost2010Prop43
 90
        3
102
RTVSPost2010PropOp43
 70
     1
102
RTVSPost2010Prop44ColorIndex
 90
        5
102
RTVSPost2010Prop44ColorRGB
 90
      255
102
RTVSPost2010PropOp44
 70
     1
102
RTVSPost2010Prop45
280
     0
102
RTVSPost2010PropOp45
 70
     1
102
RTVSPost2010Prop46
 90
       50
102
RTVSPost2010PropOp46
 70
     1
102
RTVSPost2010Prop47
 90
       50
102
RTVSPost2010PropOp47
 70
     1
102
RTVSPost2010Prop48
 90
       50
102
RTVSPost2010PropOp48
 70
     1
102
RTVSPost2010Prop49
280
     0
102
RTVSPost2010PropOp49
 70
     1
102
RTVSPost2010Prop50
 90
       50
102
RTVSPost2010PropOp50
 70
     1
102
RTVSPost2010Prop51ColorIndex
 90
      256
102
RTVSPost2010Prop51ColorRGB
 90
-16777216
102
RTVSPost2010PropOp51
 70
     0
102
RTVSPost2010Prop52
140
1.0
102
RTVSPost2010PropOp52
 70
     0
102
RTVSPost2010Prop53
 90
        2
102
RTVSPost2010PropOp53
 70
     1
102
RTVSPost2010Prop54
  1
strokes_ogs.tif
102
RTVSPost2010PropOp54
 70
     1
102
RTVSPost2010Prop55
280
     0
102
RTVSPost2010PropOp55
 70
     1
102
RTVSPost2010Prop56
140
1.0
102
RTVSPost2010PropOp56
 70
     1
102
RTVSPost2010Prop57
140
1.0
102
RTVSPost2010PropOp57
 70
     1
  0
XRECORD
  5
4A7
102
{ACAD_REACTORS
330
4A6
102
}
330
4A6
100
AcDbXrecord
280
     1
102
RTVSPost2010Prop28
280
     0
102
RTVSPost2010PropOp28
 70
     1
102
RTVSPost2010Prop29
280
     1
102
RTVSPost2010PropOp29
 70
     1
102
RTVSPost2010Prop30
280
     1
102
RTVSPost2010PropOp30
 70
     1
102
RTVSPost2010Prop31
280
     0
102
RTVSPost2010PropOp31
 70
     1
102
RTVSPost2010Prop32
280
     0
102
RTVSPost2010PropOp32
 70
     1
102
RTVSPost2010Prop33
280
     0
102
RTVSPost2010PropOp33
 70
     1
102
RTVSPost2010Prop34
280
     0
102
RTVSPost2010PropOp34
 70
     1
102
RTVSPost2010Prop35
280
     0
102
RTVSPost2010PropOp35
 70
     1
102
RTVSPost2010Prop36
280
     0
102
RTVSPost2010PropOp36
 70
     1
102
RTVSPost2010Prop37
 90
       50
102
RTVSPost2010PropOp37
 70
     1
102
RTVSPost2010Prop38
140
0.0
102
RTVSPost2010PropOp38
 70
     1
102
RTVSPost2010Prop39
140
1.0
102
RTVSPost2010PropOp39
 70
     1
102
RTVSPost2010Prop40
 90
        0
102
RTVSPost2010PropOp40
 70
     1
102
RTVSPost2010Prop41ColorIndex
 90
       18
102
RTVSPost2010Prop41ColorRGB
 90
        0
102
RTVSPost2010PropOp41
 70
     1
102
RTVSPost2010Prop42
 90
       50
102
RTVSPost2010PropOp42
 70
     1
102
RTVSPost2010Prop43
 90
        3
102
RTVSPost2010PropOp43
 70
     1
102
RTVSPost2010Prop44ColorIndex
 90
        5
102
RTVSPost2010Prop44ColorRGB
 90
      255
102
RTVSPost2010PropOp44
 70
     1
102
RTVSPost2010Prop45
280
     0
102
RTVSPost2010PropOp45
 70
     1
102
RTVSPost2010Prop46
 90
       50
102
RTVSPost2010PropOp46
 70
     1
102
RTVSPost2010Prop47
 90
       50
102
RTVSPost2010PropOp47
 70
     1
102
RTVSPost2010Prop48
 90
       50
102
RTVSPost2010PropOp48
 70
     1
102
RTVSPost2010Prop49
280
     0
102
RTVSPost2010PropOp49
 70
     1
102
RTVSPost2010Prop50
 90
       50
102
RTVSPost2010PropOp50
 70
     1
102
RTVSPost2010Prop51ColorIndex
 90
      256
102
RTVSPost2010Prop51ColorRGB
 90
-16777216
102
RTVSPost2010PropOp51
 70
     0
102
RTVSPost2010Prop52
140
1.0
102
RTVSPost2010PropOp52
 70
     0
102
RTVSPost2010Prop53
 90
        2
102
RTVSPost2010PropOp53
 70
     1
102
RTVSPost2010Prop54
  1
strokes_ogs.tif
102
RTVSPost2010PropOp54
 70
     1
102
RTVSPost2010Prop55
280
     0
102
RTVSPost2010PropOp55
 70
     1
102
RTVSPost2010Prop56
140
1.0
102
RTVSPost2010PropOp56
 70
     1
102
RTVSPost2010Prop57
140
1.0
102
RTVSPost2010PropOp57
 70
     1
  0
ENDSEC
  0
EOF
