  0
SECTION
  2
HEADER
  9
$ACADVER
  1
AC1024
  9
$ACADMAINTVER
 70
     6
  9
$DWGCODEPAGE
  3
ANSI_932
  9
$INSBASE
 10
0.0
 20
0.0
 30
0.0
  9
$EXTMIN
 10
-10500.0
 20
-7425.0
 30
0.0
  9
$EXTMAX
 10
10500.0
 20
7425.0
 30
0.0
  9
$LIMMIN
 10
-10500.0
 20
-7425.0
  9
$LIMMAX
 10
10500.0
 20
7425.0
  9
$ORTHOMODE
 70
     0
  9
$REGENMODE
 70
     1
  9
$FILLMODE
 70
     1
  9
$QTEXTMODE
 70
     0
  9
$MIRRTEXT
 70
     1
  9
$LTSCALE
 40
50.0
  9
$ATTMODE
 70
     1
  9
$TEXTSIZE
 40
2.5
  9
$TRACEWID
 40
1.0
  9
$TEXTSTYLE
  7
Standard
  9
$CLAYER
  8
0
  9
$CELTYPE
  6
ByLayer
  9
$CECOLOR
 62
   256
  9
$CELTSCALE
 40
1.0
  9
$DISPSILH
 70
     0
  9
$DIMSCALE
 40
1.0
  9
$DIMASZ
 40
2.5
  9
$DIMEXO
 40
0.625
  9
$DIMDLI
 40
3.75
  9
$DIMRND
 40
0.0
  9
$DIMDLE
 40
0.0
  9
$DIMEXE
 40
1.25
  9
$DIMTP
 40
0.0
  9
$DIMTM
 40
0.0
  9
$DIMTXT
 40
2.5
  9
$DIMCEN
 40
2.5
  9
$DIMTSZ
 40
0.0
  9
$DIMTOL
 70
     0
  9
$DIMLIM
 70
     0
  9
$DIMTIH
 70
     0
  9
$DIMTOH
 70
     0
  9
$DIMSE1
 70
     0
  9
$DIMSE2
 70
     0
  9
$DIMTAD
 70
     1
  9
$DIMZIN
 70
     8
  9
$DIMBLK
  1

  9
$DIMASO
 70
     1
  9
$DIMSHO
 70
     1
  9
$DIMPOST
  1

  9
$DIMAPOST
  1

  9
$DIMALT
 70
     0
  9
$DIMALTD
 70
     3
  9
$DIMALTF
 40
0.03937007874016
  9
$DIMLFAC
 40
1.0
  9
$DIMTOFL
 70
     1
  9
$DIMTVP
 40
0.0
  9
$DIMTIX
 70
     0
  9
$DIMSOXD
 70
     0
  9
$DIMSAH
 70
     0
  9
$DIMBLK1
  1

  9
$DIMBLK2
  1

  9
$DIMSTYLE
  2
ISO-25
  9
$DIMCLRD
 70
     0
  9
$DIMCLRE
 70
     0
  9
$DIMCLRT
 70
     0
  9
$DIMTFAC
 40
1.0
  9
$DIMGAP
 40
0.625
  9
$DIMJUST
 70
     0
  9
$DIMSD1
 70
     0
  9
$DIMSD2
 70
     0
  9
$DIMTOLJ
 70
     0
  9
$DIMTZIN
 70
     8
  9
$DIMALTZ
 70
     0
  9
$DIMALTTZ
 70
     0
  9
$DIMUPT
 70
     0
  9
$DIMDEC
 70
     2
  9
$DIMTDEC
 70
     2
  9
$DIMALTU
 70
     2
  9
$DIMALTTD
 70
     3
  9
$DIMTXSTY
  7
Standard
  9
$DIMAUNIT
 70
     0
  9
$DIMADEC
 70
     0
  9
$DIMALTRND
 40
0.0
  9
$DIMAZIN
 70
     0
  9
$DIMDSEP
 70
    44
  9
$DIMATFIT
 70
     3
  9
$DIMFRAC
 70
     0
  9
$DIMLDRBLK
  1

  9
$DIMLUNIT
 70
     2
  9
$DIMLWD
 70
    -2
  9
$DIMLWE
 70
    -2
  9
$DIMTMOVE
 70
     0
  9
$DIMFXL
 40
1.0
  9
$DIMFXLON
 70
     0
  9
$DIMJOGANG
 40
0.7853981633974483
  9
$DIMTFILL
 70
     0
  9
$DIMTFILLCLR
 70
     0
  9
$DIMARCSYM
 70
     0
  9
$DIMLTYPE
  6

  9
$DIMLTEX1
  6

  9
$DIMLTEX2
  6

  9
$DIMTXTDIRECTION
 70
     0
  9
$LUNITS
 70
     2
  9
$LUPREC
 70
     4
  9
$SKETCHINC
 40
1.0
  9
$FILLETRAD
 40
10.0
  9
$AUNITS
 70
     0
  9
$AUPREC
 70
     0
  9
$MENU
  1
.
  9
$ELEVATION
 40
0.0
  9
$PELEVATION
 40
0.0
  9
$THICKNESS
 40
0.0
  9
$LIMCHECK
 70
     0
  9
$CHAMFERA
 40
0.0
  9
$CHAMFERB
 40
0.0
  9
$CHAMFERC
 40
0.0
  9
$CHAMFERD
 40
0.0
  9
$SKPOLY
 70
     0
  9
$TDCREATE
 40
2458031.615479167
  9
$TDUCREATE
 40
2458031.240479167
  9
$TDUPDATE
 40
2458031.615479537
  9
$TDUUPDATE
 40
2458031.240479537
  9
$TDINDWG
 40
0.0000000116
  9
$TDUSRTIMER
 40
0.0000000116
  9
$USRTIMER
 70
     1
  9
$ANGBASE
 50
0.0
  9
$ANGDIR
 70
     0
  9
$PDMODE
 70
     0
  9
$PDSIZE
 40
0.0
  9
$PLINEWID
 40
0.0
  9
$SPLFRAME
 70
     0
  9
$SPLINETYPE
 70
     6
  9
$SPLINESEGS
 70
     8
  9
$HANDSEED
  5
318
  9
$SURFTAB1
 70
     6
  9
$SURFTAB2
 70
     6
  9
$SURFTYPE
 70
     6
  9
$SURFU
 70
     6
  9
$SURFV
 70
     6
  9
$UCSBASE
  2

  9
$UCSNAME
  2

  9
$UCSORG
 10
0.0
 20
0.0
 30
0.0
  9
$UCSXDIR
 10
1.0
 20
0.0
 30
0.0
  9
$UCSYDIR
 10
0.0
 20
1.0
 30
0.0
  9
$UCSORTHOREF
  2

  9
$UCSORTHOVIEW
 70
     0
  9
$UCSORGTOP
 10
0.0
 20
0.0
 30
0.0
  9
$UCSORGBOTTOM
 10
0.0
 20
0.0
 30
0.0
  9
$UCSORGLEFT
 10
0.0
 20
0.0
 30
0.0
  9
$UCSORGRIGHT
 10
0.0
 20
0.0
 30
0.0
  9
$UCSORGFRONT
 10
0.0
 20
0.0
 30
0.0
  9
$UCSORGBACK
 10
0.0
 20
0.0
 30
0.0
  9
$PUCSBASE
  2

  9
$PUCSNAME
  2

  9
$PUCSORG
 10
0.0
 20
0.0
 30
0.0
  9
$PUCSXDIR
 10
1.0
 20
0.0
 30
0.0
  9
$PUCSYDIR
 10
0.0
 20
1.0
 30
0.0
  9
$PUCSORTHOREF
  2

  9
$PUCSORTHOVIEW
 70
     0
  9
$PUCSORGTOP
 10
0.0
 20
0.0
 30
0.0
  9
$PUCSORGBOTTOM
 10
0.0
 20
0.0
 30
0.0
  9
$PUCSORGLEFT
 10
0.0
 20
0.0
 30
0.0
  9
$PUCSORGRIGHT
 10
0.0
 20
0.0
 30
0.0
  9
$PUCSORGFRONT
 10
0.0
 20
0.0
 30
0.0
  9
$PUCSORGBACK
 10
0.0
 20
0.0
 30
0.0
  9
$USERI1
 70
     0
  9
$USERI2
 70
     0
  9
$USERI3
 70
     0
  9
$USERI4
 70
     0
  9
$USERI5
 70
     0
  9
$USERR1
 40
0.0
  9
$USERR2
 40
0.0
  9
$USERR3
 40
0.0
  9
$USERR4
 40
0.0
  9
$USERR5
 40
0.0
  9
$WORLDVIEW
 70
     1
  9
$SHADEDGE
 70
     3
  9
$SHADEDIF
 70
    70
  9
$TILEMODE
 70
     1
  9
$MAXACTVP
 70
    64
  9
$PINSBASE
 10
0.0
 20
0.0
 30
0.0
  9
$PLIMCHECK
 70
     0
  9
$PEXTMIN
 10
1.000000000000000E+20
 20
1.000000000000000E+20
 30
1.000000000000000E+20
  9
$PEXTMAX
 10
-1.000000000000000E+20
 20
-1.000000000000000E+20
 30
-1.000000000000000E+20
  9
$PLIMMIN
 10
0.0
 20
0.0
  9
$PLIMMAX
 10
420.0
 20
297.0
  9
$UNITMODE
 70
     0
  9
$VISRETAIN
 70
     1
  9
$PLINEGEN
 70
     0
  9
$PSLTSCALE
 70
     1
  9
$TREEDEPTH
 70
  3020
  9
$CMLSTYLE
  2
Standard
  9
$CMLJUST
 70
     0
  9
$CMLSCALE
 40
20.0
  9
$PROXYGRAPHICS
 70
     1
  9
$MEASUREMENT
 70
     1
  9
$CELWEIGHT
370
    -1
  9
$ENDCAPS
280
     0
  9
$JOINSTYLE
280
     0
  9
$LWDISPLAY
290
     0
  9
$INSUNITS
 70
     4
  9
$HYPERLINKBASE
  1

  9
$STYLESHEET
  1

  9
$XEDIT
290
     1
  9
$CEPSNTYPE
380
     0
  9
$PSTYLEMODE
290
     1
  9
$FINGERPRINTGUID
  2
{73013DAB-F03C-4A18-95E6-11896C9D3140}
  9
$VERSIONGUID
  2
{FAEB1C32-E019-11D5-929B-00C0DF256EC4}
  9
$EXTNAMES
290
     1
  9
$PSVPSCALE
 40
0.0
  9
$OLESTARTUP
290
     0
  9
$SORTENTS
280
   127
  9
$INDEXCTL
280
     0
  9
$HIDETEXT
280
     1
  9
$XCLIPFRAME
280
     2
  9
$HALOGAP
280
     0
  9
$OBSCOLOR
 70
   257
  9
$OBSLTYPE
280
     0
  9
$INTERSECTIONDISPLAY
280
     0
  9
$INTERSECTIONCOLOR
 70
   257
  9
$DIMASSOC
280
     2
  9
$PROJECTNAME
  1

  9
$CAMERADISPLAY
290
     0
  9
$LENSLENGTH
 40
50.0
  9
$CAMERAHEIGHT
 40
0.0
  9
$STEPSPERSEC
 40
2.0
  9
$STEPSIZE
 40
6.0
  9
$3DDWFPREC
 40
2.0
  9
$PSOLWIDTH
 40
5.0
  9
$PSOLHEIGHT
 40
80.0
  9
$LOFTANG1
 40
1.570796326794897
  9
$LOFTANG2
 40
1.570796326794897
  9
$LOFTMAG1
 40
0.0
  9
$LOFTMAG2
 40
0.0
  9
$LOFTPARAM
 70
     7
  9
$LOFTNORMALS
280
     1
  9
$LATITUDE
 40
37.795
  9
$LONGITUDE
 40
-122.394
  9
$NORTHDIRECTION
 40
0.0
  9
$TIMEZONE
 70
 -8000
  9
$LIGHTGLYPHDISPLAY
280
     1
  9
$TILEMODELIGHTSYNCH
280
     1
  9
$CMATERIAL
347
44
  9
$SOLIDHIST
280
     0
  9
$SHOWHIST
280
     1
  9
$DWFFRAME
280
     2
  9
$DGNFRAME
280
     2
  9
$REALWORLDSCALE
290
     1
  9
$INTERFERECOLOR
 62
   256
  9
$CSHADOW
280
     0
  9
$SHADOWPLANELOCATION
 40
0.0
  0
ENDSEC
  0
SECTION
  2
CLASSES
  0
CLASS
  1
ACDBDICTIONARYWDFLT
  2
AcDbDictionaryWithDefault
  3
ObjectDBX Classes
 90
        0
 91
        4
280
     0
281
     0
  0
CLASS
  1
VISUALSTYLE
  2
AcDbVisualStyle
  3
ObjectDBX Classes
 90
     4095
 91
        4
280
     0
281
     0
  0
CLASS
  1
MATERIAL
  2
AcDbMaterial
  3
ObjectDBX Classes
 90
     1153
 91
        4
280
     0
281
     0
  0
CLASS
  1
SCALE
  2
AcDbScale
  3
ObjectDBX Classes
 90
     1153
 91
        4
280
     0
281
     0
  0
CLASS
  1
TABLESTYLE
  2
AcDbTableStyle
  3
ObjectDBX Classes
 90
     4095
 91
        4
280
     0
281
     0
  0
CLASS
  1
MLEADERSTYLE
  2
AcDbMLeaderStyle
  3
ACDB_MLEADERSTYLE_CLASS
 90
     4095
 91
        4
280
     0
281
     0
  0
CLASS
  1
SUN
  2
AcDbSun
  3
SCENEOE
 90
     1153
 91
        4
280
     0
281
     0
  0
CLASS
  1
DICTIONARYVAR
  2
AcDbDictionaryVar
  3
ObjectDBX Classes
 90
        0
 91
        4
280
     0
281
     0
  0
CLASS
  1
CELLSTYLEMAP
  2
AcDbCellStyleMap
  3
ObjectDBX Classes
 90
     1152
 91
        4
280
     0
281
     0
  0
ENDSEC
  0
SECTION
  2
TABLES
  0
TABLE
  2
VPORT
  5
8
330
0
100
AcDbSymbolTable
 70
     1
  0
VPORT
  5
29
330
8
100
AcDbSymbolTableRecord
100
AcDbViewportTableRecord
  2
*Active
 70
     0
 10
0.0
 20
0.0
 11
1.0
 21
1.0
 12
0.0
 22
0.0
 13
0.0
 23
0.0
 14
10.0
 24
10.0
 15
10.0
 25
10.0
 16
0.0
 26
0.0
 36
1.0
 17
0.0
 27
0.0
 37
0.0
 40
16335.0
 41
1.414141414141414
 42
50.0
 43
0.0
 44
0.0
 50
0.0
 51
0.0
 71
     0
 72
 10000
 73
     1
 74
     3
 75
     0
 76
     0
 77
     0
 78
     0
281
     0
 65
     1
110
0.0
120
0.0
130
0.0
111
1.0
121
0.0
131
0.0
112
0.0
122
1.0
132
0.0
 79
     0
146
0.0
348
2F
 60
     3
 61
     5
292
     1
282
     1
141
0.0
142
0.0
 63
   250
361
6D
  0
ENDTAB
  0
TABLE
  2
LTYPE
  5
5
330
0
100
AcDbSymbolTable
 70
     2
  0
LTYPE
  5
14
330
5
100
AcDbSymbolTableRecord
100
AcDbLinetypeTableRecord
  2
ByBlock
 70
     0
  3

 72
    65
 73
     0
 40
0.0
  0
LTYPE
  5
15
330
5
100
AcDbSymbolTableRecord
100
AcDbLinetypeTableRecord
  2
ByLayer
 70
     0
  3

 72
    65
 73
     0
 40
0.0
  0
LTYPE
  5
16
330
5
100
AcDbSymbolTableRecord
100
AcDbLinetypeTableRecord
  2
Continuous
 70
     0
  3
Solid line
 72
    65
 73
     0
 40
0.0
  0
LTYPE
  5
6F
330
5
100
AcDbSymbolTableRecord
100
AcDbLinetypeTableRecord
  2
JWW_HOJO
 70
     0
  3
  -   -   -   -   -   -   -   - 
 72
    65
 73
     2
 40
1.693333333333333
 49
-1.27
 74
     0
 49
0.4233333333333333
 74
     0
  0
ENDTAB
  0
TABLE
  2
LAYER
  5
2
330
0
100
AcDbSymbolTable
 70
     5
  0
LAYER
  5
10
330
2
100
AcDbSymbolTableRecord
100
AcDbLayerTableRecord
  2
0
 70
     0
 62
     7
  6
Continuous
370
    -3
390
F
347
46
  0
LAYER
  5
70
330
2
100
AcDbSymbolTableRecord
100
AcDbLayerTableRecord
  2
3-0
 70
     0
 62
     7
  6
Continuous
370
    -3
390
F
347
46
  0
LAYER
  5
71
330
2
100
AcDbSymbolTableRecord
100
AcDbLayerTableRecord
  2
F-0
 70
     0
 62
     7
  6
Continuous
370
    -3
390
F
347
46
  0
LAYER
  5
72
330
2
100
AcDbSymbolTableRecord
100
AcDbLayerTableRecord
  2
F-1
 70
     0
 62
     7
  6
Continuous
370
    -3
390
F
347
46
  0
LAYER
  5
73
330
2
100
AcDbSymbolTableRecord
100
AcDbLayerTableRecord
  2
F-A
 70
     0
 62
     7
  6
Continuous
370
    -3
390
F
347
46
  0
ENDTAB
  0
TABLE
  2
STYLE
  5
3
330
0
100
AcDbSymbolTable
 70
     2
  0
STYLE
  5
11
330
3
100
AcDbSymbolTableRecord
100
AcDbTextStyleTableRecord
  2
Standard
 70
     0
 40
0.0
 41
1.0
 50
0.0
 71
     0
 42
2.5
  3
txt
  4

  0
STYLE
  5
6E
330
3
100
AcDbSymbolTableRecord
100
AcDbTextStyleTableRecord
  2
ＭＳ ゴシック
 70
     0
 40
1.0
 41
1.0
 50
0.0
 71
     0
 42
2.5
  3

  4

1001
ACAD
1000
MS Gothic
1071
    32817
  0
ENDTAB
  0
TABLE
  2
VIEW
  5
6
330
0
100
AcDbSymbolTable
 70
     0
  0
ENDTAB
  0
TABLE
  2
UCS
  5
7
330
0
100
AcDbSymbolTable
 70
     0
  0
ENDTAB
  0
TABLE
  2
APPID
  5
9
330
0
100
AcDbSymbolTable
 70
     1
  0
APPID
  5
12
330
9
100
AcDbSymbolTableRecord
100
AcDbRegAppTableRecord
  2
ACAD
 70
     0
  0
ENDTAB
  0
TABLE
  2
DIMSTYLE
  5
A
330
0
100
AcDbSymbolTable
 70
     1
100
AcDbDimStyleTable
  0
DIMSTYLE
105
27
330
A
100
AcDbSymbolTableRecord
100
AcDbDimStyleTableRecord
  2
ISO-25
 70
     0
 41
2.5
 42
0.625
 43
3.75
 44
1.25
 73
     0
 74
     0
 77
     1
 78
     8
140
2.5
141
2.5
143
0.03937007874016
147
0.625
171
     3
172
     1
178
     0
271
     2
272
     2
274
     3
278
    44
283
     0
284
     8
340
11
  0
ENDTAB
  0
TABLE
  2
BLOCK_RECORD
  5
1
330
0
100
AcDbSymbolTable
 70
     1
  0
BLOCK_RECORD
  5
1F
330
1
100
AcDbSymbolTableRecord
100
AcDbBlockTableRecord
  2
*Model_Space
340
22
 70
     0
280
     1
281
     0
  0
BLOCK_RECORD
  5
1B
330
1
100
AcDbSymbolTableRecord
100
AcDbBlockTableRecord
  2
*Paper_Space
340
1E
 70
     0
280
     1
281
     0
  0
BLOCK_RECORD
  5
23
330
1
100
AcDbSymbolTableRecord
100
AcDbBlockTableRecord
  2
*Paper_Space0
340
26
 70
     0
280
     1
281
     0
  0
ENDTAB
  0
ENDSEC
  0
SECTION
  2
BLOCKS
  0
BLOCK
  5
20
330
1F
100
AcDbEntity
  8
0
100
AcDbBlockBegin
  2
*Model_Space
 70
     0
 10
0.0
 20
0.0
 30
0.0
  3
*Model_Space
  1

  0
ENDBLK
  5
21
330
1F
100
AcDbEntity
  8
0
100
AcDbBlockEnd
  0
BLOCK
  5
1C
330
1B
100
AcDbEntity
 67
     1
  8
0
100
AcDbBlockBegin
  2
*Paper_Space
 70
     0
 10
0.0
 20
0.0
 30
0.0
  3
*Paper_Space
  1

  0
ENDBLK
  5
1D
330
1B
100
AcDbEntity
 67
     1
  8
0
100
AcDbBlockEnd
  0
BLOCK
  5
24
330
23
100
AcDbEntity
  8
0
100
AcDbBlockBegin
  2
*Paper_Space0
 70
     0
 10
0.0
 20
0.0
 30
0.0
  3
*Paper_Space0
  1

  0
ENDBLK
  5
25
330
23
100
AcDbEntity
  8
0
100
AcDbBlockEnd
  0
ENDSEC
  0
SECTION
  2
ENTITIES
  0
LINE
  5
74
330
1F
100
AcDbEntity
  8
3-0
  6
Continuous
 62
   120
370
     9
100
AcDbLine
 10
-6657.225038311984
 20
-4343.485676261475
 30
0.0
 11
-6411.215781938307
 21
-4343.485676261475
 31
0.0
  0
LINE
  5
75
330
1F
100
AcDbEntity
  8
3-0
  6
Continuous
 62
   120
370
     9
100
AcDbLine
 10
-6657.225038311984
 20
-3955.985676261475
 30
0.0
 11
-6411.215781938307
 21
-3955.985676261475
 31
0.0
  0
LINE
  5
76
330
1F
100
AcDbEntity
  8
3-0
  6
Continuous
 62
   120
370
     9
100
AcDbLine
 10
-6657.225038311984
 20
-3568.485676261475
 30
0.0
 11
-6411.215781938307
 21
-3568.485676261475
 31
0.0
  0
LINE
  5
77
330
1F
100
AcDbEntity
  8
3-0
  6
Continuous
 62
   120
370
     9
100
AcDbLine
 10
-6657.225038311984
 20
-3180.985676261476
 30
0.0
 11
-6411.215781938307
 21
-3180.985676261476
 31
0.0
  0
LINE
  5
78
330
1F
100
AcDbEntity
  8
3-0
  6
Continuous
 62
   120
370
     9
100
AcDbLine
 10
-6657.225038311984
 20
-2793.485676261476
 30
0.0
 11
-6411.215781938307
 21
-2793.485676261476
 31
0.0
  0
LINE
  5
79
330
1F
100
AcDbEntity
  8
3-0
  6
Continuous
 62
   120
370
     9
100
AcDbLine
 10
-6657.225038311984
 20
-4723.485676261475
 30
0.0
 11
-6411.215781938307
 21
-4723.485676261475
 31
0.0
  0
LINE
  5
7A
330
1F
100
AcDbEntity
  8
3-0
  6
Continuous
 62
   120
370
     9
100
AcDbLine
 10
-6951.393902954311
 20
-103.4856762614751
 30
0.0
 11
-6411.215781938307
 21
-103.4856762614752
 31
0.0
  0
LWPOLYLINE
  5
7B
330
1F
100
AcDbEntity
  8
3-0
  6
Continuous
 62
    92
370
     9
100
AcDbPolyline
 90
        4
 70
     1
 43
10.0
 10
-6105.682610034538
 20
5112.786000683268
 42
0.4142135623731
 10
-6110.682610034537
 20
5117.786000683267
 42
0.4142135623731
 10
-6115.682610034537
 20
5112.786000683268
 42
0.4142135623731
 10
-6110.682610034537
 20
5107.786000683268
 42
0.4142135623731
  0
LINE
  5
7C
330
1F
100
AcDbEntity
  8
3-0
  6
Continuous
 62
   120
370
     9
100
AcDbLine
 10
-6110.682610034537
 20
5112.786000683268
 30
0.0
 11
-6110.682610034537
 21
4767.616231984186
 31
0.0
  0
LINE
  5
7D
330
1F
100
AcDbEntity
  8
3-0
  6
Continuous
 62
    92
370
     9
100
AcDbLine
 10
-6110.682610034537
 20
5112.786000683268
 30
0.0
 11
-6083.182610034538
 21
5112.786000683268
 31
0.0
  0
LWPOLYLINE
  5
7E
330
1F
100
AcDbEntity
  8
3-0
  6
Continuous
 62
    92
370
     9
100
AcDbPolyline
 90
        4
 70
     1
 43
10.0
 10
-6078.182610034539
 20
5112.786000683268
 42
0.4142135623731
 10
-6083.182610034538
 20
5117.786000683267
 42
0.4142135623731
 10
-6088.182610034538
 20
5112.786000683268
 42
0.4142135623731
 10
-6083.182610034538
 20
5107.786000683268
 42
0.4142135623731
  0
LINE
  5
7F
330
1F
100
AcDbEntity
  8
3-0
  6
Continuous
 62
   120
370
     9
100
AcDbLine
 10
-6083.182610034538
 20
5112.786000683268
 30
0.0
 11
-6083.182610034538
 21
4767.616231984186
 31
0.0
  0
TEXT
  5
80
330
1F
100
AcDbEntity
  8
3-0
  6
Continuous
 62
     7
370
   211
100
AcDbText
 10
-6221.932610034539
 20
5158.936000683268
 30
0.0
 40
114.3
  1
5.5
 41
1.111111111111111
  7
ＭＳ ゴシック
100
AcDbText
  0
LINE
  5
81
330
1F
100
AcDbEntity
  8
3-0
  6
Continuous
 62
    92
370
     9
100
AcDbLine
 10
-6083.182610034538
 20
5112.786000683268
 30
0.0
 11
7551.817389965461
 21
5112.786000683268
 31
0.0
  0
LWPOLYLINE
  5
82
330
1F
100
AcDbEntity
  8
3-0
  6
Continuous
 62
    92
370
     9
100
AcDbPolyline
 90
        4
 70
     1
 43
10.0
 10
7556.817389965461
 20
5112.786000683268
 42
0.4142135623731
 10
7551.817389965461
 20
5117.786000683267
 42
0.4142135623731
 10
7546.817389965461
 20
5112.786000683268
 42
0.4142135623731
 10
7551.817389965461
 20
5107.786000683268
 42
0.4142135623731
  0
LINE
  5
83
330
1F
100
AcDbEntity
  8
3-0
  6
Continuous
 62
   120
370
     9
100
AcDbLine
 10
7551.817389965461
 20
5112.786000683268
 30
0.0
 11
7551.817389965461
 21
4767.616231984186
 31
0.0
  0
TEXT
  5
84
330
1F
100
AcDbEntity
  8
3-0
  6
Continuous
 62
     7
370
   211
100
AcDbText
 10
521.8173899654622
 20
5158.936000683268
 30
0.0
 40
114.3
  1
2,727
 41
1.133333333333334
  7
ＭＳ ゴシック
100
AcDbText
  0
LINE
  5
85
330
1F
100
AcDbEntity
  8
3-0
  6
Continuous
 62
     7
370
     9
100
AcDbLine
 10
-7638.182610034539
 20
691.5143237385262
 30
0.0
 11
-7643.182610034539
 21
691.5143237385262
 31
0.0
  0
LINE
  5
86
330
1F
100
AcDbEntity
  8
3-0
  6
Continuous
 62
     7
370
     9
100
AcDbLine
 10
-7643.182610034539
 20
691.5143237385262
 30
0.0
 11
-7668.182610034539
 21
666.5143237385262
 31
0.0
  0
LINE
  5
87
330
1F
100
AcDbEntity
  8
3-0
  6
Continuous
 62
     7
370
     9
100
AcDbLine
 10
-7668.182610034539
 20
284.0143237385245
 30
0.0
 11
-7663.182610034539
 21
284.0143237385245
 31
0.0
  0
LINE
  5
88
330
1F
100
AcDbEntity
  8
3-0
  6
Continuous
 62
     7
370
     9
100
AcDbLine
 10
-7668.182610034539
 20
279.0143237385262
 30
0.0
 11
-7638.182610034539
 21
309.0143237385245
 31
0.0
  0
LINE
  5
89
330
1F
100
AcDbEntity
  8
3-0
  6
Continuous
 62
     7
370
     9
100
AcDbLine
 10
-7638.182610034539
 20
691.5143237385262
 30
0.0
 11
-7638.182610034539
 21
-103.4856762614755
 31
0.0
  0
LINE
  5
8A
330
1F
100
AcDbEntity
  8
3-0
  6
Continuous
 62
     7
370
     9
100
AcDbLine
 10
-7668.182610034539
 20
666.5143237385262
 30
0.0
 11
-7668.182610034539
 21
284.0143237385245
 31
0.0
  0
LINE
  5
8B
330
1F
100
AcDbEntity
  8
3-0
  6
Continuous
 62
     7
370
     9
100
AcDbLine
 10
-7638.182610034539
 20
284.0143237385245
 30
0.0
 11
-7610.682610034539
 21
284.0143237385245
 31
0.0
  0
LINE
  5
8C
330
1F
100
AcDbEntity
  8
3-0
  6
Continuous
 62
     7
370
     9
100
AcDbLine
 10
-7623.753735647057
 20
664.0143237385256
 30
0.0
 11
-7638.182610034539
 21
664.0143237385256
 31
0.0
  0
LINE
  5
8D
330
1F
100
AcDbEntity
  8
3-0
  6
Continuous
 62
     7
370
     9
100
AcDbLine
 10
-7610.682610034539
 20
284.0143237385245
 30
0.0
 11
-7610.682610034539
 21
664.0143237385256
 31
0.0
  0
LINE
  5
8E
330
1F
100
AcDbEntity
  8
3-0
  6
Continuous
 62
     7
370
     9
100
AcDbLine
 10
-7623.753735647057
 20
664.0143237385256
 30
0.0
 11
-7610.682610034539
 21
664.0143237385256
 31
0.0
  0
LINE
  5
8F
330
1F
100
AcDbEntity
  8
3-0
  6
Continuous
 62
     7
370
     9
100
AcDbLine
 10
-7638.182610034539
 20
304.0143237385262
 30
0.0
 11
-7643.182610034539
 21
304.0143237385262
 31
0.0
  0
LINE
  5
90
330
1F
100
AcDbEntity
  8
3-0
  6
Continuous
 62
     7
370
     9
100
AcDbLine
 10
-7668.182610034539
 20
-103.4856762614755
 30
0.0
 11
-7663.182610034539
 21
-103.4856762614755
 31
0.0
  0
LINE
  5
91
330
1F
100
AcDbEntity
  8
3-0
  6
Continuous
 62
     7
370
     9
100
AcDbLine
 10
-7663.182610034539
 20
-103.4856762614755
 30
0.0
 11
-7638.182610034539
 21
-78.48567626147549
 31
0.0
  0
LINE
  5
92
330
1F
100
AcDbEntity
  8
3-0
  6
Continuous
 62
     7
370
     9
100
AcDbLine
 10
-7668.182610034539
 20
279.0143237385262
 30
0.0
 11
-7668.182610034539
 21
-103.4856762614755
 31
0.0
  0
LINE
  5
93
330
1F
100
AcDbEntity
  8
3-0
  6
Continuous
 62
     7
370
     9
100
AcDbLine
 10
-7638.182610034539
 20
-103.4856762614755
 30
0.0
 11
-7610.682610034539
 21
-103.4856762614755
 31
0.0
  0
LINE
  5
94
330
1F
100
AcDbEntity
  8
3-0
  6
Continuous
 62
     7
370
     9
100
AcDbLine
 10
-7623.753735647057
 20
276.5143237385257
 30
0.0
 11
-7638.182610034539
 21
276.5143237385257
 31
0.0
  0
LINE
  5
95
330
1F
100
AcDbEntity
  8
3-0
  6
Continuous
 62
     7
370
     9
100
AcDbLine
 10
-7610.682610034539
 20
-103.4856762614755
 30
0.0
 11
-7610.682610034539
 21
276.5143237385257
 31
0.0
  0
LINE
  5
96
330
1F
100
AcDbEntity
  8
3-0
  6
Continuous
 62
     7
370
     9
100
AcDbLine
 10
-7623.753735647057
 20
276.5143237385257
 30
0.0
 11
-7610.682610034539
 21
276.5143237385257
 31
0.0
  0
LINE
  5
97
330
1F
100
AcDbEntity
  8
3-0
  6
Continuous
 62
     7
370
     9
100
AcDbLine
 10
-7638.182610034539
 20
-1603.485676261474
 30
0.0
 11
-7643.182610034539
 21
-1603.485676261474
 31
0.0
  0
LINE
  5
98
330
1F
100
AcDbEntity
  8
3-0
  6
Continuous
 62
     7
370
     9
100
AcDbLine
 10
-7643.182610034539
 20
-1603.485676261474
 30
0.0
 11
-7668.182610034539
 21
-1628.485676261474
 31
0.0
  0
LINE
  5
99
330
1F
100
AcDbEntity
  8
3-0
  6
Continuous
 62
     7
370
     9
100
AcDbLine
 10
-7668.182610034539
 20
-2010.985676261476
 30
0.0
 11
-7663.182610034539
 21
-2010.985676261476
 31
0.0
  0
LINE
  5
9A
330
1F
100
AcDbEntity
  8
3-0
  6
Continuous
 62
     7
370
     9
100
AcDbLine
 10
-7668.182610034539
 20
-2015.985676261474
 30
0.0
 11
-7638.182610034539
 21
-1985.985676261476
 31
0.0
  0
LINE
  5
9B
330
1F
100
AcDbEntity
  8
3-0
  6
Continuous
 62
     7
370
     9
100
AcDbLine
 10
-7638.182610034539
 20
-1603.485676261474
 30
0.0
 11
-7638.182610034539
 21
-4723.485676261475
 31
0.0
  0
LINE
  5
9C
330
1F
100
AcDbEntity
  8
3-0
  6
Continuous
 62
     7
370
     9
100
AcDbLine
 10
-7668.182610034539
 20
-1628.485676261474
 30
0.0
 11
-7668.182610034539
 21
-2010.985676261476
 31
0.0
  0
LINE
  5
9D
330
1F
100
AcDbEntity
  8
3-0
  6
Continuous
 62
     7
370
     9
100
AcDbLine
 10
-7638.182610034539
 20
-2010.985676261476
 30
0.0
 11
-7610.682610034539
 21
-2010.985676261476
 31
0.0
  0
LINE
  5
9E
330
1F
100
AcDbEntity
  8
3-0
  6
Continuous
 62
     7
370
     9
100
AcDbLine
 10
-7623.753735647057
 20
-1630.985676261475
 30
0.0
 11
-7638.182610034539
 21
-1630.985676261475
 31
0.0
  0
LINE
  5
9F
330
1F
100
AcDbEntity
  8
3-0
  6
Continuous
 62
     7
370
     9
100
AcDbLine
 10
-7610.682610034539
 20
-2010.985676261476
 30
0.0
 11
-7610.682610034539
 21
-1630.985676261475
 31
0.0
  0
LINE
  5
A0
330
1F
100
AcDbEntity
  8
3-0
  6
Continuous
 62
     7
370
     9
100
AcDbLine
 10
-7623.753735647057
 20
-1630.985676261475
 30
0.0
 11
-7610.682610034539
 21
-1630.985676261475
 31
0.0
  0
LINE
  5
A1
330
1F
100
AcDbEntity
  8
3-0
  6
Continuous
 62
     7
370
     9
100
AcDbLine
 10
-7638.182610034539
 20
-1990.985676261474
 30
0.0
 11
-7643.182610034539
 21
-1990.985676261474
 31
0.0
  0
LINE
  5
A2
330
1F
100
AcDbEntity
  8
3-0
  6
Continuous
 62
     7
370
     9
100
AcDbLine
 10
-7668.182610034539
 20
-2398.485676261476
 30
0.0
 11
-7663.182610034539
 21
-2398.485676261476
 31
0.0
  0
LINE
  5
A3
330
1F
100
AcDbEntity
  8
3-0
  6
Continuous
 62
     7
370
     9
100
AcDbLine
 10
-7668.182610034539
 20
-2403.485676261474
 30
0.0
 11
-7638.182610034539
 21
-2373.485676261476
 31
0.0
  0
LINE
  5
A4
330
1F
100
AcDbEntity
  8
3-0
  6
Continuous
 62
     7
370
     9
100
AcDbLine
 10
-7668.182610034539
 20
-2015.985676261474
 30
0.0
 11
-7668.182610034539
 21
-2398.485676261476
 31
0.0
  0
LINE
  5
A5
330
1F
100
AcDbEntity
  8
3-0
  6
Continuous
 62
     7
370
     9
100
AcDbLine
 10
-7638.182610034539
 20
-2398.485676261476
 30
0.0
 11
-7610.682610034539
 21
-2398.485676261476
 31
0.0
  0
LINE
  5
A6
330
1F
100
AcDbEntity
  8
3-0
  6
Continuous
 62
     7
370
     9
100
AcDbLine
 10
-7623.753735647057
 20
-2018.485676261475
 30
0.0
 11
-7638.182610034539
 21
-2018.485676261475
 31
0.0
  0
LINE
  5
A7
330
1F
100
AcDbEntity
  8
3-0
  6
Continuous
 62
     7
370
     9
100
AcDbLine
 10
-7610.682610034539
 20
-2398.485676261476
 30
0.0
 11
-7610.682610034539
 21
-2018.485676261475
 31
0.0
  0
LINE
  5
A8
330
1F
100
AcDbEntity
  8
3-0
  6
Continuous
 62
     7
370
     9
100
AcDbLine
 10
-7623.753735647057
 20
-2018.485676261475
 30
0.0
 11
-7610.682610034539
 21
-2018.485676261475
 31
0.0
  0
LINE
  5
A9
330
1F
100
AcDbEntity
  8
3-0
  6
Continuous
 62
     7
370
     9
100
AcDbLine
 10
-7638.182610034539
 20
4561.514323738528
 30
0.0
 11
-7643.182610034539
 21
4561.514323738528
 31
0.0
  0
LINE
  5
AA
330
1F
100
AcDbEntity
  8
3-0
  6
Continuous
 62
     7
370
     9
100
AcDbLine
 10
-7643.182610034539
 20
4561.514323738528
 30
0.0
 11
-7668.182610034539
 21
4536.514323738528
 31
0.0
  0
LINE
  5
AB
330
1F
100
AcDbEntity
  8
3-0
  6
Continuous
 62
     7
370
     9
100
AcDbLine
 10
-7668.182610034539
 20
4154.014323738526
 30
0.0
 11
-7663.182610034539
 21
4154.014323738526
 31
0.0
  0
LINE
  5
AC
330
1F
100
AcDbEntity
  8
3-0
  6
Continuous
 62
     7
370
     9
100
AcDbLine
 10
-7663.182610034539
 20
4154.014323738526
 30
0.0
 11
-7638.182610034539
 21
4179.014323738526
 31
0.0
  0
LINE
  5
AD
330
1F
100
AcDbEntity
  8
3-0
  6
Continuous
 62
     7
370
     9
100
AcDbLine
 10
-7638.182610034539
 20
4561.514323738528
 30
0.0
 11
-7638.182610034539
 21
4154.014323738526
 31
0.0
  0
LINE
  5
AE
330
1F
100
AcDbEntity
  8
3-0
  6
Continuous
 62
     7
370
     9
100
AcDbLine
 10
-7668.182610034539
 20
4536.514323738528
 30
0.0
 11
-7668.182610034539
 21
4154.014323738526
 31
0.0
  0
LINE
  5
AF
330
1F
100
AcDbEntity
  8
3-0
  6
Continuous
 62
     7
370
     9
100
AcDbLine
 10
-7638.182610034539
 20
4154.014323738526
 30
0.0
 11
-7610.682610034539
 21
4154.014323738526
 31
0.0
  0
LINE
  5
B0
330
1F
100
AcDbEntity
  8
3-0
  6
Continuous
 62
     7
370
     9
100
AcDbLine
 10
-7623.753735647057
 20
4534.014323738527
 30
0.0
 11
-7638.182610034539
 21
4534.014323738527
 31
0.0
  0
LINE
  5
B1
330
1F
100
AcDbEntity
  8
3-0
  6
Continuous
 62
     7
370
     9
100
AcDbLine
 10
-7610.682610034539
 20
4154.014323738526
 30
0.0
 11
-7610.682610034539
 21
4534.014323738527
 31
0.0
  0
LINE
  5
B2
330
1F
100
AcDbEntity
  8
3-0
  6
Continuous
 62
     7
370
     9
100
AcDbLine
 10
-7623.753735647057
 20
4534.014323738527
 30
0.0
 11
-7610.682610034539
 21
4534.014323738527
 31
0.0
  0
LINE
  5
B3
330
1F
100
AcDbEntity
  8
3-0
  6
Continuous
 62
     7
370
     9
100
AcDbLine
 10
-7638.182610034539
 20
3154.014323738526
 30
0.0
 11
-7643.182610034539
 21
3154.014323738526
 31
0.0
  0
LINE
  5
B4
330
1F
100
AcDbEntity
  8
3-0
  6
Continuous
 62
     7
370
     9
100
AcDbLine
 10
-7643.182610034539
 20
3154.014323738526
 30
0.0
 11
-7668.182610034539
 21
3129.014323738526
 31
0.0
  0
LINE
  5
B5
330
1F
100
AcDbEntity
  8
3-0
  6
Continuous
 62
     7
370
     9
100
AcDbLine
 10
-7668.182610034539
 20
2746.514323738525
 30
0.0
 11
-7663.182610034539
 21
2746.514323738525
 31
0.0
  0
LINE
  5
B6
330
1F
100
AcDbEntity
  8
3-0
  6
Continuous
 62
     7
370
     9
100
AcDbLine
 10
-7663.182610034539
 20
2746.514323738525
 30
0.0
 11
-7638.182610034539
 21
2771.514323738525
 31
0.0
  0
LINE
  5
B7
330
1F
100
AcDbEntity
  8
3-0
  6
Continuous
 62
     7
370
     9
100
AcDbLine
 10
-7638.182610034539
 20
3154.014323738526
 30
0.0
 11
-7638.182610034539
 21
2746.514323738525
 31
0.0
  0
LINE
  5
B8
330
1F
100
AcDbEntity
  8
3-0
  6
Continuous
 62
     7
370
     9
100
AcDbLine
 10
-7668.182610034539
 20
3129.014323738526
 30
0.0
 11
-7668.182610034539
 21
2746.514323738525
 31
0.0
  0
LINE
  5
B9
330
1F
100
AcDbEntity
  8
3-0
  6
Continuous
 62
     7
370
     9
100
AcDbLine
 10
-7638.182610034539
 20
2746.514323738525
 30
0.0
 11
-7610.682610034539
 21
2746.514323738525
 31
0.0
  0
LINE
  5
BA
330
1F
100
AcDbEntity
  8
3-0
  6
Continuous
 62
     7
370
     9
100
AcDbLine
 10
-7623.753735647057
 20
3126.514323738526
 30
0.0
 11
-7638.182610034539
 21
3126.514323738526
 31
0.0
  0
LINE
  5
BB
330
1F
100
AcDbEntity
  8
3-0
  6
Continuous
 62
     7
370
     9
100
AcDbLine
 10
-7610.682610034539
 20
2746.514323738525
 30
0.0
 11
-7610.682610034539
 21
3126.514323738526
 31
0.0
  0
LINE
  5
BC
330
1F
100
AcDbEntity
  8
3-0
  6
Continuous
 62
     7
370
     9
100
AcDbLine
 10
-7623.753735647057
 20
3126.514323738526
 30
0.0
 11
-7610.682610034539
 21
3126.514323738526
 31
0.0
  0
LINE
  5
BD
330
1F
100
AcDbEntity
  8
3-0
  6
Continuous
 62
    92
370
     9
100
AcDbLine
 10
-7668.182610034539
 20
5112.786000683268
 30
0.0
 11
-7610.682610034539
 21
5112.786000683268
 31
0.0
  0
LWPOLYLINE
  5
BE
330
1F
100
AcDbEntity
  8
3-0
  6
Continuous
 62
    92
370
     9
100
AcDbPolyline
 90
        4
 70
     1
 43
10.0
 10
-7663.182610034539
 20
5112.786000683268
 42
0.4142135623731
 10
-7668.182610034539
 20
5117.786000683267
 42
0.4142135623731
 10
-7673.182610034539
 20
5112.786000683268
 42
0.4142135623731
 10
-7668.182610034539
 20
5107.786000683268
 42
0.4142135623731
  0
LWPOLYLINE
  5
BF
330
1F
100
AcDbEntity
  8
3-0
  6
Continuous
 62
    92
370
     9
100
AcDbPolyline
 90
        4
 70
     1
 43
10.0
 10
-7605.682610034539
 20
5112.786000683268
 42
0.4142135623731
 10
-7610.682610034539
 20
5117.786000683267
 42
0.4142135623731
 10
-7615.682610034539
 20
5112.786000683268
 42
0.4142135623731
 10
-7610.682610034539
 20
5107.786000683268
 42
0.4142135623731
  0
LINE
  5
C0
330
1F
100
AcDbEntity
  8
3-0
  6
Continuous
 62
   120
370
     9
100
AcDbLine
 10
-7668.182610034539
 20
5112.786000683268
 30
0.0
 11
-7668.182610034539
 21
4767.616231984186
 31
0.0
  0
LINE
  5
C1
330
1F
100
AcDbEntity
  8
3-0
  6
Continuous
 62
   120
370
     9
100
AcDbLine
 10
-7610.682610034539
 20
5112.786000683268
 30
0.0
 11
-7610.682610034539
 21
4767.616231984186
 31
0.0
  0
TEXT
  5
C2
330
1F
100
AcDbEntity
  8
3-0
  6
Continuous
 62
     7
370
   211
100
AcDbText
 10
-7808.18261003454
 20
5158.936000683268
 30
0.0
 40
114.3
  1
11.5
 41
1.125
  7
ＭＳ ゴシック
100
AcDbText
  0
LINE
  5
C3
330
1F
100
AcDbEntity
  8
3-0
  6
Continuous
 62
     7
370
     9
100
AcDbLine
 10
-7668.182610034539
 20
-2785.985676261475
 30
0.0
 11
-7663.182610034539
 21
-2785.985676261475
 31
0.0
  0
LINE
  5
C4
330
1F
100
AcDbEntity
  8
3-0
  6
Continuous
 62
     7
370
     9
100
AcDbLine
 10
-7668.182610034539
 20
-2790.985676261474
 30
0.0
 11
-7638.182610034539
 21
-2760.985676261475
 31
0.0
  0
LINE
  5
C5
330
1F
100
AcDbEntity
  8
3-0
  6
Continuous
 62
     7
370
     9
100
AcDbLine
 10
-7668.182610034539
 20
-2403.485676261474
 30
0.0
 11
-7668.182610034539
 21
-2785.985676261475
 31
0.0
  0
LINE
  5
C6
330
1F
100
AcDbEntity
  8
3-0
  6
Continuous
 62
     7
370
     9
100
AcDbLine
 10
-7638.182610034539
 20
-2785.985676261475
 30
0.0
 11
-7610.682610034539
 21
-2785.985676261475
 31
0.0
  0
LINE
  5
C7
330
1F
100
AcDbEntity
  8
3-0
  6
Continuous
 62
     7
370
     9
100
AcDbLine
 10
-7623.753735647057
 20
-2405.985676261475
 30
0.0
 11
-7638.182610034539
 21
-2405.985676261475
 31
0.0
  0
LINE
  5
C8
330
1F
100
AcDbEntity
  8
3-0
  6
Continuous
 62
     7
370
     9
100
AcDbLine
 10
-7610.682610034539
 20
-2785.985676261475
 30
0.0
 11
-7610.682610034539
 21
-2405.985676261475
 31
0.0
  0
LINE
  5
C9
330
1F
100
AcDbEntity
  8
3-0
  6
Continuous
 62
     7
370
     9
100
AcDbLine
 10
-7623.753735647057
 20
-2405.985676261475
 30
0.0
 11
-7610.682610034539
 21
-2405.985676261475
 31
0.0
  0
LINE
  5
CA
330
1F
100
AcDbEntity
  8
3-0
  6
Continuous
 62
     7
370
     9
100
AcDbLine
 10
-7638.182610034539
 20
-2765.985676261474
 30
0.0
 11
-7643.182610034539
 21
-2765.985676261474
 31
0.0
  0
LINE
  5
CB
330
1F
100
AcDbEntity
  8
3-0
  6
Continuous
 62
     7
370
     9
100
AcDbLine
 10
-7668.182610034539
 20
-3173.485676261475
 30
0.0
 11
-7663.182610034539
 21
-3173.485676261475
 31
0.0
  0
LINE
  5
CC
330
1F
100
AcDbEntity
  8
3-0
  6
Continuous
 62
     7
370
     9
100
AcDbLine
 10
-7668.182610034539
 20
-3178.485676261474
 30
0.0
 11
-7638.182610034539
 21
-3148.485676261475
 31
0.0
  0
LINE
  5
CD
330
1F
100
AcDbEntity
  8
3-0
  6
Continuous
 62
     7
370
     9
100
AcDbLine
 10
-7668.182610034539
 20
-2790.985676261474
 30
0.0
 11
-7668.182610034539
 21
-3173.485676261475
 31
0.0
  0
LINE
  5
CE
330
1F
100
AcDbEntity
  8
3-0
  6
Continuous
 62
     7
370
     9
100
AcDbLine
 10
-7638.182610034539
 20
-3173.485676261475
 30
0.0
 11
-7610.682610034539
 21
-3173.485676261475
 31
0.0
  0
LINE
  5
CF
330
1F
100
AcDbEntity
  8
3-0
  6
Continuous
 62
     7
370
     9
100
AcDbLine
 10
-7623.753735647057
 20
-2793.485676261475
 30
0.0
 11
-7638.182610034539
 21
-2793.485676261475
 31
0.0
  0
LINE
  5
D0
330
1F
100
AcDbEntity
  8
3-0
  6
Continuous
 62
     7
370
     9
100
AcDbLine
 10
-7610.682610034539
 20
-3173.485676261475
 30
0.0
 11
-7610.682610034539
 21
-2793.485676261475
 31
0.0
  0
LINE
  5
D1
330
1F
100
AcDbEntity
  8
3-0
  6
Continuous
 62
     7
370
     9
100
AcDbLine
 10
-7623.753735647057
 20
-2793.485676261475
 30
0.0
 11
-7610.682610034539
 21
-2793.485676261475
 31
0.0
  0
LINE
  5
D2
330
1F
100
AcDbEntity
  8
3-0
  6
Continuous
 62
     7
370
     9
100
AcDbLine
 10
-7668.182610034539
 20
-3560.985676261475
 30
0.0
 11
-7663.182610034539
 21
-3560.985676261475
 31
0.0
  0
LINE
  5
D3
330
1F
100
AcDbEntity
  8
3-0
  6
Continuous
 62
     7
370
     9
100
AcDbLine
 10
-7668.182610034539
 20
-3565.985676261474
 30
0.0
 11
-7638.182610034539
 21
-3535.985676261475
 31
0.0
  0
LINE
  5
D4
330
1F
100
AcDbEntity
  8
3-0
  6
Continuous
 62
     7
370
     9
100
AcDbLine
 10
-7668.182610034539
 20
-3178.485676261474
 30
0.0
 11
-7668.182610034539
 21
-3560.985676261475
 31
0.0
  0
LINE
  5
D5
330
1F
100
AcDbEntity
  8
3-0
  6
Continuous
 62
     7
370
     9
100
AcDbLine
 10
-7638.182610034539
 20
-3560.985676261475
 30
0.0
 11
-7610.682610034539
 21
-3560.985676261475
 31
0.0
  0
LINE
  5
D6
330
1F
100
AcDbEntity
  8
3-0
  6
Continuous
 62
     7
370
     9
100
AcDbLine
 10
-7623.753735647057
 20
-3180.985676261475
 30
0.0
 11
-7638.182610034539
 21
-3180.985676261475
 31
0.0
  0
LINE
  5
D7
330
1F
100
AcDbEntity
  8
3-0
  6
Continuous
 62
     7
370
     9
100
AcDbLine
 10
-7610.682610034539
 20
-3560.985676261475
 30
0.0
 11
-7610.682610034539
 21
-3180.985676261475
 31
0.0
  0
LINE
  5
D8
330
1F
100
AcDbEntity
  8
3-0
  6
Continuous
 62
     7
370
     9
100
AcDbLine
 10
-7623.753735647057
 20
-3180.985676261475
 30
0.0
 11
-7610.682610034539
 21
-3180.985676261475
 31
0.0
  0
LINE
  5
D9
330
1F
100
AcDbEntity
  8
3-0
  6
Continuous
 62
     7
370
     9
100
AcDbLine
 10
-7638.182610034539
 20
-3540.985676261474
 30
0.0
 11
-7643.182610034539
 21
-3540.985676261474
 31
0.0
  0
LINE
  5
DA
330
1F
100
AcDbEntity
  8
3-0
  6
Continuous
 62
     7
370
     9
100
AcDbLine
 10
-7668.182610034539
 20
-3948.485676261475
 30
0.0
 11
-7663.182610034539
 21
-3948.485676261475
 31
0.0
  0
LINE
  5
DB
330
1F
100
AcDbEntity
  8
3-0
  6
Continuous
 62
     7
370
     9
100
AcDbLine
 10
-7668.182610034539
 20
-3953.485676261473
 30
0.0
 11
-7638.182610034539
 21
-3923.485676261475
 31
0.0
  0
LINE
  5
DC
330
1F
100
AcDbEntity
  8
3-0
  6
Continuous
 62
     7
370
     9
100
AcDbLine
 10
-7668.182610034539
 20
-3565.985676261474
 30
0.0
 11
-7668.182610034539
 21
-3948.485676261475
 31
0.0
  0
LINE
  5
DD
330
1F
100
AcDbEntity
  8
3-0
  6
Continuous
 62
     7
370
     9
100
AcDbLine
 10
-7638.182610034539
 20
-3948.485676261475
 30
0.0
 11
-7610.682610034539
 21
-3948.485676261475
 31
0.0
  0
LINE
  5
DE
330
1F
100
AcDbEntity
  8
3-0
  6
Continuous
 62
     7
370
     9
100
AcDbLine
 10
-7623.753735647057
 20
-3568.485676261475
 30
0.0
 11
-7638.182610034539
 21
-3568.485676261475
 31
0.0
  0
LINE
  5
DF
330
1F
100
AcDbEntity
  8
3-0
  6
Continuous
 62
     7
370
     9
100
AcDbLine
 10
-7610.682610034539
 20
-3948.485676261475
 30
0.0
 11
-7610.682610034539
 21
-3568.485676261475
 31
0.0
  0
LINE
  5
E0
330
1F
100
AcDbEntity
  8
3-0
  6
Continuous
 62
     7
370
     9
100
AcDbLine
 10
-7623.753735647057
 20
-3568.485676261475
 30
0.0
 11
-7610.682610034539
 21
-3568.485676261475
 31
0.0
  0
LINE
  5
E1
330
1F
100
AcDbEntity
  8
3-0
  6
Continuous
 62
     7
370
     9
100
AcDbLine
 10
-7668.182610034539
 20
-4335.985676261475
 30
0.0
 11
-7663.182610034539
 21
-4335.985676261475
 31
0.0
  0
LINE
  5
E2
330
1F
100
AcDbEntity
  8
3-0
  6
Continuous
 62
     7
370
     9
100
AcDbLine
 10
-7668.182610034539
 20
-4340.985676261473
 30
0.0
 11
-7638.182610034539
 21
-4310.985676261475
 31
0.0
  0
LINE
  5
E3
330
1F
100
AcDbEntity
  8
3-0
  6
Continuous
 62
     7
370
     9
100
AcDbLine
 10
-7668.182610034539
 20
-3953.485676261473
 30
0.0
 11
-7668.182610034539
 21
-4335.985676261475
 31
0.0
  0
LINE
  5
E4
330
1F
100
AcDbEntity
  8
3-0
  6
Continuous
 62
     7
370
     9
100
AcDbLine
 10
-7638.182610034539
 20
-4335.985676261475
 30
0.0
 11
-7610.682610034539
 21
-4335.985676261475
 31
0.0
  0
LINE
  5
E5
330
1F
100
AcDbEntity
  8
3-0
  6
Continuous
 62
     7
370
     9
100
AcDbLine
 10
-7623.753735647057
 20
-3955.985676261474
 30
0.0
 11
-7638.182610034539
 21
-3955.985676261474
 31
0.0
  0
LINE
  5
E6
330
1F
100
AcDbEntity
  8
3-0
  6
Continuous
 62
     7
370
     9
100
AcDbLine
 10
-7610.682610034539
 20
-4335.985676261475
 30
0.0
 11
-7610.682610034539
 21
-3955.985676261474
 31
0.0
  0
LINE
  5
E7
330
1F
100
AcDbEntity
  8
3-0
  6
Continuous
 62
     7
370
     9
100
AcDbLine
 10
-7623.753735647057
 20
-3955.985676261474
 30
0.0
 11
-7610.682610034539
 21
-3955.985676261474
 31
0.0
  0
LINE
  5
E8
330
1F
100
AcDbEntity
  8
3-0
  6
Continuous
 62
     7
370
     9
100
AcDbLine
 10
-7638.182610034539
 20
-4315.985676261473
 30
0.0
 11
-7643.182610034539
 21
-4315.985676261473
 31
0.0
  0
LINE
  5
E9
330
1F
100
AcDbEntity
  8
3-0
  6
Continuous
 62
     7
370
     9
100
AcDbLine
 10
-7668.182610034539
 20
-4723.485676261475
 30
0.0
 11
-7663.182610034539
 21
-4723.485676261475
 31
0.0
  0
LINE
  5
EA
330
1F
100
AcDbEntity
  8
3-0
  6
Continuous
 62
     7
370
     9
100
AcDbLine
 10
-7663.182610034539
 20
-4723.485676261475
 30
0.0
 11
-7638.182610034539
 21
-4698.485676261475
 31
0.0
  0
LINE
  5
EB
330
1F
100
AcDbEntity
  8
3-0
  6
Continuous
 62
     7
370
     9
100
AcDbLine
 10
-7668.182610034539
 20
-4340.985676261473
 30
0.0
 11
-7668.182610034539
 21
-4723.485676261475
 31
0.0
  0
LINE
  5
EC
330
1F
100
AcDbEntity
  8
3-0
  6
Continuous
 62
     7
370
     9
100
AcDbLine
 10
-7638.182610034539
 20
-4723.485676261475
 30
0.0
 11
-7610.682610034539
 21
-4723.485676261475
 31
0.0
  0
LINE
  5
ED
330
1F
100
AcDbEntity
  8
3-0
  6
Continuous
 62
     7
370
     9
100
AcDbLine
 10
-7623.753735647057
 20
-4343.485676261474
 30
0.0
 11
-7638.182610034539
 21
-4343.485676261474
 31
0.0
  0
LINE
  5
EE
330
1F
100
AcDbEntity
  8
3-0
  6
Continuous
 62
     7
370
     9
100
AcDbLine
 10
-7610.682610034539
 20
-4723.485676261475
 30
0.0
 11
-7610.682610034539
 21
-4343.485676261474
 31
0.0
  0
LINE
  5
EF
330
1F
100
AcDbEntity
  8
3-0
  6
Continuous
 62
     7
370
     9
100
AcDbLine
 10
-7623.753735647057
 20
-4343.485676261474
 30
0.0
 11
-7610.682610034539
 21
-4343.485676261474
 31
0.0
  0
LINE
  5
F0
330
1F
100
AcDbEntity
  8
3-0
  6
Continuous
 62
     7
370
     9
100
AcDbLine
 10
-7638.182610034539
 20
-3928.485676261473
 30
0.0
 11
-7643.182610034539
 21
-3928.485676261473
 31
0.0
  0
LINE
  5
F1
330
1F
100
AcDbEntity
  8
3-0
  6
Continuous
 62
     7
370
     9
100
AcDbLine
 10
-7638.182610034539
 20
-3153.485676261474
 30
0.0
 11
-7643.182610034539
 21
-3153.485676261474
 31
0.0
  0
LINE
  5
F2
330
1F
100
AcDbEntity
  8
3-0
  6
Continuous
 62
     7
370
     9
100
AcDbLine
 10
-7638.182610034539
 20
-2378.485676261474
 30
0.0
 11
-7643.182610034539
 21
-2378.485676261474
 31
0.0
  0
LINE
  5
F3
330
1F
100
AcDbEntity
  8
3-0
  6
Continuous
 62
    92
370
     9
100
AcDbLine
 10
-6657.225038311984
 20
4561.514323738527
 30
0.0
 11
-6657.225038311984
 21
4534.014323738526
 31
0.0
  0
LWPOLYLINE
  5
F4
330
1F
100
AcDbEntity
  8
3-0
  6
Continuous
 62
    92
370
     9
100
AcDbPolyline
 90
        4
 70
     1
 43
10.0
 10
-6652.225038311984
 20
4561.514323738527
 42
0.4142135623731
 10
-6657.225038311984
 20
4566.514323738526
 42
0.4142135623731
 10
-6662.225038311984
 20
4561.514323738527
 42
0.4142135623731
 10
-6657.225038311984
 20
4556.514323738527
 42
0.4142135623731
  0
LWPOLYLINE
  5
F5
330
1F
100
AcDbEntity
  8
3-0
  6
Continuous
 62
    92
370
     9
100
AcDbPolyline
 90
        4
 70
     1
 43
10.0
 10
-6652.225038311984
 20
4534.014323738526
 42
0.4142135623731
 10
-6657.225038311984
 20
4539.014323738526
 42
0.4142135623731
 10
-6662.225038311984
 20
4534.014323738526
 42
0.4142135623731
 10
-6657.225038311984
 20
4529.014323738526
 42
0.4142135623731
  0
LINE
  5
F6
330
1F
100
AcDbEntity
  8
3-0
  6
Continuous
 62
   120
370
     9
100
AcDbLine
 10
-6657.225038311984
 20
4561.514323738527
 30
0.0
 11
-6411.215781938307
 21
4561.514323738527
 31
0.0
  0
LINE
  5
F7
330
1F
100
AcDbEntity
  8
3-0
  6
Continuous
 62
   120
370
     9
100
AcDbLine
 10
-6657.225038311984
 20
4534.014323738526
 30
0.0
 11
-6411.215781938307
 21
4534.014323738526
 31
0.0
  0
TEXT
  5
F8
330
1F
100
AcDbEntity
  8
3-0
  6
Continuous
 62
     7
370
   211
100
AcDbText
 10
-6703.375038311983
 20
4422.764323738526
 30
0.0
 40
114.3
  1
5.5
 50
90.0
 41
1.111111111111111
  7
ＭＳ ゴシック
100
AcDbText
  0
LINE
  5
F9
330
1F
100
AcDbEntity
  8
3-0
  6
Continuous
 62
    92
370
     9
100
AcDbLine
 10
-6657.225038311984
 20
4534.014323738526
 30
0.0
 11
-6657.225038311984
 21
4154.014323738526
 31
0.0
  0
LWPOLYLINE
  5
FA
330
1F
100
AcDbEntity
  8
3-0
  6
Continuous
 62
    92
370
     9
100
AcDbPolyline
 90
        4
 70
     1
 43
10.0
 10
-6652.225038311984
 20
4154.014323738526
 42
0.4142135623731
 10
-6657.225038311984
 20
4159.014323738526
 42
0.4142135623731
 10
-6662.225038311984
 20
4154.014323738526
 42
0.4142135623731
 10
-6657.225038311984
 20
4149.014323738527
 42
0.4142135623731
  0
LINE
  5
FB
330
1F
100
AcDbEntity
  8
3-0
  6
Continuous
 62
   120
370
     9
100
AcDbLine
 10
-6657.225038311984
 20
4154.014323738526
 30
0.0
 11
-6411.215781938307
 21
4154.014323738526
 31
0.0
  0
TEXT
  5
FC
330
1F
100
AcDbEntity
  8
3-0
  6
Continuous
 62
     7
370
   211
100
AcDbText
 10
-6507.65756407444
 20
4262.764323738526
 30
0.0
 40
114.3
  1
76
 50
90.0
 41
1.083333333333333
  7
ＭＳ ゴシック
100
AcDbText
  0
LINE
  5
FD
330
1F
100
AcDbEntity
  8
3-0
  6
Continuous
 62
    92
370
     9
100
AcDbLine
 10
-6657.225038311984
 20
3154.014323738525
 30
0.0
 11
-6657.225038311984
 21
3126.514323738525
 31
0.0
  0
LWPOLYLINE
  5
FE
330
1F
100
AcDbEntity
  8
3-0
  6
Continuous
 62
    92
370
     9
100
AcDbPolyline
 90
        4
 70
     1
 43
10.0
 10
-6652.225038311984
 20
3154.014323738525
 42
0.4142135623731
 10
-6657.225038311984
 20
3159.014323738525
 42
0.4142135623731
 10
-6662.225038311984
 20
3154.014323738525
 42
0.4142135623731
 10
-6657.225038311984
 20
3149.014323738525
 42
0.4142135623731
  0
LWPOLYLINE
  5
FF
330
1F
100
AcDbEntity
  8
3-0
  6
Continuous
 62
    92
370
     9
100
AcDbPolyline
 90
        4
 70
     1
 43
10.0
 10
-6652.225038311984
 20
3126.514323738525
 42
0.4142135623731
 10
-6657.225038311984
 20
3131.514323738525
 42
0.4142135623731
 10
-6662.225038311984
 20
3126.514323738525
 42
0.4142135623731
 10
-6657.225038311984
 20
3121.514323738525
 42
0.4142135623731
  0
LINE
  5
100
330
1F
100
AcDbEntity
  8
3-0
  6
Continuous
 62
   120
370
     9
100
AcDbLine
 10
-6657.225038311984
 20
3154.014323738525
 30
0.0
 11
-6411.215781938307
 21
3154.014323738525
 31
0.0
  0
LINE
  5
101
330
1F
100
AcDbEntity
  8
3-0
  6
Continuous
 62
   120
370
     9
100
AcDbLine
 10
-6657.225038311984
 20
3126.514323738525
 30
0.0
 11
-6411.215781938307
 21
3126.514323738525
 31
0.0
  0
TEXT
  5
102
330
1F
100
AcDbEntity
  8
3-0
  6
Continuous
 62
     7
370
   211
100
AcDbText
 10
-6703.375038311983
 20
3015.264323738525
 30
0.0
 40
114.3
  1
5.5
 50
90.0
 41
1.111111111111111
  7
ＭＳ ゴシック
100
AcDbText
  0
LINE
  5
103
330
1F
100
AcDbEntity
  8
3-0
  6
Continuous
 62
    92
370
     9
100
AcDbLine
 10
-6657.225038311984
 20
3126.514323738525
 30
0.0
 11
-6657.225038311984
 21
2746.514323738525
 31
0.0
  0
LWPOLYLINE
  5
104
330
1F
100
AcDbEntity
  8
3-0
  6
Continuous
 62
    92
370
     9
100
AcDbPolyline
 90
        4
 70
     1
 43
10.0
 10
-6652.225038311984
 20
2746.514323738525
 42
0.4142135623731
 10
-6657.225038311984
 20
2751.514323738525
 42
0.4142135623731
 10
-6662.225038311984
 20
2746.514323738525
 42
0.4142135623731
 10
-6657.225038311984
 20
2741.514323738525
 42
0.4142135623731
  0
LINE
  5
105
330
1F
100
AcDbEntity
  8
3-0
  6
Continuous
 62
   120
370
     9
100
AcDbLine
 10
-6657.225038311984
 20
2746.514323738525
 30
0.0
 11
-6411.215781938307
 21
2746.514323738525
 31
0.0
  0
LWPOLYLINE
  5
106
330
1F
100
AcDbEntity
  8
3-0
  6
Continuous
 62
    92
370
     9
100
AcDbPolyline
 90
        4
 70
     1
 43
10.0
 10
-6652.225038311984
 20
664.0143237385246
 42
0.4142135623731
 10
-6657.225038311984
 20
669.0143237385246
 42
0.4142135623731
 10
-6662.225038311984
 20
664.0143237385246
 42
0.4142135623731
 10
-6657.225038311984
 20
659.0143237385246
 42
0.4142135623731
  0
LINE
  5
107
330
1F
100
AcDbEntity
  8
3-0
  6
Continuous
 62
   120
370
     9
100
AcDbLine
 10
-6951.393902954311
 20
664.0143237385246
 30
0.0
 11
-6411.215781938307
 21
664.0143237385246
 31
0.0
  0
LINE
  5
108
330
1F
100
AcDbEntity
  8
3-0
  6
Continuous
 62
    92
370
     9
100
AcDbLine
 10
-6657.225038311984
 20
664.0143237385246
 30
0.0
 11
-6657.225038311984
 21
284.0143237385249
 31
0.0
  0
LWPOLYLINE
  5
109
330
1F
100
AcDbEntity
  8
3-0
  6
Continuous
 62
    92
370
     9
100
AcDbPolyline
 90
        4
 70
     1
 43
10.0
 10
-6652.225038311984
 20
284.0143237385249
 42
0.4142135623731
 10
-6657.225038311984
 20
289.0143237385249
 42
0.4142135623731
 10
-6662.225038311984
 20
284.0143237385249
 42
0.4142135623731
 10
-6657.225038311984
 20
279.0143237385249
 42
0.4142135623731
  0
LINE
  5
10A
330
1F
100
AcDbEntity
  8
3-0
  6
Continuous
 62
   120
370
     9
100
AcDbLine
 10
-6657.225038311984
 20
284.0143237385249
 30
0.0
 11
-6411.215781938307
 21
284.0143237385249
 31
0.0
  0
LINE
  5
10B
330
1F
100
AcDbEntity
  8
3-0
  6
Continuous
 62
    92
370
     9
100
AcDbLine
 10
-6657.225038311984
 20
284.0143237385249
 30
0.0
 11
-6657.225038311984
 21
276.5143237385246
 31
0.0
  0
LWPOLYLINE
  5
10C
330
1F
100
AcDbEntity
  8
3-0
  6
Continuous
 62
    92
370
     9
100
AcDbPolyline
 90
        4
 70
     1
 43
10.0
 10
-6652.225038311984
 20
276.5143237385246
 42
0.4142135623731
 10
-6657.225038311984
 20
281.5143237385246
 42
0.4142135623731
 10
-6662.225038311984
 20
276.5143237385246
 42
0.4142135623731
 10
-6657.225038311984
 20
271.5143237385246
 42
0.4142135623731
  0
LINE
  5
10D
330
1F
100
AcDbEntity
  8
3-0
  6
Continuous
 62
   120
370
     9
100
AcDbLine
 10
-6657.225038311984
 20
276.5143237385246
 30
0.0
 11
-6411.215781938307
 21
276.5143237385246
 31
0.0
  0
TEXT
  5
10E
330
1F
100
AcDbEntity
  8
3-0
  6
Continuous
 62
     7
370
   211
100
AcDbText
 10
-6703.375038311983
 20
155.2643237385247
 30
0.0
 40
114.3
  1
1.5
 50
90.0
 41
1.111111111111111
  7
ＭＳ ゴシック
100
AcDbText
  0
LINE
  5
10F
330
1F
100
AcDbEntity
  8
3-0
  6
Continuous
 62
    92
370
     9
100
AcDbLine
 10
-6657.225038311984
 20
276.5143237385246
 30
0.0
 11
-6657.225038311984
 21
-103.4856762614751
 31
0.0
  0
LWPOLYLINE
  5
110
330
1F
100
AcDbEntity
  8
3-0
  6
Continuous
 62
    92
370
     9
100
AcDbPolyline
 90
        4
 70
     1
 43
10.0
 10
-6652.225038311984
 20
-103.4856762614751
 42
0.4142135623731
 10
-6657.225038311984
 20
-98.48567626147513
 42
0.4142135623731
 10
-6662.225038311984
 20
-103.4856762614751
 42
0.4142135623731
 10
-6657.225038311984
 20
-108.4856762614751
 42
0.4142135623731
  0
TEXT
  5
111
330
1F
100
AcDbEntity
  8
3-0
  6
Continuous
 62
     7
370
   211
100
AcDbText
 10
-6495.012233809725
 20
392.7643237385247
 30
0.0
 40
114.3
  1
76
 50
90.0
 41
1.083333333333333
  7
ＭＳ ゴシック
100
AcDbText
  0
TEXT
  5
112
330
1F
100
AcDbEntity
  8
3-0
  6
Continuous
 62
     7
370
   211
100
AcDbText
 10
-6495.012233809725
 20
5.264323738524724
 30
0.0
 40
114.3
  1
76
 50
90.0
 41
1.083333333333333
  7
ＭＳ ゴシック
100
AcDbText
  0
LWPOLYLINE
  5
113
330
1F
100
AcDbEntity
  8
3-0
  6
Continuous
 62
    92
370
     9
100
AcDbPolyline
 90
        4
 70
     1
 43
10.0
 10
-6652.225038311984
 20
-1630.985676261476
 42
0.4142135623731
 10
-6657.225038311984
 20
-1625.985676261476
 42
0.4142135623731
 10
-6662.225038311984
 20
-1630.985676261476
 42
0.4142135623731
 10
-6657.225038311984
 20
-1635.985676261476
 42
0.4142135623731
  0
LINE
  5
114
330
1F
100
AcDbEntity
  8
3-0
  6
Continuous
 62
   120
370
     9
100
AcDbLine
 10
-6657.225038311984
 20
-1630.985676261476
 30
0.0
 11
-6411.215781938307
 21
-1630.985676261476
 31
0.0
  0
LINE
  5
115
330
1F
100
AcDbEntity
  8
3-0
  6
Continuous
 62
    92
370
     9
100
AcDbLine
 10
-6657.225038311984
 20
-1630.985676261476
 30
0.0
 11
-6657.225038311984
 21
-2010.985676261476
 31
0.0
  0
LWPOLYLINE
  5
116
330
1F
100
AcDbEntity
  8
3-0
  6
Continuous
 62
    92
370
     9
100
AcDbPolyline
 90
        4
 70
     1
 43
10.0
 10
-6652.225038311984
 20
-2010.985676261476
 42
0.4142135623731
 10
-6657.225038311984
 20
-2005.985676261476
 42
0.4142135623731
 10
-6662.225038311984
 20
-2010.985676261476
 42
0.4142135623731
 10
-6657.225038311984
 20
-2015.985676261476
 42
0.4142135623731
  0
LINE
  5
117
330
1F
100
AcDbEntity
  8
3-0
  6
Continuous
 62
   120
370
     9
100
AcDbLine
 10
-6657.225038311984
 20
-2010.985676261476
 30
0.0
 11
-6411.215781938307
 21
-2010.985676261476
 31
0.0
  0
LINE
  5
118
330
1F
100
AcDbEntity
  8
3-0
  6
Continuous
 62
    92
370
     9
100
AcDbLine
 10
-6657.225038311984
 20
-2010.985676261476
 30
0.0
 11
-6657.225038311984
 21
-2018.485676261476
 31
0.0
  0
LWPOLYLINE
  5
119
330
1F
100
AcDbEntity
  8
3-0
  6
Continuous
 62
    92
370
     9
100
AcDbPolyline
 90
        4
 70
     1
 43
10.0
 10
-6652.225038311984
 20
-2018.485676261476
 42
0.4142135623731
 10
-6657.225038311984
 20
-2013.485676261476
 42
0.4142135623731
 10
-6662.225038311984
 20
-2018.485676261476
 42
0.4142135623731
 10
-6657.225038311984
 20
-2023.485676261476
 42
0.4142135623731
  0
LINE
  5
11A
330
1F
100
AcDbEntity
  8
3-0
  6
Continuous
 62
   120
370
     9
100
AcDbLine
 10
-6657.225038311984
 20
-2018.485676261476
 30
0.0
 11
-6411.215781938307
 21
-2018.485676261476
 31
0.0
  0
TEXT
  5
11B
330
1F
100
AcDbEntity
  8
3-0
  6
Continuous
 62
     7
370
   211
100
AcDbText
 10
-6703.375038311983
 20
-2139.735676261475
 30
0.0
 40
114.3
  1
1.5
 50
90.0
 41
1.111111111111111
  7
ＭＳ ゴシック
100
AcDbText
  0
LINE
  5
11C
330
1F
100
AcDbEntity
  8
3-0
  6
Continuous
 62
    92
370
     9
100
AcDbLine
 10
-6657.225038311984
 20
-2018.485676261476
 30
0.0
 11
-6657.225038311984
 21
-2398.485676261476
 31
0.0
  0
LWPOLYLINE
  5
11D
330
1F
100
AcDbEntity
  8
3-0
  6
Continuous
 62
    92
370
     9
100
AcDbPolyline
 90
        4
 70
     1
 43
10.0
 10
-6652.225038311984
 20
-2398.485676261476
 42
0.4142135623731
 10
-6657.225038311984
 20
-2393.485676261476
 42
0.4142135623731
 10
-6662.225038311984
 20
-2398.485676261476
 42
0.4142135623731
 10
-6657.225038311984
 20
-2403.485676261476
 42
0.4142135623731
  0
LINE
  5
11E
330
1F
100
AcDbEntity
  8
3-0
  6
Continuous
 62
   120
370
     9
100
AcDbLine
 10
-6657.225038311984
 20
-2398.485676261476
 30
0.0
 11
-6411.215781938307
 21
-2398.485676261476
 31
0.0
  0
LINE
  5
11F
330
1F
100
AcDbEntity
  8
3-0
  6
Continuous
 62
    92
370
     9
100
AcDbLine
 10
-6657.225038311984
 20
-2398.485676261476
 30
0.0
 11
-6657.225038311984
 21
-2405.985676261476
 31
0.0
  0
LWPOLYLINE
  5
120
330
1F
100
AcDbEntity
  8
3-0
  6
Continuous
 62
    92
370
     9
100
AcDbPolyline
 90
        4
 70
     1
 43
10.0
 10
-6652.225038311984
 20
-2405.985676261476
 42
0.4142135623731
 10
-6657.225038311984
 20
-2400.985676261476
 42
0.4142135623731
 10
-6662.225038311984
 20
-2405.985676261476
 42
0.4142135623731
 10
-6657.225038311984
 20
-2410.985676261476
 42
0.4142135623731
  0
LINE
  5
121
330
1F
100
AcDbEntity
  8
3-0
  6
Continuous
 62
   120
370
     9
100
AcDbLine
 10
-6657.225038311984
 20
-2405.985676261476
 30
0.0
 11
-6411.215781938307
 21
-2405.985676261476
 31
0.0
  0
TEXT
  5
122
330
1F
100
AcDbEntity
  8
3-0
  6
Continuous
 62
     7
370
   211
100
AcDbText
 10
-6703.375038311983
 20
-2527.235676261476
 30
0.0
 40
114.3
  1
1.5
 50
90.0
 41
1.111111111111111
  7
ＭＳ ゴシック
100
AcDbText
  0
LINE
  5
123
330
1F
100
AcDbEntity
  8
3-0
  6
Continuous
 62
    92
370
     9
100
AcDbLine
 10
-6657.225038311984
 20
-2405.985676261476
 30
0.0
 11
-6657.225038311984
 21
-2785.985676261475
 31
0.0
  0
LWPOLYLINE
  5
124
330
1F
100
AcDbEntity
  8
3-0
  6
Continuous
 62
    92
370
     9
100
AcDbPolyline
 90
        4
 70
     1
 43
10.0
 10
-6652.225038311984
 20
-2785.985676261475
 42
0.4142135623731
 10
-6657.225038311984
 20
-2780.985676261475
 42
0.4142135623731
 10
-6662.225038311984
 20
-2785.985676261475
 42
0.4142135623731
 10
-6657.225038311984
 20
-2790.985676261475
 42
0.4142135623731
  0
LINE
  5
125
330
1F
100
AcDbEntity
  8
3-0
  6
Continuous
 62
   120
370
     9
100
AcDbLine
 10
-6657.225038311984
 20
-2785.985676261475
 30
0.0
 11
-6411.215781938307
 21
-2785.985676261475
 31
0.0
  0
LINE
  5
126
330
1F
100
AcDbEntity
  8
3-0
  6
Continuous
 62
    92
370
     9
100
AcDbLine
 10
-6657.225038311984
 20
-2785.985676261475
 30
0.0
 11
-6657.225038311984
 21
-2793.485676261476
 31
0.0
  0
LWPOLYLINE
  5
127
330
1F
100
AcDbEntity
  8
3-0
  6
Continuous
 62
    92
370
     9
100
AcDbPolyline
 90
        4
 70
     1
 43
10.0
 10
-6652.225038311984
 20
-2793.485676261476
 42
0.4142135623731
 10
-6657.225038311984
 20
-2788.485676261475
 42
0.4142135623731
 10
-6662.225038311984
 20
-2793.485676261476
 42
0.4142135623731
 10
-6657.225038311984
 20
-2798.485676261476
 42
0.4142135623731
  0
TEXT
  5
128
330
1F
100
AcDbEntity
  8
3-0
  6
Continuous
 62
     7
370
   211
100
AcDbText
 10
-6703.375038311983
 20
-2914.735676261475
 30
0.0
 40
114.3
  1
1.5
 50
90.0
 41
1.111111111111111
  7
ＭＳ ゴシック
100
AcDbText
  0
LINE
  5
129
330
1F
100
AcDbEntity
  8
3-0
  6
Continuous
 62
    92
370
     9
100
AcDbLine
 10
-6657.225038311984
 20
-2793.485676261476
 30
0.0
 11
-6657.225038311984
 21
-3173.485676261475
 31
0.0
  0
LWPOLYLINE
  5
12A
330
1F
100
AcDbEntity
  8
3-0
  6
Continuous
 62
    92
370
     9
100
AcDbPolyline
 90
        4
 70
     1
 43
10.0
 10
-6652.225038311984
 20
-3173.485676261475
 42
0.4142135623731
 10
-6657.225038311984
 20
-3168.485676261475
 42
0.4142135623731
 10
-6662.225038311984
 20
-3173.485676261475
 42
0.4142135623731
 10
-6657.225038311984
 20
-3178.485676261475
 42
0.4142135623731
  0
LINE
  5
12B
330
1F
100
AcDbEntity
  8
3-0
  6
Continuous
 62
   120
370
     9
100
AcDbLine
 10
-6657.225038311984
 20
-3173.485676261475
 30
0.0
 11
-6411.215781938307
 21
-3173.485676261475
 31
0.0
  0
LINE
  5
12C
330
1F
100
AcDbEntity
  8
3-0
  6
Continuous
 62
    92
370
     9
100
AcDbLine
 10
-6657.225038311984
 20
-3173.485676261475
 30
0.0
 11
-6657.225038311984
 21
-3180.985676261476
 31
0.0
  0
LWPOLYLINE
  5
12D
330
1F
100
AcDbEntity
  8
3-0
  6
Continuous
 62
    92
370
     9
100
AcDbPolyline
 90
        4
 70
     1
 43
10.0
 10
-6652.225038311984
 20
-3180.985676261476
 42
0.4142135623731
 10
-6657.225038311984
 20
-3175.985676261475
 42
0.4142135623731
 10
-6662.225038311984
 20
-3180.985676261476
 42
0.4142135623731
 10
-6657.225038311984
 20
-3185.985676261476
 42
0.4142135623731
  0
TEXT
  5
12E
330
1F
100
AcDbEntity
  8
3-0
  6
Continuous
 62
     7
370
   211
100
AcDbText
 10
-6703.375038311983
 20
-3302.235676261475
 30
0.0
 40
114.3
  1
1.5
 50
90.0
 41
1.111111111111111
  7
ＭＳ ゴシック
100
AcDbText
  0
LINE
  5
12F
330
1F
100
AcDbEntity
  8
3-0
  6
Continuous
 62
    92
370
     9
100
AcDbLine
 10
-6657.225038311984
 20
-3180.985676261476
 30
0.0
 11
-6657.225038311984
 21
-3560.985676261475
 31
0.0
  0
LWPOLYLINE
  5
130
330
1F
100
AcDbEntity
  8
3-0
  6
Continuous
 62
    92
370
     9
100
AcDbPolyline
 90
        4
 70
     1
 43
10.0
 10
-6652.225038311984
 20
-3560.985676261475
 42
0.4142135623731
 10
-6657.225038311984
 20
-3555.985676261476
 42
0.4142135623731
 10
-6662.225038311984
 20
-3560.985676261475
 42
0.4142135623731
 10
-6657.225038311984
 20
-3565.985676261475
 42
0.4142135623731
  0
LINE
  5
131
330
1F
100
AcDbEntity
  8
3-0
  6
Continuous
 62
   120
370
     9
100
AcDbLine
 10
-6657.225038311984
 20
-3560.985676261475
 30
0.0
 11
-6411.215781938307
 21
-3560.985676261475
 31
0.0
  0
LINE
  5
132
330
1F
100
AcDbEntity
  8
3-0
  6
Continuous
 62
    92
370
     9
100
AcDbLine
 10
-6657.225038311984
 20
-3560.985676261475
 30
0.0
 11
-6657.225038311984
 21
-3568.485676261475
 31
0.0
  0
LWPOLYLINE
  5
133
330
1F
100
AcDbEntity
  8
3-0
  6
Continuous
 62
    92
370
     9
100
AcDbPolyline
 90
        4
 70
     1
 43
10.0
 10
-6652.225038311984
 20
-3568.485676261475
 42
0.4142135623731
 10
-6657.225038311984
 20
-3563.485676261475
 42
0.4142135623731
 10
-6662.225038311984
 20
-3568.485676261475
 42
0.4142135623731
 10
-6657.225038311984
 20
-3573.485676261474
 42
0.4142135623731
  0
TEXT
  5
134
330
1F
100
AcDbEntity
  8
3-0
  6
Continuous
 62
     7
370
   211
100
AcDbText
 10
-6703.375038311983
 20
-3689.735676261475
 30
0.0
 40
114.3
  1
1.5
 50
90.0
 41
1.111111111111111
  7
ＭＳ ゴシック
100
AcDbText
  0
LINE
  5
135
330
1F
100
AcDbEntity
  8
3-0
  6
Continuous
 62
    92
370
     9
100
AcDbLine
 10
-6657.225038311984
 20
-3568.485676261475
 30
0.0
 11
-6657.225038311984
 21
-3948.485676261474
 31
0.0
  0
LWPOLYLINE
  5
136
330
1F
100
AcDbEntity
  8
3-0
  6
Continuous
 62
    92
370
     9
100
AcDbPolyline
 90
        4
 70
     1
 43
10.0
 10
-6652.225038311984
 20
-3948.485676261474
 42
0.4142135623731
 10
-6657.225038311984
 20
-3943.485676261475
 42
0.4142135623731
 10
-6662.225038311984
 20
-3948.485676261474
 42
0.4142135623731
 10
-6657.225038311984
 20
-3953.485676261474
 42
0.4142135623731
  0
LINE
  5
137
330
1F
100
AcDbEntity
  8
3-0
  6
Continuous
 62
   120
370
     9
100
AcDbLine
 10
-6657.225038311984
 20
-3948.485676261474
 30
0.0
 11
-6411.215781938307
 21
-3948.485676261474
 31
0.0
  0
LINE
  5
138
330
1F
100
AcDbEntity
  8
3-0
  6
Continuous
 62
    92
370
     9
100
AcDbLine
 10
-6657.225038311984
 20
-3948.485676261474
 30
0.0
 11
-6657.225038311984
 21
-3955.985676261475
 31
0.0
  0
LWPOLYLINE
  5
139
330
1F
100
AcDbEntity
  8
3-0
  6
Continuous
 62
    92
370
     9
100
AcDbPolyline
 90
        4
 70
     1
 43
10.0
 10
-6652.225038311984
 20
-3955.985676261475
 42
0.4142135623731
 10
-6657.225038311984
 20
-3950.985676261475
 42
0.4142135623731
 10
-6662.225038311984
 20
-3955.985676261475
 42
0.4142135623731
 10
-6657.225038311984
 20
-3960.985676261475
 42
0.4142135623731
  0
TEXT
  5
13A
330
1F
100
AcDbEntity
  8
3-0
  6
Continuous
 62
     7
370
   211
100
AcDbText
 10
-6703.375038311983
 20
-4077.235676261474
 30
0.0
 40
114.3
  1
1.5
 50
90.0
 41
1.111111111111111
  7
ＭＳ ゴシック
100
AcDbText
  0
LINE
  5
13B
330
1F
100
AcDbEntity
  8
3-0
  6
Continuous
 62
    92
370
     9
100
AcDbLine
 10
-6657.225038311984
 20
-3955.985676261475
 30
0.0
 11
-6657.225038311984
 21
-4335.985676261475
 31
0.0
  0
LWPOLYLINE
  5
13C
330
1F
100
AcDbEntity
  8
3-0
  6
Continuous
 62
    92
370
     9
100
AcDbPolyline
 90
        4
 70
     1
 43
10.0
 10
-6652.225038311984
 20
-4335.985676261475
 42
0.4142135623731
 10
-6657.225038311984
 20
-4330.985676261475
 42
0.4142135623731
 10
-6662.225038311984
 20
-4335.985676261475
 42
0.4142135623731
 10
-6657.225038311984
 20
-4340.985676261475
 42
0.4142135623731
  0
LINE
  5
13D
330
1F
100
AcDbEntity
  8
3-0
  6
Continuous
 62
   120
370
     9
100
AcDbLine
 10
-6657.225038311984
 20
-4335.985676261475
 30
0.0
 11
-6411.215781938307
 21
-4335.985676261475
 31
0.0
  0
LINE
  5
13E
330
1F
100
AcDbEntity
  8
3-0
  6
Continuous
 62
    92
370
     9
100
AcDbLine
 10
-6657.225038311984
 20
-4335.985676261475
 30
0.0
 11
-6657.225038311984
 21
-4343.485676261475
 31
0.0
  0
LWPOLYLINE
  5
13F
330
1F
100
AcDbEntity
  8
3-0
  6
Continuous
 62
    92
370
     9
100
AcDbPolyline
 90
        4
 70
     1
 43
10.0
 10
-6652.225038311984
 20
-4343.485676261475
 42
0.4142135623731
 10
-6657.225038311984
 20
-4338.485676261475
 42
0.4142135623731
 10
-6662.225038311984
 20
-4343.485676261475
 42
0.4142135623731
 10
-6657.225038311984
 20
-4348.485676261475
 42
0.4142135623731
  0
TEXT
  5
140
330
1F
100
AcDbEntity
  8
3-0
  6
Continuous
 62
     7
370
   211
100
AcDbText
 10
-6703.375038311983
 20
-4464.735676261475
 30
0.0
 40
114.3
  1
1.5
 50
90.0
 41
1.111111111111111
  7
ＭＳ ゴシック
100
AcDbText
  0
LINE
  5
141
330
1F
100
AcDbEntity
  8
3-0
  6
Continuous
 62
    92
370
     9
100
AcDbLine
 10
-6657.225038311984
 20
-4343.485676261475
 30
0.0
 11
-6657.225038311984
 21
-4723.485676261475
 31
0.0
  0
LWPOLYLINE
  5
142
330
1F
100
AcDbEntity
  8
3-0
  6
Continuous
 62
    92
370
     9
100
AcDbPolyline
 90
        4
 70
     1
 43
10.0
 10
-6652.225038311984
 20
-4723.485676261475
 42
0.4142135623731
 10
-6657.225038311984
 20
-4718.485676261475
 42
0.4142135623731
 10
-6662.225038311984
 20
-4723.485676261475
 42
0.4142135623731
 10
-6657.225038311984
 20
-4728.485676261475
 42
0.4142135623731
  0
TEXT
  5
143
330
1F
100
AcDbEntity
  8
3-0
  6
Continuous
 62
     7
370
   211
100
AcDbText
 10
-6507.881699410708
 20
-1902.235676261476
 30
0.0
 40
114.3
  1
76
 50
90.0
 41
1.083333333333333
  7
ＭＳ ゴシック
100
AcDbText
  0
TEXT
  5
144
330
1F
100
AcDbEntity
  8
3-0
  6
Continuous
 62
     7
370
   211
100
AcDbText
 10
-6507.881699410708
 20
-2289.735676261475
 30
0.0
 40
114.3
  1
76
 50
90.0
 41
1.083333333333333
  7
ＭＳ ゴシック
100
AcDbText
  0
TEXT
  5
145
330
1F
100
AcDbEntity
  8
3-0
  6
Continuous
 62
     7
370
   211
100
AcDbText
 10
-6507.881699410708
 20
-2677.235676261475
 30
0.0
 40
114.3
  1
76
 50
90.0
 41
1.083333333333333
  7
ＭＳ ゴシック
100
AcDbText
  0
TEXT
  5
146
330
1F
100
AcDbEntity
  8
3-0
  6
Continuous
 62
     7
370
   211
100
AcDbText
 10
-6507.881699410708
 20
-3064.735676261475
 30
0.0
 40
114.3
  1
76
 50
90.0
 41
1.083333333333333
  7
ＭＳ ゴシック
100
AcDbText
  0
TEXT
  5
147
330
1F
100
AcDbEntity
  8
3-0
  6
Continuous
 62
     7
370
   211
100
AcDbText
 10
-6507.881699410708
 20
-3452.235676261475
 30
0.0
 40
114.3
  1
76
 50
90.0
 41
1.083333333333333
  7
ＭＳ ゴシック
100
AcDbText
  0
TEXT
  5
148
330
1F
100
AcDbEntity
  8
3-0
  6
Continuous
 62
     7
370
   211
100
AcDbText
 10
-6507.881699410708
 20
-3839.735676261474
 30
0.0
 40
114.3
  1
76
 50
90.0
 41
1.083333333333333
  7
ＭＳ ゴシック
100
AcDbText
  0
TEXT
  5
149
330
1F
100
AcDbEntity
  8
3-0
  6
Continuous
 62
     7
370
   211
100
AcDbText
 10
-6507.881699410708
 20
-4227.235676261475
 30
0.0
 40
114.3
  1
76
 50
90.0
 41
1.083333333333333
  7
ＭＳ ゴシック
100
AcDbText
  0
TEXT
  5
14A
330
1F
100
AcDbEntity
  8
3-0
  6
Continuous
 62
     7
370
   211
100
AcDbText
 10
-6507.881699410708
 20
-4614.735676261475
 30
0.0
 40
114.3
  1
76
 50
90.0
 41
1.083333333333333
  7
ＭＳ ゴシック
100
AcDbText
  0
LINE
  5
14B
330
1F
100
AcDbEntity
  8
3-0
  6
Continuous
 62
    92
370
     9
100
AcDbLine
 10
-6951.393902954311
 20
-1603.485676261475
 30
0.0
 11
-6951.393902954311
 21
-1630.985676261476
 31
0.0
  0
LWPOLYLINE
  5
14C
330
1F
100
AcDbEntity
  8
3-0
  6
Continuous
 62
    92
370
     9
100
AcDbPolyline
 90
        4
 70
     1
 43
10.0
 10
-6946.393902954312
 20
-1603.485676261475
 42
0.4142135623731
 10
-6951.393902954311
 20
-1598.485676261475
 42
0.4142135623731
 10
-6956.393902954311
 20
-1603.485676261475
 42
0.4142135623731
 10
-6951.393902954311
 20
-1608.485676261476
 42
0.4142135623731
  0
LWPOLYLINE
  5
14D
330
1F
100
AcDbEntity
  8
3-0
  6
Continuous
 62
    92
370
     9
100
AcDbPolyline
 90
        4
 70
     1
 43
10.0
 10
-6946.393902954312
 20
-1630.985676261476
 42
0.4142135623731
 10
-6951.393902954311
 20
-1625.985676261476
 42
0.4142135623731
 10
-6956.393902954311
 20
-1630.985676261476
 42
0.4142135623731
 10
-6951.393902954311
 20
-1635.985676261476
 42
0.4142135623731
  0
LINE
  5
14E
330
1F
100
AcDbEntity
  8
3-0
  6
Continuous
 62
   120
370
     9
100
AcDbLine
 10
-6951.393902954311
 20
-1630.985676261476
 30
0.0
 11
-6657.225038311984
 21
-1630.985676261476
 31
0.0
  0
TEXT
  5
14F
330
1F
100
AcDbEntity
  8
3-0
  6
Continuous
 62
     7
370
   211
100
AcDbText
 10
-6997.54390295431
 20
-1742.235676261476
 30
0.0
 40
114.3
  1
5.5
 50
90.0
 41
1.111111111111111
  7
ＭＳ ゴシック
100
AcDbText
  0
LINE
  5
150
330
1F
100
AcDbEntity
  8
3-0
  6
Continuous
 62
    92
370
     9
100
AcDbLine
 10
-6951.393902954311
 20
-1630.985676261476
 30
0.0
 11
-6951.393902954311
 21
-4723.485676261475
 31
0.0
  0
LWPOLYLINE
  5
151
330
1F
100
AcDbEntity
  8
3-0
  6
Continuous
 62
    92
370
     9
100
AcDbPolyline
 90
        4
 70
     1
 43
10.0
 10
-6946.393902954312
 20
-4723.485676261475
 42
0.4142135623731
 10
-6951.393902954311
 20
-4718.485676261475
 42
0.4142135623731
 10
-6956.393902954311
 20
-4723.485676261475
 42
0.4142135623731
 10
-6951.393902954311
 20
-4728.485676261475
 42
0.4142135623731
  0
LINE
  5
152
330
1F
100
AcDbEntity
  8
3-0
  6
Continuous
 62
   120
370
     9
100
AcDbLine
 10
-6951.393902954311
 20
-4723.485676261475
 30
0.0
 11
-6657.225038311984
 21
-4723.485676261475
 31
0.0
  0
TEXT
  5
153
330
1F
100
AcDbEntity
  8
3-0
  6
Continuous
 62
     7
370
   211
100
AcDbText
 10
-6997.54390295431
 20
-3389.735676261475
 30
0.0
 40
114.3
  1
618.5
 50
90.0
 41
1.133333333333333
  7
ＭＳ ゴシック
100
AcDbText
  0
LINE
  5
154
330
1F
100
AcDbEntity
  8
3-0
  6
Continuous
 62
   120
370
     9
100
AcDbLine
 10
-6951.393902954311
 20
-1603.485676261475
 30
0.0
 11
-6411.215781938307
 21
-1603.485676261475
 31
0.0
  0
LWPOLYLINE
  5
155
330
1F
100
AcDbEntity
  8
3-0
  6
Continuous
 62
    92
370
     9
100
AcDbPolyline
 90
        4
 70
     1
 43
10.0
 10
-6946.393902954312
 20
691.5143237385248
 42
0.4142135623731
 10
-6951.393902954311
 20
696.5143237385248
 42
0.4142135623731
 10
-6956.393902954311
 20
691.5143237385248
 42
0.4142135623731
 10
-6951.393902954311
 20
686.5143237385248
 42
0.4142135623731
  0
LWPOLYLINE
  5
156
330
1F
100
AcDbEntity
  8
3-0
  6
Continuous
 62
    92
370
     9
100
AcDbPolyline
 90
        4
 70
     1
 43
10.0
 10
-6946.393902954312
 20
664.0143237385246
 42
0.4142135623731
 10
-6951.393902954311
 20
669.0143237385246
 42
0.4142135623731
 10
-6956.393902954311
 20
664.0143237385246
 42
0.4142135623731
 10
-6951.393902954311
 20
659.0143237385246
 42
0.4142135623731
  0
LINE
  5
157
330
1F
100
AcDbEntity
  8
3-0
  6
Continuous
 62
   120
370
     9
100
AcDbLine
 10
-6951.393902954311
 20
691.5143237385248
 30
0.0
 11
-6411.215781938307
 21
691.5143237385248
 31
0.0
  0
LINE
  5
158
330
1F
100
AcDbEntity
  8
3-0
  6
Continuous
 62
    92
370
     9
100
AcDbLine
 10
-6951.393902954311
 20
664.0143237385246
 30
0.0
 11
-6951.393902954311
 21
-103.4856762614751
 31
0.0
  0
LWPOLYLINE
  5
159
330
1F
100
AcDbEntity
  8
3-0
  6
Continuous
 62
    92
370
     9
100
AcDbPolyline
 90
        4
 70
     1
 43
10.0
 10
-6946.393902954312
 20
-103.4856762614751
 42
0.4142135623731
 10
-6951.393902954311
 20
-98.48567626147513
 42
0.4142135623731
 10
-6956.393902954311
 20
-103.4856762614751
 42
0.4142135623731
 10
-6951.393902954311
 20
-108.4856762614751
 42
0.4142135623731
  0
TEXT
  5
15A
330
1F
100
AcDbEntity
  8
3-0
  6
Continuous
 62
     7
370
   211
100
AcDbText
 10
-6997.54390295431
 20
67.76432373852472
 30
0.0
 40
114.3
  1
153.5
 50
90.0
 41
1.133333333333333
  7
ＭＳ ゴシック
100
AcDbText
  0
TEXT
  5
15B
330
1F
100
AcDbEntity
  8
3-0
  6
Continuous
 62
     7
370
   211
100
AcDbText
 10
-6997.54390295431
 20
711.8737183162192
 30
0.0
 40
114.3
  1
5.5
 50
90.0
 41
1.111111111111111
  7
ＭＳ ゴシック
100
AcDbText
  0
LINE
  5
15C
330
1F
100
AcDbEntity
  8
3-0
  6
Continuous
 62
    92
370
     9
100
AcDbLine
 10
-6951.393902954311
 20
969.1972459631529
 30
0.0
 11
-6951.393902954311
 21
664.0143237385246
 31
0.0
  0
LINE
  5
15D
330
1F
100
AcDbEntity
  8
3-0
  6
Continuous
 62
     7
370
     9
100
AcDbLine
 10
-6110.682610034539
 20
5839.014323738527
 30
0.0
 11
-6110.682610034539
 21
5844.014323738527
 31
0.0
  0
LINE
  5
15E
330
1F
100
AcDbEntity
  8
3-0
  6
Continuous
 62
     7
370
     9
100
AcDbLine
 10
-6110.682610034539
 20
5844.014323738527
 30
0.0
 11
-6085.682610034539
 21
5869.014323738527
 31
0.0
  0
LINE
  5
15F
330
1F
100
AcDbEntity
  8
3-0
  6
Continuous
 62
     7
370
     9
100
AcDbLine
 10
-6083.182610034538
 20
5824.585449351045
 30
0.0
 11
-6083.182610034538
 21
5839.014323738527
 31
0.0
  0
LINE
  5
160
330
1F
100
AcDbEntity
  8
3-0
  6
Continuous
 62
     7
370
     9
100
AcDbLine
 10
-6083.182610034538
 20
5824.585449351045
 30
0.0
 11
-6083.182610034538
 21
5811.514323738527
 31
0.0
  0
LINE
  5
161
330
1F
100
AcDbEntity
  8
3-0
  6
Continuous
 62
     7
370
     9
100
AcDbLine
 10
7551.817389965461
 20
5869.014323738527
 30
0.0
 11
7551.817389965461
 21
5864.014323738527
 31
0.0
  0
LINE
  5
162
330
1F
100
AcDbEntity
  8
3-0
  6
Continuous
 62
     7
370
     9
100
AcDbLine
 10
7551.817389965461
 20
5864.014323738527
 30
0.0
 11
7526.817389965461
 21
5839.014323738527
 31
0.0
  0
LINE
  5
163
330
1F
100
AcDbEntity
  8
3-0
  6
Continuous
 62
     7
370
     9
100
AcDbLine
 10
-6110.682610034539
 20
5839.014323738527
 30
0.0
 11
7551.817389965461
 21
5839.014323738527
 31
0.0
  0
LINE
  5
164
330
1F
100
AcDbEntity
  8
3-0
  6
Continuous
 62
     7
370
     9
100
AcDbLine
 10
7551.817389965461
 20
5839.014323738527
 30
0.0
 11
7551.817389965461
 21
5811.514323738527
 31
0.0
  0
LINE
  5
165
330
1F
100
AcDbEntity
  8
3-0
  6
Continuous
 62
     7
370
     9
100
AcDbLine
 10
-6085.682610034539
 20
5869.014323738527
 30
0.0
 11
7551.817389965461
 21
5869.014323738527
 31
0.0
  0
LINE
  5
166
330
1F
100
AcDbEntity
  8
3-0
  6
Continuous
 62
     7
370
     9
100
AcDbLine
 10
7551.817389965461
 20
5811.514323738527
 30
0.0
 11
-6083.182610034538
 21
5811.514323738527
 31
0.0
  0
TEXT
  5
167
330
1F
100
AcDbEntity
  8
3-0
  6
Continuous
 62
     7
370
   211
100
AcDbText
 10
-6505.788017319818
 20
2855.264323738525
 30
0.0
 40
114.3
  1
76
 50
90.0
 41
1.083333333333333
  7
ＭＳ ゴシック
100
AcDbText
  0
LINE
  5
168
330
1F
100
AcDbEntity
  8
3-0
  6
Continuous
 62
     7
370
     9
100
AcDbLine
 10
-6110.682610034537
 20
4561.514323738527
 30
0.0
 11
-6110.682610034537
 21
4179.014323738526
 31
0.0
  0
LINE
  5
169
330
1F
100
AcDbEntity
  8
3-0
  6
Continuous
 62
     7
370
     9
100
AcDbLine
 10
-6083.182610034537
 20
4534.014323738526
 30
0.0
 11
-6083.182610034537
 21
4154.014323738526
 31
0.0
  0
LINE
  5
16A
330
1F
100
AcDbEntity
  8
3-0
  6
Continuous
 62
     7
370
     9
100
AcDbLine
 10
-4946.932610034536
 20
4534.014323738526
 30
0.0
 11
-4946.932610034536
 21
4154.014323738526
 31
0.0
  0
LINE
  5
16B
330
1F
100
AcDbEntity
  8
3-0
  6
Continuous
 62
     7
370
     9
100
AcDbLine
 10
-4189.432610034537
 20
4534.014323738526
 30
0.0
 11
-4189.432610034537
 21
4154.014323738526
 31
0.0
  0
LINE
  5
16C
330
1F
100
AcDbEntity
  8
3-0
  6
Continuous
 62
     7
370
     9
100
AcDbLine
 10
-5704.432610034535
 20
4534.014323738526
 30
0.0
 11
-5704.432610034535
 21
4154.014323738526
 31
0.0
  0
LINE
  5
16D
330
1F
100
AcDbEntity
  8
3-0
  6
Continuous
 62
     7
370
     9
100
AcDbLine
 10
-3431.932610034537
 20
4534.014323738526
 30
0.0
 11
-3431.932610034537
 21
4154.014323738526
 31
0.0
  0
LINE
  5
16E
330
1F
100
AcDbEntity
  8
3-0
  6
Continuous
 62
     7
370
     9
100
AcDbLine
 10
-2674.432610034536
 20
4534.014323738526
 30
0.0
 11
-2674.432610034536
 21
4154.014323738526
 31
0.0
  0
LINE
  5
16F
330
1F
100
AcDbEntity
  8
3-0
  6
Continuous
 62
     7
370
     9
100
AcDbLine
 10
-1916.932610034537
 20
4534.014323738526
 30
0.0
 11
-1916.932610034537
 21
4154.014323738526
 31
0.0
  0
LINE
  5
170
330
1F
100
AcDbEntity
  8
3-0
  6
Continuous
 62
     7
370
     9
100
AcDbLine
 10
-6110.682610034537
 20
4179.014323738526
 30
0.0
 11
-6083.182610034537
 21
4179.014323738526
 31
0.0
  0
LINE
  5
171
330
1F
100
AcDbEntity
  8
3-0
  6
Continuous
 62
     7
370
     9
100
AcDbLine
 10
-6110.682610034537
 20
4179.014323738526
 30
0.0
 11
-6085.682610034537
 21
4154.014323738526
 31
0.0
  0
LINE
  5
172
330
1F
100
AcDbEntity
  8
3-0
  6
Continuous
 62
     7
370
     9
100
AcDbLine
 10
7551.817389965461
 20
4536.514323738527
 30
0.0
 11
7551.817389965461
 21
4154.014323738526
 31
0.0
  0
LINE
  5
173
330
1F
100
AcDbEntity
  8
3-0
  6
Continuous
 62
     7
370
     9
100
AcDbLine
 10
3385.567389965457
 20
4534.014323738526
 30
0.0
 11
3385.567389965457
 21
4154.014323738526
 31
0.0
  0
LINE
  5
174
330
1F
100
AcDbEntity
  8
3-0
  6
Continuous
 62
     7
370
     9
100
AcDbLine
 10
4143.067389965458
 20
4534.014323738526
 30
0.0
 11
4143.067389965458
 21
4154.014323738526
 31
0.0
  0
LINE
  5
175
330
1F
100
AcDbEntity
  8
3-0
  6
Continuous
 62
     7
370
     9
100
AcDbLine
 10
4900.567389965458
 20
4534.014323738526
 30
0.0
 11
4900.567389965458
 21
4154.014323738526
 31
0.0
  0
LINE
  5
176
330
1F
100
AcDbEntity
  8
3-0
  6
Continuous
 62
     7
370
     9
100
AcDbLine
 10
5658.067389965457
 20
4534.014323738526
 30
0.0
 11
5658.067389965457
 21
4154.014323738526
 31
0.0
  0
LINE
  5
177
330
1F
100
AcDbEntity
  8
3-0
  6
Continuous
 62
     7
370
     9
100
AcDbLine
 10
6415.567389965458
 20
4534.014323738526
 30
0.0
 11
6415.567389965458
 21
4154.014323738526
 31
0.0
  0
LINE
  5
178
330
1F
100
AcDbEntity
  8
3-0
  6
Continuous
 62
     7
370
     9
100
AcDbLine
 10
7173.067389965459
 20
4534.014323738526
 30
0.0
 11
7173.067389965459
 21
4154.014323738526
 31
0.0
  0
LINE
  5
179
330
1F
100
AcDbEntity
  8
3-0
  6
Continuous
 62
     7
370
     9
100
AcDbLine
 10
7526.817389965461
 20
4561.514323738527
 30
0.0
 11
7526.817389965461
 21
4534.014323738526
 31
0.0
  0
LINE
  5
17A
330
1F
100
AcDbEntity
  8
3-0
  6
Continuous
 62
     7
370
     9
100
AcDbLine
 10
7526.817389965461
 20
4561.514323738527
 30
0.0
 11
7551.817389965461
 21
4536.514323738527
 31
0.0
  0
LINE
  5
17B
330
1F
100
AcDbEntity
  8
3-0
  6
Continuous
 62
     7
370
     9
100
AcDbLine
 10
7551.817389965461
 20
4534.014323738526
 30
0.0
 11
-6083.182610034537
 21
4534.014323738526
 31
0.0
  0
LINE
  5
17C
330
1F
100
AcDbEntity
  8
3-0
  6
Continuous
 62
     7
370
     9
100
AcDbLine
 10
7551.817389965461
 20
4154.014323738526
 30
0.0
 11
-6085.682610034537
 21
4154.014323738526
 31
0.0
  0
LINE
  5
17D
330
1F
100
AcDbEntity
  8
3-0
  6
Continuous
 62
     7
370
     9
100
AcDbLine
 10
-6110.682610034537
 20
4561.514323738527
 30
0.0
 11
7526.817389965463
 21
4561.514323738527
 31
0.0
  0
LINE
  5
17E
330
1F
100
AcDbEntity
  8
3-0
  6
Continuous
 62
     7
370
     9
100
AcDbLine
 10
-1159.432610034537
 20
4534.014323738526
 30
0.0
 11
-1159.432610034537
 21
4154.014323738526
 31
0.0
  0
LINE
  5
17F
330
1F
100
AcDbEntity
  8
3-0
  6
Continuous
 62
     7
370
     9
100
AcDbLine
 10
-401.9326100345374
 20
4534.014323738526
 30
0.0
 11
-401.9326100345374
 21
4154.014323738526
 31
0.0
  0
LINE
  5
180
330
1F
100
AcDbEntity
  8
3-0
  6
Continuous
 62
     7
370
     9
100
AcDbLine
 10
355.5673899654622
 20
4534.014323738526
 30
0.0
 11
355.5673899654622
 21
4154.014323738526
 31
0.0
  0
LINE
  5
181
330
1F
100
AcDbEntity
  8
3-0
  6
Continuous
 62
     7
370
     9
100
AcDbLine
 10
1113.067389965462
 20
4534.014323738526
 30
0.0
 11
1113.067389965462
 21
4154.014323738526
 31
0.0
  0
LINE
  5
182
330
1F
100
AcDbEntity
  8
3-0
  6
Continuous
 62
     7
370
     9
100
AcDbLine
 10
1870.567389965461
 20
4534.014323738526
 30
0.0
 11
1870.567389965461
 21
4154.014323738526
 31
0.0
  0
LINE
  5
183
330
1F
100
AcDbEntity
  8
3-0
  6
Continuous
 62
     7
370
     9
100
AcDbLine
 10
2628.067389965461
 20
4534.014323738526
 30
0.0
 11
2628.067389965461
 21
4154.014323738526
 31
0.0
  0
LINE
  5
184
330
1F
100
AcDbEntity
  8
3-0
  6
Continuous
 62
     7
370
     9
100
AcDbLine
 10
-6110.682610034537
 20
691.5143237385251
 30
0.0
 11
-6110.682610034537
 21
309.0143237385249
 31
0.0
  0
LINE
  5
185
330
1F
100
AcDbEntity
  8
3-0
  6
Continuous
 62
     7
370
     9
100
AcDbLine
 10
-6083.182610034537
 20
664.0143237385246
 30
0.0
 11
-6083.182610034537
 21
284.0143237385249
 31
0.0
  0
LINE
  5
186
330
1F
100
AcDbEntity
  8
3-0
  6
Continuous
 62
     7
370
     9
100
AcDbLine
 10
-4946.932610034536
 20
664.0143237385246
 30
0.0
 11
-4946.932610034536
 21
284.0143237385249
 31
0.0
  0
LINE
  5
187
330
1F
100
AcDbEntity
  8
3-0
  6
Continuous
 62
     7
370
     9
100
AcDbLine
 10
-4189.432610034537
 20
664.0143237385246
 30
0.0
 11
-4189.432610034537
 21
284.0143237385249
 31
0.0
  0
LINE
  5
188
330
1F
100
AcDbEntity
  8
3-0
  6
Continuous
 62
     7
370
     9
100
AcDbLine
 10
-5704.432610034535
 20
664.0143237385246
 30
0.0
 11
-5704.432610034535
 21
284.0143237385249
 31
0.0
  0
LINE
  5
189
330
1F
100
AcDbEntity
  8
3-0
  6
Continuous
 62
     7
370
     9
100
AcDbLine
 10
-3431.932610034537
 20
664.0143237385246
 30
0.0
 11
-3431.932610034537
 21
284.0143237385249
 31
0.0
  0
LINE
  5
18A
330
1F
100
AcDbEntity
  8
3-0
  6
Continuous
 62
     7
370
     9
100
AcDbLine
 10
-2674.432610034536
 20
664.0143237385246
 30
0.0
 11
-2674.432610034536
 21
284.0143237385249
 31
0.0
  0
LINE
  5
18B
330
1F
100
AcDbEntity
  8
3-0
  6
Continuous
 62
     7
370
     9
100
AcDbLine
 10
-1916.932610034537
 20
664.0143237385246
 30
0.0
 11
-1916.932610034537
 21
284.0143237385249
 31
0.0
  0
LINE
  5
18C
330
1F
100
AcDbEntity
  8
3-0
  6
Continuous
 62
     7
370
     9
100
AcDbLine
 10
-6110.682610034537
 20
309.0143237385249
 30
0.0
 11
-6083.182610034537
 21
309.0143237385249
 31
0.0
  0
LINE
  5
18D
330
1F
100
AcDbEntity
  8
3-0
  6
Continuous
 62
     7
370
     9
100
AcDbLine
 10
-6110.682610034537
 20
309.0143237385249
 30
0.0
 11
-6085.682610034537
 21
284.0143237385249
 31
0.0
  0
LINE
  5
18E
330
1F
100
AcDbEntity
  8
3-0
  6
Continuous
 62
     7
370
     9
100
AcDbLine
 10
7551.817389965461
 20
666.5143237385251
 30
0.0
 11
7551.817389965461
 21
284.0143237385249
 31
0.0
  0
LINE
  5
18F
330
1F
100
AcDbEntity
  8
3-0
  6
Continuous
 62
     7
370
     9
100
AcDbLine
 10
3385.567389965457
 20
664.0143237385246
 30
0.0
 11
3385.567389965457
 21
284.0143237385249
 31
0.0
  0
LINE
  5
190
330
1F
100
AcDbEntity
  8
3-0
  6
Continuous
 62
     7
370
     9
100
AcDbLine
 10
4143.067389965458
 20
664.0143237385246
 30
0.0
 11
4143.067389965458
 21
284.0143237385249
 31
0.0
  0
LINE
  5
191
330
1F
100
AcDbEntity
  8
3-0
  6
Continuous
 62
     7
370
     9
100
AcDbLine
 10
4900.567389965458
 20
664.0143237385246
 30
0.0
 11
4900.567389965458
 21
284.0143237385249
 31
0.0
  0
LINE
  5
192
330
1F
100
AcDbEntity
  8
3-0
  6
Continuous
 62
     7
370
     9
100
AcDbLine
 10
5658.067389965457
 20
664.0143237385246
 30
0.0
 11
5658.067389965457
 21
284.0143237385249
 31
0.0
  0
LINE
  5
193
330
1F
100
AcDbEntity
  8
3-0
  6
Continuous
 62
     7
370
     9
100
AcDbLine
 10
6415.567389965458
 20
664.0143237385246
 30
0.0
 11
6415.567389965458
 21
284.0143237385249
 31
0.0
  0
LINE
  5
194
330
1F
100
AcDbEntity
  8
3-0
  6
Continuous
 62
     7
370
     9
100
AcDbLine
 10
7173.067389965459
 20
664.0143237385246
 30
0.0
 11
7173.067389965459
 21
284.0143237385249
 31
0.0
  0
LINE
  5
195
330
1F
100
AcDbEntity
  8
3-0
  6
Continuous
 62
     7
370
     9
100
AcDbLine
 10
7526.817389965461
 20
691.5143237385251
 30
0.0
 11
7526.817389965461
 21
664.0143237385246
 31
0.0
  0
LINE
  5
196
330
1F
100
AcDbEntity
  8
3-0
  6
Continuous
 62
     7
370
     9
100
AcDbLine
 10
7526.817389965461
 20
691.5143237385251
 30
0.0
 11
7551.817389965461
 21
666.5143237385251
 31
0.0
  0
LINE
  5
197
330
1F
100
AcDbEntity
  8
3-0
  6
Continuous
 62
     7
370
     9
100
AcDbLine
 10
7551.817389965461
 20
664.0143237385246
 30
0.0
 11
-6083.182610034537
 21
664.0143237385246
 31
0.0
  0
LINE
  5
198
330
1F
100
AcDbEntity
  8
3-0
  6
Continuous
 62
     7
370
     9
100
AcDbLine
 10
7551.817389965461
 20
284.0143237385249
 30
0.0
 11
-6085.682610034537
 21
284.0143237385249
 31
0.0
  0
LINE
  5
199
330
1F
100
AcDbEntity
  8
3-0
  6
Continuous
 62
     7
370
     9
100
AcDbLine
 10
-6110.682610034537
 20
691.5143237385251
 30
0.0
 11
7526.817389965463
 21
691.5143237385251
 31
0.0
  0
LINE
  5
19A
330
1F
100
AcDbEntity
  8
3-0
  6
Continuous
 62
     7
370
     9
100
AcDbLine
 10
-1159.432610034537
 20
664.0143237385246
 30
0.0
 11
-1159.432610034537
 21
284.0143237385249
 31
0.0
  0
LINE
  5
19B
330
1F
100
AcDbEntity
  8
3-0
  6
Continuous
 62
     7
370
     9
100
AcDbLine
 10
-401.9326100345374
 20
664.0143237385246
 30
0.0
 11
-401.9326100345374
 21
284.0143237385249
 31
0.0
  0
LINE
  5
19C
330
1F
100
AcDbEntity
  8
3-0
  6
Continuous
 62
     7
370
     9
100
AcDbLine
 10
355.5673899654622
 20
664.0143237385246
 30
0.0
 11
355.5673899654622
 21
284.0143237385249
 31
0.0
  0
LINE
  5
19D
330
1F
100
AcDbEntity
  8
3-0
  6
Continuous
 62
     7
370
     9
100
AcDbLine
 10
1113.067389965462
 20
664.0143237385246
 30
0.0
 11
1113.067389965462
 21
284.0143237385249
 31
0.0
  0
LINE
  5
19E
330
1F
100
AcDbEntity
  8
3-0
  6
Continuous
 62
     7
370
     9
100
AcDbLine
 10
1870.567389965461
 20
664.0143237385246
 30
0.0
 11
1870.567389965461
 21
284.0143237385249
 31
0.0
  0
LINE
  5
19F
330
1F
100
AcDbEntity
  8
3-0
  6
Continuous
 62
     7
370
     9
100
AcDbLine
 10
2628.067389965461
 20
664.0143237385246
 30
0.0
 11
2628.067389965461
 21
284.0143237385249
 31
0.0
  0
LINE
  5
1A0
330
1F
100
AcDbEntity
  8
3-0
  6
Continuous
 62
     7
370
     9
100
AcDbLine
 10
-6110.682610034537
 20
-1603.485676261475
 30
0.0
 11
-6110.682610034537
 21
-1985.985676261475
 31
0.0
  0
LINE
  5
1A1
330
1F
100
AcDbEntity
  8
3-0
  6
Continuous
 62
     7
370
     9
100
AcDbLine
 10
-6083.182610034537
 20
-1630.985676261476
 30
0.0
 11
-6083.182610034537
 21
-2010.985676261475
 31
0.0
  0
LINE
  5
1A2
330
1F
100
AcDbEntity
  8
3-0
  6
Continuous
 62
     7
370
     9
100
AcDbLine
 10
-4946.932610034536
 20
-1630.985676261476
 30
0.0
 11
-4946.932610034536
 21
-2010.985676261475
 31
0.0
  0
LINE
  5
1A3
330
1F
100
AcDbEntity
  8
3-0
  6
Continuous
 62
     7
370
     9
100
AcDbLine
 10
-4189.432610034537
 20
-1630.985676261476
 30
0.0
 11
-4189.432610034537
 21
-2010.985676261475
 31
0.0
  0
LINE
  5
1A4
330
1F
100
AcDbEntity
  8
3-0
  6
Continuous
 62
     7
370
     9
100
AcDbLine
 10
-5704.432610034535
 20
-1630.985676261476
 30
0.0
 11
-5704.432610034535
 21
-2010.985676261475
 31
0.0
  0
LINE
  5
1A5
330
1F
100
AcDbEntity
  8
3-0
  6
Continuous
 62
     7
370
     9
100
AcDbLine
 10
-3431.932610034537
 20
-1630.985676261476
 30
0.0
 11
-3431.932610034537
 21
-2010.985676261475
 31
0.0
  0
LINE
  5
1A6
330
1F
100
AcDbEntity
  8
3-0
  6
Continuous
 62
     7
370
     9
100
AcDbLine
 10
-2674.432610034536
 20
-1630.985676261476
 30
0.0
 11
-2674.432610034536
 21
-2010.985676261475
 31
0.0
  0
LINE
  5
1A7
330
1F
100
AcDbEntity
  8
3-0
  6
Continuous
 62
     7
370
     9
100
AcDbLine
 10
-1916.932610034537
 20
-1630.985676261476
 30
0.0
 11
-1916.932610034537
 21
-2010.985676261475
 31
0.0
  0
LINE
  5
1A8
330
1F
100
AcDbEntity
  8
3-0
  6
Continuous
 62
     7
370
     9
100
AcDbLine
 10
-6110.682610034537
 20
-1985.985676261475
 30
0.0
 11
-6083.182610034537
 21
-1985.985676261475
 31
0.0
  0
LINE
  5
1A9
330
1F
100
AcDbEntity
  8
3-0
  6
Continuous
 62
     7
370
     9
100
AcDbLine
 10
-6110.682610034537
 20
-1985.985676261475
 30
0.0
 11
-6085.682610034537
 21
-2010.985676261475
 31
0.0
  0
LINE
  5
1AA
330
1F
100
AcDbEntity
  8
3-0
  6
Continuous
 62
     7
370
     9
100
AcDbLine
 10
7551.817389965461
 20
-1628.485676261475
 30
0.0
 11
7551.817389965461
 21
-2010.985676261475
 31
0.0
  0
LINE
  5
1AB
330
1F
100
AcDbEntity
  8
3-0
  6
Continuous
 62
     7
370
     9
100
AcDbLine
 10
3385.567389965457
 20
-1630.985676261476
 30
0.0
 11
3385.567389965457
 21
-2010.985676261475
 31
0.0
  0
LINE
  5
1AC
330
1F
100
AcDbEntity
  8
3-0
  6
Continuous
 62
     7
370
     9
100
AcDbLine
 10
4143.067389965458
 20
-1630.985676261476
 30
0.0
 11
4143.067389965458
 21
-2010.985676261475
 31
0.0
  0
LINE
  5
1AD
330
1F
100
AcDbEntity
  8
3-0
  6
Continuous
 62
     7
370
     9
100
AcDbLine
 10
4900.567389965458
 20
-1630.985676261476
 30
0.0
 11
4900.567389965458
 21
-2010.985676261475
 31
0.0
  0
LINE
  5
1AE
330
1F
100
AcDbEntity
  8
3-0
  6
Continuous
 62
     7
370
     9
100
AcDbLine
 10
5658.067389965457
 20
-1630.985676261476
 30
0.0
 11
5658.067389965457
 21
-2010.985676261475
 31
0.0
  0
LINE
  5
1AF
330
1F
100
AcDbEntity
  8
3-0
  6
Continuous
 62
     7
370
     9
100
AcDbLine
 10
6415.567389965458
 20
-1630.985676261476
 30
0.0
 11
6415.567389965458
 21
-2010.985676261475
 31
0.0
  0
LINE
  5
1B0
330
1F
100
AcDbEntity
  8
3-0
  6
Continuous
 62
     7
370
     9
100
AcDbLine
 10
7173.067389965459
 20
-1630.985676261476
 30
0.0
 11
7173.067389965459
 21
-2010.985676261475
 31
0.0
  0
LINE
  5
1B1
330
1F
100
AcDbEntity
  8
3-0
  6
Continuous
 62
     7
370
     9
100
AcDbLine
 10
7526.817389965461
 20
-1603.485676261475
 30
0.0
 11
7526.817389965461
 21
-1630.985676261476
 31
0.0
  0
LINE
  5
1B2
330
1F
100
AcDbEntity
  8
3-0
  6
Continuous
 62
     7
370
     9
100
AcDbLine
 10
7526.817389965461
 20
-1603.485676261475
 30
0.0
 11
7551.817389965461
 21
-1628.485676261475
 31
0.0
  0
LINE
  5
1B3
330
1F
100
AcDbEntity
  8
3-0
  6
Continuous
 62
     7
370
     9
100
AcDbLine
 10
7551.817389965461
 20
-1630.985676261476
 30
0.0
 11
-6083.182610034537
 21
-1630.985676261476
 31
0.0
  0
LINE
  5
1B4
330
1F
100
AcDbEntity
  8
3-0
  6
Continuous
 62
     7
370
     9
100
AcDbLine
 10
7551.817389965461
 20
-2010.985676261475
 30
0.0
 11
-6085.682610034537
 21
-2010.985676261475
 31
0.0
  0
LINE
  5
1B5
330
1F
100
AcDbEntity
  8
3-0
  6
Continuous
 62
     7
370
     9
100
AcDbLine
 10
-6110.682610034537
 20
-1603.485676261475
 30
0.0
 11
7526.817389965463
 21
-1603.485676261475
 31
0.0
  0
LINE
  5
1B6
330
1F
100
AcDbEntity
  8
3-0
  6
Continuous
 62
     7
370
     9
100
AcDbLine
 10
-1159.432610034537
 20
-1630.985676261476
 30
0.0
 11
-1159.432610034537
 21
-2010.985676261475
 31
0.0
  0
LINE
  5
1B7
330
1F
100
AcDbEntity
  8
3-0
  6
Continuous
 62
     7
370
     9
100
AcDbLine
 10
-401.9326100345374
 20
-1630.985676261476
 30
0.0
 11
-401.9326100345374
 21
-2010.985676261475
 31
0.0
  0
LINE
  5
1B8
330
1F
100
AcDbEntity
  8
3-0
  6
Continuous
 62
     7
370
     9
100
AcDbLine
 10
355.5673899654622
 20
-1630.985676261476
 30
0.0
 11
355.5673899654622
 21
-2010.985676261475
 31
0.0
  0
LINE
  5
1B9
330
1F
100
AcDbEntity
  8
3-0
  6
Continuous
 62
     7
370
     9
100
AcDbLine
 10
1113.067389965462
 20
-1630.985676261476
 30
0.0
 11
1113.067389965462
 21
-2010.985676261475
 31
0.0
  0
LINE
  5
1BA
330
1F
100
AcDbEntity
  8
3-0
  6
Continuous
 62
     7
370
     9
100
AcDbLine
 10
1870.567389965461
 20
-1630.985676261476
 30
0.0
 11
1870.567389965461
 21
-2010.985676261475
 31
0.0
  0
LINE
  5
1BB
330
1F
100
AcDbEntity
  8
3-0
  6
Continuous
 62
     7
370
     9
100
AcDbLine
 10
2628.067389965461
 20
-1630.985676261476
 30
0.0
 11
2628.067389965461
 21
-2010.985676261475
 31
0.0
  0
LINE
  5
1BC
330
1F
100
AcDbEntity
  8
3-0
  6
Continuous
 62
     7
370
     9
100
AcDbLine
 10
-6083.182610034537
 20
3126.514323738526
 30
0.0
 11
-6083.182610034537
 21
2746.514323738526
 31
0.0
  0
LINE
  5
1BD
330
1F
100
AcDbEntity
  8
3-0
  6
Continuous
 62
     7
370
     9
100
AcDbLine
 10
-6110.682610034537
 20
3154.014323738525
 30
0.0
 11
-6110.682610034537
 21
2771.514323738526
 31
0.0
  0
LINE
  5
1BE
330
1F
100
AcDbEntity
  8
3-0
  6
Continuous
 62
     7
370
     9
100
AcDbLine
 10
-4568.182610034536
 20
3126.514323738526
 30
0.0
 11
-4568.182610034536
 21
2746.514323738526
 31
0.0
  0
LINE
  5
1BF
330
1F
100
AcDbEntity
  8
3-0
  6
Continuous
 62
     7
370
     9
100
AcDbLine
 10
-3810.682610034536
 20
3126.514323738526
 30
0.0
 11
-3810.682610034536
 21
2746.514323738526
 31
0.0
  0
LINE
  5
1C0
330
1F
100
AcDbEntity
  8
3-0
  6
Continuous
 62
     7
370
     9
100
AcDbLine
 10
-3053.182610034536
 20
3126.514323738526
 30
0.0
 11
-3053.182610034536
 21
2746.514323738526
 31
0.0
  0
LINE
  5
1C1
330
1F
100
AcDbEntity
  8
3-0
  6
Continuous
 62
     7
370
     9
100
AcDbLine
 10
-2295.682610034536
 20
3126.514323738526
 30
0.0
 11
-2295.682610034536
 21
2746.514323738526
 31
0.0
  0
LINE
  5
1C2
330
1F
100
AcDbEntity
  8
3-0
  6
Continuous
 62
     7
370
     9
100
AcDbLine
 10
-5325.682610034536
 20
3126.514323738526
 30
0.0
 11
-5325.682610034536
 21
2746.514323738526
 31
0.0
  0
LINE
  5
1C3
330
1F
100
AcDbEntity
  8
3-0
  6
Continuous
 62
     7
370
     9
100
AcDbLine
 10
-6110.682610034537
 20
2771.514323738526
 30
0.0
 11
-6083.182610034537
 21
2771.514323738526
 31
0.0
  0
LINE
  5
1C4
330
1F
100
AcDbEntity
  8
3-0
  6
Continuous
 62
     7
370
     9
100
AcDbLine
 10
-6110.682610034537
 20
2771.514323738526
 30
0.0
 11
-6085.682610034537
 21
2746.514323738526
 31
0.0
  0
LINE
  5
1C5
330
1F
100
AcDbEntity
  8
3-0
  6
Continuous
 62
     7
370
     9
100
AcDbLine
 10
3764.317389965458
 20
3126.514323738526
 30
0.0
 11
3764.317389965458
 21
2746.514323738526
 31
0.0
  0
LINE
  5
1C6
330
1F
100
AcDbEntity
  8
3-0
  6
Continuous
 62
     7
370
     9
100
AcDbLine
 10
4521.817389965458
 20
3126.514323738526
 30
0.0
 11
4521.817389965458
 21
2746.514323738526
 31
0.0
  0
LINE
  5
1C7
330
1F
100
AcDbEntity
  8
3-0
  6
Continuous
 62
     7
370
     9
100
AcDbLine
 10
5279.317389965459
 20
3126.514323738526
 30
0.0
 11
5279.317389965459
 21
2746.514323738526
 31
0.0
  0
LINE
  5
1C8
330
1F
100
AcDbEntity
  8
3-0
  6
Continuous
 62
     7
370
     9
100
AcDbLine
 10
6036.817389965459
 20
3126.514323738526
 30
0.0
 11
6036.817389965459
 21
2746.514323738526
 31
0.0
  0
LINE
  5
1C9
330
1F
100
AcDbEntity
  8
3-0
  6
Continuous
 62
     7
370
     9
100
AcDbLine
 10
6794.317389965459
 20
3126.514323738526
 30
0.0
 11
6794.317389965459
 21
2746.514323738526
 31
0.0
  0
LINE
  5
1CA
330
1F
100
AcDbEntity
  8
3-0
  6
Continuous
 62
     7
370
     9
100
AcDbLine
 10
7551.817389965461
 20
2746.514323738526
 30
0.0
 11
7551.817389965461
 21
3129.014323738525
 31
0.0
  0
LINE
  5
1CB
330
1F
100
AcDbEntity
  8
3-0
  6
Continuous
 62
     7
370
     9
100
AcDbLine
 10
7526.817389965461
 20
3154.014323738525
 30
0.0
 11
7526.817389965461
 21
3126.514323738526
 31
0.0
  0
LINE
  5
1CC
330
1F
100
AcDbEntity
  8
3-0
  6
Continuous
 62
     7
370
     9
100
AcDbLine
 10
7526.817389965461
 20
3154.014323738525
 30
0.0
 11
7551.817389965461
 21
3129.014323738525
 31
0.0
  0
LINE
  5
1CD
330
1F
100
AcDbEntity
  8
3-0
  6
Continuous
 62
     7
370
     9
100
AcDbLine
 10
7551.817389965461
 20
3126.514323738526
 30
0.0
 11
-6083.182610034537
 21
3126.514323738526
 31
0.0
  0
LINE
  5
1CE
330
1F
100
AcDbEntity
  8
3-0
  6
Continuous
 62
     7
370
     9
100
AcDbLine
 10
7551.817389965461
 20
2746.514323738526
 30
0.0
 11
-6085.682610034537
 21
2746.514323738526
 31
0.0
  0
LINE
  5
1CF
330
1F
100
AcDbEntity
  8
3-0
  6
Continuous
 62
     7
370
     9
100
AcDbLine
 10
-6110.682610034537
 20
3154.014323738525
 30
0.0
 11
7526.817389965463
 21
3154.014323738525
 31
0.0
  0
LINE
  5
1D0
330
1F
100
AcDbEntity
  8
3-0
  6
Continuous
 62
     7
370
     9
100
AcDbLine
 10
-1538.182610034537
 20
3126.514323738526
 30
0.0
 11
-1538.182610034537
 21
2746.514323738526
 31
0.0
  0
LINE
  5
1D1
330
1F
100
AcDbEntity
  8
3-0
  6
Continuous
 62
     7
370
     9
100
AcDbLine
 10
-780.6826100345369
 20
3126.514323738526
 30
0.0
 11
-780.6826100345369
 21
2746.514323738526
 31
0.0
  0
LINE
  5
1D2
330
1F
100
AcDbEntity
  8
3-0
  6
Continuous
 62
     7
370
     9
100
AcDbLine
 10
-23.18261003453728
 20
3126.514323738526
 30
0.0
 11
-23.18261003453728
 21
2746.514323738526
 31
0.0
  0
LINE
  5
1D3
330
1F
100
AcDbEntity
  8
3-0
  6
Continuous
 62
     7
370
     9
100
AcDbLine
 10
734.3173899654623
 20
3126.514323738526
 30
0.0
 11
734.3173899654623
 21
2746.514323738526
 31
0.0
  0
LINE
  5
1D4
330
1F
100
AcDbEntity
  8
3-0
  6
Continuous
 62
     7
370
     9
100
AcDbLine
 10
1491.817389965462
 20
3126.514323738526
 30
0.0
 11
1491.817389965462
 21
2746.514323738526
 31
0.0
  0
LINE
  5
1D5
330
1F
100
AcDbEntity
  8
3-0
  6
Continuous
 62
     7
370
     9
100
AcDbLine
 10
2249.317389965462
 20
3126.514323738526
 30
0.0
 11
2249.317389965462
 21
2746.514323738526
 31
0.0
  0
LINE
  5
1D6
330
1F
100
AcDbEntity
  8
3-0
  6
Continuous
 62
     7
370
     9
100
AcDbLine
 10
3006.817389965461
 20
3126.514323738526
 30
0.0
 11
3006.817389965461
 21
2746.514323738526
 31
0.0
  0
LINE
  5
1D7
330
1F
100
AcDbEntity
  8
3-0
  6
Continuous
 62
     7
370
     9
100
AcDbLine
 10
-6083.182610034537
 20
276.5143237385246
 30
0.0
 11
-6083.182610034537
 21
-103.4856762614751
 31
0.0
  0
LINE
  5
1D8
330
1F
100
AcDbEntity
  8
3-0
  6
Continuous
 62
     7
370
     9
100
AcDbLine
 10
-6110.682610034537
 20
304.0143237385237
 30
0.0
 11
-6110.682610034537
 21
-78.48567626147513
 31
0.0
  0
LINE
  5
1D9
330
1F
100
AcDbEntity
  8
3-0
  6
Continuous
 62
     7
370
     9
100
AcDbLine
 10
-4568.182610034536
 20
276.5143237385246
 30
0.0
 11
-4568.182610034536
 21
-103.4856762614751
 31
0.0
  0
LINE
  5
1DA
330
1F
100
AcDbEntity
  8
3-0
  6
Continuous
 62
     7
370
     9
100
AcDbLine
 10
-3810.682610034536
 20
276.5143237385246
 30
0.0
 11
-3810.682610034536
 21
-103.4856762614751
 31
0.0
  0
LINE
  5
1DB
330
1F
100
AcDbEntity
  8
3-0
  6
Continuous
 62
     7
370
     9
100
AcDbLine
 10
-3053.182610034536
 20
276.5143237385246
 30
0.0
 11
-3053.182610034536
 21
-103.4856762614751
 31
0.0
  0
LINE
  5
1DC
330
1F
100
AcDbEntity
  8
3-0
  6
Continuous
 62
     7
370
     9
100
AcDbLine
 10
-2295.682610034536
 20
276.5143237385246
 30
0.0
 11
-2295.682610034536
 21
-103.4856762614751
 31
0.0
  0
LINE
  5
1DD
330
1F
100
AcDbEntity
  8
3-0
  6
Continuous
 62
     7
370
     9
100
AcDbLine
 10
-5325.682610034536
 20
276.5143237385246
 30
0.0
 11
-5325.682610034536
 21
-103.4856762614751
 31
0.0
  0
LINE
  5
1DE
330
1F
100
AcDbEntity
  8
3-0
  6
Continuous
 62
     7
370
     9
100
AcDbLine
 10
-6110.682610034537
 20
-78.48567626147513
 30
0.0
 11
-6083.182610034537
 21
-78.48567626147513
 31
0.0
  0
LINE
  5
1DF
330
1F
100
AcDbEntity
  8
3-0
  6
Continuous
 62
     7
370
     9
100
AcDbLine
 10
-6110.682610034537
 20
-78.48567626147513
 30
0.0
 11
-6085.682610034537
 21
-103.4856762614751
 31
0.0
  0
LINE
  5
1E0
330
1F
100
AcDbEntity
  8
3-0
  6
Continuous
 62
     7
370
     9
100
AcDbLine
 10
3764.317389965458
 20
276.5143237385246
 30
0.0
 11
3764.317389965458
 21
-103.4856762614751
 31
0.0
  0
LINE
  5
1E1
330
1F
100
AcDbEntity
  8
3-0
  6
Continuous
 62
     7
370
     9
100
AcDbLine
 10
4521.817389965458
 20
276.5143237385246
 30
0.0
 11
4521.817389965458
 21
-103.4856762614751
 31
0.0
  0
LINE
  5
1E2
330
1F
100
AcDbEntity
  8
3-0
  6
Continuous
 62
     7
370
     9
100
AcDbLine
 10
5279.317389965459
 20
276.5143237385246
 30
0.0
 11
5279.317389965459
 21
-103.4856762614751
 31
0.0
  0
LINE
  5
1E3
330
1F
100
AcDbEntity
  8
3-0
  6
Continuous
 62
     7
370
     9
100
AcDbLine
 10
6036.817389965459
 20
276.5143237385246
 30
0.0
 11
6036.817389965459
 21
-103.4856762614751
 31
0.0
  0
LINE
  5
1E4
330
1F
100
AcDbEntity
  8
3-0
  6
Continuous
 62
     7
370
     9
100
AcDbLine
 10
6794.317389965459
 20
276.5143237385246
 30
0.0
 11
6794.317389965459
 21
-103.4856762614751
 31
0.0
  0
LINE
  5
1E5
330
1F
100
AcDbEntity
  8
3-0
  6
Continuous
 62
     7
370
     9
100
AcDbLine
 10
7551.817389965461
 20
-103.4856762614751
 30
0.0
 11
-6085.682610034537
 21
-103.4856762614751
 31
0.0
  0
LINE
  5
1E6
330
1F
100
AcDbEntity
  8
3-0
  6
Continuous
 62
     7
370
     9
100
AcDbLine
 10
-1538.182610034537
 20
276.5143237385246
 30
0.0
 11
-1538.182610034537
 21
-103.4856762614751
 31
0.0
  0
LINE
  5
1E7
330
1F
100
AcDbEntity
  8
3-0
  6
Continuous
 62
     7
370
     9
100
AcDbLine
 10
-780.6826100345369
 20
276.5143237385246
 30
0.0
 11
-780.6826100345369
 21
-103.4856762614751
 31
0.0
  0
LINE
  5
1E8
330
1F
100
AcDbEntity
  8
3-0
  6
Continuous
 62
     7
370
     9
100
AcDbLine
 10
-23.18261003453728
 20
276.5143237385246
 30
0.0
 11
-23.18261003453728
 21
-103.4856762614751
 31
0.0
  0
LINE
  5
1E9
330
1F
100
AcDbEntity
  8
3-0
  6
Continuous
 62
     7
370
     9
100
AcDbLine
 10
734.3173899654623
 20
276.5143237385246
 30
0.0
 11
734.3173899654623
 21
-103.4856762614751
 31
0.0
  0
LINE
  5
1EA
330
1F
100
AcDbEntity
  8
3-0
  6
Continuous
 62
     7
370
     9
100
AcDbLine
 10
1491.817389965462
 20
276.5143237385246
 30
0.0
 11
1491.817389965462
 21
-103.4856762614751
 31
0.0
  0
LINE
  5
1EB
330
1F
100
AcDbEntity
  8
3-0
  6
Continuous
 62
     7
370
     9
100
AcDbLine
 10
2249.317389965462
 20
276.5143237385246
 30
0.0
 11
2249.317389965462
 21
-103.4856762614751
 31
0.0
  0
LINE
  5
1EC
330
1F
100
AcDbEntity
  8
3-0
  6
Continuous
 62
     7
370
     9
100
AcDbLine
 10
3006.817389965461
 20
276.5143237385246
 30
0.0
 11
3006.817389965461
 21
-103.4856762614751
 31
0.0
  0
LINE
  5
1ED
330
1F
100
AcDbEntity
  8
3-0
  6
Continuous
 62
     7
370
     9
100
AcDbLine
 10
7551.817389965461
 20
276.5143237385246
 30
0.0
 11
-6083.182610034537
 21
276.5143237385246
 31
0.0
  0
LINE
  5
1EE
330
1F
100
AcDbEntity
  8
3-0
  6
Continuous
 62
     7
370
     9
100
AcDbLine
 10
7551.817389965461
 20
-103.4856762614751
 30
0.0
 11
7551.817389965461
 21
276.5143237385246
 31
0.0
  0
LINE
  5
1EF
330
1F
100
AcDbEntity
  8
3-0
  6
Continuous
 62
     7
370
     9
100
AcDbLine
 10
-6110.682610034537
 20
304.0143237385237
 30
0.0
 11
-6105.682610034536
 21
304.0143237385237
 31
0.0
  0
LINE
  5
1F0
330
1F
100
AcDbEntity
  8
3-0
  6
Continuous
 62
     7
370
     9
100
AcDbLine
 10
-6083.182610034537
 20
-2018.485676261476
 30
0.0
 11
-6083.182610034537
 21
-2398.485676261475
 31
0.0
  0
LINE
  5
1F1
330
1F
100
AcDbEntity
  8
3-0
  6
Continuous
 62
     7
370
     9
100
AcDbLine
 10
-4568.182610034536
 20
-2018.485676261476
 30
0.0
 11
-4568.182610034536
 21
-2398.485676261475
 31
0.0
  0
LINE
  5
1F2
330
1F
100
AcDbEntity
  8
3-0
  6
Continuous
 62
     7
370
     9
100
AcDbLine
 10
-3810.682610034536
 20
-2018.485676261476
 30
0.0
 11
-3810.682610034536
 21
-2398.485676261475
 31
0.0
  0
LINE
  5
1F3
330
1F
100
AcDbEntity
  8
3-0
  6
Continuous
 62
     7
370
     9
100
AcDbLine
 10
-3053.182610034536
 20
-2018.485676261476
 30
0.0
 11
-3053.182610034536
 21
-2398.485676261475
 31
0.0
  0
LINE
  5
1F4
330
1F
100
AcDbEntity
  8
3-0
  6
Continuous
 62
     7
370
     9
100
AcDbLine
 10
-2295.682610034536
 20
-2018.485676261476
 30
0.0
 11
-2295.682610034536
 21
-2398.485676261475
 31
0.0
  0
LINE
  5
1F5
330
1F
100
AcDbEntity
  8
3-0
  6
Continuous
 62
     7
370
     9
100
AcDbLine
 10
-5325.682610034536
 20
-2018.485676261476
 30
0.0
 11
-5325.682610034536
 21
-2398.485676261475
 31
0.0
  0
LINE
  5
1F6
330
1F
100
AcDbEntity
  8
3-0
  6
Continuous
 62
     7
370
     9
100
AcDbLine
 10
-6110.682610034537
 20
-2373.485676261475
 30
0.0
 11
-6083.182610034537
 21
-2373.485676261475
 31
0.0
  0
LINE
  5
1F7
330
1F
100
AcDbEntity
  8
3-0
  6
Continuous
 62
     7
370
     9
100
AcDbLine
 10
-6110.682610034537
 20
-2373.485676261475
 30
0.0
 11
-6085.682610034537
 21
-2398.485676261475
 31
0.0
  0
LINE
  5
1F8
330
1F
100
AcDbEntity
  8
3-0
  6
Continuous
 62
     7
370
     9
100
AcDbLine
 10
3764.317389965458
 20
-2018.485676261476
 30
0.0
 11
3764.317389965458
 21
-2398.485676261475
 31
0.0
  0
LINE
  5
1F9
330
1F
100
AcDbEntity
  8
3-0
  6
Continuous
 62
     7
370
     9
100
AcDbLine
 10
4521.817389965458
 20
-2018.485676261476
 30
0.0
 11
4521.817389965458
 21
-2398.485676261475
 31
0.0
  0
LINE
  5
1FA
330
1F
100
AcDbEntity
  8
3-0
  6
Continuous
 62
     7
370
     9
100
AcDbLine
 10
5279.317389965459
 20
-2018.485676261476
 30
0.0
 11
5279.317389965459
 21
-2398.485676261475
 31
0.0
  0
LINE
  5
1FB
330
1F
100
AcDbEntity
  8
3-0
  6
Continuous
 62
     7
370
     9
100
AcDbLine
 10
6036.817389965459
 20
-2018.485676261476
 30
0.0
 11
6036.817389965459
 21
-2398.485676261475
 31
0.0
  0
LINE
  5
1FC
330
1F
100
AcDbEntity
  8
3-0
  6
Continuous
 62
     7
370
     9
100
AcDbLine
 10
6794.317389965459
 20
-2018.485676261476
 30
0.0
 11
6794.317389965459
 21
-2398.485676261475
 31
0.0
  0
LINE
  5
1FD
330
1F
100
AcDbEntity
  8
3-0
  6
Continuous
 62
     7
370
     9
100
AcDbLine
 10
7551.817389965461
 20
-2398.485676261475
 30
0.0
 11
-6085.682610034537
 21
-2398.485676261475
 31
0.0
  0
LINE
  5
1FE
330
1F
100
AcDbEntity
  8
3-0
  6
Continuous
 62
     7
370
     9
100
AcDbLine
 10
-1538.182610034537
 20
-2018.485676261476
 30
0.0
 11
-1538.182610034537
 21
-2398.485676261475
 31
0.0
  0
LINE
  5
1FF
330
1F
100
AcDbEntity
  8
3-0
  6
Continuous
 62
     7
370
     9
100
AcDbLine
 10
-780.6826100345369
 20
-2018.485676261476
 30
0.0
 11
-780.6826100345369
 21
-2398.485676261475
 31
0.0
  0
LINE
  5
200
330
1F
100
AcDbEntity
  8
3-0
  6
Continuous
 62
     7
370
     9
100
AcDbLine
 10
-23.18261003453728
 20
-2018.485676261476
 30
0.0
 11
-23.18261003453728
 21
-2398.485676261475
 31
0.0
  0
LINE
  5
201
330
1F
100
AcDbEntity
  8
3-0
  6
Continuous
 62
     7
370
     9
100
AcDbLine
 10
734.3173899654623
 20
-2018.485676261476
 30
0.0
 11
734.3173899654623
 21
-2398.485676261475
 31
0.0
  0
LINE
  5
202
330
1F
100
AcDbEntity
  8
3-0
  6
Continuous
 62
     7
370
     9
100
AcDbLine
 10
1491.817389965462
 20
-2018.485676261476
 30
0.0
 11
1491.817389965462
 21
-2398.485676261475
 31
0.0
  0
LINE
  5
203
330
1F
100
AcDbEntity
  8
3-0
  6
Continuous
 62
     7
370
     9
100
AcDbLine
 10
2249.317389965462
 20
-2018.485676261476
 30
0.0
 11
2249.317389965462
 21
-2398.485676261475
 31
0.0
  0
LINE
  5
204
330
1F
100
AcDbEntity
  8
3-0
  6
Continuous
 62
     7
370
     9
100
AcDbLine
 10
3006.817389965461
 20
-2018.485676261476
 30
0.0
 11
3006.817389965461
 21
-2398.485676261475
 31
0.0
  0
LINE
  5
205
330
1F
100
AcDbEntity
  8
3-0
  6
Continuous
 62
     7
370
     9
100
AcDbLine
 10
7551.817389965461
 20
-2018.485676261476
 30
0.0
 11
-6083.182610034537
 21
-2018.485676261476
 31
0.0
  0
LINE
  5
206
330
1F
100
AcDbEntity
  8
3-0
  6
Continuous
 62
     7
370
     9
100
AcDbLine
 10
7551.817389965461
 20
-2398.485676261475
 30
0.0
 11
7551.817389965461
 21
-2018.485676261476
 31
0.0
  0
LINE
  5
207
330
1F
100
AcDbEntity
  8
3-0
  6
Continuous
 62
     7
370
     9
100
AcDbLine
 10
-6110.682610034537
 20
-1990.985676261477
 30
0.0
 11
-6110.682610034537
 21
-2373.485676261475
 31
0.0
  0
LINE
  5
208
330
1F
100
AcDbEntity
  8
3-0
  6
Continuous
 62
     7
370
     9
100
AcDbLine
 10
-6110.682610034537
 20
-1990.985676261477
 30
0.0
 11
-6105.682610034536
 21
-1990.985676261477
 31
0.0
  0
LINE
  5
209
330
1F
100
AcDbEntity
  8
3-0
  6
Continuous
 62
     7
370
     9
100
AcDbLine
 10
-6110.682610034537
 20
-2378.485676261475
 30
0.0
 11
-6110.682610034537
 21
-2760.985676261476
 31
0.0
  0
LINE
  5
20A
330
1F
100
AcDbEntity
  8
3-0
  6
Continuous
 62
     7
370
     9
100
AcDbLine
 10
-6083.182610034537
 20
-2405.985676261476
 30
0.0
 11
-6083.182610034537
 21
-2785.985676261476
 31
0.0
  0
LINE
  5
20B
330
1F
100
AcDbEntity
  8
3-0
  6
Continuous
 62
     7
370
     9
100
AcDbLine
 10
-4946.932610034536
 20
-2405.985676261476
 30
0.0
 11
-4946.932610034536
 21
-2785.985676261476
 31
0.0
  0
LINE
  5
20C
330
1F
100
AcDbEntity
  8
3-0
  6
Continuous
 62
     7
370
     9
100
AcDbLine
 10
-4189.432610034537
 20
-2405.985676261476
 30
0.0
 11
-4189.432610034537
 21
-2785.985676261476
 31
0.0
  0
LINE
  5
20D
330
1F
100
AcDbEntity
  8
3-0
  6
Continuous
 62
     7
370
     9
100
AcDbLine
 10
-5704.432610034535
 20
-2405.985676261476
 30
0.0
 11
-5704.432610034535
 21
-2785.985676261476
 31
0.0
  0
LINE
  5
20E
330
1F
100
AcDbEntity
  8
3-0
  6
Continuous
 62
     7
370
     9
100
AcDbLine
 10
-3431.932610034537
 20
-2405.985676261476
 30
0.0
 11
-3431.932610034537
 21
-2785.985676261476
 31
0.0
  0
LINE
  5
20F
330
1F
100
AcDbEntity
  8
3-0
  6
Continuous
 62
     7
370
     9
100
AcDbLine
 10
-2674.432610034536
 20
-2405.985676261476
 30
0.0
 11
-2674.432610034536
 21
-2785.985676261476
 31
0.0
  0
LINE
  5
210
330
1F
100
AcDbEntity
  8
3-0
  6
Continuous
 62
     7
370
     9
100
AcDbLine
 10
-1916.932610034537
 20
-2405.985676261476
 30
0.0
 11
-1916.932610034537
 21
-2785.985676261476
 31
0.0
  0
LINE
  5
211
330
1F
100
AcDbEntity
  8
3-0
  6
Continuous
 62
     7
370
     9
100
AcDbLine
 10
-6110.682610034537
 20
-2760.985676261476
 30
0.0
 11
-6083.182610034537
 21
-2760.985676261476
 31
0.0
  0
LINE
  5
212
330
1F
100
AcDbEntity
  8
3-0
  6
Continuous
 62
     7
370
     9
100
AcDbLine
 10
-6110.682610034537
 20
-2760.985676261476
 30
0.0
 11
-6085.682610034537
 21
-2785.985676261476
 31
0.0
  0
LINE
  5
213
330
1F
100
AcDbEntity
  8
3-0
  6
Continuous
 62
     7
370
     9
100
AcDbLine
 10
7551.817389965461
 20
-2405.985676261476
 30
0.0
 11
7551.817389965461
 21
-2785.985676261476
 31
0.0
  0
LINE
  5
214
330
1F
100
AcDbEntity
  8
3-0
  6
Continuous
 62
     7
370
     9
100
AcDbLine
 10
3385.567389965457
 20
-2405.985676261476
 30
0.0
 11
3385.567389965457
 21
-2785.985676261476
 31
0.0
  0
LINE
  5
215
330
1F
100
AcDbEntity
  8
3-0
  6
Continuous
 62
     7
370
     9
100
AcDbLine
 10
4143.067389965458
 20
-2405.985676261476
 30
0.0
 11
4143.067389965458
 21
-2785.985676261476
 31
0.0
  0
LINE
  5
216
330
1F
100
AcDbEntity
  8
3-0
  6
Continuous
 62
     7
370
     9
100
AcDbLine
 10
4900.567389965458
 20
-2405.985676261476
 30
0.0
 11
4900.567389965458
 21
-2785.985676261476
 31
0.0
  0
LINE
  5
217
330
1F
100
AcDbEntity
  8
3-0
  6
Continuous
 62
     7
370
     9
100
AcDbLine
 10
5658.067389965457
 20
-2405.985676261476
 30
0.0
 11
5658.067389965457
 21
-2785.985676261476
 31
0.0
  0
LINE
  5
218
330
1F
100
AcDbEntity
  8
3-0
  6
Continuous
 62
     7
370
     9
100
AcDbLine
 10
6415.567389965458
 20
-2405.985676261476
 30
0.0
 11
6415.567389965458
 21
-2785.985676261476
 31
0.0
  0
LINE
  5
219
330
1F
100
AcDbEntity
  8
3-0
  6
Continuous
 62
     7
370
     9
100
AcDbLine
 10
7173.067389965459
 20
-2405.985676261476
 30
0.0
 11
7173.067389965459
 21
-2785.985676261476
 31
0.0
  0
LINE
  5
21A
330
1F
100
AcDbEntity
  8
3-0
  6
Continuous
 62
     7
370
     9
100
AcDbLine
 10
7551.817389965461
 20
-2785.985676261476
 30
0.0
 11
-6085.682610034537
 21
-2785.985676261476
 31
0.0
  0
LINE
  5
21B
330
1F
100
AcDbEntity
  8
3-0
  6
Continuous
 62
     7
370
     9
100
AcDbLine
 10
-1159.432610034537
 20
-2405.985676261476
 30
0.0
 11
-1159.432610034537
 21
-2785.985676261476
 31
0.0
  0
LINE
  5
21C
330
1F
100
AcDbEntity
  8
3-0
  6
Continuous
 62
     7
370
     9
100
AcDbLine
 10
-401.9326100345374
 20
-2405.985676261476
 30
0.0
 11
-401.9326100345374
 21
-2785.985676261476
 31
0.0
  0
LINE
  5
21D
330
1F
100
AcDbEntity
  8
3-0
  6
Continuous
 62
     7
370
     9
100
AcDbLine
 10
355.5673899654622
 20
-2405.985676261476
 30
0.0
 11
355.5673899654622
 21
-2785.985676261476
 31
0.0
  0
LINE
  5
21E
330
1F
100
AcDbEntity
  8
3-0
  6
Continuous
 62
     7
370
     9
100
AcDbLine
 10
1113.067389965462
 20
-2405.985676261476
 30
0.0
 11
1113.067389965462
 21
-2785.985676261476
 31
0.0
  0
LINE
  5
21F
330
1F
100
AcDbEntity
  8
3-0
  6
Continuous
 62
     7
370
     9
100
AcDbLine
 10
1870.567389965461
 20
-2405.985676261476
 30
0.0
 11
1870.567389965461
 21
-2785.985676261476
 31
0.0
  0
LINE
  5
220
330
1F
100
AcDbEntity
  8
3-0
  6
Continuous
 62
     7
370
     9
100
AcDbLine
 10
2628.067389965461
 20
-2405.985676261476
 30
0.0
 11
2628.067389965461
 21
-2785.985676261476
 31
0.0
  0
LINE
  5
221
330
1F
100
AcDbEntity
  8
3-0
  6
Continuous
 62
     7
370
     9
100
AcDbLine
 10
-6083.182610034537
 20
-2793.485676261476
 30
0.0
 11
-6083.182610034537
 21
-3173.485676261476
 31
0.0
  0
LINE
  5
222
330
1F
100
AcDbEntity
  8
3-0
  6
Continuous
 62
     7
370
     9
100
AcDbLine
 10
-4568.182610034536
 20
-2793.485676261476
 30
0.0
 11
-4568.182610034536
 21
-3173.485676261476
 31
0.0
  0
LINE
  5
223
330
1F
100
AcDbEntity
  8
3-0
  6
Continuous
 62
     7
370
     9
100
AcDbLine
 10
-3810.682610034536
 20
-2793.485676261476
 30
0.0
 11
-3810.682610034536
 21
-3173.485676261476
 31
0.0
  0
LINE
  5
224
330
1F
100
AcDbEntity
  8
3-0
  6
Continuous
 62
     7
370
     9
100
AcDbLine
 10
-3053.182610034536
 20
-2793.485676261476
 30
0.0
 11
-3053.182610034536
 21
-3173.485676261476
 31
0.0
  0
LINE
  5
225
330
1F
100
AcDbEntity
  8
3-0
  6
Continuous
 62
     7
370
     9
100
AcDbLine
 10
-2295.682610034536
 20
-2793.485676261476
 30
0.0
 11
-2295.682610034536
 21
-3173.485676261476
 31
0.0
  0
LINE
  5
226
330
1F
100
AcDbEntity
  8
3-0
  6
Continuous
 62
     7
370
     9
100
AcDbLine
 10
-5325.682610034536
 20
-2793.485676261476
 30
0.0
 11
-5325.682610034536
 21
-3173.485676261476
 31
0.0
  0
LINE
  5
227
330
1F
100
AcDbEntity
  8
3-0
  6
Continuous
 62
     7
370
     9
100
AcDbLine
 10
-6110.682610034537
 20
-3148.485676261476
 30
0.0
 11
-6083.182610034537
 21
-3148.485676261476
 31
0.0
  0
LINE
  5
228
330
1F
100
AcDbEntity
  8
3-0
  6
Continuous
 62
     7
370
     9
100
AcDbLine
 10
-6110.682610034537
 20
-3148.485676261476
 30
0.0
 11
-6085.682610034537
 21
-3173.485676261476
 31
0.0
  0
LINE
  5
229
330
1F
100
AcDbEntity
  8
3-0
  6
Continuous
 62
     7
370
     9
100
AcDbLine
 10
3764.317389965458
 20
-2793.485676261476
 30
0.0
 11
3764.317389965458
 21
-3173.485676261476
 31
0.0
  0
LINE
  5
22A
330
1F
100
AcDbEntity
  8
3-0
  6
Continuous
 62
     7
370
     9
100
AcDbLine
 10
4521.817389965458
 20
-2793.485676261476
 30
0.0
 11
4521.817389965458
 21
-3173.485676261476
 31
0.0
  0
LINE
  5
22B
330
1F
100
AcDbEntity
  8
3-0
  6
Continuous
 62
     7
370
     9
100
AcDbLine
 10
5279.317389965459
 20
-2793.485676261476
 30
0.0
 11
5279.317389965459
 21
-3173.485676261476
 31
0.0
  0
LINE
  5
22C
330
1F
100
AcDbEntity
  8
3-0
  6
Continuous
 62
     7
370
     9
100
AcDbLine
 10
6036.817389965459
 20
-2793.485676261476
 30
0.0
 11
6036.817389965459
 21
-3173.485676261476
 31
0.0
  0
LINE
  5
22D
330
1F
100
AcDbEntity
  8
3-0
  6
Continuous
 62
     7
370
     9
100
AcDbLine
 10
6794.317389965459
 20
-2793.485676261476
 30
0.0
 11
6794.317389965459
 21
-3173.485676261476
 31
0.0
  0
LINE
  5
22E
330
1F
100
AcDbEntity
  8
3-0
  6
Continuous
 62
     7
370
     9
100
AcDbLine
 10
7551.817389965461
 20
-3173.485676261476
 30
0.0
 11
-6085.682610034537
 21
-3173.485676261476
 31
0.0
  0
LINE
  5
22F
330
1F
100
AcDbEntity
  8
3-0
  6
Continuous
 62
     7
370
     9
100
AcDbLine
 10
-1538.182610034537
 20
-2793.485676261476
 30
0.0
 11
-1538.182610034537
 21
-3173.485676261476
 31
0.0
  0
LINE
  5
230
330
1F
100
AcDbEntity
  8
3-0
  6
Continuous
 62
     7
370
     9
100
AcDbLine
 10
-780.6826100345369
 20
-2793.485676261476
 30
0.0
 11
-780.6826100345369
 21
-3173.485676261476
 31
0.0
  0
LINE
  5
231
330
1F
100
AcDbEntity
  8
3-0
  6
Continuous
 62
     7
370
     9
100
AcDbLine
 10
-23.18261003453728
 20
-2793.485676261476
 30
0.0
 11
-23.18261003453728
 21
-3173.485676261476
 31
0.0
  0
LINE
  5
232
330
1F
100
AcDbEntity
  8
3-0
  6
Continuous
 62
     7
370
     9
100
AcDbLine
 10
734.3173899654623
 20
-2793.485676261476
 30
0.0
 11
734.3173899654623
 21
-3173.485676261476
 31
0.0
  0
LINE
  5
233
330
1F
100
AcDbEntity
  8
3-0
  6
Continuous
 62
     7
370
     9
100
AcDbLine
 10
1491.817389965462
 20
-2793.485676261476
 30
0.0
 11
1491.817389965462
 21
-3173.485676261476
 31
0.0
  0
LINE
  5
234
330
1F
100
AcDbEntity
  8
3-0
  6
Continuous
 62
     7
370
     9
100
AcDbLine
 10
2249.317389965462
 20
-2793.485676261476
 30
0.0
 11
2249.317389965462
 21
-3173.485676261476
 31
0.0
  0
LINE
  5
235
330
1F
100
AcDbEntity
  8
3-0
  6
Continuous
 62
     7
370
     9
100
AcDbLine
 10
3006.817389965461
 20
-2793.485676261476
 30
0.0
 11
3006.817389965461
 21
-3173.485676261476
 31
0.0
  0
LINE
  5
236
330
1F
100
AcDbEntity
  8
3-0
  6
Continuous
 62
     7
370
     9
100
AcDbLine
 10
7551.817389965461
 20
-2793.485676261476
 30
0.0
 11
-6083.182610034537
 21
-2793.485676261476
 31
0.0
  0
LINE
  5
237
330
1F
100
AcDbEntity
  8
3-0
  6
Continuous
 62
     7
370
     9
100
AcDbLine
 10
7551.817389965461
 20
-3173.485676261476
 30
0.0
 11
7551.817389965461
 21
-2793.485676261476
 31
0.0
  0
LINE
  5
238
330
1F
100
AcDbEntity
  8
3-0
  6
Continuous
 62
     7
370
     9
100
AcDbLine
 10
-6110.682610034537
 20
-2765.985676261477
 30
0.0
 11
-6110.682610034537
 21
-3148.485676261476
 31
0.0
  0
LINE
  5
239
330
1F
100
AcDbEntity
  8
3-0
  6
Continuous
 62
     7
370
     9
100
AcDbLine
 10
-6110.682610034537
 20
-2765.985676261477
 30
0.0
 11
-6105.682610034536
 21
-2765.985676261477
 31
0.0
  0
LINE
  5
23A
330
1F
100
AcDbEntity
  8
3-0
  6
Continuous
 62
     7
370
     9
100
AcDbLine
 10
-6110.682610034537
 20
-2378.485676261475
 30
0.0
 11
-6105.682610034536
 21
-2378.485676261475
 31
0.0
  0
LINE
  5
23B
330
1F
100
AcDbEntity
  8
3-0
  6
Continuous
 62
     7
370
     9
100
AcDbLine
 10
7551.817389965461
 20
-2405.985676261476
 30
0.0
 11
-6083.182610034537
 21
-2405.985676261476
 31
0.0
  0
LINE
  5
23C
330
1F
100
AcDbEntity
  8
3-0
  6
Continuous
 62
     7
370
     9
100
AcDbLine
 10
-6110.682610034537
 20
-3153.485676261475
 30
0.0
 11
-6110.682610034537
 21
-3535.985676261475
 31
0.0
  0
LINE
  5
23D
330
1F
100
AcDbEntity
  8
3-0
  6
Continuous
 62
     7
370
     9
100
AcDbLine
 10
-6083.182610034537
 20
-3180.985676261476
 30
0.0
 11
-6083.182610034537
 21
-3560.985676261475
 31
0.0
  0
LINE
  5
23E
330
1F
100
AcDbEntity
  8
3-0
  6
Continuous
 62
     7
370
     9
100
AcDbLine
 10
-4946.932610034536
 20
-3180.985676261476
 30
0.0
 11
-4946.932610034536
 21
-3560.985676261475
 31
0.0
  0
LINE
  5
23F
330
1F
100
AcDbEntity
  8
3-0
  6
Continuous
 62
     7
370
     9
100
AcDbLine
 10
-4189.432610034537
 20
-3180.985676261476
 30
0.0
 11
-4189.432610034537
 21
-3560.985676261475
 31
0.0
  0
LINE
  5
240
330
1F
100
AcDbEntity
  8
3-0
  6
Continuous
 62
     7
370
     9
100
AcDbLine
 10
-5704.432610034535
 20
-3180.985676261476
 30
0.0
 11
-5704.432610034535
 21
-3560.985676261475
 31
0.0
  0
LINE
  5
241
330
1F
100
AcDbEntity
  8
3-0
  6
Continuous
 62
     7
370
     9
100
AcDbLine
 10
-3431.932610034537
 20
-3180.985676261476
 30
0.0
 11
-3431.932610034537
 21
-3560.985676261475
 31
0.0
  0
LINE
  5
242
330
1F
100
AcDbEntity
  8
3-0
  6
Continuous
 62
     7
370
     9
100
AcDbLine
 10
-2674.432610034536
 20
-3180.985676261476
 30
0.0
 11
-2674.432610034536
 21
-3560.985676261475
 31
0.0
  0
LINE
  5
243
330
1F
100
AcDbEntity
  8
3-0
  6
Continuous
 62
     7
370
     9
100
AcDbLine
 10
-1916.932610034537
 20
-3180.985676261476
 30
0.0
 11
-1916.932610034537
 21
-3560.985676261475
 31
0.0
  0
LINE
  5
244
330
1F
100
AcDbEntity
  8
3-0
  6
Continuous
 62
     7
370
     9
100
AcDbLine
 10
-6110.682610034537
 20
-3535.985676261475
 30
0.0
 11
-6083.182610034537
 21
-3535.985676261475
 31
0.0
  0
LINE
  5
245
330
1F
100
AcDbEntity
  8
3-0
  6
Continuous
 62
     7
370
     9
100
AcDbLine
 10
-6110.682610034537
 20
-3535.985676261475
 30
0.0
 11
-6085.682610034537
 21
-3560.985676261475
 31
0.0
  0
LINE
  5
246
330
1F
100
AcDbEntity
  8
3-0
  6
Continuous
 62
     7
370
     9
100
AcDbLine
 10
7551.817389965461
 20
-3180.985676261476
 30
0.0
 11
7551.817389965461
 21
-3560.985676261475
 31
0.0
  0
LINE
  5
247
330
1F
100
AcDbEntity
  8
3-0
  6
Continuous
 62
     7
370
     9
100
AcDbLine
 10
3385.567389965457
 20
-3180.985676261476
 30
0.0
 11
3385.567389965457
 21
-3560.985676261475
 31
0.0
  0
LINE
  5
248
330
1F
100
AcDbEntity
  8
3-0
  6
Continuous
 62
     7
370
     9
100
AcDbLine
 10
4143.067389965458
 20
-3180.985676261476
 30
0.0
 11
4143.067389965458
 21
-3560.985676261475
 31
0.0
  0
LINE
  5
249
330
1F
100
AcDbEntity
  8
3-0
  6
Continuous
 62
     7
370
     9
100
AcDbLine
 10
4900.567389965458
 20
-3180.985676261476
 30
0.0
 11
4900.567389965458
 21
-3560.985676261475
 31
0.0
  0
LINE
  5
24A
330
1F
100
AcDbEntity
  8
3-0
  6
Continuous
 62
     7
370
     9
100
AcDbLine
 10
5658.067389965457
 20
-3180.985676261476
 30
0.0
 11
5658.067389965457
 21
-3560.985676261475
 31
0.0
  0
LINE
  5
24B
330
1F
100
AcDbEntity
  8
3-0
  6
Continuous
 62
     7
370
     9
100
AcDbLine
 10
6415.567389965458
 20
-3180.985676261476
 30
0.0
 11
6415.567389965458
 21
-3560.985676261475
 31
0.0
  0
LINE
  5
24C
330
1F
100
AcDbEntity
  8
3-0
  6
Continuous
 62
     7
370
     9
100
AcDbLine
 10
7173.067389965459
 20
-3180.985676261476
 30
0.0
 11
7173.067389965459
 21
-3560.985676261475
 31
0.0
  0
LINE
  5
24D
330
1F
100
AcDbEntity
  8
3-0
  6
Continuous
 62
     7
370
     9
100
AcDbLine
 10
7551.817389965461
 20
-3560.985676261475
 30
0.0
 11
-6085.682610034537
 21
-3560.985676261475
 31
0.0
  0
LINE
  5
24E
330
1F
100
AcDbEntity
  8
3-0
  6
Continuous
 62
     7
370
     9
100
AcDbLine
 10
-1159.432610034537
 20
-3180.985676261476
 30
0.0
 11
-1159.432610034537
 21
-3560.985676261475
 31
0.0
  0
LINE
  5
24F
330
1F
100
AcDbEntity
  8
3-0
  6
Continuous
 62
     7
370
     9
100
AcDbLine
 10
-401.9326100345374
 20
-3180.985676261476
 30
0.0
 11
-401.9326100345374
 21
-3560.985676261475
 31
0.0
  0
LINE
  5
250
330
1F
100
AcDbEntity
  8
3-0
  6
Continuous
 62
     7
370
     9
100
AcDbLine
 10
355.5673899654622
 20
-3180.985676261476
 30
0.0
 11
355.5673899654622
 21
-3560.985676261475
 31
0.0
  0
LINE
  5
251
330
1F
100
AcDbEntity
  8
3-0
  6
Continuous
 62
     7
370
     9
100
AcDbLine
 10
1113.067389965462
 20
-3180.985676261476
 30
0.0
 11
1113.067389965462
 21
-3560.985676261475
 31
0.0
  0
LINE
  5
252
330
1F
100
AcDbEntity
  8
3-0
  6
Continuous
 62
     7
370
     9
100
AcDbLine
 10
1870.567389965461
 20
-3180.985676261476
 30
0.0
 11
1870.567389965461
 21
-3560.985676261475
 31
0.0
  0
LINE
  5
253
330
1F
100
AcDbEntity
  8
3-0
  6
Continuous
 62
     7
370
     9
100
AcDbLine
 10
2628.067389965461
 20
-3180.985676261476
 30
0.0
 11
2628.067389965461
 21
-3560.985676261475
 31
0.0
  0
LINE
  5
254
330
1F
100
AcDbEntity
  8
3-0
  6
Continuous
 62
     7
370
     9
100
AcDbLine
 10
-6083.182610034537
 20
-3568.485676261476
 30
0.0
 11
-6083.182610034537
 21
-3948.485676261475
 31
0.0
  0
LINE
  5
255
330
1F
100
AcDbEntity
  8
3-0
  6
Continuous
 62
     7
370
     9
100
AcDbLine
 10
-4568.182610034536
 20
-3568.485676261476
 30
0.0
 11
-4568.182610034536
 21
-3948.485676261475
 31
0.0
  0
LINE
  5
256
330
1F
100
AcDbEntity
  8
3-0
  6
Continuous
 62
     7
370
     9
100
AcDbLine
 10
-3810.682610034536
 20
-3568.485676261476
 30
0.0
 11
-3810.682610034536
 21
-3948.485676261475
 31
0.0
  0
LINE
  5
257
330
1F
100
AcDbEntity
  8
3-0
  6
Continuous
 62
     7
370
     9
100
AcDbLine
 10
-3053.182610034536
 20
-3568.485676261476
 30
0.0
 11
-3053.182610034536
 21
-3948.485676261475
 31
0.0
  0
LINE
  5
258
330
1F
100
AcDbEntity
  8
3-0
  6
Continuous
 62
     7
370
     9
100
AcDbLine
 10
-2295.682610034536
 20
-3568.485676261476
 30
0.0
 11
-2295.682610034536
 21
-3948.485676261475
 31
0.0
  0
LINE
  5
259
330
1F
100
AcDbEntity
  8
3-0
  6
Continuous
 62
     7
370
     9
100
AcDbLine
 10
-5325.682610034536
 20
-3568.485676261476
 30
0.0
 11
-5325.682610034536
 21
-3948.485676261475
 31
0.0
  0
LINE
  5
25A
330
1F
100
AcDbEntity
  8
3-0
  6
Continuous
 62
     7
370
     9
100
AcDbLine
 10
-6110.682610034537
 20
-3923.485676261475
 30
0.0
 11
-6083.182610034537
 21
-3923.485676261475
 31
0.0
  0
LINE
  5
25B
330
1F
100
AcDbEntity
  8
3-0
  6
Continuous
 62
     7
370
     9
100
AcDbLine
 10
-6110.682610034537
 20
-3923.485676261475
 30
0.0
 11
-6085.682610034537
 21
-3948.485676261475
 31
0.0
  0
LINE
  5
25C
330
1F
100
AcDbEntity
  8
3-0
  6
Continuous
 62
     7
370
     9
100
AcDbLine
 10
3764.317389965458
 20
-3568.485676261476
 30
0.0
 11
3764.317389965458
 21
-3948.485676261475
 31
0.0
  0
LINE
  5
25D
330
1F
100
AcDbEntity
  8
3-0
  6
Continuous
 62
     7
370
     9
100
AcDbLine
 10
4521.817389965458
 20
-3568.485676261476
 30
0.0
 11
4521.817389965458
 21
-3948.485676261475
 31
0.0
  0
LINE
  5
25E
330
1F
100
AcDbEntity
  8
3-0
  6
Continuous
 62
     7
370
     9
100
AcDbLine
 10
5279.317389965459
 20
-3568.485676261476
 30
0.0
 11
5279.317389965459
 21
-3948.485676261475
 31
0.0
  0
LINE
  5
25F
330
1F
100
AcDbEntity
  8
3-0
  6
Continuous
 62
     7
370
     9
100
AcDbLine
 10
6036.817389965459
 20
-3568.485676261476
 30
0.0
 11
6036.817389965459
 21
-3948.485676261475
 31
0.0
  0
LINE
  5
260
330
1F
100
AcDbEntity
  8
3-0
  6
Continuous
 62
     7
370
     9
100
AcDbLine
 10
6794.317389965459
 20
-3568.485676261476
 30
0.0
 11
6794.317389965459
 21
-3948.485676261475
 31
0.0
  0
LINE
  5
261
330
1F
100
AcDbEntity
  8
3-0
  6
Continuous
 62
     7
370
     9
100
AcDbLine
 10
7551.817389965461
 20
-3948.485676261475
 30
0.0
 11
-6085.682610034537
 21
-3948.485676261475
 31
0.0
  0
LINE
  5
262
330
1F
100
AcDbEntity
  8
3-0
  6
Continuous
 62
     7
370
     9
100
AcDbLine
 10
-1538.182610034537
 20
-3568.485676261476
 30
0.0
 11
-1538.182610034537
 21
-3948.485676261475
 31
0.0
  0
LINE
  5
263
330
1F
100
AcDbEntity
  8
3-0
  6
Continuous
 62
     7
370
     9
100
AcDbLine
 10
-780.6826100345369
 20
-3568.485676261476
 30
0.0
 11
-780.6826100345369
 21
-3948.485676261475
 31
0.0
  0
LINE
  5
264
330
1F
100
AcDbEntity
  8
3-0
  6
Continuous
 62
     7
370
     9
100
AcDbLine
 10
-23.18261003453728
 20
-3568.485676261476
 30
0.0
 11
-23.18261003453728
 21
-3948.485676261475
 31
0.0
  0
LINE
  5
265
330
1F
100
AcDbEntity
  8
3-0
  6
Continuous
 62
     7
370
     9
100
AcDbLine
 10
734.3173899654623
 20
-3568.485676261476
 30
0.0
 11
734.3173899654623
 21
-3948.485676261475
 31
0.0
  0
LINE
  5
266
330
1F
100
AcDbEntity
  8
3-0
  6
Continuous
 62
     7
370
     9
100
AcDbLine
 10
1491.817389965462
 20
-3568.485676261476
 30
0.0
 11
1491.817389965462
 21
-3948.485676261475
 31
0.0
  0
LINE
  5
267
330
1F
100
AcDbEntity
  8
3-0
  6
Continuous
 62
     7
370
     9
100
AcDbLine
 10
2249.317389965462
 20
-3568.485676261476
 30
0.0
 11
2249.317389965462
 21
-3948.485676261475
 31
0.0
  0
LINE
  5
268
330
1F
100
AcDbEntity
  8
3-0
  6
Continuous
 62
     7
370
     9
100
AcDbLine
 10
3006.817389965461
 20
-3568.485676261476
 30
0.0
 11
3006.817389965461
 21
-3948.485676261475
 31
0.0
  0
LINE
  5
269
330
1F
100
AcDbEntity
  8
3-0
  6
Continuous
 62
     7
370
     9
100
AcDbLine
 10
7551.817389965461
 20
-3568.485676261476
 30
0.0
 11
-6083.182610034537
 21
-3568.485676261476
 31
0.0
  0
LINE
  5
26A
330
1F
100
AcDbEntity
  8
3-0
  6
Continuous
 62
     7
370
     9
100
AcDbLine
 10
7551.817389965461
 20
-3948.485676261475
 30
0.0
 11
7551.817389965461
 21
-3568.485676261476
 31
0.0
  0
LINE
  5
26B
330
1F
100
AcDbEntity
  8
3-0
  6
Continuous
 62
     7
370
     9
100
AcDbLine
 10
-6110.682610034537
 20
-3540.985676261476
 30
0.0
 11
-6110.682610034537
 21
-3923.485676261475
 31
0.0
  0
LINE
  5
26C
330
1F
100
AcDbEntity
  8
3-0
  6
Continuous
 62
     7
370
     9
100
AcDbLine
 10
-6110.682610034537
 20
-3540.985676261476
 30
0.0
 11
-6105.682610034536
 21
-3540.985676261476
 31
0.0
  0
LINE
  5
26D
330
1F
100
AcDbEntity
  8
3-0
  6
Continuous
 62
     7
370
     9
100
AcDbLine
 10
-6110.682610034537
 20
-3153.485676261475
 30
0.0
 11
-6105.682610034536
 21
-3153.485676261475
 31
0.0
  0
LINE
  5
26E
330
1F
100
AcDbEntity
  8
3-0
  6
Continuous
 62
     7
370
     9
100
AcDbLine
 10
7551.817389965461
 20
-3180.985676261476
 30
0.0
 11
-6083.182610034537
 21
-3180.985676261476
 31
0.0
  0
LINE
  5
26F
330
1F
100
AcDbEntity
  8
3-0
  6
Continuous
 62
     7
370
     9
100
AcDbLine
 10
-6110.682610034537
 20
-3928.485676261475
 30
0.0
 11
-6110.682610034537
 21
-4310.985676261475
 31
0.0
  0
LINE
  5
270
330
1F
100
AcDbEntity
  8
3-0
  6
Continuous
 62
     7
370
     9
100
AcDbLine
 10
-6083.182610034537
 20
-3955.985676261475
 30
0.0
 11
-6083.182610034537
 21
-4335.985676261475
 31
0.0
  0
LINE
  5
271
330
1F
100
AcDbEntity
  8
3-0
  6
Continuous
 62
     7
370
     9
100
AcDbLine
 10
-4946.932610034536
 20
-3955.985676261475
 30
0.0
 11
-4946.932610034536
 21
-4335.985676261475
 31
0.0
  0
LINE
  5
272
330
1F
100
AcDbEntity
  8
3-0
  6
Continuous
 62
     7
370
     9
100
AcDbLine
 10
-4189.432610034537
 20
-3955.985676261475
 30
0.0
 11
-4189.432610034537
 21
-4335.985676261475
 31
0.0
  0
LINE
  5
273
330
1F
100
AcDbEntity
  8
3-0
  6
Continuous
 62
     7
370
     9
100
AcDbLine
 10
-5704.432610034535
 20
-3955.985676261475
 30
0.0
 11
-5704.432610034535
 21
-4335.985676261475
 31
0.0
  0
LINE
  5
274
330
1F
100
AcDbEntity
  8
3-0
  6
Continuous
 62
     7
370
     9
100
AcDbLine
 10
-3431.932610034537
 20
-3955.985676261475
 30
0.0
 11
-3431.932610034537
 21
-4335.985676261475
 31
0.0
  0
LINE
  5
275
330
1F
100
AcDbEntity
  8
3-0
  6
Continuous
 62
     7
370
     9
100
AcDbLine
 10
-2674.432610034536
 20
-3955.985676261475
 30
0.0
 11
-2674.432610034536
 21
-4335.985676261475
 31
0.0
  0
LINE
  5
276
330
1F
100
AcDbEntity
  8
3-0
  6
Continuous
 62
     7
370
     9
100
AcDbLine
 10
-1916.932610034537
 20
-3955.985676261475
 30
0.0
 11
-1916.932610034537
 21
-4335.985676261475
 31
0.0
  0
LINE
  5
277
330
1F
100
AcDbEntity
  8
3-0
  6
Continuous
 62
     7
370
     9
100
AcDbLine
 10
-6110.682610034537
 20
-4310.985676261475
 30
0.0
 11
-6083.182610034537
 21
-4310.985676261475
 31
0.0
  0
LINE
  5
278
330
1F
100
AcDbEntity
  8
3-0
  6
Continuous
 62
     7
370
     9
100
AcDbLine
 10
-6110.682610034537
 20
-4310.985676261475
 30
0.0
 11
-6085.682610034537
 21
-4335.985676261475
 31
0.0
  0
LINE
  5
279
330
1F
100
AcDbEntity
  8
3-0
  6
Continuous
 62
     7
370
     9
100
AcDbLine
 10
7551.817389965461
 20
-3955.985676261475
 30
0.0
 11
7551.817389965461
 21
-4335.985676261475
 31
0.0
  0
LINE
  5
27A
330
1F
100
AcDbEntity
  8
3-0
  6
Continuous
 62
     7
370
     9
100
AcDbLine
 10
3385.567389965457
 20
-3955.985676261475
 30
0.0
 11
3385.567389965457
 21
-4335.985676261475
 31
0.0
  0
LINE
  5
27B
330
1F
100
AcDbEntity
  8
3-0
  6
Continuous
 62
     7
370
     9
100
AcDbLine
 10
4143.067389965458
 20
-3955.985676261475
 30
0.0
 11
4143.067389965458
 21
-4335.985676261475
 31
0.0
  0
LINE
  5
27C
330
1F
100
AcDbEntity
  8
3-0
  6
Continuous
 62
     7
370
     9
100
AcDbLine
 10
4900.567389965458
 20
-3955.985676261475
 30
0.0
 11
4900.567389965458
 21
-4335.985676261475
 31
0.0
  0
LINE
  5
27D
330
1F
100
AcDbEntity
  8
3-0
  6
Continuous
 62
     7
370
     9
100
AcDbLine
 10
5658.067389965457
 20
-3955.985676261475
 30
0.0
 11
5658.067389965457
 21
-4335.985676261475
 31
0.0
  0
LINE
  5
27E
330
1F
100
AcDbEntity
  8
3-0
  6
Continuous
 62
     7
370
     9
100
AcDbLine
 10
6415.567389965458
 20
-3955.985676261475
 30
0.0
 11
6415.567389965458
 21
-4335.985676261475
 31
0.0
  0
LINE
  5
27F
330
1F
100
AcDbEntity
  8
3-0
  6
Continuous
 62
     7
370
     9
100
AcDbLine
 10
7173.067389965459
 20
-3955.985676261475
 30
0.0
 11
7173.067389965459
 21
-4335.985676261475
 31
0.0
  0
LINE
  5
280
330
1F
100
AcDbEntity
  8
3-0
  6
Continuous
 62
     7
370
     9
100
AcDbLine
 10
7551.817389965461
 20
-4335.985676261475
 30
0.0
 11
-6085.682610034537
 21
-4335.985676261475
 31
0.0
  0
LINE
  5
281
330
1F
100
AcDbEntity
  8
3-0
  6
Continuous
 62
     7
370
     9
100
AcDbLine
 10
-1159.432610034537
 20
-3955.985676261475
 30
0.0
 11
-1159.432610034537
 21
-4335.985676261475
 31
0.0
  0
LINE
  5
282
330
1F
100
AcDbEntity
  8
3-0
  6
Continuous
 62
     7
370
     9
100
AcDbLine
 10
-401.9326100345374
 20
-3955.985676261475
 30
0.0
 11
-401.9326100345374
 21
-4335.985676261475
 31
0.0
  0
LINE
  5
283
330
1F
100
AcDbEntity
  8
3-0
  6
Continuous
 62
     7
370
     9
100
AcDbLine
 10
355.5673899654622
 20
-3955.985676261475
 30
0.0
 11
355.5673899654622
 21
-4335.985676261475
 31
0.0
  0
LINE
  5
284
330
1F
100
AcDbEntity
  8
3-0
  6
Continuous
 62
     7
370
     9
100
AcDbLine
 10
1113.067389965462
 20
-3955.985676261475
 30
0.0
 11
1113.067389965462
 21
-4335.985676261475
 31
0.0
  0
LINE
  5
285
330
1F
100
AcDbEntity
  8
3-0
  6
Continuous
 62
     7
370
     9
100
AcDbLine
 10
1870.567389965461
 20
-3955.985676261475
 30
0.0
 11
1870.567389965461
 21
-4335.985676261475
 31
0.0
  0
LINE
  5
286
330
1F
100
AcDbEntity
  8
3-0
  6
Continuous
 62
     7
370
     9
100
AcDbLine
 10
2628.067389965461
 20
-3955.985676261475
 30
0.0
 11
2628.067389965461
 21
-4335.985676261475
 31
0.0
  0
LINE
  5
287
330
1F
100
AcDbEntity
  8
3-0
  6
Continuous
 62
     7
370
     9
100
AcDbLine
 10
-6083.182610034537
 20
-4343.485676261475
 30
0.0
 11
-6083.182610034537
 21
-4723.485676261475
 31
0.0
  0
LINE
  5
288
330
1F
100
AcDbEntity
  8
3-0
  6
Continuous
 62
     7
370
     9
100
AcDbLine
 10
-4568.182610034536
 20
-4343.485676261475
 30
0.0
 11
-4568.182610034536
 21
-4723.485676261475
 31
0.0
  0
LINE
  5
289
330
1F
100
AcDbEntity
  8
3-0
  6
Continuous
 62
     7
370
     9
100
AcDbLine
 10
-3810.682610034536
 20
-4343.485676261475
 30
0.0
 11
-3810.682610034536
 21
-4723.485676261475
 31
0.0
  0
LINE
  5
28A
330
1F
100
AcDbEntity
  8
3-0
  6
Continuous
 62
     7
370
     9
100
AcDbLine
 10
-3053.182610034536
 20
-4343.485676261475
 30
0.0
 11
-3053.182610034536
 21
-4723.485676261475
 31
0.0
  0
LINE
  5
28B
330
1F
100
AcDbEntity
  8
3-0
  6
Continuous
 62
     7
370
     9
100
AcDbLine
 10
-2295.682610034536
 20
-4343.485676261475
 30
0.0
 11
-2295.682610034536
 21
-4723.485676261475
 31
0.0
  0
LINE
  5
28C
330
1F
100
AcDbEntity
  8
3-0
  6
Continuous
 62
     7
370
     9
100
AcDbLine
 10
-5325.682610034536
 20
-4343.485676261475
 30
0.0
 11
-5325.682610034536
 21
-4723.485676261475
 31
0.0
  0
LINE
  5
28D
330
1F
100
AcDbEntity
  8
3-0
  6
Continuous
 62
     7
370
     9
100
AcDbLine
 10
-6110.682610034537
 20
-4698.485676261475
 30
0.0
 11
-6083.182610034537
 21
-4698.485676261475
 31
0.0
  0
LINE
  5
28E
330
1F
100
AcDbEntity
  8
3-0
  6
Continuous
 62
     7
370
     9
100
AcDbLine
 10
-6110.682610034537
 20
-4698.485676261475
 30
0.0
 11
-6085.682610034537
 21
-4723.485676261475
 31
0.0
  0
LINE
  5
28F
330
1F
100
AcDbEntity
  8
3-0
  6
Continuous
 62
     7
370
     9
100
AcDbLine
 10
3764.317389965458
 20
-4343.485676261475
 30
0.0
 11
3764.317389965458
 21
-4723.485676261475
 31
0.0
  0
LINE
  5
290
330
1F
100
AcDbEntity
  8
3-0
  6
Continuous
 62
     7
370
     9
100
AcDbLine
 10
4521.817389965458
 20
-4343.485676261475
 30
0.0
 11
4521.817389965458
 21
-4723.485676261475
 31
0.0
  0
LINE
  5
291
330
1F
100
AcDbEntity
  8
3-0
  6
Continuous
 62
     7
370
     9
100
AcDbLine
 10
5279.317389965459
 20
-4343.485676261475
 30
0.0
 11
5279.317389965459
 21
-4723.485676261475
 31
0.0
  0
LINE
  5
292
330
1F
100
AcDbEntity
  8
3-0
  6
Continuous
 62
     7
370
     9
100
AcDbLine
 10
6036.817389965459
 20
-4343.485676261475
 30
0.0
 11
6036.817389965459
 21
-4723.485676261475
 31
0.0
  0
LINE
  5
293
330
1F
100
AcDbEntity
  8
3-0
  6
Continuous
 62
     7
370
     9
100
AcDbLine
 10
6794.317389965459
 20
-4343.485676261475
 30
0.0
 11
6794.317389965459
 21
-4723.485676261475
 31
0.0
  0
LINE
  5
294
330
1F
100
AcDbEntity
  8
3-0
  6
Continuous
 62
     7
370
     9
100
AcDbLine
 10
7551.817389965461
 20
-4723.485676261475
 30
0.0
 11
-6085.682610034537
 21
-4723.485676261475
 31
0.0
  0
LINE
  5
295
330
1F
100
AcDbEntity
  8
3-0
  6
Continuous
 62
     7
370
     9
100
AcDbLine
 10
-1538.182610034537
 20
-4343.485676261475
 30
0.0
 11
-1538.182610034537
 21
-4723.485676261475
 31
0.0
  0
LINE
  5
296
330
1F
100
AcDbEntity
  8
3-0
  6
Continuous
 62
     7
370
     9
100
AcDbLine
 10
-780.6826100345369
 20
-4343.485676261475
 30
0.0
 11
-780.6826100345369
 21
-4723.485676261475
 31
0.0
  0
LINE
  5
297
330
1F
100
AcDbEntity
  8
3-0
  6
Continuous
 62
     7
370
     9
100
AcDbLine
 10
-23.18261003453728
 20
-4343.485676261475
 30
0.0
 11
-23.18261003453728
 21
-4723.485676261475
 31
0.0
  0
LINE
  5
298
330
1F
100
AcDbEntity
  8
3-0
  6
Continuous
 62
     7
370
     9
100
AcDbLine
 10
734.3173899654623
 20
-4343.485676261475
 30
0.0
 11
734.3173899654623
 21
-4723.485676261475
 31
0.0
  0
LINE
  5
299
330
1F
100
AcDbEntity
  8
3-0
  6
Continuous
 62
     7
370
     9
100
AcDbLine
 10
1491.817389965462
 20
-4343.485676261475
 30
0.0
 11
1491.817389965462
 21
-4723.485676261475
 31
0.0
  0
LINE
  5
29A
330
1F
100
AcDbEntity
  8
3-0
  6
Continuous
 62
     7
370
     9
100
AcDbLine
 10
2249.317389965462
 20
-4343.485676261475
 30
0.0
 11
2249.317389965462
 21
-4723.485676261475
 31
0.0
  0
LINE
  5
29B
330
1F
100
AcDbEntity
  8
3-0
  6
Continuous
 62
     7
370
     9
100
AcDbLine
 10
3006.817389965461
 20
-4343.485676261475
 30
0.0
 11
3006.817389965461
 21
-4723.485676261475
 31
0.0
  0
LINE
  5
29C
330
1F
100
AcDbEntity
  8
3-0
  6
Continuous
 62
     7
370
     9
100
AcDbLine
 10
7551.817389965461
 20
-4343.485676261475
 30
0.0
 11
-6083.182610034537
 21
-4343.485676261475
 31
0.0
  0
LINE
  5
29D
330
1F
100
AcDbEntity
  8
3-0
  6
Continuous
 62
     7
370
     9
100
AcDbLine
 10
7551.817389965461
 20
-4723.485676261475
 30
0.0
 11
7551.817389965461
 21
-4343.485676261475
 31
0.0
  0
LINE
  5
29E
330
1F
100
AcDbEntity
  8
3-0
  6
Continuous
 62
     7
370
     9
100
AcDbLine
 10
-6110.682610034537
 20
-4315.985676261475
 30
0.0
 11
-6110.682610034537
 21
-4698.485676261475
 31
0.0
  0
LINE
  5
29F
330
1F
100
AcDbEntity
  8
3-0
  6
Continuous
 62
     7
370
     9
100
AcDbLine
 10
-6110.682610034537
 20
-4315.985676261475
 30
0.0
 11
-6105.682610034536
 21
-4315.985676261475
 31
0.0
  0
LINE
  5
2A0
330
1F
100
AcDbEntity
  8
3-0
  6
Continuous
 62
     7
370
     9
100
AcDbLine
 10
-6110.682610034537
 20
-3928.485676261475
 30
0.0
 11
-6105.682610034536
 21
-3928.485676261475
 31
0.0
  0
LINE
  5
2A1
330
1F
100
AcDbEntity
  8
3-0
  6
Continuous
 62
     7
370
     9
100
AcDbLine
 10
7551.817389965461
 20
-3955.985676261475
 30
0.0
 11
-6083.182610034537
 21
-3955.985676261475
 31
0.0
  0
LINE
  5
2A2
330
1F
100
AcDbEntity
  8
F-0
  6
JWW_HOJO
 62
   120
370
     9
100
AcDbLine
 10
-10233.46888906129
 20
-7425.0
 30
0.0
 11
-10233.46888906129
 21
7374.999340160474
 31
0.0
  0
LINE
  5
2A3
330
1F
100
AcDbEntity
  8
F-0
  6
JWW_HOJO
 62
   120
370
     9
100
AcDbLine
 10
-10233.46888906129
 20
7374.999340160474
 30
0.0
 11
10266.52946133989
 21
7374.999340160474
 31
0.0
  0
LINE
  5
2A4
330
1F
100
AcDbEntity
  8
F-0
  6
JWW_HOJO
 62
   120
370
     9
100
AcDbLine
 10
10266.52946133989
 20
7374.999340160474
 30
0.0
 11
10266.52946133989
 21
-7425.0
 31
0.0
  0
LINE
  5
2A5
330
1F
100
AcDbEntity
  8
F-0
  6
JWW_HOJO
 62
   120
370
     9
100
AcDbLine
 10
10266.52946133989
 20
-7425.0
 30
0.0
 11
-10233.46888906129
 21
-7425.0
 31
0.0
  0
LINE
  5
2A6
330
1F
100
AcDbEntity
  8
F-0
  6
JWW_HOJO
 62
     7
370
     9
100
AcDbLine
 10
1683.197090272539
 20
-6325.000005154996
 30
0.0
 11
1683.197090272539
 21
-6991.666680413323
 31
0.0
  0
LINE
  5
2A7
330
1F
100
AcDbEntity
  8
F-0
  6
JWW_HOJO
 62
     7
370
     9
100
AcDbLine
 10
849.8643068054776
 20
-6325.000005154996
 30
0.0
 11
849.8643068054776
 21
-6991.666680413323
 31
0.0
  0
LINE
  5
2A8
330
1F
100
AcDbEntity
  8
F-1
  6
Continuous
 62
   200
370
     9
100
AcDbLine
 10
9766.52904894019
 20
6958.332948426942
 30
0.0
 11
9766.52904894019
 21
-7008.33360826647
 31
0.0
  0
LINE
  5
2A9
330
1F
100
AcDbEntity
  8
F-1
  6
Continuous
 62
   200
370
     9
100
AcDbLine
 10
-9733.468863286305
 20
6958.332948426942
 30
0.0
 11
-9733.468863286305
 21
-7008.33360826647
 31
0.0
  0
LINE
  5
2AA
330
1F
100
AcDbEntity
  8
F-1
  6
Continuous
 62
   200
370
     9
100
AcDbLine
 10
9766.52904894019
 20
-7008.333337629163
 30
0.0
 11
-9733.468476661585
 21
-7008.333337629163
 31
0.0
  0
LINE
  5
2AB
330
1F
100
AcDbEntity
  8
F-1
  6
Continuous
 62
   200
370
     9
100
AcDbLine
 10
-9716.802206070466
 20
6958.332948426942
 30
0.0
 11
-9716.802206070466
 21
-7008.33360826647
 31
0.0
  0
LINE
  5
2AC
330
1F
100
AcDbEntity
  8
F-1
  6
Continuous
 62
   200
370
     9
100
AcDbLine
 10
-9725.13551534715
 20
6958.332948426942
 30
0.0
 11
-9725.13551534715
 21
-7008.33360826647
 31
0.0
  0
LINE
  5
2AD
330
1F
100
AcDbEntity
  8
F-1
  6
Continuous
 62
   200
370
     9
100
AcDbLine
 10
9758.195275713839
 20
6958.332948426942
 30
0.0
 11
9758.195275713839
 21
-7008.33360826647
 31
0.0
  0
LINE
  5
2AE
330
1F
100
AcDbEntity
  8
F-1
  6
Continuous
 62
   200
370
     9
100
AcDbLine
 10
9749.862739686603
 20
6958.332948426942
 30
0.0
 11
9749.862739686603
 21
-7008.33360826647
 31
0.0
  0
LINE
  5
2AF
330
1F
100
AcDbEntity
  8
F-1
  6
Continuous
 62
   200
370
     9
100
AcDbLine
 10
9766.52904894019
 20
-6999.999989690008
 30
0.0
 11
-9733.468476661585
 21
-6999.999989690008
 31
0.0
  0
LINE
  5
2B0
330
1F
100
AcDbEntity
  8
F-1
  6
Continuous
 62
   200
370
     9
100
AcDbLine
 10
9766.52904894019
 20
-6991.666680413323
 30
0.0
 11
-9733.468476661585
 21
-6991.666680413323
 31
0.0
  0
LINE
  5
2B1
330
1F
100
AcDbEntity
  8
F-1
  6
Continuous
 62
   200
370
     9
100
AcDbLine
 10
7249.863152086305
 20
-6325.000005154996
 30
0.0
 11
7249.863152086305
 21
-6991.666680413323
 31
0.0
  0
LINE
  5
2B2
330
1F
100
AcDbEntity
  8
F-1
  6
Continuous
 62
   200
370
     9
100
AcDbLine
 10
4749.862327286897
 20
-6325.000005154996
 30
0.0
 11
4749.862327286897
 21
-6991.666680413323
 31
0.0
  0
LINE
  5
2B3
330
1F
100
AcDbEntity
  8
F-1
  6
Continuous
 62
   200
370
     9
100
AcDbLine
 10
16.53090473886039
 20
-6325.000005154996
 30
0.0
 11
16.53090473886039
 21
-6991.666680413323
 31
0.0
  0
LINE
  5
2B4
330
1F
100
AcDbEntity
  8
F-1
  6
Continuous
 62
   200
370
     9
100
AcDbLine
 10
16.53090473886039
 20
-6658.333226796743
 30
0.0
 11
9749.862739686603
 21
-6658.342273815258
 31
0.0
  0
LINE
  5
2B5
330
1F
100
AcDbEntity
  8
F-1
  6
Continuous
 62
   200
370
     9
100
AcDbLine
 10
-9733.468476661585
 20
6958.332948426942
 30
0.0
 11
9766.52904894019
 21
6958.332948426942
 31
0.0
  0
LINE
  5
2B6
330
1F
100
AcDbEntity
  8
F-1
  6
Continuous
 62
   200
370
     9
100
AcDbLine
 10
-9733.468476661585
 20
6941.666639173354
 30
0.0
 11
9766.52904894019
 21
6941.666639173354
 31
0.0
  0
LINE
  5
2B7
330
1F
100
AcDbEntity
  8
F-1
  6
Continuous
 62
   200
370
     9
100
AcDbLine
 10
-9733.468476661585
 20
6949.999175200591
 30
0.0
 11
9766.52904894019
 21
6949.999175200591
 31
0.0
  0
LINE
  5
2B8
330
1F
100
AcDbEntity
  8
F-0
  6
JWW_HOJO
 62
     7
370
     9
100
AcDbLine
 10
-9716.802206070466
 20
-6658.333226797317
 30
0.0
 11
16.53090473886039
 21
-6658.333226797317
 31
0.0
  0
LINE
  5
2B9
330
1F
100
AcDbEntity
  8
F-0
  6
JWW_HOJO
 62
     7
370
     9
100
AcDbLine
 10
-9716.802206070466
 20
-6508.333226797317
 30
0.0
 11
16.53090473886039
 21
-6508.333226797317
 31
0.0
  0
LINE
  5
2BA
330
1F
100
AcDbEntity
  8
F-0
  6
JWW_HOJO
 62
     7
370
     9
100
AcDbLine
 10
-9716.802206070466
 20
-6808.333226797317
 30
0.0
 11
16.53090473886039
 21
-6808.333226797317
 31
0.0
  0
LINE
  5
2BB
330
1F
100
AcDbEntity
  8
F-0
  6
JWW_HOJO
 62
     7
370
     9
100
AcDbLine
 10
16.53068011281391
 20
-6899.999566296638
 30
0.0
 11
9749.862515060553
 21
-6900.008613315153
 31
0.0
  0
LINE
  5
2BC
330
1F
100
AcDbEntity
  8
F-0
  6
JWW_HOJO
 62
     7
370
     9
100
AcDbLine
 10
16.53081953606659
 20
-6749.999566296704
 30
0.0
 11
9749.862654483806
 21
-6750.008613315218
 31
0.0
  0
LINE
  5
2BD
330
1F
100
AcDbEntity
  8
F-0
  6
JWW_HOJO
 62
     7
370
     9
100
AcDbLine
 10
16.53098994226667
 20
-6566.666228696784
 30
0.0
 11
9749.862824890006
 21
-6566.675275715298
 31
0.0
  0
LINE
  5
2BE
330
1F
100
AcDbEntity
  8
F-0
  6
JWW_HOJO
 62
     7
370
     9
100
AcDbLine
 10
16.53112936551935
 20
-6416.666228696849
 30
0.0
 11
9749.862964313259
 21
-6416.675275715363
 31
0.0
  0
LINE
  5
2BF
330
1F
100
AcDbEntity
  8
F-0
  6
JWW_HOJO
 62
     7
370
     9
100
AcDbLine
 10
4899.862327286897
 20
-6325.000005154996
 30
0.0
 11
4899.862327286897
 21
-6991.666680413323
 31
0.0
  0
LINE
  5
2C0
330
1F
100
AcDbEntity
  8
F-0
  6
JWW_HOJO
 62
     7
370
     9
100
AcDbLine
 10
166.5309047388604
 20
-6325.000005154996
 30
0.0
 11
166.5309047388604
 21
-6991.666680413323
 31
0.0
  0
LINE
  5
2C1
330
1F
100
AcDbEntity
  8
F-0
  6
JWW_HOJO
 62
     7
370
     9
100
AcDbLine
 10
7399.863152086305
 20
-6325.000005154996
 30
0.0
 11
7399.863152086305
 21
-6991.666680413323
 31
0.0
  0
TEXT
  5
2C2
330
1F
100
AcDbEntity
  8
F-A
  6
Continuous
 62
     7
370
     0
100
AcDbText
 10
7399.863152086305
 20
-6452.573091417922
 30
0.0
 40
76.2
  1
ＤＡＴＥ
  7
ＭＳ ゴシック
100
AcDbText
  0
TEXT
  5
2C3
330
1F
100
AcDbEntity
  8
F-A
  6
Continuous
 62
     7
370
     0
100
AcDbText
 10
7399.863152086305
 20
-6785.906429018066
 30
0.0
 40
76.2
  1
ＮＯ．
  7
ＭＳ ゴシック
100
AcDbText
  0
TEXT
  5
2C4
330
1F
100
AcDbEntity
  8
F-A
  6
Continuous
 62
     7
370
     0
100
AcDbText
 10
4899.862327286897
 20
-6452.570767696289
 30
0.0
 40
76.2
  1
ＳＣＡＬＥ
 41
0.9999999999999999
  7
ＭＳ ゴシック
100
AcDbText
  0
TEXT
  5
2C5
330
1F
100
AcDbEntity
  8
F-A
  6
Continuous
 62
     7
370
     0
100
AcDbText
 10
4899.862327286897
 20
-6785.904105296433
 30
0.0
 40
76.2
  1
ＦＩＬＥ
  7
ＭＳ ゴシック
100
AcDbText
  0
TEXT
  5
2C6
330
1F
100
AcDbEntity
  8
F-A
  6
Continuous
 62
     7
370
     0
100
AcDbText
 10
166.5309047388604
 20
-6452.566368119892
 30
0.0
 40
76.2
  1
図面名
  7
ＭＳ ゴシック
100
AcDbText
  0
TEXT
  5
2C7
330
1F
100
AcDbEntity
  8
F-A
  6
Continuous
 62
     7
370
     0
100
AcDbText
 10
2674.862327286897
 20
-6896.803965873213
 30
0.0
 40
152.4
  1
ウッドワン・・・
 41
1.109375
  7
ＭＳ ゴシック
100
AcDbText
  0
TEXT
  5
2C8
330
1F
100
AcDbEntity
  8
F-A
  6
Continuous
 62
     7
370
     0
100
AcDbText
 10
2324.862327286897
 20
-6800.90111544358
 30
0.0
 40
76.2
  1
株式
  7
ＭＳ ゴシック
100
AcDbText
  0
TEXT
  5
2C9
330
1F
100
AcDbEntity
  8
F-A
  6
Continuous
 62
     7
370
     0
100
AcDbText
 10
2324.862327286897
 20
-6920.901115443644
 30
0.0
 40
76.2
  1
会社
  7
ＭＳ ゴシック
100
AcDbText
  0
LINE
  5
2CA
330
1F
100
AcDbEntity
  8
F-1
  6
Continuous
 62
   200
370
     9
100
AcDbLine
 10
9766.52904894019
 20
-6325.000005154996
 30
0.0
 11
-9733.468476661585
 21
-6325.000005154996
 31
0.0
  0
LINE
  5
2CB
330
1F
100
AcDbEntity
  8
F-1
  6
Continuous
 62
   200
370
     9
100
AcDbLine
 10
9766.52904894019
 20
-6316.666695878313
 30
0.0
 11
-9733.468476661585
 21
-6316.666695878313
 31
0.0
  0
LINE
  5
2CC
330
1F
100
AcDbEntity
  8
F-0
  6
JWW_HOJO
 62
     7
370
     9
100
AcDbLine
 10
-8479.381183649351
 20
-6325.000005154998
 30
0.0
 11
-8479.381183649351
 21
-7008.33360826647
 31
0.0
  0
LINE
  5
2CD
330
1F
100
AcDbEntity
  8
F-0
  6
JWW_HOJO
 62
     7
370
     9
100
AcDbLine
 10
-83.46909526113961
 20
-6325.000005154996
 30
0.0
 11
-83.46909526113961
 21
-6991.666680413323
 31
0.0
  0
TEXT
  5
2CE
330
1F
100
AcDbEntity
  8
F-A
  6
Continuous
 62
     7
370
     9
100
AcDbText
 10
8493.61283357343
 20
-6878.857521166642
 30
0.0
 40
114.3
  1
01
 41
1.083333333333333
  7
ＭＳ ゴシック
100
AcDbText
  0
TEXT
  5
2CF
330
1F
100
AcDbEntity
  8
F-A
  6
Continuous
 62
     7
370
     0
100
AcDbText
 10
8231.112988488156
 20
-6533.02418356661
 30
0.0
 40
114.3
  1
17.09.15
 41
1.145833333333333
  7
ＭＳ ゴシック
100
AcDbText
  0
TEXT
  5
2D0
330
1F
100
AcDbEntity
  8
F-A
  6
Continuous
 62
     7
370
     0
100
AcDbText
 10
5906.112739686601
 20
-6545.521859845514
 30
0.0
 40
114.3
  1
1/10
 41
1.125
  7
ＭＳ ゴシック
100
AcDbText
  0
TEXT
  5
2D1
330
1F
100
AcDbEntity
  8
F-A
  6
Continuous
 62
     7
370
     0
100
AcDbText
 10
8916.857695675497
 20
-7154.725739783094
 30
0.0
 40
114.3
  1
,
 41
0.9999999999999998
  7
ＭＳ ゴシック
100
AcDbText
  0
TEXT
  5
2D2
330
1F
100
AcDbEntity
  8
F-A
  6
Continuous
 62
     7
370
     0
100
AcDbText
 10
8473.093214131
 20
-7157.049112147137
 30
0.0
 40
114.3
  1
$y
 41
1.083333333333333
  7
ＭＳ ゴシック
100
AcDbText
  0
TEXT
  5
2D3
330
1F
100
AcDbEntity
  8
F-A
  6
Continuous
 62
     7
370
     0
100
AcDbText
 10
8730.987749195703
 20
-7157.049112147137
 30
0.0
 40
114.3
  1
$m
 41
1.083333333333333
  7
ＭＳ ゴシック
100
AcDbText
  0
TEXT
  5
2D4
330
1F
100
AcDbEntity
  8
F-A
  6
Continuous
 62
     7
370
     0
100
AcDbText
 10
8988.882303333883
 20
-7157.049112147137
 30
0.0
 40
114.3
  1
$d
 41
1.083333333333333
  7
ＭＳ ゴシック
100
AcDbText
  0
TEXT
  5
2D5
330
1F
100
AcDbEntity
  8
F-A
  6
Continuous
 62
     7
370
     0
100
AcDbText
 10
9246.776857472065
 20
-7157.049112147137
 30
0.0
 40
114.3
  1
印刷
 41
1.083333333333333
  7
ＭＳ ゴシック
100
AcDbText
  0
TEXT
  5
2D6
330
1F
100
AcDbEntity
  8
F-A
  6
Continuous
 62
     7
370
     0
100
AcDbText
 10
8651.99301729262
 20
-7159.372489279553
 30
0.0
 40
114.3
  1
,
 41
0.9999999999999998
  7
ＭＳ ゴシック
100
AcDbText
  0
TEXT
  5
2D7
330
1F
100
AcDbEntity
  8
F-A
  6
Continuous
 62
     7
370
     0
100
AcDbText
 10
9613.869962788232
 20
-7152.402365034864
 30
0.0
 40
114.3
  1
）
 41
0.9999999999999998
  7
ＭＳ ゴシック
100
AcDbText
  0
TEXT
  5
2D8
330
1F
100
AcDbEntity
  8
F-A
  6
Continuous
 62
     7
370
     0
100
AcDbText
 10
8239.920068027044
 20
-7159.372489279553
 30
0.0
 40
114.3
  1
（
 41
0.9999999999999998
  7
ＭＳ ゴシック
100
AcDbText
  0
LINE
  5
2D9
330
1F
100
AcDbEntity
  8
F-1
  6
Continuous
 62
   200
370
     9
100
AcDbLine
 10
-9733.468863286305
 20
1746.514323738525
 30
0.0
 11
9766.52904894019
 21
1746.514323738525
 31
0.0
  0
TEXT
  5
2DA
330
1F
100
AcDbEntity
  8
F-A
  6
Continuous
 62
     7
370
     0
100
AcDbText
 10
1683.197090272539
 20
-6545.517777843469
 30
0.0
 40
114.3
  1
正面図
 41
1.111111111111111
  7
ＭＳ ゴシック
100
AcDbText
  0
TEXT
  5
2DB
330
1F
100
AcDbEntity
  8
F-A
  6
Continuous
 62
     7
370
     0
100
AcDbText
 10
-8466.802206070466
 20
-6712.183226797318
 30
0.0
 40
114.3
  1
デザインウォール　漣　－さざなみ－
 41
1.156862745098039
  7
ＭＳ ゴシック
100
AcDbText
  0
TEXT
  5
2DC
330
1F
100
AcDbEntity
  8
F-A
  6
Continuous
 62
     7
370
     9
100
AcDbText
 10
5599.862739686601
 20
-6878.855197445689
 30
0.0
 40
114.3
  1
WSD41RP_S02
 41
1.151515151515151
  7
ＭＳ ゴシック
100
AcDbText
  0
ENDSEC
  0
SECTION
  2
OBJECTS
  0
DICTIONARY
  5
C
330
0
100
AcDbDictionary
281
     1
  3
ACAD_DETAILVIEWSTYLE
350
314
  3
ACAD_GROUP
350
D
  3
ACAD_LAYOUT
350
1A
  3
ACAD_MATERIAL
350
43
  3
ACAD_MLEADERSTYLE
350
6B
  3
ACAD_MLINESTYLE
350
17
  3
ACAD_PLOTSETTINGS
350
19
  3
ACAD_PLOTSTYLENAME
350
E
  3
ACAD_SCALELIST
350
47
  3
ACAD_SECTIONVIEWSTYLE
350
315
  3
ACAD_TABLESTYLE
350
69
  3
ACAD_VISUALSTYLE
350
2A
  3
ACDB_RECOMPOSE_DATA
350
311
  3
AcDbVariableDictionary
350
2DD
  0
SUN
  5
6D
330
29
100
AcDbSun
 90
        1
290
     0
 63
     7
421
 16777215
 40
1.0
291
     1
 91
  2455826
 92
 54000000
292
     0
 70
     2
 71
   256
280
     1
  0
DICTIONARY
  5
314
102
{ACAD_REACTORS
330
C
102
}
330
C
100
AcDbDictionary
281
     1
  0
DICTIONARY
  5
D
102
{ACAD_REACTORS
330
C
102
}
330
C
100
AcDbDictionary
281
     1
  0
DICTIONARY
  5
1A
102
{ACAD_REACTORS
330
C
102
}
330
C
100
AcDbDictionary
281
     1
  3
Layout1
350
1E
  3
Layout2
350
26
  3
Model
350
22
  0
DICTIONARY
  5
43
102
{ACAD_REACTORS
330
C
102
}
330
C
100
AcDbDictionary
281
     1
  3
ByBlock
350
45
  3
ByLayer
350
44
  3
Global
350
46
  0
DICTIONARY
  5
6B
102
{ACAD_REACTORS
330
C
102
}
330
C
100
AcDbDictionary
281
     1
  3
Standard
350
6C
  0
DICTIONARY
  5
17
102
{ACAD_REACTORS
330
C
102
}
330
C
100
AcDbDictionary
281
     1
  3
Standard
350
18
  0
DICTIONARY
  5
19
102
{ACAD_REACTORS
330
C
102
}
330
C
100
AcDbDictionary
281
     1
  0
ACDBDICTIONARYWDFLT
  5
E
102
{ACAD_REACTORS
330
C
102
}
330
C
100
AcDbDictionary
281
     1
  3
Normal
350
F
100
AcDbDictionaryWithDefault
340
F
  0
DICTIONARY
  5
47
102
{ACAD_REACTORS
330
C
102
}
330
C
100
AcDbDictionary
281
     1
  3
A0
350
48
  3
A1
350
49
  3
A2
350
4A
  3
A3
350
4B
  3
A4
350
4C
  3
A5
350
4D
  3
A6
350
4E
  3
A7
350
4F
  3
A8
350
50
  3
A9
350
51
  3
B0
350
52
  3
B1
350
53
  3
B2
350
54
  3
B3
350
55
  3
B4
350
56
  3
B5
350
57
  3
B6
350
58
  3
B7
350
59
  3
B8
350
5A
  3
B9
350
5B
  3
C0
350
5C
  3
C1
350
5D
  3
C2
350
5E
  3
C3
350
5F
  3
C4
350
60
  3
C5
350
61
  3
C6
350
62
  3
C7
350
63
  3
C8
350
64
  3
C9
350
65
  3
D0
350
66
  3
D1
350
67
  3
D2
350
68
  0
DICTIONARY
  5
315
102
{ACAD_REACTORS
330
C
102
}
330
C
100
AcDbDictionary
281
     1
  0
DICTIONARY
  5
69
102
{ACAD_REACTORS
330
C
102
}
330
C
100
AcDbDictionary
281
     1
  3
Standard
350
6A
  0
DICTIONARY
  5
2A
102
{ACAD_REACTORS
330
C
102
}
330
C
100
AcDbDictionary
281
     1
  3
2dWireframe
350
2F
  3
Basic
350
32
  3
Brighten
350
36
  3
ColorChange
350
3A
  3
Conceptual
350
34
  3
Dim
350
35
  3
EdgeColorOff
350
3D
  3
Facepattern
350
39
  3
Flat
350
2B
  3
FlatWithEdges
350
2C
  3
Gouraud
350
2D
  3
GouraudWithEdges
350
2E
  3
Hidden
350
31
  3
JitterOff
350
3B
  3
Linepattern
350
38
  3
OverhangOff
350
3C
  3
Realistic
350
33
  3
Shaded
350
42
  3
Shaded with edges
350
41
  3
Shades of Gray
350
3E
  3
Sketchy
350
3F
  3
Thicken
350
37
  3
Wireframe
350
30
  3
X-Ray
350
40
  0
XRECORD
  5
311
102
{ACAD_REACTORS
330
C
102
}
330
C
100
AcDbXrecord
280
     1
 90
        1
330
6A
  0
DICTIONARY
  5
2DD
102
{ACAD_REACTORS
330
C
102
}
330
C
100
AcDbDictionary
281
     1
  3
CANNOSCALE
350
2DE
  3
CENTEREXE
350
316
  3
CENTERLTYPEFILE
350
317
  3
CMLEADERSTYLE
350
313
  3
CTABLESTYLE
350
312
  0
LAYOUT
  5
1E
102
{ACAD_REACTORS
330
1A
102
}
330
1A
100
AcDbPlotSettings
  1

  2
none_device
  4

  6

 40
0.0
 41
0.0
 42
0.0
 43
0.0
 44
0.0
 45
0.0
 46
0.0
 47
0.0
 48
0.0
 49
0.0
140
0.0
141
0.0
142
1.0
143
1.0
 70
   688
 72
     1
 73
     0
 74
     5
  7

 75
    16
 76
     0
 77
     5
 78
   300
147
1.0
148
0.0
149
0.0
100
AcDbLayout
  1
Layout1
 70
     1
 71
     1
 10
0.0
 20
0.0
 11
420.0
 21
297.0
 12
0.0
 22
0.0
 32
0.0
 14
1.000000000000000E+20
 24
1.000000000000000E+20
 34
1.000000000000000E+20
 15
-1.000000000000000E+20
 25
-1.000000000000000E+20
 35
-1.000000000000000E+20
146
0.0
 13
0.0
 23
0.0
 33
0.0
 16
1.0
 26
0.0
 36
0.0
 17
0.0
 27
1.0
 37
0.0
 76
     0
330
1B
  0
LAYOUT
  5
26
102
{ACAD_REACTORS
330
1A
102
}
330
1A
100
AcDbPlotSettings
  1

  2
none_device
  4

  6

 40
0.0
 41
0.0
 42
0.0
 43
0.0
 44
0.0
 45
0.0
 46
0.0
 47
0.0
 48
0.0
 49
0.0
140
0.0
141
0.0
142
1.0
143
1.0
 70
   688
 72
     1
 73
     0
 74
     5
  7

 75
    16
 76
     0
 77
     5
 78
   300
147
1.0
148
0.0
149
0.0
100
AcDbLayout
  1
Layout2
 70
     1
 71
     2
 10
0.0
 20
0.0
 11
0.0
 21
0.0
 12
0.0
 22
0.0
 32
0.0
 14
0.0
 24
0.0
 34
0.0
 15
0.0
 25
0.0
 35
0.0
146
0.0
 13
0.0
 23
0.0
 33
0.0
 16
1.0
 26
0.0
 36
0.0
 17
0.0
 27
1.0
 37
0.0
 76
     0
330
23
  0
LAYOUT
  5
22
102
{ACAD_REACTORS
330
1A
102
}
330
1A
100
AcDbPlotSettings
  1

  2
none_device
  4
Letter_(8.50_x_11.00_Inches)
  6

 40
6.35
 41
6.35
 42
6.35000508
 43
6.35000508
 44
215.9
 45
279.4
 46
0.0
 47
0.0
 48
0.0
 49
0.0
140
0.0
141
0.0
142
1.0
143
1.0
 70
  1712
 72
     1
 73
     0
 74
     0
  7

 75
     0
 76
     0
 77
     5
 78
   300
147
1.0
148
0.0
149
0.0
100
AcDbLayout
  1
Model
 70
     1
 71
     0
 10
-10500.0
 20
-7425.0
 11
10500.0
 21
7425.0
 12
0.0
 22
0.0
 32
0.0
 14
-10500.0
 24
-7425.0
 34
0.0
 15
10500.0
 25
7425.0
 35
0.0
146
0.0
 13
0.0
 23
0.0
 33
0.0
 16
1.0
 26
0.0
 36
0.0
 17
0.0
 27
1.0
 37
0.0
 76
     0
330
1F
331
29
  0
MATERIAL
  5
45
102
{ACAD_REACTORS
330
43
102
}
330
43
100
AcDbMaterial
  1
ByBlock
 72
     1
 94
      127
  0
MATERIAL
  5
44
102
{ACAD_REACTORS
330
43
102
}
330
43
100
AcDbMaterial
  1
ByLayer
 72
     1
 94
      127
  0
MATERIAL
  5
46
102
{ACAD_REACTORS
330
43
102
}
330
43
100
AcDbMaterial
  1
Global
 72
     1
 94
      127
  0
MLEADERSTYLE
  5
6C
102
{ACAD_REACTORS
330
6B
102
}
330
6B
100
AcDbMLeaderStyle
179
     2
170
     2
171
     1
172
     0
 90
        2
 40
0.0
 41
0.0
173
     1
 91
-1056964608
340
14
 92
       -2
290
     1
 42
2.0
291
     1
 43
8.0
  3
Standard
341
0
 44
4.0
300

342
11
174
     1
178
     6
175
     1
176
     0
 93
-1056964608
 45
4.0
292
     0
297
     0
 46
4.0
343
0
 94
-1056964608
 47
1.0
 49
1.0
140
1.0
293
     1
141
0.0
294
     1
177
     0
142
1.0
295
     0
296
     0
143
3.75
271
     0
272
     9
273
     9
  0
MLINESTYLE
  5
18
102
{ACAD_REACTORS
330
17
102
}
330
17
100
AcDbMlineStyle
  2
Standard
 70
     0
  3

 62
   256
 51
90.0
 52
90.0
 71
     2
 49
0.5
 62
   256
  6
BYLAYER
 49
-0.5
 62
   256
  6
BYLAYER
  0
ACDBPLACEHOLDER
  5
F
102
{ACAD_REACTORS
330
E
102
}
330
E
  0
SCALE
  5
48
102
{ACAD_REACTORS
330
47
102
}
330
47
100
AcDbScale
 70
     0
300
1:1
140
1.0
141
1.0
290
     1
  0
SCALE
  5
49
102
{ACAD_REACTORS
330
47
102
}
330
47
100
AcDbScale
 70
     0
300
1:2
140
1.0
141
2.0
290
     0
  0
SCALE
  5
4A
102
{ACAD_REACTORS
330
47
102
}
330
47
100
AcDbScale
 70
     0
300
1:4
140
1.0
141
4.0
290
     0
  0
SCALE
  5
4B
102
{ACAD_REACTORS
330
47
102
}
330
47
100
AcDbScale
 70
     0
300
1:5
140
1.0
141
5.0
290
     0
  0
SCALE
  5
4C
102
{ACAD_REACTORS
330
47
102
}
330
47
100
AcDbScale
 70
     0
300
1:8
140
1.0
141
8.0
290
     0
  0
SCALE
  5
4D
102
{ACAD_REACTORS
330
47
102
}
330
47
100
AcDbScale
 70
     0
300
1:10
140
1.0
141
10.0
290
     0
  0
SCALE
  5
4E
102
{ACAD_REACTORS
330
47
102
}
330
47
100
AcDbScale
 70
     0
300
1:16
140
1.0
141
16.0
290
     0
  0
SCALE
  5
4F
102
{ACAD_REACTORS
330
47
102
}
330
47
100
AcDbScale
 70
     0
300
1:20
140
1.0
141
20.0
290
     0
  0
SCALE
  5
50
102
{ACAD_REACTORS
330
47
102
}
330
47
100
AcDbScale
 70
     0
300
1:30
140
1.0
141
30.0
290
     0
  0
SCALE
  5
51
102
{ACAD_REACTORS
330
47
102
}
330
47
100
AcDbScale
 70
     0
300
1:40
140
1.0
141
40.0
290
     0
  0
SCALE
  5
52
102
{ACAD_REACTORS
330
47
102
}
330
47
100
AcDbScale
 70
     0
300
1:50
140
1.0
141
50.0
290
     0
  0
SCALE
  5
53
102
{ACAD_REACTORS
330
47
102
}
330
47
100
AcDbScale
 70
     0
300
1:100
140
1.0
141
100.0
290
     0
  0
SCALE
  5
54
102
{ACAD_REACTORS
330
47
102
}
330
47
100
AcDbScale
 70
     0
300
2:1
140
2.0
141
1.0
290
     0
  0
SCALE
  5
55
102
{ACAD_REACTORS
330
47
102
}
330
47
100
AcDbScale
 70
     0
300
4:1
140
4.0
141
1.0
290
     0
  0
SCALE
  5
56
102
{ACAD_REACTORS
330
47
102
}
330
47
100
AcDbScale
 70
     0
300
8:1
140
8.0
141
1.0
290
     0
  0
SCALE
  5
57
102
{ACAD_REACTORS
330
47
102
}
330
47
100
AcDbScale
 70
     0
300
10:1
140
10.0
141
1.0
290
     0
  0
SCALE
  5
58
102
{ACAD_REACTORS
330
47
102
}
330
47
100
AcDbScale
 70
     0
300
100:1
140
100.0
141
1.0
290
     0
  0
SCALE
  5
59
102
{ACAD_REACTORS
330
47
102
}
330
47
100
AcDbScale
 70
     0
300
1/128" = 1'-0"
140
0.0078125
141
12.0
290
     0
  0
SCALE
  5
5A
102
{ACAD_REACTORS
330
47
102
}
330
47
100
AcDbScale
 70
     0
300
1/64" = 1'-0"
140
0.015625
141
12.0
290
     0
  0
SCALE
  5
5B
102
{ACAD_REACTORS
330
47
102
}
330
47
100
AcDbScale
 70
     0
300
1/32" = 1'-0"
140
0.03125
141
12.0
290
     0
  0
SCALE
  5
5C
102
{ACAD_REACTORS
330
47
102
}
330
47
100
AcDbScale
 70
     0
300
1/16" = 1'-0"
140
0.0625
141
12.0
290
     0
  0
SCALE
  5
5D
102
{ACAD_REACTORS
330
47
102
}
330
47
100
AcDbScale
 70
     0
300
3/32" = 1'-0"
140
0.09375
141
12.0
290
     0
  0
SCALE
  5
5E
102
{ACAD_REACTORS
330
47
102
}
330
47
100
AcDbScale
 70
     0
300
1/8" = 1'-0"
140
0.125
141
12.0
290
     0
  0
SCALE
  5
5F
102
{ACAD_REACTORS
330
47
102
}
330
47
100
AcDbScale
 70
     0
300
3/16" = 1'-0"
140
0.1875
141
12.0
290
     0
  0
SCALE
  5
60
102
{ACAD_REACTORS
330
47
102
}
330
47
100
AcDbScale
 70
     0
300
1/4" = 1'-0"
140
0.25
141
12.0
290
     0
  0
SCALE
  5
61
102
{ACAD_REACTORS
330
47
102
}
330
47
100
AcDbScale
 70
     0
300
3/8" = 1'-0"
140
0.375
141
12.0
290
     0
  0
SCALE
  5
62
102
{ACAD_REACTORS
330
47
102
}
330
47
100
AcDbScale
 70
     0
300
1/2" = 1'-0"
140
0.5
141
12.0
290
     0
  0
SCALE
  5
63
102
{ACAD_REACTORS
330
47
102
}
330
47
100
AcDbScale
 70
     0
300
3/4" = 1'-0"
140
0.75
141
12.0
290
     0
  0
SCALE
  5
64
102
{ACAD_REACTORS
330
47
102
}
330
47
100
AcDbScale
 70
     0
300
1" = 1'-0"
140
1.0
141
12.0
290
     0
  0
SCALE
  5
65
102
{ACAD_REACTORS
330
47
102
}
330
47
100
AcDbScale
 70
     0
300
1-1/2" = 1'-0"
140
1.5
141
12.0
290
     0
  0
SCALE
  5
66
102
{ACAD_REACTORS
330
47
102
}
330
47
100
AcDbScale
 70
     0
300
3" = 1'-0"
140
3.0
141
12.0
290
     0
  0
SCALE
  5
67
102
{ACAD_REACTORS
330
47
102
}
330
47
100
AcDbScale
 70
     0
300
6" = 1'-0"
140
6.0
141
12.0
290
     0
  0
SCALE
  5
68
102
{ACAD_REACTORS
330
47
102
}
330
47
100
AcDbScale
 70
     0
300
1'-0" = 1'-0"
140
12.0
141
12.0
290
     0
  0
TABLESTYLE
  5
6A
102
{ACAD_REACTORS
330
69
102
}
102
{ACAD_XDICTIONARY
360
30F
102
}
330
69
100
AcDbTableStyle
  3
Standard
 70
     0
 71
     0
 40
0.06
 41
0.06
280
     0
281
     0
  7
Standard
140
4.5
170
     2
 62
     0
 63
   257
283
     0
 90
        4
 91
        0
  1

274
    -2
284
     1
 64
     0
275
    -2
285
     1
 65
     0
276
    -2
286
     1
 66
     0
277
    -2
287
     1
 67
     0
278
    -2
288
     1
 68
     0
279
    -2
289
     1
 69
     0
  7
Standard
140
6.0
170
     5
 62
     0
 63
   257
283
     0
 90
        4
 91
        0
  1

274
    -2
284
     1
 64
     0
275
    -2
285
     1
 65
     0
276
    -2
286
     1
 66
     0
277
    -2
287
     1
 67
     0
278
    -2
288
     1
 68
     0
279
    -2
289
     1
 69
     0
  7
Standard
140
4.5
170
     5
 62
     0
 63
   257
283
     0
 90
        4
 91
        0
  1

274
    -2
284
     1
 64
     0
275
    -2
285
     1
 65
     0
276
    -2
286
     1
 66
     0
277
    -2
287
     1
 67
     0
278
    -2
288
     1
 68
     0
279
    -2
289
     1
 69
     0
  0
VISUALSTYLE
  5
2F
102
{ACAD_REACTORS
330
2A
102
}
102
{ACAD_XDICTIONARY
360
2E7
102
}
330
2A
100
AcDbVisualStyle
  2
2dWireframe
 70
     4
177
     2
291
     0
 71
     0
176
     1
 72
     2
176
     1
 73
     0
176
     1
 90
        0
176
     1
 40
0.6
176
     1
 41
30.0
176
     1
 62
     5
 63
     7
421
 16777215
176
     1
 74
     1
176
     1
 91
        4
176
     1
 64
     7
176
     1
 65
   257
176
     1
 75
     1
176
     1
175
     1
176
     1
 42
1.0
176
     1
 92
        0
176
     1
 66
   257
176
     1
 43
1.0
176
     1
 76
     1
176
     1
 77
     6
176
     1
 78
     2
176
     1
 67
     7
176
     1
 79
     5
176
     1
170
     0
176
     1
171
     0
176
     1
290
     0
176
     1
 93
        1
176
     1
 44
0.0
176
     1
173
     0
176
     1
  0
VISUALSTYLE
  5
32
102
{ACAD_REACTORS
330
2A
102
}
102
{ACAD_XDICTIONARY
360
2ED
102
}
330
2A
100
AcDbVisualStyle
  2
Basic
 70
     7
177
     2
291
     1
 71
     1
176
     1
 72
     0
176
     1
 73
     1
176
     1
 90
        0
176
     1
 40
0.6
176
     1
 41
30.0
176
     1
 62
     5
 63
     7
421
 16777215
176
     1
 74
     0
176
     1
 91
        4
176
     1
 64
     7
176
     1
 65
   257
176
     1
 75
     1
176
     1
175
     1
176
     1
 42
1.0
176
     1
 92
        8
176
     1
 66
     7
176
     1
 43
1.0
176
     1
 76
     1
176
     1
 77
     6
176
     1
 78
     2
176
     1
 67
     7
176
     1
 79
     5
176
     1
170
     0
176
     1
171
     0
176
     1
290
     0
176
     1
 93
        1
176
     1
 44
0.0
176
     1
173
     0
176
     1
  0
VISUALSTYLE
  5
36
102
{ACAD_REACTORS
330
2A
102
}
102
{ACAD_XDICTIONARY
360
2F5
102
}
330
2A
100
AcDbVisualStyle
  2
Brighten
 70
    12
177
     2
291
     1
 71
     2
176
     1
 72
     2
176
     1
 73
     0
176
     1
 90
        0
176
     1
 40
0.6
176
     1
 41
30.0
176
     1
 62
     5
 63
     7
421
 16777215
176
     1
 74
     1
176
     1
 91
        4
176
     1
 64
     7
176
     1
 65
   257
176
     1
 75
     1
176
     1
175
     1
176
     1
 42
1.0
176
     1
 92
        8
176
     1
 66
     7
176
     1
 43
1.0
176
     1
 76
     1
176
     1
 77
     6
176
     1
 78
     2
176
     1
 67
     7
176
     1
 79
     5
176
     1
170
     0
176
     1
171
     0
176
     1
290
     0
176
     1
 93
        1
176
     1
 44
50.0
176
     1
173
     0
176
     1
  0
VISUALSTYLE
  5
3A
102
{ACAD_REACTORS
330
2A
102
}
102
{ACAD_XDICTIONARY
360
2FD
102
}
330
2A
100
AcDbVisualStyle
  2
ColorChange
 70
    16
177
     2
291
     1
 71
     2
176
     1
 72
     2
176
     1
 73
     3
176
     1
 90
        0
176
     1
 40
0.6
176
     1
 41
30.0
176
     1
 62
     5
 63
     8
421
  8421504
176
     1
 74
     1
176
     1
 91
        4
176
     1
 64
     7
176
     1
 65
   257
176
     1
 75
     1
176
     1
175
     1
176
     1
 42
1.0
176
     1
 92
        8
176
     1
 66
     8
424
  8421504
176
     1
 43
1.0
176
     1
 76
     1
176
     1
 77
     6
176
     1
 78
     2
176
     1
 67
     7
176
     1
 79
     5
176
     1
170
     0
176
     1
171
     0
176
     1
290
     0
176
     1
 93
        1
176
     1
 44
0.0
176
     1
173
     0
176
     1
  0
VISUALSTYLE
  5
34
102
{ACAD_REACTORS
330
2A
102
}
102
{ACAD_XDICTIONARY
360
2F1
102
}
330
2A
100
AcDbVisualStyle
  2
Conceptual
 70
     9
177
     2
291
     0
 71
     3
176
     1
 72
     2
176
     1
 73
     0
176
     1
 90
        0
176
     1
 40
0.6
176
     1
 41
30.0
176
     1
 62
     5
 63
     7
421
 16777215
176
     1
 74
     2
176
     1
 91
        2
176
     1
 64
     7
176
     1
 65
   257
176
     1
 75
     1
176
     1
175
     1
176
     1
 42
179.0
176
     1
 92
        8
176
     1
 66
     7
176
     1
 43
1.0
176
     1
 76
     1
176
     1
 77
     6
176
     1
 78
     2
176
     1
 67
     7
176
     1
 79
     3
176
     1
170
     0
176
     1
171
     0
176
     1
290
     0
176
     1
 93
        1
176
     1
 44
0.0
176
     1
173
     0
176
     1
  0
VISUALSTYLE
  5
35
102
{ACAD_REACTORS
330
2A
102
}
102
{ACAD_XDICTIONARY
360
2F3
102
}
330
2A
100
AcDbVisualStyle
  2
Dim
 70
    11
177
     2
291
     1
 71
     2
176
     1
 72
     2
176
     1
 73
     0
176
     1
 90
        0
176
     1
 40
0.6
176
     1
 41
30.0
176
     1
 62
     5
 63
     7
421
 16777215
176
     1
 74
     1
176
     1
 91
        4
176
     1
 64
     7
176
     1
 65
   257
176
     1
 75
     1
176
     1
175
     1
176
     1
 42
1.0
176
     1
 92
        8
176
     1
 66
     7
176
     1
 43
1.0
176
     1
 76
     1
176
     1
 77
     6
176
     1
 78
     2
176
     1
 67
     7
176
     1
 79
     5
176
     1
170
     0
176
     1
171
     0
176
     1
290
     0
176
     1
 93
        1
176
     1
 44
-50.0
176
     1
173
     0
176
     1
  0
VISUALSTYLE
  5
3D
102
{ACAD_REACTORS
330
2A
102
}
102
{ACAD_XDICTIONARY
360
303
102
}
330
2A
100
AcDbVisualStyle
  2
EdgeColorOff
 70
    22
177
     2
291
     1
 71
     2
176
     0
 72
     2
176
     0
 73
     0
176
     0
 90
        0
176
     0
 40
0.6
176
     0
 41
30.0
176
     0
 62
     5
 63
     7
421
 16777215
176
     0
 74
     1
176
     0
 91
        4
176
     0
 64
     7
176
     0
 65
   257
176
     0
 75
     1
176
     0
175
     1
176
     0
 42
1.0
176
     0
 92
        8
176
     2
 66
     7
176
     0
 43
1.0
176
     0
 76
     1
176
     0
 77
     6
176
     0
 78
     2
176
     0
 67
     7
176
     0
 79
     5
176
     0
170
     0
176
     0
171
     0
176
     0
290
     0
176
     0
 93
        1
176
     0
 44
0.0
176
     0
173
     0
176
     0
  0
VISUALSTYLE
  5
39
102
{ACAD_REACTORS
330
2A
102
}
102
{ACAD_XDICTIONARY
360
2FB
102
}
330
2A
100
AcDbVisualStyle
  2
Facepattern
 70
    15
177
     2
291
     1
 71
     2
176
     1
 72
     2
176
     1
 73
     0
176
     1
 90
        0
176
     1
 40
0.6
176
     1
 41
30.0
176
     1
 62
     5
 63
     7
421
 16777215
176
     1
 74
     1
176
     1
 91
        4
176
     1
 64
     7
176
     1
 65
   257
176
     1
 75
     1
176
     1
175
     1
176
     1
 42
1.0
176
     1
 92
        8
176
     1
 66
     7
176
     1
 43
1.0
176
     1
 76
     1
176
     1
 77
     6
176
     1
 78
     2
176
     1
 67
     7
176
     1
 79
     5
176
     1
170
     0
176
     1
171
     0
176
     1
290
     0
176
     1
 93
        1
176
     1
 44
0.0
176
     1
173
     0
176
     1
  0
VISUALSTYLE
  5
2B
102
{ACAD_REACTORS
330
2A
102
}
102
{ACAD_XDICTIONARY
360
2DF
102
}
330
2A
100
AcDbVisualStyle
  2
Flat
 70
     0
177
     2
291
     1
 71
     2
176
     1
 72
     1
176
     1
 73
     1
176
     1
 90
        2
176
     1
 40
0.6
176
     1
 41
30.0
176
     1
 62
     5
 63
     7
421
 16777215
176
     1
 74
     0
176
     1
 91
        0
176
     1
 64
     7
176
     1
 65
   257
176
     1
 75
     1
176
     1
175
     1
176
     1
 42
1.0
176
     1
 92
        8
176
     1
 66
     7
176
     1
 43
1.0
176
     1
 76
     1
176
     1
 77
     6
176
     1
 78
     2
176
     1
 67
     7
176
     1
 79
     5
176
     1
170
     0
176
     1
171
     0
176
     1
290
     0
176
     1
 93
       13
176
     1
 44
0.0
176
     1
173
     0
176
     1
  0
VISUALSTYLE
  5
2C
102
{ACAD_REACTORS
330
2A
102
}
102
{ACAD_XDICTIONARY
360
2E1
102
}
330
2A
100
AcDbVisualStyle
  2
FlatWithEdges
 70
     1
177
     2
291
     1
 71
     2
176
     1
 72
     1
176
     1
 73
     1
176
     1
 90
        2
176
     1
 40
0.6
176
     1
 41
30.0
176
     1
 62
     5
 63
     7
421
 16777215
176
     1
 74
     1
176
     1
 91
        0
176
     1
 64
     7
176
     1
 65
   257
176
     1
 75
     1
176
     1
175
     1
176
     1
 42
1.0
176
     1
 92
        0
176
     1
 66
   257
176
     1
 43
1.0
176
     1
 76
     1
176
     1
 77
     6
176
     1
 78
     2
176
     1
 67
     7
176
     1
 79
     5
176
     1
170
     0
176
     1
171
     0
176
     1
290
     0
176
     1
 93
       13
176
     1
 44
0.0
176
     1
173
     0
176
     1
  0
VISUALSTYLE
  5
2D
102
{ACAD_REACTORS
330
2A
102
}
102
{ACAD_XDICTIONARY
360
2E3
102
}
330
2A
100
AcDbVisualStyle
  2
Gouraud
 70
     2
177
     2
291
     1
 71
     2
176
     1
 72
     2
176
     1
 73
     1
176
     1
 90
        2
176
     1
 40
0.6
176
     1
 41
30.0
176
     1
 62
     5
 63
     7
421
 16777215
176
     1
 74
     0
176
     1
 91
        0
176
     1
 64
     7
176
     1
 65
   257
176
     1
 75
     1
176
     1
175
     1
176
     1
 42
1.0
176
     1
 92
        0
176
     1
 66
     7
176
     1
 43
1.0
176
     1
 76
     1
176
     1
 77
     6
176
     1
 78
     2
176
     1
 67
     7
176
     1
 79
     5
176
     1
170
     0
176
     1
171
     0
176
     1
290
     0
176
     1
 93
       13
176
     1
 44
0.0
176
     1
173
     0
176
     1
  0
VISUALSTYLE
  5
2E
102
{ACAD_REACTORS
330
2A
102
}
102
{ACAD_XDICTIONARY
360
2E5
102
}
330
2A
100
AcDbVisualStyle
  2
GouraudWithEdges
 70
     3
177
     2
291
     1
 71
     2
176
     1
 72
     2
176
     1
 73
     1
176
     1
 90
        2
176
     1
 40
0.6
176
     1
 41
30.0
176
     1
 62
     5
 63
     7
421
 16777215
176
     1
 74
     1
176
     1
 91
        0
176
     1
 64
     7
176
     1
 65
   257
176
     1
 75
     1
176
     1
175
     1
176
     1
 42
1.0
176
     1
 92
        0
176
     1
 66
   257
176
     1
 43
1.0
176
     1
 76
     1
176
     1
 77
     6
176
     1
 78
     2
176
     1
 67
     7
176
     1
 79
     5
176
     1
170
     0
176
     1
171
     0
176
     1
290
     0
176
     1
 93
       13
176
     1
 44
0.0
176
     1
173
     0
176
     1
  0
VISUALSTYLE
  5
31
102
{ACAD_REACTORS
330
2A
102
}
102
{ACAD_XDICTIONARY
360
2EB
102
}
330
2A
100
AcDbVisualStyle
  2
Hidden
 70
     6
177
     2
291
     0
 71
     1
176
     1
 72
     2
176
     1
 73
     2
176
     1
 90
        0
176
     1
 40
0.6
176
     1
 41
30.0
176
     1
 62
     5
 63
     7
421
 16777215
176
     1
 74
     2
176
     1
 91
        2
176
     1
 64
     7
176
     1
 65
   257
176
     1
 75
     2
176
     1
175
     1
176
     1
 42
40.0
176
     1
 92
        0
176
     1
 66
   257
176
     1
 43
1.0
176
     1
 76
     1
176
     1
 77
     6
176
     1
 78
     2
176
     1
 67
     7
176
     1
 79
     3
176
     1
170
     0
176
     1
171
     0
176
     1
290
     0
176
     1
 93
        1
176
     1
 44
0.0
176
     1
173
     0
176
     1
  0
VISUALSTYLE
  5
3B
102
{ACAD_REACTORS
330
2A
102
}
102
{ACAD_XDICTIONARY
360
2FF
102
}
330
2A
100
AcDbVisualStyle
  2
JitterOff
 70
    20
177
     2
291
     1
 71
     2
176
     0
 72
     2
176
     0
 73
     0
176
     0
 90
        0
176
     0
 40
0.6
176
     0
 41
30.0
176
     0
 62
     5
 63
     7
421
 16777215
176
     0
 74
     1
176
     0
 91
        4
176
     0
 64
     7
176
     0
 65
   257
176
     0
 75
     1
176
     0
175
     1
176
     0
 42
1.0
176
     0
 92
       10
176
     2
 66
     7
176
     0
 43
1.0
176
     0
 76
     1
176
     0
 77
     6
176
     0
 78
     2
176
     0
 67
     7
176
     0
 79
     5
176
     0
170
     0
176
     0
171
     0
176
     0
290
     0
176
     0
 93
        1
176
     0
 44
0.0
176
     0
173
     0
176
     0
  0
VISUALSTYLE
  5
38
102
{ACAD_REACTORS
330
2A
102
}
102
{ACAD_XDICTIONARY
360
2F9
102
}
330
2A
100
AcDbVisualStyle
  2
Linepattern
 70
    14
177
     2
291
     1
 71
     2
176
     1
 72
     2
176
     1
 73
     0
176
     1
 90
        0
176
     1
 40
0.6
176
     1
 41
30.0
176
     1
 62
     5
 63
     7
421
 16777215
176
     1
 74
     1
176
     1
 91
        4
176
     1
 64
     7
176
     1
 65
   257
176
     1
 75
     7
176
     1
175
     7
176
     1
 42
1.0
176
     1
 92
        8
176
     1
 66
     7
176
     1
 43
1.0
176
     1
 76
     1
176
     1
 77
     6
176
     1
 78
     2
176
     1
 67
     7
176
     1
 79
     5
176
     1
170
     0
176
     1
171
     0
176
     1
290
     0
176
     1
 93
        1
176
     1
 44
0.0
176
     1
173
     0
176
     1
  0
VISUALSTYLE
  5
3C
102
{ACAD_REACTORS
330
2A
102
}
102
{ACAD_XDICTIONARY
360
301
102
}
330
2A
100
AcDbVisualStyle
  2
OverhangOff
 70
    21
177
     2
291
     1
 71
     2
176
     0
 72
     2
176
     0
 73
     0
176
     0
 90
        0
176
     0
 40
0.6
176
     0
 41
30.0
176
     0
 62
     5
 63
     7
421
 16777215
176
     0
 74
     1
176
     0
 91
        4
176
     0
 64
     7
176
     0
 65
   257
176
     0
 75
     1
176
     0
175
     1
176
     0
 42
1.0
176
     0
 92
        9
176
     2
 66
     7
176
     0
 43
1.0
176
     0
 76
     1
176
     0
 77
     6
176
     0
 78
     2
176
     0
 67
     7
176
     0
 79
     5
176
     0
170
     0
176
     0
171
     0
176
     0
290
     0
176
     0
 93
        1
176
     0
 44
0.0
176
     0
173
     0
176
     0
  0
VISUALSTYLE
  5
33
102
{ACAD_REACTORS
330
2A
102
}
102
{ACAD_XDICTIONARY
360
2EF
102
}
330
2A
100
AcDbVisualStyle
  2
Realistic
 70
     8
177
     2
291
     0
 71
     2
176
     1
 72
     3
176
     1
 73
     0
176
     1
 90
        2
176
     1
 40
0.6
176
     1
 41
30.0
176
     1
 62
     5
 63
     7
421
 16777215
176
     1
 74
     0
176
     1
 91
        0
176
     1
 64
     7
176
     1
 65
   257
176
     1
 75
     1
176
     1
175
     1
176
     1
 42
1.0
176
     1
 92
        8
176
     1
 66
   257
176
     1
 43
1.0
176
     1
 76
     1
176
     1
 77
     6
176
     1
 78
     2
176
     1
 67
     7
176
     1
 79
     3
176
     1
170
     0
176
     1
171
     0
176
     1
290
     0
176
     1
 93
       13
176
     1
 44
0.0
176
     1
173
     0
176
     1
  0
VISUALSTYLE
  5
42
102
{ACAD_REACTORS
330
2A
102
}
102
{ACAD_XDICTIONARY
360
30D
102
}
330
2A
100
AcDbVisualStyle
  2
Shaded
 70
    27
177
     2
291
     0
 71
     2
176
     1
 72
     2
176
     1
 73
     1
176
     1
 90
        2
176
     1
 40
0.6
176
     1
 41
30.0
176
     1
 62
     5
 63
     7
421
 16777215
176
     1
 74
     0
176
     1
 91
        4
176
     1
 64
     7
176
     1
 65
   257
176
     1
 75
     1
176
     1
175
     1
176
     1
 42
1.0
176
     1
 92
        8
176
     1
 66
   257
176
     1
 43
1.0
176
     1
 76
     1
176
     1
 77
     6
176
     1
 78
     2
176
     1
 67
     8
425
  7895160
176
     1
 79
     3
176
     1
170
     0
176
     1
171
     0
176
     1
290
     0
176
     1
 93
        5
176
     1
 44
0.0
176
     1
173
     0
176
     1
  0
VISUALSTYLE
  5
41
102
{ACAD_REACTORS
330
2A
102
}
102
{ACAD_XDICTIONARY
360
30B
102
}
330
2A
100
AcDbVisualStyle
  2
Shaded with edges
 70
    26
177
     2
291
     0
 71
     2
176
     1
 72
     2
176
     1
 73
     1
176
     1
 90
        2
176
     1
 40
0.6
176
     1
 41
30.0
176
     1
 62
     5
 63
     7
421
 16777215
176
     1
 74
     1
176
     1
 91
       10
176
     1
 64
     7
176
     1
 65
   257
176
     1
 75
     2
176
     1
175
     1
176
     1
 42
1.0
176
     1
 92
        8
176
     1
 66
   257
176
     1
 43
1.0
176
     1
 76
     1
176
     1
 77
     6
176
     1
 78
     2
176
     1
 67
     7
176
     1
 79
     3
176
     1
170
     0
176
     1
171
     0
176
     1
290
     0
176
     1
 93
        5
176
     1
 44
0.0
176
     1
173
     0
176
     1
  0
VISUALSTYLE
  5
3E
102
{ACAD_REACTORS
330
2A
102
}
102
{ACAD_XDICTIONARY
360
305
102
}
330
2A
100
AcDbVisualStyle
  2
Shades of Gray
 70
    23
177
     2
291
     0
 71
     2
176
     1
 72
     2
176
     1
 73
     3
176
     1
 90
        0
176
     1
 40
0.6
176
     1
 41
30.0
176
     1
 62
     5
 63
     7
421
 16777215
176
     1
 74
     2
176
     1
 91
        2
176
     1
 64
     7
176
     1
 65
     7
176
     1
 75
     1
176
     1
175
     1
176
     1
 42
40.0
176
     1
 92
        8
176
     1
 66
     7
176
     1
 43
1.0
176
     1
 76
     1
176
     1
 77
     6
176
     1
 78
     2
176
     1
 67
     7
176
     1
 79
     3
176
     1
170
     0
176
     1
171
     0
176
     1
290
     0
176
     1
 93
        1
176
     1
 44
0.0
176
     1
173
     0
176
     1
  0
VISUALSTYLE
  5
3F
102
{ACAD_REACTORS
330
2A
102
}
102
{ACAD_XDICTIONARY
360
307
102
}
330
2A
100
AcDbVisualStyle
  2
Sketchy
 70
    24
177
     2
291
     0
 71
     1
176
     1
 72
     2
176
     1
 73
     2
176
     1
 90
        0
176
     1
 40
0.6
176
     1
 41
30.0
176
     1
 62
     5
 63
     7
421
 16777215
176
     1
 74
     2
176
     1
 91
        2
176
     1
 64
     7
176
     1
 65
     7
176
     1
 75
     1
176
     1
175
     1
176
     1
 42
40.0
176
     1
 92
       11
176
     1
 66
     7
176
     1
 43
1.0
176
     1
 76
     1
176
     1
 77
     6
176
     1
 78
     2
176
     1
 67
     7
176
     1
 79
     6
176
     1
170
     0
176
     1
171
     0
176
     1
290
     0
176
     1
 93
        1
176
     1
 44
0.0
176
     1
173
     0
176
     1
  0
VISUALSTYLE
  5
37
102
{ACAD_REACTORS
330
2A
102
}
102
{ACAD_XDICTIONARY
360
2F7
102
}
330
2A
100
AcDbVisualStyle
  2
Thicken
 70
    13
177
     2
291
     1
 71
     2
176
     1
 72
     2
176
     1
 73
     0
176
     1
 90
        0
176
     1
 40
0.6
176
     1
 41
30.0
176
     1
 62
     5
 63
     7
421
 16777215
176
     1
 74
     1
176
     1
 91
        4
176
     1
 64
     7
176
     1
 65
   257
176
     1
 75
     1
176
     1
175
     1
176
     1
 42
1.0
176
     1
 92
       12
176
     1
 66
     7
176
     1
 43
1.0
176
     1
 76
     1
176
     1
 77
     6
176
     1
 78
     2
176
     1
 67
     7
176
     1
 79
     5
176
     1
170
     0
176
     1
171
     0
176
     1
290
     0
176
     1
 93
        1
176
     1
 44
0.0
176
     1
173
     0
176
     1
  0
VISUALSTYLE
  5
30
102
{ACAD_REACTORS
330
2A
102
}
102
{ACAD_XDICTIONARY
360
2E9
102
}
330
2A
100
AcDbVisualStyle
  2
Wireframe
 70
     5
177
     2
291
     0
 71
     0
176
     1
 72
     2
176
     1
 73
     0
176
     1
 90
        0
176
     1
 40
0.6
176
     1
 41
30.0
176
     1
 62
     5
 63
     7
421
 16777215
176
     1
 74
     1
176
     1
 91
        4
176
     1
 64
     7
176
     1
 65
   257
176
     1
 75
     1
176
     1
175
     1
176
     1
 42
1.0
176
     1
 92
        0
176
     1
 66
   257
176
     1
 43
1.0
176
     1
 76
     1
176
     1
 77
     6
176
     1
 78
     2
176
     1
 67
     7
176
     1
 79
     3
176
     1
170
     0
176
     1
171
     0
176
     1
290
     0
176
     1
 93
        1
176
     1
 44
0.0
176
     1
173
     0
176
     1
  0
VISUALSTYLE
  5
40
102
{ACAD_REACTORS
330
2A
102
}
102
{ACAD_XDICTIONARY
360
309
102
}
330
2A
100
AcDbVisualStyle
  2
X-Ray
 70
    25
177
     2
291
     0
 71
     2
176
     1
 72
     2
176
     1
 73
     1
176
     1
 90
        1
176
     1
 40
0.5
176
     1
 41
30.0
176
     1
 62
     5
 63
     7
421
 16777215
176
     1
 74
     1
176
     1
 91
        0
176
     1
 64
     7
176
     1
 65
   257
176
     1
 75
     1
176
     1
175
     1
176
     1
 42
1.0
176
     1
 92
        8
176
     1
 66
     7
176
     1
 43
1.0
176
     1
 76
     1
176
     1
 77
     6
176
     1
 78
     2
176
     1
 67
     7
176
     1
 79
     3
176
     1
170
     0
176
     1
171
     0
176
     1
290
     0
176
     1
 93
       13
176
     1
 44
0.0
176
     1
173
     0
176
     1
  0
DICTIONARYVAR
  5
2DE
102
{ACAD_REACTORS
330
2DD
102
}
330
2DD
100
DictionaryVariables
280
     0
  1
1:1
  0
DICTIONARYVAR
  5
316
102
{ACAD_REACTORS
330
2DD
102
}
330
2DD
100
DictionaryVariables
280
     0
  1
3.500000
  0
DICTIONARYVAR
  5
317
102
{ACAD_REACTORS
330
2DD
102
}
330
2DD
100
DictionaryVariables
280
     0
  1
acadiso.lin
  0
DICTIONARYVAR
  5
313
102
{ACAD_REACTORS
330
2DD
102
}
330
2DD
100
DictionaryVariables
280
     0
  1
Standard
  0
DICTIONARYVAR
  5
312
102
{ACAD_REACTORS
330
2DD
102
}
330
2DD
100
DictionaryVariables
280
     0
  1
Standard
  0
DICTIONARY
  5
30F
330
6A
100
AcDbDictionary
280
     1
281
     1
  3
ACAD_ROUNDTRIP_2008_TABLESTYLE_CELLSTYLEMAP
360
310
  0
DICTIONARY
  5
2E7
330
2F
100
AcDbDictionary
280
     1
281
     1
  3
ACAD_XREC_ROUNDTRIP
360
2E8
  0
DICTIONARY
  5
2ED
330
32
100
AcDbDictionary
280
     1
281
     1
  3
ACAD_XREC_ROUNDTRIP
360
2EE
  0
DICTIONARY
  5
2F5
330
36
100
AcDbDictionary
280
     1
281
     1
  3
ACAD_XREC_ROUNDTRIP
360
2F6
  0
DICTIONARY
  5
2FD
330
3A
100
AcDbDictionary
280
     1
281
     1
  3
ACAD_XREC_ROUNDTRIP
360
2FE
  0
DICTIONARY
  5
2F1
330
34
100
AcDbDictionary
280
     1
281
     1
  3
ACAD_XREC_ROUNDTRIP
360
2F2
  0
DICTIONARY
  5
2F3
330
35
100
AcDbDictionary
280
     1
281
     1
  3
ACAD_XREC_ROUNDTRIP
360
2F4
  0
DICTIONARY
  5
303
330
3D
100
AcDbDictionary
280
     1
281
     1
  3
ACAD_XREC_ROUNDTRIP
360
304
  0
DICTIONARY
  5
2FB
330
39
100
AcDbDictionary
280
     1
281
     1
  3
ACAD_XREC_ROUNDTRIP
360
2FC
  0
DICTIONARY
  5
2DF
330
2B
100
AcDbDictionary
280
     1
281
     1
  3
ACAD_XREC_ROUNDTRIP
360
2E0
  0
DICTIONARY
  5
2E1
330
2C
100
AcDbDictionary
280
     1
281
     1
  3
ACAD_XREC_ROUNDTRIP
360
2E2
  0
DICTIONARY
  5
2E3
330
2D
100
AcDbDictionary
280
     1
281
     1
  3
ACAD_XREC_ROUNDTRIP
360
2E4
  0
DICTIONARY
  5
2E5
330
2E
100
AcDbDictionary
280
     1
281
     1
  3
ACAD_XREC_ROUNDTRIP
360
2E6
  0
DICTIONARY
  5
2EB
330
31
100
AcDbDictionary
280
     1
281
     1
  3
ACAD_XREC_ROUNDTRIP
360
2EC
  0
DICTIONARY
  5
2FF
330
3B
100
AcDbDictionary
280
     1
281
     1
  3
ACAD_XREC_ROUNDTRIP
360
300
  0
DICTIONARY
  5
2F9
330
38
100
AcDbDictionary
280
     1
281
     1
  3
ACAD_XREC_ROUNDTRIP
360
2FA
  0
DICTIONARY
  5
301
330
3C
100
AcDbDictionary
280
     1
281
     1
  3
ACAD_XREC_ROUNDTRIP
360
302
  0
DICTIONARY
  5
2EF
330
33
100
AcDbDictionary
280
     1
281
     1
  3
ACAD_XREC_ROUNDTRIP
360
2F0
  0
DICTIONARY
  5
30D
330
42
100
AcDbDictionary
280
     1
281
     1
  3
ACAD_XREC_ROUNDTRIP
360
30E
  0
DICTIONARY
  5
30B
330
41
100
AcDbDictionary
280
     1
281
     1
  3
ACAD_XREC_ROUNDTRIP
360
30C
  0
DICTIONARY
  5
305
330
3E
100
AcDbDictionary
280
     1
281
     1
  3
ACAD_XREC_ROUNDTRIP
360
306
  0
DICTIONARY
  5
307
330
3F
100
AcDbDictionary
280
     1
281
     1
  3
ACAD_XREC_ROUNDTRIP
360
308
  0
DICTIONARY
  5
2F7
330
37
100
AcDbDictionary
280
     1
281
     1
  3
ACAD_XREC_ROUNDTRIP
360
2F8
  0
DICTIONARY
  5
2E9
330
30
100
AcDbDictionary
280
     1
281
     1
  3
ACAD_XREC_ROUNDTRIP
360
2EA
  0
DICTIONARY
  5
309
330
40
100
AcDbDictionary
280
     1
281
     1
  3
ACAD_XREC_ROUNDTRIP
360
30A
  0
CELLSTYLEMAP
  5
310
102
{ACAD_REACTORS
330
30F
102
}
330
30F
100
AcDbCellStyleMap
 90
        3
300
CELLSTYLE
  1
TABLEFORMAT_BEGIN
 90
        5
170
     1
 91
        0
 92
    32768
 62
   257
 93
        1
300
CONTENTFORMAT
  1
CONTENTFORMAT_BEGIN
 90
        0
 91
        0
 92
        4
 93
        0
300

 40
0.0
140
1.0
 94
        5
 62
     0
340
11
144
6.0
309
CONTENTFORMAT_END
171
     1
301
MARGIN
  1
CELLMARGIN_BEGIN
 40
1.5
 40
1.5
 40
1.5
 40
1.5
 40
1.5
 40
1.5
309
CELLMARGIN_END
 94
        6
 95
        1
302
GRIDFORMAT
  1
GRIDFORMAT_BEGIN
 90
        0
 91
        1
 62
     0
 92
       -2
340
14
 93
        0
 40
0.045
309
GRIDFORMAT_END
 95
        2
302
GRIDFORMAT
  1
GRIDFORMAT_BEGIN
 90
        0
 91
        1
 62
     0
 92
       -2
340
14
 93
        0
 40
0.045
309
GRIDFORMAT_END
 95
        4
302
GRIDFORMAT
  1
GRIDFORMAT_BEGIN
 90
        0
 91
        1
 62
     0
 92
       -2
340
14
 93
        0
 40
0.045
309
GRIDFORMAT_END
 95
        8
302
GRIDFORMAT
  1
GRIDFORMAT_BEGIN
 90
        0
 91
        1
 62
     0
 92
       -2
340
14
 93
        0
 40
0.045
309
GRIDFORMAT_END
 95
       16
302
GRIDFORMAT
  1
GRIDFORMAT_BEGIN
 90
        0
 91
        1
 62
     0
 92
       -2
340
14
 93
        0
 40
0.045
309
GRIDFORMAT_END
 95
       32
302
GRIDFORMAT
  1
GRIDFORMAT_BEGIN
 90
        0
 91
        1
 62
     0
 92
       -2
340
14
 93
        0
 40
0.045
309
GRIDFORMAT_END
309
TABLEFORMAT_END
  1
CELLSTYLE_BEGIN
 90
        1
 91
        1
300
_TITLE
309
CELLSTYLE_END
300
CELLSTYLE
  1
TABLEFORMAT_BEGIN
 90
        5
170
     1
 91
        0
 92
        0
 62
   257
 93
        1
300
CONTENTFORMAT
  1
CONTENTFORMAT_BEGIN
 90
        0
 91
        0
 92
        4
 93
        0
300

 40
0.0
140
1.0
 94
        5
 62
     0
340
11
144
4.5
309
CONTENTFORMAT_END
171
     1
301
MARGIN
  1
CELLMARGIN_BEGIN
 40
1.5
 40
1.5
 40
1.5
 40
1.5
 40
1.5
 40
1.5
309
CELLMARGIN_END
 94
        6
 95
        1
302
GRIDFORMAT
  1
GRIDFORMAT_BEGIN
 90
        0
 91
        1
 62
     0
 92
       -2
340
14
 93
        0
 40
0.045
309
GRIDFORMAT_END
 95
        2
302
GRIDFORMAT
  1
GRIDFORMAT_BEGIN
 90
        0
 91
        1
 62
     0
 92
       -2
340
14
 93
        0
 40
0.045
309
GRIDFORMAT_END
 95
        4
302
GRIDFORMAT
  1
GRIDFORMAT_BEGIN
 90
        0
 91
        1
 62
     0
 92
       -2
340
14
 93
        0
 40
0.045
309
GRIDFORMAT_END
 95
        8
302
GRIDFORMAT
  1
GRIDFORMAT_BEGIN
 90
        0
 91
        1
 62
     0
 92
       -2
340
14
 93
        0
 40
0.045
309
GRIDFORMAT_END
 95
       16
302
GRIDFORMAT
  1
GRIDFORMAT_BEGIN
 90
        0
 91
        1
 62
     0
 92
       -2
340
14
 93
        0
 40
0.045
309
GRIDFORMAT_END
 95
       32
302
GRIDFORMAT
  1
GRIDFORMAT_BEGIN
 90
        0
 91
        1
 62
     0
 92
       -2
340
14
 93
        0
 40
0.045
309
GRIDFORMAT_END
309
TABLEFORMAT_END
  1
CELLSTYLE_BEGIN
 90
        2
 91
        1
300
_HEADER
309
CELLSTYLE_END
300
CELLSTYLE
  1
TABLEFORMAT_BEGIN
 90
        5
170
     1
 91
        0
 92
        0
 62
   257
 93
        1
300
CONTENTFORMAT
  1
CONTENTFORMAT_BEGIN
 90
        0
 91
        0
 92
        4
 93
        0
300

 40
0.0
140
1.0
 94
        2
 62
     0
340
11
144
4.5
309
CONTENTFORMAT_END
171
     1
301
MARGIN
  1
CELLMARGIN_BEGIN
 40
1.5
 40
1.5
 40
1.5
 40
1.5
 40
1.5
 40
1.5
309
CELLMARGIN_END
 94
        6
 95
        1
302
GRIDFORMAT
  1
GRIDFORMAT_BEGIN
 90
        0
 91
        1
 62
     0
 92
       -2
340
14
 93
        0
 40
0.045
309
GRIDFORMAT_END
 95
        2
302
GRIDFORMAT
  1
GRIDFORMAT_BEGIN
 90
        0
 91
        1
 62
     0
 92
       -2
340
14
 93
        0
 40
0.045
309
GRIDFORMAT_END
 95
        4
302
GRIDFORMAT
  1
GRIDFORMAT_BEGIN
 90
        0
 91
        1
 62
     0
 92
       -2
340
14
 93
        0
 40
0.045
309
GRIDFORMAT_END
 95
        8
302
GRIDFORMAT
  1
GRIDFORMAT_BEGIN
 90
        0
 91
        1
 62
     0
 92
       -2
340
14
 93
        0
 40
0.045
309
GRIDFORMAT_END
 95
       16
302
GRIDFORMAT
  1
GRIDFORMAT_BEGIN
 90
        0
 91
        1
 62
     0
 92
       -2
340
14
 93
        0
 40
0.045
309
GRIDFORMAT_END
 95
       32
302
GRIDFORMAT
  1
GRIDFORMAT_BEGIN
 90
        0
 91
        1
 62
     0
 92
       -2
340
14
 93
        0
 40
0.045
309
GRIDFORMAT_END
309
TABLEFORMAT_END
  1
CELLSTYLE_BEGIN
 90
        3
 91
        2
300
_DATA
309
CELLSTYLE_END
  0
XRECORD
  5
2E8
102
{ACAD_REACTORS
330
2E7
102
}
330
2E7
100
AcDbXrecord
280
     1
102
RTVSPost2010Prop28
280
     1
102
RTVSPost2010PropOp28
 70
     1
102
RTVSPost2010Prop29
280
     1
102
RTVSPost2010PropOp29
 70
     1
102
RTVSPost2010Prop30
280
     0
102
RTVSPost2010PropOp30
 70
     1
102
RTVSPost2010Prop31
280
     0
102
RTVSPost2010PropOp31
 70
     1
102
RTVSPost2010Prop32
280
     0
102
RTVSPost2010PropOp32
 70
     1
102
RTVSPost2010Prop33
280
     0
102
RTVSPost2010PropOp33
 70
     1
102
RTVSPost2010Prop34
280
     0
102
RTVSPost2010PropOp34
 70
     1
102
RTVSPost2010Prop35
280
     0
102
RTVSPost2010PropOp35
 70
     1
102
RTVSPost2010Prop36
280
     0
102
RTVSPost2010PropOp36
 70
     1
102
RTVSPost2010Prop37
 90
       50
102
RTVSPost2010PropOp37
 70
     1
102
RTVSPost2010Prop38
140
0.0
102
RTVSPost2010PropOp38
 70
     1
102
RTVSPost2010Prop39
140
1.0
102
RTVSPost2010PropOp39
 70
     1
102
RTVSPost2010Prop40
 90
        0
102
RTVSPost2010PropOp40
 70
     1
102
RTVSPost2010Prop41ColorIndex
 90
       18
102
RTVSPost2010Prop41ColorRGB
 90
        0
102
RTVSPost2010PropOp41
 70
     1
102
RTVSPost2010Prop42
 90
       50
102
RTVSPost2010PropOp42
 70
     1
102
RTVSPost2010Prop43
 90
        3
102
RTVSPost2010PropOp43
 70
     1
102
RTVSPost2010Prop44ColorIndex
 90
        5
102
RTVSPost2010Prop44ColorRGB
 90
      255
102
RTVSPost2010PropOp44
 70
     1
102
RTVSPost2010Prop45
280
     0
102
RTVSPost2010PropOp45
 70
     1
102
RTVSPost2010Prop46
 90
       50
102
RTVSPost2010PropOp46
 70
     1
102
RTVSPost2010Prop47
 90
       50
102
RTVSPost2010PropOp47
 70
     1
102
RTVSPost2010Prop48
 90
       50
102
RTVSPost2010PropOp48
 70
     1
102
RTVSPost2010Prop49
280
     0
102
RTVSPost2010PropOp49
 70
     1
102
RTVSPost2010Prop50
 90
       50
102
RTVSPost2010PropOp50
 70
     1
102
RTVSPost2010Prop51ColorIndex
 90
      256
102
RTVSPost2010Prop51ColorRGB
 90
-16777216
102
RTVSPost2010PropOp51
 70
     0
102
RTVSPost2010Prop52
140
1.0
102
RTVSPost2010PropOp52
 70
     0
102
RTVSPost2010Prop53
 90
        2
102
RTVSPost2010PropOp53
 70
     1
102
RTVSPost2010Prop54
  1
strokes_ogs.tif
102
RTVSPost2010PropOp54
 70
     1
102
RTVSPost2010Prop55
280
     0
102
RTVSPost2010PropOp55
 70
     1
102
RTVSPost2010Prop56
140
1.0
102
RTVSPost2010PropOp56
 70
     1
102
RTVSPost2010Prop57
140
1.0
102
RTVSPost2010PropOp57
 70
     1
  0
XRECORD
  5
2EE
102
{ACAD_REACTORS
330
2ED
102
}
330
2ED
100
AcDbXrecord
280
     1
102
RTVSPost2010Prop28
280
     0
102
RTVSPost2010PropOp28
 70
     1
102
RTVSPost2010Prop29
280
     1
102
RTVSPost2010PropOp29
 70
     1
102
RTVSPost2010Prop30
280
     1
102
RTVSPost2010PropOp30
 70
     1
102
RTVSPost2010Prop31
280
     0
102
RTVSPost2010PropOp31
 70
     1
102
RTVSPost2010Prop32
280
     0
102
RTVSPost2010PropOp32
 70
     1
102
RTVSPost2010Prop33
280
     0
102
RTVSPost2010PropOp33
 70
     1
102
RTVSPost2010Prop34
280
     0
102
RTVSPost2010PropOp34
 70
     1
102
RTVSPost2010Prop35
280
     0
102
RTVSPost2010PropOp35
 70
     1
102
RTVSPost2010Prop36
280
     0
102
RTVSPost2010PropOp36
 70
     1
102
RTVSPost2010Prop37
 90
       50
102
RTVSPost2010PropOp37
 70
     1
102
RTVSPost2010Prop38
140
0.0
102
RTVSPost2010PropOp38
 70
     1
102
RTVSPost2010Prop39
140
1.0
102
RTVSPost2010PropOp39
 70
     1
102
RTVSPost2010Prop40
 90
        0
102
RTVSPost2010PropOp40
 70
     1
102
RTVSPost2010Prop41ColorIndex
 90
       18
102
RTVSPost2010Prop41ColorRGB
 90
        0
102
RTVSPost2010PropOp41
 70
     1
102
RTVSPost2010Prop42
 90
       50
102
RTVSPost2010PropOp42
 70
     1
102
RTVSPost2010Prop43
 90
        3
102
RTVSPost2010PropOp43
 70
     1
102
RTVSPost2010Prop44ColorIndex
 90
        5
102
RTVSPost2010Prop44ColorRGB
 90
      255
102
RTVSPost2010PropOp44
 70
     1
102
RTVSPost2010Prop45
280
     0
102
RTVSPost2010PropOp45
 70
     1
102
RTVSPost2010Prop46
 90
       50
102
RTVSPost2010PropOp46
 70
     1
102
RTVSPost2010Prop47
 90
       50
102
RTVSPost2010PropOp47
 70
     1
102
RTVSPost2010Prop48
 90
       50
102
RTVSPost2010PropOp48
 70
     1
102
RTVSPost2010Prop49
280
     0
102
RTVSPost2010PropOp49
 70
     1
102
RTVSPost2010Prop50
 90
       50
102
RTVSPost2010PropOp50
 70
     1
102
RTVSPost2010Prop51ColorIndex
 90
      256
102
RTVSPost2010Prop51ColorRGB
 90
-16777216
102
RTVSPost2010PropOp51
 70
     0
102
RTVSPost2010Prop52
140
1.0
102
RTVSPost2010PropOp52
 70
     0
102
RTVSPost2010Prop53
 90
        2
102
RTVSPost2010PropOp53
 70
     1
102
RTVSPost2010Prop54
  1
strokes_ogs.tif
102
RTVSPost2010PropOp54
 70
     1
102
RTVSPost2010Prop55
280
     0
102
RTVSPost2010PropOp55
 70
     1
102
RTVSPost2010Prop56
140
1.0
102
RTVSPost2010PropOp56
 70
     1
102
RTVSPost2010Prop57
140
1.0
102
RTVSPost2010PropOp57
 70
     1
  0
XRECORD
  5
2F6
102
{ACAD_REACTORS
330
2F5
102
}
330
2F5
100
AcDbXrecord
280
     1
102
RTVSPost2010Prop28
280
     0
102
RTVSPost2010PropOp28
 70
     1
102
RTVSPost2010Prop29
280
     1
102
RTVSPost2010PropOp29
 70
     1
102
RTVSPost2010Prop30
280
     1
102
RTVSPost2010PropOp30
 70
     1
102
RTVSPost2010Prop31
280
     0
102
RTVSPost2010PropOp31
 70
     1
102
RTVSPost2010Prop32
280
     0
102
RTVSPost2010PropOp32
 70
     1
102
RTVSPost2010Prop33
280
     0
102
RTVSPost2010PropOp33
 70
     1
102
RTVSPost2010Prop34
280
     0
102
RTVSPost2010PropOp34
 70
     1
102
RTVSPost2010Prop35
280
     0
102
RTVSPost2010PropOp35
 70
     1
102
RTVSPost2010Prop36
280
     0
102
RTVSPost2010PropOp36
 70
     1
102
RTVSPost2010Prop37
 90
       50
102
RTVSPost2010PropOp37
 70
     1
102
RTVSPost2010Prop38
140
0.0
102
RTVSPost2010PropOp38
 70
     1
102
RTVSPost2010Prop39
140
1.0
102
RTVSPost2010PropOp39
 70
     1
102
RTVSPost2010Prop40
 90
        0
102
RTVSPost2010PropOp40
 70
     1
102
RTVSPost2010Prop41ColorIndex
 90
       18
102
RTVSPost2010Prop41ColorRGB
 90
        0
102
RTVSPost2010PropOp41
 70
     1
102
RTVSPost2010Prop42
 90
       50
102
RTVSPost2010PropOp42
 70
     1
102
RTVSPost2010Prop43
 90
        3
102
RTVSPost2010PropOp43
 70
     1
102
RTVSPost2010Prop44ColorIndex
 90
        5
102
RTVSPost2010Prop44ColorRGB
 90
      255
102
RTVSPost2010PropOp44
 70
     1
102
RTVSPost2010Prop45
280
     0
102
RTVSPost2010PropOp45
 70
     1
102
RTVSPost2010Prop46
 90
       50
102
RTVSPost2010PropOp46
 70
     1
102
RTVSPost2010Prop47
 90
       50
102
RTVSPost2010PropOp47
 70
     1
102
RTVSPost2010Prop48
 90
       50
102
RTVSPost2010PropOp48
 70
     1
102
RTVSPost2010Prop49
280
     0
102
RTVSPost2010PropOp49
 70
     1
102
RTVSPost2010Prop50
 90
       50
102
RTVSPost2010PropOp50
 70
     1
102
RTVSPost2010Prop51ColorIndex
 90
      256
102
RTVSPost2010Prop51ColorRGB
 90
-16777216
102
RTVSPost2010PropOp51
 70
     0
102
RTVSPost2010Prop52
140
1.0
102
RTVSPost2010PropOp52
 70
     0
102
RTVSPost2010Prop53
 90
        2
102
RTVSPost2010PropOp53
 70
     1
102
RTVSPost2010Prop54
  1
strokes_ogs.tif
102
RTVSPost2010PropOp54
 70
     1
102
RTVSPost2010Prop55
280
     0
102
RTVSPost2010PropOp55
 70
     1
102
RTVSPost2010Prop56
140
1.0
102
RTVSPost2010PropOp56
 70
     1
102
RTVSPost2010Prop57
140
1.0
102
RTVSPost2010PropOp57
 70
     1
  0
XRECORD
  5
2FE
102
{ACAD_REACTORS
330
2FD
102
}
330
2FD
100
AcDbXrecord
280
     1
102
RTVSPost2010Prop28
280
     0
102
RTVSPost2010PropOp28
 70
     1
102
RTVSPost2010Prop29
280
     1
102
RTVSPost2010PropOp29
 70
     1
102
RTVSPost2010Prop30
280
     1
102
RTVSPost2010PropOp30
 70
     1
102
RTVSPost2010Prop31
280
     0
102
RTVSPost2010PropOp31
 70
     1
102
RTVSPost2010Prop32
280
     0
102
RTVSPost2010PropOp32
 70
     1
102
RTVSPost2010Prop33
280
     0
102
RTVSPost2010PropOp33
 70
     1
102
RTVSPost2010Prop34
280
     0
102
RTVSPost2010PropOp34
 70
     1
102
RTVSPost2010Prop35
280
     0
102
RTVSPost2010PropOp35
 70
     1
102
RTVSPost2010Prop36
280
     0
102
RTVSPost2010PropOp36
 70
     1
102
RTVSPost2010Prop37
 90
       50
102
RTVSPost2010PropOp37
 70
     1
102
RTVSPost2010Prop38
140
0.0
102
RTVSPost2010PropOp38
 70
     1
102
RTVSPost2010Prop39
140
1.0
102
RTVSPost2010PropOp39
 70
     1
102
RTVSPost2010Prop40
 90
        0
102
RTVSPost2010PropOp40
 70
     1
102
RTVSPost2010Prop41ColorIndex
 90
       18
102
RTVSPost2010Prop41ColorRGB
 90
        0
102
RTVSPost2010PropOp41
 70
     1
102
RTVSPost2010Prop42
 90
       50
102
RTVSPost2010PropOp42
 70
     1
102
RTVSPost2010Prop43
 90
        3
102
RTVSPost2010PropOp43
 70
     1
102
RTVSPost2010Prop44ColorIndex
 90
        5
102
RTVSPost2010Prop44ColorRGB
 90
      255
102
RTVSPost2010PropOp44
 70
     1
102
RTVSPost2010Prop45
280
     0
102
RTVSPost2010PropOp45
 70
     1
102
RTVSPost2010Prop46
 90
       50
102
RTVSPost2010PropOp46
 70
     1
102
RTVSPost2010Prop47
 90
       50
102
RTVSPost2010PropOp47
 70
     1
102
RTVSPost2010Prop48
 90
       50
102
RTVSPost2010PropOp48
 70
     1
102
RTVSPost2010Prop49
280
     0
102
RTVSPost2010PropOp49
 70
     1
102
RTVSPost2010Prop50
 90
       50
102
RTVSPost2010PropOp50
 70
     1
102
RTVSPost2010Prop51ColorIndex
 90
      256
102
RTVSPost2010Prop51ColorRGB
 90
-16777216
102
RTVSPost2010PropOp51
 70
     0
102
RTVSPost2010Prop52
140
1.0
102
RTVSPost2010PropOp52
 70
     0
102
RTVSPost2010Prop53
 90
        2
102
RTVSPost2010PropOp53
 70
     1
102
RTVSPost2010Prop54
  1
strokes_ogs.tif
102
RTVSPost2010PropOp54
 70
     1
102
RTVSPost2010Prop55
280
     0
102
RTVSPost2010PropOp55
 70
     1
102
RTVSPost2010Prop56
140
1.0
102
RTVSPost2010PropOp56
 70
     1
102
RTVSPost2010Prop57
140
1.0
102
RTVSPost2010PropOp57
 70
     1
  0
XRECORD
  5
2F2
102
{ACAD_REACTORS
330
2F1
102
}
330
2F1
100
AcDbXrecord
280
     1
102
RTVSPost2010Prop28
280
     0
102
RTVSPost2010PropOp28
 70
     1
102
RTVSPost2010Prop29
280
     1
102
RTVSPost2010PropOp29
 70
     1
102
RTVSPost2010Prop30
280
     1
102
RTVSPost2010PropOp30
 70
     1
102
RTVSPost2010Prop31
280
     0
102
RTVSPost2010PropOp31
 70
     1
102
RTVSPost2010Prop32
280
     0
102
RTVSPost2010PropOp32
 70
     1
102
RTVSPost2010Prop33
280
     0
102
RTVSPost2010PropOp33
 70
     1
102
RTVSPost2010Prop34
280
     0
102
RTVSPost2010PropOp34
 70
     1
102
RTVSPost2010Prop35
280
     0
102
RTVSPost2010PropOp35
 70
     1
102
RTVSPost2010Prop36
280
     0
102
RTVSPost2010PropOp36
 70
     1
102
RTVSPost2010Prop37
 90
       50
102
RTVSPost2010PropOp37
 70
     1
102
RTVSPost2010Prop38
140
0.0
102
RTVSPost2010PropOp38
 70
     1
102
RTVSPost2010Prop39
140
1.0
102
RTVSPost2010PropOp39
 70
     1
102
RTVSPost2010Prop40
 90
        0
102
RTVSPost2010PropOp40
 70
     1
102
RTVSPost2010Prop41ColorIndex
 90
       18
102
RTVSPost2010Prop41ColorRGB
 90
        0
102
RTVSPost2010PropOp41
 70
     1
102
RTVSPost2010Prop42
 90
       50
102
RTVSPost2010PropOp42
 70
     1
102
RTVSPost2010Prop43
 90
        3
102
RTVSPost2010PropOp43
 70
     1
102
RTVSPost2010Prop44ColorIndex
 90
        5
102
RTVSPost2010Prop44ColorRGB
 90
      255
102
RTVSPost2010PropOp44
 70
     1
102
RTVSPost2010Prop45
280
     0
102
RTVSPost2010PropOp45
 70
     1
102
RTVSPost2010Prop46
 90
       50
102
RTVSPost2010PropOp46
 70
     1
102
RTVSPost2010Prop47
 90
       50
102
RTVSPost2010PropOp47
 70
     1
102
RTVSPost2010Prop48
 90
       50
102
RTVSPost2010PropOp48
 70
     1
102
RTVSPost2010Prop49
280
     0
102
RTVSPost2010PropOp49
 70
     1
102
RTVSPost2010Prop50
 90
       50
102
RTVSPost2010PropOp50
 70
     1
102
RTVSPost2010Prop51ColorIndex
 90
      256
102
RTVSPost2010Prop51ColorRGB
 90
-16777216
102
RTVSPost2010PropOp51
 70
     0
102
RTVSPost2010Prop52
140
1.0
102
RTVSPost2010PropOp52
 70
     0
102
RTVSPost2010Prop53
 90
        2
102
RTVSPost2010PropOp53
 70
     1
102
RTVSPost2010Prop54
  1
strokes_ogs.tif
102
RTVSPost2010PropOp54
 70
     1
102
RTVSPost2010Prop55
280
     0
102
RTVSPost2010PropOp55
 70
     1
102
RTVSPost2010Prop56
140
1.0
102
RTVSPost2010PropOp56
 70
     1
102
RTVSPost2010Prop57
140
1.0
102
RTVSPost2010PropOp57
 70
     1
  0
XRECORD
  5
2F4
102
{ACAD_REACTORS
330
2F3
102
}
330
2F3
100
AcDbXrecord
280
     1
102
RTVSPost2010Prop28
280
     0
102
RTVSPost2010PropOp28
 70
     1
102
RTVSPost2010Prop29
280
     1
102
RTVSPost2010PropOp29
 70
     1
102
RTVSPost2010Prop30
280
     1
102
RTVSPost2010PropOp30
 70
     1
102
RTVSPost2010Prop31
280
     0
102
RTVSPost2010PropOp31
 70
     1
102
RTVSPost2010Prop32
280
     0
102
RTVSPost2010PropOp32
 70
     1
102
RTVSPost2010Prop33
280
     0
102
RTVSPost2010PropOp33
 70
     1
102
RTVSPost2010Prop34
280
     0
102
RTVSPost2010PropOp34
 70
     1
102
RTVSPost2010Prop35
280
     0
102
RTVSPost2010PropOp35
 70
     1
102
RTVSPost2010Prop36
280
     0
102
RTVSPost2010PropOp36
 70
     1
102
RTVSPost2010Prop37
 90
       50
102
RTVSPost2010PropOp37
 70
     1
102
RTVSPost2010Prop38
140
0.0
102
RTVSPost2010PropOp38
 70
     1
102
RTVSPost2010Prop39
140
1.0
102
RTVSPost2010PropOp39
 70
     1
102
RTVSPost2010Prop40
 90
        0
102
RTVSPost2010PropOp40
 70
     1
102
RTVSPost2010Prop41ColorIndex
 90
       18
102
RTVSPost2010Prop41ColorRGB
 90
        0
102
RTVSPost2010PropOp41
 70
     1
102
RTVSPost2010Prop42
 90
       50
102
RTVSPost2010PropOp42
 70
     1
102
RTVSPost2010Prop43
 90
        3
102
RTVSPost2010PropOp43
 70
     1
102
RTVSPost2010Prop44ColorIndex
 90
        5
102
RTVSPost2010Prop44ColorRGB
 90
      255
102
RTVSPost2010PropOp44
 70
     1
102
RTVSPost2010Prop45
280
     0
102
RTVSPost2010PropOp45
 70
     1
102
RTVSPost2010Prop46
 90
       50
102
RTVSPost2010PropOp46
 70
     1
102
RTVSPost2010Prop47
 90
       50
102
RTVSPost2010PropOp47
 70
     1
102
RTVSPost2010Prop48
 90
       50
102
RTVSPost2010PropOp48
 70
     1
102
RTVSPost2010Prop49
280
     0
102
RTVSPost2010PropOp49
 70
     1
102
RTVSPost2010Prop50
 90
       50
102
RTVSPost2010PropOp50
 70
     1
102
RTVSPost2010Prop51ColorIndex
 90
      256
102
RTVSPost2010Prop51ColorRGB
 90
-16777216
102
RTVSPost2010PropOp51
 70
     0
102
RTVSPost2010Prop52
140
1.0
102
RTVSPost2010PropOp52
 70
     0
102
RTVSPost2010Prop53
 90
        2
102
RTVSPost2010PropOp53
 70
     1
102
RTVSPost2010Prop54
  1
strokes_ogs.tif
102
RTVSPost2010PropOp54
 70
     1
102
RTVSPost2010Prop55
280
     0
102
RTVSPost2010PropOp55
 70
     1
102
RTVSPost2010Prop56
140
1.0
102
RTVSPost2010PropOp56
 70
     1
102
RTVSPost2010Prop57
140
1.0
102
RTVSPost2010PropOp57
 70
     1
  0
XRECORD
  5
304
102
{ACAD_REACTORS
330
303
102
}
330
303
100
AcDbXrecord
280
     1
102
RTVSPost2010Prop28
280
     0
102
RTVSPost2010PropOp28
 70
     0
102
RTVSPost2010Prop29
280
     1
102
RTVSPost2010PropOp29
 70
     0
102
RTVSPost2010Prop30
280
     1
102
RTVSPost2010PropOp30
 70
     0
102
RTVSPost2010Prop31
280
     0
102
RTVSPost2010PropOp31
 70
     0
102
RTVSPost2010Prop32
280
     0
102
RTVSPost2010PropOp32
 70
     0
102
RTVSPost2010Prop33
280
     0
102
RTVSPost2010PropOp33
 70
     0
102
RTVSPost2010Prop34
280
     0
102
RTVSPost2010PropOp34
 70
     0
102
RTVSPost2010Prop35
280
     0
102
RTVSPost2010PropOp35
 70
     0
102
RTVSPost2010Prop36
280
     0
102
RTVSPost2010PropOp36
 70
     0
102
RTVSPost2010Prop37
 90
       50
102
RTVSPost2010PropOp37
 70
     0
102
RTVSPost2010Prop38
140
0.0
102
RTVSPost2010PropOp38
 70
     0
102
RTVSPost2010Prop39
140
1.0
102
RTVSPost2010PropOp39
 70
     0
102
RTVSPost2010Prop40
 90
        0
102
RTVSPost2010PropOp40
 70
     0
102
RTVSPost2010Prop41ColorIndex
 90
       18
102
RTVSPost2010Prop41ColorRGB
 90
        0
102
RTVSPost2010PropOp41
 70
     0
102
RTVSPost2010Prop42
 90
       50
102
RTVSPost2010PropOp42
 70
     0
102
RTVSPost2010Prop43
 90
        3
102
RTVSPost2010PropOp43
 70
     0
102
RTVSPost2010Prop44ColorIndex
 90
        5
102
RTVSPost2010Prop44ColorRGB
 90
      255
102
RTVSPost2010PropOp44
 70
     0
102
RTVSPost2010Prop45
280
     0
102
RTVSPost2010PropOp45
 70
     0
102
RTVSPost2010Prop46
 90
       50
102
RTVSPost2010PropOp46
 70
     0
102
RTVSPost2010Prop47
 90
       50
102
RTVSPost2010PropOp47
 70
     0
102
RTVSPost2010Prop48
 90
       50
102
RTVSPost2010PropOp48
 70
     0
102
RTVSPost2010Prop49
280
     0
102
RTVSPost2010PropOp49
 70
     0
102
RTVSPost2010Prop50
 90
       50
102
RTVSPost2010PropOp50
 70
     0
102
RTVSPost2010Prop51ColorIndex
 90
      256
102
RTVSPost2010Prop51ColorRGB
 90
-16777216
102
RTVSPost2010PropOp51
 70
     0
102
RTVSPost2010Prop52
140
1.0
102
RTVSPost2010PropOp52
 70
     0
102
RTVSPost2010Prop53
 90
        2
102
RTVSPost2010PropOp53
 70
     0
102
RTVSPost2010Prop54
  1
strokes_ogs.tif
102
RTVSPost2010PropOp54
 70
     0
102
RTVSPost2010Prop55
280
     0
102
RTVSPost2010PropOp55
 70
     0
102
RTVSPost2010Prop56
140
1.0
102
RTVSPost2010PropOp56
 70
     0
102
RTVSPost2010Prop57
140
1.0
102
RTVSPost2010PropOp57
 70
     0
  0
XRECORD
  5
2FC
102
{ACAD_REACTORS
330
2FB
102
}
330
2FB
100
AcDbXrecord
280
     1
102
RTVSPost2010Prop28
280
     0
102
RTVSPost2010PropOp28
 70
     1
102
RTVSPost2010Prop29
280
     1
102
RTVSPost2010PropOp29
 70
     1
102
RTVSPost2010Prop30
280
     1
102
RTVSPost2010PropOp30
 70
     1
102
RTVSPost2010Prop31
280
     0
102
RTVSPost2010PropOp31
 70
     1
102
RTVSPost2010Prop32
280
     0
102
RTVSPost2010PropOp32
 70
     1
102
RTVSPost2010Prop33
280
     0
102
RTVSPost2010PropOp33
 70
     1
102
RTVSPost2010Prop34
280
     0
102
RTVSPost2010PropOp34
 70
     1
102
RTVSPost2010Prop35
280
     0
102
RTVSPost2010PropOp35
 70
     1
102
RTVSPost2010Prop36
280
     0
102
RTVSPost2010PropOp36
 70
     1
102
RTVSPost2010Prop37
 90
       50
102
RTVSPost2010PropOp37
 70
     1
102
RTVSPost2010Prop38
140
0.0
102
RTVSPost2010PropOp38
 70
     1
102
RTVSPost2010Prop39
140
1.0
102
RTVSPost2010PropOp39
 70
     1
102
RTVSPost2010Prop40
 90
        0
102
RTVSPost2010PropOp40
 70
     1
102
RTVSPost2010Prop41ColorIndex
 90
       18
102
RTVSPost2010Prop41ColorRGB
 90
        0
102
RTVSPost2010PropOp41
 70
     1
102
RTVSPost2010Prop42
 90
       50
102
RTVSPost2010PropOp42
 70
     1
102
RTVSPost2010Prop43
 90
        3
102
RTVSPost2010PropOp43
 70
     1
102
RTVSPost2010Prop44ColorIndex
 90
        5
102
RTVSPost2010Prop44ColorRGB
 90
      255
102
RTVSPost2010PropOp44
 70
     1
102
RTVSPost2010Prop45
280
     0
102
RTVSPost2010PropOp45
 70
     1
102
RTVSPost2010Prop46
 90
       50
102
RTVSPost2010PropOp46
 70
     1
102
RTVSPost2010Prop47
 90
       50
102
RTVSPost2010PropOp47
 70
     1
102
RTVSPost2010Prop48
 90
       50
102
RTVSPost2010PropOp48
 70
     1
102
RTVSPost2010Prop49
280
     0
102
RTVSPost2010PropOp49
 70
     1
102
RTVSPost2010Prop50
 90
       50
102
RTVSPost2010PropOp50
 70
     1
102
RTVSPost2010Prop51ColorIndex
 90
      256
102
RTVSPost2010Prop51ColorRGB
 90
-16777216
102
RTVSPost2010PropOp51
 70
     0
102
RTVSPost2010Prop52
140
1.0
102
RTVSPost2010PropOp52
 70
     0
102
RTVSPost2010Prop53
 90
        2
102
RTVSPost2010PropOp53
 70
     1
102
RTVSPost2010Prop54
  1
strokes_ogs.tif
102
RTVSPost2010PropOp54
 70
     1
102
RTVSPost2010Prop55
280
     0
102
RTVSPost2010PropOp55
 70
     1
102
RTVSPost2010Prop56
140
1.0
102
RTVSPost2010PropOp56
 70
     1
102
RTVSPost2010Prop57
140
1.0
102
RTVSPost2010PropOp57
 70
     1
  0
XRECORD
  5
2E0
102
{ACAD_REACTORS
330
2DF
102
}
330
2DF
100
AcDbXrecord
280
     1
102
RTVSPost2010Prop28
280
     0
102
RTVSPost2010PropOp28
 70
     1
102
RTVSPost2010Prop29
280
     1
102
RTVSPost2010PropOp29
 70
     1
102
RTVSPost2010Prop30
280
     1
102
RTVSPost2010PropOp30
 70
     1
102
RTVSPost2010Prop31
280
     0
102
RTVSPost2010PropOp31
 70
     1
102
RTVSPost2010Prop32
280
     0
102
RTVSPost2010PropOp32
 70
     1
102
RTVSPost2010Prop33
280
     0
102
RTVSPost2010PropOp33
 70
     1
102
RTVSPost2010Prop34
280
     0
102
RTVSPost2010PropOp34
 70
     1
102
RTVSPost2010Prop35
280
     0
102
RTVSPost2010PropOp35
 70
     1
102
RTVSPost2010Prop36
280
     0
102
RTVSPost2010PropOp36
 70
     1
102
RTVSPost2010Prop37
 90
       50
102
RTVSPost2010PropOp37
 70
     1
102
RTVSPost2010Prop38
140
0.0
102
RTVSPost2010PropOp38
 70
     1
102
RTVSPost2010Prop39
140
1.0
102
RTVSPost2010PropOp39
 70
     1
102
RTVSPost2010Prop40
 90
        0
102
RTVSPost2010PropOp40
 70
     1
102
RTVSPost2010Prop41ColorIndex
 90
       18
102
RTVSPost2010Prop41ColorRGB
 90
        0
102
RTVSPost2010PropOp41
 70
     1
102
RTVSPost2010Prop42
 90
       50
102
RTVSPost2010PropOp42
 70
     1
102
RTVSPost2010Prop43
 90
        3
102
RTVSPost2010PropOp43
 70
     1
102
RTVSPost2010Prop44ColorIndex
 90
        5
102
RTVSPost2010Prop44ColorRGB
 90
      255
102
RTVSPost2010PropOp44
 70
     1
102
RTVSPost2010Prop45
280
     0
102
RTVSPost2010PropOp45
 70
     1
102
RTVSPost2010Prop46
 90
       50
102
RTVSPost2010PropOp46
 70
     1
102
RTVSPost2010Prop47
 90
       50
102
RTVSPost2010PropOp47
 70
     1
102
RTVSPost2010Prop48
 90
       50
102
RTVSPost2010PropOp48
 70
     1
102
RTVSPost2010Prop49
280
     0
102
RTVSPost2010PropOp49
 70
     1
102
RTVSPost2010Prop50
 90
       50
102
RTVSPost2010PropOp50
 70
     1
102
RTVSPost2010Prop51ColorIndex
 90
      256
102
RTVSPost2010Prop51ColorRGB
 90
-16777216
102
RTVSPost2010PropOp51
 70
     0
102
RTVSPost2010Prop52
140
1.0
102
RTVSPost2010PropOp52
 70
     0
102
RTVSPost2010Prop53
 90
        2
102
RTVSPost2010PropOp53
 70
     1
102
RTVSPost2010Prop54
  1
strokes_ogs.tif
102
RTVSPost2010PropOp54
 70
     1
102
RTVSPost2010Prop55
280
     0
102
RTVSPost2010PropOp55
 70
     1
102
RTVSPost2010Prop56
140
1.0
102
RTVSPost2010PropOp56
 70
     1
102
RTVSPost2010Prop57
140
1.0
102
RTVSPost2010PropOp57
 70
     1
  0
XRECORD
  5
2E2
102
{ACAD_REACTORS
330
2E1
102
}
330
2E1
100
AcDbXrecord
280
     1
102
RTVSPost2010Prop28
280
     0
102
RTVSPost2010PropOp28
 70
     1
102
RTVSPost2010Prop29
280
     1
102
RTVSPost2010PropOp29
 70
     1
102
RTVSPost2010Prop30
280
     1
102
RTVSPost2010PropOp30
 70
     1
102
RTVSPost2010Prop31
280
     0
102
RTVSPost2010PropOp31
 70
     1
102
RTVSPost2010Prop32
280
     0
102
RTVSPost2010PropOp32
 70
     1
102
RTVSPost2010Prop33
280
     0
102
RTVSPost2010PropOp33
 70
     1
102
RTVSPost2010Prop34
280
     0
102
RTVSPost2010PropOp34
 70
     1
102
RTVSPost2010Prop35
280
     0
102
RTVSPost2010PropOp35
 70
     1
102
RTVSPost2010Prop36
280
     0
102
RTVSPost2010PropOp36
 70
     1
102
RTVSPost2010Prop37
 90
       50
102
RTVSPost2010PropOp37
 70
     1
102
RTVSPost2010Prop38
140
0.0
102
RTVSPost2010PropOp38
 70
     1
102
RTVSPost2010Prop39
140
1.0
102
RTVSPost2010PropOp39
 70
     1
102
RTVSPost2010Prop40
 90
        0
102
RTVSPost2010PropOp40
 70
     1
102
RTVSPost2010Prop41ColorIndex
 90
       18
102
RTVSPost2010Prop41ColorRGB
 90
        0
102
RTVSPost2010PropOp41
 70
     1
102
RTVSPost2010Prop42
 90
       50
102
RTVSPost2010PropOp42
 70
     1
102
RTVSPost2010Prop43
 90
        3
102
RTVSPost2010PropOp43
 70
     1
102
RTVSPost2010Prop44ColorIndex
 90
        5
102
RTVSPost2010Prop44ColorRGB
 90
      255
102
RTVSPost2010PropOp44
 70
     1
102
RTVSPost2010Prop45
280
     0
102
RTVSPost2010PropOp45
 70
     1
102
RTVSPost2010Prop46
 90
       50
102
RTVSPost2010PropOp46
 70
     1
102
RTVSPost2010Prop47
 90
       50
102
RTVSPost2010PropOp47
 70
     1
102
RTVSPost2010Prop48
 90
       50
102
RTVSPost2010PropOp48
 70
     1
102
RTVSPost2010Prop49
280
     0
102
RTVSPost2010PropOp49
 70
     1
102
RTVSPost2010Prop50
 90
       50
102
RTVSPost2010PropOp50
 70
     1
102
RTVSPost2010Prop51ColorIndex
 90
      256
102
RTVSPost2010Prop51ColorRGB
 90
-16777216
102
RTVSPost2010PropOp51
 70
     0
102
RTVSPost2010Prop52
140
1.0
102
RTVSPost2010PropOp52
 70
     0
102
RTVSPost2010Prop53
 90
        2
102
RTVSPost2010PropOp53
 70
     1
102
RTVSPost2010Prop54
  1
strokes_ogs.tif
102
RTVSPost2010PropOp54
 70
     1
102
RTVSPost2010Prop55
280
     0
102
RTVSPost2010PropOp55
 70
     1
102
RTVSPost2010Prop56
140
1.0
102
RTVSPost2010PropOp56
 70
     1
102
RTVSPost2010Prop57
140
1.0
102
RTVSPost2010PropOp57
 70
     1
  0
XRECORD
  5
2E4
102
{ACAD_REACTORS
330
2E3
102
}
330
2E3
100
AcDbXrecord
280
     1
102
RTVSPost2010Prop28
280
     0
102
RTVSPost2010PropOp28
 70
     1
102
RTVSPost2010Prop29
280
     1
102
RTVSPost2010PropOp29
 70
     1
102
RTVSPost2010Prop30
280
     1
102
RTVSPost2010PropOp30
 70
     1
102
RTVSPost2010Prop31
280
     0
102
RTVSPost2010PropOp31
 70
     1
102
RTVSPost2010Prop32
280
     0
102
RTVSPost2010PropOp32
 70
     1
102
RTVSPost2010Prop33
280
     0
102
RTVSPost2010PropOp33
 70
     1
102
RTVSPost2010Prop34
280
     0
102
RTVSPost2010PropOp34
 70
     1
102
RTVSPost2010Prop35
280
     0
102
RTVSPost2010PropOp35
 70
     1
102
RTVSPost2010Prop36
280
     0
102
RTVSPost2010PropOp36
 70
     1
102
RTVSPost2010Prop37
 90
       50
102
RTVSPost2010PropOp37
 70
     1
102
RTVSPost2010Prop38
140
0.0
102
RTVSPost2010PropOp38
 70
     1
102
RTVSPost2010Prop39
140
1.0
102
RTVSPost2010PropOp39
 70
     1
102
RTVSPost2010Prop40
 90
        0
102
RTVSPost2010PropOp40
 70
     1
102
RTVSPost2010Prop41ColorIndex
 90
       18
102
RTVSPost2010Prop41ColorRGB
 90
        0
102
RTVSPost2010PropOp41
 70
     1
102
RTVSPost2010Prop42
 90
       50
102
RTVSPost2010PropOp42
 70
     1
102
RTVSPost2010Prop43
 90
        3
102
RTVSPost2010PropOp43
 70
     1
102
RTVSPost2010Prop44ColorIndex
 90
        5
102
RTVSPost2010Prop44ColorRGB
 90
      255
102
RTVSPost2010PropOp44
 70
     1
102
RTVSPost2010Prop45
280
     0
102
RTVSPost2010PropOp45
 70
     1
102
RTVSPost2010Prop46
 90
       50
102
RTVSPost2010PropOp46
 70
     1
102
RTVSPost2010Prop47
 90
       50
102
RTVSPost2010PropOp47
 70
     1
102
RTVSPost2010Prop48
 90
       50
102
RTVSPost2010PropOp48
 70
     1
102
RTVSPost2010Prop49
280
     0
102
RTVSPost2010PropOp49
 70
     1
102
RTVSPost2010Prop50
 90
       50
102
RTVSPost2010PropOp50
 70
     1
102
RTVSPost2010Prop51ColorIndex
 90
      256
102
RTVSPost2010Prop51ColorRGB
 90
-16777216
102
RTVSPost2010PropOp51
 70
     0
102
RTVSPost2010Prop52
140
1.0
102
RTVSPost2010PropOp52
 70
     0
102
RTVSPost2010Prop53
 90
        2
102
RTVSPost2010PropOp53
 70
     1
102
RTVSPost2010Prop54
  1
strokes_ogs.tif
102
RTVSPost2010PropOp54
 70
     1
102
RTVSPost2010Prop55
280
     0
102
RTVSPost2010PropOp55
 70
     1
102
RTVSPost2010Prop56
140
1.0
102
RTVSPost2010PropOp56
 70
     1
102
RTVSPost2010Prop57
140
1.0
102
RTVSPost2010PropOp57
 70
     1
  0
XRECORD
  5
2E6
102
{ACAD_REACTORS
330
2E5
102
}
330
2E5
100
AcDbXrecord
280
     1
102
RTVSPost2010Prop28
280
     0
102
RTVSPost2010PropOp28
 70
     1
102
RTVSPost2010Prop29
280
     1
102
RTVSPost2010PropOp29
 70
     1
102
RTVSPost2010Prop30
280
     1
102
RTVSPost2010PropOp30
 70
     1
102
RTVSPost2010Prop31
280
     0
102
RTVSPost2010PropOp31
 70
     1
102
RTVSPost2010Prop32
280
     0
102
RTVSPost2010PropOp32
 70
     1
102
RTVSPost2010Prop33
280
     0
102
RTVSPost2010PropOp33
 70
     1
102
RTVSPost2010Prop34
280
     0
102
RTVSPost2010PropOp34
 70
     1
102
RTVSPost2010Prop35
280
     0
102
RTVSPost2010PropOp35
 70
     1
102
RTVSPost2010Prop36
280
     0
102
RTVSPost2010PropOp36
 70
     1
102
RTVSPost2010Prop37
 90
       50
102
RTVSPost2010PropOp37
 70
     1
102
RTVSPost2010Prop38
140
0.0
102
RTVSPost2010PropOp38
 70
     1
102
RTVSPost2010Prop39
140
1.0
102
RTVSPost2010PropOp39
 70
     1
102
RTVSPost2010Prop40
 90
        0
102
RTVSPost2010PropOp40
 70
     1
102
RTVSPost2010Prop41ColorIndex
 90
       18
102
RTVSPost2010Prop41ColorRGB
 90
        0
102
RTVSPost2010PropOp41
 70
     1
102
RTVSPost2010Prop42
 90
       50
102
RTVSPost2010PropOp42
 70
     1
102
RTVSPost2010Prop43
 90
        3
102
RTVSPost2010PropOp43
 70
     1
102
RTVSPost2010Prop44ColorIndex
 90
        5
102
RTVSPost2010Prop44ColorRGB
 90
      255
102
RTVSPost2010PropOp44
 70
     1
102
RTVSPost2010Prop45
280
     0
102
RTVSPost2010PropOp45
 70
     1
102
RTVSPost2010Prop46
 90
       50
102
RTVSPost2010PropOp46
 70
     1
102
RTVSPost2010Prop47
 90
       50
102
RTVSPost2010PropOp47
 70
     1
102
RTVSPost2010Prop48
 90
       50
102
RTVSPost2010PropOp48
 70
     1
102
RTVSPost2010Prop49
280
     0
102
RTVSPost2010PropOp49
 70
     1
102
RTVSPost2010Prop50
 90
       50
102
RTVSPost2010PropOp50
 70
     1
102
RTVSPost2010Prop51ColorIndex
 90
      256
102
RTVSPost2010Prop51ColorRGB
 90
-16777216
102
RTVSPost2010PropOp51
 70
     0
102
RTVSPost2010Prop52
140
1.0
102
RTVSPost2010PropOp52
 70
     0
102
RTVSPost2010Prop53
 90
        2
102
RTVSPost2010PropOp53
 70
     1
102
RTVSPost2010Prop54
  1
strokes_ogs.tif
102
RTVSPost2010PropOp54
 70
     1
102
RTVSPost2010Prop55
280
     0
102
RTVSPost2010PropOp55
 70
     1
102
RTVSPost2010Prop56
140
1.0
102
RTVSPost2010PropOp56
 70
     1
102
RTVSPost2010Prop57
140
1.0
102
RTVSPost2010PropOp57
 70
     1
  0
XRECORD
  5
2EC
102
{ACAD_REACTORS
330
2EB
102
}
330
2EB
100
AcDbXrecord
280
     1
102
RTVSPost2010Prop28
280
     0
102
RTVSPost2010PropOp28
 70
     1
102
RTVSPost2010Prop29
280
     1
102
RTVSPost2010PropOp29
 70
     1
102
RTVSPost2010Prop30
280
     1
102
RTVSPost2010PropOp30
 70
     1
102
RTVSPost2010Prop31
280
     0
102
RTVSPost2010PropOp31
 70
     1
102
RTVSPost2010Prop32
280
     0
102
RTVSPost2010PropOp32
 70
     1
102
RTVSPost2010Prop33
280
     0
102
RTVSPost2010PropOp33
 70
     1
102
RTVSPost2010Prop34
280
     0
102
RTVSPost2010PropOp34
 70
     1
102
RTVSPost2010Prop35
280
     0
102
RTVSPost2010PropOp35
 70
     1
102
RTVSPost2010Prop36
280
     0
102
RTVSPost2010PropOp36
 70
     1
102
RTVSPost2010Prop37
 90
       50
102
RTVSPost2010PropOp37
 70
     1
102
RTVSPost2010Prop38
140
0.0
102
RTVSPost2010PropOp38
 70
     1
102
RTVSPost2010Prop39
140
1.0
102
RTVSPost2010PropOp39
 70
     1
102
RTVSPost2010Prop40
 90
        0
102
RTVSPost2010PropOp40
 70
     1
102
RTVSPost2010Prop41ColorIndex
 90
       18
102
RTVSPost2010Prop41ColorRGB
 90
        0
102
RTVSPost2010PropOp41
 70
     1
102
RTVSPost2010Prop42
 90
       50
102
RTVSPost2010PropOp42
 70
     1
102
RTVSPost2010Prop43
 90
        3
102
RTVSPost2010PropOp43
 70
     1
102
RTVSPost2010Prop44ColorIndex
 90
        5
102
RTVSPost2010Prop44ColorRGB
 90
      255
102
RTVSPost2010PropOp44
 70
     1
102
RTVSPost2010Prop45
280
     0
102
RTVSPost2010PropOp45
 70
     1
102
RTVSPost2010Prop46
 90
       50
102
RTVSPost2010PropOp46
 70
     1
102
RTVSPost2010Prop47
 90
       50
102
RTVSPost2010PropOp47
 70
     1
102
RTVSPost2010Prop48
 90
       50
102
RTVSPost2010PropOp48
 70
     1
102
RTVSPost2010Prop49
280
     0
102
RTVSPost2010PropOp49
 70
     1
102
RTVSPost2010Prop50
 90
       50
102
RTVSPost2010PropOp50
 70
     1
102
RTVSPost2010Prop51ColorIndex
 90
      256
102
RTVSPost2010Prop51ColorRGB
 90
-16777216
102
RTVSPost2010PropOp51
 70
     0
102
RTVSPost2010Prop52
140
1.0
102
RTVSPost2010PropOp52
 70
     0
102
RTVSPost2010Prop53
 90
        2
102
RTVSPost2010PropOp53
 70
     1
102
RTVSPost2010Prop54
  1
strokes_ogs.tif
102
RTVSPost2010PropOp54
 70
     1
102
RTVSPost2010Prop55
280
     0
102
RTVSPost2010PropOp55
 70
     1
102
RTVSPost2010Prop56
140
1.0
102
RTVSPost2010PropOp56
 70
     1
102
RTVSPost2010Prop57
140
1.0
102
RTVSPost2010PropOp57
 70
     1
  0
XRECORD
  5
300
102
{ACAD_REACTORS
330
2FF
102
}
330
2FF
100
AcDbXrecord
280
     1
102
RTVSPost2010Prop28
280
     0
102
RTVSPost2010PropOp28
 70
     0
102
RTVSPost2010Prop29
280
     1
102
RTVSPost2010PropOp29
 70
     0
102
RTVSPost2010Prop30
280
     1
102
RTVSPost2010PropOp30
 70
     0
102
RTVSPost2010Prop31
280
     0
102
RTVSPost2010PropOp31
 70
     0
102
RTVSPost2010Prop32
280
     0
102
RTVSPost2010PropOp32
 70
     0
102
RTVSPost2010Prop33
280
     0
102
RTVSPost2010PropOp33
 70
     0
102
RTVSPost2010Prop34
280
     0
102
RTVSPost2010PropOp34
 70
     0
102
RTVSPost2010Prop35
280
     0
102
RTVSPost2010PropOp35
 70
     0
102
RTVSPost2010Prop36
280
     0
102
RTVSPost2010PropOp36
 70
     0
102
RTVSPost2010Prop37
 90
       50
102
RTVSPost2010PropOp37
 70
     0
102
RTVSPost2010Prop38
140
0.0
102
RTVSPost2010PropOp38
 70
     0
102
RTVSPost2010Prop39
140
1.0
102
RTVSPost2010PropOp39
 70
     0
102
RTVSPost2010Prop40
 90
        0
102
RTVSPost2010PropOp40
 70
     0
102
RTVSPost2010Prop41ColorIndex
 90
       18
102
RTVSPost2010Prop41ColorRGB
 90
        0
102
RTVSPost2010PropOp41
 70
     0
102
RTVSPost2010Prop42
 90
       50
102
RTVSPost2010PropOp42
 70
     0
102
RTVSPost2010Prop43
 90
        3
102
RTVSPost2010PropOp43
 70
     0
102
RTVSPost2010Prop44ColorIndex
 90
        5
102
RTVSPost2010Prop44ColorRGB
 90
      255
102
RTVSPost2010PropOp44
 70
     0
102
RTVSPost2010Prop45
280
     0
102
RTVSPost2010PropOp45
 70
     0
102
RTVSPost2010Prop46
 90
       50
102
RTVSPost2010PropOp46
 70
     0
102
RTVSPost2010Prop47
 90
       50
102
RTVSPost2010PropOp47
 70
     0
102
RTVSPost2010Prop48
 90
       50
102
RTVSPost2010PropOp48
 70
     0
102
RTVSPost2010Prop49
280
     0
102
RTVSPost2010PropOp49
 70
     0
102
RTVSPost2010Prop50
 90
       50
102
RTVSPost2010PropOp50
 70
     0
102
RTVSPost2010Prop51ColorIndex
 90
      256
102
RTVSPost2010Prop51ColorRGB
 90
-16777216
102
RTVSPost2010PropOp51
 70
     0
102
RTVSPost2010Prop52
140
1.0
102
RTVSPost2010PropOp52
 70
     0
102
RTVSPost2010Prop53
 90
        2
102
RTVSPost2010PropOp53
 70
     0
102
RTVSPost2010Prop54
  1
strokes_ogs.tif
102
RTVSPost2010PropOp54
 70
     0
102
RTVSPost2010Prop55
280
     0
102
RTVSPost2010PropOp55
 70
     0
102
RTVSPost2010Prop56
140
1.0
102
RTVSPost2010PropOp56
 70
     0
102
RTVSPost2010Prop57
140
1.0
102
RTVSPost2010PropOp57
 70
     0
  0
XRECORD
  5
2FA
102
{ACAD_REACTORS
330
2F9
102
}
330
2F9
100
AcDbXrecord
280
     1
102
RTVSPost2010Prop28
280
     0
102
RTVSPost2010PropOp28
 70
     1
102
RTVSPost2010Prop29
280
     1
102
RTVSPost2010PropOp29
 70
     1
102
RTVSPost2010Prop30
280
     1
102
RTVSPost2010PropOp30
 70
     1
102
RTVSPost2010Prop31
280
     0
102
RTVSPost2010PropOp31
 70
     1
102
RTVSPost2010Prop32
280
     0
102
RTVSPost2010PropOp32
 70
     1
102
RTVSPost2010Prop33
280
     0
102
RTVSPost2010PropOp33
 70
     1
102
RTVSPost2010Prop34
280
     0
102
RTVSPost2010PropOp34
 70
     1
102
RTVSPost2010Prop35
280
     0
102
RTVSPost2010PropOp35
 70
     1
102
RTVSPost2010Prop36
280
     0
102
RTVSPost2010PropOp36
 70
     1
102
RTVSPost2010Prop37
 90
       50
102
RTVSPost2010PropOp37
 70
     1
102
RTVSPost2010Prop38
140
0.0
102
RTVSPost2010PropOp38
 70
     1
102
RTVSPost2010Prop39
140
1.0
102
RTVSPost2010PropOp39
 70
     1
102
RTVSPost2010Prop40
 90
        0
102
RTVSPost2010PropOp40
 70
     1
102
RTVSPost2010Prop41ColorIndex
 90
       18
102
RTVSPost2010Prop41ColorRGB
 90
        0
102
RTVSPost2010PropOp41
 70
     1
102
RTVSPost2010Prop42
 90
       50
102
RTVSPost2010PropOp42
 70
     1
102
RTVSPost2010Prop43
 90
        3
102
RTVSPost2010PropOp43
 70
     1
102
RTVSPost2010Prop44ColorIndex
 90
        5
102
RTVSPost2010Prop44ColorRGB
 90
      255
102
RTVSPost2010PropOp44
 70
     1
102
RTVSPost2010Prop45
280
     0
102
RTVSPost2010PropOp45
 70
     1
102
RTVSPost2010Prop46
 90
       50
102
RTVSPost2010PropOp46
 70
     1
102
RTVSPost2010Prop47
 90
       50
102
RTVSPost2010PropOp47
 70
     1
102
RTVSPost2010Prop48
 90
       50
102
RTVSPost2010PropOp48
 70
     1
102
RTVSPost2010Prop49
280
     0
102
RTVSPost2010PropOp49
 70
     1
102
RTVSPost2010Prop50
 90
       50
102
RTVSPost2010PropOp50
 70
     1
102
RTVSPost2010Prop51ColorIndex
 90
      256
102
RTVSPost2010Prop51ColorRGB
 90
-16777216
102
RTVSPost2010PropOp51
 70
     0
102
RTVSPost2010Prop52
140
1.0
102
RTVSPost2010PropOp52
 70
     0
102
RTVSPost2010Prop53
 90
        2
102
RTVSPost2010PropOp53
 70
     1
102
RTVSPost2010Prop54
  1
strokes_ogs.tif
102
RTVSPost2010PropOp54
 70
     1
102
RTVSPost2010Prop55
280
     0
102
RTVSPost2010PropOp55
 70
     1
102
RTVSPost2010Prop56
140
1.0
102
RTVSPost2010PropOp56
 70
     1
102
RTVSPost2010Prop57
140
1.0
102
RTVSPost2010PropOp57
 70
     1
  0
XRECORD
  5
302
102
{ACAD_REACTORS
330
301
102
}
330
301
100
AcDbXrecord
280
     1
102
RTVSPost2010Prop28
280
     0
102
RTVSPost2010PropOp28
 70
     0
102
RTVSPost2010Prop29
280
     1
102
RTVSPost2010PropOp29
 70
     0
102
RTVSPost2010Prop30
280
     1
102
RTVSPost2010PropOp30
 70
     0
102
RTVSPost2010Prop31
280
     0
102
RTVSPost2010PropOp31
 70
     0
102
RTVSPost2010Prop32
280
     0
102
RTVSPost2010PropOp32
 70
     0
102
RTVSPost2010Prop33
280
     0
102
RTVSPost2010PropOp33
 70
     0
102
RTVSPost2010Prop34
280
     0
102
RTVSPost2010PropOp34
 70
     0
102
RTVSPost2010Prop35
280
     0
102
RTVSPost2010PropOp35
 70
     0
102
RTVSPost2010Prop36
280
     0
102
RTVSPost2010PropOp36
 70
     0
102
RTVSPost2010Prop37
 90
       50
102
RTVSPost2010PropOp37
 70
     0
102
RTVSPost2010Prop38
140
0.0
102
RTVSPost2010PropOp38
 70
     0
102
RTVSPost2010Prop39
140
1.0
102
RTVSPost2010PropOp39
 70
     0
102
RTVSPost2010Prop40
 90
        0
102
RTVSPost2010PropOp40
 70
     0
102
RTVSPost2010Prop41ColorIndex
 90
       18
102
RTVSPost2010Prop41ColorRGB
 90
        0
102
RTVSPost2010PropOp41
 70
     0
102
RTVSPost2010Prop42
 90
       50
102
RTVSPost2010PropOp42
 70
     0
102
RTVSPost2010Prop43
 90
        3
102
RTVSPost2010PropOp43
 70
     0
102
RTVSPost2010Prop44ColorIndex
 90
        5
102
RTVSPost2010Prop44ColorRGB
 90
      255
102
RTVSPost2010PropOp44
 70
     0
102
RTVSPost2010Prop45
280
     0
102
RTVSPost2010PropOp45
 70
     0
102
RTVSPost2010Prop46
 90
       50
102
RTVSPost2010PropOp46
 70
     0
102
RTVSPost2010Prop47
 90
       50
102
RTVSPost2010PropOp47
 70
     0
102
RTVSPost2010Prop48
 90
       50
102
RTVSPost2010PropOp48
 70
     0
102
RTVSPost2010Prop49
280
     0
102
RTVSPost2010PropOp49
 70
     0
102
RTVSPost2010Prop50
 90
       50
102
RTVSPost2010PropOp50
 70
     0
102
RTVSPost2010Prop51ColorIndex
 90
      256
102
RTVSPost2010Prop51ColorRGB
 90
-16777216
102
RTVSPost2010PropOp51
 70
     0
102
RTVSPost2010Prop52
140
1.0
102
RTVSPost2010PropOp52
 70
     0
102
RTVSPost2010Prop53
 90
        2
102
RTVSPost2010PropOp53
 70
     0
102
RTVSPost2010Prop54
  1
strokes_ogs.tif
102
RTVSPost2010PropOp54
 70
     0
102
RTVSPost2010Prop55
280
     0
102
RTVSPost2010PropOp55
 70
     0
102
RTVSPost2010Prop56
140
1.0
102
RTVSPost2010PropOp56
 70
     0
102
RTVSPost2010Prop57
140
1.0
102
RTVSPost2010PropOp57
 70
     0
  0
XRECORD
  5
2F0
102
{ACAD_REACTORS
330
2EF
102
}
330
2EF
100
AcDbXrecord
280
     1
102
RTVSPost2010Prop28
280
     0
102
RTVSPost2010PropOp28
 70
     1
102
RTVSPost2010Prop29
280
     1
102
RTVSPost2010PropOp29
 70
     1
102
RTVSPost2010Prop30
280
     1
102
RTVSPost2010PropOp30
 70
     1
102
RTVSPost2010Prop31
280
     0
102
RTVSPost2010PropOp31
 70
     1
102
RTVSPost2010Prop32
280
     0
102
RTVSPost2010PropOp32
 70
     1
102
RTVSPost2010Prop33
280
     0
102
RTVSPost2010PropOp33
 70
     1
102
RTVSPost2010Prop34
280
     0
102
RTVSPost2010PropOp34
 70
     1
102
RTVSPost2010Prop35
280
     0
102
RTVSPost2010PropOp35
 70
     1
102
RTVSPost2010Prop36
280
     0
102
RTVSPost2010PropOp36
 70
     1
102
RTVSPost2010Prop37
 90
       50
102
RTVSPost2010PropOp37
 70
     1
102
RTVSPost2010Prop38
140
0.0
102
RTVSPost2010PropOp38
 70
     1
102
RTVSPost2010Prop39
140
1.0
102
RTVSPost2010PropOp39
 70
     1
102
RTVSPost2010Prop40
 90
        0
102
RTVSPost2010PropOp40
 70
     1
102
RTVSPost2010Prop41ColorIndex
 90
       18
102
RTVSPost2010Prop41ColorRGB
 90
        0
102
RTVSPost2010PropOp41
 70
     1
102
RTVSPost2010Prop42
 90
       50
102
RTVSPost2010PropOp42
 70
     1
102
RTVSPost2010Prop43
 90
        3
102
RTVSPost2010PropOp43
 70
     1
102
RTVSPost2010Prop44ColorIndex
 90
        5
102
RTVSPost2010Prop44ColorRGB
 90
      255
102
RTVSPost2010PropOp44
 70
     1
102
RTVSPost2010Prop45
280
     0
102
RTVSPost2010PropOp45
 70
     1
102
RTVSPost2010Prop46
 90
       50
102
RTVSPost2010PropOp46
 70
     1
102
RTVSPost2010Prop47
 90
       50
102
RTVSPost2010PropOp47
 70
     1
102
RTVSPost2010Prop48
 90
       50
102
RTVSPost2010PropOp48
 70
     1
102
RTVSPost2010Prop49
280
     0
102
RTVSPost2010PropOp49
 70
     1
102
RTVSPost2010Prop50
 90
       50
102
RTVSPost2010PropOp50
 70
     1
102
RTVSPost2010Prop51ColorIndex
 90
      256
102
RTVSPost2010Prop51ColorRGB
 90
-16777216
102
RTVSPost2010PropOp51
 70
     0
102
RTVSPost2010Prop52
140
1.0
102
RTVSPost2010PropOp52
 70
     0
102
RTVSPost2010Prop53
 90
        2
102
RTVSPost2010PropOp53
 70
     1
102
RTVSPost2010Prop54
  1
strokes_ogs.tif
102
RTVSPost2010PropOp54
 70
     1
102
RTVSPost2010Prop55
280
     0
102
RTVSPost2010PropOp55
 70
     1
102
RTVSPost2010Prop56
140
1.0
102
RTVSPost2010PropOp56
 70
     1
102
RTVSPost2010Prop57
140
1.0
102
RTVSPost2010PropOp57
 70
     1
  0
XRECORD
  5
30E
102
{ACAD_REACTORS
330
30D
102
}
330
30D
100
AcDbXrecord
280
     1
102
RTVSPost2010Prop28
280
     0
102
RTVSPost2010PropOp28
 70
     1
102
RTVSPost2010Prop29
280
     1
102
RTVSPost2010PropOp29
 70
     1
102
RTVSPost2010Prop30
280
     1
102
RTVSPost2010PropOp30
 70
     1
102
RTVSPost2010Prop31
280
     0
102
RTVSPost2010PropOp31
 70
     1
102
RTVSPost2010Prop32
280
     0
102
RTVSPost2010PropOp32
 70
     1
102
RTVSPost2010Prop33
280
     0
102
RTVSPost2010PropOp33
 70
     1
102
RTVSPost2010Prop34
280
     0
102
RTVSPost2010PropOp34
 70
     1
102
RTVSPost2010Prop35
280
     0
102
RTVSPost2010PropOp35
 70
     1
102
RTVSPost2010Prop36
280
     0
102
RTVSPost2010PropOp36
 70
     1
102
RTVSPost2010Prop37
 90
       50
102
RTVSPost2010PropOp37
 70
     1
102
RTVSPost2010Prop38
140
0.0
102
RTVSPost2010PropOp38
 70
     1
102
RTVSPost2010Prop39
140
1.0
102
RTVSPost2010PropOp39
 70
     1
102
RTVSPost2010Prop40
 90
        0
102
RTVSPost2010PropOp40
 70
     1
102
RTVSPost2010Prop41ColorIndex
 90
       18
102
RTVSPost2010Prop41ColorRGB
 90
        0
102
RTVSPost2010PropOp41
 70
     1
102
RTVSPost2010Prop42
 90
       50
102
RTVSPost2010PropOp42
 70
     1
102
RTVSPost2010Prop43
 90
        3
102
RTVSPost2010PropOp43
 70
     1
102
RTVSPost2010Prop44ColorIndex
 90
        5
102
RTVSPost2010Prop44ColorRGB
 90
      255
102
RTVSPost2010PropOp44
 70
     1
102
RTVSPost2010Prop45
280
     0
102
RTVSPost2010PropOp45
 70
     1
102
RTVSPost2010Prop46
 90
       50
102
RTVSPost2010PropOp46
 70
     1
102
RTVSPost2010Prop47
 90
       50
102
RTVSPost2010PropOp47
 70
     1
102
RTVSPost2010Prop48
 90
       50
102
RTVSPost2010PropOp48
 70
     1
102
RTVSPost2010Prop49
280
     0
102
RTVSPost2010PropOp49
 70
     1
102
RTVSPost2010Prop50
 90
       50
102
RTVSPost2010PropOp50
 70
     1
102
RTVSPost2010Prop51ColorIndex
 90
      256
102
RTVSPost2010Prop51ColorRGB
 90
-16777216
102
RTVSPost2010PropOp51
 70
     0
102
RTVSPost2010Prop52
140
1.0
102
RTVSPost2010PropOp52
 70
     0
102
RTVSPost2010Prop53
 90
        2
102
RTVSPost2010PropOp53
 70
     1
102
RTVSPost2010Prop54
  1
strokes_ogs.tif
102
RTVSPost2010PropOp54
 70
     1
102
RTVSPost2010Prop55
280
     0
102
RTVSPost2010PropOp55
 70
     1
102
RTVSPost2010Prop56
140
1.0
102
RTVSPost2010PropOp56
 70
     1
102
RTVSPost2010Prop57
140
1.0
102
RTVSPost2010PropOp57
 70
     1
  0
XRECORD
  5
30C
102
{ACAD_REACTORS
330
30B
102
}
330
30B
100
AcDbXrecord
280
     1
102
RTVSPost2010Prop28
280
     0
102
RTVSPost2010PropOp28
 70
     1
102
RTVSPost2010Prop29
280
     1
102
RTVSPost2010PropOp29
 70
     1
102
RTVSPost2010Prop30
280
     1
102
RTVSPost2010PropOp30
 70
     1
102
RTVSPost2010Prop31
280
     0
102
RTVSPost2010PropOp31
 70
     1
102
RTVSPost2010Prop32
280
     0
102
RTVSPost2010PropOp32
 70
     1
102
RTVSPost2010Prop33
280
     0
102
RTVSPost2010PropOp33
 70
     1
102
RTVSPost2010Prop34
280
     0
102
RTVSPost2010PropOp34
 70
     1
102
RTVSPost2010Prop35
280
     0
102
RTVSPost2010PropOp35
 70
     1
102
RTVSPost2010Prop36
280
     0
102
RTVSPost2010PropOp36
 70
     1
102
RTVSPost2010Prop37
 90
       50
102
RTVSPost2010PropOp37
 70
     1
102
RTVSPost2010Prop38
140
0.0
102
RTVSPost2010PropOp38
 70
     1
102
RTVSPost2010Prop39
140
1.0
102
RTVSPost2010PropOp39
 70
     1
102
RTVSPost2010Prop40
 90
        0
102
RTVSPost2010PropOp40
 70
     1
102
RTVSPost2010Prop41ColorIndex
 90
       18
102
RTVSPost2010Prop41ColorRGB
 90
        0
102
RTVSPost2010PropOp41
 70
     1
102
RTVSPost2010Prop42
 90
       50
102
RTVSPost2010PropOp42
 70
     1
102
RTVSPost2010Prop43
 90
        3
102
RTVSPost2010PropOp43
 70
     1
102
RTVSPost2010Prop44ColorIndex
 90
        5
102
RTVSPost2010Prop44ColorRGB
 90
      255
102
RTVSPost2010PropOp44
 70
     1
102
RTVSPost2010Prop45
280
     0
102
RTVSPost2010PropOp45
 70
     1
102
RTVSPost2010Prop46
 90
       50
102
RTVSPost2010PropOp46
 70
     1
102
RTVSPost2010Prop47
 90
       50
102
RTVSPost2010PropOp47
 70
     1
102
RTVSPost2010Prop48
 90
       50
102
RTVSPost2010PropOp48
 70
     1
102
RTVSPost2010Prop49
280
     0
102
RTVSPost2010PropOp49
 70
     1
102
RTVSPost2010Prop50
 90
       50
102
RTVSPost2010PropOp50
 70
     1
102
RTVSPost2010Prop51ColorIndex
 90
      256
102
RTVSPost2010Prop51ColorRGB
 90
-16777216
102
RTVSPost2010PropOp51
 70
     0
102
RTVSPost2010Prop52
140
1.0
102
RTVSPost2010PropOp52
 70
     0
102
RTVSPost2010Prop53
 90
        2
102
RTVSPost2010PropOp53
 70
     1
102
RTVSPost2010Prop54
  1
strokes_ogs.tif
102
RTVSPost2010PropOp54
 70
     1
102
RTVSPost2010Prop55
280
     0
102
RTVSPost2010PropOp55
 70
     1
102
RTVSPost2010Prop56
140
1.0
102
RTVSPost2010PropOp56
 70
     1
102
RTVSPost2010Prop57
140
1.0
102
RTVSPost2010PropOp57
 70
     1
  0
XRECORD
  5
306
102
{ACAD_REACTORS
330
305
102
}
330
305
100
AcDbXrecord
280
     1
102
RTVSPost2010Prop28
280
     0
102
RTVSPost2010PropOp28
 70
     1
102
RTVSPost2010Prop29
280
     1
102
RTVSPost2010PropOp29
 70
     1
102
RTVSPost2010Prop30
280
     1
102
RTVSPost2010PropOp30
 70
     1
102
RTVSPost2010Prop31
280
     0
102
RTVSPost2010PropOp31
 70
     1
102
RTVSPost2010Prop32
280
     0
102
RTVSPost2010PropOp32
 70
     1
102
RTVSPost2010Prop33
280
     0
102
RTVSPost2010PropOp33
 70
     1
102
RTVSPost2010Prop34
280
     0
102
RTVSPost2010PropOp34
 70
     1
102
RTVSPost2010Prop35
280
     0
102
RTVSPost2010PropOp35
 70
     1
102
RTVSPost2010Prop36
280
     0
102
RTVSPost2010PropOp36
 70
     1
102
RTVSPost2010Prop37
 90
       50
102
RTVSPost2010PropOp37
 70
     1
102
RTVSPost2010Prop38
140
0.0
102
RTVSPost2010PropOp38
 70
     1
102
RTVSPost2010Prop39
140
1.0
102
RTVSPost2010PropOp39
 70
     1
102
RTVSPost2010Prop40
 90
        0
102
RTVSPost2010PropOp40
 70
     1
102
RTVSPost2010Prop41ColorIndex
 90
       18
102
RTVSPost2010Prop41ColorRGB
 90
        0
102
RTVSPost2010PropOp41
 70
     1
102
RTVSPost2010Prop42
 90
       50
102
RTVSPost2010PropOp42
 70
     1
102
RTVSPost2010Prop43
 90
        3
102
RTVSPost2010PropOp43
 70
     1
102
RTVSPost2010Prop44ColorIndex
 90
        5
102
RTVSPost2010Prop44ColorRGB
 90
      255
102
RTVSPost2010PropOp44
 70
     1
102
RTVSPost2010Prop45
280
     0
102
RTVSPost2010PropOp45
 70
     1
102
RTVSPost2010Prop46
 90
       50
102
RTVSPost2010PropOp46
 70
     1
102
RTVSPost2010Prop47
 90
       50
102
RTVSPost2010PropOp47
 70
     1
102
RTVSPost2010Prop48
 90
       50
102
RTVSPost2010PropOp48
 70
     1
102
RTVSPost2010Prop49
280
     0
102
RTVSPost2010PropOp49
 70
     1
102
RTVSPost2010Prop50
 90
       50
102
RTVSPost2010PropOp50
 70
     1
102
RTVSPost2010Prop51ColorIndex
 90
      256
102
RTVSPost2010Prop51ColorRGB
 90
-16777216
102
RTVSPost2010PropOp51
 70
     0
102
RTVSPost2010Prop52
140
1.0
102
RTVSPost2010PropOp52
 70
     0
102
RTVSPost2010Prop53
 90
        2
102
RTVSPost2010PropOp53
 70
     1
102
RTVSPost2010Prop54
  1
strokes_ogs.tif
102
RTVSPost2010PropOp54
 70
     1
102
RTVSPost2010Prop55
280
     0
102
RTVSPost2010PropOp55
 70
     1
102
RTVSPost2010Prop56
140
1.0
102
RTVSPost2010PropOp56
 70
     1
102
RTVSPost2010Prop57
140
1.0
102
RTVSPost2010PropOp57
 70
     1
  0
XRECORD
  5
308
102
{ACAD_REACTORS
330
307
102
}
330
307
100
AcDbXrecord
280
     1
102
RTVSPost2010Prop28
280
     0
102
RTVSPost2010PropOp28
 70
     1
102
RTVSPost2010Prop29
280
     1
102
RTVSPost2010PropOp29
 70
     1
102
RTVSPost2010Prop30
280
     1
102
RTVSPost2010PropOp30
 70
     1
102
RTVSPost2010Prop31
280
     0
102
RTVSPost2010PropOp31
 70
     1
102
RTVSPost2010Prop32
280
     0
102
RTVSPost2010PropOp32
 70
     1
102
RTVSPost2010Prop33
280
     0
102
RTVSPost2010PropOp33
 70
     1
102
RTVSPost2010Prop34
280
     0
102
RTVSPost2010PropOp34
 70
     1
102
RTVSPost2010Prop35
280
     0
102
RTVSPost2010PropOp35
 70
     1
102
RTVSPost2010Prop36
280
     0
102
RTVSPost2010PropOp36
 70
     1
102
RTVSPost2010Prop37
 90
       50
102
RTVSPost2010PropOp37
 70
     1
102
RTVSPost2010Prop38
140
0.0
102
RTVSPost2010PropOp38
 70
     1
102
RTVSPost2010Prop39
140
1.0
102
RTVSPost2010PropOp39
 70
     1
102
RTVSPost2010Prop40
 90
        0
102
RTVSPost2010PropOp40
 70
     1
102
RTVSPost2010Prop41ColorIndex
 90
       18
102
RTVSPost2010Prop41ColorRGB
 90
        0
102
RTVSPost2010PropOp41
 70
     1
102
RTVSPost2010Prop42
 90
       50
102
RTVSPost2010PropOp42
 70
     1
102
RTVSPost2010Prop43
 90
        3
102
RTVSPost2010PropOp43
 70
     1
102
RTVSPost2010Prop44ColorIndex
 90
        5
102
RTVSPost2010Prop44ColorRGB
 90
      255
102
RTVSPost2010PropOp44
 70
     1
102
RTVSPost2010Prop45
280
     0
102
RTVSPost2010PropOp45
 70
     1
102
RTVSPost2010Prop46
 90
       50
102
RTVSPost2010PropOp46
 70
     1
102
RTVSPost2010Prop47
 90
       50
102
RTVSPost2010PropOp47
 70
     1
102
RTVSPost2010Prop48
 90
       50
102
RTVSPost2010PropOp48
 70
     1
102
RTVSPost2010Prop49
280
     0
102
RTVSPost2010PropOp49
 70
     1
102
RTVSPost2010Prop50
 90
       50
102
RTVSPost2010PropOp50
 70
     1
102
RTVSPost2010Prop51ColorIndex
 90
      256
102
RTVSPost2010Prop51ColorRGB
 90
-16777216
102
RTVSPost2010PropOp51
 70
     0
102
RTVSPost2010Prop52
140
1.0
102
RTVSPost2010PropOp52
 70
     0
102
RTVSPost2010Prop53
 90
        2
102
RTVSPost2010PropOp53
 70
     1
102
RTVSPost2010Prop54
  1
strokes_ogs.tif
102
RTVSPost2010PropOp54
 70
     1
102
RTVSPost2010Prop55
280
     0
102
RTVSPost2010PropOp55
 70
     1
102
RTVSPost2010Prop56
140
1.0
102
RTVSPost2010PropOp56
 70
     1
102
RTVSPost2010Prop57
140
1.0
102
RTVSPost2010PropOp57
 70
     1
  0
XRECORD
  5
2F8
102
{ACAD_REACTORS
330
2F7
102
}
330
2F7
100
AcDbXrecord
280
     1
102
RTVSPost2010Prop28
280
     0
102
RTVSPost2010PropOp28
 70
     1
102
RTVSPost2010Prop29
280
     1
102
RTVSPost2010PropOp29
 70
     1
102
RTVSPost2010Prop30
280
     1
102
RTVSPost2010PropOp30
 70
     1
102
RTVSPost2010Prop31
280
     0
102
RTVSPost2010PropOp31
 70
     1
102
RTVSPost2010Prop32
280
     0
102
RTVSPost2010PropOp32
 70
     1
102
RTVSPost2010Prop33
280
     0
102
RTVSPost2010PropOp33
 70
     1
102
RTVSPost2010Prop34
280
     0
102
RTVSPost2010PropOp34
 70
     1
102
RTVSPost2010Prop35
280
     0
102
RTVSPost2010PropOp35
 70
     1
102
RTVSPost2010Prop36
280
     0
102
RTVSPost2010PropOp36
 70
     1
102
RTVSPost2010Prop37
 90
       50
102
RTVSPost2010PropOp37
 70
     1
102
RTVSPost2010Prop38
140
0.0
102
RTVSPost2010PropOp38
 70
     1
102
RTVSPost2010Prop39
140
1.0
102
RTVSPost2010PropOp39
 70
     1
102
RTVSPost2010Prop40
 90
        0
102
RTVSPost2010PropOp40
 70
     1
102
RTVSPost2010Prop41ColorIndex
 90
       18
102
RTVSPost2010Prop41ColorRGB
 90
        0
102
RTVSPost2010PropOp41
 70
     1
102
RTVSPost2010Prop42
 90
       50
102
RTVSPost2010PropOp42
 70
     1
102
RTVSPost2010Prop43
 90
        3
102
RTVSPost2010PropOp43
 70
     1
102
RTVSPost2010Prop44ColorIndex
 90
        5
102
RTVSPost2010Prop44ColorRGB
 90
      255
102
RTVSPost2010PropOp44
 70
     1
102
RTVSPost2010Prop45
280
     0
102
RTVSPost2010PropOp45
 70
     1
102
RTVSPost2010Prop46
 90
       50
102
RTVSPost2010PropOp46
 70
     1
102
RTVSPost2010Prop47
 90
       50
102
RTVSPost2010PropOp47
 70
     1
102
RTVSPost2010Prop48
 90
       50
102
RTVSPost2010PropOp48
 70
     1
102
RTVSPost2010Prop49
280
     0
102
RTVSPost2010PropOp49
 70
     1
102
RTVSPost2010Prop50
 90
       50
102
RTVSPost2010PropOp50
 70
     1
102
RTVSPost2010Prop51ColorIndex
 90
      256
102
RTVSPost2010Prop51ColorRGB
 90
-16777216
102
RTVSPost2010PropOp51
 70
     0
102
RTVSPost2010Prop52
140
1.0
102
RTVSPost2010PropOp52
 70
     0
102
RTVSPost2010Prop53
 90
        2
102
RTVSPost2010PropOp53
 70
     1
102
RTVSPost2010Prop54
  1
strokes_ogs.tif
102
RTVSPost2010PropOp54
 70
     1
102
RTVSPost2010Prop55
280
     0
102
RTVSPost2010PropOp55
 70
     1
102
RTVSPost2010Prop56
140
1.0
102
RTVSPost2010PropOp56
 70
     1
102
RTVSPost2010Prop57
140
1.0
102
RTVSPost2010PropOp57
 70
     1
  0
XRECORD
  5
2EA
102
{ACAD_REACTORS
330
2E9
102
}
330
2E9
100
AcDbXrecord
280
     1
102
RTVSPost2010Prop28
280
     0
102
RTVSPost2010PropOp28
 70
     1
102
RTVSPost2010Prop29
280
     1
102
RTVSPost2010PropOp29
 70
     1
102
RTVSPost2010Prop30
280
     1
102
RTVSPost2010PropOp30
 70
     1
102
RTVSPost2010Prop31
280
     0
102
RTVSPost2010PropOp31
 70
     1
102
RTVSPost2010Prop32
280
     0
102
RTVSPost2010PropOp32
 70
     1
102
RTVSPost2010Prop33
280
     0
102
RTVSPost2010PropOp33
 70
     1
102
RTVSPost2010Prop34
280
     0
102
RTVSPost2010PropOp34
 70
     1
102
RTVSPost2010Prop35
280
     0
102
RTVSPost2010PropOp35
 70
     1
102
RTVSPost2010Prop36
280
     0
102
RTVSPost2010PropOp36
 70
     1
102
RTVSPost2010Prop37
 90
       50
102
RTVSPost2010PropOp37
 70
     1
102
RTVSPost2010Prop38
140
0.0
102
RTVSPost2010PropOp38
 70
     1
102
RTVSPost2010Prop39
140
1.0
102
RTVSPost2010PropOp39
 70
     1
102
RTVSPost2010Prop40
 90
        0
102
RTVSPost2010PropOp40
 70
     1
102
RTVSPost2010Prop41ColorIndex
 90
       18
102
RTVSPost2010Prop41ColorRGB
 90
        0
102
RTVSPost2010PropOp41
 70
     1
102
RTVSPost2010Prop42
 90
       50
102
RTVSPost2010PropOp42
 70
     1
102
RTVSPost2010Prop43
 90
        3
102
RTVSPost2010PropOp43
 70
     1
102
RTVSPost2010Prop44ColorIndex
 90
        5
102
RTVSPost2010Prop44ColorRGB
 90
      255
102
RTVSPost2010PropOp44
 70
     1
102
RTVSPost2010Prop45
280
     0
102
RTVSPost2010PropOp45
 70
     1
102
RTVSPost2010Prop46
 90
       50
102
RTVSPost2010PropOp46
 70
     1
102
RTVSPost2010Prop47
 90
       50
102
RTVSPost2010PropOp47
 70
     1
102
RTVSPost2010Prop48
 90
       50
102
RTVSPost2010PropOp48
 70
     1
102
RTVSPost2010Prop49
280
     0
102
RTVSPost2010PropOp49
 70
     1
102
RTVSPost2010Prop50
 90
       50
102
RTVSPost2010PropOp50
 70
     1
102
RTVSPost2010Prop51ColorIndex
 90
      256
102
RTVSPost2010Prop51ColorRGB
 90
-16777216
102
RTVSPost2010PropOp51
 70
     0
102
RTVSPost2010Prop52
140
1.0
102
RTVSPost2010PropOp52
 70
     0
102
RTVSPost2010Prop53
 90
        2
102
RTVSPost2010PropOp53
 70
     1
102
RTVSPost2010Prop54
  1
strokes_ogs.tif
102
RTVSPost2010PropOp54
 70
     1
102
RTVSPost2010Prop55
280
     0
102
RTVSPost2010PropOp55
 70
     1
102
RTVSPost2010Prop56
140
1.0
102
RTVSPost2010PropOp56
 70
     1
102
RTVSPost2010Prop57
140
1.0
102
RTVSPost2010PropOp57
 70
     1
  0
XRECORD
  5
30A
102
{ACAD_REACTORS
330
309
102
}
330
309
100
AcDbXrecord
280
     1
102
RTVSPost2010Prop28
280
     0
102
RTVSPost2010PropOp28
 70
     1
102
RTVSPost2010Prop29
280
     1
102
RTVSPost2010PropOp29
 70
     1
102
RTVSPost2010Prop30
280
     1
102
RTVSPost2010PropOp30
 70
     1
102
RTVSPost2010Prop31
280
     0
102
RTVSPost2010PropOp31
 70
     1
102
RTVSPost2010Prop32
280
     0
102
RTVSPost2010PropOp32
 70
     1
102
RTVSPost2010Prop33
280
     0
102
RTVSPost2010PropOp33
 70
     1
102
RTVSPost2010Prop34
280
     0
102
RTVSPost2010PropOp34
 70
     1
102
RTVSPost2010Prop35
280
     0
102
RTVSPost2010PropOp35
 70
     1
102
RTVSPost2010Prop36
280
     0
102
RTVSPost2010PropOp36
 70
     1
102
RTVSPost2010Prop37
 90
       50
102
RTVSPost2010PropOp37
 70
     1
102
RTVSPost2010Prop38
140
0.0
102
RTVSPost2010PropOp38
 70
     1
102
RTVSPost2010Prop39
140
1.0
102
RTVSPost2010PropOp39
 70
     1
102
RTVSPost2010Prop40
 90
        0
102
RTVSPost2010PropOp40
 70
     1
102
RTVSPost2010Prop41ColorIndex
 90
       18
102
RTVSPost2010Prop41ColorRGB
 90
        0
102
RTVSPost2010PropOp41
 70
     1
102
RTVSPost2010Prop42
 90
       50
102
RTVSPost2010PropOp42
 70
     1
102
RTVSPost2010Prop43
 90
        3
102
RTVSPost2010PropOp43
 70
     1
102
RTVSPost2010Prop44ColorIndex
 90
        5
102
RTVSPost2010Prop44ColorRGB
 90
      255
102
RTVSPost2010PropOp44
 70
     1
102
RTVSPost2010Prop45
280
     0
102
RTVSPost2010PropOp45
 70
     1
102
RTVSPost2010Prop46
 90
       50
102
RTVSPost2010PropOp46
 70
     1
102
RTVSPost2010Prop47
 90
       50
102
RTVSPost2010PropOp47
 70
     1
102
RTVSPost2010Prop48
 90
       50
102
RTVSPost2010PropOp48
 70
     1
102
RTVSPost2010Prop49
280
     0
102
RTVSPost2010PropOp49
 70
     1
102
RTVSPost2010Prop50
 90
       50
102
RTVSPost2010PropOp50
 70
     1
102
RTVSPost2010Prop51ColorIndex
 90
      256
102
RTVSPost2010Prop51ColorRGB
 90
-16777216
102
RTVSPost2010PropOp51
 70
     0
102
RTVSPost2010Prop52
140
1.0
102
RTVSPost2010PropOp52
 70
     0
102
RTVSPost2010Prop53
 90
        2
102
RTVSPost2010PropOp53
 70
     1
102
RTVSPost2010Prop54
  1
strokes_ogs.tif
102
RTVSPost2010PropOp54
 70
     1
102
RTVSPost2010Prop55
280
     0
102
RTVSPost2010PropOp55
 70
     1
102
RTVSPost2010Prop56
140
1.0
102
RTVSPost2010PropOp56
 70
     1
102
RTVSPost2010Prop57
140
1.0
102
RTVSPost2010PropOp57
 70
     1
  0
ENDSEC
  0
EOF
