  0
SECTION
  2
HEADER
  9
$ACADVER
  1
AC1024
  9
$ACADMAINTVER
 70
     6
  9
$DWGCODEPAGE
  3
ANSI_932
  9
$INSBASE
 10
0.0
 20
0.0
 30
0.0
  9
$EXTMIN
 10
-21000.0
 20
-14850.0
 30
0.0
  9
$EXTMAX
 10
21000.0
 20
14850.0
 30
0.0
  9
$LIMMIN
 10
-21000.0
 20
-14850.0
  9
$LIMMAX
 10
21000.0
 20
14850.0
  9
$ORTHOMODE
 70
     0
  9
$REGENMODE
 70
     1
  9
$FILLMODE
 70
     1
  9
$QTEXTMODE
 70
     0
  9
$MIRRTEXT
 70
     1
  9
$LTSCALE
 40
100.0
  9
$ATTMODE
 70
     1
  9
$TEXTSIZE
 40
2.5
  9
$TRACEWID
 40
1.0
  9
$TEXTSTYLE
  7
Standard
  9
$CLAYER
  8
0
  9
$CELTYPE
  6
ByLayer
  9
$CECOLOR
 62
   256
  9
$CELTSCALE
 40
1.0
  9
$DISPSILH
 70
     0
  9
$DIMSCALE
 40
1.0
  9
$DIMASZ
 40
2.5
  9
$DIMEXO
 40
0.625
  9
$DIMDLI
 40
3.75
  9
$DIMRND
 40
0.0
  9
$DIMDLE
 40
0.0
  9
$DIMEXE
 40
1.25
  9
$DIMTP
 40
0.0
  9
$DIMTM
 40
0.0
  9
$DIMTXT
 40
2.5
  9
$DIMCEN
 40
2.5
  9
$DIMTSZ
 40
0.0
  9
$DIMTOL
 70
     0
  9
$DIMLIM
 70
     0
  9
$DIMTIH
 70
     0
  9
$DIMTOH
 70
     0
  9
$DIMSE1
 70
     0
  9
$DIMSE2
 70
     0
  9
$DIMTAD
 70
     1
  9
$DIMZIN
 70
     8
  9
$DIMBLK
  1

  9
$DIMASO
 70
     1
  9
$DIMSHO
 70
     1
  9
$DIMPOST
  1

  9
$DIMAPOST
  1

  9
$DIMALT
 70
     0
  9
$DIMALTD
 70
     3
  9
$DIMALTF
 40
0.03937007874016
  9
$DIMLFAC
 40
1.0
  9
$DIMTOFL
 70
     1
  9
$DIMTVP
 40
0.0
  9
$DIMTIX
 70
     0
  9
$DIMSOXD
 70
     0
  9
$DIMSAH
 70
     0
  9
$DIMBLK1
  1

  9
$DIMBLK2
  1

  9
$DIMSTYLE
  2
ISO-25
  9
$DIMCLRD
 70
     0
  9
$DIMCLRE
 70
     0
  9
$DIMCLRT
 70
     0
  9
$DIMTFAC
 40
1.0
  9
$DIMGAP
 40
0.625
  9
$DIMJUST
 70
     0
  9
$DIMSD1
 70
     0
  9
$DIMSD2
 70
     0
  9
$DIMTOLJ
 70
     0
  9
$DIMTZIN
 70
     8
  9
$DIMALTZ
 70
     0
  9
$DIMALTTZ
 70
     0
  9
$DIMUPT
 70
     0
  9
$DIMDEC
 70
     2
  9
$DIMTDEC
 70
     2
  9
$DIMALTU
 70
     2
  9
$DIMALTTD
 70
     3
  9
$DIMTXSTY
  7
Standard
  9
$DIMAUNIT
 70
     0
  9
$DIMADEC
 70
     0
  9
$DIMALTRND
 40
0.0
  9
$DIMAZIN
 70
     0
  9
$DIMDSEP
 70
    44
  9
$DIMATFIT
 70
     3
  9
$DIMFRAC
 70
     0
  9
$DIMLDRBLK
  1

  9
$DIMLUNIT
 70
     2
  9
$DIMLWD
 70
    -2
  9
$DIMLWE
 70
    -2
  9
$DIMTMOVE
 70
     0
  9
$DIMFXL
 40
1.0
  9
$DIMFXLON
 70
     0
  9
$DIMJOGANG
 40
0.7853981633974483
  9
$DIMTFILL
 70
     0
  9
$DIMTFILLCLR
 70
     0
  9
$DIMARCSYM
 70
     0
  9
$DIMLTYPE
  6

  9
$DIMLTEX1
  6

  9
$DIMLTEX2
  6

  9
$DIMTXTDIRECTION
 70
     0
  9
$LUNITS
 70
     2
  9
$LUPREC
 70
     4
  9
$SKETCHINC
 40
1.0
  9
$FILLETRAD
 40
10.0
  9
$AUNITS
 70
     0
  9
$AUPREC
 70
     0
  9
$MENU
  1
.
  9
$ELEVATION
 40
0.0
  9
$PELEVATION
 40
0.0
  9
$THICKNESS
 40
0.0
  9
$LIMCHECK
 70
     0
  9
$CHAMFERA
 40
0.0
  9
$CHAMFERB
 40
0.0
  9
$CHAMFERC
 40
0.0
  9
$CHAMFERD
 40
0.0
  9
$SKPOLY
 70
     0
  9
$TDCREATE
 40
2458155.655971007
  9
$TDUCREATE
 40
2458155.280971007
  9
$TDUPDATE
 40
2458155.655971181
  9
$TDUUPDATE
 40
2458155.280971181
  9
$TDINDWG
 40
0.0000000116
  9
$TDUSRTIMER
 40
0.0000000116
  9
$USRTIMER
 70
     1
  9
$ANGBASE
 50
0.0
  9
$ANGDIR
 70
     0
  9
$PDMODE
 70
     0
  9
$PDSIZE
 40
0.0
  9
$PLINEWID
 40
0.0
  9
$SPLFRAME
 70
     0
  9
$SPLINETYPE
 70
     6
  9
$SPLINESEGS
 70
     8
  9
$HANDSEED
  5
4C8
  9
$SURFTAB1
 70
     6
  9
$SURFTAB2
 70
     6
  9
$SURFTYPE
 70
     6
  9
$SURFU
 70
     6
  9
$SURFV
 70
     6
  9
$UCSBASE
  2

  9
$UCSNAME
  2

  9
$UCSORG
 10
0.0
 20
0.0
 30
0.0
  9
$UCSXDIR
 10
1.0
 20
0.0
 30
0.0
  9
$UCSYDIR
 10
0.0
 20
1.0
 30
0.0
  9
$UCSORTHOREF
  2

  9
$UCSORTHOVIEW
 70
     0
  9
$UCSORGTOP
 10
0.0
 20
0.0
 30
0.0
  9
$UCSORGBOTTOM
 10
0.0
 20
0.0
 30
0.0
  9
$UCSORGLEFT
 10
0.0
 20
0.0
 30
0.0
  9
$UCSORGRIGHT
 10
0.0
 20
0.0
 30
0.0
  9
$UCSORGFRONT
 10
0.0
 20
0.0
 30
0.0
  9
$UCSORGBACK
 10
0.0
 20
0.0
 30
0.0
  9
$PUCSBASE
  2

  9
$PUCSNAME
  2

  9
$PUCSORG
 10
0.0
 20
0.0
 30
0.0
  9
$PUCSXDIR
 10
1.0
 20
0.0
 30
0.0
  9
$PUCSYDIR
 10
0.0
 20
1.0
 30
0.0
  9
$PUCSORTHOREF
  2

  9
$PUCSORTHOVIEW
 70
     0
  9
$PUCSORGTOP
 10
0.0
 20
0.0
 30
0.0
  9
$PUCSORGBOTTOM
 10
0.0
 20
0.0
 30
0.0
  9
$PUCSORGLEFT
 10
0.0
 20
0.0
 30
0.0
  9
$PUCSORGRIGHT
 10
0.0
 20
0.0
 30
0.0
  9
$PUCSORGFRONT
 10
0.0
 20
0.0
 30
0.0
  9
$PUCSORGBACK
 10
0.0
 20
0.0
 30
0.0
  9
$USERI1
 70
     0
  9
$USERI2
 70
     0
  9
$USERI3
 70
     0
  9
$USERI4
 70
     0
  9
$USERI5
 70
     0
  9
$USERR1
 40
0.0
  9
$USERR2
 40
0.0
  9
$USERR3
 40
0.0
  9
$USERR4
 40
0.0
  9
$USERR5
 40
0.0
  9
$WORLDVIEW
 70
     1
  9
$SHADEDGE
 70
     3
  9
$SHADEDIF
 70
    70
  9
$TILEMODE
 70
     1
  9
$MAXACTVP
 70
    64
  9
$PINSBASE
 10
0.0
 20
0.0
 30
0.0
  9
$PLIMCHECK
 70
     0
  9
$PEXTMIN
 10
1.000000000000000E+20
 20
1.000000000000000E+20
 30
1.000000000000000E+20
  9
$PEXTMAX
 10
-1.000000000000000E+20
 20
-1.000000000000000E+20
 30
-1.000000000000000E+20
  9
$PLIMMIN
 10
0.0
 20
0.0
  9
$PLIMMAX
 10
420.0
 20
297.0
  9
$UNITMODE
 70
     0
  9
$VISRETAIN
 70
     1
  9
$PLINEGEN
 70
     0
  9
$PSLTSCALE
 70
     1
  9
$TREEDEPTH
 70
  3020
  9
$CMLSTYLE
  2
Standard
  9
$CMLJUST
 70
     0
  9
$CMLSCALE
 40
20.0
  9
$PROXYGRAPHICS
 70
     1
  9
$MEASUREMENT
 70
     1
  9
$CELWEIGHT
370
    -1
  9
$ENDCAPS
280
     0
  9
$JOINSTYLE
280
     0
  9
$LWDISPLAY
290
     0
  9
$INSUNITS
 70
     4
  9
$HYPERLINKBASE
  1

  9
$STYLESHEET
  1

  9
$XEDIT
290
     1
  9
$CEPSNTYPE
380
     0
  9
$PSTYLEMODE
290
     1
  9
$FINGERPRINTGUID
  2
{D6A40AA8-5135-49D1-93C5-B74A7B45D87D}
  9
$VERSIONGUID
  2
{FAEB1C32-E019-11D5-929B-00C0DF256EC4}
  9
$EXTNAMES
290
     1
  9
$PSVPSCALE
 40
0.0
  9
$OLESTARTUP
290
     0
  9
$SORTENTS
280
   127
  9
$INDEXCTL
280
     0
  9
$HIDETEXT
280
     1
  9
$XCLIPFRAME
280
     2
  9
$HALOGAP
280
     0
  9
$OBSCOLOR
 70
   257
  9
$OBSLTYPE
280
     0
  9
$INTERSECTIONDISPLAY
280
     0
  9
$INTERSECTIONCOLOR
 70
   257
  9
$DIMASSOC
280
     2
  9
$PROJECTNAME
  1

  9
$CAMERADISPLAY
290
     0
  9
$LENSLENGTH
 40
50.0
  9
$CAMERAHEIGHT
 40
0.0
  9
$STEPSPERSEC
 40
2.0
  9
$STEPSIZE
 40
6.0
  9
$3DDWFPREC
 40
2.0
  9
$PSOLWIDTH
 40
5.0
  9
$PSOLHEIGHT
 40
80.0
  9
$LOFTANG1
 40
1.570796326794897
  9
$LOFTANG2
 40
1.570796326794897
  9
$LOFTMAG1
 40
0.0
  9
$LOFTMAG2
 40
0.0
  9
$LOFTPARAM
 70
     7
  9
$LOFTNORMALS
280
     1
  9
$LATITUDE
 40
37.795
  9
$LONGITUDE
 40
-122.394
  9
$NORTHDIRECTION
 40
0.0
  9
$TIMEZONE
 70
 -8000
  9
$LIGHTGLYPHDISPLAY
280
     1
  9
$TILEMODELIGHTSYNCH
280
     1
  9
$CMATERIAL
347
44
  9
$SOLIDHIST
280
     0
  9
$SHOWHIST
280
     1
  9
$DWFFRAME
280
     2
  9
$DGNFRAME
280
     2
  9
$REALWORLDSCALE
290
     1
  9
$INTERFERECOLOR
 62
   256
  9
$CSHADOW
280
     0
  9
$SHADOWPLANELOCATION
 40
0.0
  0
ENDSEC
  0
SECTION
  2
CLASSES
  0
CLASS
  1
ACDBDICTIONARYWDFLT
  2
AcDbDictionaryWithDefault
  3
ObjectDBX Classes
 90
        0
 91
        4
280
     0
281
     0
  0
CLASS
  1
VISUALSTYLE
  2
AcDbVisualStyle
  3
ObjectDBX Classes
 90
     4095
 91
        4
280
     0
281
     0
  0
CLASS
  1
MATERIAL
  2
AcDbMaterial
  3
ObjectDBX Classes
 90
     1153
 91
        4
280
     0
281
     0
  0
CLASS
  1
SCALE
  2
AcDbScale
  3
ObjectDBX Classes
 90
     1153
 91
        4
280
     0
281
     0
  0
CLASS
  1
TABLESTYLE
  2
AcDbTableStyle
  3
ObjectDBX Classes
 90
     4095
 91
        4
280
     0
281
     0
  0
CLASS
  1
MLEADERSTYLE
  2
AcDbMLeaderStyle
  3
ACDB_MLEADERSTYLE_CLASS
 90
     4095
 91
        4
280
     0
281
     0
  0
CLASS
  1
SUN
  2
AcDbSun
  3
SCENEOE
 90
     1153
 91
        4
280
     0
281
     0
  0
CLASS
  1
DICTIONARYVAR
  2
AcDbDictionaryVar
  3
ObjectDBX Classes
 90
        0
 91
        4
280
     0
281
     0
  0
CLASS
  1
CELLSTYLEMAP
  2
AcDbCellStyleMap
  3
ObjectDBX Classes
 90
     1152
 91
        4
280
     0
281
     0
  0
ENDSEC
  0
SECTION
  2
TABLES
  0
TABLE
  2
VPORT
  5
8
330
0
100
AcDbSymbolTable
 70
     1
  0
VPORT
  5
29
330
8
100
AcDbSymbolTableRecord
100
AcDbViewportTableRecord
  2
*Active
 70
     0
 10
0.0
 20
0.0
 11
1.0
 21
1.0
 12
0.0
 22
0.0
 13
0.0
 23
0.0
 14
10.0
 24
10.0
 15
10.0
 25
10.0
 16
0.0
 26
0.0
 36
1.0
 17
0.0
 27
0.0
 37
0.0
 40
32670.0
 41
1.414141414141414
 42
50.0
 43
0.0
 44
0.0
 50
0.0
 51
0.0
 71
     0
 72
 10000
 73
     1
 74
     3
 75
     0
 76
     0
 77
     0
 78
     0
281
     0
 65
     1
110
0.0
120
0.0
130
0.0
111
1.0
121
0.0
131
0.0
112
0.0
122
1.0
132
0.0
 79
     0
146
0.0
348
2F
 60
     3
 61
     5
292
     1
282
     1
141
0.0
142
0.0
 63
   250
361
6D
  0
ENDTAB
  0
TABLE
  2
LTYPE
  5
5
330
0
100
AcDbSymbolTable
 70
     4
  0
LTYPE
  5
14
330
5
100
AcDbSymbolTableRecord
100
AcDbLinetypeTableRecord
  2
ByBlock
 70
     0
  3

 72
    65
 73
     0
 40
0.0
  0
LTYPE
  5
15
330
5
100
AcDbSymbolTableRecord
100
AcDbLinetypeTableRecord
  2
ByLayer
 70
     0
  3

 72
    65
 73
     0
 40
0.0
  0
LTYPE
  5
16
330
5
100
AcDbSymbolTableRecord
100
AcDbLinetypeTableRecord
  2
Continuous
 70
     0
  3
Solid line
 72
    65
 73
     0
 40
0.0
  0
LTYPE
  5
6F
330
5
100
AcDbSymbolTableRecord
100
AcDbLinetypeTableRecord
  2
JWW_HOJO
 70
     0
  3
  -   -   -   -   -   -   -   - 
 72
    65
 73
     2
 40
1.693333333333333
 49
-1.27
 74
     0
 49
0.4233333333333333
 74
     0
  0
LTYPE
  5
70
330
5
100
AcDbSymbolTableRecord
100
AcDbLinetypeTableRecord
  2
JWW_CENTER1
 70
     0
  3
-----  --  ----------  --  -----
 72
    65
 73
     4
 40
6.773333333333333
 49
4.233333333333333
 74
     0
 49
-0.8466666666666667
 74
     0
 49
0.8466666666666667
 74
     0
 49
-0.8466666666666667
 74
     0
  0
LTYPE
  5
71
330
5
100
AcDbSymbolTableRecord
100
AcDbLinetypeTableRecord
  2
JWW_DASHED1
 70
     0
  3
-  --  --  --  --  --  --  --  -
 72
    65
 73
     2
 40
0.3386666666666667
 49
0.1693333333333333
 74
     0
 49
-0.1693333333333333
 74
     0
  0
ENDTAB
  0
TABLE
  2
LAYER
  5
2
330
0
100
AcDbSymbolTable
 70
    13
  0
LAYER
  5
10
330
2
100
AcDbSymbolTableRecord
100
AcDbLayerTableRecord
  2
0
 70
     0
 62
     7
  6
Continuous
370
    -3
390
F
347
46
  0
LAYER
  5
72
330
2
100
AcDbSymbolTableRecord
100
AcDbLayerTableRecord
  2
0-A_文字
 70
     0
 62
     7
  6
Continuous
370
    -3
390
F
347
46
  0
LAYER
  5
73
330
2
100
AcDbSymbolTableRecord
100
AcDbLayerTableRecord
  2
F-0_補助線
 70
     0
 62
     7
  6
Continuous
370
    -3
390
F
347
46
  0
LAYER
  5
74
330
2
100
AcDbSymbolTableRecord
100
AcDbLayerTableRecord
  2
枠
 70
     0
 62
     7
  6
Continuous
370
    -3
390
F
347
46
  0
LAYER
  5
75
330
2
100
AcDbSymbolTableRecord
100
AcDbLayerTableRecord
  2
F-A_文字
 70
     0
 62
     7
  6
Continuous
370
    -3
390
F
347
46
  0
LAYER
  5
76
330
2
100
AcDbSymbolTableRecord
100
AcDbLayerTableRecord
  2
0-B_寸法
 70
     0
 62
     7
  6
Continuous
370
    -3
390
F
347
46
  0
LAYER
  5
77
330
2
100
AcDbSymbolTableRecord
100
AcDbLayerTableRecord
  2
可動棚
 70
     0
 62
     7
  6
Continuous
370
    -3
390
F
347
46
  0
LAYER
  5
78
330
2
100
AcDbSymbolTableRecord
100
AcDbLayerTableRecord
  2
0-2
 70
     0
 62
     7
  6
Continuous
370
    -3
390
F
347
46
  0
LAYER
  5
79
330
2
100
AcDbSymbolTableRecord
100
AcDbLayerTableRecord
  2
0-0_補助線
 70
     0
 62
     7
  6
Continuous
370
    -3
390
F
347
46
  0
LAYER
  5
7A
330
2
100
AcDbSymbolTableRecord
100
AcDbLayerTableRecord
  2
固定棚
 70
     0
 62
     7
  6
Continuous
370
    -3
390
F
347
46
  0
LAYER
  5
7B
330
2
100
AcDbSymbolTableRecord
100
AcDbLayerTableRecord
  2
桟木・巾木
 70
     0
 62
     7
  6
Continuous
370
    -3
390
F
347
46
  0
LAYER
  5
7C
330
2
100
AcDbSymbolTableRecord
100
AcDbLayerTableRecord
  2
ハッチ
 70
     0
 62
     7
  6
Continuous
370
    -3
390
F
347
46
  0
LAYER
  5
7D
330
2
100
AcDbSymbolTableRecord
100
AcDbLayerTableRecord
  2
パイプハンガー
 70
     0
 62
     7
  6
Continuous
370
    -3
390
F
347
46
  0
ENDTAB
  0
TABLE
  2
STYLE
  5
3
330
0
100
AcDbSymbolTable
 70
     2
  0
STYLE
  5
11
330
3
100
AcDbSymbolTableRecord
100
AcDbTextStyleTableRecord
  2
Standard
 70
     0
 40
0.0
 41
1.0
 50
0.0
 71
     0
 42
2.5
  3
txt
  4

  0
STYLE
  5
6E
330
3
100
AcDbSymbolTableRecord
100
AcDbTextStyleTableRecord
  2
ＭＳ ゴシック
 70
     0
 40
1.0
 41
1.0
 50
0.0
 71
     0
 42
2.5
  3

  4

1001
ACAD
1000
MS Gothic
1071
    32817
  0
ENDTAB
  0
TABLE
  2
VIEW
  5
6
330
0
100
AcDbSymbolTable
 70
     0
  0
ENDTAB
  0
TABLE
  2
UCS
  5
7
330
0
100
AcDbSymbolTable
 70
     0
  0
ENDTAB
  0
TABLE
  2
APPID
  5
9
330
0
100
AcDbSymbolTable
 70
     1
  0
APPID
  5
12
330
9
100
AcDbSymbolTableRecord
100
AcDbRegAppTableRecord
  2
ACAD
 70
     0
  0
ENDTAB
  0
TABLE
  2
DIMSTYLE
  5
A
330
0
100
AcDbSymbolTable
 70
     1
100
AcDbDimStyleTable
  0
DIMSTYLE
105
27
330
A
100
AcDbSymbolTableRecord
100
AcDbDimStyleTableRecord
  2
ISO-25
 70
     0
 41
2.5
 42
0.625
 43
3.75
 44
1.25
 73
     0
 74
     0
 77
     1
 78
     8
140
2.5
141
2.5
143
0.03937007874016
147
0.625
171
     3
172
     1
178
     0
271
     2
272
     2
274
     3
278
    44
283
     0
284
     8
340
11
  0
ENDTAB
  0
TABLE
  2
BLOCK_RECORD
  5
1
330
0
100
AcDbSymbolTable
 70
     1
  0
BLOCK_RECORD
  5
1F
330
1
100
AcDbSymbolTableRecord
100
AcDbBlockTableRecord
  2
*Model_Space
340
22
 70
     0
280
     1
281
     0
  0
BLOCK_RECORD
  5
1B
330
1
100
AcDbSymbolTableRecord
100
AcDbBlockTableRecord
  2
*Paper_Space
340
1E
 70
     0
280
     1
281
     0
  0
BLOCK_RECORD
  5
23
330
1
100
AcDbSymbolTableRecord
100
AcDbBlockTableRecord
  2
*Paper_Space0
340
26
 70
     0
280
     1
281
     0
  0
ENDTAB
  0
ENDSEC
  0
SECTION
  2
BLOCKS
  0
BLOCK
  5
20
330
1F
100
AcDbEntity
  8
0
100
AcDbBlockBegin
  2
*Model_Space
 70
     0
 10
0.0
 20
0.0
 30
0.0
  3
*Model_Space
  1

  0
ENDBLK
  5
21
330
1F
100
AcDbEntity
  8
0
100
AcDbBlockEnd
  0
BLOCK
  5
1C
330
1B
100
AcDbEntity
 67
     1
  8
0
100
AcDbBlockBegin
  2
*Paper_Space
 70
     0
 10
0.0
 20
0.0
 30
0.0
  3
*Paper_Space
  1

  0
ENDBLK
  5
1D
330
1B
100
AcDbEntity
 67
     1
  8
0
100
AcDbBlockEnd
  0
BLOCK
  5
24
330
23
100
AcDbEntity
  8
0
100
AcDbBlockBegin
  2
*Paper_Space0
 70
     0
 10
0.0
 20
0.0
 30
0.0
  3
*Paper_Space0
  1

  0
ENDBLK
  5
25
330
23
100
AcDbEntity
  8
0
100
AcDbBlockEnd
  0
ENDSEC
  0
SECTION
  2
ENTITIES
  0
LINE
  5
7E
330
1F
100
AcDbEntity
  8
0-A_文字
  6
Continuous
 62
     7
370
     9
100
AcDbLine
 10
-6026.821277148684
 20
13078.1354392247
 30
0.0
 11
-19076.82127714868
 21
13078.1354392247
 31
0.0
  0
LINE
  5
7F
330
1F
100
AcDbEntity
  8
0-A_文字
  6
Continuous
 62
     7
370
     9
100
AcDbLine
 10
-6026.821277148684
 20
12328.1354392247
 30
0.0
 11
-6026.821277148684
 21
13078.1354392247
 31
0.0
  0
LINE
  5
80
330
1F
100
AcDbEntity
  8
0-A_文字
  6
Continuous
 62
     7
370
     9
100
AcDbLine
 10
-19076.82127714868
 20
12328.1354392247
 30
0.0
 11
-6026.821277148684
 21
12328.1354392247
 31
0.0
  0
TEXT
  5
81
330
1F
100
AcDbEntity
  8
0-A_文字
  6
Continuous
 62
     7
370
     9
100
AcDbText
 10
-17476.82127714868
 20
12559.5354392247
 30
0.0
 40
304.8
  1
ウォークインクローゼットプラン　ＷＬ－１０１
 41
1.119318181818182
  7
ＭＳ ゴシック
100
AcDbText
  0
LINE
  5
82
330
1F
100
AcDbEntity
  8
F-0_補助線
  6
JWW_HOJO
 62
   120
370
     5
100
AcDbLine
 10
-20610.15464313034
 20
-15155.19783912201
 30
0.0
 11
-20610.15464313034
 21
14444.80084119894
 31
0.0
  0
LINE
  5
83
330
1F
100
AcDbEntity
  8
F-0_補助線
  6
JWW_HOJO
 62
   120
370
     5
100
AcDbLine
 10
-20610.15464313034
 20
14444.80084119894
 30
0.0
 11
20389.84205767203
 21
14444.80084119894
 31
0.0
  0
LINE
  5
84
330
1F
100
AcDbEntity
  8
F-0_補助線
  6
JWW_HOJO
 62
   120
370
     5
100
AcDbLine
 10
20389.84205767203
 20
14444.80084119894
 30
0.0
 11
20389.84205767203
 21
-15155.19783912201
 31
0.0
  0
LINE
  5
85
330
1F
100
AcDbEntity
  8
F-0_補助線
  6
JWW_HOJO
 62
   120
370
     5
100
AcDbLine
 10
20389.84205767203
 20
-15155.19783912201
 30
0.0
 11
-20610.15464313034
 21
-15155.19783912201
 31
0.0
  0
LINE
  5
86
330
1F
100
AcDbEntity
  8
枠
  6
Continuous
 62
   200
370
    20
100
AcDbLine
 10
19389.84123287263
 20
13611.46805773188
 30
0.0
 11
19389.84123287263
 21
-14321.86505565495
 31
0.0
  0
LINE
  5
87
330
1F
100
AcDbEntity
  8
枠
  6
Continuous
 62
   200
370
    20
100
AcDbLine
 10
-19610.15459158037
 20
13611.46805773188
 30
0.0
 11
-19610.15459158037
 21
-14321.86505565495
 31
0.0
  0
LINE
  5
88
330
1F
100
AcDbEntity
  8
枠
  6
Continuous
 62
   200
370
    20
100
AcDbLine
 10
-19576.82127714868
 20
13611.46805773188
 30
0.0
 11
-19576.82127714868
 21
-14321.86505565495
 31
0.0
  0
LINE
  5
89
330
1F
100
AcDbEntity
  8
枠
  6
Continuous
 62
   200
370
    20
100
AcDbLine
 10
-19593.48789570206
 20
13611.46805773188
 30
0.0
 11
-19593.48789570206
 21
-14321.86505565495
 31
0.0
  0
LINE
  5
8A
330
1F
100
AcDbEntity
  8
枠
  6
Continuous
 62
   200
370
    20
100
AcDbLine
 10
19373.17368641992
 20
13611.46805773188
 30
0.0
 11
19373.17368641992
 21
-14321.86505565495
 31
0.0
  0
LINE
  5
8B
330
1F
100
AcDbEntity
  8
枠
  6
Continuous
 62
   200
370
    20
100
AcDbLine
 10
19356.50861436545
 20
13611.46805773188
 30
0.0
 11
19356.50861436545
 21
-14321.86505565495
 31
0.0
  0
LINE
  5
8C
330
1F
100
AcDbEntity
  8
枠
  6
Continuous
 62
   200
370
    20
100
AcDbLine
 10
-19610.15381833092
 20
13611.46805773188
 30
0.0
 11
19389.84123287263
 21
13611.46805773188
 31
0.0
  0
LINE
  5
8D
330
1F
100
AcDbEntity
  8
枠
  6
Continuous
 62
   200
370
    20
100
AcDbLine
 10
-19610.15381833092
 20
13578.1354392247
 30
0.0
 11
19389.84123287263
 21
13578.1354392247
 31
0.0
  0
LINE
  5
8E
330
1F
100
AcDbEntity
  8
枠
  6
Continuous
 62
   200
370
    20
100
AcDbLine
 10
-19610.15381833092
 20
13594.80051127917
 30
0.0
 11
19389.84123287263
 21
13594.80051127917
 31
0.0
  0
LINE
  5
8F
330
1F
100
AcDbEntity
  8
0-A_文字
  6
Continuous
 62
     7
370
     9
100
AcDbLine
 10
-19076.82127714868
 20
13078.1354392247
 30
0.0
 11
-19076.82127714868
 21
12328.1354392247
 31
0.0
  0
TEXT
  5
90
330
1F
100
AcDbEntity
  8
0-A_文字
  6
Continuous
 62
     7
370
     9
100
AcDbText
 10
1556.5117486032
 20
-13412.89912921011
 30
0.0
 40
228.6
  1
e・ra・bo
 41
1.148148148148148
  7
ＭＳ ゴシック
100
AcDbText
  0
TEXT
  5
91
330
1F
100
AcDbEntity
  8
F-A_文字
  6
Continuous
 62
     7
370
     0
100
AcDbText
 10
189.8449444699651
 20
-13210.33111663641
 30
0.0
 40
152.4
  1
図面名
  7
ＭＳ ゴシック
100
AcDbText
  0
TEXT
  5
92
330
1F
100
AcDbEntity
  8
F-A_文字
  6
Continuous
 62
     7
370
     0
100
AcDbText
 10
9656.50778956604
 20
-13210.3399157892
 30
0.0
 40
152.4
  1
ＳＣＡＬＥ
 41
0.9999999999999999
  7
ＭＳ ゴシック
100
AcDbText
  0
TEXT
  5
93
330
1F
100
AcDbEntity
  8
F-A_文字
  6
Continuous
 62
     7
370
     0
100
AcDbText
 10
14656.50943916486
 20
-13210.34456323247
 30
0.0
 40
152.4
  1
ＤＡＴＥ
  7
ＭＳ ゴシック
100
AcDbText
  0
TEXT
  5
94
330
1F
100
AcDbEntity
  8
F-A_文字
  6
Continuous
 62
     7
370
     0
100
AcDbText
 10
11669.00861436545
 20
-13396.24210008765
 30
0.0
 40
228.6
  1
1/20
 41
1.125
  7
ＭＳ ゴシック
100
AcDbText
  0
TEXT
  5
95
330
1F
100
AcDbEntity
  8
F-A_文字
  6
Continuous
 62
     7
370
     0
100
AcDbText
 10
9656.50778956604
 20
-13877.00659098949
 30
0.0
 40
152.4
  1
ＦＩＬＥ
  7
ＭＳ ゴシック
100
AcDbText
  0
LINE
  5
96
330
1F
100
AcDbEntity
  8
F-0_補助線
  6
JWW_HOJO
 62
     7
370
     9
100
AcDbLine
 10
3223.177315537322
 20
-12955.19839070662
 30
0.0
 11
3223.177315537322
 21
-14288.53174122327
 31
0.0
  0
LINE
  5
97
330
1F
100
AcDbEntity
  8
F-0_補助線
  6
JWW_HOJO
 62
     7
370
     9
100
AcDbLine
 10
1556.5117486032
 20
-12955.19839070662
 30
0.0
 11
1556.5117486032
 21
-14288.53174122327
 31
0.0
  0
LINE
  5
98
330
1F
100
AcDbEntity
  8
枠
  6
Continuous
 62
   200
370
    20
100
AcDbLine
 10
19389.84123287263
 20
-14321.86505565495
 30
0.0
 11
-19610.15381833093
 21
-14321.86505565495
 31
0.0
  0
LINE
  5
99
330
1F
100
AcDbEntity
  8
枠
  6
Continuous
 62
   200
370
    20
100
AcDbLine
 10
19389.84123287263
 20
-14305.19835977664
 30
0.0
 11
-19610.15381833093
 21
-14305.19835977664
 31
0.0
  0
LINE
  5
9A
330
1F
100
AcDbEntity
  8
枠
  6
Continuous
 62
   200
370
    20
100
AcDbLine
 10
19389.84123287263
 20
-14288.53174122327
 30
0.0
 11
-19610.15381833093
 21
-14288.53174122327
 31
0.0
  0
LINE
  5
9B
330
1F
100
AcDbEntity
  8
枠
  6
Continuous
 62
   200
370
    20
100
AcDbLine
 10
14356.50943916486
 20
-12955.19839070662
 30
0.0
 11
14356.50943916486
 21
-14288.53174122327
 31
0.0
  0
LINE
  5
9C
330
1F
100
AcDbEntity
  8
枠
  6
Continuous
 62
   200
370
    20
100
AcDbLine
 10
9356.50778956604
 20
-12955.19839070662
 30
0.0
 11
9356.50778956604
 21
-14288.53174122327
 31
0.0
  0
LINE
  5
9D
330
1F
100
AcDbEntity
  8
枠
  6
Continuous
 62
   200
370
    20
100
AcDbLine
 10
-110.1550555300349
 20
-12955.19839070662
 30
0.0
 11
-110.1550555300349
 21
-14288.53174122327
 31
0.0
  0
LINE
  5
9E
330
1F
100
AcDbEntity
  8
枠
  6
Continuous
 62
   200
370
    20
100
AcDbLine
 10
-110.1550555300349
 20
-13621.86483399011
 30
0.0
 11
19356.50861436545
 21
-13621.88292802714
 31
0.0
  0
LINE
  5
9F
330
1F
100
AcDbEntity
  8
F-0_補助線
  6
JWW_HOJO
 62
     7
370
     9
100
AcDbLine
 10
-19576.82127714869
 20
-13621.86483399126
 30
0.0
 11
-110.1550555300349
 21
-13621.86483399126
 31
0.0
  0
LINE
  5
A0
330
1F
100
AcDbEntity
  8
F-0_補助線
  6
JWW_HOJO
 62
     7
370
     9
100
AcDbLine
 10
-19576.82127714869
 20
-13321.86483399126
 30
0.0
 11
-110.1550555300349
 21
-13321.86483399126
 31
0.0
  0
LINE
  5
A1
330
1F
100
AcDbEntity
  8
F-0_補助線
  6
JWW_HOJO
 62
     7
370
     9
100
AcDbLine
 10
-19576.82127714869
 20
-13921.86483399126
 30
0.0
 11
-110.1550555300349
 21
-13921.86483399126
 31
0.0
  0
LINE
  5
A2
330
1F
100
AcDbEntity
  8
F-0_補助線
  6
JWW_HOJO
 62
     7
370
     9
100
AcDbLine
 10
-110.1555047821279
 20
-14105.1975129899
 30
0.0
 11
19356.50816511335
 21
-14105.21560702693
 31
0.0
  0
LINE
  5
A3
330
1F
100
AcDbEntity
  8
F-0_補助線
  6
JWW_HOJO
 62
     7
370
     9
100
AcDbLine
 10
-110.1552259356225
 20
-13805.19751299003
 30
0.0
 11
19356.50844395986
 21
-13805.21560702706
 31
0.0
  0
LINE
  5
A4
330
1F
100
AcDbEntity
  8
F-0_補助線
  6
JWW_HOJO
 62
     7
370
     9
100
AcDbLine
 10
-110.1548851232224
 20
-13438.53083779019
 30
0.0
 11
19356.50878477226
 21
-13438.54893182722
 31
0.0
  0
LINE
  5
A5
330
1F
100
AcDbEntity
  8
F-0_補助線
  6
JWW_HOJO
 62
     7
370
     9
100
AcDbLine
 10
-110.154606276717
 20
-13138.53083779032
 30
0.0
 11
19356.50906361876
 21
-13138.54893182735
 31
0.0
  0
LINE
  5
A6
330
1F
100
AcDbEntity
  8
F-0_補助線
  6
JWW_HOJO
 62
     7
370
     9
100
AcDbLine
 10
9656.50778956604
 20
-12955.19839070662
 30
0.0
 11
9656.50778956604
 21
-14288.53174122327
 31
0.0
  0
LINE
  5
A7
330
1F
100
AcDbEntity
  8
F-0_補助線
  6
JWW_HOJO
 62
     7
370
     9
100
AcDbLine
 10
189.8449444699651
 20
-12955.19839070662
 30
0.0
 11
189.8449444699651
 21
-14288.53174122327
 31
0.0
  0
LINE
  5
A8
330
1F
100
AcDbEntity
  8
F-0_補助線
  6
JWW_HOJO
 62
     7
370
     9
100
AcDbLine
 10
14656.50943916486
 20
-12955.19839070662
 30
0.0
 11
14656.50943916486
 21
-14288.53174122327
 31
0.0
  0
TEXT
  5
A9
330
1F
100
AcDbEntity
  8
F-A_文字
  6
Continuous
 62
     7
370
     0
100
AcDbText
 10
14656.50943916486
 20
-13877.01123843275
 30
0.0
 40
152.4
  1
ＮＯ．
  7
ＭＳ ゴシック
100
AcDbText
  0
TEXT
  5
AA
330
1F
100
AcDbEntity
  8
F-A_文字
  6
Continuous
 62
     7
370
     0
100
AcDbText
 10
4506.507789566038
 20
-13907.00061128378
 30
0.0
 40
152.4
  1
株式
  7
ＭＳ ゴシック
100
AcDbText
  0
TEXT
  5
AB
330
1F
100
AcDbEntity
  8
F-A_文字
  6
Continuous
 62
     7
370
     9
100
AcDbText
 10
16844.0088021391
 20
-14062.91342272991
 30
0.0
 40
228.6
  1
01
 41
1.083333333333333
  7
ＭＳ ゴシック
100
AcDbText
  0
TEXT
  5
AC
330
1F
100
AcDbEntity
  8
F-A_文字
  6
Continuous
 62
     7
370
     0
100
AcDbText
 10
5206.507789566038
 20
-14098.80631214305
 30
0.0
 40
304.8
  1
ウッドワン・・・
 41
1.109375
  7
ＭＳ ゴシック
100
AcDbText
  0
TEXT
  5
AD
330
1F
100
AcDbEntity
  8
F-A_文字
  6
Continuous
 62
     7
370
     0
100
AcDbText
 10
4506.507789566038
 20
-14147.00061128391
 30
0.0
 40
152.4
  1
会社
  7
ＭＳ ゴシック
100
AcDbText
  0
TEXT
  5
AE
330
1F
100
AcDbEntity
  8
F-A_文字
  6
Continuous
 62
     7
370
     0
100
AcDbText
 10
19084.52306056871
 20
-14610.00256919174
 30
0.0
 40
228.6
  1
）
 41
0.9999999999999998
  7
ＭＳ ゴシック
100
AcDbText
  0
TEXT
  5
AF
330
1F
100
AcDbEntity
  8
F-A_文字
  6
Continuous
 62
     7
370
     0
100
AcDbText
 10
17690.49852634324
 20
-14614.6493186882
 30
0.0
 40
228.6
  1
,
 41
0.9999999999999998
  7
ＭＳ ゴシック
100
AcDbText
  0
LINE
  5
B0
330
1F
100
AcDbEntity
  8
枠
  6
Continuous
 62
   200
370
    20
100
AcDbLine
 10
19389.84123287263
 20
-12955.19839070662
 30
0.0
 11
-19610.15381833093
 21
-12955.19839070662
 31
0.0
  0
LINE
  5
B1
330
1F
100
AcDbEntity
  8
枠
  6
Continuous
 62
   200
370
    20
100
AcDbLine
 10
19389.84123287263
 20
-12938.53177215325
 30
0.0
 11
-19610.15381833093
 21
-12938.53177215325
 31
0.0
  0
LINE
  5
B2
330
1F
100
AcDbEntity
  8
F-0_補助線
  6
JWW_HOJO
 62
     7
370
     9
100
AcDbLine
 10
-17101.97923230646
 20
-12955.19839070662
 30
0.0
 11
-17101.97923230646
 21
-14321.86559692956
 31
0.0
  0
LINE
  5
B3
330
1F
100
AcDbEntity
  8
F-0_補助線
  6
JWW_HOJO
 62
     7
370
     9
100
AcDbLine
 10
-310.1550555300349
 20
-12955.19839070662
 30
0.0
 11
-310.1550555300349
 21
-14288.53174122327
 31
0.0
  0
TEXT
  5
B4
330
1F
100
AcDbEntity
  8
F-A_文字
  6
Continuous
 62
     7
370
     0
100
AcDbText
 10
16802.96956325425
 20
-14619.29606341628
 30
0.0
 40
228.6
  1
$y
 41
1.083333333333333
  7
ＭＳ ゴシック
100
AcDbText
  0
TEXT
  5
B5
330
1F
100
AcDbEntity
  8
F-A_文字
  6
Continuous
 62
     7
370
     0
100
AcDbText
 10
17318.75863338365
 20
-14619.29606341628
 30
0.0
 40
228.6
  1
$m
 41
1.083333333333333
  7
ＭＳ ゴシック
100
AcDbText
  0
TEXT
  5
B6
330
1F
100
AcDbEntity
  8
F-A_文字
  6
Continuous
 62
     7
370
     0
100
AcDbText
 10
17834.54774166001
 20
-14619.29606341628
 30
0.0
 40
228.6
  1
$d
 41
1.083333333333333
  7
ＭＳ ゴシック
100
AcDbText
  0
TEXT
  5
B7
330
1F
100
AcDbEntity
  8
F-A_文字
  6
Continuous
 62
     7
370
     0
100
AcDbText
 10
18350.33684993638
 20
-14619.29606341628
 30
0.0
 40
228.6
  1
印刷
 41
1.083333333333333
  7
ＭＳ ゴシック
100
AcDbText
  0
TEXT
  5
B8
330
1F
100
AcDbEntity
  8
F-A_文字
  6
Continuous
 62
     7
370
     0
100
AcDbText
 10
16336.62327104633
 20
-14623.94281768112
 30
0.0
 40
228.6
  1
（
 41
0.9999999999999998
  7
ＭＳ ゴシック
100
AcDbText
  0
TEXT
  5
B9
330
1F
100
AcDbEntity
  8
F-A_文字
  6
Continuous
 62
     7
370
     0
100
AcDbText
 10
17160.76916957748
 20
-14623.94281768112
 30
0.0
 40
228.6
  1
,
 41
0.9999999999999998
  7
ＭＳ ゴシック
100
AcDbText
  0
TEXT
  5
BA
330
1F
100
AcDbEntity
  8
F-A_文字
  6
Continuous
 62
     7
370
     0
100
AcDbText
 10
16319.00911196855
 20
-13371.24674752985
 30
0.0
 40
228.6
  1
17.07.20
 41
1.145833333333333
  7
ＭＳ ゴシック
100
AcDbText
  0
TEXT
  5
BB
330
1F
100
AcDbEntity
  8
F-A_文字
  6
Continuous
 62
     7
370
     9
100
AcDbText
 10
11144.00861436545
 20
-14062.908775288
 30
0.0
 40
228.6
  1
WL-101_C02
 41
1.15
  7
ＭＳ ゴシック
100
AcDbText
  0
TEXT
  5
BC
330
1F
100
AcDbEntity
  8
0-B_寸法
  6
Continuous
 62
     7
370
   211
100
AcDbText
 10
13016.61322012315
 20
-10020.37651443483
 30
0.0
 40
304.8
  1
～1,449
 41
1.107142857142853
  7
ＭＳ ゴシック
100
AcDbText
  0
TEXT
  5
BD
330
1F
100
AcDbEntity
  8
0-B_寸法
  6
Continuous
 62
     7
370
   211
100
AcDbText
 10
17605.57739873436
 20
-9499.936862570848
 30
0.0
 40
304.8
  1
15
 41
1.0625
  7
ＭＳ ゴシック
100
AcDbText
  0
TEXT
  5
BE
330
1F
100
AcDbEntity
  8
0-B_寸法
  6
Continuous
 62
     7
370
   211
100
AcDbText
 10
9874.576457005453
 20
-9499.936862570848
 30
0.0
 40
304.8
  1
15
 41
1.0625
  7
ＭＳ ゴシック
100
AcDbText
  0
LINE
  5
BF
330
1F
100
AcDbEntity
  8
0-B_寸法
  6
Continuous
 62
   120
370
     5
100
AcDbLine
 10
9344.113220123148
 20
-4621.336862570848
 30
0.0
 11
10094.11322012315
 21
-4621.336862570848
 31
0.0
  0
LWPOLYLINE
  5
C0
330
1F
100
AcDbEntity
  8
0-B_寸法
  6
Continuous
 62
     7
370
     9
100
AcDbPolyline
 90
        4
 70
     1
 43
20.0
 10
9354.113220123148
 20
-4621.336862570848
 42
0.4142135623731
 10
9344.113220123148
 20
-4611.336862570848
 42
0.4142135623731
 10
9334.113220123148
 20
-4621.336862570848
 42
0.4142135623731
 10
9344.113220123148
 20
-4631.336862570848
 42
0.4142135623731
  0
LINE
  5
C1
330
1F
100
AcDbEntity
  8
0-B_寸法
  6
Continuous
 62
   120
370
     5
100
AcDbLine
 10
9344.113220123148
 20
-4471.336862570848
 30
0.0
 11
10094.11322012315
 21
-4471.336862570848
 31
0.0
  0
LWPOLYLINE
  5
C2
330
1F
100
AcDbEntity
  8
0-B_寸法
  6
Continuous
 62
     7
370
     9
100
AcDbPolyline
 90
        4
 70
     1
 43
20.0
 10
9354.113220123148
 20
-4471.336862570848
 42
0.4142135623731
 10
9344.113220123148
 20
-4461.336862570848
 42
0.4142135623731
 10
9334.113220123148
 20
-4471.336862570848
 42
0.4142135623731
 10
9344.113220123148
 20
-4481.336862570848
 42
0.4142135623731
  0
LINE
  5
C3
330
1F
100
AcDbEntity
  8
0-B_寸法
  6
Continuous
 62
   120
370
     5
100
AcDbLine
 10
9344.113220123148
 20
-8556.336862570848
 30
0.0
 11
10094.11322012315
 21
-8556.336862570848
 31
0.0
  0
LWPOLYLINE
  5
C4
330
1F
100
AcDbEntity
  8
0-B_寸法
  6
Continuous
 62
     7
370
     9
100
AcDbPolyline
 90
        4
 70
     1
 43
20.0
 10
9354.113220123148
 20
-8556.336862570848
 42
0.4142135623731
 10
9344.113220123148
 20
-8546.336862570848
 42
0.4142135623731
 10
9334.113220123148
 20
-8556.336862570848
 42
0.4142135623731
 10
9344.113220123148
 20
-8566.336862570846
 42
0.4142135623731
  0
LINE
  5
C5
330
1F
100
AcDbEntity
  8
0-B_寸法
  6
Continuous
 62
   120
370
     5
100
AcDbLine
 10
9344.113220123148
 20
818.6631374291522
 30
0.0
 11
9344.113220123148
 21
-8556.336862570848
 31
0.0
  0
LINE
  5
C6
330
1F
100
AcDbEntity
  8
0-B_寸法
  6
Continuous
 62
   120
370
     5
100
AcDbLine
 10
9344.113220123148
 20
818.6631374291522
 30
0.0
 11
10094.11322012315
 21
818.6631374291522
 31
0.0
  0
LWPOLYLINE
  5
C7
330
1F
100
AcDbEntity
  8
0-B_寸法
  6
Continuous
 62
     7
370
     9
100
AcDbPolyline
 90
        4
 70
     1
 43
20.0
 10
9354.113220123148
 20
818.6631374291522
 42
0.4142135623731
 10
9344.113220123148
 20
828.6631374291522
 42
0.4142135623731
 10
9334.113220123148
 20
818.6631374291522
 42
0.4142135623731
 10
9344.113220123148
 20
808.6631374291522
 42
0.4142135623731
  0
LINE
  5
C8
330
1F
100
AcDbEntity
  8
0-B_寸法
  6
Continuous
 62
   120
370
     5
100
AcDbLine
 10
9344.113220123148
 20
968.6631374291522
 30
0.0
 11
9344.113220123148
 21
818.6631374291522
 31
0.0
  0
LINE
  5
C9
330
1F
100
AcDbEntity
  8
0-B_寸法
  6
Continuous
 62
   120
370
     5
100
AcDbLine
 10
9344.113220123148
 20
968.6631374291522
 30
0.0
 11
10094.11322012315
 21
968.6631374291522
 31
0.0
  0
LINE
  5
CA
330
1F
100
AcDbEntity
  8
0-B_寸法
  6
Continuous
 62
   120
370
     5
100
AcDbLine
 10
9344.113220123148
 20
1258.663137429153
 30
0.0
 11
10094.11322012315
 21
1258.663137429153
 31
0.0
  0
LWPOLYLINE
  5
CB
330
1F
100
AcDbEntity
  8
0-B_寸法
  6
Continuous
 62
     7
370
     9
100
AcDbPolyline
 90
        4
 70
     1
 43
20.0
 10
9354.113220123148
 20
968.6631374291522
 42
0.4142135623731
 10
9344.113220123148
 20
978.6631374291522
 42
0.4142135623731
 10
9334.113220123148
 20
968.6631374291522
 42
0.4142135623731
 10
9344.113220123148
 20
958.6631374291522
 42
0.4142135623731
  0
LWPOLYLINE
  5
CC
330
1F
100
AcDbEntity
  8
0-B_寸法
  6
Continuous
 62
     7
370
     9
100
AcDbPolyline
 90
        4
 70
     1
 43
20.0
 10
9354.113220123148
 20
1258.663137429153
 42
0.4142135623731
 10
9344.113220123148
 20
1268.663137429153
 42
0.4142135623731
 10
9334.113220123148
 20
1258.663137429153
 42
0.4142135623731
 10
9344.113220123148
 20
1248.663137429153
 42
0.4142135623731
  0
LINE
  5
CD
330
1F
100
AcDbEntity
  8
0-B_寸法
  6
Continuous
 62
   120
370
     5
100
AcDbLine
 10
9344.113220123148
 20
1258.663137429153
 30
0.0
 11
9344.113220123148
 21
968.6631374291522
 31
0.0
  0
TEXT
  5
CE
330
1F
100
AcDbEntity
  8
0-B_寸法
  6
Continuous
 62
     7
370
   211
100
AcDbText
 10
13191.61322012315
 20
9420.063137429152
 30
0.0
 40
304.8
  1
～1,449
 41
1.107142857142853
  7
ＭＳ ゴシック
100
AcDbText
  0
LINE
  5
CF
330
1F
100
AcDbEntity
  8
0-B_寸法
  6
Continuous
 62
   120
370
     5
100
AcDbLine
 10
17589.11322012315
 20
9363.663137429152
 30
0.0
 11
10344.11322012315
 21
9363.663137429152
 31
0.0
  0
LINE
  5
D0
330
1F
100
AcDbEntity
  8
0-B_寸法
  6
Continuous
 62
   120
370
     5
100
AcDbLine
 10
17589.11322012315
 20
-10056.33686257085
 30
0.0
 11
10344.11322012315
 21
-10056.33686257085
 31
0.0
  0
LINE
  5
D1
330
1F
100
AcDbEntity
  8
0-B_寸法
  6
Continuous
 62
   120
370
     5
100
AcDbLine
 10
9344.113220123148
 20
6113.663137429148
 30
0.0
 11
10094.11322012315
 21
6113.663137429148
 31
0.0
  0
LINE
  5
D2
330
1F
100
AcDbEntity
  8
0-B_寸法
  6
Continuous
 62
   120
370
     5
100
AcDbLine
 10
9344.113220123148
 20
8363.663137429152
 30
0.0
 11
10094.11322012315
 21
8363.663137429152
 31
0.0
  0
LWPOLYLINE
  5
D3
330
1F
100
AcDbEntity
  8
0-B_寸法
  6
Continuous
 62
     7
370
     9
100
AcDbPolyline
 90
        4
 70
     1
 43
20.0
 10
9354.113220123148
 20
6113.663137429148
 42
0.4142135623731
 10
9344.113220123148
 20
6123.663137429148
 42
0.4142135623731
 10
9334.113220123148
 20
6113.663137429148
 42
0.4142135623731
 10
9344.113220123148
 20
6103.663137429148
 42
0.4142135623731
  0
LWPOLYLINE
  5
D4
330
1F
100
AcDbEntity
  8
0-B_寸法
  6
Continuous
 62
     7
370
     9
100
AcDbPolyline
 90
        4
 70
     1
 43
20.0
 10
9354.113220123148
 20
8363.663137429152
 42
0.4142135623731
 10
9344.113220123148
 20
8373.66313742915
 42
0.4142135623731
 10
9334.113220123148
 20
8363.663137429152
 42
0.4142135623731
 10
9344.113220123148
 20
8353.663137429152
 42
0.4142135623731
  0
LINE
  5
D5
330
1F
100
AcDbEntity
  8
0-B_寸法
  6
Continuous
 62
   120
370
     5
100
AcDbLine
 10
9344.113220123148
 20
8363.663137429152
 30
0.0
 11
9344.113220123148
 21
6113.663137429148
 31
0.0
  0
LINE
  5
D6
330
1F
100
AcDbEntity
  8
0-B_寸法
  6
Continuous
 62
   120
370
     5
100
AcDbLine
 10
10344.11322012315
 20
9363.663137429152
 30
0.0
 11
10344.11322012315
 21
8613.663137429152
 31
0.0
  0
LWPOLYLINE
  5
D7
330
1F
100
AcDbEntity
  8
0-B_寸法
  6
Continuous
 62
     7
370
     9
100
AcDbPolyline
 90
        4
 70
     1
 43
20.0
 10
10354.11322012315
 20
9363.663137429152
 42
0.4142135623731
 10
10344.11322012315
 20
9373.66313742915
 42
0.4142135623731
 10
10334.11322012315
 20
9363.663137429152
 42
0.4142135623731
 10
10344.11322012315
 20
9353.663137429152
 42
0.4142135623731
  0
LINE
  5
D8
330
1F
100
AcDbEntity
  8
0-B_寸法
  6
Continuous
 62
   120
370
     5
100
AcDbLine
 10
10344.11322012315
 20
5113.663137429148
 30
0.0
 11
10344.11322012315
 21
5863.663137429148
 31
0.0
  0
LWPOLYLINE
  5
D9
330
1F
100
AcDbEntity
  8
0-B_寸法
  6
Continuous
 62
     7
370
     9
100
AcDbPolyline
 90
        4
 70
     1
 43
20.0
 10
10354.11322012315
 20
5113.663137429148
 42
0.4142135623731
 10
10344.11322012315
 20
5123.663137429148
 42
0.4142135623731
 10
10334.11322012315
 20
5113.663137429148
 42
0.4142135623731
 10
10344.11322012315
 20
5103.663137429148
 42
0.4142135623731
  0
LINE
  5
DA
330
1F
100
AcDbEntity
  8
0-B_寸法
  6
Continuous
 62
   120
370
     5
100
AcDbLine
 10
10344.11322012315
 20
-10056.33686257085
 30
0.0
 11
10344.11322012315
 21
-9556.336862570848
 31
0.0
  0
LWPOLYLINE
  5
DB
330
1F
100
AcDbEntity
  8
0-B_寸法
  6
Continuous
 62
     7
370
     9
100
AcDbPolyline
 90
        4
 70
     1
 43
20.0
 10
10354.11322012315
 20
-10056.33686257085
 42
0.4142135623731
 10
10344.11322012315
 20
-10046.33686257085
 42
0.4142135623731
 10
10334.11322012315
 20
-10056.33686257085
 42
0.4142135623731
 10
10344.11322012315
 20
-10066.33686257085
 42
0.4142135623731
  0
LINE
  5
DC
330
1F
100
AcDbEntity
  8
0-B_寸法
  6
Continuous
 62
   120
370
     5
100
AcDbLine
 10
10344.11322012315
 20
-9556.336862570848
 30
0.0
 11
10419.11322012315
 21
-9556.336862570848
 31
0.0
  0
LINE
  5
DD
330
1F
100
AcDbEntity
  8
0-B_寸法
  6
Continuous
 62
   120
370
     5
100
AcDbLine
 10
10344.11322012315
 20
-9556.336862570848
 30
0.0
 11
10344.11322012315
 21
-8806.336862570848
 31
0.0
  0
LINE
  5
DE
330
1F
100
AcDbEntity
  8
0-B_寸法
  6
Continuous
 62
   120
370
     5
100
AcDbLine
 10
10419.11322012315
 20
-9556.336862570848
 30
0.0
 11
10419.11322012315
 21
-8806.336862570848
 31
0.0
  0
LWPOLYLINE
  5
DF
330
1F
100
AcDbEntity
  8
0-B_寸法
  6
Continuous
 62
     7
370
     9
100
AcDbPolyline
 90
        4
 70
     1
 43
20.0
 10
10354.11322012315
 20
-9556.336862570848
 42
0.4142135623731
 10
10344.11322012315
 20
-9546.336862570848
 42
0.4142135623731
 10
10334.11322012315
 20
-9556.336862570848
 42
0.4142135623731
 10
10344.11322012315
 20
-9566.336862570846
 42
0.4142135623731
  0
LWPOLYLINE
  5
E0
330
1F
100
AcDbEntity
  8
0-B_寸法
  6
Continuous
 62
     7
370
     9
100
AcDbPolyline
 90
        4
 70
     1
 43
20.0
 10
10429.11322012315
 20
-9556.336862570848
 42
0.4142135623731
 10
10419.11322012315
 20
-9546.336862570848
 42
0.4142135623731
 10
10409.11322012315
 20
-9556.336862570848
 42
0.4142135623731
 10
10419.11322012315
 20
-9566.336862570846
 42
0.4142135623731
  0
TEXT
  5
E1
330
1F
100
AcDbEntity
  8
0-B_寸法
  6
Continuous
 62
     7
370
   211
100
AcDbText
 10
17577.5671835669
 20
5170.063137429148
 30
0.0
 40
304.8
  1
15
 41
1.0625
  7
ＭＳ ゴシック
100
AcDbText
  0
LINE
  5
E2
330
1F
100
AcDbEntity
  8
0-B_寸法
  6
Continuous
 62
   120
370
     5
100
AcDbLine
 10
17589.11322012315
 20
9363.663137429152
 30
0.0
 11
17589.11322012315
 21
8613.663137429152
 31
0.0
  0
LWPOLYLINE
  5
E3
330
1F
100
AcDbEntity
  8
0-B_寸法
  6
Continuous
 62
     7
370
     9
100
AcDbPolyline
 90
        4
 70
     1
 43
20.0
 10
17599.11322012315
 20
9363.663137429152
 42
0.4142135623731
 10
17589.11322012315
 20
9373.66313742915
 42
0.4142135623731
 10
17579.11322012315
 20
9363.663137429152
 42
0.4142135623731
 10
17589.11322012315
 20
9353.663137429152
 42
0.4142135623731
  0
LINE
  5
E4
330
1F
100
AcDbEntity
  8
0-B_寸法
  6
Continuous
 62
   120
370
     5
100
AcDbLine
 10
17514.11322012315
 20
5113.663137429148
 30
0.0
 11
17514.11322012315
 21
5863.663137429148
 31
0.0
  0
LINE
  5
E5
330
1F
100
AcDbEntity
  8
0-B_寸法
  6
Continuous
 62
   120
370
     5
100
AcDbLine
 10
17589.11322012315
 20
5113.663137429148
 30
0.0
 11
17589.11322012315
 21
5863.663137429148
 31
0.0
  0
LWPOLYLINE
  5
E6
330
1F
100
AcDbEntity
  8
0-B_寸法
  6
Continuous
 62
     7
370
     9
100
AcDbPolyline
 90
        4
 70
     1
 43
20.0
 10
17524.11322012315
 20
5113.663137429148
 42
0.4142135623731
 10
17514.11322012315
 20
5123.663137429148
 42
0.4142135623731
 10
17504.11322012315
 20
5113.663137429148
 42
0.4142135623731
 10
17514.11322012315
 20
5103.663137429148
 42
0.4142135623731
  0
LWPOLYLINE
  5
E7
330
1F
100
AcDbEntity
  8
0-B_寸法
  6
Continuous
 62
     7
370
     9
100
AcDbPolyline
 90
        4
 70
     1
 43
20.0
 10
17599.11322012315
 20
5113.663137429148
 42
0.4142135623731
 10
17589.11322012315
 20
5123.663137429148
 42
0.4142135623731
 10
17579.11322012315
 20
5113.663137429148
 42
0.4142135623731
 10
17589.11322012315
 20
5103.663137429148
 42
0.4142135623731
  0
LINE
  5
E8
330
1F
100
AcDbEntity
  8
0-B_寸法
  6
Continuous
 62
   120
370
     5
100
AcDbLine
 10
17589.11322012315
 20
5113.663137429148
 30
0.0
 11
17514.11322012315
 21
5113.663137429148
 31
0.0
  0
LINE
  5
E9
330
1F
100
AcDbEntity
  8
0-B_寸法
  6
Continuous
 62
   120
370
     5
100
AcDbLine
 10
17589.11322012315
 20
-10056.33686257085
 30
0.0
 11
17589.11322012315
 21
-9556.336862570848
 31
0.0
  0
LWPOLYLINE
  5
EA
330
1F
100
AcDbEntity
  8
0-B_寸法
  6
Continuous
 62
     7
370
     9
100
AcDbPolyline
 90
        4
 70
     1
 43
20.0
 10
17599.11322012315
 20
-10056.33686257085
 42
0.4142135623731
 10
17589.11322012315
 20
-10046.33686257085
 42
0.4142135623731
 10
17579.11322012315
 20
-10056.33686257085
 42
0.4142135623731
 10
17589.11322012315
 20
-10066.33686257085
 42
0.4142135623731
  0
LINE
  5
EB
330
1F
100
AcDbEntity
  8
0-B_寸法
  6
Continuous
 62
   120
370
     5
100
AcDbLine
 10
18589.11322012315
 20
-8556.336862570848
 30
0.0
 11
18589.11322012315
 21
-4076.336862570798
 31
0.0
  0
LINE
  5
EC
330
1F
100
AcDbEntity
  8
0-B_寸法
  6
Continuous
 62
   120
370
     5
100
AcDbLine
 10
18589.11322012315
 20
-4076.336862570798
 30
0.0
 11
17839.11322012315
 21
-4076.336862570798
 31
0.0
  0
LINE
  5
ED
330
1F
100
AcDbEntity
  8
0-B_寸法
  6
Continuous
 62
   120
370
     5
100
AcDbLine
 10
17514.11322012315
 20
-9556.336862570848
 30
0.0
 11
17514.11322012315
 21
-8806.336862570848
 31
0.0
  0
LINE
  5
EE
330
1F
100
AcDbEntity
  8
0-B_寸法
  6
Continuous
 62
   120
370
     5
100
AcDbLine
 10
17514.11322012315
 20
-9556.336862570848
 30
0.0
 11
17589.11322012315
 21
-9556.336862570848
 31
0.0
  0
LINE
  5
EF
330
1F
100
AcDbEntity
  8
0-B_寸法
  6
Continuous
 62
   120
370
     5
100
AcDbLine
 10
17589.11322012315
 20
-9556.336862570848
 30
0.0
 11
17589.11322012315
 21
-8806.336862570848
 31
0.0
  0
LWPOLYLINE
  5
F0
330
1F
100
AcDbEntity
  8
0-B_寸法
  6
Continuous
 62
     7
370
     9
100
AcDbPolyline
 90
        4
 70
     1
 43
20.0
 10
18599.11322012315
 20
-4076.336862570798
 42
0.4142135623731
 10
18589.11322012315
 20
-4066.336862570798
 42
0.4142135623731
 10
18579.11322012315
 20
-4076.336862570798
 42
0.4142135623731
 10
18589.11322012315
 20
-4086.336862570799
 42
0.4142135623731
  0
LWPOLYLINE
  5
F1
330
1F
100
AcDbEntity
  8
0-B_寸法
  6
Continuous
 62
     7
370
     9
100
AcDbPolyline
 90
        4
 70
     1
 43
20.0
 10
18599.11322012315
 20
-8556.336862570848
 42
0.4142135623731
 10
18589.11322012315
 20
-8546.336862570848
 42
0.4142135623731
 10
18579.11322012315
 20
-8556.336862570848
 42
0.4142135623731
 10
18589.11322012315
 20
-8566.336862570846
 42
0.4142135623731
  0
LWPOLYLINE
  5
F2
330
1F
100
AcDbEntity
  8
0-B_寸法
  6
Continuous
 62
     7
370
     9
100
AcDbPolyline
 90
        4
 70
     1
 43
20.0
 10
17524.11322012315
 20
-9556.336862570848
 42
0.4142135623731
 10
17514.11322012315
 20
-9546.336862570848
 42
0.4142135623731
 10
17504.11322012315
 20
-9556.336862570848
 42
0.4142135623731
 10
17514.11322012315
 20
-9566.336862570846
 42
0.4142135623731
  0
LWPOLYLINE
  5
F3
330
1F
100
AcDbEntity
  8
0-B_寸法
  6
Continuous
 62
     7
370
     9
100
AcDbPolyline
 90
        4
 70
     1
 43
20.0
 10
17599.11322012315
 20
-9556.336862570848
 42
0.4142135623731
 10
17589.11322012315
 20
-9546.336862570848
 42
0.4142135623731
 10
17579.11322012315
 20
-9556.336862570848
 42
0.4142135623731
 10
17589.11322012315
 20
-9566.336862570846
 42
0.4142135623731
  0
LINE
  5
F4
330
1F
100
AcDbEntity
  8
可動棚
  6
Continuous
 62
    92
370
    13
100
AcDbLine
 10
17514.11322012315
 20
-596.3368625708341
 30
0.0
 11
17514.11322012315
 21
-491.3368625708358
 31
0.0
  0
LINE
  5
F5
330
1F
100
AcDbEntity
  8
可動棚
  6
Continuous
 62
    92
370
    13
100
AcDbLine
 10
17514.11322012315
 20
-2356.336862570816
 30
0.0
 11
17514.11322012315
 21
-2251.336862570817
 31
0.0
  0
LINE
  5
F6
330
1F
100
AcDbEntity
  8
可動棚
  6
Continuous
 62
    92
370
    13
100
AcDbLine
 10
17514.11322012315
 20
-5741.336862570781
 30
0.0
 11
17514.11322012315
 21
-5636.336862570782
 31
0.0
  0
LINE
  5
F7
330
1F
100
AcDbEntity
  8
可動棚
  6
Continuous
 62
    92
370
    13
100
AcDbLine
 10
17514.11322012315
 20
-7181.336862570768
 30
0.0
 11
17514.11322012315
 21
-7076.336862570767
 31
0.0
  0
LINE
  5
F8
330
1F
100
AcDbEntity
  8
0-2
  6
Continuous
 62
    40
370
    15
100
AcDbLine
 10
17589.11322012315
 20
8363.663137429152
 30
0.0
 11
17514.11322012315
 21
8363.663137429152
 31
0.0
  0
LINE
  5
F9
330
1F
100
AcDbEntity
  8
0-A_文字
  6
Continuous
 62
     7
370
     9
100
AcDbLine
 10
12091.61322001769
 20
-10556.33686257085
 30
0.0
 11
12091.61322001769
 21
-11306.33686257085
 31
0.0
  0
LINE
  5
FA
330
1F
100
AcDbEntity
  8
0-A_文字
  6
Continuous
 62
     7
370
     9
100
AcDbLine
 10
15841.6132202286
 20
-10556.33686257085
 30
0.0
 11
15841.6132202286
 21
-11306.33686257085
 31
0.0
  0
LINE
  5
FB
330
1F
100
AcDbEntity
  8
0-A_文字
  6
Continuous
 62
     7
370
     9
100
AcDbLine
 10
12091.61322001769
 20
-10556.33686257085
 30
0.0
 11
15841.6132202286
 21
-10556.33686257085
 31
0.0
  0
LINE
  5
FC
330
1F
100
AcDbEntity
  8
0-A_文字
  6
Continuous
 62
     7
370
     9
100
AcDbLine
 10
15841.6132202286
 20
-11306.33686257085
 30
0.0
 11
12091.61322001769
 21
-11306.33686257085
 31
0.0
  0
LINE
  5
FD
330
1F
100
AcDbEntity
  8
0-0_補助線
  6
JWW_HOJO
 62
   120
370
     5
100
AcDbLine
 10
18589.11322012315
 20
9363.663137429152
 30
0.0
 11
9344.113220123148
 21
9363.663137429152
 31
0.0
  0
LINE
  5
FE
330
1F
100
AcDbEntity
  8
0-0_補助線
  6
JWW_HOJO
 62
   120
370
     5
100
AcDbLine
 10
18589.11322012315
 20
5113.663137429148
 30
0.0
 11
9344.113220123148
 21
5113.663137429148
 31
0.0
  0
LINE
  5
FF
330
1F
100
AcDbEntity
  8
0-0_補助線
  6
JWW_HOJO
 62
   120
370
     5
100
AcDbLine
 10
17839.11322012315
 20
8613.663137429152
 30
0.0
 11
10094.11322012315
 21
8613.663137429152
 31
0.0
  0
LINE
  5
100
330
1F
100
AcDbEntity
  8
0-0_補助線
  6
JWW_HOJO
 62
   120
370
     5
100
AcDbLine
 10
17839.11322012315
 20
5863.663137429148
 30
0.0
 11
10094.11322012315
 21
5863.663137429148
 31
0.0
  0
LINE
  5
101
330
1F
100
AcDbEntity
  8
0-0_補助線
  6
JWW_HOJO
 62
   120
370
     5
100
AcDbLine
 10
17839.11322012315
 20
-8806.336862570848
 30
0.0
 11
10094.11322012315
 21
-8806.336862570848
 31
0.0
  0
LINE
  5
102
330
1F
100
AcDbEntity
  8
0-0_補助線
  6
JWW_HOJO
 62
   120
370
     5
100
AcDbLine
 10
10094.11322012315
 20
1613.663137429151
 30
0.0
 11
17839.11322012315
 21
1613.663137429151
 31
0.0
  0
LINE
  5
103
330
1F
100
AcDbEntity
  8
0-2
  6
Continuous
 62
    92
370
    13
100
AcDbLine
 10
10344.11322012315
 20
1258.663137429153
 30
0.0
 11
17589.11322012315
 21
1258.663137429153
 31
0.0
  0
LINE
  5
104
330
1F
100
AcDbEntity
  8
0-2
  6
Continuous
 62
    92
370
    13
100
AcDbLine
 10
17589.11322012315
 20
-8556.336862570848
 30
0.0
 11
10344.11322012315
 21
-8556.336862570848
 31
0.0
  0
LINE
  5
105
330
1F
100
AcDbEntity
  8
0-2
  6
Continuous
 62
    92
370
    13
100
AcDbLine
 10
10344.11322012315
 20
1363.663137429151
 30
0.0
 11
17589.11322012315
 21
1363.663137429151
 31
0.0
  0
LINE
  5
106
330
1F
100
AcDbEntity
  8
0-0_補助線
  6
JWW_HOJO
 62
   120
370
     5
100
AcDbLine
 10
8844.113220123148
 20
9863.663137429152
 30
0.0
 11
8844.113220123148
 21
4613.663137429148
 31
0.0
  0
LINE
  5
107
330
1F
100
AcDbEntity
  8
0-0_補助線
  6
JWW_HOJO
 62
   120
370
     5
100
AcDbLine
 10
9344.113220123148
 20
9363.663137429152
 30
0.0
 11
9344.113220123148
 21
5113.663137429148
 31
0.0
  0
LINE
  5
108
330
1F
100
AcDbEntity
  8
0-0_補助線
  6
JWW_HOJO
 62
   120
370
     5
100
AcDbLine
 10
10094.11322012315
 20
8613.663137429152
 30
0.0
 11
10094.11322012315
 21
5863.663137429148
 31
0.0
  0
LINE
  5
109
330
1F
100
AcDbEntity
  8
0-2
  6
Continuous
 62
    92
370
    13
100
AcDbLine
 10
10344.11322012315
 20
1363.663137429151
 30
0.0
 11
10344.11322012315
 21
1258.663137429153
 31
0.0
  0
LINE
  5
10A
330
1F
100
AcDbEntity
  8
0-0_補助線
  6
JWW_HOJO
 62
   120
370
     5
100
AcDbLine
 10
10094.11322012315
 20
1613.663137429151
 30
0.0
 11
10094.11322012315
 21
-8806.336862570848
 31
0.0
  0
LINE
  5
10B
330
1F
100
AcDbEntity
  8
0-0_補助線
  6
JWW_HOJO
 62
   120
370
     5
100
AcDbLine
 10
17839.11322012315
 20
8613.663137429152
 30
0.0
 11
17839.11322012315
 21
5863.663137429148
 31
0.0
  0
LINE
  5
10C
330
1F
100
AcDbEntity
  8
0-2
  6
Continuous
 62
    40
370
    15
100
AcDbLine
 10
17589.11322012315
 20
6113.663137429148
 30
0.0
 11
17514.11322012315
 21
6113.663137429148
 31
0.0
  0
LINE
  5
10D
330
1F
100
AcDbEntity
  8
0-2
  6
Continuous
 62
    40
370
    15
100
AcDbLine
 10
17514.11322012315
 20
6113.663137429148
 30
0.0
 11
17514.11322012315
 21
8363.663137429152
 31
0.0
  0
LINE
  5
10E
330
1F
100
AcDbEntity
  8
0-2
  6
Continuous
 62
    40
370
    15
100
AcDbLine
 10
17589.11322012315
 20
6113.663137429148
 30
0.0
 11
17589.11322012315
 21
8363.663137429152
 31
0.0
  0
LINE
  5
10F
330
1F
100
AcDbEntity
  8
0-0_補助線
  6
JWW_HOJO
 62
   120
370
     5
100
AcDbLine
 10
17839.11322012315
 20
1613.663137429151
 30
0.0
 11
17839.11322012315
 21
-8806.336862570848
 31
0.0
  0
LINE
  5
110
330
1F
100
AcDbEntity
  8
0-2
  6
Continuous
 62
    92
370
    13
100
AcDbLine
 10
17589.11322012315
 20
1258.663137429153
 30
0.0
 11
17589.11322012315
 21
-8556.336862570848
 31
0.0
  0
LINE
  5
111
330
1F
100
AcDbEntity
  8
0-2
  6
Continuous
 62
    92
370
    13
100
AcDbLine
 10
17514.11322012315
 20
1258.663137429153
 30
0.0
 11
17514.11322012315
 21
-8556.336862570848
 31
0.0
  0
LINE
  5
112
330
1F
100
AcDbEntity
  8
0-2
  6
Continuous
 62
    92
370
    13
100
AcDbLine
 10
17589.11322012315
 20
1258.663137429153
 30
0.0
 11
17589.11322012315
 21
1363.663137429151
 31
0.0
  0
LINE
  5
113
330
1F
100
AcDbEntity
  8
0-A_文字
  6
Continuous
 62
     7
370
     9
100
AcDbLine
 10
12216.61322012315
 20
3863.663137429157
 30
0.0
 11
15716.61322012316
 21
3863.663137429157
 31
0.0
  0
LINE
  5
114
330
1F
100
AcDbEntity
  8
0-A_文字
  6
Continuous
 62
     7
370
     9
100
AcDbLine
 10
15716.61322012316
 20
4613.663137429148
 30
0.0
 11
12216.61322012315
 21
4613.663137429148
 31
0.0
  0
LINE
  5
115
330
1F
100
AcDbEntity
  8
0-A_文字
  6
Continuous
 62
     7
370
     9
100
AcDbLine
 10
12216.61322012315
 20
4613.663137429148
 30
0.0
 11
12216.61322012315
 21
3863.663137429157
 31
0.0
  0
LINE
  5
116
330
1F
100
AcDbEntity
  8
0-A_文字
  6
Continuous
 62
     7
370
     9
100
AcDbLine
 10
15716.61322012316
 20
4613.663137429148
 30
0.0
 11
15716.61322012316
 21
3863.663137429157
 31
0.0
  0
TEXT
  5
117
330
1F
100
AcDbEntity
  8
0-B_寸法
  6
Continuous
 62
     7
370
   211
100
AcDbText
 10
9262.446316518279
 20
-4445.20775819067
 30
0.0
 40
304.8
  1
30
 50
90.0
 41
1.0625
  7
ＭＳ ゴシック
100
AcDbText
  0
TEXT
  5
118
330
1F
100
AcDbEntity
  8
0-B_寸法
  6
Continuous
 62
     7
370
   211
100
AcDbText
 10
9262.446316518279
 20
369.5328793469031
 30
0.0
 40
304.8
  1
30
 50
90.0
 41
1.0625
  7
ＭＳ ゴシック
100
AcDbText
  0
TEXT
  5
119
330
1F
100
AcDbEntity
  8
0-B_寸法
  6
Continuous
 62
     7
370
   211
100
AcDbText
 10
9262.446316518279
 20
-6913.83686257085
 30
0.0
 40
304.8
  1
787
 50
90.0
 41
1.083333333333333
  7
ＭＳ ゴシック
100
AcDbText
  0
TEXT
  5
11A
330
1F
100
AcDbEntity
  8
0-B_寸法
  6
Continuous
 62
     7
370
   211
100
AcDbText
 10
9262.446316518279
 20
901.163137429154
 30
0.0
 40
304.8
  1
58
 50
90.0
 41
1.0625
  7
ＭＳ ゴシック
100
AcDbText
  0
TEXT
  5
11B
330
1F
100
AcDbEntity
  8
0-B_寸法
  6
Continuous
 62
     7
370
   211
100
AcDbText
 10
9262.446316518279
 20
-2376.336862570849
 30
0.0
 40
304.8
  1
1,058
 50
90.0
 41
1.1
  7
ＭＳ ゴシック
100
AcDbText
  0
LINE
  5
11C
330
1F
100
AcDbEntity
  8
0-B_寸法
  6
Continuous
 62
   120
370
     5
100
AcDbLine
 10
18589.11322012315
 20
-8556.336862570848
 30
0.0
 11
17839.11322012315
 21
-8556.336862570848
 31
0.0
  0
TEXT
  5
11D
330
1F
100
AcDbEntity
  8
0-B_寸法
  6
Continuous
 62
     7
370
   211
100
AcDbText
 10
18532.71322012315
 20
-6641.336862570824
 30
0.0
 40
304.8
  1
896
 50
90.0
 41
1.083333333333333
  7
ＭＳ ゴシック
100
AcDbText
  0
LINE
  5
11E
330
1F
100
AcDbEntity
  8
固定棚
  6
Continuous
 62
    92
370
    13
100
AcDbLine
 10
16019.11322012315
 20
6113.663137429148
 30
0.0
 11
17514.11322012315
 21
6113.663137429148
 31
0.0
  0
LINE
  5
11F
330
1F
100
AcDbEntity
  8
固定棚
  6
Continuous
 62
    92
370
    13
100
AcDbLine
 10
17514.11322012315
 20
8363.663137429152
 30
0.0
 11
16019.11322012315
 21
8363.663137429152
 31
0.0
  0
LINE
  5
120
330
1F
100
AcDbEntity
  8
0-2
  6
Continuous
 62
    40
370
    15
100
AcDbLine
 10
16019.11322012315
 20
8363.663137429152
 30
0.0
 11
15914.11322012316
 21
8363.663137429152
 31
0.0
  0
LINE
  5
121
330
1F
100
AcDbEntity
  8
0-2
  6
Continuous
 62
    40
370
    15
100
AcDbLine
 10
15914.11322012316
 20
6113.663137429148
 30
0.0
 11
15914.11322012316
 21
8363.663137429152
 31
0.0
  0
LINE
  5
122
330
1F
100
AcDbEntity
  8
0-2
  6
Continuous
 62
    40
370
    15
100
AcDbLine
 10
16019.11322012315
 20
6113.663137429148
 30
0.0
 11
16019.11322012315
 21
8363.663137429152
 31
0.0
  0
LINE
  5
123
330
1F
100
AcDbEntity
  8
0-2
  6
Continuous
 62
    40
370
    15
100
AcDbLine
 10
16019.11322012315
 20
6113.663137429148
 30
0.0
 11
15914.11322012316
 21
6113.663137429148
 31
0.0
  0
LINE
  5
124
330
1F
100
AcDbEntity
  8
0-2
  6
Continuous
 62
    40
370
    15
100
AcDbLine
 10
13619.11322012316
 20
8363.663137429152
 30
0.0
 11
13514.11322012316
 21
8363.663137429152
 31
0.0
  0
LINE
  5
125
330
1F
100
AcDbEntity
  8
0-2
  6
Continuous
 62
    40
370
    15
100
AcDbLine
 10
13514.11322012316
 20
6113.663137429148
 30
0.0
 11
13514.11322012316
 21
8363.663137429152
 31
0.0
  0
LINE
  5
126
330
1F
100
AcDbEntity
  8
0-2
  6
Continuous
 62
    40
370
    15
100
AcDbLine
 10
13619.11322012316
 20
6113.663137429148
 30
0.0
 11
13619.11322012316
 21
8363.663137429152
 31
0.0
  0
LINE
  5
127
330
1F
100
AcDbEntity
  8
0-2
  6
Continuous
 62
    40
370
    15
100
AcDbLine
 10
13619.11322012316
 20
6113.663137429148
 30
0.0
 11
13514.11322012316
 21
6113.663137429148
 31
0.0
  0
LINE
  5
128
330
1F
100
AcDbEntity
  8
固定棚
  6
Continuous
 62
    92
370
    13
100
AcDbLine
 10
13619.11322012316
 20
6113.663137429148
 30
0.0
 11
15914.11322012315
 21
6113.663137429148
 31
0.0
  0
LINE
  5
129
330
1F
100
AcDbEntity
  8
固定棚
  6
Continuous
 62
    92
370
    13
100
AcDbLine
 10
15914.11322012315
 20
8363.663137429152
 30
0.0
 11
13619.11322012316
 21
8363.663137429152
 31
0.0
  0
TEXT
  5
12A
330
1F
100
AcDbEntity
  8
0-B_寸法
  6
Continuous
 62
     7
370
   211
100
AcDbText
 10
9287.713220123149
 20
6913.663137429151
 30
0.0
 40
304.8
  1
450
 50
90.0
 41
1.083333333333333
  7
ＭＳ ゴシック
100
AcDbText
  0
LINE
  5
12B
330
1F
100
AcDbEntity
  8
0-B_寸法
  6
Continuous
 62
   120
370
     5
100
AcDbLine
 10
13514.11322012315
 20
5113.663137429148
 30
0.0
 11
13514.11322012315
 21
5863.663137429148
 31
0.0
  0
LWPOLYLINE
  5
12C
330
1F
100
AcDbEntity
  8
0-B_寸法
  6
Continuous
 62
     7
370
     9
100
AcDbPolyline
 90
        4
 70
     1
 43
20.0
 10
13524.11322012315
 20
5113.663137429148
 42
0.4142135623731
 10
13514.11322012315
 20
5123.663137429148
 42
0.4142135623731
 10
13504.11322012315
 20
5113.663137429148
 42
0.4142135623731
 10
13514.11322012315
 20
5103.663137429148
 42
0.4142135623731
  0
LINE
  5
12D
330
1F
100
AcDbEntity
  8
0-B_寸法
  6
Continuous
 62
   120
370
     5
100
AcDbLine
 10
13619.11322012315
 20
5113.663137429148
 30
0.0
 11
13514.11322012315
 21
5113.663137429148
 31
0.0
  0
LINE
  5
12E
330
1F
100
AcDbEntity
  8
0-B_寸法
  6
Continuous
 62
   120
370
     5
100
AcDbLine
 10
13619.11322012315
 20
5113.663137429148
 30
0.0
 11
13619.11322012315
 21
5863.663137429148
 31
0.0
  0
LWPOLYLINE
  5
12F
330
1F
100
AcDbEntity
  8
0-B_寸法
  6
Continuous
 62
     7
370
     9
100
AcDbPolyline
 90
        4
 70
     1
 43
20.0
 10
13629.11322012315
 20
5113.663137429148
 42
0.4142135623731
 10
13619.11322012315
 20
5123.663137429148
 42
0.4142135623731
 10
13609.11322012315
 20
5113.663137429148
 42
0.4142135623731
 10
13619.11322012315
 20
5103.663137429148
 42
0.4142135623731
  0
TEXT
  5
130
330
1F
100
AcDbEntity
  8
0-B_寸法
  6
Continuous
 62
     7
370
   211
100
AcDbText
 10
13092.82385413682
 20
5170.063137429148
 30
0.0
 40
304.8
  1
21
 41
1.062499999999886
  7
ＭＳ ゴシック
100
AcDbText
  0
LINE
  5
131
330
1F
100
AcDbEntity
  8
0-B_寸法
  6
Continuous
 62
   120
370
     5
100
AcDbLine
 10
17514.11322012315
 20
5113.663137429148
 30
0.0
 11
16019.11322012315
 21
5113.663137429148
 31
0.0
  0
LINE
  5
132
330
1F
100
AcDbEntity
  8
桟木・巾木
  6
Continuous
 62
     7
370
     9
100
AcDbLine
 10
13514.11322012316
 20
8288.663137429152
 30
0.0
 11
10344.11322012315
 21
8288.663137429152
 31
0.0
  0
LINE
  5
133
330
1F
100
AcDbEntity
  8
桟木・巾木
  6
Continuous
 62
     7
370
     9
100
AcDbLine
 10
13514.11322012316
 20
8363.663137429152
 30
0.0
 11
10344.11322012315
 21
8363.663137429152
 31
0.0
  0
LINE
  5
134
330
1F
100
AcDbEntity
  8
桟木・巾木
  6
Continuous
 62
     7
370
     9
100
AcDbLine
 10
10344.11322012315
 20
8363.663137429152
 30
0.0
 11
10344.11322012315
 21
8288.663137429152
 31
0.0
  0
TEXT
  5
135
330
1F
100
AcDbEntity
  8
0-B_寸法
  6
Continuous
 62
     7
370
   211
100
AcDbText
 10
11304.11322012315
 20
4775.686342927353
 30
0.0
 40
304.8
  1
ﾌﾘｰｶｯﾄ
 41
1.104166666666667
  7
ＭＳ ゴシック
100
AcDbText
  0
TEXT
  5
136
330
1F
100
AcDbEntity
  8
0-B_寸法
  6
Continuous
 62
     7
370
   211
100
AcDbText
 10
11416.61322012315
 20
5170.063137429148
 30
0.0
 40
304.8
  1
～634
 41
1.1
  7
ＭＳ ゴシック
100
AcDbText
  0
LINE
  5
137
330
1F
100
AcDbEntity
  8
0-B_寸法
  6
Continuous
 62
   120
370
     5
100
AcDbLine
 10
16019.11322012315
 20
5113.663137429148
 30
0.0
 11
15914.11322012316
 21
5113.663137429148
 31
0.0
  0
LWPOLYLINE
  5
138
330
1F
100
AcDbEntity
  8
0-B_寸法
  6
Continuous
 62
     7
370
     9
100
AcDbPolyline
 90
        4
 70
     1
 43
20.0
 10
16029.11322012315
 20
5113.663137429148
 42
0.4142135623731
 10
16019.11322012315
 20
5123.663137429148
 42
0.4142135623731
 10
16009.11322012315
 20
5113.663137429148
 42
0.4142135623731
 10
16019.11322012315
 20
5103.663137429148
 42
0.4142135623731
  0
LWPOLYLINE
  5
139
330
1F
100
AcDbEntity
  8
0-B_寸法
  6
Continuous
 62
     7
370
     9
100
AcDbPolyline
 90
        4
 70
     1
 43
20.0
 10
15924.11322012316
 20
5113.663137429148
 42
0.4142135623731
 10
15914.11322012316
 20
5123.663137429148
 42
0.4142135623731
 10
15904.11322012316
 20
5113.663137429148
 42
0.4142135623731
 10
15914.11322012316
 20
5103.663137429148
 42
0.4142135623731
  0
LINE
  5
13A
330
1F
100
AcDbEntity
  8
0-B_寸法
  6
Continuous
 62
   120
370
     5
100
AcDbLine
 10
16019.11322012315
 20
5113.663137429148
 30
0.0
 11
16019.11322012315
 21
5863.663137429148
 31
0.0
  0
LINE
  5
13B
330
1F
100
AcDbEntity
  8
0-B_寸法
  6
Continuous
 62
   120
370
     5
100
AcDbLine
 10
15914.11322012316
 20
5113.663137429148
 30
0.0
 11
15914.11322012316
 21
5863.663137429148
 31
0.0
  0
LINE
  5
13C
330
1F
100
AcDbEntity
  8
0-B_寸法
  6
Continuous
 62
   120
370
     5
100
AcDbLine
 10
15914.11322012316
 20
5113.663137429148
 30
0.0
 11
13619.11322012315
 21
5113.663137429148
 31
0.0
  0
TEXT
  5
13D
330
1F
100
AcDbEntity
  8
0-B_寸法
  6
Continuous
 62
     7
370
   211
100
AcDbText
 10
14441.61322012316
 20
5170.063137429148
 30
0.0
 40
304.8
  1
459
 41
1.083333333333333
  7
ＭＳ ゴシック
100
AcDbText
  0
TEXT
  5
13E
330
1F
100
AcDbEntity
  8
0-B_寸法
  6
Continuous
 62
     7
370
   211
100
AcDbText
 10
15431.00115472743
 20
5170.063137429148
 30
0.0
 40
304.8
  1
21
 41
1.0625
  7
ＭＳ ゴシック
100
AcDbText
  0
TEXT
  5
13F
330
1F
100
AcDbEntity
  8
0-B_寸法
  6
Continuous
 62
     7
370
   211
100
AcDbText
 10
16441.61322012315
 20
5170.063137429148
 30
0.0
 40
304.8
  1
299
 41
1.083333333333333
  7
ＭＳ ゴシック
100
AcDbText
  0
LINE
  5
140
330
1F
100
AcDbEntity
  8
0-B_寸法
  6
Continuous
 62
   120
370
     5
100
AcDbLine
 10
13514.11322012315
 20
5113.663137429148
 30
0.0
 11
10344.11322012315
 21
5113.663137429148
 31
0.0
  0
LINE
  5
141
330
1F
100
AcDbEntity
  8
可動棚
  6
Continuous
 62
    92
370
    13
100
AcDbLine
 10
16019.11322012315
 20
-491.3368625708358
 30
0.0
 11
17514.11322012315
 21
-491.3368625708358
 31
0.0
  0
LINE
  5
142
330
1F
100
AcDbEntity
  8
可動棚
  6
Continuous
 62
    92
370
    13
100
AcDbLine
 10
16019.11322012315
 20
-7181.336862570768
 30
0.0
 11
17514.11322012315
 21
-7181.336862570768
 31
0.0
  0
LINE
  5
143
330
1F
100
AcDbEntity
  8
可動棚
  6
Continuous
 62
    92
370
    13
100
AcDbLine
 10
16019.11322012315
 20
-596.3368625708341
 30
0.0
 11
17514.11322012315
 21
-596.3368625708341
 31
0.0
  0
LINE
  5
144
330
1F
100
AcDbEntity
  8
可動棚
  6
Continuous
 62
    92
370
    13
100
AcDbLine
 10
16019.11322012315
 20
-2251.336862570817
 30
0.0
 11
17514.11322012315
 21
-2251.336862570817
 31
0.0
  0
LINE
  5
145
330
1F
100
AcDbEntity
  8
可動棚
  6
Continuous
 62
    92
370
    13
100
AcDbLine
 10
16019.11322012315
 20
-2356.336862570816
 30
0.0
 11
17514.11322012315
 21
-2356.336862570816
 31
0.0
  0
LINE
  5
146
330
1F
100
AcDbEntity
  8
可動棚
  6
Continuous
 62
    92
370
    13
100
AcDbLine
 10
16019.11322012315
 20
-5636.336862570782
 30
0.0
 11
17514.11322012315
 21
-5636.336862570782
 31
0.0
  0
LINE
  5
147
330
1F
100
AcDbEntity
  8
可動棚
  6
Continuous
 62
    92
370
    13
100
AcDbLine
 10
16019.11322012315
 20
-5741.336862570781
 30
0.0
 11
17514.11322012315
 21
-5741.336862570781
 31
0.0
  0
LINE
  5
148
330
1F
100
AcDbEntity
  8
可動棚
  6
Continuous
 62
    92
370
    13
100
AcDbLine
 10
16019.11322012315
 20
-7076.336862570767
 30
0.0
 11
17514.11322012315
 21
-7076.336862570767
 31
0.0
  0
LINE
  5
149
330
1F
100
AcDbEntity
  8
0-B_寸法
  6
Continuous
 62
   120
370
     5
100
AcDbLine
 10
10419.11322012315
 20
-9556.336862570848
 30
0.0
 11
13514.11322012316
 21
-9556.336862570848
 31
0.0
  0
LINE
  5
14A
330
1F
100
AcDbEntity
  8
0-B_寸法
  6
Continuous
 62
   120
370
     5
100
AcDbLine
 10
13514.11322012316
 20
-9556.336862570848
 30
0.0
 11
13514.11322012316
 21
-8806.336862570848
 31
0.0
  0
LINE
  5
14B
330
1F
100
AcDbEntity
  8
0-B_寸法
  6
Continuous
 62
   120
370
     5
100
AcDbLine
 10
13514.11322012316
 20
-9556.336862570848
 30
0.0
 11
13619.11322012315
 21
-9556.336862570848
 31
0.0
  0
LINE
  5
14C
330
1F
100
AcDbEntity
  8
0-B_寸法
  6
Continuous
 62
   120
370
     5
100
AcDbLine
 10
13619.11322012315
 20
-9556.336862570848
 30
0.0
 11
13619.11322012315
 21
-8806.336862570848
 31
0.0
  0
LWPOLYLINE
  5
14D
330
1F
100
AcDbEntity
  8
0-B_寸法
  6
Continuous
 62
     7
370
     9
100
AcDbPolyline
 90
        4
 70
     1
 43
20.0
 10
13524.11322012316
 20
-9556.336862570848
 42
0.4142135623731
 10
13514.11322012316
 20
-9546.336862570848
 42
0.4142135623731
 10
13504.11322012316
 20
-9556.336862570848
 42
0.4142135623731
 10
13514.11322012316
 20
-9566.336862570846
 42
0.4142135623731
  0
LWPOLYLINE
  5
14E
330
1F
100
AcDbEntity
  8
0-B_寸法
  6
Continuous
 62
     7
370
     9
100
AcDbPolyline
 90
        4
 70
     1
 43
20.0
 10
13629.11322012315
 20
-9556.336862570848
 42
0.4142135623731
 10
13619.11322012315
 20
-9546.336862570848
 42
0.4142135623731
 10
13609.11322012315
 20
-9556.336862570848
 42
0.4142135623731
 10
13619.11322012315
 20
-9566.336862570846
 42
0.4142135623731
  0
LINE
  5
14F
330
1F
100
AcDbEntity
  8
可動棚
  6
Continuous
 62
    92
370
    13
100
AcDbLine
 10
13619.11322012315
 20
-491.3368625708358
 30
0.0
 11
13619.11322012315
 21
-596.3368625708341
 31
0.0
  0
LINE
  5
150
330
1F
100
AcDbEntity
  8
可動棚
  6
Continuous
 62
    92
370
    13
100
AcDbLine
 10
13619.11322012315
 20
-2251.336862570817
 30
0.0
 11
13619.11322012315
 21
-2356.336862570816
 31
0.0
  0
LINE
  5
151
330
1F
100
AcDbEntity
  8
可動棚
  6
Continuous
 62
    92
370
    13
100
AcDbLine
 10
13619.11322012315
 20
-5636.336862570782
 30
0.0
 11
13619.11322012315
 21
-5741.336862570781
 31
0.0
  0
LINE
  5
152
330
1F
100
AcDbEntity
  8
0-2
  6
Continuous
 62
    92
370
    13
100
AcDbLine
 10
13619.11322012315
 20
-8556.336862570848
 30
0.0
 11
13619.11322012315
 21
1258.663137429153
 31
0.0
  0
LINE
  5
153
330
1F
100
AcDbEntity
  8
0-2
  6
Continuous
 62
    92
370
    13
100
AcDbLine
 10
13514.11322012316
 20
-8556.336862570848
 30
0.0
 11
13514.11322012316
 21
1258.663137429153
 31
0.0
  0
TEXT
  5
154
330
1F
100
AcDbEntity
  8
0-B_寸法
  6
Continuous
 62
     7
370
   211
100
AcDbText
 10
13047.3221699082
 20
-9499.936862570848
 30
0.0
 40
304.8
  1
21
 41
1.062500000000114
  7
ＭＳ ゴシック
100
AcDbText
  0
LINE
  5
155
330
1F
100
AcDbEntity
  8
0-2
  6
Continuous
 62
    92
370
    13
100
AcDbLine
 10
16019.11322012315
 20
-8556.336862570848
 30
0.0
 11
16019.11322012315
 21
1258.663137429153
 31
0.0
  0
LINE
  5
156
330
1F
100
AcDbEntity
  8
0-2
  6
Continuous
 62
    92
370
    13
100
AcDbLine
 10
15914.11322012315
 20
-8556.336862570848
 30
0.0
 11
15914.11322012315
 21
1258.663137429153
 31
0.0
  0
LINE
  5
157
330
1F
100
AcDbEntity
  8
0-A_文字
  6
Continuous
 62
     7
370
     9
100
AcDbLine
 10
16134.22799220023
 20
-548.963567424363
 30
0.0
 11
16309.31667127996
 21
-245.7010794281388
 31
0.0
  0
LINE
  5
158
330
1F
100
AcDbEntity
  8
0-A_文字
  6
Continuous
 62
     7
370
     9
100
AcDbLine
 10
17309.31667127996
 20
-245.7010794281388
 30
0.0
 11
16309.31667127996
 21
-245.7010794281388
 31
0.0
  0
TEXT
  5
159
330
1F
100
AcDbEntity
  8
0-A_文字
  6
Continuous
 62
     7
370
     9
100
AcDbText
 10
16309.31667127996
 20
-203.4010794281416
 30
0.0
 40
228.6
  1
可動棚
 41
1.111111111111108
  7
ＭＳ ゴシック
100
AcDbText
  0
LINE
  5
15A
330
1F
100
AcDbEntity
  8
0-A_文字
  6
Continuous
 62
     7
370
     9
100
AcDbLine
 10
16134.22799220023
 20
-2308.963567424345
 30
0.0
 11
16309.31667127996
 21
-2005.70107942812
 31
0.0
  0
LINE
  5
15B
330
1F
100
AcDbEntity
  8
0-A_文字
  6
Continuous
 62
     7
370
     9
100
AcDbLine
 10
17309.31667127996
 20
-2005.70107942812
 30
0.0
 11
16309.31667127996
 21
-2005.70107942812
 31
0.0
  0
TEXT
  5
15C
330
1F
100
AcDbEntity
  8
0-A_文字
  6
Continuous
 62
     7
370
     9
100
AcDbText
 10
16309.31667127996
 20
-1963.401079428124
 30
0.0
 40
228.6
  1
可動棚
 41
1.111111111111108
  7
ＭＳ ゴシック
100
AcDbText
  0
LINE
  5
15D
330
1F
100
AcDbEntity
  8
0-A_文字
  6
Continuous
 62
     7
370
     9
100
AcDbLine
 10
16134.22799220023
 20
-5693.963567424311
 30
0.0
 11
16309.31667127996
 21
-5390.701079428085
 31
0.0
  0
LINE
  5
15E
330
1F
100
AcDbEntity
  8
0-A_文字
  6
Continuous
 62
     7
370
     9
100
AcDbLine
 10
17309.31667127996
 20
-5390.701079428085
 30
0.0
 11
16309.31667127996
 21
-5390.701079428085
 31
0.0
  0
TEXT
  5
15F
330
1F
100
AcDbEntity
  8
0-A_文字
  6
Continuous
 62
     7
370
     9
100
AcDbText
 10
16309.31667127996
 20
-5348.401079428089
 30
0.0
 40
228.6
  1
可動棚
 41
1.111111111111108
  7
ＭＳ ゴシック
100
AcDbText
  0
LINE
  5
160
330
1F
100
AcDbEntity
  8
0-A_文字
  6
Continuous
 62
     7
370
     9
100
AcDbLine
 10
16134.22799220023
 20
-7133.963567424297
 30
0.0
 11
16309.31667127996
 21
-6830.701079428073
 31
0.0
  0
LINE
  5
161
330
1F
100
AcDbEntity
  8
0-A_文字
  6
Continuous
 62
     7
370
     9
100
AcDbLine
 10
17309.31667127996
 20
-6830.701079428073
 30
0.0
 11
16309.31667127996
 21
-6830.701079428073
 31
0.0
  0
TEXT
  5
162
330
1F
100
AcDbEntity
  8
0-A_文字
  6
Continuous
 62
     7
370
     9
100
AcDbText
 10
16309.31667127996
 20
-6788.401079428076
 30
0.0
 40
228.6
  1
可動棚
 41
1.111111111111108
  7
ＭＳ ゴシック
100
AcDbText
  0
LINE
  5
163
330
1F
100
AcDbEntity
  8
0-A_文字
  6
Continuous
 62
     7
370
     9
100
AcDbLine
 10
16134.22799220023
 20
-4131.649243359351
 30
0.0
 11
16309.31667127996
 21
-3828.386755363128
 31
0.0
  0
LINE
  5
164
330
1F
100
AcDbEntity
  8
0-A_文字
  6
Continuous
 62
     7
370
     9
100
AcDbLine
 10
17345.2351197551
 20
-3828.386755363128
 30
0.0
 11
16309.31667127996
 21
-3828.386755363128
 31
0.0
  0
TEXT
  5
165
330
1F
100
AcDbEntity
  8
0-A_文字
  6
Continuous
 62
     7
370
     9
100
AcDbText
 10
16345.2351197551
 20
-3786.086755363128
 30
0.0
 40
228.6
  1
固定棚
 41
1.111111111111108
  7
ＭＳ ゴシック
100
AcDbText
  0
LINE
  5
166
330
1F
100
AcDbEntity
  8
ハッチ
  6
Continuous
 62
   120
370
     5
100
AcDbLine
 10
16019.11322012315
 20
-4117.312050398594
 30
0.0
 11
16060.08840795096
 21
-4076.336862570785
 31
0.0
  0
LINE
  5
167
330
1F
100
AcDbEntity
  8
ハッチ
  6
Continuous
 62
   120
370
     5
100
AcDbLine
 10
16025.7990860696
 20
-4181.336862570813
 30
0.0
 11
16130.79908606962
 21
-4076.336862570793
 31
0.0
  0
LINE
  5
168
330
1F
100
AcDbEntity
  8
ハッチ
  6
Continuous
 62
   120
370
     5
100
AcDbLine
 10
16096.50976418832
 20
-4181.336862570765
 30
0.0
 11
16201.50976418828
 21
-4076.336862570798
 31
0.0
  0
LINE
  5
169
330
1F
100
AcDbEntity
  8
ハッチ
  6
Continuous
 62
   120
370
     5
100
AcDbLine
 10
16167.22044230697
 20
-4181.336862570771
 30
0.0
 11
16272.22044230695
 21
-4076.336862570804
 31
0.0
  0
LINE
  5
16A
330
1F
100
AcDbEntity
  8
ハッチ
  6
Continuous
 62
   120
370
     5
100
AcDbLine
 10
16237.93112042563
 20
-4181.336862570778
 30
0.0
 11
16342.9311204256
 21
-4076.336862570808
 31
0.0
  0
LINE
  5
16B
330
1F
100
AcDbEntity
  8
ハッチ
  6
Continuous
 62
   120
370
     5
100
AcDbLine
 10
16308.64179854429
 20
-4181.336862570783
 30
0.0
 11
16413.64179854431
 21
-4076.336862570763
 31
0.0
  0
LINE
  5
16C
330
1F
100
AcDbEntity
  8
ハッチ
  6
Continuous
 62
   120
370
     5
100
AcDbLine
 10
16379.35247666296
 20
-4181.336862570786
 30
0.0
 11
16484.35247666298
 21
-4076.336862570763
 31
0.0
  0
LINE
  5
16D
330
1F
100
AcDbEntity
  8
ハッチ
  6
Continuous
 62
   120
370
     5
100
AcDbLine
 10
16450.06315478162
 20
-4181.33686257079
 30
0.0
 11
16555.06315478164
 21
-4076.336862570767
 31
0.0
  0
LINE
  5
16E
330
1F
100
AcDbEntity
  8
ハッチ
  6
Continuous
 62
   120
370
     5
100
AcDbLine
 10
16520.77383290028
 20
-4181.336862570794
 30
0.0
 11
16625.77383290031
 21
-4076.336862570774
 31
0.0
  0
LINE
  5
16F
330
1F
100
AcDbEntity
  8
ハッチ
  6
Continuous
 62
   120
370
     5
100
AcDbLine
 10
16591.48451101895
 20
-4181.336862570799
 30
0.0
 11
16696.48451101897
 21
-4076.336862570775
 31
0.0
  0
LINE
  5
170
330
1F
100
AcDbEntity
  8
ハッチ
  6
Continuous
 62
   120
370
     5
100
AcDbLine
 10
16662.1951891376
 20
-4181.336862570805
 30
0.0
 11
16767.19518913763
 21
-4076.336862570781
 31
0.0
  0
LINE
  5
171
330
1F
100
AcDbEntity
  8
ハッチ
  6
Continuous
 62
   120
370
     5
100
AcDbLine
 10
16732.90586725627
 20
-4181.336862570811
 30
0.0
 11
16837.90586725629
 21
-4076.336862570785
 31
0.0
  0
LINE
  5
172
330
1F
100
AcDbEntity
  8
ハッチ
  6
Continuous
 62
   120
370
     5
100
AcDbLine
 10
16803.61654537497
 20
-4181.336862570775
 30
0.0
 11
16908.61654537499
 21
-4076.336862570756
 31
0.0
  0
LINE
  5
173
330
1F
100
AcDbEntity
  8
ハッチ
  6
Continuous
 62
   120
370
     5
100
AcDbLine
 10
16874.32722349363
 20
-4181.336862570783
 30
0.0
 11
16979.32722349365
 21
-4076.33686257076
 31
0.0
  0
LINE
  5
174
330
1F
100
AcDbEntity
  8
ハッチ
  6
Continuous
 62
   120
370
     5
100
AcDbLine
 10
16945.0379016123
 20
-4181.336862570788
 30
0.0
 11
17050.03790161231
 21
-4076.336862570767
 31
0.0
  0
LINE
  5
175
330
1F
100
AcDbEntity
  8
ハッチ
  6
Continuous
 62
   120
370
     5
100
AcDbLine
 10
17015.74857973076
 20
-4181.336862570811
 30
0.0
 11
17120.74857973077
 21
-4076.336862570785
 31
0.0
  0
LINE
  5
176
330
1F
100
AcDbEntity
  8
ハッチ
  6
Continuous
 62
   120
370
     5
100
AcDbLine
 10
17086.45925784942
 20
-4181.336862570815
 30
0.0
 11
17191.45925784944
 21
-4076.336862570793
 31
0.0
  0
LINE
  5
177
330
1F
100
AcDbEntity
  8
ハッチ
  6
Continuous
 62
   120
370
     5
100
AcDbLine
 10
17157.16993596813
 20
-4181.336862570767
 30
0.0
 11
17262.1699359681
 21
-4076.336862570798
 31
0.0
  0
LINE
  5
178
330
1F
100
AcDbEntity
  8
ハッチ
  6
Continuous
 62
   120
370
     5
100
AcDbLine
 10
17227.8806140868
 20
-4181.336862570771
 30
0.0
 11
17332.88061408676
 21
-4076.336862570808
 31
0.0
  0
LINE
  5
179
330
1F
100
AcDbEntity
  8
ハッチ
  6
Continuous
 62
   120
370
     5
100
AcDbLine
 10
17298.59129220545
 20
-4181.336862570781
 30
0.0
 11
17403.59129220542
 21
-4076.336862570808
 31
0.0
  0
LINE
  5
17A
330
1F
100
AcDbEntity
  8
ハッチ
  6
Continuous
 62
   120
370
     5
100
AcDbLine
 10
17369.30197032412
 20
-4181.336862570786
 30
0.0
 11
17474.30197032413
 21
-4076.336862570763
 31
0.0
  0
LINE
  5
17B
330
1F
100
AcDbEntity
  8
固定棚
  6
Continuous
 62
    92
370
    13
100
AcDbLine
 10
16019.11322012315
 20
-4076.336862570798
 30
0.0
 11
16019.11322012315
 21
-4181.336862570801
 31
0.0
  0
LINE
  5
17C
330
1F
100
AcDbEntity
  8
固定棚
  6
Continuous
 62
    92
370
    13
100
AcDbLine
 10
17514.11322012315
 20
-4076.336862570798
 30
0.0
 11
16019.11322012315
 21
-4076.336862570798
 31
0.0
  0
LINE
  5
17D
330
1F
100
AcDbEntity
  8
固定棚
  6
Continuous
 62
    92
370
    13
100
AcDbLine
 10
17514.11322012315
 20
-4181.336862570801
 30
0.0
 11
16019.11322012315
 21
-4181.336862570801
 31
0.0
  0
LINE
  5
17E
330
1F
100
AcDbEntity
  8
ハッチ
  6
Continuous
 62
   120
370
     5
100
AcDbLine
 10
17440.0126484428
 20
-4181.336862570767
 30
0.0
 11
17514.11322012315
 21
-4107.236290890412
 31
0.0
  0
LINE
  5
17F
330
1F
100
AcDbEntity
  8
ハッチ
  6
Continuous
 62
   120
370
     5
100
AcDbLine
 10
17510.72332656146
 20
-4181.336862570771
 30
0.0
 11
17514.11322012315
 21
-4177.946969009081
 31
0.0
  0
LINE
  5
180
330
1F
100
AcDbEntity
  8
ハッチ
  6
Continuous
 62
   120
370
     5
100
AcDbLine
 10
14425.7990860696
 20
-4181.336862570813
 30
0.0
 11
14530.79908606962
 21
-4076.336862570793
 31
0.0
  0
LINE
  5
181
330
1F
100
AcDbEntity
  8
ハッチ
  6
Continuous
 62
   120
370
     5
100
AcDbLine
 10
14496.50976418832
 20
-4181.336862570765
 30
0.0
 11
14601.50976418828
 21
-4076.336862570798
 31
0.0
  0
LINE
  5
182
330
1F
100
AcDbEntity
  8
ハッチ
  6
Continuous
 62
   120
370
     5
100
AcDbLine
 10
14567.22044230697
 20
-4181.336862570771
 30
0.0
 11
14672.22044230695
 21
-4076.336862570804
 31
0.0
  0
LINE
  5
183
330
1F
100
AcDbEntity
  8
ハッチ
  6
Continuous
 62
   120
370
     5
100
AcDbLine
 10
14637.93112042563
 20
-4181.336862570778
 30
0.0
 11
14742.9311204256
 21
-4076.336862570808
 31
0.0
  0
LINE
  5
184
330
1F
100
AcDbEntity
  8
ハッチ
  6
Continuous
 62
   120
370
     5
100
AcDbLine
 10
14708.64179854429
 20
-4181.336862570783
 30
0.0
 11
14813.64179854431
 21
-4076.336862570763
 31
0.0
  0
LINE
  5
185
330
1F
100
AcDbEntity
  8
ハッチ
  6
Continuous
 62
   120
370
     5
100
AcDbLine
 10
14779.35247666296
 20
-4181.336862570786
 30
0.0
 11
14884.35247666298
 21
-4076.336862570763
 31
0.0
  0
LINE
  5
186
330
1F
100
AcDbEntity
  8
ハッチ
  6
Continuous
 62
   120
370
     5
100
AcDbLine
 10
14850.06315478162
 20
-4181.33686257079
 30
0.0
 11
14955.06315478165
 21
-4076.336862570767
 31
0.0
  0
LINE
  5
187
330
1F
100
AcDbEntity
  8
ハッチ
  6
Continuous
 62
   120
370
     5
100
AcDbLine
 10
14920.77383290028
 20
-4181.336862570794
 30
0.0
 11
15025.77383290031
 21
-4076.336862570774
 31
0.0
  0
LINE
  5
188
330
1F
100
AcDbEntity
  8
ハッチ
  6
Continuous
 62
   120
370
     5
100
AcDbLine
 10
14991.48451101895
 20
-4181.336862570799
 30
0.0
 11
15096.48451101897
 21
-4076.336862570775
 31
0.0
  0
LINE
  5
189
330
1F
100
AcDbEntity
  8
ハッチ
  6
Continuous
 62
   120
370
     5
100
AcDbLine
 10
15062.1951891376
 20
-4181.336862570805
 30
0.0
 11
15167.19518913764
 21
-4076.336862570781
 31
0.0
  0
LINE
  5
18A
330
1F
100
AcDbEntity
  8
ハッチ
  6
Continuous
 62
   120
370
     5
100
AcDbLine
 10
15132.90586725627
 20
-4181.336862570811
 30
0.0
 11
15237.90586725629
 21
-4076.336862570785
 31
0.0
  0
LINE
  5
18B
330
1F
100
AcDbEntity
  8
ハッチ
  6
Continuous
 62
   120
370
     5
100
AcDbLine
 10
15203.61654537497
 20
-4181.336862570775
 30
0.0
 11
15308.61654537499
 21
-4076.336862570756
 31
0.0
  0
LINE
  5
18C
330
1F
100
AcDbEntity
  8
ハッチ
  6
Continuous
 62
   120
370
     5
100
AcDbLine
 10
15274.32722349363
 20
-4181.336862570783
 30
0.0
 11
15379.32722349365
 21
-4076.33686257076
 31
0.0
  0
LINE
  5
18D
330
1F
100
AcDbEntity
  8
ハッチ
  6
Continuous
 62
   120
370
     5
100
AcDbLine
 10
15345.0379016123
 20
-4181.336862570788
 30
0.0
 11
15450.03790161231
 21
-4076.336862570767
 31
0.0
  0
LINE
  5
18E
330
1F
100
AcDbEntity
  8
ハッチ
  6
Continuous
 62
   120
370
     5
100
AcDbLine
 10
15415.74857973076
 20
-4181.336862570811
 30
0.0
 11
15520.74857973077
 21
-4076.336862570785
 31
0.0
  0
LINE
  5
18F
330
1F
100
AcDbEntity
  8
ハッチ
  6
Continuous
 62
   120
370
     5
100
AcDbLine
 10
15486.45925784942
 20
-4181.336862570815
 30
0.0
 11
15591.45925784944
 21
-4076.336862570793
 31
0.0
  0
LINE
  5
190
330
1F
100
AcDbEntity
  8
ハッチ
  6
Continuous
 62
   120
370
     5
100
AcDbLine
 10
15557.16993596813
 20
-4181.336862570767
 30
0.0
 11
15662.1699359681
 21
-4076.336862570798
 31
0.0
  0
LINE
  5
191
330
1F
100
AcDbEntity
  8
ハッチ
  6
Continuous
 62
   120
370
     5
100
AcDbLine
 10
15627.8806140868
 20
-4181.336862570771
 30
0.0
 11
15732.88061408676
 21
-4076.336862570808
 31
0.0
  0
LINE
  5
192
330
1F
100
AcDbEntity
  8
ハッチ
  6
Continuous
 62
   120
370
     5
100
AcDbLine
 10
15698.59129220545
 20
-4181.336862570781
 30
0.0
 11
15803.59129220542
 21
-4076.336862570808
 31
0.0
  0
LINE
  5
193
330
1F
100
AcDbEntity
  8
ハッチ
  6
Continuous
 62
   120
370
     5
100
AcDbLine
 10
15769.30197032411
 20
-4181.336862570786
 30
0.0
 11
15874.30197032413
 21
-4076.336862570763
 31
0.0
  0
LINE
  5
194
330
1F
100
AcDbEntity
  8
ハッチ
  6
Continuous
 62
   120
370
     5
100
AcDbLine
 10
15840.0126484428
 20
-4181.336862570767
 30
0.0
 11
15914.11322012315
 21
-4107.236290890412
 31
0.0
  0
LINE
  5
195
330
1F
100
AcDbEntity
  8
ハッチ
  6
Continuous
 62
   120
370
     5
100
AcDbLine
 10
15910.72332656146
 20
-4181.336862570771
 30
0.0
 11
15914.11322012315
 21
-4177.946969009081
 31
0.0
  0
LINE
  5
196
330
1F
100
AcDbEntity
  8
固定棚
  6
Continuous
 62
    92
370
    13
100
AcDbLine
 10
13619.11322012315
 20
-4076.336862570798
 30
0.0
 11
13619.11322012315
 21
-4181.336862570801
 31
0.0
  0
LINE
  5
197
330
1F
100
AcDbEntity
  8
固定棚
  6
Continuous
 62
    92
370
    13
100
AcDbLine
 10
15914.11322012315
 20
-4076.336862570798
 30
0.0
 11
13619.11322012315
 21
-4076.336862570798
 31
0.0
  0
LINE
  5
198
330
1F
100
AcDbEntity
  8
固定棚
  6
Continuous
 62
    92
370
    13
100
AcDbLine
 10
15914.11322012315
 20
-4181.336862570801
 30
0.0
 11
13619.11322012315
 21
-4181.336862570801
 31
0.0
  0
LINE
  5
199
330
1F
100
AcDbEntity
  8
ハッチ
  6
Continuous
 62
   120
370
     5
100
AcDbLine
 10
14142.95637359491
 20
-4181.336862570813
 30
0.0
 11
14247.95637359493
 21
-4076.336862570793
 31
0.0
  0
LINE
  5
19A
330
1F
100
AcDbEntity
  8
ハッチ
  6
Continuous
 62
   120
370
     5
100
AcDbLine
 10
14213.66705171362
 20
-4181.336862570765
 30
0.0
 11
14318.66705171358
 21
-4076.336862570798
 31
0.0
  0
LINE
  5
19B
330
1F
100
AcDbEntity
  8
ハッチ
  6
Continuous
 62
   120
370
     5
100
AcDbLine
 10
14284.37772983228
 20
-4181.336862570771
 30
0.0
 11
14389.37772983225
 21
-4076.336862570804
 31
0.0
  0
LINE
  5
19C
330
1F
100
AcDbEntity
  8
ハッチ
  6
Continuous
 62
   120
370
     5
100
AcDbLine
 10
14355.08840795094
 20
-4181.336862570778
 30
0.0
 11
14460.08840795091
 21
-4076.336862570808
 31
0.0
  0
LINE
  5
19D
330
1F
100
AcDbEntity
  8
ハッチ
  6
Continuous
 62
   120
370
     5
100
AcDbLine
 10
13860.11366112021
 20
-4181.336862570813
 30
0.0
 11
13965.11366112023
 21
-4076.336862570793
 31
0.0
  0
LINE
  5
19E
330
1F
100
AcDbEntity
  8
ハッチ
  6
Continuous
 62
   120
370
     5
100
AcDbLine
 10
13930.82433923893
 20
-4181.336862570765
 30
0.0
 11
14035.82433923889
 21
-4076.336862570798
 31
0.0
  0
LINE
  5
19F
330
1F
100
AcDbEntity
  8
ハッチ
  6
Continuous
 62
   120
370
     5
100
AcDbLine
 10
14001.53501735758
 20
-4181.336862570771
 30
0.0
 11
14106.53501735756
 21
-4076.336862570804
 31
0.0
  0
LINE
  5
1A0
330
1F
100
AcDbEntity
  8
ハッチ
  6
Continuous
 62
   120
370
     5
100
AcDbLine
 10
14072.24569547624
 20
-4181.336862570778
 30
0.0
 11
14177.24569547621
 21
-4076.336862570808
 31
0.0
  0
LINE
  5
1A1
330
1F
100
AcDbEntity
  8
ハッチ
  6
Continuous
 62
   120
370
     5
100
AcDbLine
 10
13647.98162676423
 20
-4181.336862570765
 30
0.0
 11
13752.98162676419
 21
-4076.336862570798
 31
0.0
  0
LINE
  5
1A2
330
1F
100
AcDbEntity
  8
ハッチ
  6
Continuous
 62
   120
370
     5
100
AcDbLine
 10
13718.69230488289
 20
-4181.336862570771
 30
0.0
 11
13823.69230488286
 21
-4076.336862570804
 31
0.0
  0
LINE
  5
1A3
330
1F
100
AcDbEntity
  8
ハッチ
  6
Continuous
 62
   120
370
     5
100
AcDbLine
 10
13789.40298300155
 20
-4181.336862570778
 30
0.0
 11
13894.40298300152
 21
-4076.336862570808
 31
0.0
  0
LINE
  5
1A4
330
1F
100
AcDbEntity
  8
ハッチ
  6
Continuous
 62
   120
370
     5
100
AcDbLine
 10
13619.11322012315
 20
-4139.494591093176
 30
0.0
 11
13682.27094864554
 21
-4076.336862570793
 31
0.0
  0
LINE
  5
1A5
330
1F
100
AcDbEntity
  8
パイプハンガー
  6
Continuous
 62
     7
370
     9
100
AcDbLine
 10
15839.11322012315
 20
968.6631374291522
 30
0.0
 11
15839.11322012315
 21
818.6631374291522
 31
0.0
  0
LINE
  5
1A6
330
1F
100
AcDbEntity
  8
パイプハンガー
  6
Continuous
 62
    92
370
    13
100
AcDbLine
 10
15914.11322012315
 20
968.6631374291522
 30
0.0
 11
15914.11322012315
 21
818.6631374291522
 31
0.0
  0
LINE
  5
1A7
330
1F
100
AcDbEntity
  8
パイプハンガー
  6
Continuous
 62
    92
370
    13
100
AcDbLine
 10
13619.11322012315
 20
968.6631374291522
 30
0.0
 11
13619.11322012315
 21
818.6631374291522
 31
0.0
  0
LINE
  5
1A8
330
1F
100
AcDbEntity
  8
パイプハンガー
  6
Continuous
 62
    92
370
    13
100
AcDbLine
 10
13619.11322012315
 20
818.6631374291522
 30
0.0
 11
15914.11322012315
 21
818.6631374291522
 31
0.0
  0
LINE
  5
1A9
330
1F
100
AcDbEntity
  8
パイプハンガー
  6
Continuous
 62
   120
370
     5
100
AcDbLine
 10
15914.11322012315
 20
863.6631374291511
 30
0.0
 11
13619.11322012315
 21
863.6631374291511
 31
0.0
  0
LINE
  5
1AA
330
1F
100
AcDbEntity
  8
パイプハンガー
  6
Continuous
 62
   120
370
     5
100
AcDbLine
 10
15914.11322012315
 20
883.6631374291528
 30
0.0
 11
13619.11322012315
 21
883.6631374291528
 31
0.0
  0
LINE
  5
1AB
330
1F
100
AcDbEntity
  8
パイプハンガー
  6
Continuous
 62
   120
370
     5
100
AcDbLine
 10
15914.11322012315
 20
903.6631374291517
 30
0.0
 11
13619.11322012315
 21
903.6631374291517
 31
0.0
  0
LINE
  5
1AC
330
1F
100
AcDbEntity
  8
パイプハンガー
  6
Continuous
 62
   120
370
     5
100
AcDbLine
 10
15914.11322012315
 20
923.6631374291534
 30
0.0
 11
13619.11322012315
 21
923.6631374291534
 31
0.0
  0
LINE
  5
1AD
330
1F
100
AcDbEntity
  8
パイプハンガー
  6
Continuous
 62
    92
370
    13
100
AcDbLine
 10
13619.11322012315
 20
968.6631374291522
 30
0.0
 11
15914.11322012315
 21
968.6631374291522
 31
0.0
  0
LINE
  5
1AE
330
1F
100
AcDbEntity
  8
桟木・巾木
  6
Continuous
 62
     7
370
     9
100
AcDbLine
 10
16019.11322012315
 20
958.6631374291528
 30
0.0
 11
17514.11322012315
 21
958.6631374291528
 31
0.0
  0
LINE
  5
1AF
330
1F
100
AcDbEntity
  8
桟木・巾木
  6
Continuous
 62
     7
370
     9
100
AcDbLine
 10
13619.11322012315
 20
958.6631374291528
 30
0.0
 11
15914.11322012315
 21
958.6631374291528
 31
0.0
  0
LINE
  5
1B0
330
1F
100
AcDbEntity
  8
パイプハンガー
  6
Continuous
 62
     7
370
     9
100
AcDbLine
 10
15839.11322012315
 20
-4471.336862570848
 30
0.0
 11
15839.11322012315
 21
-4621.336862570848
 31
0.0
  0
LINE
  5
1B1
330
1F
100
AcDbEntity
  8
パイプハンガー
  6
Continuous
 62
    92
370
    13
100
AcDbLine
 10
15914.11322012315
 20
-4471.336862570848
 30
0.0
 11
15914.11322012315
 21
-4621.336862570848
 31
0.0
  0
LINE
  5
1B2
330
1F
100
AcDbEntity
  8
パイプハンガー
  6
Continuous
 62
    92
370
    13
100
AcDbLine
 10
13619.11322012315
 20
-4471.336862570848
 30
0.0
 11
13619.11322012315
 21
-4621.336862570848
 31
0.0
  0
LINE
  5
1B3
330
1F
100
AcDbEntity
  8
パイプハンガー
  6
Continuous
 62
    92
370
    13
100
AcDbLine
 10
13619.11322012315
 20
-4621.336862570848
 30
0.0
 11
15914.11322012315
 21
-4621.336862570848
 31
0.0
  0
LINE
  5
1B4
330
1F
100
AcDbEntity
  8
パイプハンガー
  6
Continuous
 62
   120
370
     5
100
AcDbLine
 10
15914.11322012315
 20
-4576.33686257085
 30
0.0
 11
13619.11322012315
 21
-4576.33686257085
 31
0.0
  0
LINE
  5
1B5
330
1F
100
AcDbEntity
  8
パイプハンガー
  6
Continuous
 62
   120
370
     5
100
AcDbLine
 10
15914.11322012315
 20
-4556.336862570848
 30
0.0
 11
13619.11322012315
 21
-4556.336862570848
 31
0.0
  0
LINE
  5
1B6
330
1F
100
AcDbEntity
  8
パイプハンガー
  6
Continuous
 62
   120
370
     5
100
AcDbLine
 10
15914.11322012315
 20
-4536.336862570849
 30
0.0
 11
13619.11322012315
 21
-4536.336862570849
 31
0.0
  0
LINE
  5
1B7
330
1F
100
AcDbEntity
  8
パイプハンガー
  6
Continuous
 62
   120
370
     5
100
AcDbLine
 10
15914.11322012315
 20
-4516.336862570847
 30
0.0
 11
13619.11322012315
 21
-4516.336862570847
 31
0.0
  0
LINE
  5
1B8
330
1F
100
AcDbEntity
  8
パイプハンガー
  6
Continuous
 62
    92
370
    13
100
AcDbLine
 10
13619.11322012315
 20
-4471.336862570848
 30
0.0
 11
15914.11322012315
 21
-4471.336862570848
 31
0.0
  0
LINE
  5
1B9
330
1F
100
AcDbEntity
  8
0-A_文字
  6
Continuous
 62
     7
370
     9
100
AcDbLine
 10
14064.58570468706
 20
-4131.649243359351
 30
0.0
 11
14239.6743837668
 21
-3828.386755363128
 31
0.0
  0
LINE
  5
1BA
330
1F
100
AcDbEntity
  8
0-A_文字
  6
Continuous
 62
     7
370
     9
100
AcDbLine
 10
15275.59283224194
 20
-3828.386755363128
 30
0.0
 11
14239.6743837668
 21
-3828.386755363128
 31
0.0
  0
TEXT
  5
1BB
330
1F
100
AcDbEntity
  8
0-A_文字
  6
Continuous
 62
     7
370
     9
100
AcDbText
 10
14275.59283224194
 20
-3786.086755363128
 30
0.0
 40
228.6
  1
固定棚
 41
1.111111111111111
  7
ＭＳ ゴシック
100
AcDbText
  0
LINE
  5
1BC
330
1F
100
AcDbEntity
  8
桟木・巾木
  6
Continuous
 62
     7
370
     9
100
AcDbLine
 10
13514.11322012316
 20
-8256.336862570848
 30
0.0
 11
10344.11322012315
 21
-8256.336862570848
 31
0.0
  0
LINE
  5
1BD
330
1F
100
AcDbEntity
  8
桟木・巾木
  6
Continuous
 62
     7
370
     9
100
AcDbLine
 10
10344.11322012315
 20
-8256.336862570848
 30
0.0
 11
10344.11322012315
 21
-8556.336862570848
 31
0.0
  0
LINE
  5
1BE
330
1F
100
AcDbEntity
  8
桟木・巾木
  6
Continuous
 62
     7
370
     9
100
AcDbLine
 10
10344.11322012315
 20
958.6631374291528
 30
0.0
 11
13514.11322012316
 21
958.6631374291528
 31
0.0
  0
LINE
  5
1BF
330
1F
100
AcDbEntity
  8
桟木・巾木
  6
Continuous
 62
     7
370
     9
100
AcDbLine
 10
10344.11322012315
 20
958.6631374291528
 30
0.0
 11
10344.11322012315
 21
1258.663137429153
 31
0.0
  0
LINE
  5
1C0
330
1F
100
AcDbEntity
  8
桟木・巾木
  6
Continuous
 62
     7
370
     9
100
AcDbLine
 10
17514.11322012315
 20
-8256.336862570848
 30
0.0
 11
16019.11322012315
 21
-8256.336862570848
 31
0.0
  0
LINE
  5
1C1
330
1F
100
AcDbEntity
  8
桟木・巾木
  6
Continuous
 62
     7
370
     9
100
AcDbLine
 10
15914.11322012315
 20
-8256.336862570848
 30
0.0
 11
13619.11322012315
 21
-8256.336862570848
 31
0.0
  0
TEXT
  5
1C2
330
1F
100
AcDbEntity
  8
0-A_文字
  6
Continuous
 62
     7
370
   211
100
AcDbText
 10
11416.61322012315
 20
-9814.036862570849
 30
0.0
 40
228.6
  1
ﾌﾘｰｶｯﾄ
 41
1.138888888888889
  7
ＭＳ ゴシック
100
AcDbText
  0
TEXT
  5
1C3
330
1F
100
AcDbEntity
  8
0-B_寸法
  6
Continuous
 62
     7
370
   211
100
AcDbText
 10
11379.11322012315
 20
-9499.936862570848
 30
0.0
 40
304.8
  1
～634
 41
1.1
  7
ＭＳ ゴシック
100
AcDbText
  0
LINE
  5
1C4
330
1F
100
AcDbEntity
  8
0-B_寸法
  6
Continuous
 62
   120
370
     5
100
AcDbLine
 10
13619.11322012315
 20
-9556.336862570848
 30
0.0
 11
15914.11322012315
 21
-9556.336862570848
 31
0.0
  0
LWPOLYLINE
  5
1C5
330
1F
100
AcDbEntity
  8
0-B_寸法
  6
Continuous
 62
     7
370
     9
100
AcDbPolyline
 90
        4
 70
     1
 43
20.0
 10
15924.11322012315
 20
-9556.336862570848
 42
0.4142135623731
 10
15914.11322012315
 20
-9546.336862570848
 42
0.4142135623731
 10
15904.11322012315
 20
-9556.336862570848
 42
0.4142135623731
 10
15914.11322012315
 20
-9566.336862570846
 42
0.4142135623731
  0
LINE
  5
1C6
330
1F
100
AcDbEntity
  8
0-B_寸法
  6
Continuous
 62
   120
370
     5
100
AcDbLine
 10
15914.11322012315
 20
-9556.336862570848
 30
0.0
 11
15914.11322012315
 21
-8806.336862570848
 31
0.0
  0
TEXT
  5
1C7
330
1F
100
AcDbEntity
  8
0-B_寸法
  6
Continuous
 62
     7
370
   211
100
AcDbText
 10
14441.61322012315
 20
-9499.936862570848
 30
0.0
 40
304.8
  1
459
 41
1.083333333333333
  7
ＭＳ ゴシック
100
AcDbText
  0
LINE
  5
1C8
330
1F
100
AcDbEntity
  8
0-B_寸法
  6
Continuous
 62
   120
370
     5
100
AcDbLine
 10
15914.11322012315
 20
-9556.336862570848
 30
0.0
 11
16019.11322012315
 21
-9556.336862570848
 31
0.0
  0
LWPOLYLINE
  5
1C9
330
1F
100
AcDbEntity
  8
0-B_寸法
  6
Continuous
 62
     7
370
     9
100
AcDbPolyline
 90
        4
 70
     1
 43
20.0
 10
16029.11322012315
 20
-9556.336862570848
 42
0.4142135623731
 10
16019.11322012315
 20
-9546.336862570848
 42
0.4142135623731
 10
16009.11322012315
 20
-9556.336862570848
 42
0.4142135623731
 10
16019.11322012315
 20
-9566.336862570846
 42
0.4142135623731
  0
LINE
  5
1CA
330
1F
100
AcDbEntity
  8
0-B_寸法
  6
Continuous
 62
   120
370
     5
100
AcDbLine
 10
16019.11322012315
 20
-9556.336862570848
 30
0.0
 11
16019.11322012315
 21
-8806.336862570848
 31
0.0
  0
LINE
  5
1CB
330
1F
100
AcDbEntity
  8
0-B_寸法
  6
Continuous
 62
   120
370
     5
100
AcDbLine
 10
16019.11322012315
 20
-9556.336862570848
 30
0.0
 11
17514.11322012315
 21
-9556.336862570848
 31
0.0
  0
TEXT
  5
1CC
330
1F
100
AcDbEntity
  8
0-B_寸法
  6
Continuous
 62
     7
370
   211
100
AcDbText
 10
16441.61322012315
 20
-9499.936862570848
 30
0.0
 40
304.8
  1
299
 41
1.083333333333333
  7
ＭＳ ゴシック
100
AcDbText
  0
TEXT
  5
1CD
330
1F
100
AcDbEntity
  8
0-B_寸法
  6
Continuous
 62
     7
370
   211
100
AcDbText
 10
15454.43348307117
 20
-9499.936862570848
 30
0.0
 40
304.8
  1
21
 41
1.0625
  7
ＭＳ ゴシック
100
AcDbText
  0
LINE
  5
1CE
330
1F
100
AcDbEntity
  8
0-A_文字
  6
Continuous
 62
     7
370
     9
100
AcDbLine
 10
16514.75610089486
 20
-8434.160463281209
 30
0.0
 11
16758.52515839611
 21
-8011.940070375875
 31
0.0
  0
LINE
  5
1CF
330
1F
100
AcDbEntity
  8
0-A_文字
  6
Continuous
 62
     7
370
     9
100
AcDbLine
 10
16758.52515839611
 20
-8011.940070375875
 30
0.0
 11
17388.66247518129
 21
-8011.940070375875
 31
0.0
  0
TEXT
  5
1D0
330
1F
100
AcDbEntity
  8
0-A_文字
  6
Continuous
 62
     7
370
     9
100
AcDbText
 10
16758.5251583961
 20
-7969.640070375875
 30
0.0
 40
228.6
  1
巾木
 41
1.083333333333333
  7
ＭＳ ゴシック
100
AcDbText
  0
LINE
  5
1D1
330
1F
100
AcDbEntity
  8
0-0_補助線
  6
JWW_HOJO
 62
   120
370
     5
100
AcDbLine
 10
9344.113220123148
 20
2363.663137429148
 30
0.0
 11
9344.113220123148
 21
-10056.33686257085
 31
0.0
  0
LINE
  5
1D2
330
1F
100
AcDbEntity
  8
0-0_補助線
  6
JWW_HOJO
 62
   120
370
     5
100
AcDbLine
 10
9344.113220123148
 20
-10056.33686257085
 30
0.0
 11
19089.11322012315
 21
-10056.33686257085
 31
0.0
  0
LINE
  5
1D3
330
1F
100
AcDbEntity
  8
0-0_補助線
  6
JWW_HOJO
 62
   120
370
     5
100
AcDbLine
 10
6794.113220123159
 20
1613.663137429151
 30
0.0
 11
6794.113220123159
 21
-8806.336862570848
 31
0.0
  0
LINE
  5
1D4
330
1F
100
AcDbEntity
  8
0-2
  6
Continuous
 62
    92
370
    13
100
AcDbLine
 10
6544.113220123159
 20
1363.663137429151
 30
0.0
 11
6544.113220123159
 21
1258.663137429153
 31
0.0
  0
LINE
  5
1D5
330
1F
100
AcDbEntity
  8
0-2
  6
Continuous
 62
    92
370
    13
100
AcDbLine
 10
6469.113220123159
 20
-8556.33686257085
 30
0.0
 11
6469.113220123159
 21
1258.663137429153
 31
0.0
  0
LINE
  5
1D6
330
1F
100
AcDbEntity
  8
0-2
  6
Continuous
 62
    92
370
    13
100
AcDbLine
 10
6544.113220123159
 20
-8556.33686257085
 30
0.0
 11
6544.113220123159
 21
1258.663137429153
 31
0.0
  0
LINE
  5
1D7
330
1F
100
AcDbEntity
  8
0-0_補助線
  6
JWW_HOJO
 62
   120
370
     5
100
AcDbLine
 10
8044.113220123159
 20
2363.663137429148
 30
0.0
 11
8044.113220123159
 21
-10056.33686257085
 31
0.0
  0
LINE
  5
1D8
330
1F
100
AcDbEntity
  8
0-2
  6
Continuous
 62
    40
370
    15
100
AcDbLine
 10
6469.113220123159
 20
6113.663137429148
 30
0.0
 11
6469.113220123159
 21
8363.663137429148
 31
0.0
  0
LINE
  5
1D9
330
1F
100
AcDbEntity
  8
0-2
  6
Continuous
 62
    40
370
    15
100
AcDbLine
 10
6544.113220123159
 20
6113.663137429148
 30
0.0
 11
6544.113220123159
 21
8363.663137429148
 31
0.0
  0
LINE
  5
1DA
330
1F
100
AcDbEntity
  8
0-2
  6
Continuous
 62
    40
370
    15
100
AcDbLine
 10
6469.113220123159
 20
8363.663137429148
 30
0.0
 11
6544.113220123159
 21
8363.663137429148
 31
0.0
  0
LINE
  5
1DB
330
1F
100
AcDbEntity
  8
0-2
  6
Continuous
 62
    40
370
    15
100
AcDbLine
 10
6469.113220123159
 20
6113.663137429148
 30
0.0
 11
6544.113220123159
 21
6113.663137429148
 31
0.0
  0
LINE
  5
1DC
330
1F
100
AcDbEntity
  8
0-0_補助線
  6
JWW_HOJO
 62
   120
370
     5
100
AcDbLine
 10
6794.113220123159
 20
8613.663137429148
 30
0.0
 11
6794.113220123159
 21
5863.663137429148
 31
0.0
  0
LINE
  5
1DD
330
1F
100
AcDbEntity
  8
0-0_補助線
  6
JWW_HOJO
 62
   120
370
     5
100
AcDbLine
 10
7544.113220123159
 20
9363.663137429148
 30
0.0
 11
7544.113220123159
 21
5113.663137429148
 31
0.0
  0
LINE
  5
1DE
330
1F
100
AcDbEntity
  8
0-0_補助線
  6
JWW_HOJO
 62
   120
370
     5
100
AcDbLine
 10
8044.113220123159
 20
9863.663137429148
 30
0.0
 11
8044.113220123159
 21
4613.663137429148
 31
0.0
  0
LINE
  5
1DF
330
1F
100
AcDbEntity
  8
パイプハンガー
  6
Continuous
 62
    92
370
    13
100
AcDbLine
 10
6469.113220123159
 20
968.6631374291494
 30
0.0
 11
6469.113220123159
 21
818.6631374291494
 31
0.0
  0
LINE
  5
1E0
330
1F
100
AcDbEntity
  8
パイプハンガー
  6
Continuous
 62
     7
370
     9
100
AcDbLine
 10
6394.113220123158
 20
968.6631374291494
 30
0.0
 11
6394.113220123158
 21
818.6631374291494
 31
0.0
  0
LINE
  5
1E1
330
1F
100
AcDbEntity
  8
0-2
  6
Continuous
 62
    92
370
    13
100
AcDbLine
 10
-3100.886779876842
 20
-8556.33686257085
 30
0.0
 11
6544.113220123159
 21
-8556.33686257085
 31
0.0
  0
LINE
  5
1E2
330
1F
100
AcDbEntity
  8
0-2
  6
Continuous
 62
    92
370
    13
100
AcDbLine
 10
6544.113220123159
 20
1363.663137429151
 30
0.0
 11
-3100.886779876842
 21
1363.663137429151
 31
0.0
  0
LINE
  5
1E3
330
1F
100
AcDbEntity
  8
0-2
  6
Continuous
 62
    92
370
    13
100
AcDbLine
 10
6544.113220123159
 20
1258.663137429153
 30
0.0
 11
-3100.886779876842
 21
1258.663137429153
 31
0.0
  0
LINE
  5
1E4
330
1F
100
AcDbEntity
  8
0-0_補助線
  6
JWW_HOJO
 62
   120
370
     5
100
AcDbLine
 10
-4100.886779876842
 20
-9556.336862570848
 30
0.0
 11
7544.113220123159
 21
-9556.336862570848
 31
0.0
  0
LINE
  5
1E5
330
1F
100
AcDbEntity
  8
0-0_補助線
  6
JWW_HOJO
 62
   120
370
     5
100
AcDbLine
 10
6794.113220123159
 20
1613.663137429151
 30
0.0
 11
-3350.886779876842
 21
1613.663137429151
 31
0.0
  0
LINE
  5
1E6
330
1F
100
AcDbEntity
  8
0-0_補助線
  6
JWW_HOJO
 62
   120
370
     5
100
AcDbLine
 10
-3350.886779876842
 20
-8806.336862570848
 30
0.0
 11
6794.113220123159
 21
-8806.336862570848
 31
0.0
  0
LINE
  5
1E7
330
1F
100
AcDbEntity
  8
0-0_補助線
  6
JWW_HOJO
 62
   120
370
     5
100
AcDbLine
 10
-3350.886779876842
 20
5863.663137429148
 30
0.0
 11
6794.113220123159
 21
5863.663137429148
 31
0.0
  0
LINE
  5
1E8
330
1F
100
AcDbEntity
  8
0-0_補助線
  6
JWW_HOJO
 62
   120
370
     5
100
AcDbLine
 10
-3350.886779876842
 20
8613.663137429148
 30
0.0
 11
6794.113220123159
 21
8613.663137429148
 31
0.0
  0
LINE
  5
1E9
330
1F
100
AcDbEntity
  8
0-0_補助線
  6
JWW_HOJO
 62
   120
370
     5
100
AcDbLine
 10
-4100.886779876842
 20
5113.663137429148
 30
0.0
 11
7544.113220123159
 21
5113.663137429148
 31
0.0
  0
LINE
  5
1EA
330
1F
100
AcDbEntity
  8
0-0_補助線
  6
JWW_HOJO
 62
   120
370
     5
100
AcDbLine
 10
-4100.886779876842
 20
9363.663137429148
 30
0.0
 11
7544.113220123159
 21
9363.663137429148
 31
0.0
  0
LINE
  5
1EB
330
1F
100
AcDbEntity
  8
0-0_補助線
  6
JWW_HOJO
 62
   120
370
     5
100
AcDbLine
 10
-4600.886779876842
 20
4613.663137429148
 30
0.0
 11
8044.113220123159
 21
4613.663137429148
 31
0.0
  0
LINE
  5
1EC
330
1F
100
AcDbEntity
  8
0-0_補助線
  6
JWW_HOJO
 62
   120
370
     5
100
AcDbLine
 10
-4600.886779876842
 20
9863.663137429148
 30
0.0
 11
8044.113220123159
 21
9863.663137429148
 31
0.0
  0
LINE
  5
1ED
330
1F
100
AcDbEntity
  8
0-0_補助線
  6
JWW_HOJO
 62
     7
370
     9
100
AcDbLine
 10
-4600.886779876842
 20
8363.663137429148
 30
0.0
 11
8044.113220123159
 21
8363.663137429148
 31
0.0
  0
LINE
  5
1EE
330
1F
100
AcDbEntity
  8
0-0_補助線
  6
JWW_HOJO
 62
     7
370
     9
100
AcDbLine
 10
-4600.886779876842
 20
6113.663137429148
 30
0.0
 11
8044.113220123159
 21
6113.663137429148
 31
0.0
  0
LWPOLYLINE
  5
1EF
330
1F
100
AcDbEntity
  8
0-B_寸法
  6
Continuous
 62
     7
370
     9
100
AcDbPolyline
 90
        4
 70
     1
 43
20.0
 10
6479.113220123159
 20
-9556.336862570848
 42
0.4142135623731
 10
6469.113220123159
 20
-9546.336862570848
 42
0.4142135623731
 10
6459.11322012316
 20
-9556.336862570848
 42
0.4142135623731
 10
6469.113220123159
 20
-9566.336862570846
 42
0.4142135623731
  0
LWPOLYLINE
  5
1F0
330
1F
100
AcDbEntity
  8
0-B_寸法
  6
Continuous
 62
     7
370
     9
100
AcDbPolyline
 90
        4
 70
     1
 43
20.0
 10
6554.113220123159
 20
-9556.336862570848
 42
0.4142135623731
 10
6544.113220123159
 20
-9546.336862570848
 42
0.4142135623731
 10
6534.11322012316
 20
-9556.336862570848
 42
0.4142135623731
 10
6544.113220123159
 20
-9566.336862570846
 42
0.4142135623731
  0
LINE
  5
1F1
330
1F
100
AcDbEntity
  8
0-B_寸法
  6
Continuous
 62
   120
370
     5
100
AcDbLine
 10
6469.113220123159
 20
-9556.336862570848
 30
0.0
 11
6469.113220123159
 21
-8806.336862570848
 31
0.0
  0
LINE
  5
1F2
330
1F
100
AcDbEntity
  8
0-B_寸法
  6
Continuous
 62
   120
370
     5
100
AcDbLine
 10
6544.113220123159
 20
-9556.336862570848
 30
0.0
 11
6544.113220123159
 21
-8806.336862570848
 31
0.0
  0
LINE
  5
1F3
330
1F
100
AcDbEntity
  8
0-B_寸法
  6
Continuous
 62
   120
370
     5
100
AcDbLine
 10
6544.113220123159
 20
-9556.336862570848
 30
0.0
 11
6469.113220123159
 21
-9556.336862570848
 31
0.0
  0
LWPOLYLINE
  5
1F4
330
1F
100
AcDbEntity
  8
0-B_寸法
  6
Continuous
 62
     7
370
     9
100
AcDbPolyline
 90
        4
 70
     1
 43
20.0
 10
6554.113220123159
 20
-10056.33686257085
 42
0.4142135623731
 10
6544.113220123159
 20
-10046.33686257085
 42
0.4142135623731
 10
6534.11322012316
 20
-10056.33686257085
 42
0.4142135623731
 10
6544.113220123159
 20
-10066.33686257085
 42
0.4142135623731
  0
LINE
  5
1F5
330
1F
100
AcDbEntity
  8
0-B_寸法
  6
Continuous
 62
   120
370
     5
100
AcDbLine
 10
6544.113220123159
 20
-10056.33686257085
 30
0.0
 11
6544.113220123159
 21
-9556.336862570848
 31
0.0
  0
LWPOLYLINE
  5
1F6
330
1F
100
AcDbEntity
  8
0-B_寸法
  6
Continuous
 62
     7
370
     9
100
AcDbPolyline
 90
        4
 70
     1
 43
20.0
 10
6479.113220123159
 20
5113.663137429148
 42
0.4142135623731
 10
6469.113220123159
 20
5123.663137429148
 42
0.4142135623731
 10
6459.11322012316
 20
5113.663137429148
 42
0.4142135623731
 10
6469.113220123159
 20
5103.663137429148
 42
0.4142135623731
  0
LINE
  5
1F7
330
1F
100
AcDbEntity
  8
0-B_寸法
  6
Continuous
 62
   120
370
     5
100
AcDbLine
 10
6469.113220123159
 20
5113.663137429148
 30
0.0
 11
6469.113220123159
 21
5863.663137429148
 31
0.0
  0
LINE
  5
1F8
330
1F
100
AcDbEntity
  8
0-B_寸法
  6
Continuous
 62
   120
370
     5
100
AcDbLine
 10
6469.113220123159
 20
5113.663137429148
 30
0.0
 11
6544.113220123159
 21
5113.663137429148
 31
0.0
  0
LWPOLYLINE
  5
1F9
330
1F
100
AcDbEntity
  8
0-B_寸法
  6
Continuous
 62
     7
370
     9
100
AcDbPolyline
 90
        4
 70
     1
 43
20.0
 10
6554.113220123159
 20
5113.663137429148
 42
0.4142135623731
 10
6544.113220123159
 20
5123.663137429148
 42
0.4142135623731
 10
6534.11322012316
 20
5113.663137429148
 42
0.4142135623731
 10
6544.113220123159
 20
5103.663137429148
 42
0.4142135623731
  0
LINE
  5
1FA
330
1F
100
AcDbEntity
  8
0-B_寸法
  6
Continuous
 62
   120
370
     5
100
AcDbLine
 10
6544.113220123159
 20
5113.663137429148
 30
0.0
 11
6544.113220123159
 21
5863.663137429148
 31
0.0
  0
LWPOLYLINE
  5
1FB
330
1F
100
AcDbEntity
  8
0-B_寸法
  6
Continuous
 62
     7
370
     9
100
AcDbPolyline
 90
        4
 70
     1
 43
20.0
 10
6554.113220123159
 20
9363.663137429148
 42
0.4142135623731
 10
6544.113220123159
 20
9373.663137429148
 42
0.4142135623731
 10
6534.11322012316
 20
9363.663137429148
 42
0.4142135623731
 10
6544.113220123159
 20
9353.663137429148
 42
0.4142135623731
  0
LINE
  5
1FC
330
1F
100
AcDbEntity
  8
0-B_寸法
  6
Continuous
 62
   120
370
     5
100
AcDbLine
 10
6544.113220123159
 20
9363.663137429148
 30
0.0
 11
6544.113220123159
 21
8613.663137429148
 31
0.0
  0
LINE
  5
1FD
330
1F
100
AcDbEntity
  8
0-B_寸法
  6
Continuous
 62
   120
370
     5
100
AcDbLine
 10
7544.113220123159
 20
8363.663137429148
 30
0.0
 11
7544.113220123159
 21
6113.663137429148
 31
0.0
  0
LWPOLYLINE
  5
1FE
330
1F
100
AcDbEntity
  8
0-B_寸法
  6
Continuous
 62
     7
370
     9
100
AcDbPolyline
 90
        4
 70
     1
 43
20.0
 10
7554.113220123159
 20
8363.663137429148
 42
0.4142135623731
 10
7544.113220123159
 20
8373.663137429148
 42
0.4142135623731
 10
7534.11322012316
 20
8363.663137429148
 42
0.4142135623731
 10
7544.113220123159
 20
8353.663137429148
 42
0.4142135623731
  0
LWPOLYLINE
  5
1FF
330
1F
100
AcDbEntity
  8
0-B_寸法
  6
Continuous
 62
     7
370
     9
100
AcDbPolyline
 90
        4
 70
     1
 43
20.0
 10
7554.113220123159
 20
6113.663137429148
 42
0.4142135623731
 10
7544.113220123159
 20
6123.663137429148
 42
0.4142135623731
 10
7534.11322012316
 20
6113.663137429148
 42
0.4142135623731
 10
7544.113220123159
 20
6103.663137429148
 42
0.4142135623731
  0
LINE
  5
200
330
1F
100
AcDbEntity
  8
0-B_寸法
  6
Continuous
 62
   120
370
     5
100
AcDbLine
 10
7544.113220123159
 20
8363.663137429148
 30
0.0
 11
6794.113220123159
 21
8363.663137429148
 31
0.0
  0
LINE
  5
201
330
1F
100
AcDbEntity
  8
0-B_寸法
  6
Continuous
 62
   120
370
     5
100
AcDbLine
 10
7544.113220123159
 20
6113.663137429148
 30
0.0
 11
6794.113220123159
 21
6113.663137429148
 31
0.0
  0
TEXT
  5
202
330
1F
100
AcDbEntity
  8
0-B_寸法
  6
Continuous
 62
     7
370
   211
100
AcDbText
 10
7487.71322012316
 20
6913.663137429148
 30
0.0
 40
304.8
  1
450
 50
90.0
 41
1.083333333333333
  7
ＭＳ ゴシック
100
AcDbText
  0
LINE
  5
203
330
1F
100
AcDbEntity
  8
0-B_寸法
  6
Continuous
 62
   120
370
     5
100
AcDbLine
 10
7544.113220123159
 20
1258.663137429153
 30
0.0
 11
7544.113220123159
 21
968.6631374291494
 31
0.0
  0
LWPOLYLINE
  5
204
330
1F
100
AcDbEntity
  8
0-B_寸法
  6
Continuous
 62
     7
370
     9
100
AcDbPolyline
 90
        4
 70
     1
 43
20.0
 10
7554.113220123159
 20
1258.663137429153
 42
0.4142135623731
 10
7544.113220123159
 20
1268.663137429153
 42
0.4142135623731
 10
7534.11322012316
 20
1258.663137429153
 42
0.4142135623731
 10
7544.113220123159
 20
1248.663137429153
 42
0.4142135623731
  0
LWPOLYLINE
  5
205
330
1F
100
AcDbEntity
  8
0-B_寸法
  6
Continuous
 62
     7
370
     9
100
AcDbPolyline
 90
        4
 70
     1
 43
20.0
 10
7554.113220123159
 20
968.6631374291494
 42
0.4142135623731
 10
7544.113220123159
 20
978.6631374291494
 42
0.4142135623731
 10
7534.11322012316
 20
968.6631374291494
 42
0.4142135623731
 10
7544.113220123159
 20
958.6631374291494
 42
0.4142135623731
  0
LINE
  5
206
330
1F
100
AcDbEntity
  8
0-B_寸法
  6
Continuous
 62
   120
370
     5
100
AcDbLine
 10
7544.113220123159
 20
1258.663137429153
 30
0.0
 11
6794.113220123159
 21
1258.663137429153
 31
0.0
  0
LINE
  5
207
330
1F
100
AcDbEntity
  8
0-B_寸法
  6
Continuous
 62
   120
370
     5
100
AcDbLine
 10
7544.113220123159
 20
968.6631374291494
 30
0.0
 11
6794.113220123159
 21
968.6631374291494
 31
0.0
  0
LINE
  5
208
330
1F
100
AcDbEntity
  8
0-B_寸法
  6
Continuous
 62
   120
370
     5
100
AcDbLine
 10
7544.113220123159
 20
968.6631374291494
 30
0.0
 11
7544.113220123159
 21
818.6631374291494
 31
0.0
  0
LWPOLYLINE
  5
209
330
1F
100
AcDbEntity
  8
0-B_寸法
  6
Continuous
 62
     7
370
     9
100
AcDbPolyline
 90
        4
 70
     1
 43
20.0
 10
7554.113220123159
 20
818.6631374291494
 42
0.4142135623731
 10
7544.113220123159
 20
828.6631374291494
 42
0.4142135623731
 10
7534.11322012316
 20
818.6631374291494
 42
0.4142135623731
 10
7544.113220123159
 20
808.6631374291494
 42
0.4142135623731
  0
LINE
  5
20A
330
1F
100
AcDbEntity
  8
0-B_寸法
  6
Continuous
 62
   120
370
     5
100
AcDbLine
 10
7544.113220123159
 20
818.6631374291494
 30
0.0
 11
6794.113220123159
 21
818.6631374291494
 31
0.0
  0
LINE
  5
20B
330
1F
100
AcDbEntity
  8
0-B_寸法
  6
Continuous
 62
   120
370
     5
100
AcDbLine
 10
7544.113220123159
 20
818.6631374291494
 30
0.0
 11
7544.113220123159
 21
-8556.33686257085
 31
0.0
  0
LWPOLYLINE
  5
20C
330
1F
100
AcDbEntity
  8
0-B_寸法
  6
Continuous
 62
     7
370
     9
100
AcDbPolyline
 90
        4
 70
     1
 43
20.0
 10
7554.113220123159
 20
-8556.33686257085
 42
0.4142135623731
 10
7544.113220123159
 20
-8546.33686257085
 42
0.4142135623731
 10
7534.11322012316
 20
-8556.33686257085
 42
0.4142135623731
 10
7544.113220123159
 20
-8566.336862570848
 42
0.4142135623731
  0
LINE
  5
20D
330
1F
100
AcDbEntity
  8
0-B_寸法
  6
Continuous
 62
   120
370
     5
100
AcDbLine
 10
7544.113220123159
 20
-8556.33686257085
 30
0.0
 11
6794.113220123159
 21
-8556.33686257085
 31
0.0
  0
LINE
  5
20E
330
1F
100
AcDbEntity
  8
0-B_寸法
  6
Continuous
 62
   120
370
     5
100
AcDbLine
 10
-3100.886779876842
 20
9363.663137429148
 30
0.0
 11
6544.113220123159
 21
9363.663137429148
 31
0.0
  0
LINE
  5
20F
330
1F
100
AcDbEntity
  8
0-B_寸法
  6
Continuous
 62
   120
370
     5
100
AcDbLine
 10
-3025.886779876842
 20
5113.663137429148
 30
0.0
 11
6469.113220123159
 21
5113.663137429148
 31
0.0
  0
LINE
  5
210
330
1F
100
AcDbEntity
  8
0-B_寸法
  6
Continuous
 62
   120
370
     5
100
AcDbLine
 10
-3100.886779876842
 20
-10056.33686257085
 30
0.0
 11
6544.113220123159
 21
-10056.33686257085
 31
0.0
  0
LINE
  5
211
330
1F
100
AcDbEntity
  8
0-B_寸法
  6
Continuous
 62
   120
370
     5
100
AcDbLine
 10
6469.113220123159
 20
-9556.336862570848
 30
0.0
 11
-3025.886779876842
 21
-9556.336862570848
 31
0.0
  0
TEXT
  5
212
330
1F
100
AcDbEntity
  8
0-B_寸法
  6
Continuous
 62
     7
370
   211
100
AcDbText
 10
6577.8265240857
 20
-9499.936862570848
 30
0.0
 40
304.8
  1
15
 41
1.0625
  7
ＭＳ ゴシック
100
AcDbText
  0
TEXT
  5
213
330
1F
100
AcDbEntity
  8
0-B_寸法
  6
Continuous
 62
     7
370
   211
100
AcDbText
 10
7424.220964875033
 20
334.1108509531231
 30
0.0
 40
304.8
  1
30
 50
90.0
 41
1.0625
  7
ＭＳ ゴシック
100
AcDbText
  0
TEXT
  5
214
330
1F
100
AcDbEntity
  8
0-B_寸法
  6
Continuous
 62
     7
370
   211
100
AcDbText
 10
7424.220964875033
 20
901.163137429154
 30
0.0
 40
304.8
  1
58
 50
90.0
 41
1.0625
  7
ＭＳ ゴシック
100
AcDbText
  0
TEXT
  5
215
330
1F
100
AcDbEntity
  8
0-B_寸法
  6
Continuous
 62
     7
370
   211
100
AcDbText
 10
7424.220964875033
 20
-4418.836862570848
 30
0.0
 40
304.8
  1
1,875
 50
90.0
 41
1.1
  7
ＭＳ ゴシック
100
AcDbText
  0
TEXT
  5
216
330
1F
100
AcDbEntity
  8
0-B_寸法
  6
Continuous
 62
     7
370
   211
100
AcDbText
 10
6572.649165140789
 20
5170.063137429148
 30
0.0
 40
304.8
  1
15
 41
1.0625
  7
ＭＳ ゴシック
100
AcDbText
  0
LINE
  5
217
330
1F
100
AcDbEntity
  8
0-0_補助線
  6
JWW_HOJO
 62
   120
370
     5
100
AcDbLine
 10
8044.113220123159
 20
2363.663137429148
 30
0.0
 11
-5400.886779876842
 21
2363.663137429148
 31
0.0
  0
LINE
  5
218
330
1F
100
AcDbEntity
  8
0-0_補助線
  6
JWW_HOJO
 62
   120
370
     5
100
AcDbLine
 10
-5400.886779876842
 20
-10056.33686257085
 30
0.0
 11
8044.113220123159
 21
-10056.33686257085
 31
0.0
  0
LINE
  5
219
330
1F
100
AcDbEntity
  8
0-0_補助線
  6
JWW_HOJO
 62
   120
370
     5
100
AcDbLine
 10
7544.113220123159
 20
2363.663137429148
 30
0.0
 11
7544.113220123159
 21
-9556.336862570848
 31
0.0
  0
LINE
  5
21A
330
1F
100
AcDbEntity
  8
0-2
  6
Continuous
 62
    40
370
    15
100
AcDbLine
 10
-3100.886779876842
 20
6113.663137429148
 30
0.0
 11
-3100.886779876842
 21
8363.663137429148
 31
0.0
  0
LINE
  5
21B
330
1F
100
AcDbEntity
  8
0-2
  6
Continuous
 62
    40
370
    15
100
AcDbLine
 10
-3025.886779876842
 20
6113.663137429148
 30
0.0
 11
-3025.886779876842
 21
8363.663137429148
 31
0.0
  0
LINE
  5
21C
330
1F
100
AcDbEntity
  8
0-2
  6
Continuous
 62
    40
370
    15
100
AcDbLine
 10
-3100.886779876842
 20
6113.663137429148
 30
0.0
 11
-3025.886779876842
 21
6113.663137429148
 31
0.0
  0
LINE
  5
21D
330
1F
100
AcDbEntity
  8
0-2
  6
Continuous
 62
    40
370
    15
100
AcDbLine
 10
-3100.886779876842
 20
8363.663137429148
 30
0.0
 11
-3025.886779876842
 21
8363.663137429148
 31
0.0
  0
LINE
  5
21E
330
1F
100
AcDbEntity
  8
0-2
  6
Continuous
 62
    92
370
    13
100
AcDbLine
 10
-3100.886779876842
 20
1258.663137429153
 30
0.0
 11
-3100.886779876842
 21
1363.663137429151
 31
0.0
  0
LINE
  5
21F
330
1F
100
AcDbEntity
  8
0-2
  6
Continuous
 62
    92
370
    13
100
AcDbLine
 10
-3025.886779876842
 20
1258.663137429153
 30
0.0
 11
-3025.886779876842
 21
-8556.33686257085
 31
0.0
  0
LINE
  5
220
330
1F
100
AcDbEntity
  8
0-2
  6
Continuous
 62
    92
370
    13
100
AcDbLine
 10
-3100.886779876842
 20
1258.663137429153
 30
0.0
 11
-3100.886779876842
 21
-8556.33686257085
 31
0.0
  0
LINE
  5
221
330
1F
100
AcDbEntity
  8
パイプハンガー
  6
Continuous
 62
    92
370
    13
100
AcDbLine
 10
-3025.886779876842
 20
968.6631374291494
 30
0.0
 11
-3025.886779876842
 21
818.6631374291494
 31
0.0
  0
LINE
  5
222
330
1F
100
AcDbEntity
  8
パイプハンガー
  6
Continuous
 62
     7
370
     9
100
AcDbLine
 10
-2950.886779876842
 20
968.6631374291494
 30
0.0
 11
-2950.886779876842
 21
818.6631374291494
 31
0.0
  0
LINE
  5
223
330
1F
100
AcDbEntity
  8
固定棚
  6
Continuous
 62
    92
370
    13
100
AcDbLine
 10
-3025.886779876842
 20
-4076.336862570798
 30
0.0
 11
-3025.886779876842
 21
-4181.336862570803
 31
0.0
  0
LINE
  5
224
330
1F
100
AcDbEntity
  8
0-0_補助線
  6
JWW_HOJO
 62
   120
370
     5
100
AcDbLine
 10
-3350.886779876842
 20
1613.663137429151
 30
0.0
 11
-3350.886779876842
 21
-8806.336862570848
 31
0.0
  0
LINE
  5
225
330
1F
100
AcDbEntity
  8
0-0_補助線
  6
JWW_HOJO
 62
   120
370
     5
100
AcDbLine
 10
-4100.886779876842
 20
2363.663137429148
 30
0.0
 11
-4100.886779876842
 21
-9556.336862570848
 31
0.0
  0
LINE
  5
226
330
1F
100
AcDbEntity
  8
0-0_補助線
  6
JWW_HOJO
 62
   120
370
     5
100
AcDbLine
 10
-3350.886779876842
 20
8613.663137429148
 30
0.0
 11
-3350.886779876842
 21
5863.663137429148
 31
0.0
  0
LINE
  5
227
330
1F
100
AcDbEntity
  8
0-0_補助線
  6
JWW_HOJO
 62
   120
370
     5
100
AcDbLine
 10
-4100.886779876842
 20
9363.663137429148
 30
0.0
 11
-4100.886779876842
 21
5113.663137429148
 31
0.0
  0
LINE
  5
228
330
1F
100
AcDbEntity
  8
0-0_補助線
  6
JWW_HOJO
 62
   120
370
     5
100
AcDbLine
 10
-4600.886779876842
 20
9863.663137429148
 30
0.0
 11
-4600.886779876842
 21
4613.663137429148
 31
0.0
  0
LINE
  5
229
330
1F
100
AcDbEntity
  8
0-B_寸法
  6
Continuous
 62
   120
370
     5
100
AcDbLine
 10
-3100.886779876842
 20
5113.663137429148
 30
0.0
 11
-3025.886779876842
 21
5113.663137429148
 31
0.0
  0
LWPOLYLINE
  5
22A
330
1F
100
AcDbEntity
  8
0-B_寸法
  6
Continuous
 62
     7
370
     9
100
AcDbPolyline
 90
        4
 70
     1
 43
20.0
 10
-3090.886779876842
 20
5113.663137429148
 42
0.4142135623731
 10
-3100.886779876842
 20
5123.663137429148
 42
0.4142135623731
 10
-3110.886779876842
 20
5113.663137429148
 42
0.4142135623731
 10
-3100.886779876842
 20
5103.663137429148
 42
0.4142135623731
  0
LWPOLYLINE
  5
22B
330
1F
100
AcDbEntity
  8
0-B_寸法
  6
Continuous
 62
     7
370
     9
100
AcDbPolyline
 90
        4
 70
     1
 43
20.0
 10
-3015.886779876842
 20
5113.663137429148
 42
0.4142135623731
 10
-3025.886779876842
 20
5123.663137429148
 42
0.4142135623731
 10
-3035.886779876842
 20
5113.663137429148
 42
0.4142135623731
 10
-3025.886779876842
 20
5103.663137429148
 42
0.4142135623731
  0
LINE
  5
22C
330
1F
100
AcDbEntity
  8
0-B_寸法
  6
Continuous
 62
   120
370
     5
100
AcDbLine
 10
-3100.886779876842
 20
5113.663137429148
 30
0.0
 11
-3100.886779876842
 21
5863.663137429148
 31
0.0
  0
LINE
  5
22D
330
1F
100
AcDbEntity
  8
0-B_寸法
  6
Continuous
 62
   120
370
     5
100
AcDbLine
 10
-3025.886779876842
 20
5113.663137429148
 30
0.0
 11
-3025.886779876842
 21
5863.663137429148
 31
0.0
  0
LWPOLYLINE
  5
22E
330
1F
100
AcDbEntity
  8
0-B_寸法
  6
Continuous
 62
     7
370
     9
100
AcDbPolyline
 90
        4
 70
     1
 43
20.0
 10
-3090.886779876842
 20
9363.663137429148
 42
0.4142135623731
 10
-3100.886779876842
 20
9373.663137429148
 42
0.4142135623731
 10
-3110.886779876842
 20
9363.663137429148
 42
0.4142135623731
 10
-3100.886779876842
 20
9353.663137429148
 42
0.4142135623731
  0
LINE
  5
22F
330
1F
100
AcDbEntity
  8
0-B_寸法
  6
Continuous
 62
   120
370
     5
100
AcDbLine
 10
-3100.886779876842
 20
9363.663137429148
 30
0.0
 11
-3100.886779876842
 21
8613.663137429148
 31
0.0
  0
TEXT
  5
230
330
1F
100
AcDbEntity
  8
0-B_寸法
  6
Continuous
 62
     7
370
   211
100
AcDbText
 10
-4157.286779876841
 20
-6641.336862570826
 30
0.0
 40
304.8
  1
896
 50
90.0
 41
1.083333333333333
  7
ＭＳ ゴシック
100
AcDbText
  0
LWPOLYLINE
  5
231
330
1F
100
AcDbEntity
  8
0-B_寸法
  6
Continuous
 62
     7
370
     9
100
AcDbPolyline
 90
        4
 70
     1
 43
20.0
 10
-3090.886779876842
 20
-9556.336862570848
 42
0.4142135623731
 10
-3100.886779876842
 20
-9546.336862570848
 42
0.4142135623731
 10
-3110.886779876842
 20
-9556.336862570848
 42
0.4142135623731
 10
-3100.886779876842
 20
-9566.336862570846
 42
0.4142135623731
  0
LWPOLYLINE
  5
232
330
1F
100
AcDbEntity
  8
0-B_寸法
  6
Continuous
 62
     7
370
     9
100
AcDbPolyline
 90
        4
 70
     1
 43
20.0
 10
-3015.886779876842
 20
-9556.336862570848
 42
0.4142135623731
 10
-3025.886779876842
 20
-9546.336862570848
 42
0.4142135623731
 10
-3035.886779876842
 20
-9556.336862570848
 42
0.4142135623731
 10
-3025.886779876842
 20
-9566.336862570846
 42
0.4142135623731
  0
LWPOLYLINE
  5
233
330
1F
100
AcDbEntity
  8
0-B_寸法
  6
Continuous
 62
     7
370
     9
100
AcDbPolyline
 90
        4
 70
     1
 43
20.0
 10
-4090.886779876841
 20
-8556.33686257085
 42
0.4142135623731
 10
-4100.886779876842
 20
-8546.33686257085
 42
0.4142135623731
 10
-4110.886779876842
 20
-8556.33686257085
 42
0.4142135623731
 10
-4100.886779876842
 20
-8566.336862570848
 42
0.4142135623731
  0
LWPOLYLINE
  5
234
330
1F
100
AcDbEntity
  8
0-B_寸法
  6
Continuous
 62
     7
370
     9
100
AcDbPolyline
 90
        4
 70
     1
 43
20.0
 10
-4090.886779876841
 20
-4076.336862570798
 42
0.4142135623731
 10
-4100.886779876842
 20
-4066.336862570798
 42
0.4142135623731
 10
-4110.886779876842
 20
-4076.336862570798
 42
0.4142135623731
 10
-4100.886779876842
 20
-4086.336862570799
 42
0.4142135623731
  0
LINE
  5
235
330
1F
100
AcDbEntity
  8
0-B_寸法
  6
Continuous
 62
   120
370
     5
100
AcDbLine
 10
-3100.886779876842
 20
-9556.336862570848
 30
0.0
 11
-3100.886779876842
 21
-8806.336862570848
 31
0.0
  0
LINE
  5
236
330
1F
100
AcDbEntity
  8
0-B_寸法
  6
Continuous
 62
   120
370
     5
100
AcDbLine
 10
-3025.886779876842
 20
-9556.336862570848
 30
0.0
 11
-3100.886779876842
 21
-9556.336862570848
 31
0.0
  0
LINE
  5
237
330
1F
100
AcDbEntity
  8
0-B_寸法
  6
Continuous
 62
   120
370
     5
100
AcDbLine
 10
-3025.886779876842
 20
-9556.336862570848
 30
0.0
 11
-3025.886779876842
 21
-8806.336862570848
 31
0.0
  0
LINE
  5
238
330
1F
100
AcDbEntity
  8
0-B_寸法
  6
Continuous
 62
   120
370
     5
100
AcDbLine
 10
-4100.886779876842
 20
-4076.336862570798
 30
0.0
 11
-3350.886779876842
 21
-4076.336862570798
 31
0.0
  0
LINE
  5
239
330
1F
100
AcDbEntity
  8
0-B_寸法
  6
Continuous
 62
   120
370
     5
100
AcDbLine
 10
-4100.886779876842
 20
-8556.33686257085
 30
0.0
 11
-4100.886779876842
 21
-4076.336862570798
 31
0.0
  0
LWPOLYLINE
  5
23A
330
1F
100
AcDbEntity
  8
0-B_寸法
  6
Continuous
 62
     7
370
     9
100
AcDbPolyline
 90
        4
 70
     1
 43
20.0
 10
-3090.886779876842
 20
-10056.33686257085
 42
0.4142135623731
 10
-3100.886779876842
 20
-10046.33686257085
 42
0.4142135623731
 10
-3110.886779876842
 20
-10056.33686257085
 42
0.4142135623731
 10
-3100.886779876842
 20
-10066.33686257085
 42
0.4142135623731
  0
LINE
  5
23B
330
1F
100
AcDbEntity
  8
0-B_寸法
  6
Continuous
 62
   120
370
     5
100
AcDbLine
 10
-3100.886779876842
 20
-10056.33686257085
 30
0.0
 11
-3100.886779876842
 21
-9556.336862570848
 31
0.0
  0
TEXT
  5
23C
330
1F
100
AcDbEntity
  8
0-B_寸法
  6
Continuous
 62
     7
370
   211
100
AcDbText
 10
-3554.792127306902
 20
-9499.936862570848
 30
0.0
 40
304.8
  1
15
 41
1.0625
  7
ＭＳ ゴシック
100
AcDbText
  0
TEXT
  5
23D
330
1F
100
AcDbEntity
  8
0-B_寸法
  6
Continuous
 62
     7
370
   211
100
AcDbText
 10
-3548.320428625743
 20
5170.063137429148
 30
0.0
 40
304.8
  1
15
 41
1.0625
  7
ＭＳ ゴシック
100
AcDbText
  0
LINE
  5
23E
330
1F
100
AcDbEntity
  8
0-0_補助線
  6
JWW_HOJO
 62
   120
370
     5
100
AcDbLine
 10
-4750.886779876842
 20
2363.663137429148
 30
0.0
 11
-4750.886779876842
 21
-10056.33686257085
 31
0.0
  0
LINE
  5
23F
330
1F
100
AcDbEntity
  8
0-B_寸法
  6
Continuous
 62
   120
370
     5
100
AcDbLine
 10
-4750.886779876836
 20
-8556.336863909404
 30
0.0
 11
-3350.886779876842
 21
-8556.33686257085
 31
0.0
  0
LINE
  5
240
330
1F
100
AcDbEntity
  8
0-B_寸法
  6
Continuous
 62
   120
370
     5
100
AcDbLine
 10
-4750.886779876842
 20
1363.663136090594
 30
0.0
 11
-4750.886779876842
 21
1258.663137429153
 31
0.0
  0
LWPOLYLINE
  5
241
330
1F
100
AcDbEntity
  8
0-B_寸法
  6
Continuous
 62
     7
370
     9
100
AcDbPolyline
 90
        4
 70
     1
 43
20.0
 10
-4740.886779876842
 20
1363.663136090594
 42
0.4142135623731
 10
-4750.886779876842
 20
1373.663136090594
 42
0.4142135623731
 10
-4760.886779876842
 20
1363.663136090594
 42
0.4142135623731
 10
-4750.886779876842
 20
1353.663136090594
 42
0.4142135623731
  0
LWPOLYLINE
  5
242
330
1F
100
AcDbEntity
  8
0-B_寸法
  6
Continuous
 62
     7
370
     9
100
AcDbPolyline
 90
        4
 70
     1
 43
20.0
 10
-4740.886779876842
 20
1258.663137429153
 42
0.4142135623731
 10
-4750.886779876842
 20
1268.663137429153
 42
0.4142135623731
 10
-4760.886779876842
 20
1258.663137429153
 42
0.4142135623731
 10
-4750.886779876842
 20
1248.663137429153
 42
0.4142135623731
  0
LINE
  5
243
330
1F
100
AcDbEntity
  8
0-B_寸法
  6
Continuous
 62
   120
370
     5
100
AcDbLine
 10
-4750.886779876842
 20
1258.663137429153
 30
0.0
 11
-4750.886779876836
 21
-8556.336863909404
 31
0.0
  0
LWPOLYLINE
  5
244
330
1F
100
AcDbEntity
  8
0-B_寸法
  6
Continuous
 62
     7
370
     9
100
AcDbPolyline
 90
        4
 70
     1
 43
20.0
 10
-4740.886779876835
 20
-8556.336863909404
 42
0.4142135623731
 10
-4750.886779876836
 20
-8546.336863909406
 42
0.4142135623731
 10
-4760.886779876836
 20
-8556.336863909404
 42
0.4142135623731
 10
-4750.886779876836
 20
-8566.336863909404
 42
0.4142135623731
  0
TEXT
  5
245
330
1F
100
AcDbEntity
  8
0-B_寸法
  6
Continuous
 62
     7
370
   211
100
AcDbText
 10
-4809.210379296434
 20
-4198.836863240126
 30
0.0
 40
304.8
  1
1,963
 50
90.0
 41
1.1
  7
ＭＳ ゴシック
100
AcDbText
  0
TEXT
  5
246
330
1F
100
AcDbEntity
  8
0-B_寸法
  6
Continuous
 62
     7
370
   211
100
AcDbText
 10
-4859.210379296434
 20
883.6631374291528
 30
0.0
 40
304.8
  1
21
 50
90.0
 41
1.0625
  7
ＭＳ ゴシック
100
AcDbText
  0
LINE
  5
247
330
1F
100
AcDbEntity
  8
0-0_補助線
  6
JWW_HOJO
 62
   120
370
     5
100
AcDbLine
 10
-5400.886779876842
 20
2363.663137429148
 30
0.0
 11
-5400.886779876842
 21
-10056.33686257085
 31
0.0
  0
LINE
  5
248
330
1F
100
AcDbEntity
  8
0-B_寸法
  6
Continuous
 62
   120
370
     5
100
AcDbLine
 10
-5400.886779876842
 20
1363.663136090594
 30
0.0
 11
-5400.886779876836
 21
-8556.336863909404
 31
0.0
  0
LWPOLYLINE
  5
249
330
1F
100
AcDbEntity
  8
0-B_寸法
  6
Continuous
 62
     7
370
     9
100
AcDbPolyline
 90
        4
 70
     1
 43
20.0
 10
-5390.886779876842
 20
1363.663136090594
 42
0.4142135623731
 10
-5400.886779876842
 20
1373.663136090594
 42
0.4142135623731
 10
-5410.886779876842
 20
1363.663136090594
 42
0.4142135623731
 10
-5400.886779876842
 20
1353.663136090594
 42
0.4142135623731
  0
LWPOLYLINE
  5
24A
330
1F
100
AcDbEntity
  8
0-B_寸法
  6
Continuous
 62
     7
370
     9
100
AcDbPolyline
 90
        4
 70
     1
 43
20.0
 10
-5390.886779876836
 20
-8556.336863909404
 42
0.4142135623731
 10
-5400.886779876836
 20
-8546.336863909406
 42
0.4142135623731
 10
-5410.886779876837
 20
-8556.336863909404
 42
0.4142135623731
 10
-5400.886779876836
 20
-8566.336863909404
 42
0.4142135623731
  0
LINE
  5
24B
330
1F
100
AcDbEntity
  8
0-B_寸法
  6
Continuous
 62
   120
370
     5
100
AcDbLine
 10
-5400.886779876842
 20
1363.663136090594
 30
0.0
 11
-4750.886779876842
 21
1363.663136090594
 31
0.0
  0
LINE
  5
24C
330
1F
100
AcDbEntity
  8
0-B_寸法
  6
Continuous
 62
   120
370
     5
100
AcDbLine
 10
-5400.886779876836
 20
-8556.336863909404
 30
0.0
 11
-4750.886779876836
 21
-8556.336863909404
 31
0.0
  0
TEXT
  5
24D
330
1F
100
AcDbEntity
  8
0-B_寸法
  6
Continuous
 62
     7
370
   211
100
AcDbText
 10
-5459.210379296434
 20
-4146.336863909406
 30
0.0
 40
304.8
  1
1,984
 50
90.0
 41
1.1
  7
ＭＳ ゴシック
100
AcDbText
  0
TEXT
  5
24E
330
1F
100
AcDbEntity
  8
0-B_寸法
  6
Continuous
 62
     7
370
   211
100
AcDbText
 10
946.6132201231574
 20
-9999.936862570848
 30
0.0
 40
304.8
  1
～1,929
 41
1.107142857142858
  7
ＭＳ ゴシック
100
AcDbText
  0
LINE
  5
24F
330
1F
100
AcDbEntity
  8
0-A_文字
  6
Continuous
 62
     7
370
     9
100
AcDbLine
 10
-90.88677987684264
 20
4613.663137429148
 30
0.0
 11
-90.88677987684264
 21
3863.663137429154
 31
0.0
  0
LINE
  5
250
330
1F
100
AcDbEntity
  8
0-A_文字
  6
Continuous
 62
     7
370
     9
100
AcDbLine
 10
-90.88677987684264
 20
3863.663137429154
 30
0.0
 11
3534.113220123158
 21
3863.663137429154
 31
0.0
  0
LINE
  5
251
330
1F
100
AcDbEntity
  8
0-A_文字
  6
Continuous
 62
     7
370
     9
100
AcDbLine
 10
-90.88677987684264
 20
4613.663137429148
 30
0.0
 11
3534.113220123158
 21
4613.663137429148
 31
0.0
  0
LINE
  5
252
330
1F
100
AcDbEntity
  8
0-A_文字
  6
Continuous
 62
     7
370
     9
100
AcDbLine
 10
3534.113220123158
 20
4613.663137429148
 30
0.0
 11
3534.113220123158
 21
3863.663137429154
 31
0.0
  0
LINE
  5
253
330
1F
100
AcDbEntity
  8
0-A_文字
  6
Continuous
 62
     7
370
     9
100
AcDbLine
 10
-153.3867799822957
 20
-11306.33686257085
 30
0.0
 11
3596.613220228613
 21
-11306.33686257085
 31
0.0
  0
LINE
  5
254
330
1F
100
AcDbEntity
  8
0-A_文字
  6
Continuous
 62
     7
370
     9
100
AcDbLine
 10
3596.613220228613
 20
-10556.33686257085
 30
0.0
 11
-153.3867799822957
 21
-10556.33686257085
 31
0.0
  0
LINE
  5
255
330
1F
100
AcDbEntity
  8
0-A_文字
  6
Continuous
 62
     7
370
     9
100
AcDbLine
 10
-153.3867799822957
 20
-10556.33686257085
 30
0.0
 11
-153.3867799822957
 21
-11306.33686257085
 31
0.0
  0
LINE
  5
256
330
1F
100
AcDbEntity
  8
0-A_文字
  6
Continuous
 62
     7
370
     9
100
AcDbLine
 10
3596.613220228613
 20
-10556.33686257085
 30
0.0
 11
3596.613220228613
 21
-11306.33686257085
 31
0.0
  0
LINE
  5
257
330
1F
100
AcDbEntity
  8
0-B_寸法
  6
Continuous
 62
   120
370
     5
100
AcDbLine
 10
-4750.886779876842
 20
1363.663136090594
 30
0.0
 11
-3350.886779876842
 21
1363.663136090594
 31
0.0
  0
LINE
  5
258
330
1F
100
AcDbEntity
  8
0-B_寸法
  6
Continuous
 62
   120
370
     5
100
AcDbLine
 10
-4750.886779876842
 20
1258.663137429153
 30
0.0
 11
-3350.886779876842
 21
1258.663137429153
 31
0.0
  0
TEXT
  5
259
330
1F
100
AcDbEntity
  8
0-B_寸法
  6
Continuous
 62
     7
370
   211
100
AcDbText
 10
946.6132201231574
 20
9420.063137429148
 30
0.0
 40
304.8
  1
～1,929
 41
1.107142857142858
  7
ＭＳ ゴシック
100
AcDbText
  0
LINE
  5
25A
330
1F
100
AcDbEntity
  8
固定棚
  6
Continuous
 62
    92
370
    13
100
AcDbLine
 10
6469.113220123159
 20
6113.663137429148
 30
0.0
 11
974.1132201231565
 21
6113.663137429148
 31
0.0
  0
LINE
  5
25B
330
1F
100
AcDbEntity
  8
0-2
  6
Continuous
 62
    40
370
    15
100
AcDbLine
 10
869.1132201231583
 20
6113.663137429148
 30
0.0
 11
974.1132201231565
 21
6113.663137429148
 31
0.0
  0
LINE
  5
25C
330
1F
100
AcDbEntity
  8
0-2
  6
Continuous
 62
    40
370
    15
100
AcDbLine
 10
869.1132201231583
 20
6113.663137429148
 30
0.0
 11
869.1132201231583
 21
8363.663137429148
 31
0.0
  0
LINE
  5
25D
330
1F
100
AcDbEntity
  8
0-2
  6
Continuous
 62
    40
370
    15
100
AcDbLine
 10
974.1132201231565
 20
6113.663137429148
 30
0.0
 11
974.1132201231565
 21
8363.663137429148
 31
0.0
  0
LINE
  5
25E
330
1F
100
AcDbEntity
  8
0-2
  6
Continuous
 62
    40
370
    15
100
AcDbLine
 10
869.1132201231583
 20
8363.663137429148
 30
0.0
 11
974.1132201231565
 21
8363.663137429148
 31
0.0
  0
LINE
  5
25F
330
1F
100
AcDbEntity
  8
固定棚
  6
Continuous
 62
    92
370
    13
100
AcDbLine
 10
-3025.886779876842
 20
8363.663137429148
 30
0.0
 11
869.1132201231583
 21
8363.663137429148
 31
0.0
  0
LINE
  5
260
330
1F
100
AcDbEntity
  8
固定棚
  6
Continuous
 62
    92
370
    13
100
AcDbLine
 10
-3025.886779876842
 20
6113.663137429148
 30
0.0
 11
869.1132201231583
 21
6113.663137429148
 31
0.0
  0
LWPOLYLINE
  5
261
330
1F
100
AcDbEntity
  8
0-B_寸法
  6
Continuous
 62
     7
370
     9
100
AcDbPolyline
 90
        4
 70
     1
 43
20.0
 10
879.1132201231582
 20
5113.663137429148
 42
0.4142135623731
 10
869.1132201231583
 20
5123.663137429148
 42
0.4142135623731
 10
859.1132201231583
 20
5113.663137429148
 42
0.4142135623731
 10
869.1132201231583
 20
5103.663137429148
 42
0.4142135623731
  0
LINE
  5
262
330
1F
100
AcDbEntity
  8
0-B_寸法
  6
Continuous
 62
   120
370
     5
100
AcDbLine
 10
869.1132201231583
 20
5113.663137429148
 30
0.0
 11
869.1132201231583
 21
5863.663137429148
 31
0.0
  0
LWPOLYLINE
  5
263
330
1F
100
AcDbEntity
  8
0-B_寸法
  6
Continuous
 62
     7
370
     9
100
AcDbPolyline
 90
        4
 70
     1
 43
20.0
 10
984.1132201231565
 20
5113.663137429148
 42
0.4142135623731
 10
974.1132201231565
 20
5123.663137429148
 42
0.4142135623731
 10
964.1132201231566
 20
5113.663137429148
 42
0.4142135623731
 10
974.1132201231565
 20
5103.663137429148
 42
0.4142135623731
  0
LINE
  5
264
330
1F
100
AcDbEntity
  8
0-B_寸法
  6
Continuous
 62
   120
370
     5
100
AcDbLine
 10
974.1132201231565
 20
5113.663137429148
 30
0.0
 11
974.1132201231565
 21
5863.663137429148
 31
0.0
  0
TEXT
  5
265
330
1F
100
AcDbEntity
  8
0-B_寸法
  6
Continuous
 62
     7
370
   211
100
AcDbText
 10
1032.919815449749
 20
5170.063137429148
 30
0.0
 40
304.8
  1
21
 41
1.0625
  7
ＭＳ ゴシック
100
AcDbText
  0
TEXT
  5
266
330
1F
100
AcDbEntity
  8
0-B_寸法
  6
Continuous
 62
     7
370
   211
100
AcDbText
 10
-1403.386779876843
 20
5170.063137429148
 30
0.0
 40
304.8
  1
779
 41
1.083333333333333
  7
ＭＳ ゴシック
100
AcDbText
  0
LINE
  5
267
330
1F
100
AcDbEntity
  8
ハッチ
  6
Continuous
 62
   120
370
     5
100
AcDbLine
 10
-53.51548898102578
 20
-4181.336862570777
 30
0.0
 11
51.48451101899525
 21
-4076.336862570756
 31
0.0
  0
LINE
  5
268
330
1F
100
AcDbEntity
  8
ハッチ
  6
Continuous
 62
   120
370
     5
100
AcDbLine
 10
-124.2261670996868
 20
-4181.336862570771
 30
0.0
 11
-19.22616709966576
 21
-4076.336862570749
 31
0.0
  0
LINE
  5
269
330
1F
100
AcDbEntity
  8
ハッチ
  6
Continuous
 62
   120
370
     5
100
AcDbLine
 10
-194.9368452183478
 20
-4181.336862570765
 30
0.0
 11
-89.93684521832677
 21
-4076.336862570744
 31
0.0
  0
LINE
  5
26A
330
1F
100
AcDbEntity
  8
ハッチ
  6
Continuous
 62
   120
370
     5
100
AcDbLine
 10
-265.6475233370088
 20
-4181.33686257076
 30
0.0
 11
-160.6475233369878
 21
-4076.336862570737
 31
0.0
  0
LINE
  5
26B
330
1F
100
AcDbEntity
  8
ハッチ
  6
Continuous
 62
   120
370
     5
100
AcDbLine
 10
-336.3582014556698
 20
-4181.336862570753
 30
0.0
 11
-231.3582014556488
 21
-4076.336862570732
 31
0.0
  0
LINE
  5
26C
330
1F
100
AcDbEntity
  8
ハッチ
  6
Continuous
 62
   120
370
     5
100
AcDbLine
 10
-407.0688795743479
 20
-4181.336862570764
 30
0.0
 11
-302.068879574378
 21
-4076.336862570794
 31
0.0
  0
LINE
  5
26D
330
1F
100
AcDbEntity
  8
ハッチ
  6
Continuous
 62
   120
370
     5
100
AcDbLine
 10
-477.779557693006
 20
-4181.336862570757
 30
0.0
 11
-372.779557693039
 21
-4076.33686257079
 31
0.0
  0
LINE
  5
26E
330
1F
100
AcDbEntity
  8
ハッチ
  6
Continuous
 62
   120
370
     5
100
AcDbLine
 10
-548.4902358116699
 20
-4181.336862570754
 30
0.0
 11
-443.4902358117
 21
-4076.336862570784
 31
0.0
  0
LINE
  5
26F
330
1F
100
AcDbEntity
  8
ハッチ
  6
Continuous
 62
   120
370
     5
100
AcDbLine
 10
-619.2009139304162
 20
-4181.336862570834
 30
0.0
 11
-514.2009139303951
 21
-4076.336862570811
 31
0.0
  0
LINE
  5
270
330
1F
100
AcDbEntity
  8
ハッチ
  6
Continuous
 62
   120
370
     5
100
AcDbLine
 10
-689.9115920490772
 20
-4181.336862570828
 30
0.0
 11
-584.9115920490561
 21
-4076.336862570807
 31
0.0
  0
LINE
  5
271
330
1F
100
AcDbEntity
  8
ハッチ
  6
Continuous
 62
   120
370
     5
100
AcDbLine
 10
-760.6222701675421
 20
-4181.336862570808
 30
0.0
 11
-655.622270167521
 21
-4076.336862570787
 31
0.0
  0
LINE
  5
272
330
1F
100
AcDbEntity
  8
ハッチ
  6
Continuous
 62
   120
370
     5
100
AcDbLine
 10
-831.3329482862031
 20
-4181.336862570803
 30
0.0
 11
-726.332948286182
 21
-4076.33686257078
 31
0.0
  0
LINE
  5
273
330
1F
100
AcDbEntity
  8
ハッチ
  6
Continuous
 62
   120
370
     5
100
AcDbLine
 10
-902.0436264048612
 20
-4181.336862570794
 30
0.0
 11
-797.043626404843
 21
-4076.336862570774
 31
0.0
  0
LINE
  5
274
330
1F
100
AcDbEntity
  8
ハッチ
  6
Continuous
 62
   120
370
     5
100
AcDbLine
 10
-972.7543045235251
 20
-4181.33686257079
 30
0.0
 11
-867.7543045235041
 21
-4076.336862570769
 31
0.0
  0
LINE
  5
275
330
1F
100
AcDbEntity
  8
ハッチ
  6
Continuous
 62
   120
370
     5
100
AcDbLine
 10
-1043.464982642186
 20
-4181.336862570784
 30
0.0
 11
-938.4649826421651
 21
-4076.336862570763
 31
0.0
  0
LINE
  5
276
330
1F
100
AcDbEntity
  8
ハッチ
  6
Continuous
 62
   120
370
     5
100
AcDbLine
 10
-1114.175660760844
 20
-4181.336862570777
 30
0.0
 11
-1009.175660760823
 21
-4076.336862570756
 31
0.0
  0
LINE
  5
277
330
1F
100
AcDbEntity
  8
ハッチ
  6
Continuous
 62
   120
370
     5
100
AcDbLine
 10
-1184.886338879505
 20
-4181.336862570771
 30
0.0
 11
-1079.886338879484
 21
-4076.33686257075
 31
0.0
  0
LINE
  5
278
330
1F
100
AcDbEntity
  8
ハッチ
  6
Continuous
 62
   120
370
     5
100
AcDbLine
 10
-1255.597016998166
 20
-4181.336862570764
 30
0.0
 11
-1150.597016998145
 21
-4076.336862570744
 31
0.0
  0
LINE
  5
279
330
1F
100
AcDbEntity
  8
ハッチ
  6
Continuous
 62
   120
370
     5
100
AcDbLine
 10
-1326.307695116827
 20
-4181.33686257076
 30
0.0
 11
-1221.307695116806
 21
-4076.336862570739
 31
0.0
  0
LINE
  5
27A
330
1F
100
AcDbEntity
  8
ハッチ
  6
Continuous
 62
   120
370
     5
100
AcDbLine
 10
-1397.018373235488
 20
-4181.336862570754
 30
0.0
 11
-1292.018373235467
 21
-4076.336862570733
 31
0.0
  0
LINE
  5
27B
330
1F
100
AcDbEntity
  8
ハッチ
  6
Continuous
 62
   120
370
     5
100
AcDbLine
 10
-1467.729051354181
 20
-4181.33686257078
 30
0.0
 11
-1362.729051354211
 21
-4076.33686257081
 31
0.0
  0
LINE
  5
27C
330
1F
100
AcDbEntity
  8
ハッチ
  6
Continuous
 62
   120
370
     5
100
AcDbLine
 10
-1538.439729472841
 20
-4181.336862570774
 30
0.0
 11
-1433.439729472872
 21
-4076.336862570804
 31
0.0
  0
LINE
  5
27D
330
1F
100
AcDbEntity
  8
ハッチ
  6
Continuous
 62
   120
370
     5
100
AcDbLine
 10
-1609.150407591505
 20
-4181.33686257077
 30
0.0
 11
-1504.150407591533
 21
-4076.3368625708
 31
0.0
  0
LINE
  5
27E
330
1F
100
AcDbEntity
  8
ハッチ
  6
Continuous
 62
   120
370
     5
100
AcDbLine
 10
-1679.861085710166
 20
-4181.336862570764
 30
0.0
 11
-1574.861085710194
 21
-4076.336862570794
 31
0.0
  0
LINE
  5
27F
330
1F
100
AcDbEntity
  8
ハッチ
  6
Continuous
 62
   120
370
     5
100
AcDbLine
 10
-1750.571763828896
 20
-4181.336862570829
 30
0.0
 11
-1645.571763828877
 21
-4076.336862570808
 31
0.0
  0
LINE
  5
280
330
1F
100
AcDbEntity
  8
ハッチ
  6
Continuous
 62
   120
370
     5
100
AcDbLine
 10
-1821.28244194736
 20
-4181.336862570808
 30
0.0
 11
-1716.28244194734
 21
-4076.336862570787
 31
0.0
  0
LINE
  5
281
330
1F
100
AcDbEntity
  8
ハッチ
  6
Continuous
 62
   120
370
     5
100
AcDbLine
 10
-1891.993120066022
 20
-4181.336862570803
 30
0.0
 11
-1786.993120066001
 21
-4076.336862570781
 31
0.0
  0
LINE
  5
282
330
1F
100
AcDbEntity
  8
ハッチ
  6
Continuous
 62
   120
370
     5
100
AcDbLine
 10
-1962.703798184682
 20
-4181.336862570796
 30
0.0
 11
-1857.703798184662
 21
-4076.336862570775
 31
0.0
  0
LINE
  5
283
330
1F
100
AcDbEntity
  8
ハッチ
  6
Continuous
 62
   120
370
     5
100
AcDbLine
 10
-2033.414476303344
 20
-4181.336862570791
 30
0.0
 11
-1928.414476303323
 21
-4076.33686257077
 31
0.0
  0
LINE
  5
284
330
1F
100
AcDbEntity
  8
ハッチ
  6
Continuous
 62
   120
370
     5
100
AcDbLine
 10
-2104.125154422002
 20
-4181.336862570784
 30
0.0
 11
-1999.125154421984
 21
-4076.336862570763
 31
0.0
  0
LINE
  5
285
330
1F
100
AcDbEntity
  8
ハッチ
  6
Continuous
 62
   120
370
     5
100
AcDbLine
 10
-2174.835832540663
 20
-4181.336862570778
 30
0.0
 11
-2069.835832540644
 21
-4076.336862570757
 31
0.0
  0
LINE
  5
286
330
1F
100
AcDbEntity
  8
ハッチ
  6
Continuous
 62
   120
370
     5
100
AcDbLine
 10
-2245.546510659324
 20
-4181.336862570773
 30
0.0
 11
-2140.546510659306
 21
-4076.336862570751
 31
0.0
  0
LINE
  5
287
330
1F
100
AcDbEntity
  8
ハッチ
  6
Continuous
 62
   120
370
     5
100
AcDbLine
 10
-2316.257188777985
 20
-4181.336862570767
 30
0.0
 11
-2211.257188777967
 21
-4076.336862570746
 31
0.0
  0
LINE
  5
288
330
1F
100
AcDbEntity
  8
ハッチ
  6
Continuous
 62
   120
370
     5
100
AcDbLine
 10
-2386.967866896646
 20
-4181.33686257076
 30
0.0
 11
-2281.967866896628
 21
-4076.33686257074
 31
0.0
  0
LINE
  5
289
330
1F
100
AcDbEntity
  8
ハッチ
  6
Continuous
 62
   120
370
     5
100
AcDbLine
 10
-2457.678545015307
 20
-4181.336862570754
 30
0.0
 11
-2352.678545015286
 21
-4076.336862570733
 31
0.0
  0
LINE
  5
28A
330
1F
100
AcDbEntity
  8
ハッチ
  6
Continuous
 62
   120
370
     5
100
AcDbLine
 10
-2528.389223134013
 20
-4181.336862570793
 30
0.0
 11
-2423.38922313399
 21
-4076.336862570771
 31
0.0
  0
LINE
  5
28B
330
1F
100
AcDbEntity
  8
ハッチ
  6
Continuous
 62
   120
370
     5
100
AcDbLine
 10
-2599.099901252674
 20
-4181.33686257079
 30
0.0
 11
-2494.099901252705
 21
-4076.336862570818
 31
0.0
  0
LINE
  5
28C
330
1F
100
AcDbEntity
  8
ハッチ
  6
Continuous
 62
   120
370
     5
100
AcDbLine
 10
-2669.810579371335
 20
-4181.336862570784
 30
0.0
 11
-2564.810579371365
 21
-4076.336862570813
 31
0.0
  0
LINE
  5
28D
330
1F
100
AcDbEntity
  8
ハッチ
  6
Continuous
 62
   120
370
     5
100
AcDbLine
 10
-2740.521257489996
 20
-4181.336862570778
 30
0.0
 11
-2635.521257490029
 21
-4076.33686257081
 31
0.0
  0
LINE
  5
28E
330
1F
100
AcDbEntity
  8
ハッチ
  6
Continuous
 62
   120
370
     5
100
AcDbLine
 10
-2811.231935608714
 20
-4181.336862570828
 30
0.0
 11
-2706.231935608696
 21
-4076.336862570808
 31
0.0
  0
LINE
  5
28F
330
1F
100
AcDbEntity
  8
ハッチ
  6
Continuous
 62
   120
370
     5
100
AcDbLine
 10
-2881.942613727185
 20
-4181.336862570809
 30
0.0
 11
-2776.942613727158
 21
-4076.336862570789
 31
0.0
  0
LINE
  5
290
330
1F
100
AcDbEntity
  8
ハッチ
  6
Continuous
 62
   120
370
     5
100
AcDbLine
 10
-2952.653291845846
 20
-4181.336862570804
 30
0.0
 11
-2847.653291845822
 21
-4076.336862570783
 31
0.0
  0
LINE
  5
291
330
1F
100
AcDbEntity
  8
ハッチ
  6
Continuous
 62
   120
370
     5
100
AcDbLine
 10
-3023.363969964501
 20
-4181.336862570796
 30
0.0
 11
-2918.363969964483
 21
-4076.336862570777
 31
0.0
  0
LINE
  5
292
330
1F
100
AcDbEntity
  8
ハッチ
  6
Continuous
 62
   120
370
     5
100
AcDbLine
 10
-3025.886779876859
 20
-4113.148994364488
 30
0.0
 11
-2989.074648083144
 21
-4076.336862570771
 31
0.0
  0
LINE
  5
293
330
1F
100
AcDbEntity
  8
桟木・巾木
  6
Continuous
 62
     7
370
     9
100
AcDbLine
 10
6469.113220123159
 20
958.6631374291528
 30
0.0
 11
974.1132201231565
 21
958.6631374291528
 31
0.0
  0
LINE
  5
294
330
1F
100
AcDbEntity
  8
桟木・巾木
  6
Continuous
 62
     7
370
     9
100
AcDbLine
 10
974.1132201231565
 20
-8256.33686257085
 30
0.0
 11
6469.113220123159
 21
-8256.33686257085
 31
0.0
  0
LINE
  5
295
330
1F
100
AcDbEntity
  8
パイプハンガー
  6
Continuous
 62
    92
370
    13
100
AcDbLine
 10
6469.113220123159
 20
968.6631374291494
 30
0.0
 11
974.1132201231565
 21
968.6631374291494
 31
0.0
  0
LINE
  5
296
330
1F
100
AcDbEntity
  8
パイプハンガー
  6
Continuous
 62
   120
370
     5
100
AcDbLine
 10
974.1132201231565
 20
923.6631374291534
 30
0.0
 11
6469.113220123159
 21
923.6631374291534
 31
0.0
  0
LINE
  5
297
330
1F
100
AcDbEntity
  8
パイプハンガー
  6
Continuous
 62
   120
370
     5
100
AcDbLine
 10
974.1132201231565
 20
903.6631374291517
 30
0.0
 11
6469.113220123159
 21
903.6631374291517
 31
0.0
  0
LINE
  5
298
330
1F
100
AcDbEntity
  8
パイプハンガー
  6
Continuous
 62
   120
370
     5
100
AcDbLine
 10
974.1132201231565
 20
883.6631374291528
 30
0.0
 11
6469.113220123159
 21
883.6631374291528
 31
0.0
  0
LINE
  5
299
330
1F
100
AcDbEntity
  8
パイプハンガー
  6
Continuous
 62
   120
370
     5
100
AcDbLine
 10
974.1132201231565
 20
863.6631374291511
 30
0.0
 11
6469.113220123159
 21
863.6631374291511
 31
0.0
  0
LINE
  5
29A
330
1F
100
AcDbEntity
  8
パイプハンガー
  6
Continuous
 62
    92
370
    13
100
AcDbLine
 10
6469.113220123159
 20
818.6631374291494
 30
0.0
 11
974.1132201231565
 21
818.6631374291494
 31
0.0
  0
LINE
  5
29B
330
1F
100
AcDbEntity
  8
パイプハンガー
  6
Continuous
 62
    92
370
    13
100
AcDbLine
 10
974.1132201231565
 20
968.6631374291494
 30
0.0
 11
974.1132201231565
 21
818.6631374291494
 31
0.0
  0
LINE
  5
29C
330
1F
100
AcDbEntity
  8
パイプハンガー
  6
Continuous
 62
     7
370
     9
100
AcDbLine
 10
1049.113220123156
 20
968.6631374291494
 30
0.0
 11
1049.113220123156
 21
818.6631374291494
 31
0.0
  0
LINE
  5
29D
330
1F
100
AcDbEntity
  8
桟木・巾木
  6
Continuous
 62
     7
370
     9
100
AcDbLine
 10
-3025.886779876842
 20
-8256.33686257085
 30
0.0
 11
869.1132201231583
 21
-8256.33686257085
 31
0.0
  0
LINE
  5
29E
330
1F
100
AcDbEntity
  8
0-2
  6
Continuous
 62
    92
370
    13
100
AcDbLine
 10
869.1132201231583
 20
-8556.33686257085
 30
0.0
 11
869.1132201231583
 21
1258.663137429153
 31
0.0
  0
LINE
  5
29F
330
1F
100
AcDbEntity
  8
0-2
  6
Continuous
 62
    92
370
    13
100
AcDbLine
 10
974.1132201231565
 20
-8556.33686257085
 30
0.0
 11
974.1132201231565
 21
1258.663137429153
 31
0.0
  0
LINE
  5
2A0
330
1F
100
AcDbEntity
  8
パイプハンガー
  6
Continuous
 62
    92
370
    13
100
AcDbLine
 10
869.1132201231583
 20
968.6631374291494
 30
0.0
 11
869.1132201231583
 21
818.6631374291494
 31
0.0
  0
LINE
  5
2A1
330
1F
100
AcDbEntity
  8
パイプハンガー
  6
Continuous
 62
     7
370
     9
100
AcDbLine
 10
794.1132201231583
 20
968.6631374291494
 30
0.0
 11
794.1132201231583
 21
818.6631374291494
 31
0.0
  0
LINE
  5
2A2
330
1F
100
AcDbEntity
  8
パイプハンガー
  6
Continuous
 62
    92
370
    13
100
AcDbLine
 10
869.1132201231583
 20
968.6631374291494
 30
0.0
 11
-3025.886779876842
 21
968.6631374291494
 31
0.0
  0
LINE
  5
2A3
330
1F
100
AcDbEntity
  8
パイプハンガー
  6
Continuous
 62
   120
370
     5
100
AcDbLine
 10
-3025.886779876842
 20
923.6631374291534
 30
0.0
 11
869.1132201231583
 21
923.6631374291534
 31
0.0
  0
LINE
  5
2A4
330
1F
100
AcDbEntity
  8
パイプハンガー
  6
Continuous
 62
   120
370
     5
100
AcDbLine
 10
-3025.886779876842
 20
903.6631374291517
 30
0.0
 11
869.1132201231583
 21
903.6631374291517
 31
0.0
  0
LINE
  5
2A5
330
1F
100
AcDbEntity
  8
パイプハンガー
  6
Continuous
 62
   120
370
     5
100
AcDbLine
 10
-3025.886779876842
 20
883.6631374291528
 30
0.0
 11
869.1132201231583
 21
883.6631374291528
 31
0.0
  0
LINE
  5
2A6
330
1F
100
AcDbEntity
  8
パイプハンガー
  6
Continuous
 62
   120
370
     5
100
AcDbLine
 10
-3025.886779876842
 20
863.6631374291511
 30
0.0
 11
869.1132201231583
 21
863.6631374291511
 31
0.0
  0
LINE
  5
2A7
330
1F
100
AcDbEntity
  8
パイプハンガー
  6
Continuous
 62
    92
370
    13
100
AcDbLine
 10
869.1132201231583
 20
818.6631374291494
 30
0.0
 11
-3025.886779876842
 21
818.6631374291494
 31
0.0
  0
LINE
  5
2A8
330
1F
100
AcDbEntity
  8
固定棚
  6
Continuous
 62
    92
370
    13
100
AcDbLine
 10
869.1132201231583
 20
-4076.336862570798
 30
0.0
 11
869.1132201231583
 21
-4181.336862570803
 31
0.0
  0
LINE
  5
2A9
330
1F
100
AcDbEntity
  8
固定棚
  6
Continuous
 62
    92
370
    13
100
AcDbLine
 10
869.1132201231583
 20
-4181.336862570803
 30
0.0
 11
-3025.886779876842
 21
-4181.336862570803
 31
0.0
  0
LINE
  5
2AA
330
1F
100
AcDbEntity
  8
固定棚
  6
Continuous
 62
    92
370
    13
100
AcDbLine
 10
869.1132201231583
 20
-4076.336862570798
 30
0.0
 11
-3025.886779876842
 21
-4076.336862570798
 31
0.0
  0
LWPOLYLINE
  5
2AB
330
1F
100
AcDbEntity
  8
0-B_寸法
  6
Continuous
 62
     7
370
     9
100
AcDbPolyline
 90
        4
 70
     1
 43
20.0
 10
879.1132201231582
 20
-9556.336862570848
 42
0.4142135623731
 10
869.1132201231583
 20
-9546.336862570848
 42
0.4142135623731
 10
859.1132201231583
 20
-9556.336862570848
 42
0.4142135623731
 10
869.1132201231583
 20
-9566.336862570846
 42
0.4142135623731
  0
LWPOLYLINE
  5
2AC
330
1F
100
AcDbEntity
  8
0-B_寸法
  6
Continuous
 62
     7
370
     9
100
AcDbPolyline
 90
        4
 70
     1
 43
20.0
 10
984.1132201231565
 20
-9556.336862570848
 42
0.4142135623731
 10
974.1132201231565
 20
-9546.336862570848
 42
0.4142135623731
 10
964.1132201231566
 20
-9556.336862570848
 42
0.4142135623731
 10
974.1132201231565
 20
-9566.336862570846
 42
0.4142135623731
  0
LINE
  5
2AD
330
1F
100
AcDbEntity
  8
0-B_寸法
  6
Continuous
 62
   120
370
     5
100
AcDbLine
 10
869.1132201231583
 20
-9556.336862570848
 30
0.0
 11
869.1132201231583
 21
-8806.336862570848
 31
0.0
  0
LINE
  5
2AE
330
1F
100
AcDbEntity
  8
0-B_寸法
  6
Continuous
 62
   120
370
     5
100
AcDbLine
 10
974.1132201231565
 20
-9556.336862570848
 30
0.0
 11
974.1132201231565
 21
-8806.336862570848
 31
0.0
  0
TEXT
  5
2AF
330
1F
100
AcDbEntity
  8
0-B_寸法
  6
Continuous
 62
     7
370
   211
100
AcDbText
 10
1017.590919852655
 20
-9499.936862570848
 30
0.0
 40
304.8
  1
21
 41
1.0625
  7
ＭＳ ゴシック
100
AcDbText
  0
TEXT
  5
2B0
330
1F
100
AcDbEntity
  8
0-B_寸法
  6
Continuous
 62
     7
370
   211
100
AcDbText
 10
-1403.386779876843
 20
-9499.936862570848
 30
0.0
 40
304.8
  1
779
 41
1.083333333333333
  7
ＭＳ ゴシック
100
AcDbText
  0
TEXT
  5
2B1
330
1F
100
AcDbEntity
  8
0-A_文字
  6
Continuous
 62
     7
370
   211
100
AcDbText
 10
3184.113220123158
 20
-9814.036862570849
 30
0.0
 40
228.6
  1
ﾌﾘｰｶｯﾄ
 41
1.138888888888889
  7
ＭＳ ゴシック
100
AcDbText
  0
TEXT
  5
2B2
330
1F
100
AcDbEntity
  8
0-B_寸法
  6
Continuous
 62
     7
370
   211
100
AcDbText
 10
2971.613220123158
 20
-9499.936862570848
 30
0.0
 40
304.8
  1
～1,099
 41
1.107142857142857
  7
ＭＳ ゴシック
100
AcDbText
  0
LINE
  5
2B3
330
1F
100
AcDbEntity
  8
ハッチ
  6
Continuous
 62
   120
370
     5
100
AcDbLine
 10
17.19518913763523
 20
-4181.336862570783
 30
0.0
 11
122.1951891376193
 21
-4076.336862570798
 31
0.0
  0
LINE
  5
2B4
330
1F
100
AcDbEntity
  8
ハッチ
  6
Continuous
 62
   120
370
     5
100
AcDbLine
 10
512.1699359682793
 20
-4181.336862570777
 30
0.0
 11
617.1699359683004
 21
-4076.336862570756
 31
0.0
  0
LINE
  5
2B5
330
1F
100
AcDbEntity
  8
ハッチ
  6
Continuous
 62
   120
370
     5
100
AcDbLine
 10
441.4592578496183
 20
-4181.336862570771
 30
0.0
 11
546.4592578496394
 21
-4076.336862570749
 31
0.0
  0
LINE
  5
2B6
330
1F
100
AcDbEntity
  8
ハッチ
  6
Continuous
 62
   120
370
     5
100
AcDbLine
 10
370.7485797309573
 20
-4181.336862570765
 30
0.0
 11
475.7485797309783
 21
-4076.336862570744
 31
0.0
  0
LINE
  5
2B7
330
1F
100
AcDbEntity
  8
ハッチ
  6
Continuous
 62
   120
370
     5
100
AcDbLine
 10
300.0379016122963
 20
-4181.33686257076
 30
0.0
 11
405.0379016123173
 21
-4076.336862570737
 31
0.0
  0
LINE
  5
2B8
330
1F
100
AcDbEntity
  8
ハッチ
  6
Continuous
 62
   120
370
     5
100
AcDbLine
 10
229.3272234936353
 20
-4181.336862570753
 30
0.0
 11
334.3272234936563
 21
-4076.336862570732
 31
0.0
  0
LINE
  5
2B9
330
1F
100
AcDbEntity
  8
ハッチ
  6
Continuous
 62
   120
370
     5
100
AcDbLine
 10
158.6165453749572
 20
-4181.336862570764
 30
0.0
 11
263.6165453749271
 21
-4076.336862570794
 31
0.0
  0
LINE
  5
2BA
330
1F
100
AcDbEntity
  8
ハッチ
  6
Continuous
 62
   120
370
     5
100
AcDbLine
 10
87.90586725629908
 20
-4181.336862570757
 30
0.0
 11
192.9058672562661
 21
-4076.33686257079
 31
0.0
  0
LINE
  5
2BB
330
1F
100
AcDbEntity
  8
ハッチ
  6
Continuous
 62
   120
370
     5
100
AcDbLine
 10
582.8806140869403
 20
-4181.336862570783
 30
0.0
 11
687.8806140869244
 21
-4076.336862570798
 31
0.0
  0
LINE
  5
2BC
330
1F
100
AcDbEntity
  8
ハッチ
  6
Continuous
 62
   120
370
     5
100
AcDbLine
 10
724.3019703242425
 20
-4181.336862570764
 30
0.0
 11
829.3019703242123
 21
-4076.336862570794
 31
0.0
  0
LINE
  5
2BD
330
1F
100
AcDbEntity
  8
ハッチ
  6
Continuous
 62
   120
370
     5
100
AcDbLine
 10
653.5912922055843
 20
-4181.336862570757
 30
0.0
 11
758.5912922055513
 21
-4076.33686257079
 31
0.0
  0
LINE
  5
2BE
330
1F
100
AcDbEntity
  8
ハッチ
  6
Continuous
 62
   120
370
     5
100
AcDbLine
 10
865.7233265615815
 20
-4181.33686257076
 30
0.0
 11
869.1132201231583
 21
-4177.946969009183
 31
0.0
  0
LINE
  5
2BF
330
1F
100
AcDbEntity
  8
ハッチ
  6
Continuous
 62
   120
370
     5
100
AcDbLine
 10
795.0126484429205
 20
-4181.336862570753
 30
0.0
 11
869.1132201231583
 21
-4107.236290890515
 31
0.0
  0
LINE
  5
2C0
330
1F
100
AcDbEntity
  8
0-A_文字
  6
Continuous
 62
     7
370
     9
100
AcDbLine
 10
-1987.157872818824
 20
208.9283684922208
 30
0.0
 11
-245.2949507835484
 21
208.9283684922208
 31
0.0
  0
TEXT
  5
2C1
330
1F
100
AcDbEntity
  8
0-A_文字
  6
Continuous
 62
     7
370
     9
100
AcDbText
 10
-1903.047147952495
 20
251.2283684922208
 30
0.0
 40
228.6
  1
ﾊﾟｲﾌﾟﾊﾝｶﾞｰ
 41
1.15
  7
ＭＳ ゴシック
100
AcDbText
  0
TEXT
  5
2C2
330
1F
100
AcDbEntity
  8
0-A_文字
  6
Continuous
 62
     7
370
     9
100
AcDbText
 10
-1569.407167758058
 20
-3786.086755363128
 30
0.0
 40
228.6
  1
固定棚
 41
1.111111111111111
  7
ＭＳ ゴシック
100
AcDbText
  0
LINE
  5
2C3
330
1F
100
AcDbEntity
  8
0-A_文字
  6
Continuous
 62
     7
370
     9
100
AcDbLine
 10
-569.407167758061
 20
-3828.386755363128
 30
0.0
 11
-1605.325616233196
 21
-3828.386755363128
 31
0.0
  0
LINE
  5
2C4
330
1F
100
AcDbEntity
  8
0-A_文字
  6
Continuous
 62
     7
370
     9
100
AcDbLine
 10
-1780.414295312929
 20
-4131.649243359351
 30
0.0
 11
-1605.325616233196
 21
-3828.386755363128
 31
0.0
  0
LINE
  5
2C5
330
1F
100
AcDbEntity
  8
0-A_文字
  6
Continuous
 62
     7
370
     9
100
AcDbLine
 10
-1987.157872818824
 20
208.9283684922208
 30
0.0
 11
-2150.535811752656
 21
818.6631374291494
 31
0.0
  0
LINE
  5
2C6
330
1F
100
AcDbEntity
  8
0-A_文字
  6
Continuous
 62
     7
370
     9
100
AcDbLine
 10
3142.995481317473
 20
208.9283684922208
 30
0.0
 11
4884.85840335275
 21
208.9283684922208
 31
0.0
  0
TEXT
  5
2C7
330
1F
100
AcDbEntity
  8
0-A_文字
  6
Continuous
 62
     7
370
     9
100
AcDbText
 10
3227.106206183804
 20
251.2283684922208
 30
0.0
 40
228.6
  1
ﾊﾟｲﾌﾟﾊﾝｶﾞｰ
 41
1.15
  7
ＭＳ ゴシック
100
AcDbText
  0
LINE
  5
2C8
330
1F
100
AcDbEntity
  8
0-A_文字
  6
Continuous
 62
     7
370
     9
100
AcDbLine
 10
3142.995481317473
 20
208.9283684922208
 30
0.0
 11
2979.617542383642
 21
818.6631374291494
 31
0.0
  0
TEXT
  5
2C9
330
1F
100
AcDbEntity
  8
0-B_寸法
  6
Continuous
 62
     7
370
   211
100
AcDbText
 10
2946.613220123158
 20
5170.063137429148
 30
0.0
 40
304.8
  1
～1,099
 41
1.107142857142857
  7
ＭＳ ゴシック
100
AcDbText
  0
TEXT
  5
2CA
330
1F
100
AcDbEntity
  8
0-A_文字
  6
Continuous
 62
     7
370
   211
100
AcDbText
 10
3209.113220123158
 20
4855.963137429148
 30
0.0
 40
228.6
  1
ﾌﾘｰｶｯﾄ
 41
1.138888888888889
  7
ＭＳ ゴシック
100
AcDbText
  0
LINE
  5
2CB
330
1F
100
AcDbEntity
  8
0-A_文字
  6
Continuous
 62
     7
370
     9
100
AcDbLine
 10
5751.191369843096
 20
-8011.940070375875
 30
0.0
 11
6381.328686628277
 21
-8011.940070375875
 31
0.0
  0
LINE
  5
2CC
330
1F
100
AcDbEntity
  8
0-A_文字
  6
Continuous
 62
     7
370
     9
100
AcDbLine
 10
5507.422312341848
 20
-8434.160463281209
 30
0.0
 11
5751.191369843096
 21
-8011.940070375875
 31
0.0
  0
TEXT
  5
2CD
330
1F
100
AcDbEntity
  8
0-A_文字
  6
Continuous
 62
     7
370
     9
100
AcDbText
 10
5751.19136984309
 20
-7969.640070375875
 30
0.0
 40
228.6
  1
巾木
 41
1.083333333333333
  7
ＭＳ ゴシック
100
AcDbText
  0
LINE
  5
2CE
330
1F
100
AcDbEntity
  8
0-A_文字
  6
JWW_CENTER1
 62
     7
370
     9
100
AcDbLine
 10
17589.11322012315
 20
-8556.33686257085
 30
0.0
 11
-3100.886779876842
 21
-8556.33686257085
 31
0.0
  0
LINE
  5
2CF
330
1F
100
AcDbEntity
  8
0-A_文字
  6
JWW_CENTER1
 62
     7
370
     9
100
AcDbLine
 10
17589.11322012315
 20
1363.663136759872
 30
0.0
 11
-3100.886779876842
 21
1363.663136759872
 31
0.0
  0
TEXT
  5
2D0
330
1F
100
AcDbEntity
  8
0-A_文字
  6
Continuous
 62
     7
370
     9
100
AcDbText
 10
7735.577640493028
 20
-8489.03686257085
 30
0.0
 40
228.6
  1
▽ＦＬ
 41
1.111111111111111
  7
ＭＳ ゴシック
100
AcDbText
  0
LINE
  5
2D1
330
1F
100
AcDbEntity
  8
0-0_補助線
  6
JWW_HOJO
 62
   120
370
     5
100
AcDbLine
 10
18589.11322012315
 20
2363.663137429148
 30
0.0
 11
9344.113220123148
 21
2363.663137429148
 31
0.0
  0
LINE
  5
2D2
330
1F
100
AcDbEntity
  8
0-0_補助線
  6
JWW_HOJO
 62
   120
370
     5
100
AcDbLine
 10
18589.11322012315
 20
2363.663137429148
 30
0.0
 11
18589.11322012315
 21
-9556.336862570848
 31
0.0
  0
LINE
  5
2D3
330
1F
100
AcDbEntity
  8
0-0_補助線
  6
JWW_HOJO
 62
   120
370
     5
100
AcDbLine
 10
18589.11322012315
 20
-9556.336862570848
 30
0.0
 11
9344.113220123148
 21
-9556.336862570848
 31
0.0
  0
LINE
  5
2D4
330
1F
100
AcDbEntity
  8
0-0_補助線
  6
JWW_HOJO
 62
   120
370
     5
100
AcDbLine
 10
18589.11322012315
 20
9863.663137429152
 30
0.0
 11
8844.113220123148
 21
9863.663137429152
 31
0.0
  0
LINE
  5
2D5
330
1F
100
AcDbEntity
  8
0-0_補助線
  6
JWW_HOJO
 62
   120
370
     5
100
AcDbLine
 10
18589.11322012315
 20
9863.663137429152
 30
0.0
 11
18589.11322012315
 21
4613.663137429148
 31
0.0
  0
LINE
  5
2D6
330
1F
100
AcDbEntity
  8
0-0_補助線
  6
JWW_HOJO
 62
   120
370
     5
100
AcDbLine
 10
18589.11322012315
 20
4613.663137429148
 30
0.0
 11
8844.113220123148
 21
4613.663137429148
 31
0.0
  0
LINE
  5
2D7
330
1F
100
AcDbEntity
  8
0-0_補助線
  6
JWW_HOJO
 62
     7
370
     9
100
AcDbLine
 10
18589.11322012315
 20
8363.663137429152
 30
0.0
 11
8844.113220123148
 21
8363.663137429152
 31
0.0
  0
LINE
  5
2D8
330
1F
100
AcDbEntity
  8
0-0_補助線
  6
JWW_HOJO
 62
     7
370
     9
100
AcDbLine
 10
18589.11322012315
 20
6113.663137429148
 30
0.0
 11
8844.113220123148
 21
6113.663137429148
 31
0.0
  0
TEXT
  5
2D9
330
1F
100
AcDbEntity
  8
0-A_文字
  6
Continuous
 62
     7
370
     9
100
AcDbText
 10
621.6132201231574
 20
4095.063137429151
 30
0.0
 40
304.8
  1
Ａ面平面図
 41
1.1
  7
ＭＳ ゴシック
100
AcDbText
  0
TEXT
  5
2DA
330
1F
100
AcDbEntity
  8
0-A_文字
  6
Continuous
 62
     7
370
     9
100
AcDbText
 10
12866.61322012315
 20
4095.063137429157
 30
0.0
 40
304.8
  1
Ｂ面平面図
 41
1.1
  7
ＭＳ ゴシック
100
AcDbText
  0
TEXT
  5
2DB
330
1F
100
AcDbEntity
  8
0-A_文字
  6
Continuous
 62
     7
370
     9
100
AcDbText
 10
621.6132201231545
 20
-11074.93686257085
 30
0.0
 40
304.8
  1
Ａ面展開図
 41
1.1
  7
ＭＳ ゴシック
100
AcDbText
  0
TEXT
  5
2DC
330
1F
100
AcDbEntity
  8
0-A_文字
  6
Continuous
 62
     7
370
     9
100
AcDbText
 10
12866.61322012315
 20
-11074.93686257085
 30
0.0
 40
304.8
  1
Ｂ面展開図
 41
1.1
  7
ＭＳ ゴシック
100
AcDbText
  0
LINE
  5
2DD
330
1F
100
AcDbEntity
  8
0-A_文字
  6
Continuous
 62
     7
370
     9
100
AcDbLine
 10
-15512.11435103881
 20
-6590.990240845198
 30
0.0
 11
-12012.11435103881
 21
-6590.990240845198
 31
0.0
  0
LINE
  5
2DE
330
1F
100
AcDbEntity
  8
0-A_文字
  6
Continuous
 62
     7
370
     9
100
AcDbLine
 10
-12012.11435103881
 20
-5840.990240845207
 30
0.0
 11
-15512.11435103881
 21
-5840.990240845207
 31
0.0
  0
LINE
  5
2DF
330
1F
100
AcDbEntity
  8
0-A_文字
  6
Continuous
 62
     7
370
     9
100
AcDbLine
 10
-15512.11435103881
 20
-5840.990240845207
 30
0.0
 11
-15512.11435103881
 21
-6590.990240845198
 31
0.0
  0
LINE
  5
2E0
330
1F
100
AcDbEntity
  8
0-A_文字
  6
Continuous
 62
     7
370
     9
100
AcDbLine
 10
-12012.11435103881
 20
-5840.990240845207
 30
0.0
 11
-12012.11435103881
 21
-6590.990240845198
 31
0.0
  0
TEXT
  5
2E1
330
1F
100
AcDbEntity
  8
0-A_文字
  6
Continuous
 62
     7
370
     9
100
AcDbText
 10
-14862.11435103881
 20
-6359.590240845198
 30
0.0
 40
304.8
  1
全体平面図
 41
1.1
  7
ＭＳ ゴシック
100
AcDbText
  0
LINE
  5
2E2
330
1F
100
AcDbEntity
  8
0-0_補助線
  6
JWW_HOJO
 62
     7
370
     9
100
AcDbLine
 10
-11189.61435103881
 20
-6255.990240845202
 30
0.0
 11
-11189.61435103881
 21
4739.009759154803
 31
0.0
  0
LINE
  5
2E3
330
1F
100
AcDbEntity
  8
0-2
  6
Continuous
 62
    40
370
    15
100
AcDbLine
 10
-9014.614351038814
 20
2489.009759154803
 30
0.0
 11
-9014.614351038814
 21
4739.009759154803
 31
0.0
  0
LINE
  5
2E4
330
1F
100
AcDbEntity
  8
0-2
  6
Continuous
 62
    40
370
    15
100
AcDbLine
 10
-8939.614351038814
 20
2489.009759154803
 30
0.0
 11
-8939.614351038814
 21
4739.009759154803
 31
0.0
  0
LINE
  5
2E5
330
1F
100
AcDbEntity
  8
0-2
  6
Continuous
 62
    40
370
    15
100
AcDbLine
 10
-9014.614351038814
 20
4739.009759154803
 30
0.0
 11
-8939.614351038814
 21
4739.009759154803
 31
0.0
  0
LINE
  5
2E6
330
1F
100
AcDbEntity
  8
0-2
  6
Continuous
 62
    40
370
    15
100
AcDbLine
 10
-9014.614351038814
 20
2489.009759154803
 30
0.0
 11
-8939.614351038814
 21
2489.009759154803
 31
0.0
  0
LINE
  5
2E7
330
1F
100
AcDbEntity
  8
0-0_補助線
  6
JWW_HOJO
 62
   120
370
     5
100
AcDbLine
 10
-18834.61435103881
 20
4989.009759154803
 30
0.0
 11
-8689.614351038814
 21
4989.009759154803
 31
0.0
  0
LINE
  5
2E8
330
1F
100
AcDbEntity
  8
0-2
  6
Continuous
 62
    40
370
    15
100
AcDbLine
 10
-18584.61435103881
 20
2489.009759154803
 30
0.0
 11
-18584.61435103881
 21
4739.009759154803
 31
0.0
  0
LINE
  5
2E9
330
1F
100
AcDbEntity
  8
0-2
  6
Continuous
 62
    40
370
    15
100
AcDbLine
 10
-18509.61435103881
 20
2489.009759154803
 30
0.0
 11
-18509.61435103881
 21
4739.009759154803
 31
0.0
  0
LINE
  5
2EA
330
1F
100
AcDbEntity
  8
0-2
  6
Continuous
 62
    40
370
    15
100
AcDbLine
 10
-18584.61435103881
 20
2489.009759154803
 30
0.0
 11
-18509.61435103881
 21
2489.009759154803
 31
0.0
  0
LINE
  5
2EB
330
1F
100
AcDbEntity
  8
0-2
  6
Continuous
 62
    40
370
    15
100
AcDbLine
 10
-18584.61435103881
 20
4739.009759154803
 30
0.0
 11
-18509.61435103881
 21
4739.009759154803
 31
0.0
  0
LINE
  5
2EC
330
1F
100
AcDbEntity
  8
固定棚
  6
Continuous
 62
    92
370
    13
100
AcDbLine
 10
-9014.614351038814
 20
2489.009759154803
 30
0.0
 11
-14509.61435103882
 21
2489.009759154803
 31
0.0
  0
LINE
  5
2ED
330
1F
100
AcDbEntity
  8
0-2
  6
Continuous
 62
    40
370
    15
100
AcDbLine
 10
-14614.61435103881
 20
2489.009759154803
 30
0.0
 11
-14509.61435103882
 21
2489.009759154803
 31
0.0
  0
LINE
  5
2EE
330
1F
100
AcDbEntity
  8
0-2
  6
Continuous
 62
    40
370
    15
100
AcDbLine
 10
-14614.61435103881
 20
2489.009759154803
 30
0.0
 11
-14614.61435103881
 21
4739.009759154803
 31
0.0
  0
LINE
  5
2EF
330
1F
100
AcDbEntity
  8
0-2
  6
Continuous
 62
    40
370
    15
100
AcDbLine
 10
-14509.61435103882
 20
2489.009759154803
 30
0.0
 11
-14509.61435103882
 21
4739.009759154803
 31
0.0
  0
LINE
  5
2F0
330
1F
100
AcDbEntity
  8
0-2
  6
Continuous
 62
    40
370
    15
100
AcDbLine
 10
-14614.61435103881
 20
4739.009759154803
 30
0.0
 11
-14509.61435103882
 21
4739.009759154803
 31
0.0
  0
LINE
  5
2F1
330
1F
100
AcDbEntity
  8
固定棚
  6
Continuous
 62
    92
370
    13
100
AcDbLine
 10
-18509.61435103881
 20
4739.009759154803
 30
0.0
 11
-14614.61435103881
 21
4739.009759154803
 31
0.0
  0
LINE
  5
2F2
330
1F
100
AcDbEntity
  8
固定棚
  6
Continuous
 62
    92
370
    13
100
AcDbLine
 10
-18509.61435103881
 20
2489.009759154803
 30
0.0
 11
-14614.61435103881
 21
2489.009759154803
 31
0.0
  0
LWPOLYLINE
  5
2F3
330
1F
100
AcDbEntity
  8
0-B_寸法
  6
Continuous
 62
     7
370
     9
100
AcDbPolyline
 90
        4
 70
     1
 43
20.0
 10
-8929.614351038814
 20
6489.009759154803
 42
0.4142135623731
 10
-8939.614351038814
 20
6499.009759154802
 42
0.4142135623731
 10
-8949.614351038812
 20
6489.009759154803
 42
0.4142135623731
 10
-8939.614351038814
 20
6479.009759154804
 42
0.4142135623731
  0
LINE
  5
2F4
330
1F
100
AcDbEntity
  8
0-B_寸法
  6
Continuous
 62
   120
370
     5
100
AcDbLine
 10
-8939.614351038814
 20
6489.009759154803
 30
0.0
 11
-8939.614351038814
 21
4989.009759154803
 31
0.0
  0
LINE
  5
2F5
330
1F
100
AcDbEntity
  8
0-B_寸法
  6
Continuous
 62
   120
370
     5
100
AcDbLine
 10
-18584.61435103881
 20
6489.009759154803
 30
0.0
 11
-8939.614351038814
 21
6489.009759154803
 31
0.0
  0
LWPOLYLINE
  5
2F6
330
1F
100
AcDbEntity
  8
0-B_寸法
  6
Continuous
 62
     7
370
     9
100
AcDbPolyline
 90
        4
 70
     1
 43
20.0
 10
-18574.61435103881
 20
6489.009759154803
 42
0.4142135623731
 10
-18584.61435103881
 20
6499.009759154802
 42
0.4142135623731
 10
-18594.61435103881
 20
6489.009759154803
 42
0.4142135623731
 10
-18584.61435103881
 20
6479.009759154804
 42
0.4142135623731
  0
LINE
  5
2F7
330
1F
100
AcDbEntity
  8
0-B_寸法
  6
Continuous
 62
   120
370
     5
100
AcDbLine
 10
-18584.61435103881
 20
6489.009759154803
 30
0.0
 11
-18584.61435103881
 21
4989.009759154803
 31
0.0
  0
TEXT
  5
2F8
330
1F
100
AcDbEntity
  8
0-B_寸法
  6
Continuous
 62
     7
370
   211
100
AcDbText
 10
-14537.1143510388
 20
6545.409759154802
 30
0.0
 40
304.8
  1
～1,929
 41
1.107142857142857
  7
ＭＳ ゴシック
100
AcDbText
  0
LWPOLYLINE
  5
2F9
330
1F
100
AcDbEntity
  8
0-B_寸法
  6
Continuous
 62
     7
370
     9
100
AcDbPolyline
 90
        4
 70
     1
 43
20.0
 10
-9004.614351038814
 20
5739.009759154803
 42
0.4142135623731
 10
-9014.614351038814
 20
5749.009759154803
 42
0.4142135623731
 10
-9024.614351038812
 20
5739.009759154803
 42
0.4142135623731
 10
-9014.614351038814
 20
5729.009759154803
 42
0.4142135623731
  0
LINE
  5
2FA
330
1F
100
AcDbEntity
  8
0-B_寸法
  6
Continuous
 62
   120
370
     5
100
AcDbLine
 10
-9014.614351038814
 20
5739.009759154803
 30
0.0
 11
-9014.614351038814
 21
4989.009759154803
 31
0.0
  0
LINE
  5
2FB
330
1F
100
AcDbEntity
  8
0-B_寸法
  6
Continuous
 62
   120
370
     5
100
AcDbLine
 10
-9014.614351038814
 20
5739.009759154803
 30
0.0
 11
-8939.614351038814
 21
5739.009759154803
 31
0.0
  0
LWPOLYLINE
  5
2FC
330
1F
100
AcDbEntity
  8
0-B_寸法
  6
Continuous
 62
     7
370
     9
100
AcDbPolyline
 90
        4
 70
     1
 43
20.0
 10
-8929.614351038814
 20
5739.009759154803
 42
0.4142135623731
 10
-8939.614351038814
 20
5749.009759154803
 42
0.4142135623731
 10
-8949.614351038812
 20
5739.009759154803
 42
0.4142135623731
 10
-8939.614351038814
 20
5729.009759154803
 42
0.4142135623731
  0
LINE
  5
2FD
330
1F
100
AcDbEntity
  8
0-B_寸法
  6
Continuous
 62
   120
370
     5
100
AcDbLine
 10
-18509.61435103881
 20
5739.009759154803
 30
0.0
 11
-9014.614351038814
 21
5739.009759154803
 31
0.0
  0
TEXT
  5
2FE
330
1F
100
AcDbEntity
  8
0-B_寸法
  6
Continuous
 62
     7
370
   211
100
AcDbText
 10
-8911.07840602118
 20
5395.409759154802
 30
0.0
 40
304.8
  1
15
 41
1.0625
  7
ＭＳ ゴシック
100
AcDbText
  0
LINE
  5
2FF
330
1F
100
AcDbEntity
  8
0-B_寸法
  6
Continuous
 62
   120
370
     5
100
AcDbLine
 10
-18584.61435103881
 20
5739.009759154803
 30
0.0
 11
-18509.61435103881
 21
5739.009759154803
 31
0.0
  0
LWPOLYLINE
  5
300
330
1F
100
AcDbEntity
  8
0-B_寸法
  6
Continuous
 62
     7
370
     9
100
AcDbPolyline
 90
        4
 70
     1
 43
20.0
 10
-18574.61435103881
 20
5739.009759154803
 42
0.4142135623731
 10
-18584.61435103881
 20
5749.009759154803
 42
0.4142135623731
 10
-18594.61435103881
 20
5739.009759154803
 42
0.4142135623731
 10
-18584.61435103881
 20
5729.009759154803
 42
0.4142135623731
  0
LWPOLYLINE
  5
301
330
1F
100
AcDbEntity
  8
0-B_寸法
  6
Continuous
 62
     7
370
     9
100
AcDbPolyline
 90
        4
 70
     1
 43
20.0
 10
-18499.61435103881
 20
5739.009759154803
 42
0.4142135623731
 10
-18509.61435103881
 20
5749.009759154803
 42
0.4142135623731
 10
-18519.61435103881
 20
5739.009759154803
 42
0.4142135623731
 10
-18509.61435103881
 20
5729.009759154803
 42
0.4142135623731
  0
LINE
  5
302
330
1F
100
AcDbEntity
  8
0-B_寸法
  6
Continuous
 62
   120
370
     5
100
AcDbLine
 10
-18509.61435103881
 20
5739.009759154803
 30
0.0
 11
-18509.61435103881
 21
4989.009759154803
 31
0.0
  0
TEXT
  5
303
330
1F
100
AcDbEntity
  8
0-B_寸法
  6
Continuous
 62
     7
370
   211
100
AcDbText
 10
-19032.04799978771
 20
5395.409759154802
 30
0.0
 40
304.8
  1
15
 41
1.0625
  7
ＭＳ ゴシック
100
AcDbText
  0
LWPOLYLINE
  5
304
330
1F
100
AcDbEntity
  8
0-B_寸法
  6
Continuous
 62
     7
370
     9
100
AcDbPolyline
 90
        4
 70
     1
 43
20.0
 10
-14604.61435103881
 20
5739.009759154803
 42
0.4142135623731
 10
-14614.61435103881
 20
5749.009759154803
 42
0.4142135623731
 10
-14624.61435103881
 20
5739.009759154803
 42
0.4142135623731
 10
-14614.61435103881
 20
5729.009759154803
 42
0.4142135623731
  0
LINE
  5
305
330
1F
100
AcDbEntity
  8
0-B_寸法
  6
Continuous
 62
   120
370
     5
100
AcDbLine
 10
-14614.61435103881
 20
5739.009759154803
 30
0.0
 11
-14614.61435103881
 21
4989.009759154803
 31
0.0
  0
LWPOLYLINE
  5
306
330
1F
100
AcDbEntity
  8
0-B_寸法
  6
Continuous
 62
     7
370
     9
100
AcDbPolyline
 90
        4
 70
     1
 43
20.0
 10
-14499.61435103882
 20
5739.009759154803
 42
0.4142135623731
 10
-14509.61435103882
 20
5749.009759154803
 42
0.4142135623731
 10
-14519.61435103882
 20
5739.009759154803
 42
0.4142135623731
 10
-14509.61435103882
 20
5729.009759154803
 42
0.4142135623731
  0
LINE
  5
307
330
1F
100
AcDbEntity
  8
0-B_寸法
  6
Continuous
 62
   120
370
     5
100
AcDbLine
 10
-14509.61435103882
 20
5739.009759154803
 30
0.0
 11
-14509.61435103882
 21
4989.009759154803
 31
0.0
  0
TEXT
  5
308
330
1F
100
AcDbEntity
  8
0-B_寸法
  6
Continuous
 62
     7
370
   211
100
AcDbText
 10
-14450.80775571222
 20
5395.409759154802
 30
0.0
 40
304.8
  1
21
 41
1.0625
  7
ＭＳ ゴシック
100
AcDbText
  0
LINE
  5
309
330
1F
100
AcDbEntity
  8
0-2
  6
Continuous
 62
    40
370
    15
100
AcDbLine
 10
-8939.614351038814
 20
-4755.990240845202
 30
0.0
 11
-8939.614351038814
 21
-4680.990240845202
 31
0.0
  0
LINE
  5
30A
330
1F
100
AcDbEntity
  8
0-0_補助線
  6
JWW_HOJO
 62
   120
370
     5
100
AcDbLine
 10
-8689.614351038814
 20
-5005.990240845202
 30
0.0
 11
-11439.61435103881
 21
-5005.990240845201
 31
0.0
  0
LINE
  5
30B
330
1F
100
AcDbEntity
  8
0-2
  6
Continuous
 62
    40
370
    15
100
AcDbLine
 10
-11189.61435103881
 20
-4755.990240845202
 30
0.0
 11
-11189.61435103881
 21
-4680.990240845202
 31
0.0
  0
LINE
  5
30C
330
1F
100
AcDbEntity
  8
0-2
  6
Continuous
 62
    40
370
    15
100
AcDbLine
 10
-11189.61435103881
 20
-4680.990240845202
 30
0.0
 11
-8939.614351038814
 21
-4680.990240845202
 31
0.0
  0
LINE
  5
30D
330
1F
100
AcDbEntity
  8
0-2
  6
Continuous
 62
    40
370
    15
100
AcDbLine
 10
-11189.61435103881
 20
-4755.990240845202
 30
0.0
 11
-8939.614351038814
 21
-4755.990240845202
 31
0.0
  0
LINE
  5
30E
330
1F
100
AcDbEntity
  8
固定棚
  6
Continuous
 62
    92
370
    13
100
AcDbLine
 10
-11189.61435103881
 20
-3185.990240845203
 30
0.0
 11
-11189.61435103881
 21
-4680.990240845202
 31
0.0
  0
LINE
  5
30F
330
1F
100
AcDbEntity
  8
固定棚
  6
Continuous
 62
    92
370
    13
100
AcDbLine
 10
-8939.614351038814
 20
-4680.990240845202
 30
0.0
 11
-8939.614351038814
 21
-3185.990240845203
 31
0.0
  0
LINE
  5
310
330
1F
100
AcDbEntity
  8
0-2
  6
Continuous
 62
    40
370
    15
100
AcDbLine
 10
-8939.614351038814
 20
-3185.990240845203
 30
0.0
 11
-8939.614351038814
 21
-3080.990240845208
 31
0.0
  0
LINE
  5
311
330
1F
100
AcDbEntity
  8
0-2
  6
Continuous
 62
    40
370
    15
100
AcDbLine
 10
-11189.61435103881
 20
-3080.990240845208
 30
0.0
 11
-8939.614351038814
 21
-3080.990240845208
 31
0.0
  0
LINE
  5
312
330
1F
100
AcDbEntity
  8
0-2
  6
Continuous
 62
    40
370
    15
100
AcDbLine
 10
-11189.61435103881
 20
-3185.990240845203
 30
0.0
 11
-8939.614351038814
 21
-3185.990240845203
 31
0.0
  0
LINE
  5
313
330
1F
100
AcDbEntity
  8
0-2
  6
Continuous
 62
    40
370
    15
100
AcDbLine
 10
-11189.61435103881
 20
-3185.990240845203
 30
0.0
 11
-11189.61435103881
 21
-3080.990240845208
 31
0.0
  0
LINE
  5
314
330
1F
100
AcDbEntity
  8
0-2
  6
Continuous
 62
    40
370
    15
100
AcDbLine
 10
-8939.614351038814
 20
-785.990240845203
 30
0.0
 11
-8939.614351038814
 21
-680.9902408452075
 31
0.0
  0
LINE
  5
315
330
1F
100
AcDbEntity
  8
0-2
  6
Continuous
 62
    40
370
    15
100
AcDbLine
 10
-11189.61435103881
 20
-680.9902408452075
 30
0.0
 11
-8939.614351038814
 21
-680.9902408452075
 31
0.0
  0
LINE
  5
316
330
1F
100
AcDbEntity
  8
0-2
  6
Continuous
 62
    40
370
    15
100
AcDbLine
 10
-11189.61435103881
 20
-785.990240845203
 30
0.0
 11
-8939.614351038814
 21
-785.990240845203
 31
0.0
  0
LINE
  5
317
330
1F
100
AcDbEntity
  8
0-2
  6
Continuous
 62
    40
370
    15
100
AcDbLine
 10
-11189.61435103881
 20
-785.990240845203
 30
0.0
 11
-11189.61435103881
 21
-680.9902408452075
 31
0.0
  0
LINE
  5
318
330
1F
100
AcDbEntity
  8
固定棚
  6
Continuous
 62
    92
370
    13
100
AcDbLine
 10
-11189.61435103881
 20
-785.990240845203
 30
0.0
 11
-11189.61435103881
 21
-3080.990240845202
 31
0.0
  0
LINE
  5
319
330
1F
100
AcDbEntity
  8
固定棚
  6
Continuous
 62
    92
370
    13
100
AcDbLine
 10
-8939.614351038814
 20
-3080.990240845202
 30
0.0
 11
-8939.614351038814
 21
-785.990240845203
 31
0.0
  0
LINE
  5
31A
330
1F
100
AcDbEntity
  8
桟木・巾木
  6
Continuous
 62
     7
370
     9
100
AcDbLine
 10
-9014.614351038814
 20
-680.9902408452075
 30
0.0
 11
-9014.614351038814
 21
2489.009759154803
 31
0.0
  0
LINE
  5
31B
330
1F
100
AcDbEntity
  8
桟木・巾木
  6
Continuous
 62
     7
370
     9
100
AcDbLine
 10
-8939.614351038814
 20
-680.9902408452075
 30
0.0
 11
-8939.614351038814
 21
2489.009759154803
 31
0.0
  0
LINE
  5
31C
330
1F
100
AcDbEntity
  8
桟木・巾木
  6
Continuous
 62
     7
370
     9
100
AcDbLine
 10
-8939.614351038814
 20
2489.009759154803
 30
0.0
 11
-9014.614351038814
 21
2489.009759154803
 31
0.0
  0
LINE
  5
31D
330
1F
100
AcDbEntity
  8
0-B_寸法
  6
Continuous
 62
   120
370
     5
100
AcDbLine
 10
-11189.61435103881
 20
-5755.990240845204
 30
0.0
 11
-11189.61435103881
 21
-5005.990240845204
 31
0.0
  0
LINE
  5
31E
330
1F
100
AcDbEntity
  8
0-B_寸法
  6
Continuous
 62
   120
370
     5
100
AcDbLine
 10
-8939.614351038814
 20
-5755.990240845204
 30
0.0
 11
-8939.614351038814
 21
-5005.990240845204
 31
0.0
  0
LWPOLYLINE
  5
31F
330
1F
100
AcDbEntity
  8
0-B_寸法
  6
Continuous
 62
     7
370
     9
100
AcDbPolyline
 90
        4
 70
     1
 43
20.0
 10
-11179.61435103881
 20
-5755.990240845204
 42
0.4142135623731
 10
-11189.61435103881
 20
-5745.990240845204
 42
0.4142135623731
 10
-11199.61435103881
 20
-5755.990240845204
 42
0.4142135623731
 10
-11189.61435103881
 20
-5765.990240845204
 42
0.4142135623731
  0
LWPOLYLINE
  5
320
330
1F
100
AcDbEntity
  8
0-B_寸法
  6
Continuous
 62
     7
370
     9
100
AcDbPolyline
 90
        4
 70
     1
 43
20.0
 10
-8929.614351038814
 20
-5755.990240845204
 42
0.4142135623731
 10
-8939.614351038814
 20
-5745.990240845204
 42
0.4142135623731
 10
-8949.614351038812
 20
-5755.990240845204
 42
0.4142135623731
 10
-8939.614351038814
 20
-5765.990240845204
 42
0.4142135623731
  0
LINE
  5
321
330
1F
100
AcDbEntity
  8
0-B_寸法
  6
Continuous
 62
   120
370
     5
100
AcDbLine
 10
-8939.614351038814
 20
-5755.990240845204
 30
0.0
 11
-11189.61435103881
 21
-5755.990240845204
 31
0.0
  0
TEXT
  5
322
330
1F
100
AcDbEntity
  8
0-B_寸法
  6
Continuous
 62
     7
370
   211
100
AcDbText
 10
-10389.61435103881
 20
-5699.590240845204
 30
0.0
 40
304.8
  1
450
 41
1.083333333333333
  7
ＭＳ ゴシック
100
AcDbText
  0
LINE
  5
323
330
1F
100
AcDbEntity
  8
0-0_補助線
  6
JWW_HOJO
 62
   120
370
     5
100
AcDbLine
 10
-11439.61435103881
 20
-5005.990240845201
 30
0.0
 11
-11439.61435103881
 21
4989.009759154803
 31
0.0
  0
LINE
  5
324
330
1F
100
AcDbEntity
  8
0-0_補助線
  6
JWW_HOJO
 62
   120
370
     5
100
AcDbLine
 10
-8689.614351038814
 20
4989.009759154803
 30
0.0
 11
-8689.614351038814
 21
-5005.990240845202
 31
0.0
  0
TEXT
  5
325
330
1F
100
AcDbEntity
  8
0-B_寸法
  6
Continuous
 62
     7
370
   211
100
AcDbText
 10
-16887.11435103881
 20
5795.409759154802
 30
0.0
 40
304.8
  1
779
 41
1.083333333333333
  7
ＭＳ ゴシック
100
AcDbText
  0
TEXT
  5
326
330
1F
100
AcDbEntity
  8
0-B_寸法
  6
Continuous
 62
     7
370
   211
100
AcDbText
 10
-12537.11435103882
 20
5795.409759154802
 30
0.0
 40
304.8
  1
～1,099
 41
1.107142857142857
  7
ＭＳ ゴシック
100
AcDbText
  0
TEXT
  5
327
330
1F
100
AcDbEntity
  8
0-A_文字
  6
Continuous
 62
     7
370
   211
100
AcDbText
 10
-12274.61435103882
 20
5481.309759154803
 30
0.0
 40
228.6
  1
ﾌﾘｰｶｯﾄ
 41
1.138888888888889
  7
ＭＳ ゴシック
100
AcDbText
  0
LINE
  5
328
330
1F
100
AcDbEntity
  8
0-0_補助線
  6
JWW_HOJO
 62
   120
370
     5
100
AcDbLine
 10
-18834.61435103881
 20
4989.009759154803
 30
0.0
 11
-18834.61435103881
 21
2239.009759154803
 31
0.0
  0
LINE
  5
329
330
1F
100
AcDbEntity
  8
0-0_補助線
  6
JWW_HOJO
 62
   120
370
     5
100
AcDbLine
 10
-18834.61435103881
 20
2239.009759154803
 30
0.0
 11
-8689.614351038814
 21
2239.009759154803
 31
0.0
  0
LINE
  5
32A
330
1F
100
AcDbEntity
  8
0-B_寸法
  6
Continuous
 62
   120
370
     5
100
AcDbLine
 10
-7189.614351038801
 20
4739.009759154803
 30
0.0
 11
-7189.614351038801
 21
2489.009759154803
 31
0.0
  0
LWPOLYLINE
  5
32B
330
1F
100
AcDbEntity
  8
0-B_寸法
  6
Continuous
 62
     7
370
     9
100
AcDbPolyline
 90
        4
 70
     1
 43
20.0
 10
-7179.614351038802
 20
4739.009759154803
 42
0.4142135623731
 10
-7189.614351038801
 20
4749.009759154803
 42
0.4142135623731
 10
-7199.614351038801
 20
4739.009759154803
 42
0.4142135623731
 10
-7189.614351038801
 20
4729.009759154803
 42
0.4142135623731
  0
LWPOLYLINE
  5
32C
330
1F
100
AcDbEntity
  8
0-B_寸法
  6
Continuous
 62
     7
370
     9
100
AcDbPolyline
 90
        4
 70
     1
 43
20.0
 10
-7179.614351038802
 20
2489.009759154803
 42
0.4142135623731
 10
-7189.614351038801
 20
2499.009759154803
 42
0.4142135623731
 10
-7199.614351038801
 20
2489.009759154803
 42
0.4142135623731
 10
-7189.614351038801
 20
2479.009759154802
 42
0.4142135623731
  0
LINE
  5
32D
330
1F
100
AcDbEntity
  8
0-B_寸法
  6
Continuous
 62
   120
370
     5
100
AcDbLine
 10
-6439.614351038801
 20
4739.009759154803
 30
0.0
 11
-8689.614351038814
 21
4739.009759154803
 31
0.0
  0
LINE
  5
32E
330
1F
100
AcDbEntity
  8
0-B_寸法
  6
Continuous
 62
   120
370
     5
100
AcDbLine
 10
-7189.614351038801
 20
2489.009759154803
 30
0.0
 11
-8689.614351038814
 21
2489.009759154803
 31
0.0
  0
TEXT
  5
32F
330
1F
100
AcDbEntity
  8
0-B_寸法
  6
Continuous
 62
     7
370
   211
100
AcDbText
 10
-7246.014351038801
 20
3289.009759154803
 30
0.0
 40
304.8
  1
450
 50
90.0
 41
1.083333333333333
  7
ＭＳ ゴシック
100
AcDbText
  0
LINE
  5
330
330
1F
100
AcDbEntity
  8
0-B_寸法
  6
Continuous
 62
   120
370
     5
100
AcDbLine
 10
-7939.614351038807
 20
-4755.990240845202
 30
0.0
 11
-7939.614351038807
 21
-4680.990240845202
 31
0.0
  0
LWPOLYLINE
  5
331
330
1F
100
AcDbEntity
  8
0-B_寸法
  6
Continuous
 62
     7
370
     9
100
AcDbPolyline
 90
        4
 70
     1
 43
20.0
 10
-7929.614351038807
 20
-4755.990240845202
 42
0.4142135623731
 10
-7939.614351038807
 20
-4745.990240845202
 42
0.4142135623731
 10
-7949.614351038806
 20
-4755.990240845202
 42
0.4142135623731
 10
-7939.614351038807
 20
-4765.990240845202
 42
0.4142135623731
  0
LWPOLYLINE
  5
332
330
1F
100
AcDbEntity
  8
0-B_寸法
  6
Continuous
 62
     7
370
     9
100
AcDbPolyline
 90
        4
 70
     1
 43
20.0
 10
-7929.614351038807
 20
-4680.990240845202
 42
0.4142135623731
 10
-7939.614351038807
 20
-4670.990240845202
 42
0.4142135623731
 10
-7949.614351038806
 20
-4680.990240845202
 42
0.4142135623731
 10
-7939.614351038807
 20
-4690.990240845202
 42
0.4142135623731
  0
LINE
  5
333
330
1F
100
AcDbEntity
  8
0-B_寸法
  6
Continuous
 62
   120
370
     5
100
AcDbLine
 10
-6439.614351038801
 20
-4755.990240845202
 30
0.0
 11
-8689.614351038814
 21
-4755.990240845202
 31
0.0
  0
LINE
  5
334
330
1F
100
AcDbEntity
  8
0-B_寸法
  6
Continuous
 62
   120
370
     5
100
AcDbLine
 10
-7939.614351038807
 20
-4680.990240845202
 30
0.0
 11
-8689.614351038814
 21
-4680.990240845202
 31
0.0
  0
LINE
  5
335
330
1F
100
AcDbEntity
  8
0-B_寸法
  6
Continuous
 62
   120
370
     5
100
AcDbLine
 10
-7939.614351038807
 20
-4680.990240845202
 30
0.0
 11
-7939.614351038807
 21
-3185.990240845203
 31
0.0
  0
LWPOLYLINE
  5
336
330
1F
100
AcDbEntity
  8
0-B_寸法
  6
Continuous
 62
     7
370
     9
100
AcDbPolyline
 90
        4
 70
     1
 43
20.0
 10
-7929.614351038807
 20
-3185.990240845203
 42
0.4142135623731
 10
-7939.614351038807
 20
-3175.990240845203
 42
0.4142135623731
 10
-7949.614351038806
 20
-3185.990240845203
 42
0.4142135623731
 10
-7939.614351038807
 20
-3195.990240845203
 42
0.4142135623731
  0
LINE
  5
337
330
1F
100
AcDbEntity
  8
0-B_寸法
  6
Continuous
 62
   120
370
     5
100
AcDbLine
 10
-7939.614351038807
 20
-3185.990240845203
 30
0.0
 11
-8689.614351038814
 21
-3185.990240845203
 31
0.0
  0
TEXT
  5
338
330
1F
100
AcDbEntity
  8
0-B_寸法
  6
Continuous
 62
     7
370
   211
100
AcDbText
 10
-7996.014351038807
 20
-4258.490240845203
 30
0.0
 40
304.8
  1
299
 50
90.0
 41
1.083333333333333
  7
ＭＳ ゴシック
100
AcDbText
  0
LINE
  5
339
330
1F
100
AcDbEntity
  8
0-B_寸法
  6
Continuous
 62
   120
370
     5
100
AcDbLine
 10
-7939.614351038807
 20
-3185.990240845203
 30
0.0
 11
-7939.614351038807
 21
-3080.990240845202
 31
0.0
  0
LWPOLYLINE
  5
33A
330
1F
100
AcDbEntity
  8
0-B_寸法
  6
Continuous
 62
     7
370
     9
100
AcDbPolyline
 90
        4
 70
     1
 43
20.0
 10
-7929.614351038807
 20
-3080.990240845202
 42
0.4142135623731
 10
-7939.614351038807
 20
-3070.990240845202
 42
0.4142135623731
 10
-7949.614351038806
 20
-3080.990240845202
 42
0.4142135623731
 10
-7939.614351038807
 20
-3090.990240845202
 42
0.4142135623731
  0
LINE
  5
33B
330
1F
100
AcDbEntity
  8
0-B_寸法
  6
Continuous
 62
   120
370
     5
100
AcDbLine
 10
-7939.614351038807
 20
-3080.990240845202
 30
0.0
 11
-8689.614351038814
 21
-3080.990240845202
 31
0.0
  0
LINE
  5
33C
330
1F
100
AcDbEntity
  8
0-B_寸法
  6
Continuous
 62
   120
370
     5
100
AcDbLine
 10
-7939.614351038807
 20
-3080.990240845202
 30
0.0
 11
-7939.614351038807
 21
-785.990240845203
 31
0.0
  0
LWPOLYLINE
  5
33D
330
1F
100
AcDbEntity
  8
0-B_寸法
  6
Continuous
 62
     7
370
     9
100
AcDbPolyline
 90
        4
 70
     1
 43
20.0
 10
-7929.614351038807
 20
-785.990240845203
 42
0.4142135623731
 10
-7939.614351038807
 20
-775.990240845203
 42
0.4142135623731
 10
-7949.614351038806
 20
-785.990240845203
 42
0.4142135623731
 10
-7939.614351038807
 20
-795.990240845203
 42
0.4142135623731
  0
LINE
  5
33E
330
1F
100
AcDbEntity
  8
0-B_寸法
  6
Continuous
 62
   120
370
     5
100
AcDbLine
 10
-7939.614351038807
 20
-785.990240845203
 30
0.0
 11
-8689.614351038814
 21
-785.990240845203
 31
0.0
  0
TEXT
  5
33F
330
1F
100
AcDbEntity
  8
0-B_寸法
  6
Continuous
 62
     7
370
   211
100
AcDbText
 10
-7996.014351038807
 20
-2258.490240845203
 30
0.0
 40
304.8
  1
459
 50
90.0
 41
1.083333333333333
  7
ＭＳ ゴシック
100
AcDbText
  0
LINE
  5
340
330
1F
100
AcDbEntity
  8
0-B_寸法
  6
Continuous
 62
   120
370
     5
100
AcDbLine
 10
-7939.614351038807
 20
-785.990240845203
 30
0.0
 11
-7939.614351038807
 21
-680.9902408452075
 31
0.0
  0
LWPOLYLINE
  5
341
330
1F
100
AcDbEntity
  8
0-B_寸法
  6
Continuous
 62
     7
370
     9
100
AcDbPolyline
 90
        4
 70
     1
 43
20.0
 10
-7929.614351038807
 20
-680.9902408452075
 42
0.4142135623731
 10
-7939.614351038807
 20
-670.9902408452075
 42
0.4142135623731
 10
-7949.614351038806
 20
-680.9902408452075
 42
0.4142135623731
 10
-7939.614351038807
 20
-690.9902408452075
 42
0.4142135623731
  0
LINE
  5
342
330
1F
100
AcDbEntity
  8
0-B_寸法
  6
Continuous
 62
   120
370
     5
100
AcDbLine
 10
-7939.614351038807
 20
-680.9902408452075
 30
0.0
 11
-8689.614351038814
 21
-680.9902408452075
 31
0.0
  0
LINE
  5
343
330
1F
100
AcDbEntity
  8
0-B_寸法
  6
Continuous
 62
   120
370
     5
100
AcDbLine
 10
-7939.614351038807
 20
-680.9902408452075
 30
0.0
 11
-7939.614351038807
 21
2489.009759154803
 31
0.0
  0
LWPOLYLINE
  5
344
330
1F
100
AcDbEntity
  8
0-B_寸法
  6
Continuous
 62
     7
370
     9
100
AcDbPolyline
 90
        4
 70
     1
 43
20.0
 10
-7929.614351038807
 20
2489.009759154803
 42
0.4142135623731
 10
-7939.614351038807
 20
2499.009759154803
 42
0.4142135623731
 10
-7949.614351038806
 20
2489.009759154803
 42
0.4142135623731
 10
-7939.614351038807
 20
2479.009759154802
 42
0.4142135623731
  0
LINE
  5
345
330
1F
100
AcDbEntity
  8
0-B_寸法
  6
Continuous
 62
   120
370
     5
100
AcDbLine
 10
-7189.614351038801
 20
-4755.990240845202
 30
0.0
 11
-7189.614351038801
 21
2489.009759154803
 31
0.0
  0
LWPOLYLINE
  5
346
330
1F
100
AcDbEntity
  8
0-B_寸法
  6
Continuous
 62
     7
370
     9
100
AcDbPolyline
 90
        4
 70
     1
 43
20.0
 10
-7179.614351038802
 20
-4755.990240845202
 42
0.4142135623731
 10
-7189.614351038801
 20
-4745.990240845202
 42
0.4142135623731
 10
-7199.614351038801
 20
-4755.990240845202
 42
0.4142135623731
 10
-7189.614351038801
 20
-4765.990240845202
 42
0.4142135623731
  0
LINE
  5
347
330
1F
100
AcDbEntity
  8
0-B_寸法
  6
Continuous
 62
   120
370
     5
100
AcDbLine
 10
-6439.614351038801
 20
-4755.990240845202
 30
0.0
 11
-6439.614351038801
 21
4739.009759154803
 31
0.0
  0
LWPOLYLINE
  5
348
330
1F
100
AcDbEntity
  8
0-B_寸法
  6
Continuous
 62
     7
370
     9
100
AcDbPolyline
 90
        4
 70
     1
 43
20.0
 10
-6429.614351038802
 20
-4755.990240845202
 42
0.4142135623731
 10
-6439.614351038801
 20
-4745.990240845202
 42
0.4142135623731
 10
-6449.614351038801
 20
-4755.990240845202
 42
0.4142135623731
 10
-6439.614351038801
 20
-4765.990240845202
 42
0.4142135623731
  0
LWPOLYLINE
  5
349
330
1F
100
AcDbEntity
  8
0-B_寸法
  6
Continuous
 62
     7
370
     9
100
AcDbPolyline
 90
        4
 70
     1
 43
20.0
 10
-6429.614351038802
 20
4739.009759154803
 42
0.4142135623731
 10
-6439.614351038801
 20
4749.009759154803
 42
0.4142135623731
 10
-6449.614351038801
 20
4739.009759154803
 42
0.4142135623731
 10
-6439.614351038801
 20
4729.009759154803
 42
0.4142135623731
  0
TEXT
  5
34A
330
1F
100
AcDbEntity
  8
0-B_寸法
  6
Continuous
 62
     7
370
   211
100
AcDbText
 10
-7996.014351038807
 20
354.0097591547976
 30
0.0
 40
304.8
  1
～634
 50
90.0
 41
1.1
  7
ＭＳ ゴシック
100
AcDbText
  0
TEXT
  5
34B
330
1F
100
AcDbEntity
  8
0-B_寸法
  6
Continuous
 62
     7
370
   211
100
AcDbText
 10
-7596.014351038807
 20
241.5097591547976
 30
0.0
 40
304.8
  1
ﾌﾘｰｶｯﾄ
 50
90.0
 41
1.104166666666667
  7
ＭＳ ゴシック
100
AcDbText
  0
TEXT
  5
34C
330
1F
100
AcDbEntity
  8
0-B_寸法
  6
Continuous
 62
     7
370
   211
100
AcDbText
 10
-7246.014351038801
 20
-1908.490240845199
 30
0.0
 40
304.8
  1
～1,449
 50
90.0
 41
1.107142857142857
  7
ＭＳ ゴシック
100
AcDbText
  0
TEXT
  5
34D
330
1F
100
AcDbEntity
  8
0-B_寸法
  6
Continuous
 62
     7
370
   211
100
AcDbText
 10
-6496.014351038801
 20
-783.4902408451995
 30
0.0
 40
304.8
  1
～1,899
 50
90.0
 41
1.107142857142857
  7
ＭＳ ゴシック
100
AcDbText
  0
TEXT
  5
34E
330
1F
100
AcDbEntity
  8
0-B_寸法
  6
Continuous
 62
     7
370
   211
100
AcDbText
 10
-7996.014351038807
 20
-641.3954546811116
 30
0.0
 40
304.8
  1
21
 50
90.0
 41
1.0625
  7
ＭＳ ゴシック
100
AcDbText
  0
TEXT
  5
34F
330
1F
100
AcDbEntity
  8
0-B_寸法
  6
Continuous
 62
     7
370
   211
100
AcDbText
 10
-7996.014351038807
 20
-3041.395454681109
 30
0.0
 40
304.8
  1
21
 50
90.0
 41
1.0625
  7
ＭＳ ゴシック
100
AcDbText
  0
TEXT
  5
350
330
1F
100
AcDbEntity
  8
0-B_寸法
  6
Continuous
 62
     7
370
   211
100
AcDbText
 10
-7996.014351038807
 20
-5232.250433574412
 30
0.0
 40
304.8
  1
15
 50
90.0
 41
1.0625
  7
ＭＳ ゴシック
100
AcDbText
  0
LINE
  5
351
330
1F
100
AcDbEntity
  8
0-A_文字
  6
Continuous
 62
     7
370
     9
100
AcDbLine
 10
-16187.11435103881
 20
1818.166170916188
 30
0.0
 11
-16187.11435103881
 21
1068.166170916197
 31
0.0
  0
TEXT
  5
352
330
1F
100
AcDbEntity
  8
0-A_文字
  6
Continuous
 62
     7
370
     9
100
AcDbText
 10
-15537.11435103881
 20
1299.566170916197
 30
0.0
 40
304.8
  1
Ａ　面
 41
1.083333333333333
  7
ＭＳ ゴシック
100
AcDbText
  0
LINE
  5
353
330
1F
100
AcDbEntity
  8
0-A_文字
  6
Continuous
 62
     7
370
     9
100
AcDbLine
 10
-16187.11435103881
 20
1068.166170916197
 30
0.0
 11
-13587.11435103881
 21
1068.166170916197
 31
0.0
  0
LINE
  5
354
330
1F
100
AcDbEntity
  8
0-A_文字
  6
Continuous
 62
     7
370
     9
100
AcDbLine
 10
-13587.11435103881
 20
1818.166170916188
 30
0.0
 11
-16187.11435103881
 21
1818.166170916188
 31
0.0
  0
LINE
  5
355
330
1F
100
AcDbEntity
  8
0-A_文字
  6
Continuous
 62
     7
370
     9
100
AcDbLine
 10
-13587.11435103881
 20
1818.166170916188
 30
0.0
 11
-13587.11435103881
 21
1068.166170916197
 31
0.0
  0
LINE
  5
356
330
1F
100
AcDbEntity
  8
0-A_文字
  6
Continuous
 62
     7
370
     9
100
AcDbLine
 10
-14493.04324469514
 20
-968.4902408452047
 30
0.0
 11
-14493.04324469514
 21
-1718.490240845196
 31
0.0
  0
LINE
  5
357
330
1F
100
AcDbEntity
  8
0-A_文字
  6
Continuous
 62
     7
370
     9
100
AcDbLine
 10
-14493.04324469514
 20
-1718.490240845196
 30
0.0
 11
-11893.04324469513
 21
-1718.490240845196
 31
0.0
  0
LINE
  5
358
330
1F
100
AcDbEntity
  8
0-A_文字
  6
Continuous
 62
     7
370
     9
100
AcDbLine
 10
-11893.04324469513
 20
-968.4902408452047
 30
0.0
 11
-14493.04324469514
 21
-968.4902408452047
 31
0.0
  0
LINE
  5
359
330
1F
100
AcDbEntity
  8
0-A_文字
  6
Continuous
 62
     7
370
     9
100
AcDbLine
 10
-11893.04324469513
 20
-968.4902408452047
 30
0.0
 11
-11893.04324469513
 21
-1718.490240845196
 31
0.0
  0
TEXT
  5
35A
330
1F
100
AcDbEntity
  8
0-A_文字
  6
Continuous
 62
     7
370
     9
100
AcDbText
 10
-13843.04324469513
 20
-1487.090240845196
 30
0.0
 40
304.8
  1
Ｂ　面
 41
1.083333333333333
  7
ＭＳ ゴシック
100
AcDbText
  0
LINE
  5
35B
330
1F
100
AcDbEntity
  8
0-0_補助線
  6
JWW_HOJO
 62
     7
370
     9
100
AcDbLine
 10
-3100.886779876842
 20
9863.663137429148
 30
0.0
 11
-3100.886779876842
 21
-10056.33686257085
 31
0.0
  0
LINE
  5
35C
330
1F
100
AcDbEntity
  8
0-0_補助線
  6
JWW_HOJO
 62
     7
370
     9
100
AcDbLine
 10
17589.11322012315
 20
9863.663137429152
 30
0.0
 11
17589.11322012315
 21
-10056.33686257085
 31
0.0
  0
LINE
  5
35D
330
1F
100
AcDbEntity
  8
0-0_補助線
  6
JWW_HOJO
 62
     7
370
     9
100
AcDbLine
 10
10344.11322012315
 20
9863.663137429152
 30
0.0
 11
10344.11322012315
 21
-10056.33686257085
 31
0.0
  0
LINE
  5
35E
330
1F
100
AcDbEntity
  8
0-0_補助線
  6
JWW_HOJO
 62
     7
370
     9
100
AcDbLine
 10
6544.113220123159
 20
9863.663137429148
 30
0.0
 11
6544.113220123159
 21
-10056.33686257085
 31
0.0
  0
LINE
  5
35F
330
1F
100
AcDbEntity
  8
0-A_文字
  6
JWW_HOJO
 62
   120
370
     5
100
AcDbLine
 10
-2095.8834742959
 20
4613.663137429148
 30
0.0
 11
-1685.340269624808
 21
4613.663137429148
 31
0.0
  0
LINE
  5
360
330
1F
100
AcDbEntity
  8
0-A_文字
  6
Continuous
 62
     7
370
     9
100
AcDbLine
 10
-3206.135935913724
 20
4560.189345804873
 30
0.0
 11
-3154.360571501209
 21
4508.413981392351
 31
0.0
  0
LINE
  5
361
330
1F
100
AcDbEntity
  8
0-A_文字
  6
Continuous
 62
     7
370
     9
100
AcDbLine
 10
-3214.920602337432
 20
4583.116147852241
 30
0.0
 11
-3131.433769453932
 21
4499.629314968741
 31
0.0
  0
LINE
  5
362
330
1F
100
AcDbEntity
  8
0-A_文字
  6
Continuous
 62
     7
370
     9
100
AcDbLine
 10
-3218.210374555136
 20
4600.548055693599
 30
0.0
 11
-3114.001861612476
 21
4496.339542750939
 31
0.0
  0
LINE
  5
363
330
1F
100
AcDbEntity
  8
0-A_文字
  6
Continuous
 62
     7
370
     9
100
AcDbLine
 10
-3218.928240775156
 20
4615.408057537468
 30
0.0
 11
-3099.141859768613
 21
4495.621676530925
 31
0.0
  0
LINE
  5
364
330
1F
100
AcDbEntity
  8
0-A_文字
  6
Continuous
 62
     7
370
     9
100
AcDbLine
 10
-3217.990757293072
 20
4628.612709679044
 30
0.0
 11
-3085.937207627037
 21
4496.55916001301
 31
0.0
  0
LINE
  5
365
330
1F
100
AcDbEntity
  8
0-A_文字
  6
Continuous
 62
     7
370
     9
100
AcDbLine
 10
-3215.828630060631
 20
4640.592718070446
 30
0.0
 11
-3073.957199235636
 21
4498.721287245445
 31
0.0
  0
LINE
  5
366
330
1F
100
AcDbEntity
  8
0-A_文字
  6
Continuous
 62
     7
370
     9
100
AcDbLine
 10
-3212.683161594239
 20
4651.589385227709
 30
0.0
 11
-3062.960532078367
 21
4501.866755711836
 31
0.0
  0
LINE
  5
367
330
1F
100
AcDbEntity
  8
0-A_文字
  6
Continuous
 62
     7
370
     9
100
AcDbLine
 10
-3208.703053997877
 20
4661.751413255013
 30
0.0
 11
-3052.798504051341
 21
4505.846863308471
 31
0.0
  0
LINE
  5
368
330
1F
100
AcDbEntity
  8
0-A_文字
  6
Continuous
 62
     7
370
     9
100
AcDbLine
 10
-3203.984741563843
 20
4671.175236444822
 30
0.0
 11
-3043.37468086135
 21
4510.565175742329
 31
0.0
  0
LINE
  5
369
330
1F
100
AcDbEntity
  8
0-A_文字
  6
Continuous
 62
     7
370
     9
100
AcDbLine
 10
-3198.591804024843
 20
4679.924434529483
 30
0.0
 11
-3041.859601312265
 21
4523.192231816904
 31
0.0
  0
LINE
  5
36A
330
1F
100
AcDbEntity
  8
0-A_文字
  6
Continuous
 62
     7
370
     9
100
AcDbLine
 10
-3192.565157464676
 20
4688.039923593158
 30
0.0
 11
-3041.859601312299
 21
4537.334367440781
 31
0.0
  0
LINE
  5
36B
330
1F
100
AcDbEntity
  8
0-A_文字
  6
Continuous
 62
     7
370
     9
100
AcDbLine
 10
-3185.928595447629
 20
4695.545497199771
 30
0.0
 11
-3041.859601312276
 21
4551.476503064416
 31
0.0
  0
LINE
  5
36C
330
1F
100
AcDbEntity
  8
0-A_文字
  6
Continuous
 62
     7
370
     9
100
AcDbLine
 10
-3178.691663196358
 20
4702.450700572154
 30
0.0
 11
-3041.859601312242
 21
4565.618638688054
 31
0.0
  0
LINE
  5
36D
330
1F
100
AcDbEntity
  8
0-A_文字
  6
Continuous
 62
     7
370
     9
100
AcDbLine
 10
-3170.850740853009
 20
4708.751913852655
 30
0.0
 11
-3041.859601312299
 21
4579.760774311933
 31
0.0
  0
LINE
  5
36E
330
1F
100
AcDbEntity
  8
0-A_文字
  6
Continuous
 62
     7
370
     9
100
AcDbLine
 10
-3162.388637316533
 20
4714.431945939839
 30
0.0
 11
-3032.135221780848
 21
4584.178530404153
 31
0.0
  0
LINE
  5
36F
330
1F
100
AcDbEntity
  8
0-A_文字
  6
Continuous
 62
     7
370
     9
100
AcDbLine
 10
-3153.272583495553
 20
4719.458027742695
 30
0.0
 11
-3017.993086157006
 21
4584.17853040416
 31
0.0
  0
LINE
  5
370
330
1F
100
AcDbEntity
  8
0-A_文字
  6
Continuous
 62
     7
370
     9
100
AcDbLine
 10
-3143.450042886732
 20
4723.777622757541
 30
0.0
 11
-3003.850950533322
 21
4584.178530404125
 31
0.0
  0
LINE
  5
371
330
1F
100
AcDbEntity
  8
0-A_文字
  6
Continuous
 62
     7
370
     9
100
AcDbLine
 10
-3132.840955541113
 20
4727.310671035582
 30
0.0
 11
-2989.708814909662
 21
4584.178530404142
 31
0.0
  0
LINE
  5
372
330
1F
100
AcDbEntity
  8
0-A_文字
  6
Continuous
 62
     7
370
     9
100
AcDbLine
 10
-3034.535893335763
 20
4643.147744454081
 30
0.0
 11
-2975.566679285842
 21
4584.178530404142
 31
0.0
  0
LINE
  5
373
330
1F
100
AcDbEntity
  8
0-A_文字
  6
Continuous
 62
     7
370
     9
100
AcDbLine
 10
-3121.323295300615
 20
4729.935146418928
 30
0.0
 11
-3041.859601312345
 21
4650.471452430656
 31
0.0
  0
LINE
  5
374
330
1F
100
AcDbEntity
  8
0-A_文字
  6
Continuous
 62
     7
370
     9
100
AcDbLine
 10
-3020.393757712182
 20
4643.147744454152
 30
0.0
 11
-2961.424543662181
 21
4584.17853040416
 31
0.0
  0
LINE
  5
375
330
1F
100
AcDbEntity
  8
0-A_文字
  6
Continuous
 62
     7
370
     9
100
AcDbLine
 10
-3108.704381260512
 20
4731.458368002484
 30
0.0
 11
-3041.859601312276
 21
4664.613588054237
 31
0.0
  0
LINE
  5
376
330
1F
100
AcDbEntity
  8
0-A_文字
  6
Continuous
 62
     7
370
     9
100
AcDbLine
 10
-3006.251622088487
 20
4643.147744454114
 30
0.0
 11
-2947.282408038544
 21
4584.178530404177
 31
0.0
  0
LINE
  5
377
330
1F
100
AcDbEntity
  8
0-A_文字
  6
Continuous
 62
     7
370
     9
100
AcDbLine
 10
-3094.656876999696
 20
4731.552999365323
 30
0.0
 11
-3041.859601312299
 21
4678.755723677927
 31
0.0
  0
LINE
  5
378
330
1F
100
AcDbEntity
  8
0-A_文字
  6
Continuous
 62
     7
370
     9
100
AcDbLine
 10
-2992.109486464645
 20
4643.147744454114
 30
0.0
 11
-2933.140272414667
 21
4584.178530404131
 31
0.0
  0
LINE
  5
379
330
1F
100
AcDbEntity
  8
0-A_文字
  6
Continuous
 62
     7
370
     9
100
AcDbLine
 10
-3078.5460780063
 20
4729.584335995776
 30
0.0
 11
-3041.859601312311
 21
4692.897859301797
 31
0.0
  0
LINE
  5
37A
330
1F
100
AcDbEntity
  8
0-A_文字
  6
Continuous
 62
     7
370
     9
100
AcDbLine
 10
-2977.967350840996
 20
4643.147744454131
 30
0.0
 11
-2918.998136791018
 21
4584.178530404142
 31
0.0
  0
LINE
  5
37B
330
1F
100
AcDbEntity
  8
0-A_文字
  6
Continuous
 62
     7
370
     9
100
AcDbLine
 10
-3058.768013843499
 20
4723.948407456629
 30
0.0
 11
-3041.859601312265
 21
4707.039994925395
 31
0.0
  0
LINE
  5
37C
330
1F
100
AcDbEntity
  8
0-A_文字
  6
Continuous
 62
     7
370
     9
100
AcDbLine
 10
-2963.825215217096
 20
4643.147744454086
 30
0.0
 11
-2904.856001167175
 21
4584.178530404153
 31
0.0
  0
LINE
  5
37D
330
1F
100
AcDbEntity
  8
0-A_文字
  6
Continuous
 62
     7
370
     9
100
AcDbLine
 10
-2949.683079593515
 20
4643.147744454154
 30
0.0
 11
-2890.713865543515
 21
4584.178530404165
 31
0.0
  0
LINE
  5
37E
330
1F
100
AcDbEntity
  8
0-A_文字
  6
Continuous
 62
     7
370
     9
100
AcDbLine
 10
-2935.540943969821
 20
4643.147744454114
 30
0.0
 11
-2876.571729919877
 21
4584.178530404188
 31
0.0
  0
LINE
  5
37F
330
1F
100
AcDbEntity
  8
0-A_文字
  6
Continuous
 62
     7
370
     9
100
AcDbLine
 10
-2921.398808345978
 20
4643.147744454131
 30
0.0
 11
-2862.429594296
 21
4584.178530404142
 31
0.0
  0
LINE
  5
380
330
1F
100
AcDbEntity
  8
0-A_文字
  6
Continuous
 62
     7
370
     9
100
AcDbLine
 10
-2907.25667272234
 20
4643.147744454137
 30
0.0
 11
-2848.287458672351
 21
4584.178530404148
 31
0.0
  0
LINE
  5
381
330
1F
100
AcDbEntity
  8
0-A_文字
  6
Continuous
 62
     7
370
     9
100
AcDbLine
 10
-2893.11453709843
 20
4643.147744454086
 30
0.0
 11
-2834.145323048509
 21
4584.178530404153
 31
0.0
  0
LINE
  5
382
330
1F
100
AcDbEntity
  8
0-A_文字
  6
Continuous
 62
     7
370
     9
100
AcDbLine
 10
-2878.97240147486
 20
4643.147744454154
 30
0.0
 11
-2820.003187424871
 21
4584.17853040417
 31
0.0
  0
LINE
  5
383
330
1F
100
AcDbEntity
  8
0-A_文字
  6
Continuous
 62
     7
370
     9
100
AcDbLine
 10
-2864.830265851154
 20
4643.14774445412
 30
0.0
 11
-2805.861051801176
 21
4584.178530404131
 31
0.0
  0
LINE
  5
384
330
1F
100
AcDbEntity
  8
0-A_文字
  6
Continuous
 62
     7
370
     9
100
AcDbLine
 10
-2850.688130227277
 20
4643.147744454083
 30
0.0
 11
-2791.718916177345
 21
4584.178530404148
 31
0.0
  0
LINE
  5
385
330
1F
100
AcDbEntity
  8
0-A_文字
  6
Continuous
 62
     7
370
     9
100
AcDbLine
 10
-2836.545994603674
 20
4643.147744454137
 30
0.0
 11
-2777.576780553684
 21
4584.178530404153
 31
0.0
  0
LINE
  5
386
330
1F
100
AcDbEntity
  8
0-A_文字
  6
Continuous
 62
     7
370
     9
100
AcDbLine
 10
-2822.403858979786
 20
4643.147744454086
 30
0.0
 11
-2763.434644929853
 21
4584.178530404153
 31
0.0
  0
LINE
  5
387
330
1F
100
AcDbEntity
  8
0-A_文字
  6
Continuous
 62
     7
370
     9
100
AcDbLine
 10
-2808.261723356148
 20
4643.14774445412
 30
0.0
 11
-2749.29250930617
 21
4584.178530404137
 31
0.0
  0
LINE
  5
388
330
1F
100
AcDbEntity
  8
0-A_文字
  6
Continuous
 62
     7
370
     9
100
AcDbLine
 10
-2794.119587732487
 20
4643.147744454131
 30
0.0
 11
-2735.150373682509
 21
4584.17853040414
 31
0.0
  0
LINE
  5
389
330
1F
100
AcDbEntity
  8
0-A_文字
  6
Continuous
 62
     7
370
     9
100
AcDbLine
 10
-2779.977452108622
 20
4643.147744454086
 30
0.0
 11
-2721.00823805869
 21
4584.178530404153
 31
0.0
  0
LINE
  5
38A
330
1F
100
AcDbEntity
  8
0-A_文字
  6
Continuous
 62
     7
370
     9
100
AcDbLine
 10
-2765.835316485007
 20
4643.147744454143
 30
0.0
 11
-2706.866102435029
 21
4584.178530404157
 31
0.0
  0
LINE
  5
38B
330
1F
100
AcDbEntity
  8
0-A_文字
  6
Continuous
 62
     7
370
     9
100
AcDbLine
 10
-2751.693180861324
 20
4643.147744454109
 30
0.0
 11
-2692.72396681138
 21
4584.178530404177
 31
0.0
  0
LINE
  5
38C
330
1F
100
AcDbEntity
  8
0-A_文字
  6
Continuous
 62
     7
370
     9
100
AcDbLine
 10
-2737.551045237492
 20
4643.147744454131
 30
0.0
 11
-2678.581831187503
 21
4584.178530404142
 31
0.0
  0
LINE
  5
38D
330
1F
100
AcDbEntity
  8
0-A_文字
  6
Continuous
 62
     7
370
     9
100
AcDbLine
 10
-2723.40890961382
 20
4643.147744454131
 30
0.0
 11
-2664.439695563843
 21
4584.178530404142
 31
0.0
  0
LINE
  5
38E
330
1F
100
AcDbEntity
  8
0-A_文字
  6
Continuous
 62
     7
370
     9
100
AcDbLine
 10
-2709.266773989955
 20
4643.147744454098
 30
0.0
 11
-2650.297559940023
 21
4584.17853040416
 31
0.0
  0
LINE
  5
38F
330
1F
100
AcDbEntity
  8
0-A_文字
  6
Continuous
 62
     7
370
     9
100
AcDbLine
 10
-2695.12463836634
 20
4643.147744454152
 30
0.0
 11
-2636.155424316362
 21
4584.17853040416
 31
0.0
  0
LINE
  5
390
330
1F
100
AcDbEntity
  8
0-A_文字
  6
Continuous
 62
     7
370
     9
100
AcDbLine
 10
-2680.982502742657
 20
4643.147744454114
 30
0.0
 11
-2622.013288692724
 21
4584.178530404177
 31
0.0
  0
LINE
  5
391
330
1F
100
AcDbEntity
  8
0-A_文字
  6
Continuous
 62
     7
370
     9
100
AcDbLine
 10
-2666.840367118837
 20
4643.147744454134
 30
0.0
 11
-2607.871153068848
 21
4584.178530404148
 31
0.0
  0
LINE
  5
392
330
1F
100
AcDbEntity
  8
0-A_文字
  6
Continuous
 62
     7
370
     9
100
AcDbLine
 10
-2652.698231495177
 20
4643.147744454131
 30
0.0
 11
-2593.729017445187
 21
4584.178530404142
 31
0.0
  0
LINE
  5
393
330
1F
100
AcDbEntity
  8
0-A_文字
  6
Continuous
 62
     7
370
     9
100
AcDbLine
 10
-2638.556095871277
 20
4643.147744454083
 30
0.0
 11
-2579.586881821345
 21
4584.178530404148
 31
0.0
  0
LINE
  5
394
330
1F
100
AcDbEntity
  8
0-A_文字
  6
Continuous
 62
     7
370
     9
100
AcDbLine
 10
-2624.413960247651
 20
4643.14774445412
 30
0.0
 11
-2565.444746197662
 21
4584.17853040414
 31
0.0
  0
LINE
  5
395
330
1F
100
AcDbEntity
  8
0-A_文字
  6
Continuous
 62
     7
370
     9
100
AcDbLine
 10
-2610.27182462399
 20
4643.14774445412
 30
0.0
 11
-2551.302610574001
 21
4584.178530404131
 31
0.0
  0
LINE
  5
396
330
1F
100
AcDbEntity
  8
0-A_文字
  6
Continuous
 62
     7
370
     9
100
AcDbLine
 10
-2596.129689000125
 20
4643.147744454086
 30
0.0
 11
-2537.160474950181
 21
4584.178530404157
 31
0.0
  0
LINE
  5
397
330
1F
100
AcDbEntity
  8
0-A_文字
  6
Continuous
 62
     7
370
     9
100
AcDbLine
 10
-2581.98755337651
 20
4643.147744454137
 30
0.0
 11
-2523.018339326521
 21
4584.178530404148
 31
0.0
  0
LINE
  5
398
330
1F
100
AcDbEntity
  8
0-A_文字
  6
Continuous
 62
     7
370
     9
100
AcDbLine
 10
-2567.845417752815
 20
4643.147744454103
 30
0.0
 11
-2508.876203702883
 21
4584.178530404165
 31
0.0
  0
LINE
  5
399
330
1F
100
AcDbEntity
  8
0-A_文字
  6
Continuous
 62
     7
370
     9
100
AcDbLine
 10
-2553.703282128995
 20
4643.147744454131
 30
0.0
 11
-2494.734068079018
 21
4584.178530404142
 31
0.0
  0
LINE
  5
39A
330
1F
100
AcDbEntity
  8
0-A_文字
  6
Continuous
 62
     7
370
     9
100
AcDbLine
 10
-2539.561146505335
 20
4643.14774445412
 30
0.0
 11
-2480.591932455346
 21
4584.178530404137
 31
0.0
  0
LINE
  5
39B
330
1F
100
AcDbEntity
  8
0-A_文字
  6
Continuous
 62
     7
370
     9
100
AcDbLine
 10
-2525.419010881458
 20
4643.147744454098
 30
0.0
 11
-2466.449796831515
 21
4584.178530404165
 31
0.0
  0
LINE
  5
39C
330
1F
100
AcDbEntity
  8
0-A_文字
  6
Continuous
 62
     7
370
     9
100
AcDbLine
 10
-2511.276875257843
 20
4643.147744454143
 30
0.0
 11
-2452.307661207854
 21
4584.178530404153
 31
0.0
  0
LINE
  5
39D
330
1F
100
AcDbEntity
  8
0-A_文字
  6
Continuous
 62
     7
370
     9
100
AcDbLine
 10
-2497.134739634148
 20
4643.147744454103
 30
0.0
 11
-2438.165525584216
 21
4584.17853040417
 31
0.0
  0
LINE
  5
39E
330
1F
100
AcDbEntity
  8
0-A_文字
  6
Continuous
 62
     7
370
     9
100
AcDbLine
 10
-2482.99260401034
 20
4643.147744454137
 30
0.0
 11
-2424.023389960351
 21
4584.178530404153
 31
0.0
  0
LINE
  5
39F
330
1F
100
AcDbEntity
  8
0-A_文字
  6
Continuous
 62
     7
370
     9
100
AcDbLine
 10
-2468.850468386668
 20
4643.147744454131
 30
0.0
 11
-2409.881254336679
 21
4584.17853040414
 31
0.0
  0
LINE
  5
3A0
330
1F
100
AcDbEntity
  8
0-A_文字
  6
Continuous
 62
     7
370
     9
100
AcDbLine
 10
-2454.708332762769
 20
4643.147744454074
 30
0.0
 11
-2395.739118712836
 21
4584.178530404142
 31
0.0
  0
LINE
  5
3A1
330
1F
100
AcDbEntity
  8
0-A_文字
  6
Continuous
 62
     7
370
     9
100
AcDbLine
 10
-2440.566197139188
 20
4643.147744454149
 30
0.0
 11
-2381.596983089199
 21
4584.17853040416
 31
0.0
  0
LINE
  5
3A2
330
1F
100
AcDbEntity
  8
0-A_文字
  6
Continuous
 62
     7
370
     9
100
AcDbLine
 10
-2426.424061515493
 20
4643.147744454109
 30
0.0
 11
-2367.454847465504
 21
4584.178530404122
 31
0.0
  0
LINE
  5
3A3
330
1F
100
AcDbEntity
  8
0-A_文字
  6
Continuous
 62
     7
370
     9
100
AcDbLine
 10
-2412.281925891628
 20
4643.147744454091
 30
0.0
 11
-2353.312711841696
 21
4584.17853040416
 31
0.0
  0
LINE
  5
3A4
330
1F
100
AcDbEntity
  8
0-A_文字
  6
Continuous
 62
     7
370
     9
100
AcDbLine
 10
-2398.139790268001
 20
4643.147744454131
 30
0.0
 11
-2339.170576218012
 21
4584.178530404142
 31
0.0
  0
LINE
  5
3A5
330
1F
100
AcDbEntity
  8
0-A_文字
  6
Continuous
 62
     7
370
     9
100
AcDbLine
 10
-2383.997654644113
 20
4643.147744454083
 30
0.0
 11
-2325.028440594181
 21
4584.178530404142
 31
0.0
  0
LINE
  5
3A6
330
1F
100
AcDbEntity
  8
0-A_文字
  6
Continuous
 62
     7
370
     9
100
AcDbLine
 10
-2369.855519020487
 20
4643.147744454131
 30
0.0
 11
-2310.886304970521
 21
4584.178530404142
 31
0.0
  0
LINE
  5
3A7
330
1F
100
AcDbEntity
  8
0-A_文字
  6
Continuous
 62
     7
370
     9
100
AcDbLine
 10
-2355.713383396826
 20
4643.147744454114
 30
0.0
 11
-2296.744169346837
 21
4584.178530404125
 31
0.0
  0
LINE
  5
3A8
330
1F
100
AcDbEntity
  8
0-A_文字
  6
Continuous
 62
     7
370
     9
100
AcDbLine
 10
-2341.571247772961
 20
4643.147744454098
 30
0.0
 11
-2282.60203372304
 21
4584.178530404165
 31
0.0
  0
LINE
  5
3A9
330
1F
100
AcDbEntity
  8
0-A_文字
  6
Continuous
 62
     7
370
     9
100
AcDbLine
 10
-2327.429112149346
 20
4643.147744454134
 30
0.0
 11
-2268.459898099357
 21
4584.178530404148
 31
0.0
  0
LINE
  5
3AA
330
1F
100
AcDbEntity
  8
0-A_文字
  6
Continuous
 62
     7
370
     9
100
AcDbLine
 10
-2313.286976525651
 20
4643.147744454098
 30
0.0
 11
-2254.317762475708
 21
4584.178530404165
 31
0.0
  0
LINE
  5
3AB
330
1F
100
AcDbEntity
  8
0-A_文字
  6
Continuous
 62
     7
370
     9
100
AcDbLine
 10
-2299.144840901843
 20
4643.147744454137
 30
0.0
 11
-2240.175626851854
 21
4584.178530404153
 31
0.0
  0
LINE
  5
3AC
330
1F
100
AcDbEntity
  8
0-A_文字
  6
Continuous
 62
     7
370
     9
100
AcDbLine
 10
-2285.00270527816
 20
4643.14774445412
 30
0.0
 11
-2226.033491228171
 21
4584.178530404131
 31
0.0
  0
LINE
  5
3AD
330
1F
100
AcDbEntity
  8
0-A_文字
  6
Continuous
 62
     7
370
     9
100
AcDbLine
 10
-2270.860569654272
 20
4643.147744454069
 30
0.0
 11
-2211.891355604328
 21
4584.178530404137
 31
0.0
  0
LINE
  5
3AE
330
1F
100
AcDbEntity
  8
0-A_文字
  6
Continuous
 62
     7
370
     9
100
AcDbLine
 10
-2256.718434030679
 20
4643.147744454137
 30
0.0
 11
-2197.74921998069
 21
4584.178530404153
 31
0.0
  0
LINE
  5
3AF
330
1F
100
AcDbEntity
  8
0-A_文字
  6
Continuous
 62
     7
370
     9
100
AcDbLine
 10
-2242.576298406985
 20
4643.147744454103
 30
0.0
 11
-2183.607084357052
 21
4584.17853040417
 31
0.0
  0
LINE
  5
3B0
330
1F
100
AcDbEntity
  8
0-A_文字
  6
Continuous
 62
     7
370
     9
100
AcDbLine
 10
-2228.434162783188
 20
4643.147744454143
 30
0.0
 11
-2169.464948733199
 21
4584.17853040416
 31
0.0
  0
LINE
  5
3B1
330
1F
100
AcDbEntity
  8
0-A_文字
  6
Continuous
 62
     7
370
     9
100
AcDbLine
 10
-2214.292027159504
 20
4643.14774445412
 30
0.0
 11
-2155.322813109504
 21
4584.17853040414
 31
0.0
  0
LINE
  5
3B2
330
1F
100
AcDbEntity
  8
0-A_文字
  6
Continuous
 62
     7
370
     9
100
AcDbLine
 10
-2200.149891535605
 20
4643.147744454074
 30
0.0
 11
-2141.180677485661
 21
4584.17853040414
 31
0.0
  0
LINE
  5
3B3
330
1F
100
AcDbEntity
  8
0-A_文字
  6
Continuous
 62
     7
370
     9
100
AcDbLine
 10
-2186.007755912001
 20
4643.147744454131
 30
0.0
 11
-2127.038541862024
 21
4584.178530404148
 31
0.0
  0
LINE
  5
3B4
330
1F
100
AcDbEntity
  8
0-A_文字
  6
Continuous
 62
     7
370
     9
100
AcDbLine
 10
-2171.865620288318
 20
4643.147744454109
 30
0.0
 11
-2112.896406238317
 21
4584.17853040412
 31
0.0
  0
LINE
  5
3B5
330
1F
100
AcDbEntity
  8
0-A_文字
  6
Continuous
 62
     7
370
     9
100
AcDbLine
 10
-2157.723484664476
 20
4643.147744454101
 30
0.0
 11
-2098.754270614543
 21
4584.17853040417
 31
0.0
  0
LINE
  5
3B6
330
1F
100
AcDbEntity
  8
0-A_文字
  6
Continuous
 62
     7
370
     9
100
AcDbLine
 10
-2143.581349040838
 20
4643.147744454131
 30
0.0
 11
-2084.612134990837
 21
4584.178530404142
 31
0.0
  0
LINE
  5
3B7
330
1F
100
AcDbEntity
  8
0-A_文字
  6
Continuous
 62
     7
370
     9
100
AcDbLine
 10
-2129.439213416938
 20
4643.147744454074
 30
0.0
 11
-2070.469999366995
 21
4584.178530404142
 31
0.0
  0
LINE
  5
3B8
330
1F
100
AcDbEntity
  8
0-A_文字
  6
Continuous
 62
     7
370
     9
100
AcDbLine
 10
-2115.297077793346
 20
4643.147744454137
 30
0.0
 11
-2056.327863743357
 21
4584.178530404153
 31
0.0
  0
LINE
  5
3B9
330
1F
100
AcDbEntity
  8
0-A_文字
  6
Continuous
 62
     7
370
     9
100
AcDbLine
 10
-2101.154942169663
 20
4643.147744454114
 30
0.0
 11
-2042.185728119674
 21
4584.178530404125
 31
0.0
  0
LINE
  5
3BA
330
1F
100
AcDbEntity
  8
0-A_文字
  6
Continuous
 62
     7
370
     9
100
AcDbLine
 10
-2087.012806545809
 20
4643.147744454103
 30
0.0
 11
-2028.043592495877
 21
4584.178530404177
 31
0.0
  0
LINE
  5
3BB
330
1F
100
AcDbEntity
  8
0-A_文字
  6
Continuous
 62
     7
370
     9
100
AcDbLine
 10
-1939.432849192124
 20
4509.709922724079
 30
0.0
 11
-1929.804943383809
 21
4500.082016915758
 31
0.0
  0
LINE
  5
3BC
330
1F
100
AcDbEntity
  8
0-A_文字
  6
Continuous
 62
     7
370
     9
100
AcDbLine
 10
-2072.870670922171
 20
4643.147744454131
 30
0.0
 11
-2013.901456872193
 21
4584.178530404142
 31
0.0
  0
LINE
  5
3BD
330
1F
100
AcDbEntity
  8
0-A_文字
  6
Continuous
 62
     7
370
     9
100
AcDbLine
 10
-1939.432849192147
 20
4523.852058347762
 30
0.0
 11
-1920.149048448562
 21
4504.568257604183
 31
0.0
  0
LINE
  5
3BE
330
1F
100
AcDbEntity
  8
0-A_文字
  6
Continuous
 62
     7
370
     9
100
AcDbLine
 10
-2058.728535298476
 20
4643.147744454098
 30
0.0
 11
-1999.759321248533
 21
4584.17853040416
 31
0.0
  0
LINE
  5
3BF
330
1F
100
AcDbEntity
  8
0-A_文字
  6
Continuous
 62
     7
370
     9
100
AcDbLine
 10
-1939.432849192124
 20
4537.994193971599
 30
0.0
 11
-1910.493153513224
 21
4509.054498292676
 31
0.0
  0
LINE
  5
3C0
330
1F
100
AcDbEntity
  8
0-A_文字
  6
Continuous
 62
     7
370
     9
100
AcDbLine
 10
-2044.586399674691
 20
4643.147744454149
 30
0.0
 11
-1985.61718562469
 21
4584.17853040416
 31
0.0
  0
LINE
  5
3C1
330
1F
100
AcDbEntity
  8
0-A_文字
  6
Continuous
 62
     7
370
     9
100
AcDbLine
 10
-1939.432849192147
 20
4552.136329595271
 30
0.0
 11
-1900.837258577999
 21
4513.540738981118
 31
0.0
  0
LINE
  5
3C2
330
1F
100
AcDbEntity
  8
0-A_文字
  6
Continuous
 62
     7
370
     9
100
AcDbLine
 10
-2030.444264050996
 20
4643.147744454114
 30
0.0
 11
-1971.475050001007
 21
4584.178530404125
 31
0.0
  0
LINE
  5
3C3
330
1F
100
AcDbEntity
  8
0-A_文字
  6
Continuous
 62
     7
370
     9
100
AcDbLine
 10
-1939.43284919217
 20
4566.278465219125
 30
0.0
 11
-1891.181363642639
 21
4518.026979669594
 31
0.0
  0
LINE
  5
3C4
330
1F
100
AcDbEntity
  8
0-A_文字
  6
Continuous
 62
     7
370
     9
100
AcDbLine
 10
-2016.302128427108
 20
4643.147744454063
 30
0.0
 11
-1957.332914377164
 21
4584.178530404131
 31
0.0
  0
LINE
  5
3C5
330
1F
100
AcDbEntity
  8
0-A_文字
  6
Continuous
 62
     7
370
     9
100
AcDbLine
 10
-1939.432849192124
 20
4580.420600842763
 30
0.0
 11
-1881.525468707426
 21
4522.513220358047
 31
0.0
  0
LINE
  5
3C6
330
1F
100
AcDbEntity
  8
0-A_文字
  6
Continuous
 62
     7
370
     9
100
AcDbLine
 10
-2002.159992803516
 20
4643.147744454137
 30
0.0
 11
-1943.190778753527
 21
4584.178530404148
 31
0.0
  0
LINE
  5
3C7
330
1F
100
AcDbEntity
  8
0-A_文字
  6
Continuous
 62
     7
370
     9
100
AcDbLine
 10
-1988.01785717981
 20
4643.147744454101
 30
0.0
 11
-1871.869573772201
 21
4526.999461046478
 31
0.0
  0
LINE
  5
3C8
330
1F
100
AcDbEntity
  8
0-A_文字
  6
Continuous
 62
     7
370
     9
100
AcDbLine
 10
-1973.875721555967
 20
4643.147744454103
 30
0.0
 11
-1862.213678836841
 21
4531.485701734971
 31
0.0
  0
LINE
  5
3C9
330
1F
100
AcDbEntity
  8
0-A_文字
  6
Continuous
 62
     7
370
     9
100
AcDbLine
 10
-1959.733585932329
 20
4643.14774445412
 30
0.0
 11
-1852.557783901616
 21
4535.971942423407
 31
0.0
  0
LINE
  5
3CA
330
1F
100
AcDbEntity
  8
0-A_文字
  6
Continuous
 62
     7
370
     9
100
AcDbLine
 10
-1945.591450308441
 20
4643.147744454069
 30
0.0
 11
-1842.901888966256
 21
4540.458183111889
 31
0.0
  0
LINE
  5
3CB
330
1F
100
AcDbEntity
  8
0-A_文字
  6
Continuous
 62
     7
370
     9
100
AcDbLine
 10
-1939.432849192147
 20
4651.13127896144
 30
0.0
 11
-1833.245994031054
 21
4544.944423800336
 31
0.0
  0
LINE
  5
3CC
330
1F
100
AcDbEntity
  8
0-A_文字
  6
Continuous
 62
     7
370
     9
100
AcDbLine
 10
-1939.432849192181
 20
4665.273414585133
 30
0.0
 11
-1823.590099095807
 21
4549.430664488767
 31
0.0
  0
LINE
  5
3CD
330
1F
100
AcDbEntity
  8
0-A_文字
  6
Continuous
 62
     7
370
     9
100
AcDbLine
 10
-1939.43284919217
 20
4679.415550208961
 30
0.0
 11
-1813.934204160469
 21
4553.916905177266
 31
0.0
  0
LINE
  5
3CE
330
1F
100
AcDbEntity
  8
0-A_文字
  6
Continuous
 62
     7
370
     9
100
AcDbLine
 10
-1939.432849192181
 20
4693.557685832633
 30
0.0
 11
-1804.278309225245
 21
4558.403145865696
 31
0.0
  0
LINE
  5
3CF
330
1F
100
AcDbEntity
  8
0-A_文字
  6
Continuous
 62
     7
370
     9
100
AcDbLine
 10
-1939.432849192192
 20
4707.699821456486
 30
0.0
 11
-1794.622414289884
 21
4562.889386554179
 31
0.0
  0
LINE
  5
3D0
330
1F
100
AcDbEntity
  8
0-A_文字
  6
Continuous
 62
     7
370
     9
100
AcDbLine
 10
-1939.43284919217
 20
4721.841957080119
 30
0.0
 11
-1784.966519354671
 21
4567.375627242624
 31
0.0
  0
LINE
  5
3D1
330
1F
100
AcDbEntity
  8
0-A_文字
  6
Continuous
 62
     7
370
     9
100
AcDbLine
 10
-1931.463685016391
 20
4728.014928528006
 30
0.0
 11
-1775.310624419447
 21
4571.861867931068
 31
0.0
  0
LINE
  5
3D2
330
1F
100
AcDbEntity
  8
0-A_文字
  6
Continuous
 62
     7
370
     9
100
AcDbLine
 10
-1905.048963794346
 20
4715.742342929798
 30
0.0
 11
-1765.654729484098
 21
4576.348108619552
 31
0.0
  0
LINE
  5
3D3
330
1F
100
AcDbEntity
  8
0-A_文字
  6
Continuous
 62
     7
370
     9
100
AcDbLine
 10
-1878.634242572642
 20
4703.469757331754
 30
0.0
 11
-1755.998834548862
 21
4580.834349307986
 31
0.0
  0
LINE
  5
3D4
330
1F
100
AcDbEntity
  8
0-A_文字
  6
Continuous
 62
     7
370
     9
100
AcDbLine
 10
-1852.219521350949
 20
4691.197171733734
 30
0.0
 11
-1746.342939613649
 21
4585.320589996422
 31
0.0
  0
LINE
  5
3D5
330
1F
100
AcDbEntity
  8
0-A_文字
  6
Continuous
 62
     7
370
     9
100
AcDbLine
 10
-1825.804800128893
 20
4678.924586135508
 30
0.0
 11
-1736.6870446783
 21
4589.806830684915
 31
0.0
  0
LINE
  5
3D6
330
1F
100
AcDbEntity
  8
0-A_文字
  6
Continuous
 62
     7
370
     9
100
AcDbLine
 10
-1799.390078907143
 20
4666.652000537425
 30
0.0
 11
-1727.031149743075
 21
4594.29307137336
 31
0.0
  0
LINE
  5
3D7
330
1F
100
AcDbEntity
  8
0-A_文字
  6
Continuous
 62
     7
370
     9
100
AcDbLine
 10
-1772.975357684984
 20
4654.379414939121
 30
0.0
 11
-1717.375254807715
 21
4598.779312061833
 31
0.0
  0
LINE
  5
3D8
330
1F
100
AcDbEntity
  8
0-A_文字
  6
Continuous
 62
     7
370
     9
100
AcDbLine
 10
-1746.560636463314
 20
4642.1068293411
 30
0.0
 11
-1707.71935987249
 21
4603.265552750276
 31
0.0
  0
LINE
  5
3D9
330
1F
100
AcDbEntity
  8
0-A_文字
  6
Continuous
 62
     7
370
     9
100
AcDbLine
 10
-1720.145915241633
 20
4629.834243743073
 30
0.0
 11
-1698.063464937266
 21
4607.751793438718
 31
0.0
  0
LINE
  5
3DA
330
1F
100
AcDbEntity
  8
0-A_文字
  6
Continuous
 62
     7
370
     9
100
AcDbLine
 10
-1693.731194019565
 20
4617.561658144854
 30
0.0
 11
-1688.407570001917
 21
4612.238034127211
 31
0.0
  0
LINE
  5
3DB
330
1F
100
AcDbEntity
  8
0-A_文字
  6
Continuous
 62
     7
370
     9
100
AcDbLine
 10
-3041.859601312288
 20
4643.147744454149
 30
0.0
 11
-3041.859601312288
 21
4715.901209730401
 31
0.0
  0
LINE
  5
3DC
330
1F
100
AcDbEntity
  8
0-A_文字
  6
Continuous
 62
     7
370
     9
100
AcDbLine
 10
-3041.859601312288
 20
4511.425065127889
 30
0.0
 11
-3041.859601312288
 21
4584.178530404148
 31
0.0
  0
LINE
  5
3DD
330
1F
100
AcDbEntity
  8
0-A_文字
  6
Continuous
 62
     7
370
     9
100
AcDbLine
 10
-3041.859601312288
 20
4584.178530404148
 30
0.0
 11
-1939.432849192147
 21
4584.178530404148
 31
0.0
  0
LINE
  5
3DE
330
1F
100
AcDbEntity
  8
0-A_文字
  6
Continuous
 62
     7
370
     9
100
AcDbLine
 10
-3041.859601312288
 20
4643.147744454149
 30
0.0
 11
-1939.432849192147
 21
4643.147744454149
 31
0.0
  0
ARC
  5
3DF
330
1F
100
AcDbEntity
  8
0-A_文字
  6
Continuous
 62
     7
370
     9
100
AcDbCircle
 10
-3100.886779876842
 20
4613.663137429148
 30
0.0
 40
118.0543571291164
100
AcDbArc
 50
59.99999999999994
 51
300.0000000000001
  0
LINE
  5
3E0
330
1F
100
AcDbEntity
  8
0-A_文字
  6
Continuous
 62
     7
370
     9
100
AcDbLine
 10
-1939.432849192147
 20
4731.717494558262
 30
0.0
 11
-1685.340269624808
 21
4613.663137429148
 31
0.0
  0
LINE
  5
3E1
330
1F
100
AcDbEntity
  8
0-A_文字
  6
Continuous
 62
     7
370
     9
100
AcDbLine
 10
-1939.432849192147
 20
4643.147744454149
 30
0.0
 11
-1939.432849192147
 21
4731.717494558262
 31
0.0
  0
LINE
  5
3E2
330
1F
100
AcDbEntity
  8
0-A_文字
  6
Continuous
 62
     7
370
     9
100
AcDbLine
 10
-1939.432849192147
 20
4495.608780300028
 30
0.0
 11
-1685.340269624808
 21
4613.663137429148
 31
0.0
  0
LINE
  5
3E3
330
1F
100
AcDbEntity
  8
0-A_文字
  6
Continuous
 62
     7
370
     9
100
AcDbLine
 10
-1939.432849192147
 20
4584.178530404148
 30
0.0
 11
-1939.432849192147
 21
4495.608780300028
 31
0.0
  0
LINE
  5
3E4
330
1F
100
AcDbEntity
  8
0-A_文字
  6
JWW_HOJO
 62
   120
370
     5
100
AcDbLine
 10
16584.10991454221
 20
4613.663137429148
 30
0.0
 11
16173.56670987112
 21
4613.663137429148
 31
0.0
  0
LINE
  5
3E5
330
1F
100
AcDbEntity
  8
0-A_文字
  6
Continuous
 62
     7
370
     9
100
AcDbLine
 10
17694.36237616004
 20
4560.189345804873
 30
0.0
 11
17642.58701174752
 21
4508.413981392351
 31
0.0
  0
LINE
  5
3E6
330
1F
100
AcDbEntity
  8
0-A_文字
  6
Continuous
 62
     7
370
     9
100
AcDbLine
 10
17703.14704258374
 20
4583.116147852241
 30
0.0
 11
17619.66020970024
 21
4499.629314968741
 31
0.0
  0
LINE
  5
3E7
330
1F
100
AcDbEntity
  8
0-A_文字
  6
Continuous
 62
     7
370
     9
100
AcDbLine
 10
17706.43681480145
 20
4600.548055693599
 30
0.0
 11
17602.22830185879
 21
4496.339542750939
 31
0.0
  0
LINE
  5
3E8
330
1F
100
AcDbEntity
  8
0-A_文字
  6
Continuous
 62
     7
370
     9
100
AcDbLine
 10
17707.15468102147
 20
4615.408057537468
 30
0.0
 11
17587.36830001492
 21
4495.621676530925
 31
0.0
  0
LINE
  5
3E9
330
1F
100
AcDbEntity
  8
0-A_文字
  6
Continuous
 62
     7
370
     9
100
AcDbLine
 10
17706.21719753938
 20
4628.612709679044
 30
0.0
 11
17574.16364787335
 21
4496.55916001301
 31
0.0
  0
LINE
  5
3EA
330
1F
100
AcDbEntity
  8
0-A_文字
  6
Continuous
 62
     7
370
     9
100
AcDbLine
 10
17704.05507030694
 20
4640.592718070446
 30
0.0
 11
17562.18363948195
 21
4498.721287245445
 31
0.0
  0
LINE
  5
3EB
330
1F
100
AcDbEntity
  8
0-A_文字
  6
Continuous
 62
     7
370
     9
100
AcDbLine
 10
17700.90960184055
 20
4651.589385227709
 30
0.0
 11
17551.18697232468
 21
4501.866755711836
 31
0.0
  0
LINE
  5
3EC
330
1F
100
AcDbEntity
  8
0-A_文字
  6
Continuous
 62
     7
370
     9
100
AcDbLine
 10
17696.92949424419
 20
4661.751413255013
 30
0.0
 11
17541.02494429765
 21
4505.846863308471
 31
0.0
  0
LINE
  5
3ED
330
1F
100
AcDbEntity
  8
0-A_文字
  6
Continuous
 62
     7
370
     9
100
AcDbLine
 10
17692.21118181015
 20
4671.175236444822
 30
0.0
 11
17531.60112110766
 21
4510.565175742329
 31
0.0
  0
LINE
  5
3EE
330
1F
100
AcDbEntity
  8
0-A_文字
  6
Continuous
 62
     7
370
     9
100
AcDbLine
 10
17686.81824427115
 20
4679.924434529483
 30
0.0
 11
17530.08604155858
 21
4523.192231816904
 31
0.0
  0
LINE
  5
3EF
330
1F
100
AcDbEntity
  8
0-A_文字
  6
Continuous
 62
     7
370
     9
100
AcDbLine
 10
17680.79159771099
 20
4688.039923593158
 30
0.0
 11
17530.08604155861
 21
4537.334367440781
 31
0.0
  0
LINE
  5
3F0
330
1F
100
AcDbEntity
  8
0-A_文字
  6
Continuous
 62
     7
370
     9
100
AcDbLine
 10
17674.15503569394
 20
4695.545497199771
 30
0.0
 11
17530.08604155859
 21
4551.476503064416
 31
0.0
  0
LINE
  5
3F1
330
1F
100
AcDbEntity
  8
0-A_文字
  6
Continuous
 62
     7
370
     9
100
AcDbLine
 10
17666.91810344267
 20
4702.450700572154
 30
0.0
 11
17530.08604155855
 21
4565.618638688054
 31
0.0
  0
LINE
  5
3F2
330
1F
100
AcDbEntity
  8
0-A_文字
  6
Continuous
 62
     7
370
     9
100
AcDbLine
 10
17659.07718109932
 20
4708.751913852655
 30
0.0
 11
17530.08604155861
 21
4579.760774311933
 31
0.0
  0
LINE
  5
3F3
330
1F
100
AcDbEntity
  8
0-A_文字
  6
Continuous
 62
     7
370
     9
100
AcDbLine
 10
17650.61507756284
 20
4714.431945939839
 30
0.0
 11
17520.36166202716
 21
4584.178530404153
 31
0.0
  0
LINE
  5
3F4
330
1F
100
AcDbEntity
  8
0-A_文字
  6
Continuous
 62
     7
370
     9
100
AcDbLine
 10
17641.49902374186
 20
4719.458027742695
 30
0.0
 11
17506.21952640332
 21
4584.17853040416
 31
0.0
  0
LINE
  5
3F5
330
1F
100
AcDbEntity
  8
0-A_文字
  6
Continuous
 62
     7
370
     9
100
AcDbLine
 10
17631.67648313304
 20
4723.777622757541
 30
0.0
 11
17492.07739077963
 21
4584.178530404125
 31
0.0
  0
LINE
  5
3F6
330
1F
100
AcDbEntity
  8
0-A_文字
  6
Continuous
 62
     7
370
     9
100
AcDbLine
 10
17621.06739578742
 20
4727.310671035582
 30
0.0
 11
17477.93525515597
 21
4584.178530404142
 31
0.0
  0
LINE
  5
3F7
330
1F
100
AcDbEntity
  8
0-A_文字
  6
Continuous
 62
     7
370
     9
100
AcDbLine
 10
17522.76233358208
 20
4643.147744454081
 30
0.0
 11
17463.79311953215
 21
4584.178530404142
 31
0.0
  0
LINE
  5
3F8
330
1F
100
AcDbEntity
  8
0-A_文字
  6
Continuous
 62
     7
370
     9
100
AcDbLine
 10
17609.54973554693
 20
4729.935146418928
 30
0.0
 11
17530.08604155865
 21
4650.471452430656
 31
0.0
  0
LINE
  5
3F9
330
1F
100
AcDbEntity
  8
0-A_文字
  6
Continuous
 62
     7
370
     9
100
AcDbLine
 10
17508.62019795849
 20
4643.147744454152
 30
0.0
 11
17449.65098390849
 21
4584.17853040416
 31
0.0
  0
LINE
  5
3FA
330
1F
100
AcDbEntity
  8
0-A_文字
  6
Continuous
 62
     7
370
     9
100
AcDbLine
 10
17596.93082150682
 20
4731.458368002484
 30
0.0
 11
17530.08604155859
 21
4664.613588054237
 31
0.0
  0
LINE
  5
3FB
330
1F
100
AcDbEntity
  8
0-A_文字
  6
Continuous
 62
     7
370
     9
100
AcDbLine
 10
17494.4780623348
 20
4643.147744454114
 30
0.0
 11
17435.50884828486
 21
4584.178530404177
 31
0.0
  0
LINE
  5
3FC
330
1F
100
AcDbEntity
  8
0-A_文字
  6
Continuous
 62
     7
370
     9
100
AcDbLine
 10
17582.88331724601
 20
4731.552999365323
 30
0.0
 11
17530.08604155861
 21
4678.755723677927
 31
0.0
  0
LINE
  5
3FD
330
1F
100
AcDbEntity
  8
0-A_文字
  6
Continuous
 62
     7
370
     9
100
AcDbLine
 10
17480.33592671096
 20
4643.147744454114
 30
0.0
 11
17421.36671266098
 21
4584.178530404131
 31
0.0
  0
LINE
  5
3FE
330
1F
100
AcDbEntity
  8
0-A_文字
  6
Continuous
 62
     7
370
     9
100
AcDbLine
 10
17566.77251825261
 20
4729.584335995776
 30
0.0
 11
17530.08604155862
 21
4692.897859301797
 31
0.0
  0
LINE
  5
3FF
330
1F
100
AcDbEntity
  8
0-A_文字
  6
Continuous
 62
     7
370
     9
100
AcDbLine
 10
17466.19379108731
 20
4643.147744454131
 30
0.0
 11
17407.22457703733
 21
4584.178530404142
 31
0.0
  0
LINE
  5
400
330
1F
100
AcDbEntity
  8
0-A_文字
  6
Continuous
 62
     7
370
     9
100
AcDbLine
 10
17546.99445408981
 20
4723.948407456629
 30
0.0
 11
17530.08604155858
 21
4707.039994925395
 31
0.0
  0
LINE
  5
401
330
1F
100
AcDbEntity
  8
0-A_文字
  6
Continuous
 62
     7
370
     9
100
AcDbLine
 10
17452.05165546341
 20
4643.147744454086
 30
0.0
 11
17393.08244141349
 21
4584.178530404153
 31
0.0
  0
LINE
  5
402
330
1F
100
AcDbEntity
  8
0-A_文字
  6
Continuous
 62
     7
370
     9
100
AcDbLine
 10
17437.90951983982
 20
4643.147744454154
 30
0.0
 11
17378.94030578983
 21
4584.178530404165
 31
0.0
  0
LINE
  5
403
330
1F
100
AcDbEntity
  8
0-A_文字
  6
Continuous
 62
     7
370
     9
100
AcDbLine
 10
17423.76738421613
 20
4643.147744454114
 30
0.0
 11
17364.79817016619
 21
4584.178530404188
 31
0.0
  0
LINE
  5
404
330
1F
100
AcDbEntity
  8
0-A_文字
  6
Continuous
 62
     7
370
     9
100
AcDbLine
 10
17409.62524859229
 20
4643.147744454131
 30
0.0
 11
17350.65603454231
 21
4584.178530404142
 31
0.0
  0
LINE
  5
405
330
1F
100
AcDbEntity
  8
0-A_文字
  6
Continuous
 62
     7
370
     9
100
AcDbLine
 10
17395.48311296865
 20
4643.147744454137
 30
0.0
 11
17336.51389891866
 21
4584.178530404148
 31
0.0
  0
LINE
  5
406
330
1F
100
AcDbEntity
  8
0-A_文字
  6
Continuous
 62
     7
370
     9
100
AcDbLine
 10
17381.34097734474
 20
4643.147744454086
 30
0.0
 11
17322.37176329482
 21
4584.178530404153
 31
0.0
  0
LINE
  5
407
330
1F
100
AcDbEntity
  8
0-A_文字
  6
Continuous
 62
     7
370
     9
100
AcDbLine
 10
17367.19884172117
 20
4643.147744454154
 30
0.0
 11
17308.22962767118
 21
4584.17853040417
 31
0.0
  0
LINE
  5
408
330
1F
100
AcDbEntity
  8
0-A_文字
  6
Continuous
 62
     7
370
     9
100
AcDbLine
 10
17353.05670609746
 20
4643.14774445412
 30
0.0
 11
17294.08749204749
 21
4584.178530404131
 31
0.0
  0
LINE
  5
409
330
1F
100
AcDbEntity
  8
0-A_文字
  6
Continuous
 62
     7
370
     9
100
AcDbLine
 10
17338.91457047359
 20
4643.147744454083
 30
0.0
 11
17279.94535642366
 21
4584.178530404148
 31
0.0
  0
LINE
  5
40A
330
1F
100
AcDbEntity
  8
0-A_文字
  6
Continuous
 62
     7
370
     9
100
AcDbLine
 10
17324.77243484998
 20
4643.147744454137
 30
0.0
 11
17265.8032208
 21
4584.178530404153
 31
0.0
  0
LINE
  5
40B
330
1F
100
AcDbEntity
  8
0-A_文字
  6
Continuous
 62
     7
370
     9
100
AcDbLine
 10
17310.6302992261
 20
4643.147744454086
 30
0.0
 11
17251.66108517617
 21
4584.178530404153
 31
0.0
  0
LINE
  5
40C
330
1F
100
AcDbEntity
  8
0-A_文字
  6
Continuous
 62
     7
370
     9
100
AcDbLine
 10
17296.48816360246
 20
4643.14774445412
 30
0.0
 11
17237.51894955248
 21
4584.178530404137
 31
0.0
  0
LINE
  5
40D
330
1F
100
AcDbEntity
  8
0-A_文字
  6
Continuous
 62
     7
370
     9
100
AcDbLine
 10
17282.3460279788
 20
4643.147744454131
 30
0.0
 11
17223.37681392882
 21
4584.17853040414
 31
0.0
  0
LINE
  5
40E
330
1F
100
AcDbEntity
  8
0-A_文字
  6
Continuous
 62
     7
370
     9
100
AcDbLine
 10
17268.20389235493
 20
4643.147744454086
 30
0.0
 11
17209.234678305
 21
4584.178530404153
 31
0.0
  0
LINE
  5
40F
330
1F
100
AcDbEntity
  8
0-A_文字
  6
Continuous
 62
     7
370
     9
100
AcDbLine
 10
17254.06175673132
 20
4643.147744454143
 30
0.0
 11
17195.09254268134
 21
4584.178530404157
 31
0.0
  0
LINE
  5
410
330
1F
100
AcDbEntity
  8
0-A_文字
  6
Continuous
 62
     7
370
     9
100
AcDbLine
 10
17239.91962110763
 20
4643.147744454109
 30
0.0
 11
17180.95040705769
 21
4584.178530404177
 31
0.0
  0
LINE
  5
411
330
1F
100
AcDbEntity
  8
0-A_文字
  6
Continuous
 62
     7
370
     9
100
AcDbLine
 10
17225.7774854838
 20
4643.147744454131
 30
0.0
 11
17166.80827143381
 21
4584.178530404142
 31
0.0
  0
LINE
  5
412
330
1F
100
AcDbEntity
  8
0-A_文字
  6
Continuous
 62
     7
370
     9
100
AcDbLine
 10
17211.63534986013
 20
4643.147744454131
 30
0.0
 11
17152.66613581015
 21
4584.178530404142
 31
0.0
  0
LINE
  5
413
330
1F
100
AcDbEntity
  8
0-A_文字
  6
Continuous
 62
     7
370
     9
100
AcDbLine
 10
17197.49321423627
 20
4643.147744454098
 30
0.0
 11
17138.52400018633
 21
4584.17853040416
 31
0.0
  0
LINE
  5
414
330
1F
100
AcDbEntity
  8
0-A_文字
  6
Continuous
 62
     7
370
     9
100
AcDbLine
 10
17183.35107861265
 20
4643.147744454152
 30
0.0
 11
17124.38186456267
 21
4584.17853040416
 31
0.0
  0
LINE
  5
415
330
1F
100
AcDbEntity
  8
0-A_文字
  6
Continuous
 62
     7
370
     9
100
AcDbLine
 10
17169.20894298897
 20
4643.147744454114
 30
0.0
 11
17110.23972893904
 21
4584.178530404177
 31
0.0
  0
LINE
  5
416
330
1F
100
AcDbEntity
  8
0-A_文字
  6
Continuous
 62
     7
370
     9
100
AcDbLine
 10
17155.06680736515
 20
4643.147744454134
 30
0.0
 11
17096.09759331516
 21
4584.178530404148
 31
0.0
  0
LINE
  5
417
330
1F
100
AcDbEntity
  8
0-A_文字
  6
Continuous
 62
     7
370
     9
100
AcDbLine
 10
17140.92467174149
 20
4643.147744454131
 30
0.0
 11
17081.9554576915
 21
4584.178530404142
 31
0.0
  0
LINE
  5
418
330
1F
100
AcDbEntity
  8
0-A_文字
  6
Continuous
 62
     7
370
     9
100
AcDbLine
 10
17126.78253611759
 20
4643.147744454083
 30
0.0
 11
17067.81332206766
 21
4584.178530404148
 31
0.0
  0
LINE
  5
419
330
1F
100
AcDbEntity
  8
0-A_文字
  6
Continuous
 62
     7
370
     9
100
AcDbLine
 10
17112.64040049396
 20
4643.14774445412
 30
0.0
 11
17053.67118644397
 21
4584.17853040414
 31
0.0
  0
LINE
  5
41A
330
1F
100
AcDbEntity
  8
0-A_文字
  6
Continuous
 62
     7
370
     9
100
AcDbLine
 10
17098.4982648703
 20
4643.14774445412
 30
0.0
 11
17039.52905082031
 21
4584.178530404131
 31
0.0
  0
LINE
  5
41B
330
1F
100
AcDbEntity
  8
0-A_文字
  6
Continuous
 62
     7
370
     9
100
AcDbLine
 10
17084.35612924644
 20
4643.147744454086
 30
0.0
 11
17025.38691519649
 21
4584.178530404157
 31
0.0
  0
LINE
  5
41C
330
1F
100
AcDbEntity
  8
0-A_文字
  6
Continuous
 62
     7
370
     9
100
AcDbLine
 10
17070.21399362282
 20
4643.147744454137
 30
0.0
 11
17011.24477957283
 21
4584.178530404148
 31
0.0
  0
LINE
  5
41D
330
1F
100
AcDbEntity
  8
0-A_文字
  6
Continuous
 62
     7
370
     9
100
AcDbLine
 10
17056.07185799913
 20
4643.147744454103
 30
0.0
 11
16997.10264394919
 21
4584.178530404165
 31
0.0
  0
LINE
  5
41E
330
1F
100
AcDbEntity
  8
0-A_文字
  6
Continuous
 62
     7
370
     9
100
AcDbLine
 10
17041.92972237531
 20
4643.147744454131
 30
0.0
 11
16982.96050832533
 21
4584.178530404142
 31
0.0
  0
LINE
  5
41F
330
1F
100
AcDbEntity
  8
0-A_文字
  6
Continuous
 62
     7
370
     9
100
AcDbLine
 10
17027.78758675164
 20
4643.14774445412
 30
0.0
 11
16968.81837270165
 21
4584.178530404137
 31
0.0
  0
LINE
  5
420
330
1F
100
AcDbEntity
  8
0-A_文字
  6
Continuous
 62
     7
370
     9
100
AcDbLine
 10
17013.64545112777
 20
4643.147744454098
 30
0.0
 11
16954.67623707783
 21
4584.178530404165
 31
0.0
  0
LINE
  5
421
330
1F
100
AcDbEntity
  8
0-A_文字
  6
Continuous
 62
     7
370
     9
100
AcDbLine
 10
16999.50331550415
 20
4643.147744454143
 30
0.0
 11
16940.53410145417
 21
4584.178530404153
 31
0.0
  0
LINE
  5
422
330
1F
100
AcDbEntity
  8
0-A_文字
  6
Continuous
 62
     7
370
     9
100
AcDbLine
 10
16985.36117988046
 20
4643.147744454103
 30
0.0
 11
16926.39196583053
 21
4584.17853040417
 31
0.0
  0
LINE
  5
423
330
1F
100
AcDbEntity
  8
0-A_文字
  6
Continuous
 62
     7
370
     9
100
AcDbLine
 10
16971.21904425665
 20
4643.147744454137
 30
0.0
 11
16912.24983020666
 21
4584.178530404153
 31
0.0
  0
LINE
  5
424
330
1F
100
AcDbEntity
  8
0-A_文字
  6
Continuous
 62
     7
370
     9
100
AcDbLine
 10
16957.07690863298
 20
4643.147744454131
 30
0.0
 11
16898.10769458299
 21
4584.17853040414
 31
0.0
  0
LINE
  5
425
330
1F
100
AcDbEntity
  8
0-A_文字
  6
Continuous
 62
     7
370
     9
100
AcDbLine
 10
16942.93477300908
 20
4643.147744454074
 30
0.0
 11
16883.96555895915
 21
4584.178530404142
 31
0.0
  0
LINE
  5
426
330
1F
100
AcDbEntity
  8
0-A_文字
  6
Continuous
 62
     7
370
     9
100
AcDbLine
 10
16928.7926373855
 20
4643.147744454149
 30
0.0
 11
16869.82342333551
 21
4584.17853040416
 31
0.0
  0
LINE
  5
427
330
1F
100
AcDbEntity
  8
0-A_文字
  6
Continuous
 62
     7
370
     9
100
AcDbLine
 10
16914.6505017618
 20
4643.147744454109
 30
0.0
 11
16855.68128771181
 21
4584.178530404122
 31
0.0
  0
LINE
  5
428
330
1F
100
AcDbEntity
  8
0-A_文字
  6
Continuous
 62
     7
370
     9
100
AcDbLine
 10
16900.50836613794
 20
4643.147744454091
 30
0.0
 11
16841.53915208801
 21
4584.17853040416
 31
0.0
  0
LINE
  5
429
330
1F
100
AcDbEntity
  8
0-A_文字
  6
Continuous
 62
     7
370
     9
100
AcDbLine
 10
16886.36623051431
 20
4643.147744454131
 30
0.0
 11
16827.39701646432
 21
4584.178530404142
 31
0.0
  0
LINE
  5
42A
330
1F
100
AcDbEntity
  8
0-A_文字
  6
Continuous
 62
     7
370
     9
100
AcDbLine
 10
16872.22409489043
 20
4643.147744454083
 30
0.0
 11
16813.25488084049
 21
4584.178530404142
 31
0.0
  0
LINE
  5
42B
330
1F
100
AcDbEntity
  8
0-A_文字
  6
Continuous
 62
     7
370
     9
100
AcDbLine
 10
16858.0819592668
 20
4643.147744454131
 30
0.0
 11
16799.11274521683
 21
4584.178530404142
 31
0.0
  0
LINE
  5
42C
330
1F
100
AcDbEntity
  8
0-A_文字
  6
Continuous
 62
     7
370
     9
100
AcDbLine
 10
16843.93982364314
 20
4643.147744454114
 30
0.0
 11
16784.97060959315
 21
4584.178530404125
 31
0.0
  0
LINE
  5
42D
330
1F
100
AcDbEntity
  8
0-A_文字
  6
Continuous
 62
     7
370
     9
100
AcDbLine
 10
16829.79768801927
 20
4643.147744454098
 30
0.0
 11
16770.82847396935
 21
4584.178530404165
 31
0.0
  0
LINE
  5
42E
330
1F
100
AcDbEntity
  8
0-A_文字
  6
Continuous
 62
     7
370
     9
100
AcDbLine
 10
16815.65555239566
 20
4643.147744454134
 30
0.0
 11
16756.68633834567
 21
4584.178530404148
 31
0.0
  0
LINE
  5
42F
330
1F
100
AcDbEntity
  8
0-A_文字
  6
Continuous
 62
     7
370
     9
100
AcDbLine
 10
16801.51341677196
 20
4643.147744454098
 30
0.0
 11
16742.54420272202
 21
4584.178530404165
 31
0.0
  0
LINE
  5
430
330
1F
100
AcDbEntity
  8
0-A_文字
  6
Continuous
 62
     7
370
     9
100
AcDbLine
 10
16787.37128114815
 20
4643.147744454137
 30
0.0
 11
16728.40206709817
 21
4584.178530404153
 31
0.0
  0
LINE
  5
431
330
1F
100
AcDbEntity
  8
0-A_文字
  6
Continuous
 62
     7
370
     9
100
AcDbLine
 10
16773.22914552447
 20
4643.14774445412
 30
0.0
 11
16714.25993147448
 21
4584.178530404131
 31
0.0
  0
LINE
  5
432
330
1F
100
AcDbEntity
  8
0-A_文字
  6
Continuous
 62
     7
370
     9
100
AcDbLine
 10
16759.08700990058
 20
4643.147744454069
 30
0.0
 11
16700.11779585064
 21
4584.178530404137
 31
0.0
  0
LINE
  5
433
330
1F
100
AcDbEntity
  8
0-A_文字
  6
Continuous
 62
     7
370
     9
100
AcDbLine
 10
16744.94487427699
 20
4643.147744454137
 30
0.0
 11
16685.975660227
 21
4584.178530404153
 31
0.0
  0
LINE
  5
434
330
1F
100
AcDbEntity
  8
0-A_文字
  6
Continuous
 62
     7
370
     9
100
AcDbLine
 10
16730.8027386533
 20
4643.147744454103
 30
0.0
 11
16671.83352460336
 21
4584.17853040417
 31
0.0
  0
LINE
  5
435
330
1F
100
AcDbEntity
  8
0-A_文字
  6
Continuous
 62
     7
370
     9
100
AcDbLine
 10
16716.6606030295
 20
4643.147744454143
 30
0.0
 11
16657.69138897951
 21
4584.17853040416
 31
0.0
  0
LINE
  5
436
330
1F
100
AcDbEntity
  8
0-A_文字
  6
Continuous
 62
     7
370
     9
100
AcDbLine
 10
16702.51846740581
 20
4643.14774445412
 30
0.0
 11
16643.54925335581
 21
4584.17853040414
 31
0.0
  0
LINE
  5
437
330
1F
100
AcDbEntity
  8
0-A_文字
  6
Continuous
 62
     7
370
     9
100
AcDbLine
 10
16688.37633178192
 20
4643.147744454074
 30
0.0
 11
16629.40711773197
 21
4584.17853040414
 31
0.0
  0
LINE
  5
438
330
1F
100
AcDbEntity
  8
0-A_文字
  6
Continuous
 62
     7
370
     9
100
AcDbLine
 10
16674.23419615831
 20
4643.147744454131
 30
0.0
 11
16615.26498210834
 21
4584.178530404148
 31
0.0
  0
LINE
  5
439
330
1F
100
AcDbEntity
  8
0-A_文字
  6
Continuous
 62
     7
370
     9
100
AcDbLine
 10
16660.09206053463
 20
4643.147744454109
 30
0.0
 11
16601.12284648463
 21
4584.17853040412
 31
0.0
  0
LINE
  5
43A
330
1F
100
AcDbEntity
  8
0-A_文字
  6
Continuous
 62
     7
370
     9
100
AcDbLine
 10
16645.94992491079
 20
4643.147744454101
 30
0.0
 11
16586.98071086085
 21
4584.17853040417
 31
0.0
  0
LINE
  5
43B
330
1F
100
AcDbEntity
  8
0-A_文字
  6
Continuous
 62
     7
370
     9
100
AcDbLine
 10
16631.80778928715
 20
4643.147744454131
 30
0.0
 11
16572.83857523715
 21
4584.178530404142
 31
0.0
  0
LINE
  5
43C
330
1F
100
AcDbEntity
  8
0-A_文字
  6
Continuous
 62
     7
370
     9
100
AcDbLine
 10
16617.66565366325
 20
4643.147744454074
 30
0.0
 11
16558.6964396133
 21
4584.178530404142
 31
0.0
  0
LINE
  5
43D
330
1F
100
AcDbEntity
  8
0-A_文字
  6
Continuous
 62
     7
370
     9
100
AcDbLine
 10
16603.52351803966
 20
4643.147744454137
 30
0.0
 11
16544.55430398967
 21
4584.178530404153
 31
0.0
  0
LINE
  5
43E
330
1F
100
AcDbEntity
  8
0-A_文字
  6
Continuous
 62
     7
370
     9
100
AcDbLine
 10
16589.38138241597
 20
4643.147744454114
 30
0.0
 11
16530.41216836598
 21
4584.178530404125
 31
0.0
  0
LINE
  5
43F
330
1F
100
AcDbEntity
  8
0-A_文字
  6
Continuous
 62
     7
370
     9
100
AcDbLine
 10
16575.23924679212
 20
4643.147744454103
 30
0.0
 11
16516.27003274219
 21
4584.178530404177
 31
0.0
  0
LINE
  5
440
330
1F
100
AcDbEntity
  8
0-A_文字
  6
Continuous
 62
     7
370
     9
100
AcDbLine
 10
16427.65928943843
 20
4509.709922724079
 30
0.0
 11
16418.03138363012
 21
4500.082016915758
 31
0.0
  0
LINE
  5
441
330
1F
100
AcDbEntity
  8
0-A_文字
  6
Continuous
 62
     7
370
     9
100
AcDbLine
 10
16561.09711116848
 20
4643.147744454131
 30
0.0
 11
16502.12789711851
 21
4584.178530404142
 31
0.0
  0
LINE
  5
442
330
1F
100
AcDbEntity
  8
0-A_文字
  6
Continuous
 62
     7
370
     9
100
AcDbLine
 10
16427.65928943846
 20
4523.852058347762
 30
0.0
 11
16408.37548869487
 21
4504.568257604183
 31
0.0
  0
LINE
  5
443
330
1F
100
AcDbEntity
  8
0-A_文字
  6
Continuous
 62
     7
370
     9
100
AcDbLine
 10
16546.95497554479
 20
4643.147744454098
 30
0.0
 11
16487.98576149485
 21
4584.17853040416
 31
0.0
  0
LINE
  5
444
330
1F
100
AcDbEntity
  8
0-A_文字
  6
Continuous
 62
     7
370
     9
100
AcDbLine
 10
16427.65928943843
 20
4537.994193971599
 30
0.0
 11
16398.71959375954
 21
4509.054498292676
 31
0.0
  0
LINE
  5
445
330
1F
100
AcDbEntity
  8
0-A_文字
  6
Continuous
 62
     7
370
     9
100
AcDbLine
 10
16532.812839921
 20
4643.147744454149
 30
0.0
 11
16473.843625871
 21
4584.17853040416
 31
0.0
  0
LINE
  5
446
330
1F
100
AcDbEntity
  8
0-A_文字
  6
Continuous
 62
     7
370
     9
100
AcDbLine
 10
16427.65928943846
 20
4552.136329595271
 30
0.0
 11
16389.06369882431
 21
4513.540738981118
 31
0.0
  0
LINE
  5
447
330
1F
100
AcDbEntity
  8
0-A_文字
  6
Continuous
 62
     7
370
     9
100
AcDbLine
 10
16518.67070429731
 20
4643.147744454114
 30
0.0
 11
16459.70149024732
 21
4584.178530404125
 31
0.0
  0
LINE
  5
448
330
1F
100
AcDbEntity
  8
0-A_文字
  6
Continuous
 62
     7
370
     9
100
AcDbLine
 10
16427.65928943848
 20
4566.278465219125
 30
0.0
 11
16379.40780388895
 21
4518.026979669594
 31
0.0
  0
LINE
  5
449
330
1F
100
AcDbEntity
  8
0-A_文字
  6
Continuous
 62
     7
370
     9
100
AcDbLine
 10
16504.52856867342
 20
4643.147744454063
 30
0.0
 11
16445.55935462347
 21
4584.178530404131
 31
0.0
  0
LINE
  5
44A
330
1F
100
AcDbEntity
  8
0-A_文字
  6
Continuous
 62
     7
370
     9
100
AcDbLine
 10
16427.65928943843
 20
4580.420600842763
 30
0.0
 11
16369.75190895374
 21
4522.513220358047
 31
0.0
  0
LINE
  5
44B
330
1F
100
AcDbEntity
  8
0-A_文字
  6
Continuous
 62
     7
370
     9
100
AcDbLine
 10
16490.38643304983
 20
4643.147744454137
 30
0.0
 11
16431.41721899984
 21
4584.178530404148
 31
0.0
  0
LINE
  5
44C
330
1F
100
AcDbEntity
  8
0-A_文字
  6
Continuous
 62
     7
370
     9
100
AcDbLine
 10
16476.24429742612
 20
4643.147744454101
 30
0.0
 11
16360.09601401851
 21
4526.999461046478
 31
0.0
  0
LINE
  5
44D
330
1F
100
AcDbEntity
  8
0-A_文字
  6
Continuous
 62
     7
370
     9
100
AcDbLine
 10
16462.10216180228
 20
4643.147744454103
 30
0.0
 11
16350.44011908315
 21
4531.485701734971
 31
0.0
  0
LINE
  5
44E
330
1F
100
AcDbEntity
  8
0-A_文字
  6
Continuous
 62
     7
370
     9
100
AcDbLine
 10
16447.96002617864
 20
4643.14774445412
 30
0.0
 11
16340.78422414793
 21
4535.971942423407
 31
0.0
  0
LINE
  5
44F
330
1F
100
AcDbEntity
  8
0-A_文字
  6
Continuous
 62
     7
370
     9
100
AcDbLine
 10
16433.81789055475
 20
4643.147744454069
 30
0.0
 11
16331.12832921257
 21
4540.458183111889
 31
0.0
  0
LINE
  5
450
330
1F
100
AcDbEntity
  8
0-A_文字
  6
Continuous
 62
     7
370
     9
100
AcDbLine
 10
16427.65928943846
 20
4651.13127896144
 30
0.0
 11
16321.47243427736
 21
4544.944423800336
 31
0.0
  0
LINE
  5
451
330
1F
100
AcDbEntity
  8
0-A_文字
  6
Continuous
 62
     7
370
     9
100
AcDbLine
 10
16427.65928943849
 20
4665.273414585133
 30
0.0
 11
16311.81653934212
 21
4549.430664488767
 31
0.0
  0
LINE
  5
452
330
1F
100
AcDbEntity
  8
0-A_文字
  6
Continuous
 62
     7
370
     9
100
AcDbLine
 10
16427.65928943848
 20
4679.415550208961
 30
0.0
 11
16302.16064440678
 21
4553.916905177266
 31
0.0
  0
LINE
  5
453
330
1F
100
AcDbEntity
  8
0-A_文字
  6
Continuous
 62
     7
370
     9
100
AcDbLine
 10
16427.65928943849
 20
4693.557685832633
 30
0.0
 11
16292.50474947156
 21
4558.403145865696
 31
0.0
  0
LINE
  5
454
330
1F
100
AcDbEntity
  8
0-A_文字
  6
Continuous
 62
     7
370
     9
100
AcDbLine
 10
16427.6592894385
 20
4707.699821456486
 30
0.0
 11
16282.84885453619
 21
4562.889386554179
 31
0.0
  0
LINE
  5
455
330
1F
100
AcDbEntity
  8
0-A_文字
  6
Continuous
 62
     7
370
     9
100
AcDbLine
 10
16427.65928943848
 20
4721.841957080119
 30
0.0
 11
16273.19295960098
 21
4567.375627242624
 31
0.0
  0
LINE
  5
456
330
1F
100
AcDbEntity
  8
0-A_文字
  6
Continuous
 62
     7
370
     9
100
AcDbLine
 10
16419.6901252627
 20
4728.014928528006
 30
0.0
 11
16263.53706466576
 21
4571.861867931068
 31
0.0
  0
LINE
  5
457
330
1F
100
AcDbEntity
  8
0-A_文字
  6
Continuous
 62
     7
370
     9
100
AcDbLine
 10
16393.27540404066
 20
4715.742342929798
 30
0.0
 11
16253.88116973041
 21
4576.348108619552
 31
0.0
  0
LINE
  5
458
330
1F
100
AcDbEntity
  8
0-A_文字
  6
Continuous
 62
     7
370
     9
100
AcDbLine
 10
16366.86068281895
 20
4703.469757331754
 30
0.0
 11
16244.22527479517
 21
4580.834349307986
 31
0.0
  0
LINE
  5
459
330
1F
100
AcDbEntity
  8
0-A_文字
  6
Continuous
 62
     7
370
     9
100
AcDbLine
 10
16340.44596159726
 20
4691.197171733734
 30
0.0
 11
16234.56937985996
 21
4585.320589996422
 31
0.0
  0
LINE
  5
45A
330
1F
100
AcDbEntity
  8
0-A_文字
  6
Continuous
 62
     7
370
     9
100
AcDbLine
 10
16314.0312403752
 20
4678.924586135508
 30
0.0
 11
16224.91348492461
 21
4589.806830684915
 31
0.0
  0
LINE
  5
45B
330
1F
100
AcDbEntity
  8
0-A_文字
  6
Continuous
 62
     7
370
     9
100
AcDbLine
 10
16287.61651915345
 20
4666.652000537425
 30
0.0
 11
16215.25758998939
 21
4594.29307137336
 31
0.0
  0
LINE
  5
45C
330
1F
100
AcDbEntity
  8
0-A_文字
  6
Continuous
 62
     7
370
     9
100
AcDbLine
 10
16261.2017979313
 20
4654.379414939121
 30
0.0
 11
16205.60169505403
 21
4598.779312061833
 31
0.0
  0
LINE
  5
45D
330
1F
100
AcDbEntity
  8
0-A_文字
  6
Continuous
 62
     7
370
     9
100
AcDbLine
 10
16234.78707670962
 20
4642.1068293411
 30
0.0
 11
16195.9458001188
 21
4603.265552750276
 31
0.0
  0
LINE
  5
45E
330
1F
100
AcDbEntity
  8
0-A_文字
  6
Continuous
 62
     7
370
     9
100
AcDbLine
 10
16208.37235548794
 20
4629.834243743073
 30
0.0
 11
16186.28990518358
 21
4607.751793438718
 31
0.0
  0
LINE
  5
45F
330
1F
100
AcDbEntity
  8
0-A_文字
  6
Continuous
 62
     7
370
     9
100
AcDbLine
 10
16181.95763426588
 20
4617.561658144854
 30
0.0
 11
16176.63401024823
 21
4612.238034127211
 31
0.0
  0
LINE
  5
460
330
1F
100
AcDbEntity
  8
0-A_文字
  6
Continuous
 62
     7
370
     9
100
AcDbLine
 10
17530.0860415586
 20
4643.147744454149
 30
0.0
 11
17530.0860415586
 21
4715.901209730401
 31
0.0
  0
LINE
  5
461
330
1F
100
AcDbEntity
  8
0-A_文字
  6
Continuous
 62
     7
370
     9
100
AcDbLine
 10
17530.0860415586
 20
4511.425065127889
 30
0.0
 11
17530.0860415586
 21
4584.178530404148
 31
0.0
  0
LINE
  5
462
330
1F
100
AcDbEntity
  8
0-A_文字
  6
Continuous
 62
     7
370
     9
100
AcDbLine
 10
17530.0860415586
 20
4584.178530404148
 30
0.0
 11
16427.65928943846
 21
4584.178530404148
 31
0.0
  0
LINE
  5
463
330
1F
100
AcDbEntity
  8
0-A_文字
  6
Continuous
 62
     7
370
     9
100
AcDbLine
 10
17530.0860415586
 20
4643.147744454149
 30
0.0
 11
16427.65928943846
 21
4643.147744454149
 31
0.0
  0
ARC
  5
464
330
1F
100
AcDbEntity
  8
0-A_文字
  6
Continuous
 62
     7
370
     9
100
AcDbCircle
 10
17589.11322012315
 20
4613.663137429148
 30
0.0
 40
118.0543571291164
100
AcDbArc
 50
239.9999999999999
 51
120.0000000000001
  0
LINE
  5
465
330
1F
100
AcDbEntity
  8
0-A_文字
  6
Continuous
 62
     7
370
     9
100
AcDbLine
 10
16427.65928943846
 20
4731.717494558262
 30
0.0
 11
16173.56670987112
 21
4613.663137429148
 31
0.0
  0
LINE
  5
466
330
1F
100
AcDbEntity
  8
0-A_文字
  6
Continuous
 62
     7
370
     9
100
AcDbLine
 10
16427.65928943846
 20
4643.147744454149
 30
0.0
 11
16427.65928943846
 21
4731.717494558262
 31
0.0
  0
LINE
  5
467
330
1F
100
AcDbEntity
  8
0-A_文字
  6
Continuous
 62
     7
370
     9
100
AcDbLine
 10
16427.65928943846
 20
4495.608780300028
 30
0.0
 11
16173.56670987112
 21
4613.663137429148
 31
0.0
  0
LINE
  5
468
330
1F
100
AcDbEntity
  8
0-A_文字
  6
Continuous
 62
     7
370
     9
100
AcDbLine
 10
16427.65928943846
 20
4584.178530404148
 30
0.0
 11
16427.65928943846
 21
4495.608780300028
 31
0.0
  0
LINE
  5
469
330
1F
100
AcDbEntity
  8
固定棚
  6
Continuous
 62
    92
370
    13
100
AcDbLine
 10
13514.11322012316
 20
6113.663137429148
 30
0.0
 11
10344.11322012315
 21
6113.663137429148
 31
0.0
  0
LINE
  5
46A
330
1F
100
AcDbEntity
  8
固定棚
  6
Continuous
 62
    92
370
    13
100
AcDbLine
 10
10344.11322012315
 20
8363.663137429152
 30
0.0
 11
10344.11322012315
 21
6113.663137429148
 31
0.0
  0
LINE
  5
46B
330
1F
100
AcDbEntity
  8
桟木・巾木
  6
Continuous
 62
     7
370
     9
100
AcDbLine
 10
974.1132201231565
 20
8363.663137429148
 30
0.0
 11
974.1132201231565
 21
8288.663137429148
 31
0.0
  0
LINE
  5
46C
330
1F
100
AcDbEntity
  8
桟木・巾木
  6
Continuous
 62
     7
370
     9
100
AcDbLine
 10
6469.113220123159
 20
8288.663137429148
 30
0.0
 11
974.1132201231565
 21
8288.663137429148
 31
0.0
  0
LINE
  5
46D
330
1F
100
AcDbEntity
  8
桟木・巾木
  6
Continuous
 62
     7
370
     9
100
AcDbLine
 10
6469.113220123159
 20
8363.663137429148
 30
0.0
 11
974.1132201231565
 21
8363.663137429148
 31
0.0
  0
LINE
  5
46E
330
1F
100
AcDbEntity
  8
固定棚
  6
Continuous
 62
    92
370
    13
100
AcDbLine
 10
-11189.61435103881
 20
-680.9902408452075
 30
0.0
 11
-11189.61435103881
 21
2489.009759154803
 31
0.0
  0
LINE
  5
46F
330
1F
100
AcDbEntity
  8
桟木・巾木
  6
Continuous
 62
     7
370
     9
100
AcDbLine
 10
-14509.61435103882
 20
4739.009759154803
 30
0.0
 11
-14509.61435103882
 21
4664.009759154803
 31
0.0
  0
LINE
  5
470
330
1F
100
AcDbEntity
  8
桟木・巾木
  6
Continuous
 62
     7
370
     9
100
AcDbLine
 10
-9014.614351038814
 20
4664.009759154803
 30
0.0
 11
-14509.61435103882
 21
4664.009759154803
 31
0.0
  0
LINE
  5
471
330
1F
100
AcDbEntity
  8
桟木・巾木
  6
Continuous
 62
     7
370
     9
100
AcDbLine
 10
-9014.614351038814
 20
4739.009759154803
 30
0.0
 11
-14509.61435103882
 21
4739.009759154803
 31
0.0
  0
LINE
  5
472
330
1F
100
AcDbEntity
  8
0-A_文字
  6
Continuous
 62
     7
370
     9
100
AcDbLine
 10
15707.40659086295
 20
318.6631374291522
 30
0.0
 11
13982.40659086295
 21
318.6631374291522
 31
0.0
  0
TEXT
  5
473
330
1F
100
AcDbEntity
  8
0-A_文字
  6
Continuous
 62
     7
370
     9
100
AcDbText
 10
13982.40659086295
 20
360.9631374291523
 30
0.0
 40
228.6
  1
ﾊﾟｲﾌﾟﾊﾝｶﾞｰ
 41
1.15
  7
ＭＳ ゴシック
100
AcDbText
  0
LINE
  5
474
330
1F
100
AcDbEntity
  8
0-A_文字
  6
Continuous
 62
     7
370
     9
100
AcDbLine
 10
13652.61236172196
 20
889.8834983443493
 30
0.0
 11
13982.40659086295
 21
318.6631374291522
 31
0.0
  0
LINE
  5
475
330
1F
100
AcDbEntity
  8
0-A_文字
  6
Continuous
 62
     7
370
     9
100
AcDbLine
 10
15707.40659086295
 20
-5121.336862570848
 30
0.0
 11
13982.40659086295
 21
-5121.336862570848
 31
0.0
  0
TEXT
  5
476
330
1F
100
AcDbEntity
  8
0-A_文字
  6
Continuous
 62
     7
370
     9
100
AcDbText
 10
13982.40659086295
 20
-5079.036862570848
 30
0.0
 40
228.6
  1
ﾊﾟｲﾌﾟﾊﾝｶﾞｰ
 41
1.15
  7
ＭＳ ゴシック
100
AcDbText
  0
LINE
  5
477
330
1F
100
AcDbEntity
  8
0-A_文字
  6
Continuous
 62
     7
370
     9
100
AcDbLine
 10
13652.61236172196
 20
-4550.116501655652
 30
0.0
 11
13982.40659086295
 21
-5121.336862570848
 31
0.0
  0
TEXT
  5
478
330
1F
100
AcDbEntity
  8
F-A_文字
  6
Continuous
 62
     7
370
     0
100
AcDbText
 10
-17076.82127714869
 20
-13729.56483399126
 30
0.0
 40
228.6
  1
収納内部パーツ　e・ra・bo　モデルプランＷＬ－１０１（奥行き450）
 41
1.161458333333333
  7
ＭＳ ゴシック
100
AcDbText
  0
LINE
  5
479
330
1F
100
AcDbEntity
  8
パイプハンガー
  6
JWW_DASHED1
 62
   120
370
     5
100
AcDbLine
 10
-3025.886779876842
 20
7001.105292879149
 30
0.0
 11
869.1132201231583
 21
7001.105292879149
 31
0.0
  0
LINE
  5
47A
330
1F
100
AcDbEntity
  8
パイプハンガー
  6
JWW_DASHED1
 62
   120
370
     5
100
AcDbLine
 10
-3025.886779876842
 20
6926.220981979148
 30
0.0
 11
869.1132201231583
 21
6926.220981979148
 31
0.0
  0
LINE
  5
47B
330
1F
100
AcDbEntity
  8
パイプハンガー
  6
JWW_DASHED1
 62
   120
370
     5
100
AcDbLine
 10
974.1132201231565
 20
7001.105292879149
 30
0.0
 11
6469.113220123159
 21
7001.105292879149
 31
0.0
  0
LINE
  5
47C
330
1F
100
AcDbEntity
  8
パイプハンガー
  6
JWW_DASHED1
 62
   120
370
     5
100
AcDbLine
 10
974.1132201231565
 20
6926.220981979148
 30
0.0
 11
6469.113220123159
 21
6926.220981979148
 31
0.0
  0
LINE
  5
47D
330
1F
100
AcDbEntity
  8
パイプハンガー
  6
JWW_DASHED1
 62
   120
370
     5
100
AcDbLine
 10
13619.11322012316
 20
7001.105292879151
 30
0.0
 11
15914.11322012316
 21
7001.105292879151
 31
0.0
  0
LINE
  5
47E
330
1F
100
AcDbEntity
  8
パイプハンガー
  6
JWW_DASHED1
 62
   120
370
     5
100
AcDbLine
 10
13619.11322012316
 20
6926.220981979151
 30
0.0
 11
15914.11322012316
 21
6926.220981979151
 31
0.0
  0
LINE
  5
47F
330
1F
100
AcDbEntity
  8
パイプハンガー
  6
JWW_DASHED1
 62
   120
370
     5
100
AcDbLine
 10
-18509.61435103881
 20
3376.451914604803
 30
0.0
 11
-14614.61435103881
 21
3376.451914604803
 31
0.0
  0
LINE
  5
480
330
1F
100
AcDbEntity
  8
パイプハンガー
  6
JWW_DASHED1
 62
   120
370
     5
100
AcDbLine
 10
-18509.61435103881
 20
3301.567603704802
 30
0.0
 11
-14614.61435103881
 21
3301.567603704802
 31
0.0
  0
LINE
  5
481
330
1F
100
AcDbEntity
  8
パイプハンガー
  6
JWW_DASHED1
 62
   120
370
     5
100
AcDbLine
 10
-14509.61435103882
 20
3376.451914604803
 30
0.0
 11
-9014.614351038814
 21
3376.451914604803
 31
0.0
  0
LINE
  5
482
330
1F
100
AcDbEntity
  8
パイプハンガー
  6
JWW_DASHED1
 62
   120
370
     5
100
AcDbLine
 10
-14509.61435103882
 20
3301.567603704802
 30
0.0
 11
-9014.614351038814
 21
3301.567603704802
 31
0.0
  0
LINE
  5
483
330
1F
100
AcDbEntity
  8
パイプハンガー
  6
JWW_DASHED1
 62
   120
370
     5
100
AcDbLine
 10
-10377.05650648881
 20
-785.9902408452027
 30
0.0
 11
-10377.05650648881
 21
-3080.990240845208
 31
0.0
  0
LINE
  5
484
330
1F
100
AcDbEntity
  8
パイプハンガー
  6
JWW_DASHED1
 62
   120
370
     5
100
AcDbLine
 10
-10302.17219558881
 20
-785.9902408452027
 30
0.0
 11
-10302.17219558881
 21
-3080.990240845208
 31
0.0
  0
LINE
  5
485
330
1F
100
AcDbEntity
  8
パイプハンガー
  6
Continuous
 62
     7
370
     9
100
AcDbLine
 10
13694.11322012315
 20
968.6631374291522
 30
0.0
 11
13694.11322012315
 21
818.6631374291522
 31
0.0
  0
LINE
  5
486
330
1F
100
AcDbEntity
  8
パイプハンガー
  6
Continuous
 62
     7
370
     9
100
AcDbLine
 10
13694.11322012315
 20
-4471.336862570848
 30
0.0
 11
13694.11322012315
 21
-4621.336862570848
 31
0.0
  0
TEXT
  5
487
330
1F
100
AcDbEntity
  8
0-A_文字
  6
Continuous
 62
     7
370
     9
100
AcDbText
 10
5774.112548185734
 20
1599.635660101006
 30
0.0
 40
228.6
  1
桟木
 41
1.083333333333334
  7
ＭＳ ゴシック
100
AcDbText
  0
LINE
  5
488
330
1F
100
AcDbEntity
  8
0-A_文字
  6
Continuous
 62
     7
370
     9
100
AcDbLine
 10
6424.112548185735
 20
1557.335660101006
 30
0.0
 11
5751.191369843096
 21
1557.335660101006
 31
0.0
  0
LINE
  5
489
330
1F
100
AcDbEntity
  8
0-A_文字
  6
Continuous
 62
     7
370
     9
100
AcDbLine
 10
5477.053430728459
 20
1082.514821272227
 30
0.0
 11
5751.191369843096
 21
1557.335660101006
 31
0.0
  0
LINE
  5
48A
330
1F
100
AcDbEntity
  8
0-A_文字
  6
Continuous
 62
     7
370
     9
100
AcDbLine
 10
17431.44633673874
 20
1557.335661439563
 30
0.0
 11
16758.52515839611
 21
1557.335661439563
 31
0.0
  0
TEXT
  5
48B
330
1F
100
AcDbEntity
  8
0-A_文字
  6
Continuous
 62
     7
370
     9
100
AcDbText
 10
16781.44633673874
 20
1599.635661439563
 30
0.0
 40
228.6
  1
桟木
 41
1.083333333333333
  7
ＭＳ ゴシック
100
AcDbText
  0
LINE
  5
48C
330
1F
100
AcDbEntity
  8
0-A_文字
  6
Continuous
 62
     7
370
     9
100
AcDbLine
 10
16484.38721928147
 20
1082.514822610787
 30
0.0
 11
16758.52515839611
 21
1557.335661439563
 31
0.0
  0
ENDSEC
  0
SECTION
  2
OBJECTS
  0
DICTIONARY
  5
C
330
0
100
AcDbDictionary
281
     1
  3
ACAD_DETAILVIEWSTYLE
350
4C4
  3
ACAD_GROUP
350
D
  3
ACAD_LAYOUT
350
1A
  3
ACAD_MATERIAL
350
43
  3
ACAD_MLEADERSTYLE
350
6B
  3
ACAD_MLINESTYLE
350
17
  3
ACAD_PLOTSETTINGS
350
19
  3
ACAD_PLOTSTYLENAME
350
E
  3
ACAD_SCALELIST
350
47
  3
ACAD_SECTIONVIEWSTYLE
350
4C5
  3
ACAD_TABLESTYLE
350
69
  3
ACAD_VISUALSTYLE
350
2A
  3
ACDB_RECOMPOSE_DATA
350
4C1
  3
AcDbVariableDictionary
350
48D
  0
SUN
  5
6D
330
29
100
AcDbSun
 90
        1
290
     0
 63
     7
421
 16777215
 40
1.0
291
     1
 91
  2455826
 92
 54000000
292
     0
 70
     2
 71
   256
280
     1
  0
DICTIONARY
  5
4C4
102
{ACAD_REACTORS
330
C
102
}
330
C
100
AcDbDictionary
281
     1
  0
DICTIONARY
  5
D
102
{ACAD_REACTORS
330
C
102
}
330
C
100
AcDbDictionary
281
     1
  0
DICTIONARY
  5
1A
102
{ACAD_REACTORS
330
C
102
}
330
C
100
AcDbDictionary
281
     1
  3
Layout1
350
1E
  3
Layout2
350
26
  3
Model
350
22
  0
DICTIONARY
  5
43
102
{ACAD_REACTORS
330
C
102
}
330
C
100
AcDbDictionary
281
     1
  3
ByBlock
350
45
  3
ByLayer
350
44
  3
Global
350
46
  0
DICTIONARY
  5
6B
102
{ACAD_REACTORS
330
C
102
}
330
C
100
AcDbDictionary
281
     1
  3
Standard
350
6C
  0
DICTIONARY
  5
17
102
{ACAD_REACTORS
330
C
102
}
330
C
100
AcDbDictionary
281
     1
  3
Standard
350
18
  0
DICTIONARY
  5
19
102
{ACAD_REACTORS
330
C
102
}
330
C
100
AcDbDictionary
281
     1
  0
ACDBDICTIONARYWDFLT
  5
E
102
{ACAD_REACTORS
330
C
102
}
330
C
100
AcDbDictionary
281
     1
  3
Normal
350
F
100
AcDbDictionaryWithDefault
340
F
  0
DICTIONARY
  5
47
102
{ACAD_REACTORS
330
C
102
}
330
C
100
AcDbDictionary
281
     1
  3
A0
350
48
  3
A1
350
49
  3
A2
350
4A
  3
A3
350
4B
  3
A4
350
4C
  3
A5
350
4D
  3
A6
350
4E
  3
A7
350
4F
  3
A8
350
50
  3
A9
350
51
  3
B0
350
52
  3
B1
350
53
  3
B2
350
54
  3
B3
350
55
  3
B4
350
56
  3
B5
350
57
  3
B6
350
58
  3
B7
350
59
  3
B8
350
5A
  3
B9
350
5B
  3
C0
350
5C
  3
C1
350
5D
  3
C2
350
5E
  3
C3
350
5F
  3
C4
350
60
  3
C5
350
61
  3
C6
350
62
  3
C7
350
63
  3
C8
350
64
  3
C9
350
65
  3
D0
350
66
  3
D1
350
67
  3
D2
350
68
  0
DICTIONARY
  5
4C5
102
{ACAD_REACTORS
330
C
102
}
330
C
100
AcDbDictionary
281
     1
  0
DICTIONARY
  5
69
102
{ACAD_REACTORS
330
C
102
}
330
C
100
AcDbDictionary
281
     1
  3
Standard
350
6A
  0
DICTIONARY
  5
2A
102
{ACAD_REACTORS
330
C
102
}
330
C
100
AcDbDictionary
281
     1
  3
2dWireframe
350
2F
  3
Basic
350
32
  3
Brighten
350
36
  3
ColorChange
350
3A
  3
Conceptual
350
34
  3
Dim
350
35
  3
EdgeColorOff
350
3D
  3
Facepattern
350
39
  3
Flat
350
2B
  3
FlatWithEdges
350
2C
  3
Gouraud
350
2D
  3
GouraudWithEdges
350
2E
  3
Hidden
350
31
  3
JitterOff
350
3B
  3
Linepattern
350
38
  3
OverhangOff
350
3C
  3
Realistic
350
33
  3
Shaded
350
42
  3
Shaded with edges
350
41
  3
Shades of Gray
350
3E
  3
Sketchy
350
3F
  3
Thicken
350
37
  3
Wireframe
350
30
  3
X-Ray
350
40
  0
XRECORD
  5
4C1
102
{ACAD_REACTORS
330
C
102
}
330
C
100
AcDbXrecord
280
     1
 90
        1
330
6A
  0
DICTIONARY
  5
48D
102
{ACAD_REACTORS
330
C
102
}
330
C
100
AcDbDictionary
281
     1
  3
CANNOSCALE
350
48E
  3
CENTEREXE
350
4C6
  3
CENTERLTYPEFILE
350
4C7
  3
CMLEADERSTYLE
350
4C3
  3
CTABLESTYLE
350
4C2
  0
LAYOUT
  5
1E
102
{ACAD_REACTORS
330
1A
102
}
330
1A
100
AcDbPlotSettings
  1

  2
none_device
  4

  6

 40
0.0
 41
0.0
 42
0.0
 43
0.0
 44
0.0
 45
0.0
 46
0.0
 47
0.0
 48
0.0
 49
0.0
140
0.0
141
0.0
142
1.0
143
1.0
 70
   688
 72
     1
 73
     0
 74
     5
  7

 75
    16
 76
     0
 77
     5
 78
   300
147
1.0
148
0.0
149
0.0
100
AcDbLayout
  1
Layout1
 70
     1
 71
     1
 10
0.0
 20
0.0
 11
420.0
 21
297.0
 12
0.0
 22
0.0
 32
0.0
 14
1.000000000000000E+20
 24
1.000000000000000E+20
 34
1.000000000000000E+20
 15
-1.000000000000000E+20
 25
-1.000000000000000E+20
 35
-1.000000000000000E+20
146
0.0
 13
0.0
 23
0.0
 33
0.0
 16
1.0
 26
0.0
 36
0.0
 17
0.0
 27
1.0
 37
0.0
 76
     0
330
1B
  0
LAYOUT
  5
26
102
{ACAD_REACTORS
330
1A
102
}
330
1A
100
AcDbPlotSettings
  1

  2
none_device
  4

  6

 40
0.0
 41
0.0
 42
0.0
 43
0.0
 44
0.0
 45
0.0
 46
0.0
 47
0.0
 48
0.0
 49
0.0
140
0.0
141
0.0
142
1.0
143
1.0
 70
   688
 72
     1
 73
     0
 74
     5
  7

 75
    16
 76
     0
 77
     5
 78
   300
147
1.0
148
0.0
149
0.0
100
AcDbLayout
  1
Layout2
 70
     1
 71
     2
 10
0.0
 20
0.0
 11
0.0
 21
0.0
 12
0.0
 22
0.0
 32
0.0
 14
0.0
 24
0.0
 34
0.0
 15
0.0
 25
0.0
 35
0.0
146
0.0
 13
0.0
 23
0.0
 33
0.0
 16
1.0
 26
0.0
 36
0.0
 17
0.0
 27
1.0
 37
0.0
 76
     0
330
23
  0
LAYOUT
  5
22
102
{ACAD_REACTORS
330
1A
102
}
330
1A
100
AcDbPlotSettings
  1

  2
none_device
  4
Letter_(8.50_x_11.00_Inches)
  6

 40
6.35
 41
6.35
 42
6.35000508
 43
6.35000508
 44
215.9
 45
279.4
 46
0.0
 47
0.0
 48
0.0
 49
0.0
140
0.0
141
0.0
142
1.0
143
1.0
 70
  1712
 72
     1
 73
     0
 74
     0
  7

 75
     0
 76
     0
 77
     5
 78
   300
147
1.0
148
0.0
149
0.0
100
AcDbLayout
  1
Model
 70
     1
 71
     0
 10
-21000.0
 20
-14850.0
 11
21000.0
 21
14850.0
 12
0.0
 22
0.0
 32
0.0
 14
-21000.0
 24
-14850.0
 34
0.0
 15
21000.0
 25
14850.0
 35
0.0
146
0.0
 13
0.0
 23
0.0
 33
0.0
 16
1.0
 26
0.0
 36
0.0
 17
0.0
 27
1.0
 37
0.0
 76
     0
330
1F
331
29
  0
MATERIAL
  5
45
102
{ACAD_REACTORS
330
43
102
}
330
43
100
AcDbMaterial
  1
ByBlock
 72
     1
 94
      127
  0
MATERIAL
  5
44
102
{ACAD_REACTORS
330
43
102
}
330
43
100
AcDbMaterial
  1
ByLayer
 72
     1
 94
      127
  0
MATERIAL
  5
46
102
{ACAD_REACTORS
330
43
102
}
330
43
100
AcDbMaterial
  1
Global
 72
     1
 94
      127
  0
MLEADERSTYLE
  5
6C
102
{ACAD_REACTORS
330
6B
102
}
330
6B
100
AcDbMLeaderStyle
179
     2
170
     2
171
     1
172
     0
 90
        2
 40
0.0
 41
0.0
173
     1
 91
-1056964608
340
14
 92
       -2
290
     1
 42
2.0
291
     1
 43
8.0
  3
Standard
341
0
 44
4.0
300

342
11
174
     1
178
     6
175
     1
176
     0
 93
-1056964608
 45
4.0
292
     0
297
     0
 46
4.0
343
0
 94
-1056964608
 47
1.0
 49
1.0
140
1.0
293
     1
141
0.0
294
     1
177
     0
142
1.0
295
     0
296
     0
143
3.75
271
     0
272
     9
273
     9
  0
MLINESTYLE
  5
18
102
{ACAD_REACTORS
330
17
102
}
330
17
100
AcDbMlineStyle
  2
Standard
 70
     0
  3

 62
   256
 51
90.0
 52
90.0
 71
     2
 49
0.5
 62
   256
  6
BYLAYER
 49
-0.5
 62
   256
  6
BYLAYER
  0
ACDBPLACEHOLDER
  5
F
102
{ACAD_REACTORS
330
E
102
}
330
E
  0
SCALE
  5
48
102
{ACAD_REACTORS
330
47
102
}
330
47
100
AcDbScale
 70
     0
300
1:1
140
1.0
141
1.0
290
     1
  0
SCALE
  5
49
102
{ACAD_REACTORS
330
47
102
}
330
47
100
AcDbScale
 70
     0
300
1:2
140
1.0
141
2.0
290
     0
  0
SCALE
  5
4A
102
{ACAD_REACTORS
330
47
102
}
330
47
100
AcDbScale
 70
     0
300
1:4
140
1.0
141
4.0
290
     0
  0
SCALE
  5
4B
102
{ACAD_REACTORS
330
47
102
}
330
47
100
AcDbScale
 70
     0
300
1:5
140
1.0
141
5.0
290
     0
  0
SCALE
  5
4C
102
{ACAD_REACTORS
330
47
102
}
330
47
100
AcDbScale
 70
     0
300
1:8
140
1.0
141
8.0
290
     0
  0
SCALE
  5
4D
102
{ACAD_REACTORS
330
47
102
}
330
47
100
AcDbScale
 70
     0
300
1:10
140
1.0
141
10.0
290
     0
  0
SCALE
  5
4E
102
{ACAD_REACTORS
330
47
102
}
330
47
100
AcDbScale
 70
     0
300
1:16
140
1.0
141
16.0
290
     0
  0
SCALE
  5
4F
102
{ACAD_REACTORS
330
47
102
}
330
47
100
AcDbScale
 70
     0
300
1:20
140
1.0
141
20.0
290
     0
  0
SCALE
  5
50
102
{ACAD_REACTORS
330
47
102
}
330
47
100
AcDbScale
 70
     0
300
1:30
140
1.0
141
30.0
290
     0
  0
SCALE
  5
51
102
{ACAD_REACTORS
330
47
102
}
330
47
100
AcDbScale
 70
     0
300
1:40
140
1.0
141
40.0
290
     0
  0
SCALE
  5
52
102
{ACAD_REACTORS
330
47
102
}
330
47
100
AcDbScale
 70
     0
300
1:50
140
1.0
141
50.0
290
     0
  0
SCALE
  5
53
102
{ACAD_REACTORS
330
47
102
}
330
47
100
AcDbScale
 70
     0
300
1:100
140
1.0
141
100.0
290
     0
  0
SCALE
  5
54
102
{ACAD_REACTORS
330
47
102
}
330
47
100
AcDbScale
 70
     0
300
2:1
140
2.0
141
1.0
290
     0
  0
SCALE
  5
55
102
{ACAD_REACTORS
330
47
102
}
330
47
100
AcDbScale
 70
     0
300
4:1
140
4.0
141
1.0
290
     0
  0
SCALE
  5
56
102
{ACAD_REACTORS
330
47
102
}
330
47
100
AcDbScale
 70
     0
300
8:1
140
8.0
141
1.0
290
     0
  0
SCALE
  5
57
102
{ACAD_REACTORS
330
47
102
}
330
47
100
AcDbScale
 70
     0
300
10:1
140
10.0
141
1.0
290
     0
  0
SCALE
  5
58
102
{ACAD_REACTORS
330
47
102
}
330
47
100
AcDbScale
 70
     0
300
100:1
140
100.0
141
1.0
290
     0
  0
SCALE
  5
59
102
{ACAD_REACTORS
330
47
102
}
330
47
100
AcDbScale
 70
     0
300
1/128" = 1'-0"
140
0.0078125
141
12.0
290
     0
  0
SCALE
  5
5A
102
{ACAD_REACTORS
330
47
102
}
330
47
100
AcDbScale
 70
     0
300
1/64" = 1'-0"
140
0.015625
141
12.0
290
     0
  0
SCALE
  5
5B
102
{ACAD_REACTORS
330
47
102
}
330
47
100
AcDbScale
 70
     0
300
1/32" = 1'-0"
140
0.03125
141
12.0
290
     0
  0
SCALE
  5
5C
102
{ACAD_REACTORS
330
47
102
}
330
47
100
AcDbScale
 70
     0
300
1/16" = 1'-0"
140
0.0625
141
12.0
290
     0
  0
SCALE
  5
5D
102
{ACAD_REACTORS
330
47
102
}
330
47
100
AcDbScale
 70
     0
300
3/32" = 1'-0"
140
0.09375
141
12.0
290
     0
  0
SCALE
  5
5E
102
{ACAD_REACTORS
330
47
102
}
330
47
100
AcDbScale
 70
     0
300
1/8" = 1'-0"
140
0.125
141
12.0
290
     0
  0
SCALE
  5
5F
102
{ACAD_REACTORS
330
47
102
}
330
47
100
AcDbScale
 70
     0
300
3/16" = 1'-0"
140
0.1875
141
12.0
290
     0
  0
SCALE
  5
60
102
{ACAD_REACTORS
330
47
102
}
330
47
100
AcDbScale
 70
     0
300
1/4" = 1'-0"
140
0.25
141
12.0
290
     0
  0
SCALE
  5
61
102
{ACAD_REACTORS
330
47
102
}
330
47
100
AcDbScale
 70
     0
300
3/8" = 1'-0"
140
0.375
141
12.0
290
     0
  0
SCALE
  5
62
102
{ACAD_REACTORS
330
47
102
}
330
47
100
AcDbScale
 70
     0
300
1/2" = 1'-0"
140
0.5
141
12.0
290
     0
  0
SCALE
  5
63
102
{ACAD_REACTORS
330
47
102
}
330
47
100
AcDbScale
 70
     0
300
3/4" = 1'-0"
140
0.75
141
12.0
290
     0
  0
SCALE
  5
64
102
{ACAD_REACTORS
330
47
102
}
330
47
100
AcDbScale
 70
     0
300
1" = 1'-0"
140
1.0
141
12.0
290
     0
  0
SCALE
  5
65
102
{ACAD_REACTORS
330
47
102
}
330
47
100
AcDbScale
 70
     0
300
1-1/2" = 1'-0"
140
1.5
141
12.0
290
     0
  0
SCALE
  5
66
102
{ACAD_REACTORS
330
47
102
}
330
47
100
AcDbScale
 70
     0
300
3" = 1'-0"
140
3.0
141
12.0
290
     0
  0
SCALE
  5
67
102
{ACAD_REACTORS
330
47
102
}
330
47
100
AcDbScale
 70
     0
300
6" = 1'-0"
140
6.0
141
12.0
290
     0
  0
SCALE
  5
68
102
{ACAD_REACTORS
330
47
102
}
330
47
100
AcDbScale
 70
     0
300
1'-0" = 1'-0"
140
12.0
141
12.0
290
     0
  0
TABLESTYLE
  5
6A
102
{ACAD_REACTORS
330
69
102
}
102
{ACAD_XDICTIONARY
360
4BF
102
}
330
69
100
AcDbTableStyle
  3
Standard
 70
     0
 71
     0
 40
0.06
 41
0.06
280
     0
281
     0
  7
Standard
140
4.5
170
     2
 62
     0
 63
   257
283
     0
 90
        4
 91
        0
  1

274
    -2
284
     1
 64
     0
275
    -2
285
     1
 65
     0
276
    -2
286
     1
 66
     0
277
    -2
287
     1
 67
     0
278
    -2
288
     1
 68
     0
279
    -2
289
     1
 69
     0
  7
Standard
140
6.0
170
     5
 62
     0
 63
   257
283
     0
 90
        4
 91
        0
  1

274
    -2
284
     1
 64
     0
275
    -2
285
     1
 65
     0
276
    -2
286
     1
 66
     0
277
    -2
287
     1
 67
     0
278
    -2
288
     1
 68
     0
279
    -2
289
     1
 69
     0
  7
Standard
140
4.5
170
     5
 62
     0
 63
   257
283
     0
 90
        4
 91
        0
  1

274
    -2
284
     1
 64
     0
275
    -2
285
     1
 65
     0
276
    -2
286
     1
 66
     0
277
    -2
287
     1
 67
     0
278
    -2
288
     1
 68
     0
279
    -2
289
     1
 69
     0
  0
VISUALSTYLE
  5
2F
102
{ACAD_REACTORS
330
2A
102
}
102
{ACAD_XDICTIONARY
360
497
102
}
330
2A
100
AcDbVisualStyle
  2
2dWireframe
 70
     4
177
     2
291
     0
 71
     0
176
     1
 72
     2
176
     1
 73
     0
176
     1
 90
        0
176
     1
 40
0.6
176
     1
 41
30.0
176
     1
 62
     5
 63
     7
421
 16777215
176
     1
 74
     1
176
     1
 91
        4
176
     1
 64
     7
176
     1
 65
   257
176
     1
 75
     1
176
     1
175
     1
176
     1
 42
1.0
176
     1
 92
        0
176
     1
 66
   257
176
     1
 43
1.0
176
     1
 76
     1
176
     1
 77
     6
176
     1
 78
     2
176
     1
 67
     7
176
     1
 79
     5
176
     1
170
     0
176
     1
171
     0
176
     1
290
     0
176
     1
 93
        1
176
     1
 44
0.0
176
     1
173
     0
176
     1
  0
VISUALSTYLE
  5
32
102
{ACAD_REACTORS
330
2A
102
}
102
{ACAD_XDICTIONARY
360
49D
102
}
330
2A
100
AcDbVisualStyle
  2
Basic
 70
     7
177
     2
291
     1
 71
     1
176
     1
 72
     0
176
     1
 73
     1
176
     1
 90
        0
176
     1
 40
0.6
176
     1
 41
30.0
176
     1
 62
     5
 63
     7
421
 16777215
176
     1
 74
     0
176
     1
 91
        4
176
     1
 64
     7
176
     1
 65
   257
176
     1
 75
     1
176
     1
175
     1
176
     1
 42
1.0
176
     1
 92
        8
176
     1
 66
     7
176
     1
 43
1.0
176
     1
 76
     1
176
     1
 77
     6
176
     1
 78
     2
176
     1
 67
     7
176
     1
 79
     5
176
     1
170
     0
176
     1
171
     0
176
     1
290
     0
176
     1
 93
        1
176
     1
 44
0.0
176
     1
173
     0
176
     1
  0
VISUALSTYLE
  5
36
102
{ACAD_REACTORS
330
2A
102
}
102
{ACAD_XDICTIONARY
360
4A5
102
}
330
2A
100
AcDbVisualStyle
  2
Brighten
 70
    12
177
     2
291
     1
 71
     2
176
     1
 72
     2
176
     1
 73
     0
176
     1
 90
        0
176
     1
 40
0.6
176
     1
 41
30.0
176
     1
 62
     5
 63
     7
421
 16777215
176
     1
 74
     1
176
     1
 91
        4
176
     1
 64
     7
176
     1
 65
   257
176
     1
 75
     1
176
     1
175
     1
176
     1
 42
1.0
176
     1
 92
        8
176
     1
 66
     7
176
     1
 43
1.0
176
     1
 76
     1
176
     1
 77
     6
176
     1
 78
     2
176
     1
 67
     7
176
     1
 79
     5
176
     1
170
     0
176
     1
171
     0
176
     1
290
     0
176
     1
 93
        1
176
     1
 44
50.0
176
     1
173
     0
176
     1
  0
VISUALSTYLE
  5
3A
102
{ACAD_REACTORS
330
2A
102
}
102
{ACAD_XDICTIONARY
360
4AD
102
}
330
2A
100
AcDbVisualStyle
  2
ColorChange
 70
    16
177
     2
291
     1
 71
     2
176
     1
 72
     2
176
     1
 73
     3
176
     1
 90
        0
176
     1
 40
0.6
176
     1
 41
30.0
176
     1
 62
     5
 63
     8
421
  8421504
176
     1
 74
     1
176
     1
 91
        4
176
     1
 64
     7
176
     1
 65
   257
176
     1
 75
     1
176
     1
175
     1
176
     1
 42
1.0
176
     1
 92
        8
176
     1
 66
     8
424
  8421504
176
     1
 43
1.0
176
     1
 76
     1
176
     1
 77
     6
176
     1
 78
     2
176
     1
 67
     7
176
     1
 79
     5
176
     1
170
     0
176
     1
171
     0
176
     1
290
     0
176
     1
 93
        1
176
     1
 44
0.0
176
     1
173
     0
176
     1
  0
VISUALSTYLE
  5
34
102
{ACAD_REACTORS
330
2A
102
}
102
{ACAD_XDICTIONARY
360
4A1
102
}
330
2A
100
AcDbVisualStyle
  2
Conceptual
 70
     9
177
     2
291
     0
 71
     3
176
     1
 72
     2
176
     1
 73
     0
176
     1
 90
        0
176
     1
 40
0.6
176
     1
 41
30.0
176
     1
 62
     5
 63
     7
421
 16777215
176
     1
 74
     2
176
     1
 91
        2
176
     1
 64
     7
176
     1
 65
   257
176
     1
 75
     1
176
     1
175
     1
176
     1
 42
179.0
176
     1
 92
        8
176
     1
 66
     7
176
     1
 43
1.0
176
     1
 76
     1
176
     1
 77
     6
176
     1
 78
     2
176
     1
 67
     7
176
     1
 79
     3
176
     1
170
     0
176
     1
171
     0
176
     1
290
     0
176
     1
 93
        1
176
     1
 44
0.0
176
     1
173
     0
176
     1
  0
VISUALSTYLE
  5
35
102
{ACAD_REACTORS
330
2A
102
}
102
{ACAD_XDICTIONARY
360
4A3
102
}
330
2A
100
AcDbVisualStyle
  2
Dim
 70
    11
177
     2
291
     1
 71
     2
176
     1
 72
     2
176
     1
 73
     0
176
     1
 90
        0
176
     1
 40
0.6
176
     1
 41
30.0
176
     1
 62
     5
 63
     7
421
 16777215
176
     1
 74
     1
176
     1
 91
        4
176
     1
 64
     7
176
     1
 65
   257
176
     1
 75
     1
176
     1
175
     1
176
     1
 42
1.0
176
     1
 92
        8
176
     1
 66
     7
176
     1
 43
1.0
176
     1
 76
     1
176
     1
 77
     6
176
     1
 78
     2
176
     1
 67
     7
176
     1
 79
     5
176
     1
170
     0
176
     1
171
     0
176
     1
290
     0
176
     1
 93
        1
176
     1
 44
-50.0
176
     1
173
     0
176
     1
  0
VISUALSTYLE
  5
3D
102
{ACAD_REACTORS
330
2A
102
}
102
{ACAD_XDICTIONARY
360
4B3
102
}
330
2A
100
AcDbVisualStyle
  2
EdgeColorOff
 70
    22
177
     2
291
     1
 71
     2
176
     0
 72
     2
176
     0
 73
     0
176
     0
 90
        0
176
     0
 40
0.6
176
     0
 41
30.0
176
     0
 62
     5
 63
     7
421
 16777215
176
     0
 74
     1
176
     0
 91
        4
176
     0
 64
     7
176
     0
 65
   257
176
     0
 75
     1
176
     0
175
     1
176
     0
 42
1.0
176
     0
 92
        8
176
     2
 66
     7
176
     0
 43
1.0
176
     0
 76
     1
176
     0
 77
     6
176
     0
 78
     2
176
     0
 67
     7
176
     0
 79
     5
176
     0
170
     0
176
     0
171
     0
176
     0
290
     0
176
     0
 93
        1
176
     0
 44
0.0
176
     0
173
     0
176
     0
  0
VISUALSTYLE
  5
39
102
{ACAD_REACTORS
330
2A
102
}
102
{ACAD_XDICTIONARY
360
4AB
102
}
330
2A
100
AcDbVisualStyle
  2
Facepattern
 70
    15
177
     2
291
     1
 71
     2
176
     1
 72
     2
176
     1
 73
     0
176
     1
 90
        0
176
     1
 40
0.6
176
     1
 41
30.0
176
     1
 62
     5
 63
     7
421
 16777215
176
     1
 74
     1
176
     1
 91
        4
176
     1
 64
     7
176
     1
 65
   257
176
     1
 75
     1
176
     1
175
     1
176
     1
 42
1.0
176
     1
 92
        8
176
     1
 66
     7
176
     1
 43
1.0
176
     1
 76
     1
176
     1
 77
     6
176
     1
 78
     2
176
     1
 67
     7
176
     1
 79
     5
176
     1
170
     0
176
     1
171
     0
176
     1
290
     0
176
     1
 93
        1
176
     1
 44
0.0
176
     1
173
     0
176
     1
  0
VISUALSTYLE
  5
2B
102
{ACAD_REACTORS
330
2A
102
}
102
{ACAD_XDICTIONARY
360
48F
102
}
330
2A
100
AcDbVisualStyle
  2
Flat
 70
     0
177
     2
291
     1
 71
     2
176
     1
 72
     1
176
     1
 73
     1
176
     1
 90
        2
176
     1
 40
0.6
176
     1
 41
30.0
176
     1
 62
     5
 63
     7
421
 16777215
176
     1
 74
     0
176
     1
 91
        0
176
     1
 64
     7
176
     1
 65
   257
176
     1
 75
     1
176
     1
175
     1
176
     1
 42
1.0
176
     1
 92
        8
176
     1
 66
     7
176
     1
 43
1.0
176
     1
 76
     1
176
     1
 77
     6
176
     1
 78
     2
176
     1
 67
     7
176
     1
 79
     5
176
     1
170
     0
176
     1
171
     0
176
     1
290
     0
176
     1
 93
       13
176
     1
 44
0.0
176
     1
173
     0
176
     1
  0
VISUALSTYLE
  5
2C
102
{ACAD_REACTORS
330
2A
102
}
102
{ACAD_XDICTIONARY
360
491
102
}
330
2A
100
AcDbVisualStyle
  2
FlatWithEdges
 70
     1
177
     2
291
     1
 71
     2
176
     1
 72
     1
176
     1
 73
     1
176
     1
 90
        2
176
     1
 40
0.6
176
     1
 41
30.0
176
     1
 62
     5
 63
     7
421
 16777215
176
     1
 74
     1
176
     1
 91
        0
176
     1
 64
     7
176
     1
 65
   257
176
     1
 75
     1
176
     1
175
     1
176
     1
 42
1.0
176
     1
 92
        0
176
     1
 66
   257
176
     1
 43
1.0
176
     1
 76
     1
176
     1
 77
     6
176
     1
 78
     2
176
     1
 67
     7
176
     1
 79
     5
176
     1
170
     0
176
     1
171
     0
176
     1
290
     0
176
     1
 93
       13
176
     1
 44
0.0
176
     1
173
     0
176
     1
  0
VISUALSTYLE
  5
2D
102
{ACAD_REACTORS
330
2A
102
}
102
{ACAD_XDICTIONARY
360
493
102
}
330
2A
100
AcDbVisualStyle
  2
Gouraud
 70
     2
177
     2
291
     1
 71
     2
176
     1
 72
     2
176
     1
 73
     1
176
     1
 90
        2
176
     1
 40
0.6
176
     1
 41
30.0
176
     1
 62
     5
 63
     7
421
 16777215
176
     1
 74
     0
176
     1
 91
        0
176
     1
 64
     7
176
     1
 65
   257
176
     1
 75
     1
176
     1
175
     1
176
     1
 42
1.0
176
     1
 92
        0
176
     1
 66
     7
176
     1
 43
1.0
176
     1
 76
     1
176
     1
 77
     6
176
     1
 78
     2
176
     1
 67
     7
176
     1
 79
     5
176
     1
170
     0
176
     1
171
     0
176
     1
290
     0
176
     1
 93
       13
176
     1
 44
0.0
176
     1
173
     0
176
     1
  0
VISUALSTYLE
  5
2E
102
{ACAD_REACTORS
330
2A
102
}
102
{ACAD_XDICTIONARY
360
495
102
}
330
2A
100
AcDbVisualStyle
  2
GouraudWithEdges
 70
     3
177
     2
291
     1
 71
     2
176
     1
 72
     2
176
     1
 73
     1
176
     1
 90
        2
176
     1
 40
0.6
176
     1
 41
30.0
176
     1
 62
     5
 63
     7
421
 16777215
176
     1
 74
     1
176
     1
 91
        0
176
     1
 64
     7
176
     1
 65
   257
176
     1
 75
     1
176
     1
175
     1
176
     1
 42
1.0
176
     1
 92
        0
176
     1
 66
   257
176
     1
 43
1.0
176
     1
 76
     1
176
     1
 77
     6
176
     1
 78
     2
176
     1
 67
     7
176
     1
 79
     5
176
     1
170
     0
176
     1
171
     0
176
     1
290
     0
176
     1
 93
       13
176
     1
 44
0.0
176
     1
173
     0
176
     1
  0
VISUALSTYLE
  5
31
102
{ACAD_REACTORS
330
2A
102
}
102
{ACAD_XDICTIONARY
360
49B
102
}
330
2A
100
AcDbVisualStyle
  2
Hidden
 70
     6
177
     2
291
     0
 71
     1
176
     1
 72
     2
176
     1
 73
     2
176
     1
 90
        0
176
     1
 40
0.6
176
     1
 41
30.0
176
     1
 62
     5
 63
     7
421
 16777215
176
     1
 74
     2
176
     1
 91
        2
176
     1
 64
     7
176
     1
 65
   257
176
     1
 75
     2
176
     1
175
     1
176
     1
 42
40.0
176
     1
 92
        0
176
     1
 66
   257
176
     1
 43
1.0
176
     1
 76
     1
176
     1
 77
     6
176
     1
 78
     2
176
     1
 67
     7
176
     1
 79
     3
176
     1
170
     0
176
     1
171
     0
176
     1
290
     0
176
     1
 93
        1
176
     1
 44
0.0
176
     1
173
     0
176
     1
  0
VISUALSTYLE
  5
3B
102
{ACAD_REACTORS
330
2A
102
}
102
{ACAD_XDICTIONARY
360
4AF
102
}
330
2A
100
AcDbVisualStyle
  2
JitterOff
 70
    20
177
     2
291
     1
 71
     2
176
     0
 72
     2
176
     0
 73
     0
176
     0
 90
        0
176
     0
 40
0.6
176
     0
 41
30.0
176
     0
 62
     5
 63
     7
421
 16777215
176
     0
 74
     1
176
     0
 91
        4
176
     0
 64
     7
176
     0
 65
   257
176
     0
 75
     1
176
     0
175
     1
176
     0
 42
1.0
176
     0
 92
       10
176
     2
 66
     7
176
     0
 43
1.0
176
     0
 76
     1
176
     0
 77
     6
176
     0
 78
     2
176
     0
 67
     7
176
     0
 79
     5
176
     0
170
     0
176
     0
171
     0
176
     0
290
     0
176
     0
 93
        1
176
     0
 44
0.0
176
     0
173
     0
176
     0
  0
VISUALSTYLE
  5
38
102
{ACAD_REACTORS
330
2A
102
}
102
{ACAD_XDICTIONARY
360
4A9
102
}
330
2A
100
AcDbVisualStyle
  2
Linepattern
 70
    14
177
     2
291
     1
 71
     2
176
     1
 72
     2
176
     1
 73
     0
176
     1
 90
        0
176
     1
 40
0.6
176
     1
 41
30.0
176
     1
 62
     5
 63
     7
421
 16777215
176
     1
 74
     1
176
     1
 91
        4
176
     1
 64
     7
176
     1
 65
   257
176
     1
 75
     7
176
     1
175
     7
176
     1
 42
1.0
176
     1
 92
        8
176
     1
 66
     7
176
     1
 43
1.0
176
     1
 76
     1
176
     1
 77
     6
176
     1
 78
     2
176
     1
 67
     7
176
     1
 79
     5
176
     1
170
     0
176
     1
171
     0
176
     1
290
     0
176
     1
 93
        1
176
     1
 44
0.0
176
     1
173
     0
176
     1
  0
VISUALSTYLE
  5
3C
102
{ACAD_REACTORS
330
2A
102
}
102
{ACAD_XDICTIONARY
360
4B1
102
}
330
2A
100
AcDbVisualStyle
  2
OverhangOff
 70
    21
177
     2
291
     1
 71
     2
176
     0
 72
     2
176
     0
 73
     0
176
     0
 90
        0
176
     0
 40
0.6
176
     0
 41
30.0
176
     0
 62
     5
 63
     7
421
 16777215
176
     0
 74
     1
176
     0
 91
        4
176
     0
 64
     7
176
     0
 65
   257
176
     0
 75
     1
176
     0
175
     1
176
     0
 42
1.0
176
     0
 92
        9
176
     2
 66
     7
176
     0
 43
1.0
176
     0
 76
     1
176
     0
 77
     6
176
     0
 78
     2
176
     0
 67
     7
176
     0
 79
     5
176
     0
170
     0
176
     0
171
     0
176
     0
290
     0
176
     0
 93
        1
176
     0
 44
0.0
176
     0
173
     0
176
     0
  0
VISUALSTYLE
  5
33
102
{ACAD_REACTORS
330
2A
102
}
102
{ACAD_XDICTIONARY
360
49F
102
}
330
2A
100
AcDbVisualStyle
  2
Realistic
 70
     8
177
     2
291
     0
 71
     2
176
     1
 72
     3
176
     1
 73
     0
176
     1
 90
        2
176
     1
 40
0.6
176
     1
 41
30.0
176
     1
 62
     5
 63
     7
421
 16777215
176
     1
 74
     0
176
     1
 91
        0
176
     1
 64
     7
176
     1
 65
   257
176
     1
 75
     1
176
     1
175
     1
176
     1
 42
1.0
176
     1
 92
        8
176
     1
 66
   257
176
     1
 43
1.0
176
     1
 76
     1
176
     1
 77
     6
176
     1
 78
     2
176
     1
 67
     7
176
     1
 79
     3
176
     1
170
     0
176
     1
171
     0
176
     1
290
     0
176
     1
 93
       13
176
     1
 44
0.0
176
     1
173
     0
176
     1
  0
VISUALSTYLE
  5
42
102
{ACAD_REACTORS
330
2A
102
}
102
{ACAD_XDICTIONARY
360
4BD
102
}
330
2A
100
AcDbVisualStyle
  2
Shaded
 70
    27
177
     2
291
     0
 71
     2
176
     1
 72
     2
176
     1
 73
     1
176
     1
 90
        2
176
     1
 40
0.6
176
     1
 41
30.0
176
     1
 62
     5
 63
     7
421
 16777215
176
     1
 74
     0
176
     1
 91
        4
176
     1
 64
     7
176
     1
 65
   257
176
     1
 75
     1
176
     1
175
     1
176
     1
 42
1.0
176
     1
 92
        8
176
     1
 66
   257
176
     1
 43
1.0
176
     1
 76
     1
176
     1
 77
     6
176
     1
 78
     2
176
     1
 67
     8
425
  7895160
176
     1
 79
     3
176
     1
170
     0
176
     1
171
     0
176
     1
290
     0
176
     1
 93
        5
176
     1
 44
0.0
176
     1
173
     0
176
     1
  0
VISUALSTYLE
  5
41
102
{ACAD_REACTORS
330
2A
102
}
102
{ACAD_XDICTIONARY
360
4BB
102
}
330
2A
100
AcDbVisualStyle
  2
Shaded with edges
 70
    26
177
     2
291
     0
 71
     2
176
     1
 72
     2
176
     1
 73
     1
176
     1
 90
        2
176
     1
 40
0.6
176
     1
 41
30.0
176
     1
 62
     5
 63
     7
421
 16777215
176
     1
 74
     1
176
     1
 91
       10
176
     1
 64
     7
176
     1
 65
   257
176
     1
 75
     2
176
     1
175
     1
176
     1
 42
1.0
176
     1
 92
        8
176
     1
 66
   257
176
     1
 43
1.0
176
     1
 76
     1
176
     1
 77
     6
176
     1
 78
     2
176
     1
 67
     7
176
     1
 79
     3
176
     1
170
     0
176
     1
171
     0
176
     1
290
     0
176
     1
 93
        5
176
     1
 44
0.0
176
     1
173
     0
176
     1
  0
VISUALSTYLE
  5
3E
102
{ACAD_REACTORS
330
2A
102
}
102
{ACAD_XDICTIONARY
360
4B5
102
}
330
2A
100
AcDbVisualStyle
  2
Shades of Gray
 70
    23
177
     2
291
     0
 71
     2
176
     1
 72
     2
176
     1
 73
     3
176
     1
 90
        0
176
     1
 40
0.6
176
     1
 41
30.0
176
     1
 62
     5
 63
     7
421
 16777215
176
     1
 74
     2
176
     1
 91
        2
176
     1
 64
     7
176
     1
 65
     7
176
     1
 75
     1
176
     1
175
     1
176
     1
 42
40.0
176
     1
 92
        8
176
     1
 66
     7
176
     1
 43
1.0
176
     1
 76
     1
176
     1
 77
     6
176
     1
 78
     2
176
     1
 67
     7
176
     1
 79
     3
176
     1
170
     0
176
     1
171
     0
176
     1
290
     0
176
     1
 93
        1
176
     1
 44
0.0
176
     1
173
     0
176
     1
  0
VISUALSTYLE
  5
3F
102
{ACAD_REACTORS
330
2A
102
}
102
{ACAD_XDICTIONARY
360
4B7
102
}
330
2A
100
AcDbVisualStyle
  2
Sketchy
 70
    24
177
     2
291
     0
 71
     1
176
     1
 72
     2
176
     1
 73
     2
176
     1
 90
        0
176
     1
 40
0.6
176
     1
 41
30.0
176
     1
 62
     5
 63
     7
421
 16777215
176
     1
 74
     2
176
     1
 91
        2
176
     1
 64
     7
176
     1
 65
     7
176
     1
 75
     1
176
     1
175
     1
176
     1
 42
40.0
176
     1
 92
       11
176
     1
 66
     7
176
     1
 43
1.0
176
     1
 76
     1
176
     1
 77
     6
176
     1
 78
     2
176
     1
 67
     7
176
     1
 79
     6
176
     1
170
     0
176
     1
171
     0
176
     1
290
     0
176
     1
 93
        1
176
     1
 44
0.0
176
     1
173
     0
176
     1
  0
VISUALSTYLE
  5
37
102
{ACAD_REACTORS
330
2A
102
}
102
{ACAD_XDICTIONARY
360
4A7
102
}
330
2A
100
AcDbVisualStyle
  2
Thicken
 70
    13
177
     2
291
     1
 71
     2
176
     1
 72
     2
176
     1
 73
     0
176
     1
 90
        0
176
     1
 40
0.6
176
     1
 41
30.0
176
     1
 62
     5
 63
     7
421
 16777215
176
     1
 74
     1
176
     1
 91
        4
176
     1
 64
     7
176
     1
 65
   257
176
     1
 75
     1
176
     1
175
     1
176
     1
 42
1.0
176
     1
 92
       12
176
     1
 66
     7
176
     1
 43
1.0
176
     1
 76
     1
176
     1
 77
     6
176
     1
 78
     2
176
     1
 67
     7
176
     1
 79
     5
176
     1
170
     0
176
     1
171
     0
176
     1
290
     0
176
     1
 93
        1
176
     1
 44
0.0
176
     1
173
     0
176
     1
  0
VISUALSTYLE
  5
30
102
{ACAD_REACTORS
330
2A
102
}
102
{ACAD_XDICTIONARY
360
499
102
}
330
2A
100
AcDbVisualStyle
  2
Wireframe
 70
     5
177
     2
291
     0
 71
     0
176
     1
 72
     2
176
     1
 73
     0
176
     1
 90
        0
176
     1
 40
0.6
176
     1
 41
30.0
176
     1
 62
     5
 63
     7
421
 16777215
176
     1
 74
     1
176
     1
 91
        4
176
     1
 64
     7
176
     1
 65
   257
176
     1
 75
     1
176
     1
175
     1
176
     1
 42
1.0
176
     1
 92
        0
176
     1
 66
   257
176
     1
 43
1.0
176
     1
 76
     1
176
     1
 77
     6
176
     1
 78
     2
176
     1
 67
     7
176
     1
 79
     3
176
     1
170
     0
176
     1
171
     0
176
     1
290
     0
176
     1
 93
        1
176
     1
 44
0.0
176
     1
173
     0
176
     1
  0
VISUALSTYLE
  5
40
102
{ACAD_REACTORS
330
2A
102
}
102
{ACAD_XDICTIONARY
360
4B9
102
}
330
2A
100
AcDbVisualStyle
  2
X-Ray
 70
    25
177
     2
291
     0
 71
     2
176
     1
 72
     2
176
     1
 73
     1
176
     1
 90
        1
176
     1
 40
0.5
176
     1
 41
30.0
176
     1
 62
     5
 63
     7
421
 16777215
176
     1
 74
     1
176
     1
 91
        0
176
     1
 64
     7
176
     1
 65
   257
176
     1
 75
     1
176
     1
175
     1
176
     1
 42
1.0
176
     1
 92
        8
176
     1
 66
     7
176
     1
 43
1.0
176
     1
 76
     1
176
     1
 77
     6
176
     1
 78
     2
176
     1
 67
     7
176
     1
 79
     3
176
     1
170
     0
176
     1
171
     0
176
     1
290
     0
176
     1
 93
       13
176
     1
 44
0.0
176
     1
173
     0
176
     1
  0
DICTIONARYVAR
  5
48E
102
{ACAD_REACTORS
330
48D
102
}
330
48D
100
DictionaryVariables
280
     0
  1
1:1
  0
DICTIONARYVAR
  5
4C6
102
{ACAD_REACTORS
330
48D
102
}
330
48D
100
DictionaryVariables
280
     0
  1
3.500000
  0
DICTIONARYVAR
  5
4C7
102
{ACAD_REACTORS
330
48D
102
}
330
48D
100
DictionaryVariables
280
     0
  1
acadiso.lin
  0
DICTIONARYVAR
  5
4C3
102
{ACAD_REACTORS
330
48D
102
}
330
48D
100
DictionaryVariables
280
     0
  1
Standard
  0
DICTIONARYVAR
  5
4C2
102
{ACAD_REACTORS
330
48D
102
}
330
48D
100
DictionaryVariables
280
     0
  1
Standard
  0
DICTIONARY
  5
4BF
330
6A
100
AcDbDictionary
280
     1
281
     1
  3
ACAD_ROUNDTRIP_2008_TABLESTYLE_CELLSTYLEMAP
360
4C0
  0
DICTIONARY
  5
497
330
2F
100
AcDbDictionary
280
     1
281
     1
  3
ACAD_XREC_ROUNDTRIP
360
498
  0
DICTIONARY
  5
49D
330
32
100
AcDbDictionary
280
     1
281
     1
  3
ACAD_XREC_ROUNDTRIP
360
49E
  0
DICTIONARY
  5
4A5
330
36
100
AcDbDictionary
280
     1
281
     1
  3
ACAD_XREC_ROUNDTRIP
360
4A6
  0
DICTIONARY
  5
4AD
330
3A
100
AcDbDictionary
280
     1
281
     1
  3
ACAD_XREC_ROUNDTRIP
360
4AE
  0
DICTIONARY
  5
4A1
330
34
100
AcDbDictionary
280
     1
281
     1
  3
ACAD_XREC_ROUNDTRIP
360
4A2
  0
DICTIONARY
  5
4A3
330
35
100
AcDbDictionary
280
     1
281
     1
  3
ACAD_XREC_ROUNDTRIP
360
4A4
  0
DICTIONARY
  5
4B3
330
3D
100
AcDbDictionary
280
     1
281
     1
  3
ACAD_XREC_ROUNDTRIP
360
4B4
  0
DICTIONARY
  5
4AB
330
39
100
AcDbDictionary
280
     1
281
     1
  3
ACAD_XREC_ROUNDTRIP
360
4AC
  0
DICTIONARY
  5
48F
330
2B
100
AcDbDictionary
280
     1
281
     1
  3
ACAD_XREC_ROUNDTRIP
360
490
  0
DICTIONARY
  5
491
330
2C
100
AcDbDictionary
280
     1
281
     1
  3
ACAD_XREC_ROUNDTRIP
360
492
  0
DICTIONARY
  5
493
330
2D
100
AcDbDictionary
280
     1
281
     1
  3
ACAD_XREC_ROUNDTRIP
360
494
  0
DICTIONARY
  5
495
330
2E
100
AcDbDictionary
280
     1
281
     1
  3
ACAD_XREC_ROUNDTRIP
360
496
  0
DICTIONARY
  5
49B
330
31
100
AcDbDictionary
280
     1
281
     1
  3
ACAD_XREC_ROUNDTRIP
360
49C
  0
DICTIONARY
  5
4AF
330
3B
100
AcDbDictionary
280
     1
281
     1
  3
ACAD_XREC_ROUNDTRIP
360
4B0
  0
DICTIONARY
  5
4A9
330
38
100
AcDbDictionary
280
     1
281
     1
  3
ACAD_XREC_ROUNDTRIP
360
4AA
  0
DICTIONARY
  5
4B1
330
3C
100
AcDbDictionary
280
     1
281
     1
  3
ACAD_XREC_ROUNDTRIP
360
4B2
  0
DICTIONARY
  5
49F
330
33
100
AcDbDictionary
280
     1
281
     1
  3
ACAD_XREC_ROUNDTRIP
360
4A0
  0
DICTIONARY
  5
4BD
330
42
100
AcDbDictionary
280
     1
281
     1
  3
ACAD_XREC_ROUNDTRIP
360
4BE
  0
DICTIONARY
  5
4BB
330
41
100
AcDbDictionary
280
     1
281
     1
  3
ACAD_XREC_ROUNDTRIP
360
4BC
  0
DICTIONARY
  5
4B5
330
3E
100
AcDbDictionary
280
     1
281
     1
  3
ACAD_XREC_ROUNDTRIP
360
4B6
  0
DICTIONARY
  5
4B7
330
3F
100
AcDbDictionary
280
     1
281
     1
  3
ACAD_XREC_ROUNDTRIP
360
4B8
  0
DICTIONARY
  5
4A7
330
37
100
AcDbDictionary
280
     1
281
     1
  3
ACAD_XREC_ROUNDTRIP
360
4A8
  0
DICTIONARY
  5
499
330
30
100
AcDbDictionary
280
     1
281
     1
  3
ACAD_XREC_ROUNDTRIP
360
49A
  0
DICTIONARY
  5
4B9
330
40
100
AcDbDictionary
280
     1
281
     1
  3
ACAD_XREC_ROUNDTRIP
360
4BA
  0
CELLSTYLEMAP
  5
4C0
102
{ACAD_REACTORS
330
4BF
102
}
330
4BF
100
AcDbCellStyleMap
 90
        3
300
CELLSTYLE
  1
TABLEFORMAT_BEGIN
 90
        5
170
     1
 91
        0
 92
    32768
 62
   257
 93
        1
300
CONTENTFORMAT
  1
CONTENTFORMAT_BEGIN
 90
        0
 91
        0
 92
        4
 93
        0
300

 40
0.0
140
1.0
 94
        5
 62
     0
340
11
144
6.0
309
CONTENTFORMAT_END
171
     1
301
MARGIN
  1
CELLMARGIN_BEGIN
 40
1.5
 40
1.5
 40
1.5
 40
1.5
 40
1.5
 40
1.5
309
CELLMARGIN_END
 94
        6
 95
        1
302
GRIDFORMAT
  1
GRIDFORMAT_BEGIN
 90
        0
 91
        1
 62
     0
 92
       -2
340
14
 93
        0
 40
0.045
309
GRIDFORMAT_END
 95
        2
302
GRIDFORMAT
  1
GRIDFORMAT_BEGIN
 90
        0
 91
        1
 62
     0
 92
       -2
340
14
 93
        0
 40
0.045
309
GRIDFORMAT_END
 95
        4
302
GRIDFORMAT
  1
GRIDFORMAT_BEGIN
 90
        0
 91
        1
 62
     0
 92
       -2
340
14
 93
        0
 40
0.045
309
GRIDFORMAT_END
 95
        8
302
GRIDFORMAT
  1
GRIDFORMAT_BEGIN
 90
        0
 91
        1
 62
     0
 92
       -2
340
14
 93
        0
 40
0.045
309
GRIDFORMAT_END
 95
       16
302
GRIDFORMAT
  1
GRIDFORMAT_BEGIN
 90
        0
 91
        1
 62
     0
 92
       -2
340
14
 93
        0
 40
0.045
309
GRIDFORMAT_END
 95
       32
302
GRIDFORMAT
  1
GRIDFORMAT_BEGIN
 90
        0
 91
        1
 62
     0
 92
       -2
340
14
 93
        0
 40
0.045
309
GRIDFORMAT_END
309
TABLEFORMAT_END
  1
CELLSTYLE_BEGIN
 90
        1
 91
        1
300
_TITLE
309
CELLSTYLE_END
300
CELLSTYLE
  1
TABLEFORMAT_BEGIN
 90
        5
170
     1
 91
        0
 92
        0
 62
   257
 93
        1
300
CONTENTFORMAT
  1
CONTENTFORMAT_BEGIN
 90
        0
 91
        0
 92
        4
 93
        0
300

 40
0.0
140
1.0
 94
        5
 62
     0
340
11
144
4.5
309
CONTENTFORMAT_END
171
     1
301
MARGIN
  1
CELLMARGIN_BEGIN
 40
1.5
 40
1.5
 40
1.5
 40
1.5
 40
1.5
 40
1.5
309
CELLMARGIN_END
 94
        6
 95
        1
302
GRIDFORMAT
  1
GRIDFORMAT_BEGIN
 90
        0
 91
        1
 62
     0
 92
       -2
340
14
 93
        0
 40
0.045
309
GRIDFORMAT_END
 95
        2
302
GRIDFORMAT
  1
GRIDFORMAT_BEGIN
 90
        0
 91
        1
 62
     0
 92
       -2
340
14
 93
        0
 40
0.045
309
GRIDFORMAT_END
 95
        4
302
GRIDFORMAT
  1
GRIDFORMAT_BEGIN
 90
        0
 91
        1
 62
     0
 92
       -2
340
14
 93
        0
 40
0.045
309
GRIDFORMAT_END
 95
        8
302
GRIDFORMAT
  1
GRIDFORMAT_BEGIN
 90
        0
 91
        1
 62
     0
 92
       -2
340
14
 93
        0
 40
0.045
309
GRIDFORMAT_END
 95
       16
302
GRIDFORMAT
  1
GRIDFORMAT_BEGIN
 90
        0
 91
        1
 62
     0
 92
       -2
340
14
 93
        0
 40
0.045
309
GRIDFORMAT_END
 95
       32
302
GRIDFORMAT
  1
GRIDFORMAT_BEGIN
 90
        0
 91
        1
 62
     0
 92
       -2
340
14
 93
        0
 40
0.045
309
GRIDFORMAT_END
309
TABLEFORMAT_END
  1
CELLSTYLE_BEGIN
 90
        2
 91
        1
300
_HEADER
309
CELLSTYLE_END
300
CELLSTYLE
  1
TABLEFORMAT_BEGIN
 90
        5
170
     1
 91
        0
 92
        0
 62
   257
 93
        1
300
CONTENTFORMAT
  1
CONTENTFORMAT_BEGIN
 90
        0
 91
        0
 92
        4
 93
        0
300

 40
0.0
140
1.0
 94
        2
 62
     0
340
11
144
4.5
309
CONTENTFORMAT_END
171
     1
301
MARGIN
  1
CELLMARGIN_BEGIN
 40
1.5
 40
1.5
 40
1.5
 40
1.5
 40
1.5
 40
1.5
309
CELLMARGIN_END
 94
        6
 95
        1
302
GRIDFORMAT
  1
GRIDFORMAT_BEGIN
 90
        0
 91
        1
 62
     0
 92
       -2
340
14
 93
        0
 40
0.045
309
GRIDFORMAT_END
 95
        2
302
GRIDFORMAT
  1
GRIDFORMAT_BEGIN
 90
        0
 91
        1
 62
     0
 92
       -2
340
14
 93
        0
 40
0.045
309
GRIDFORMAT_END
 95
        4
302
GRIDFORMAT
  1
GRIDFORMAT_BEGIN
 90
        0
 91
        1
 62
     0
 92
       -2
340
14
 93
        0
 40
0.045
309
GRIDFORMAT_END
 95
        8
302
GRIDFORMAT
  1
GRIDFORMAT_BEGIN
 90
        0
 91
        1
 62
     0
 92
       -2
340
14
 93
        0
 40
0.045
309
GRIDFORMAT_END
 95
       16
302
GRIDFORMAT
  1
GRIDFORMAT_BEGIN
 90
        0
 91
        1
 62
     0
 92
       -2
340
14
 93
        0
 40
0.045
309
GRIDFORMAT_END
 95
       32
302
GRIDFORMAT
  1
GRIDFORMAT_BEGIN
 90
        0
 91
        1
 62
     0
 92
       -2
340
14
 93
        0
 40
0.045
309
GRIDFORMAT_END
309
TABLEFORMAT_END
  1
CELLSTYLE_BEGIN
 90
        3
 91
        2
300
_DATA
309
CELLSTYLE_END
  0
XRECORD
  5
498
102
{ACAD_REACTORS
330
497
102
}
330
497
100
AcDbXrecord
280
     1
102
RTVSPost2010Prop28
280
     1
102
RTVSPost2010PropOp28
 70
     1
102
RTVSPost2010Prop29
280
     1
102
RTVSPost2010PropOp29
 70
     1
102
RTVSPost2010Prop30
280
     0
102
RTVSPost2010PropOp30
 70
     1
102
RTVSPost2010Prop31
280
     0
102
RTVSPost2010PropOp31
 70
     1
102
RTVSPost2010Prop32
280
     0
102
RTVSPost2010PropOp32
 70
     1
102
RTVSPost2010Prop33
280
     0
102
RTVSPost2010PropOp33
 70
     1
102
RTVSPost2010Prop34
280
     0
102
RTVSPost2010PropOp34
 70
     1
102
RTVSPost2010Prop35
280
     0
102
RTVSPost2010PropOp35
 70
     1
102
RTVSPost2010Prop36
280
     0
102
RTVSPost2010PropOp36
 70
     1
102
RTVSPost2010Prop37
 90
       50
102
RTVSPost2010PropOp37
 70
     1
102
RTVSPost2010Prop38
140
0.0
102
RTVSPost2010PropOp38
 70
     1
102
RTVSPost2010Prop39
140
1.0
102
RTVSPost2010PropOp39
 70
     1
102
RTVSPost2010Prop40
 90
        0
102
RTVSPost2010PropOp40
 70
     1
102
RTVSPost2010Prop41ColorIndex
 90
       18
102
RTVSPost2010Prop41ColorRGB
 90
        0
102
RTVSPost2010PropOp41
 70
     1
102
RTVSPost2010Prop42
 90
       50
102
RTVSPost2010PropOp42
 70
     1
102
RTVSPost2010Prop43
 90
        3
102
RTVSPost2010PropOp43
 70
     1
102
RTVSPost2010Prop44ColorIndex
 90
        5
102
RTVSPost2010Prop44ColorRGB
 90
      255
102
RTVSPost2010PropOp44
 70
     1
102
RTVSPost2010Prop45
280
     0
102
RTVSPost2010PropOp45
 70
     1
102
RTVSPost2010Prop46
 90
       50
102
RTVSPost2010PropOp46
 70
     1
102
RTVSPost2010Prop47
 90
       50
102
RTVSPost2010PropOp47
 70
     1
102
RTVSPost2010Prop48
 90
       50
102
RTVSPost2010PropOp48
 70
     1
102
RTVSPost2010Prop49
280
     0
102
RTVSPost2010PropOp49
 70
     1
102
RTVSPost2010Prop50
 90
       50
102
RTVSPost2010PropOp50
 70
     1
102
RTVSPost2010Prop51ColorIndex
 90
      256
102
RTVSPost2010Prop51ColorRGB
 90
-16777216
102
RTVSPost2010PropOp51
 70
     0
102
RTVSPost2010Prop52
140
1.0
102
RTVSPost2010PropOp52
 70
     0
102
RTVSPost2010Prop53
 90
        2
102
RTVSPost2010PropOp53
 70
     1
102
RTVSPost2010Prop54
  1
strokes_ogs.tif
102
RTVSPost2010PropOp54
 70
     1
102
RTVSPost2010Prop55
280
     0
102
RTVSPost2010PropOp55
 70
     1
102
RTVSPost2010Prop56
140
1.0
102
RTVSPost2010PropOp56
 70
     1
102
RTVSPost2010Prop57
140
1.0
102
RTVSPost2010PropOp57
 70
     1
  0
XRECORD
  5
49E
102
{ACAD_REACTORS
330
49D
102
}
330
49D
100
AcDbXrecord
280
     1
102
RTVSPost2010Prop28
280
     0
102
RTVSPost2010PropOp28
 70
     1
102
RTVSPost2010Prop29
280
     1
102
RTVSPost2010PropOp29
 70
     1
102
RTVSPost2010Prop30
280
     1
102
RTVSPost2010PropOp30
 70
     1
102
RTVSPost2010Prop31
280
     0
102
RTVSPost2010PropOp31
 70
     1
102
RTVSPost2010Prop32
280
     0
102
RTVSPost2010PropOp32
 70
     1
102
RTVSPost2010Prop33
280
     0
102
RTVSPost2010PropOp33
 70
     1
102
RTVSPost2010Prop34
280
     0
102
RTVSPost2010PropOp34
 70
     1
102
RTVSPost2010Prop35
280
     0
102
RTVSPost2010PropOp35
 70
     1
102
RTVSPost2010Prop36
280
     0
102
RTVSPost2010PropOp36
 70
     1
102
RTVSPost2010Prop37
 90
       50
102
RTVSPost2010PropOp37
 70
     1
102
RTVSPost2010Prop38
140
0.0
102
RTVSPost2010PropOp38
 70
     1
102
RTVSPost2010Prop39
140
1.0
102
RTVSPost2010PropOp39
 70
     1
102
RTVSPost2010Prop40
 90
        0
102
RTVSPost2010PropOp40
 70
     1
102
RTVSPost2010Prop41ColorIndex
 90
       18
102
RTVSPost2010Prop41ColorRGB
 90
        0
102
RTVSPost2010PropOp41
 70
     1
102
RTVSPost2010Prop42
 90
       50
102
RTVSPost2010PropOp42
 70
     1
102
RTVSPost2010Prop43
 90
        3
102
RTVSPost2010PropOp43
 70
     1
102
RTVSPost2010Prop44ColorIndex
 90
        5
102
RTVSPost2010Prop44ColorRGB
 90
      255
102
RTVSPost2010PropOp44
 70
     1
102
RTVSPost2010Prop45
280
     0
102
RTVSPost2010PropOp45
 70
     1
102
RTVSPost2010Prop46
 90
       50
102
RTVSPost2010PropOp46
 70
     1
102
RTVSPost2010Prop47
 90
       50
102
RTVSPost2010PropOp47
 70
     1
102
RTVSPost2010Prop48
 90
       50
102
RTVSPost2010PropOp48
 70
     1
102
RTVSPost2010Prop49
280
     0
102
RTVSPost2010PropOp49
 70
     1
102
RTVSPost2010Prop50
 90
       50
102
RTVSPost2010PropOp50
 70
     1
102
RTVSPost2010Prop51ColorIndex
 90
      256
102
RTVSPost2010Prop51ColorRGB
 90
-16777216
102
RTVSPost2010PropOp51
 70
     0
102
RTVSPost2010Prop52
140
1.0
102
RTVSPost2010PropOp52
 70
     0
102
RTVSPost2010Prop53
 90
        2
102
RTVSPost2010PropOp53
 70
     1
102
RTVSPost2010Prop54
  1
strokes_ogs.tif
102
RTVSPost2010PropOp54
 70
     1
102
RTVSPost2010Prop55
280
     0
102
RTVSPost2010PropOp55
 70
     1
102
RTVSPost2010Prop56
140
1.0
102
RTVSPost2010PropOp56
 70
     1
102
RTVSPost2010Prop57
140
1.0
102
RTVSPost2010PropOp57
 70
     1
  0
XRECORD
  5
4A6
102
{ACAD_REACTORS
330
4A5
102
}
330
4A5
100
AcDbXrecord
280
     1
102
RTVSPost2010Prop28
280
     0
102
RTVSPost2010PropOp28
 70
     1
102
RTVSPost2010Prop29
280
     1
102
RTVSPost2010PropOp29
 70
     1
102
RTVSPost2010Prop30
280
     1
102
RTVSPost2010PropOp30
 70
     1
102
RTVSPost2010Prop31
280
     0
102
RTVSPost2010PropOp31
 70
     1
102
RTVSPost2010Prop32
280
     0
102
RTVSPost2010PropOp32
 70
     1
102
RTVSPost2010Prop33
280
     0
102
RTVSPost2010PropOp33
 70
     1
102
RTVSPost2010Prop34
280
     0
102
RTVSPost2010PropOp34
 70
     1
102
RTVSPost2010Prop35
280
     0
102
RTVSPost2010PropOp35
 70
     1
102
RTVSPost2010Prop36
280
     0
102
RTVSPost2010PropOp36
 70
     1
102
RTVSPost2010Prop37
 90
       50
102
RTVSPost2010PropOp37
 70
     1
102
RTVSPost2010Prop38
140
0.0
102
RTVSPost2010PropOp38
 70
     1
102
RTVSPost2010Prop39
140
1.0
102
RTVSPost2010PropOp39
 70
     1
102
RTVSPost2010Prop40
 90
        0
102
RTVSPost2010PropOp40
 70
     1
102
RTVSPost2010Prop41ColorIndex
 90
       18
102
RTVSPost2010Prop41ColorRGB
 90
        0
102
RTVSPost2010PropOp41
 70
     1
102
RTVSPost2010Prop42
 90
       50
102
RTVSPost2010PropOp42
 70
     1
102
RTVSPost2010Prop43
 90
        3
102
RTVSPost2010PropOp43
 70
     1
102
RTVSPost2010Prop44ColorIndex
 90
        5
102
RTVSPost2010Prop44ColorRGB
 90
      255
102
RTVSPost2010PropOp44
 70
     1
102
RTVSPost2010Prop45
280
     0
102
RTVSPost2010PropOp45
 70
     1
102
RTVSPost2010Prop46
 90
       50
102
RTVSPost2010PropOp46
 70
     1
102
RTVSPost2010Prop47
 90
       50
102
RTVSPost2010PropOp47
 70
     1
102
RTVSPost2010Prop48
 90
       50
102
RTVSPost2010PropOp48
 70
     1
102
RTVSPost2010Prop49
280
     0
102
RTVSPost2010PropOp49
 70
     1
102
RTVSPost2010Prop50
 90
       50
102
RTVSPost2010PropOp50
 70
     1
102
RTVSPost2010Prop51ColorIndex
 90
      256
102
RTVSPost2010Prop51ColorRGB
 90
-16777216
102
RTVSPost2010PropOp51
 70
     0
102
RTVSPost2010Prop52
140
1.0
102
RTVSPost2010PropOp52
 70
     0
102
RTVSPost2010Prop53
 90
        2
102
RTVSPost2010PropOp53
 70
     1
102
RTVSPost2010Prop54
  1
strokes_ogs.tif
102
RTVSPost2010PropOp54
 70
     1
102
RTVSPost2010Prop55
280
     0
102
RTVSPost2010PropOp55
 70
     1
102
RTVSPost2010Prop56
140
1.0
102
RTVSPost2010PropOp56
 70
     1
102
RTVSPost2010Prop57
140
1.0
102
RTVSPost2010PropOp57
 70
     1
  0
XRECORD
  5
4AE
102
{ACAD_REACTORS
330
4AD
102
}
330
4AD
100
AcDbXrecord
280
     1
102
RTVSPost2010Prop28
280
     0
102
RTVSPost2010PropOp28
 70
     1
102
RTVSPost2010Prop29
280
     1
102
RTVSPost2010PropOp29
 70
     1
102
RTVSPost2010Prop30
280
     1
102
RTVSPost2010PropOp30
 70
     1
102
RTVSPost2010Prop31
280
     0
102
RTVSPost2010PropOp31
 70
     1
102
RTVSPost2010Prop32
280
     0
102
RTVSPost2010PropOp32
 70
     1
102
RTVSPost2010Prop33
280
     0
102
RTVSPost2010PropOp33
 70
     1
102
RTVSPost2010Prop34
280
     0
102
RTVSPost2010PropOp34
 70
     1
102
RTVSPost2010Prop35
280
     0
102
RTVSPost2010PropOp35
 70
     1
102
RTVSPost2010Prop36
280
     0
102
RTVSPost2010PropOp36
 70
     1
102
RTVSPost2010Prop37
 90
       50
102
RTVSPost2010PropOp37
 70
     1
102
RTVSPost2010Prop38
140
0.0
102
RTVSPost2010PropOp38
 70
     1
102
RTVSPost2010Prop39
140
1.0
102
RTVSPost2010PropOp39
 70
     1
102
RTVSPost2010Prop40
 90
        0
102
RTVSPost2010PropOp40
 70
     1
102
RTVSPost2010Prop41ColorIndex
 90
       18
102
RTVSPost2010Prop41ColorRGB
 90
        0
102
RTVSPost2010PropOp41
 70
     1
102
RTVSPost2010Prop42
 90
       50
102
RTVSPost2010PropOp42
 70
     1
102
RTVSPost2010Prop43
 90
        3
102
RTVSPost2010PropOp43
 70
     1
102
RTVSPost2010Prop44ColorIndex
 90
        5
102
RTVSPost2010Prop44ColorRGB
 90
      255
102
RTVSPost2010PropOp44
 70
     1
102
RTVSPost2010Prop45
280
     0
102
RTVSPost2010PropOp45
 70
     1
102
RTVSPost2010Prop46
 90
       50
102
RTVSPost2010PropOp46
 70
     1
102
RTVSPost2010Prop47
 90
       50
102
RTVSPost2010PropOp47
 70
     1
102
RTVSPost2010Prop48
 90
       50
102
RTVSPost2010PropOp48
 70
     1
102
RTVSPost2010Prop49
280
     0
102
RTVSPost2010PropOp49
 70
     1
102
RTVSPost2010Prop50
 90
       50
102
RTVSPost2010PropOp50
 70
     1
102
RTVSPost2010Prop51ColorIndex
 90
      256
102
RTVSPost2010Prop51ColorRGB
 90
-16777216
102
RTVSPost2010PropOp51
 70
     0
102
RTVSPost2010Prop52
140
1.0
102
RTVSPost2010PropOp52
 70
     0
102
RTVSPost2010Prop53
 90
        2
102
RTVSPost2010PropOp53
 70
     1
102
RTVSPost2010Prop54
  1
strokes_ogs.tif
102
RTVSPost2010PropOp54
 70
     1
102
RTVSPost2010Prop55
280
     0
102
RTVSPost2010PropOp55
 70
     1
102
RTVSPost2010Prop56
140
1.0
102
RTVSPost2010PropOp56
 70
     1
102
RTVSPost2010Prop57
140
1.0
102
RTVSPost2010PropOp57
 70
     1
  0
XRECORD
  5
4A2
102
{ACAD_REACTORS
330
4A1
102
}
330
4A1
100
AcDbXrecord
280
     1
102
RTVSPost2010Prop28
280
     0
102
RTVSPost2010PropOp28
 70
     1
102
RTVSPost2010Prop29
280
     1
102
RTVSPost2010PropOp29
 70
     1
102
RTVSPost2010Prop30
280
     1
102
RTVSPost2010PropOp30
 70
     1
102
RTVSPost2010Prop31
280
     0
102
RTVSPost2010PropOp31
 70
     1
102
RTVSPost2010Prop32
280
     0
102
RTVSPost2010PropOp32
 70
     1
102
RTVSPost2010Prop33
280
     0
102
RTVSPost2010PropOp33
 70
     1
102
RTVSPost2010Prop34
280
     0
102
RTVSPost2010PropOp34
 70
     1
102
RTVSPost2010Prop35
280
     0
102
RTVSPost2010PropOp35
 70
     1
102
RTVSPost2010Prop36
280
     0
102
RTVSPost2010PropOp36
 70
     1
102
RTVSPost2010Prop37
 90
       50
102
RTVSPost2010PropOp37
 70
     1
102
RTVSPost2010Prop38
140
0.0
102
RTVSPost2010PropOp38
 70
     1
102
RTVSPost2010Prop39
140
1.0
102
RTVSPost2010PropOp39
 70
     1
102
RTVSPost2010Prop40
 90
        0
102
RTVSPost2010PropOp40
 70
     1
102
RTVSPost2010Prop41ColorIndex
 90
       18
102
RTVSPost2010Prop41ColorRGB
 90
        0
102
RTVSPost2010PropOp41
 70
     1
102
RTVSPost2010Prop42
 90
       50
102
RTVSPost2010PropOp42
 70
     1
102
RTVSPost2010Prop43
 90
        3
102
RTVSPost2010PropOp43
 70
     1
102
RTVSPost2010Prop44ColorIndex
 90
        5
102
RTVSPost2010Prop44ColorRGB
 90
      255
102
RTVSPost2010PropOp44
 70
     1
102
RTVSPost2010Prop45
280
     0
102
RTVSPost2010PropOp45
 70
     1
102
RTVSPost2010Prop46
 90
       50
102
RTVSPost2010PropOp46
 70
     1
102
RTVSPost2010Prop47
 90
       50
102
RTVSPost2010PropOp47
 70
     1
102
RTVSPost2010Prop48
 90
       50
102
RTVSPost2010PropOp48
 70
     1
102
RTVSPost2010Prop49
280
     0
102
RTVSPost2010PropOp49
 70
     1
102
RTVSPost2010Prop50
 90
       50
102
RTVSPost2010PropOp50
 70
     1
102
RTVSPost2010Prop51ColorIndex
 90
      256
102
RTVSPost2010Prop51ColorRGB
 90
-16777216
102
RTVSPost2010PropOp51
 70
     0
102
RTVSPost2010Prop52
140
1.0
102
RTVSPost2010PropOp52
 70
     0
102
RTVSPost2010Prop53
 90
        2
102
RTVSPost2010PropOp53
 70
     1
102
RTVSPost2010Prop54
  1
strokes_ogs.tif
102
RTVSPost2010PropOp54
 70
     1
102
RTVSPost2010Prop55
280
     0
102
RTVSPost2010PropOp55
 70
     1
102
RTVSPost2010Prop56
140
1.0
102
RTVSPost2010PropOp56
 70
     1
102
RTVSPost2010Prop57
140
1.0
102
RTVSPost2010PropOp57
 70
     1
  0
XRECORD
  5
4A4
102
{ACAD_REACTORS
330
4A3
102
}
330
4A3
100
AcDbXrecord
280
     1
102
RTVSPost2010Prop28
280
     0
102
RTVSPost2010PropOp28
 70
     1
102
RTVSPost2010Prop29
280
     1
102
RTVSPost2010PropOp29
 70
     1
102
RTVSPost2010Prop30
280
     1
102
RTVSPost2010PropOp30
 70
     1
102
RTVSPost2010Prop31
280
     0
102
RTVSPost2010PropOp31
 70
     1
102
RTVSPost2010Prop32
280
     0
102
RTVSPost2010PropOp32
 70
     1
102
RTVSPost2010Prop33
280
     0
102
RTVSPost2010PropOp33
 70
     1
102
RTVSPost2010Prop34
280
     0
102
RTVSPost2010PropOp34
 70
     1
102
RTVSPost2010Prop35
280
     0
102
RTVSPost2010PropOp35
 70
     1
102
RTVSPost2010Prop36
280
     0
102
RTVSPost2010PropOp36
 70
     1
102
RTVSPost2010Prop37
 90
       50
102
RTVSPost2010PropOp37
 70
     1
102
RTVSPost2010Prop38
140
0.0
102
RTVSPost2010PropOp38
 70
     1
102
RTVSPost2010Prop39
140
1.0
102
RTVSPost2010PropOp39
 70
     1
102
RTVSPost2010Prop40
 90
        0
102
RTVSPost2010PropOp40
 70
     1
102
RTVSPost2010Prop41ColorIndex
 90
       18
102
RTVSPost2010Prop41ColorRGB
 90
        0
102
RTVSPost2010PropOp41
 70
     1
102
RTVSPost2010Prop42
 90
       50
102
RTVSPost2010PropOp42
 70
     1
102
RTVSPost2010Prop43
 90
        3
102
RTVSPost2010PropOp43
 70
     1
102
RTVSPost2010Prop44ColorIndex
 90
        5
102
RTVSPost2010Prop44ColorRGB
 90
      255
102
RTVSPost2010PropOp44
 70
     1
102
RTVSPost2010Prop45
280
     0
102
RTVSPost2010PropOp45
 70
     1
102
RTVSPost2010Prop46
 90
       50
102
RTVSPost2010PropOp46
 70
     1
102
RTVSPost2010Prop47
 90
       50
102
RTVSPost2010PropOp47
 70
     1
102
RTVSPost2010Prop48
 90
       50
102
RTVSPost2010PropOp48
 70
     1
102
RTVSPost2010Prop49
280
     0
102
RTVSPost2010PropOp49
 70
     1
102
RTVSPost2010Prop50
 90
       50
102
RTVSPost2010PropOp50
 70
     1
102
RTVSPost2010Prop51ColorIndex
 90
      256
102
RTVSPost2010Prop51ColorRGB
 90
-16777216
102
RTVSPost2010PropOp51
 70
     0
102
RTVSPost2010Prop52
140
1.0
102
RTVSPost2010PropOp52
 70
     0
102
RTVSPost2010Prop53
 90
        2
102
RTVSPost2010PropOp53
 70
     1
102
RTVSPost2010Prop54
  1
strokes_ogs.tif
102
RTVSPost2010PropOp54
 70
     1
102
RTVSPost2010Prop55
280
     0
102
RTVSPost2010PropOp55
 70
     1
102
RTVSPost2010Prop56
140
1.0
102
RTVSPost2010PropOp56
 70
     1
102
RTVSPost2010Prop57
140
1.0
102
RTVSPost2010PropOp57
 70
     1
  0
XRECORD
  5
4B4
102
{ACAD_REACTORS
330
4B3
102
}
330
4B3
100
AcDbXrecord
280
     1
102
RTVSPost2010Prop28
280
     0
102
RTVSPost2010PropOp28
 70
     0
102
RTVSPost2010Prop29
280
     1
102
RTVSPost2010PropOp29
 70
     0
102
RTVSPost2010Prop30
280
     1
102
RTVSPost2010PropOp30
 70
     0
102
RTVSPost2010Prop31
280
     0
102
RTVSPost2010PropOp31
 70
     0
102
RTVSPost2010Prop32
280
     0
102
RTVSPost2010PropOp32
 70
     0
102
RTVSPost2010Prop33
280
     0
102
RTVSPost2010PropOp33
 70
     0
102
RTVSPost2010Prop34
280
     0
102
RTVSPost2010PropOp34
 70
     0
102
RTVSPost2010Prop35
280
     0
102
RTVSPost2010PropOp35
 70
     0
102
RTVSPost2010Prop36
280
     0
102
RTVSPost2010PropOp36
 70
     0
102
RTVSPost2010Prop37
 90
       50
102
RTVSPost2010PropOp37
 70
     0
102
RTVSPost2010Prop38
140
0.0
102
RTVSPost2010PropOp38
 70
     0
102
RTVSPost2010Prop39
140
1.0
102
RTVSPost2010PropOp39
 70
     0
102
RTVSPost2010Prop40
 90
        0
102
RTVSPost2010PropOp40
 70
     0
102
RTVSPost2010Prop41ColorIndex
 90
       18
102
RTVSPost2010Prop41ColorRGB
 90
        0
102
RTVSPost2010PropOp41
 70
     0
102
RTVSPost2010Prop42
 90
       50
102
RTVSPost2010PropOp42
 70
     0
102
RTVSPost2010Prop43
 90
        3
102
RTVSPost2010PropOp43
 70
     0
102
RTVSPost2010Prop44ColorIndex
 90
        5
102
RTVSPost2010Prop44ColorRGB
 90
      255
102
RTVSPost2010PropOp44
 70
     0
102
RTVSPost2010Prop45
280
     0
102
RTVSPost2010PropOp45
 70
     0
102
RTVSPost2010Prop46
 90
       50
102
RTVSPost2010PropOp46
 70
     0
102
RTVSPost2010Prop47
 90
       50
102
RTVSPost2010PropOp47
 70
     0
102
RTVSPost2010Prop48
 90
       50
102
RTVSPost2010PropOp48
 70
     0
102
RTVSPost2010Prop49
280
     0
102
RTVSPost2010PropOp49
 70
     0
102
RTVSPost2010Prop50
 90
       50
102
RTVSPost2010PropOp50
 70
     0
102
RTVSPost2010Prop51ColorIndex
 90
      256
102
RTVSPost2010Prop51ColorRGB
 90
-16777216
102
RTVSPost2010PropOp51
 70
     0
102
RTVSPost2010Prop52
140
1.0
102
RTVSPost2010PropOp52
 70
     0
102
RTVSPost2010Prop53
 90
        2
102
RTVSPost2010PropOp53
 70
     0
102
RTVSPost2010Prop54
  1
strokes_ogs.tif
102
RTVSPost2010PropOp54
 70
     0
102
RTVSPost2010Prop55
280
     0
102
RTVSPost2010PropOp55
 70
     0
102
RTVSPost2010Prop56
140
1.0
102
RTVSPost2010PropOp56
 70
     0
102
RTVSPost2010Prop57
140
1.0
102
RTVSPost2010PropOp57
 70
     0
  0
XRECORD
  5
4AC
102
{ACAD_REACTORS
330
4AB
102
}
330
4AB
100
AcDbXrecord
280
     1
102
RTVSPost2010Prop28
280
     0
102
RTVSPost2010PropOp28
 70
     1
102
RTVSPost2010Prop29
280
     1
102
RTVSPost2010PropOp29
 70
     1
102
RTVSPost2010Prop30
280
     1
102
RTVSPost2010PropOp30
 70
     1
102
RTVSPost2010Prop31
280
     0
102
RTVSPost2010PropOp31
 70
     1
102
RTVSPost2010Prop32
280
     0
102
RTVSPost2010PropOp32
 70
     1
102
RTVSPost2010Prop33
280
     0
102
RTVSPost2010PropOp33
 70
     1
102
RTVSPost2010Prop34
280
     0
102
RTVSPost2010PropOp34
 70
     1
102
RTVSPost2010Prop35
280
     0
102
RTVSPost2010PropOp35
 70
     1
102
RTVSPost2010Prop36
280
     0
102
RTVSPost2010PropOp36
 70
     1
102
RTVSPost2010Prop37
 90
       50
102
RTVSPost2010PropOp37
 70
     1
102
RTVSPost2010Prop38
140
0.0
102
RTVSPost2010PropOp38
 70
     1
102
RTVSPost2010Prop39
140
1.0
102
RTVSPost2010PropOp39
 70
     1
102
RTVSPost2010Prop40
 90
        0
102
RTVSPost2010PropOp40
 70
     1
102
RTVSPost2010Prop41ColorIndex
 90
       18
102
RTVSPost2010Prop41ColorRGB
 90
        0
102
RTVSPost2010PropOp41
 70
     1
102
RTVSPost2010Prop42
 90
       50
102
RTVSPost2010PropOp42
 70
     1
102
RTVSPost2010Prop43
 90
        3
102
RTVSPost2010PropOp43
 70
     1
102
RTVSPost2010Prop44ColorIndex
 90
        5
102
RTVSPost2010Prop44ColorRGB
 90
      255
102
RTVSPost2010PropOp44
 70
     1
102
RTVSPost2010Prop45
280
     0
102
RTVSPost2010PropOp45
 70
     1
102
RTVSPost2010Prop46
 90
       50
102
RTVSPost2010PropOp46
 70
     1
102
RTVSPost2010Prop47
 90
       50
102
RTVSPost2010PropOp47
 70
     1
102
RTVSPost2010Prop48
 90
       50
102
RTVSPost2010PropOp48
 70
     1
102
RTVSPost2010Prop49
280
     0
102
RTVSPost2010PropOp49
 70
     1
102
RTVSPost2010Prop50
 90
       50
102
RTVSPost2010PropOp50
 70
     1
102
RTVSPost2010Prop51ColorIndex
 90
      256
102
RTVSPost2010Prop51ColorRGB
 90
-16777216
102
RTVSPost2010PropOp51
 70
     0
102
RTVSPost2010Prop52
140
1.0
102
RTVSPost2010PropOp52
 70
     0
102
RTVSPost2010Prop53
 90
        2
102
RTVSPost2010PropOp53
 70
     1
102
RTVSPost2010Prop54
  1
strokes_ogs.tif
102
RTVSPost2010PropOp54
 70
     1
102
RTVSPost2010Prop55
280
     0
102
RTVSPost2010PropOp55
 70
     1
102
RTVSPost2010Prop56
140
1.0
102
RTVSPost2010PropOp56
 70
     1
102
RTVSPost2010Prop57
140
1.0
102
RTVSPost2010PropOp57
 70
     1
  0
XRECORD
  5
490
102
{ACAD_REACTORS
330
48F
102
}
330
48F
100
AcDbXrecord
280
     1
102
RTVSPost2010Prop28
280
     0
102
RTVSPost2010PropOp28
 70
     1
102
RTVSPost2010Prop29
280
     1
102
RTVSPost2010PropOp29
 70
     1
102
RTVSPost2010Prop30
280
     1
102
RTVSPost2010PropOp30
 70
     1
102
RTVSPost2010Prop31
280
     0
102
RTVSPost2010PropOp31
 70
     1
102
RTVSPost2010Prop32
280
     0
102
RTVSPost2010PropOp32
 70
     1
102
RTVSPost2010Prop33
280
     0
102
RTVSPost2010PropOp33
 70
     1
102
RTVSPost2010Prop34
280
     0
102
RTVSPost2010PropOp34
 70
     1
102
RTVSPost2010Prop35
280
     0
102
RTVSPost2010PropOp35
 70
     1
102
RTVSPost2010Prop36
280
     0
102
RTVSPost2010PropOp36
 70
     1
102
RTVSPost2010Prop37
 90
       50
102
RTVSPost2010PropOp37
 70
     1
102
RTVSPost2010Prop38
140
0.0
102
RTVSPost2010PropOp38
 70
     1
102
RTVSPost2010Prop39
140
1.0
102
RTVSPost2010PropOp39
 70
     1
102
RTVSPost2010Prop40
 90
        0
102
RTVSPost2010PropOp40
 70
     1
102
RTVSPost2010Prop41ColorIndex
 90
       18
102
RTVSPost2010Prop41ColorRGB
 90
        0
102
RTVSPost2010PropOp41
 70
     1
102
RTVSPost2010Prop42
 90
       50
102
RTVSPost2010PropOp42
 70
     1
102
RTVSPost2010Prop43
 90
        3
102
RTVSPost2010PropOp43
 70
     1
102
RTVSPost2010Prop44ColorIndex
 90
        5
102
RTVSPost2010Prop44ColorRGB
 90
      255
102
RTVSPost2010PropOp44
 70
     1
102
RTVSPost2010Prop45
280
     0
102
RTVSPost2010PropOp45
 70
     1
102
RTVSPost2010Prop46
 90
       50
102
RTVSPost2010PropOp46
 70
     1
102
RTVSPost2010Prop47
 90
       50
102
RTVSPost2010PropOp47
 70
     1
102
RTVSPost2010Prop48
 90
       50
102
RTVSPost2010PropOp48
 70
     1
102
RTVSPost2010Prop49
280
     0
102
RTVSPost2010PropOp49
 70
     1
102
RTVSPost2010Prop50
 90
       50
102
RTVSPost2010PropOp50
 70
     1
102
RTVSPost2010Prop51ColorIndex
 90
      256
102
RTVSPost2010Prop51ColorRGB
 90
-16777216
102
RTVSPost2010PropOp51
 70
     0
102
RTVSPost2010Prop52
140
1.0
102
RTVSPost2010PropOp52
 70
     0
102
RTVSPost2010Prop53
 90
        2
102
RTVSPost2010PropOp53
 70
     1
102
RTVSPost2010Prop54
  1
strokes_ogs.tif
102
RTVSPost2010PropOp54
 70
     1
102
RTVSPost2010Prop55
280
     0
102
RTVSPost2010PropOp55
 70
     1
102
RTVSPost2010Prop56
140
1.0
102
RTVSPost2010PropOp56
 70
     1
102
RTVSPost2010Prop57
140
1.0
102
RTVSPost2010PropOp57
 70
     1
  0
XRECORD
  5
492
102
{ACAD_REACTORS
330
491
102
}
330
491
100
AcDbXrecord
280
     1
102
RTVSPost2010Prop28
280
     0
102
RTVSPost2010PropOp28
 70
     1
102
RTVSPost2010Prop29
280
     1
102
RTVSPost2010PropOp29
 70
     1
102
RTVSPost2010Prop30
280
     1
102
RTVSPost2010PropOp30
 70
     1
102
RTVSPost2010Prop31
280
     0
102
RTVSPost2010PropOp31
 70
     1
102
RTVSPost2010Prop32
280
     0
102
RTVSPost2010PropOp32
 70
     1
102
RTVSPost2010Prop33
280
     0
102
RTVSPost2010PropOp33
 70
     1
102
RTVSPost2010Prop34
280
     0
102
RTVSPost2010PropOp34
 70
     1
102
RTVSPost2010Prop35
280
     0
102
RTVSPost2010PropOp35
 70
     1
102
RTVSPost2010Prop36
280
     0
102
RTVSPost2010PropOp36
 70
     1
102
RTVSPost2010Prop37
 90
       50
102
RTVSPost2010PropOp37
 70
     1
102
RTVSPost2010Prop38
140
0.0
102
RTVSPost2010PropOp38
 70
     1
102
RTVSPost2010Prop39
140
1.0
102
RTVSPost2010PropOp39
 70
     1
102
RTVSPost2010Prop40
 90
        0
102
RTVSPost2010PropOp40
 70
     1
102
RTVSPost2010Prop41ColorIndex
 90
       18
102
RTVSPost2010Prop41ColorRGB
 90
        0
102
RTVSPost2010PropOp41
 70
     1
102
RTVSPost2010Prop42
 90
       50
102
RTVSPost2010PropOp42
 70
     1
102
RTVSPost2010Prop43
 90
        3
102
RTVSPost2010PropOp43
 70
     1
102
RTVSPost2010Prop44ColorIndex
 90
        5
102
RTVSPost2010Prop44ColorRGB
 90
      255
102
RTVSPost2010PropOp44
 70
     1
102
RTVSPost2010Prop45
280
     0
102
RTVSPost2010PropOp45
 70
     1
102
RTVSPost2010Prop46
 90
       50
102
RTVSPost2010PropOp46
 70
     1
102
RTVSPost2010Prop47
 90
       50
102
RTVSPost2010PropOp47
 70
     1
102
RTVSPost2010Prop48
 90
       50
102
RTVSPost2010PropOp48
 70
     1
102
RTVSPost2010Prop49
280
     0
102
RTVSPost2010PropOp49
 70
     1
102
RTVSPost2010Prop50
 90
       50
102
RTVSPost2010PropOp50
 70
     1
102
RTVSPost2010Prop51ColorIndex
 90
      256
102
RTVSPost2010Prop51ColorRGB
 90
-16777216
102
RTVSPost2010PropOp51
 70
     0
102
RTVSPost2010Prop52
140
1.0
102
RTVSPost2010PropOp52
 70
     0
102
RTVSPost2010Prop53
 90
        2
102
RTVSPost2010PropOp53
 70
     1
102
RTVSPost2010Prop54
  1
strokes_ogs.tif
102
RTVSPost2010PropOp54
 70
     1
102
RTVSPost2010Prop55
280
     0
102
RTVSPost2010PropOp55
 70
     1
102
RTVSPost2010Prop56
140
1.0
102
RTVSPost2010PropOp56
 70
     1
102
RTVSPost2010Prop57
140
1.0
102
RTVSPost2010PropOp57
 70
     1
  0
XRECORD
  5
494
102
{ACAD_REACTORS
330
493
102
}
330
493
100
AcDbXrecord
280
     1
102
RTVSPost2010Prop28
280
     0
102
RTVSPost2010PropOp28
 70
     1
102
RTVSPost2010Prop29
280
     1
102
RTVSPost2010PropOp29
 70
     1
102
RTVSPost2010Prop30
280
     1
102
RTVSPost2010PropOp30
 70
     1
102
RTVSPost2010Prop31
280
     0
102
RTVSPost2010PropOp31
 70
     1
102
RTVSPost2010Prop32
280
     0
102
RTVSPost2010PropOp32
 70
     1
102
RTVSPost2010Prop33
280
     0
102
RTVSPost2010PropOp33
 70
     1
102
RTVSPost2010Prop34
280
     0
102
RTVSPost2010PropOp34
 70
     1
102
RTVSPost2010Prop35
280
     0
102
RTVSPost2010PropOp35
 70
     1
102
RTVSPost2010Prop36
280
     0
102
RTVSPost2010PropOp36
 70
     1
102
RTVSPost2010Prop37
 90
       50
102
RTVSPost2010PropOp37
 70
     1
102
RTVSPost2010Prop38
140
0.0
102
RTVSPost2010PropOp38
 70
     1
102
RTVSPost2010Prop39
140
1.0
102
RTVSPost2010PropOp39
 70
     1
102
RTVSPost2010Prop40
 90
        0
102
RTVSPost2010PropOp40
 70
     1
102
RTVSPost2010Prop41ColorIndex
 90
       18
102
RTVSPost2010Prop41ColorRGB
 90
        0
102
RTVSPost2010PropOp41
 70
     1
102
RTVSPost2010Prop42
 90
       50
102
RTVSPost2010PropOp42
 70
     1
102
RTVSPost2010Prop43
 90
        3
102
RTVSPost2010PropOp43
 70
     1
102
RTVSPost2010Prop44ColorIndex
 90
        5
102
RTVSPost2010Prop44ColorRGB
 90
      255
102
RTVSPost2010PropOp44
 70
     1
102
RTVSPost2010Prop45
280
     0
102
RTVSPost2010PropOp45
 70
     1
102
RTVSPost2010Prop46
 90
       50
102
RTVSPost2010PropOp46
 70
     1
102
RTVSPost2010Prop47
 90
       50
102
RTVSPost2010PropOp47
 70
     1
102
RTVSPost2010Prop48
 90
       50
102
RTVSPost2010PropOp48
 70
     1
102
RTVSPost2010Prop49
280
     0
102
RTVSPost2010PropOp49
 70
     1
102
RTVSPost2010Prop50
 90
       50
102
RTVSPost2010PropOp50
 70
     1
102
RTVSPost2010Prop51ColorIndex
 90
      256
102
RTVSPost2010Prop51ColorRGB
 90
-16777216
102
RTVSPost2010PropOp51
 70
     0
102
RTVSPost2010Prop52
140
1.0
102
RTVSPost2010PropOp52
 70
     0
102
RTVSPost2010Prop53
 90
        2
102
RTVSPost2010PropOp53
 70
     1
102
RTVSPost2010Prop54
  1
strokes_ogs.tif
102
RTVSPost2010PropOp54
 70
     1
102
RTVSPost2010Prop55
280
     0
102
RTVSPost2010PropOp55
 70
     1
102
RTVSPost2010Prop56
140
1.0
102
RTVSPost2010PropOp56
 70
     1
102
RTVSPost2010Prop57
140
1.0
102
RTVSPost2010PropOp57
 70
     1
  0
XRECORD
  5
496
102
{ACAD_REACTORS
330
495
102
}
330
495
100
AcDbXrecord
280
     1
102
RTVSPost2010Prop28
280
     0
102
RTVSPost2010PropOp28
 70
     1
102
RTVSPost2010Prop29
280
     1
102
RTVSPost2010PropOp29
 70
     1
102
RTVSPost2010Prop30
280
     1
102
RTVSPost2010PropOp30
 70
     1
102
RTVSPost2010Prop31
280
     0
102
RTVSPost2010PropOp31
 70
     1
102
RTVSPost2010Prop32
280
     0
102
RTVSPost2010PropOp32
 70
     1
102
RTVSPost2010Prop33
280
     0
102
RTVSPost2010PropOp33
 70
     1
102
RTVSPost2010Prop34
280
     0
102
RTVSPost2010PropOp34
 70
     1
102
RTVSPost2010Prop35
280
     0
102
RTVSPost2010PropOp35
 70
     1
102
RTVSPost2010Prop36
280
     0
102
RTVSPost2010PropOp36
 70
     1
102
RTVSPost2010Prop37
 90
       50
102
RTVSPost2010PropOp37
 70
     1
102
RTVSPost2010Prop38
140
0.0
102
RTVSPost2010PropOp38
 70
     1
102
RTVSPost2010Prop39
140
1.0
102
RTVSPost2010PropOp39
 70
     1
102
RTVSPost2010Prop40
 90
        0
102
RTVSPost2010PropOp40
 70
     1
102
RTVSPost2010Prop41ColorIndex
 90
       18
102
RTVSPost2010Prop41ColorRGB
 90
        0
102
RTVSPost2010PropOp41
 70
     1
102
RTVSPost2010Prop42
 90
       50
102
RTVSPost2010PropOp42
 70
     1
102
RTVSPost2010Prop43
 90
        3
102
RTVSPost2010PropOp43
 70
     1
102
RTVSPost2010Prop44ColorIndex
 90
        5
102
RTVSPost2010Prop44ColorRGB
 90
      255
102
RTVSPost2010PropOp44
 70
     1
102
RTVSPost2010Prop45
280
     0
102
RTVSPost2010PropOp45
 70
     1
102
RTVSPost2010Prop46
 90
       50
102
RTVSPost2010PropOp46
 70
     1
102
RTVSPost2010Prop47
 90
       50
102
RTVSPost2010PropOp47
 70
     1
102
RTVSPost2010Prop48
 90
       50
102
RTVSPost2010PropOp48
 70
     1
102
RTVSPost2010Prop49
280
     0
102
RTVSPost2010PropOp49
 70
     1
102
RTVSPost2010Prop50
 90
       50
102
RTVSPost2010PropOp50
 70
     1
102
RTVSPost2010Prop51ColorIndex
 90
      256
102
RTVSPost2010Prop51ColorRGB
 90
-16777216
102
RTVSPost2010PropOp51
 70
     0
102
RTVSPost2010Prop52
140
1.0
102
RTVSPost2010PropOp52
 70
     0
102
RTVSPost2010Prop53
 90
        2
102
RTVSPost2010PropOp53
 70
     1
102
RTVSPost2010Prop54
  1
strokes_ogs.tif
102
RTVSPost2010PropOp54
 70
     1
102
RTVSPost2010Prop55
280
     0
102
RTVSPost2010PropOp55
 70
     1
102
RTVSPost2010Prop56
140
1.0
102
RTVSPost2010PropOp56
 70
     1
102
RTVSPost2010Prop57
140
1.0
102
RTVSPost2010PropOp57
 70
     1
  0
XRECORD
  5
49C
102
{ACAD_REACTORS
330
49B
102
}
330
49B
100
AcDbXrecord
280
     1
102
RTVSPost2010Prop28
280
     0
102
RTVSPost2010PropOp28
 70
     1
102
RTVSPost2010Prop29
280
     1
102
RTVSPost2010PropOp29
 70
     1
102
RTVSPost2010Prop30
280
     1
102
RTVSPost2010PropOp30
 70
     1
102
RTVSPost2010Prop31
280
     0
102
RTVSPost2010PropOp31
 70
     1
102
RTVSPost2010Prop32
280
     0
102
RTVSPost2010PropOp32
 70
     1
102
RTVSPost2010Prop33
280
     0
102
RTVSPost2010PropOp33
 70
     1
102
RTVSPost2010Prop34
280
     0
102
RTVSPost2010PropOp34
 70
     1
102
RTVSPost2010Prop35
280
     0
102
RTVSPost2010PropOp35
 70
     1
102
RTVSPost2010Prop36
280
     0
102
RTVSPost2010PropOp36
 70
     1
102
RTVSPost2010Prop37
 90
       50
102
RTVSPost2010PropOp37
 70
     1
102
RTVSPost2010Prop38
140
0.0
102
RTVSPost2010PropOp38
 70
     1
102
RTVSPost2010Prop39
140
1.0
102
RTVSPost2010PropOp39
 70
     1
102
RTVSPost2010Prop40
 90
        0
102
RTVSPost2010PropOp40
 70
     1
102
RTVSPost2010Prop41ColorIndex
 90
       18
102
RTVSPost2010Prop41ColorRGB
 90
        0
102
RTVSPost2010PropOp41
 70
     1
102
RTVSPost2010Prop42
 90
       50
102
RTVSPost2010PropOp42
 70
     1
102
RTVSPost2010Prop43
 90
        3
102
RTVSPost2010PropOp43
 70
     1
102
RTVSPost2010Prop44ColorIndex
 90
        5
102
RTVSPost2010Prop44ColorRGB
 90
      255
102
RTVSPost2010PropOp44
 70
     1
102
RTVSPost2010Prop45
280
     0
102
RTVSPost2010PropOp45
 70
     1
102
RTVSPost2010Prop46
 90
       50
102
RTVSPost2010PropOp46
 70
     1
102
RTVSPost2010Prop47
 90
       50
102
RTVSPost2010PropOp47
 70
     1
102
RTVSPost2010Prop48
 90
       50
102
RTVSPost2010PropOp48
 70
     1
102
RTVSPost2010Prop49
280
     0
102
RTVSPost2010PropOp49
 70
     1
102
RTVSPost2010Prop50
 90
       50
102
RTVSPost2010PropOp50
 70
     1
102
RTVSPost2010Prop51ColorIndex
 90
      256
102
RTVSPost2010Prop51ColorRGB
 90
-16777216
102
RTVSPost2010PropOp51
 70
     0
102
RTVSPost2010Prop52
140
1.0
102
RTVSPost2010PropOp52
 70
     0
102
RTVSPost2010Prop53
 90
        2
102
RTVSPost2010PropOp53
 70
     1
102
RTVSPost2010Prop54
  1
strokes_ogs.tif
102
RTVSPost2010PropOp54
 70
     1
102
RTVSPost2010Prop55
280
     0
102
RTVSPost2010PropOp55
 70
     1
102
RTVSPost2010Prop56
140
1.0
102
RTVSPost2010PropOp56
 70
     1
102
RTVSPost2010Prop57
140
1.0
102
RTVSPost2010PropOp57
 70
     1
  0
XRECORD
  5
4B0
102
{ACAD_REACTORS
330
4AF
102
}
330
4AF
100
AcDbXrecord
280
     1
102
RTVSPost2010Prop28
280
     0
102
RTVSPost2010PropOp28
 70
     0
102
RTVSPost2010Prop29
280
     1
102
RTVSPost2010PropOp29
 70
     0
102
RTVSPost2010Prop30
280
     1
102
RTVSPost2010PropOp30
 70
     0
102
RTVSPost2010Prop31
280
     0
102
RTVSPost2010PropOp31
 70
     0
102
RTVSPost2010Prop32
280
     0
102
RTVSPost2010PropOp32
 70
     0
102
RTVSPost2010Prop33
280
     0
102
RTVSPost2010PropOp33
 70
     0
102
RTVSPost2010Prop34
280
     0
102
RTVSPost2010PropOp34
 70
     0
102
RTVSPost2010Prop35
280
     0
102
RTVSPost2010PropOp35
 70
     0
102
RTVSPost2010Prop36
280
     0
102
RTVSPost2010PropOp36
 70
     0
102
RTVSPost2010Prop37
 90
       50
102
RTVSPost2010PropOp37
 70
     0
102
RTVSPost2010Prop38
140
0.0
102
RTVSPost2010PropOp38
 70
     0
102
RTVSPost2010Prop39
140
1.0
102
RTVSPost2010PropOp39
 70
     0
102
RTVSPost2010Prop40
 90
        0
102
RTVSPost2010PropOp40
 70
     0
102
RTVSPost2010Prop41ColorIndex
 90
       18
102
RTVSPost2010Prop41ColorRGB
 90
        0
102
RTVSPost2010PropOp41
 70
     0
102
RTVSPost2010Prop42
 90
       50
102
RTVSPost2010PropOp42
 70
     0
102
RTVSPost2010Prop43
 90
        3
102
RTVSPost2010PropOp43
 70
     0
102
RTVSPost2010Prop44ColorIndex
 90
        5
102
RTVSPost2010Prop44ColorRGB
 90
      255
102
RTVSPost2010PropOp44
 70
     0
102
RTVSPost2010Prop45
280
     0
102
RTVSPost2010PropOp45
 70
     0
102
RTVSPost2010Prop46
 90
       50
102
RTVSPost2010PropOp46
 70
     0
102
RTVSPost2010Prop47
 90
       50
102
RTVSPost2010PropOp47
 70
     0
102
RTVSPost2010Prop48
 90
       50
102
RTVSPost2010PropOp48
 70
     0
102
RTVSPost2010Prop49
280
     0
102
RTVSPost2010PropOp49
 70
     0
102
RTVSPost2010Prop50
 90
       50
102
RTVSPost2010PropOp50
 70
     0
102
RTVSPost2010Prop51ColorIndex
 90
      256
102
RTVSPost2010Prop51ColorRGB
 90
-16777216
102
RTVSPost2010PropOp51
 70
     0
102
RTVSPost2010Prop52
140
1.0
102
RTVSPost2010PropOp52
 70
     0
102
RTVSPost2010Prop53
 90
        2
102
RTVSPost2010PropOp53
 70
     0
102
RTVSPost2010Prop54
  1
strokes_ogs.tif
102
RTVSPost2010PropOp54
 70
     0
102
RTVSPost2010Prop55
280
     0
102
RTVSPost2010PropOp55
 70
     0
102
RTVSPost2010Prop56
140
1.0
102
RTVSPost2010PropOp56
 70
     0
102
RTVSPost2010Prop57
140
1.0
102
RTVSPost2010PropOp57
 70
     0
  0
XRECORD
  5
4AA
102
{ACAD_REACTORS
330
4A9
102
}
330
4A9
100
AcDbXrecord
280
     1
102
RTVSPost2010Prop28
280
     0
102
RTVSPost2010PropOp28
 70
     1
102
RTVSPost2010Prop29
280
     1
102
RTVSPost2010PropOp29
 70
     1
102
RTVSPost2010Prop30
280
     1
102
RTVSPost2010PropOp30
 70
     1
102
RTVSPost2010Prop31
280
     0
102
RTVSPost2010PropOp31
 70
     1
102
RTVSPost2010Prop32
280
     0
102
RTVSPost2010PropOp32
 70
     1
102
RTVSPost2010Prop33
280
     0
102
RTVSPost2010PropOp33
 70
     1
102
RTVSPost2010Prop34
280
     0
102
RTVSPost2010PropOp34
 70
     1
102
RTVSPost2010Prop35
280
     0
102
RTVSPost2010PropOp35
 70
     1
102
RTVSPost2010Prop36
280
     0
102
RTVSPost2010PropOp36
 70
     1
102
RTVSPost2010Prop37
 90
       50
102
RTVSPost2010PropOp37
 70
     1
102
RTVSPost2010Prop38
140
0.0
102
RTVSPost2010PropOp38
 70
     1
102
RTVSPost2010Prop39
140
1.0
102
RTVSPost2010PropOp39
 70
     1
102
RTVSPost2010Prop40
 90
        0
102
RTVSPost2010PropOp40
 70
     1
102
RTVSPost2010Prop41ColorIndex
 90
       18
102
RTVSPost2010Prop41ColorRGB
 90
        0
102
RTVSPost2010PropOp41
 70
     1
102
RTVSPost2010Prop42
 90
       50
102
RTVSPost2010PropOp42
 70
     1
102
RTVSPost2010Prop43
 90
        3
102
RTVSPost2010PropOp43
 70
     1
102
RTVSPost2010Prop44ColorIndex
 90
        5
102
RTVSPost2010Prop44ColorRGB
 90
      255
102
RTVSPost2010PropOp44
 70
     1
102
RTVSPost2010Prop45
280
     0
102
RTVSPost2010PropOp45
 70
     1
102
RTVSPost2010Prop46
 90
       50
102
RTVSPost2010PropOp46
 70
     1
102
RTVSPost2010Prop47
 90
       50
102
RTVSPost2010PropOp47
 70
     1
102
RTVSPost2010Prop48
 90
       50
102
RTVSPost2010PropOp48
 70
     1
102
RTVSPost2010Prop49
280
     0
102
RTVSPost2010PropOp49
 70
     1
102
RTVSPost2010Prop50
 90
       50
102
RTVSPost2010PropOp50
 70
     1
102
RTVSPost2010Prop51ColorIndex
 90
      256
102
RTVSPost2010Prop51ColorRGB
 90
-16777216
102
RTVSPost2010PropOp51
 70
     0
102
RTVSPost2010Prop52
140
1.0
102
RTVSPost2010PropOp52
 70
     0
102
RTVSPost2010Prop53
 90
        2
102
RTVSPost2010PropOp53
 70
     1
102
RTVSPost2010Prop54
  1
strokes_ogs.tif
102
RTVSPost2010PropOp54
 70
     1
102
RTVSPost2010Prop55
280
     0
102
RTVSPost2010PropOp55
 70
     1
102
RTVSPost2010Prop56
140
1.0
102
RTVSPost2010PropOp56
 70
     1
102
RTVSPost2010Prop57
140
1.0
102
RTVSPost2010PropOp57
 70
     1
  0
XRECORD
  5
4B2
102
{ACAD_REACTORS
330
4B1
102
}
330
4B1
100
AcDbXrecord
280
     1
102
RTVSPost2010Prop28
280
     0
102
RTVSPost2010PropOp28
 70
     0
102
RTVSPost2010Prop29
280
     1
102
RTVSPost2010PropOp29
 70
     0
102
RTVSPost2010Prop30
280
     1
102
RTVSPost2010PropOp30
 70
     0
102
RTVSPost2010Prop31
280
     0
102
RTVSPost2010PropOp31
 70
     0
102
RTVSPost2010Prop32
280
     0
102
RTVSPost2010PropOp32
 70
     0
102
RTVSPost2010Prop33
280
     0
102
RTVSPost2010PropOp33
 70
     0
102
RTVSPost2010Prop34
280
     0
102
RTVSPost2010PropOp34
 70
     0
102
RTVSPost2010Prop35
280
     0
102
RTVSPost2010PropOp35
 70
     0
102
RTVSPost2010Prop36
280
     0
102
RTVSPost2010PropOp36
 70
     0
102
RTVSPost2010Prop37
 90
       50
102
RTVSPost2010PropOp37
 70
     0
102
RTVSPost2010Prop38
140
0.0
102
RTVSPost2010PropOp38
 70
     0
102
RTVSPost2010Prop39
140
1.0
102
RTVSPost2010PropOp39
 70
     0
102
RTVSPost2010Prop40
 90
        0
102
RTVSPost2010PropOp40
 70
     0
102
RTVSPost2010Prop41ColorIndex
 90
       18
102
RTVSPost2010Prop41ColorRGB
 90
        0
102
RTVSPost2010PropOp41
 70
     0
102
RTVSPost2010Prop42
 90
       50
102
RTVSPost2010PropOp42
 70
     0
102
RTVSPost2010Prop43
 90
        3
102
RTVSPost2010PropOp43
 70
     0
102
RTVSPost2010Prop44ColorIndex
 90
        5
102
RTVSPost2010Prop44ColorRGB
 90
      255
102
RTVSPost2010PropOp44
 70
     0
102
RTVSPost2010Prop45
280
     0
102
RTVSPost2010PropOp45
 70
     0
102
RTVSPost2010Prop46
 90
       50
102
RTVSPost2010PropOp46
 70
     0
102
RTVSPost2010Prop47
 90
       50
102
RTVSPost2010PropOp47
 70
     0
102
RTVSPost2010Prop48
 90
       50
102
RTVSPost2010PropOp48
 70
     0
102
RTVSPost2010Prop49
280
     0
102
RTVSPost2010PropOp49
 70
     0
102
RTVSPost2010Prop50
 90
       50
102
RTVSPost2010PropOp50
 70
     0
102
RTVSPost2010Prop51ColorIndex
 90
      256
102
RTVSPost2010Prop51ColorRGB
 90
-16777216
102
RTVSPost2010PropOp51
 70
     0
102
RTVSPost2010Prop52
140
1.0
102
RTVSPost2010PropOp52
 70
     0
102
RTVSPost2010Prop53
 90
        2
102
RTVSPost2010PropOp53
 70
     0
102
RTVSPost2010Prop54
  1
strokes_ogs.tif
102
RTVSPost2010PropOp54
 70
     0
102
RTVSPost2010Prop55
280
     0
102
RTVSPost2010PropOp55
 70
     0
102
RTVSPost2010Prop56
140
1.0
102
RTVSPost2010PropOp56
 70
     0
102
RTVSPost2010Prop57
140
1.0
102
RTVSPost2010PropOp57
 70
     0
  0
XRECORD
  5
4A0
102
{ACAD_REACTORS
330
49F
102
}
330
49F
100
AcDbXrecord
280
     1
102
RTVSPost2010Prop28
280
     0
102
RTVSPost2010PropOp28
 70
     1
102
RTVSPost2010Prop29
280
     1
102
RTVSPost2010PropOp29
 70
     1
102
RTVSPost2010Prop30
280
     1
102
RTVSPost2010PropOp30
 70
     1
102
RTVSPost2010Prop31
280
     0
102
RTVSPost2010PropOp31
 70
     1
102
RTVSPost2010Prop32
280
     0
102
RTVSPost2010PropOp32
 70
     1
102
RTVSPost2010Prop33
280
     0
102
RTVSPost2010PropOp33
 70
     1
102
RTVSPost2010Prop34
280
     0
102
RTVSPost2010PropOp34
 70
     1
102
RTVSPost2010Prop35
280
     0
102
RTVSPost2010PropOp35
 70
     1
102
RTVSPost2010Prop36
280
     0
102
RTVSPost2010PropOp36
 70
     1
102
RTVSPost2010Prop37
 90
       50
102
RTVSPost2010PropOp37
 70
     1
102
RTVSPost2010Prop38
140
0.0
102
RTVSPost2010PropOp38
 70
     1
102
RTVSPost2010Prop39
140
1.0
102
RTVSPost2010PropOp39
 70
     1
102
RTVSPost2010Prop40
 90
        0
102
RTVSPost2010PropOp40
 70
     1
102
RTVSPost2010Prop41ColorIndex
 90
       18
102
RTVSPost2010Prop41ColorRGB
 90
        0
102
RTVSPost2010PropOp41
 70
     1
102
RTVSPost2010Prop42
 90
       50
102
RTVSPost2010PropOp42
 70
     1
102
RTVSPost2010Prop43
 90
        3
102
RTVSPost2010PropOp43
 70
     1
102
RTVSPost2010Prop44ColorIndex
 90
        5
102
RTVSPost2010Prop44ColorRGB
 90
      255
102
RTVSPost2010PropOp44
 70
     1
102
RTVSPost2010Prop45
280
     0
102
RTVSPost2010PropOp45
 70
     1
102
RTVSPost2010Prop46
 90
       50
102
RTVSPost2010PropOp46
 70
     1
102
RTVSPost2010Prop47
 90
       50
102
RTVSPost2010PropOp47
 70
     1
102
RTVSPost2010Prop48
 90
       50
102
RTVSPost2010PropOp48
 70
     1
102
RTVSPost2010Prop49
280
     0
102
RTVSPost2010PropOp49
 70
     1
102
RTVSPost2010Prop50
 90
       50
102
RTVSPost2010PropOp50
 70
     1
102
RTVSPost2010Prop51ColorIndex
 90
      256
102
RTVSPost2010Prop51ColorRGB
 90
-16777216
102
RTVSPost2010PropOp51
 70
     0
102
RTVSPost2010Prop52
140
1.0
102
RTVSPost2010PropOp52
 70
     0
102
RTVSPost2010Prop53
 90
        2
102
RTVSPost2010PropOp53
 70
     1
102
RTVSPost2010Prop54
  1
strokes_ogs.tif
102
RTVSPost2010PropOp54
 70
     1
102
RTVSPost2010Prop55
280
     0
102
RTVSPost2010PropOp55
 70
     1
102
RTVSPost2010Prop56
140
1.0
102
RTVSPost2010PropOp56
 70
     1
102
RTVSPost2010Prop57
140
1.0
102
RTVSPost2010PropOp57
 70
     1
  0
XRECORD
  5
4BE
102
{ACAD_REACTORS
330
4BD
102
}
330
4BD
100
AcDbXrecord
280
     1
102
RTVSPost2010Prop28
280
     0
102
RTVSPost2010PropOp28
 70
     1
102
RTVSPost2010Prop29
280
     1
102
RTVSPost2010PropOp29
 70
     1
102
RTVSPost2010Prop30
280
     1
102
RTVSPost2010PropOp30
 70
     1
102
RTVSPost2010Prop31
280
     0
102
RTVSPost2010PropOp31
 70
     1
102
RTVSPost2010Prop32
280
     0
102
RTVSPost2010PropOp32
 70
     1
102
RTVSPost2010Prop33
280
     0
102
RTVSPost2010PropOp33
 70
     1
102
RTVSPost2010Prop34
280
     0
102
RTVSPost2010PropOp34
 70
     1
102
RTVSPost2010Prop35
280
     0
102
RTVSPost2010PropOp35
 70
     1
102
RTVSPost2010Prop36
280
     0
102
RTVSPost2010PropOp36
 70
     1
102
RTVSPost2010Prop37
 90
       50
102
RTVSPost2010PropOp37
 70
     1
102
RTVSPost2010Prop38
140
0.0
102
RTVSPost2010PropOp38
 70
     1
102
RTVSPost2010Prop39
140
1.0
102
RTVSPost2010PropOp39
 70
     1
102
RTVSPost2010Prop40
 90
        0
102
RTVSPost2010PropOp40
 70
     1
102
RTVSPost2010Prop41ColorIndex
 90
       18
102
RTVSPost2010Prop41ColorRGB
 90
        0
102
RTVSPost2010PropOp41
 70
     1
102
RTVSPost2010Prop42
 90
       50
102
RTVSPost2010PropOp42
 70
     1
102
RTVSPost2010Prop43
 90
        3
102
RTVSPost2010PropOp43
 70
     1
102
RTVSPost2010Prop44ColorIndex
 90
        5
102
RTVSPost2010Prop44ColorRGB
 90
      255
102
RTVSPost2010PropOp44
 70
     1
102
RTVSPost2010Prop45
280
     0
102
RTVSPost2010PropOp45
 70
     1
102
RTVSPost2010Prop46
 90
       50
102
RTVSPost2010PropOp46
 70
     1
102
RTVSPost2010Prop47
 90
       50
102
RTVSPost2010PropOp47
 70
     1
102
RTVSPost2010Prop48
 90
       50
102
RTVSPost2010PropOp48
 70
     1
102
RTVSPost2010Prop49
280
     0
102
RTVSPost2010PropOp49
 70
     1
102
RTVSPost2010Prop50
 90
       50
102
RTVSPost2010PropOp50
 70
     1
102
RTVSPost2010Prop51ColorIndex
 90
      256
102
RTVSPost2010Prop51ColorRGB
 90
-16777216
102
RTVSPost2010PropOp51
 70
     0
102
RTVSPost2010Prop52
140
1.0
102
RTVSPost2010PropOp52
 70
     0
102
RTVSPost2010Prop53
 90
        2
102
RTVSPost2010PropOp53
 70
     1
102
RTVSPost2010Prop54
  1
strokes_ogs.tif
102
RTVSPost2010PropOp54
 70
     1
102
RTVSPost2010Prop55
280
     0
102
RTVSPost2010PropOp55
 70
     1
102
RTVSPost2010Prop56
140
1.0
102
RTVSPost2010PropOp56
 70
     1
102
RTVSPost2010Prop57
140
1.0
102
RTVSPost2010PropOp57
 70
     1
  0
XRECORD
  5
4BC
102
{ACAD_REACTORS
330
4BB
102
}
330
4BB
100
AcDbXrecord
280
     1
102
RTVSPost2010Prop28
280
     0
102
RTVSPost2010PropOp28
 70
     1
102
RTVSPost2010Prop29
280
     1
102
RTVSPost2010PropOp29
 70
     1
102
RTVSPost2010Prop30
280
     1
102
RTVSPost2010PropOp30
 70
     1
102
RTVSPost2010Prop31
280
     0
102
RTVSPost2010PropOp31
 70
     1
102
RTVSPost2010Prop32
280
     0
102
RTVSPost2010PropOp32
 70
     1
102
RTVSPost2010Prop33
280
     0
102
RTVSPost2010PropOp33
 70
     1
102
RTVSPost2010Prop34
280
     0
102
RTVSPost2010PropOp34
 70
     1
102
RTVSPost2010Prop35
280
     0
102
RTVSPost2010PropOp35
 70
     1
102
RTVSPost2010Prop36
280
     0
102
RTVSPost2010PropOp36
 70
     1
102
RTVSPost2010Prop37
 90
       50
102
RTVSPost2010PropOp37
 70
     1
102
RTVSPost2010Prop38
140
0.0
102
RTVSPost2010PropOp38
 70
     1
102
RTVSPost2010Prop39
140
1.0
102
RTVSPost2010PropOp39
 70
     1
102
RTVSPost2010Prop40
 90
        0
102
RTVSPost2010PropOp40
 70
     1
102
RTVSPost2010Prop41ColorIndex
 90
       18
102
RTVSPost2010Prop41ColorRGB
 90
        0
102
RTVSPost2010PropOp41
 70
     1
102
RTVSPost2010Prop42
 90
       50
102
RTVSPost2010PropOp42
 70
     1
102
RTVSPost2010Prop43
 90
        3
102
RTVSPost2010PropOp43
 70
     1
102
RTVSPost2010Prop44ColorIndex
 90
        5
102
RTVSPost2010Prop44ColorRGB
 90
      255
102
RTVSPost2010PropOp44
 70
     1
102
RTVSPost2010Prop45
280
     0
102
RTVSPost2010PropOp45
 70
     1
102
RTVSPost2010Prop46
 90
       50
102
RTVSPost2010PropOp46
 70
     1
102
RTVSPost2010Prop47
 90
       50
102
RTVSPost2010PropOp47
 70
     1
102
RTVSPost2010Prop48
 90
       50
102
RTVSPost2010PropOp48
 70
     1
102
RTVSPost2010Prop49
280
     0
102
RTVSPost2010PropOp49
 70
     1
102
RTVSPost2010Prop50
 90
       50
102
RTVSPost2010PropOp50
 70
     1
102
RTVSPost2010Prop51ColorIndex
 90
      256
102
RTVSPost2010Prop51ColorRGB
 90
-16777216
102
RTVSPost2010PropOp51
 70
     0
102
RTVSPost2010Prop52
140
1.0
102
RTVSPost2010PropOp52
 70
     0
102
RTVSPost2010Prop53
 90
        2
102
RTVSPost2010PropOp53
 70
     1
102
RTVSPost2010Prop54
  1
strokes_ogs.tif
102
RTVSPost2010PropOp54
 70
     1
102
RTVSPost2010Prop55
280
     0
102
RTVSPost2010PropOp55
 70
     1
102
RTVSPost2010Prop56
140
1.0
102
RTVSPost2010PropOp56
 70
     1
102
RTVSPost2010Prop57
140
1.0
102
RTVSPost2010PropOp57
 70
     1
  0
XRECORD
  5
4B6
102
{ACAD_REACTORS
330
4B5
102
}
330
4B5
100
AcDbXrecord
280
     1
102
RTVSPost2010Prop28
280
     0
102
RTVSPost2010PropOp28
 70
     1
102
RTVSPost2010Prop29
280
     1
102
RTVSPost2010PropOp29
 70
     1
102
RTVSPost2010Prop30
280
     1
102
RTVSPost2010PropOp30
 70
     1
102
RTVSPost2010Prop31
280
     0
102
RTVSPost2010PropOp31
 70
     1
102
RTVSPost2010Prop32
280
     0
102
RTVSPost2010PropOp32
 70
     1
102
RTVSPost2010Prop33
280
     0
102
RTVSPost2010PropOp33
 70
     1
102
RTVSPost2010Prop34
280
     0
102
RTVSPost2010PropOp34
 70
     1
102
RTVSPost2010Prop35
280
     0
102
RTVSPost2010PropOp35
 70
     1
102
RTVSPost2010Prop36
280
     0
102
RTVSPost2010PropOp36
 70
     1
102
RTVSPost2010Prop37
 90
       50
102
RTVSPost2010PropOp37
 70
     1
102
RTVSPost2010Prop38
140
0.0
102
RTVSPost2010PropOp38
 70
     1
102
RTVSPost2010Prop39
140
1.0
102
RTVSPost2010PropOp39
 70
     1
102
RTVSPost2010Prop40
 90
        0
102
RTVSPost2010PropOp40
 70
     1
102
RTVSPost2010Prop41ColorIndex
 90
       18
102
RTVSPost2010Prop41ColorRGB
 90
        0
102
RTVSPost2010PropOp41
 70
     1
102
RTVSPost2010Prop42
 90
       50
102
RTVSPost2010PropOp42
 70
     1
102
RTVSPost2010Prop43
 90
        3
102
RTVSPost2010PropOp43
 70
     1
102
RTVSPost2010Prop44ColorIndex
 90
        5
102
RTVSPost2010Prop44ColorRGB
 90
      255
102
RTVSPost2010PropOp44
 70
     1
102
RTVSPost2010Prop45
280
     0
102
RTVSPost2010PropOp45
 70
     1
102
RTVSPost2010Prop46
 90
       50
102
RTVSPost2010PropOp46
 70
     1
102
RTVSPost2010Prop47
 90
       50
102
RTVSPost2010PropOp47
 70
     1
102
RTVSPost2010Prop48
 90
       50
102
RTVSPost2010PropOp48
 70
     1
102
RTVSPost2010Prop49
280
     0
102
RTVSPost2010PropOp49
 70
     1
102
RTVSPost2010Prop50
 90
       50
102
RTVSPost2010PropOp50
 70
     1
102
RTVSPost2010Prop51ColorIndex
 90
      256
102
RTVSPost2010Prop51ColorRGB
 90
-16777216
102
RTVSPost2010PropOp51
 70
     0
102
RTVSPost2010Prop52
140
1.0
102
RTVSPost2010PropOp52
 70
     0
102
RTVSPost2010Prop53
 90
        2
102
RTVSPost2010PropOp53
 70
     1
102
RTVSPost2010Prop54
  1
strokes_ogs.tif
102
RTVSPost2010PropOp54
 70
     1
102
RTVSPost2010Prop55
280
     0
102
RTVSPost2010PropOp55
 70
     1
102
RTVSPost2010Prop56
140
1.0
102
RTVSPost2010PropOp56
 70
     1
102
RTVSPost2010Prop57
140
1.0
102
RTVSPost2010PropOp57
 70
     1
  0
XRECORD
  5
4B8
102
{ACAD_REACTORS
330
4B7
102
}
330
4B7
100
AcDbXrecord
280
     1
102
RTVSPost2010Prop28
280
     0
102
RTVSPost2010PropOp28
 70
     1
102
RTVSPost2010Prop29
280
     1
102
RTVSPost2010PropOp29
 70
     1
102
RTVSPost2010Prop30
280
     1
102
RTVSPost2010PropOp30
 70
     1
102
RTVSPost2010Prop31
280
     0
102
RTVSPost2010PropOp31
 70
     1
102
RTVSPost2010Prop32
280
     0
102
RTVSPost2010PropOp32
 70
     1
102
RTVSPost2010Prop33
280
     0
102
RTVSPost2010PropOp33
 70
     1
102
RTVSPost2010Prop34
280
     0
102
RTVSPost2010PropOp34
 70
     1
102
RTVSPost2010Prop35
280
     0
102
RTVSPost2010PropOp35
 70
     1
102
RTVSPost2010Prop36
280
     0
102
RTVSPost2010PropOp36
 70
     1
102
RTVSPost2010Prop37
 90
       50
102
RTVSPost2010PropOp37
 70
     1
102
RTVSPost2010Prop38
140
0.0
102
RTVSPost2010PropOp38
 70
     1
102
RTVSPost2010Prop39
140
1.0
102
RTVSPost2010PropOp39
 70
     1
102
RTVSPost2010Prop40
 90
        0
102
RTVSPost2010PropOp40
 70
     1
102
RTVSPost2010Prop41ColorIndex
 90
       18
102
RTVSPost2010Prop41ColorRGB
 90
        0
102
RTVSPost2010PropOp41
 70
     1
102
RTVSPost2010Prop42
 90
       50
102
RTVSPost2010PropOp42
 70
     1
102
RTVSPost2010Prop43
 90
        3
102
RTVSPost2010PropOp43
 70
     1
102
RTVSPost2010Prop44ColorIndex
 90
        5
102
RTVSPost2010Prop44ColorRGB
 90
      255
102
RTVSPost2010PropOp44
 70
     1
102
RTVSPost2010Prop45
280
     0
102
RTVSPost2010PropOp45
 70
     1
102
RTVSPost2010Prop46
 90
       50
102
RTVSPost2010PropOp46
 70
     1
102
RTVSPost2010Prop47
 90
       50
102
RTVSPost2010PropOp47
 70
     1
102
RTVSPost2010Prop48
 90
       50
102
RTVSPost2010PropOp48
 70
     1
102
RTVSPost2010Prop49
280
     0
102
RTVSPost2010PropOp49
 70
     1
102
RTVSPost2010Prop50
 90
       50
102
RTVSPost2010PropOp50
 70
     1
102
RTVSPost2010Prop51ColorIndex
 90
      256
102
RTVSPost2010Prop51ColorRGB
 90
-16777216
102
RTVSPost2010PropOp51
 70
     0
102
RTVSPost2010Prop52
140
1.0
102
RTVSPost2010PropOp52
 70
     0
102
RTVSPost2010Prop53
 90
        2
102
RTVSPost2010PropOp53
 70
     1
102
RTVSPost2010Prop54
  1
strokes_ogs.tif
102
RTVSPost2010PropOp54
 70
     1
102
RTVSPost2010Prop55
280
     0
102
RTVSPost2010PropOp55
 70
     1
102
RTVSPost2010Prop56
140
1.0
102
RTVSPost2010PropOp56
 70
     1
102
RTVSPost2010Prop57
140
1.0
102
RTVSPost2010PropOp57
 70
     1
  0
XRECORD
  5
4A8
102
{ACAD_REACTORS
330
4A7
102
}
330
4A7
100
AcDbXrecord
280
     1
102
RTVSPost2010Prop28
280
     0
102
RTVSPost2010PropOp28
 70
     1
102
RTVSPost2010Prop29
280
     1
102
RTVSPost2010PropOp29
 70
     1
102
RTVSPost2010Prop30
280
     1
102
RTVSPost2010PropOp30
 70
     1
102
RTVSPost2010Prop31
280
     0
102
RTVSPost2010PropOp31
 70
     1
102
RTVSPost2010Prop32
280
     0
102
RTVSPost2010PropOp32
 70
     1
102
RTVSPost2010Prop33
280
     0
102
RTVSPost2010PropOp33
 70
     1
102
RTVSPost2010Prop34
280
     0
102
RTVSPost2010PropOp34
 70
     1
102
RTVSPost2010Prop35
280
     0
102
RTVSPost2010PropOp35
 70
     1
102
RTVSPost2010Prop36
280
     0
102
RTVSPost2010PropOp36
 70
     1
102
RTVSPost2010Prop37
 90
       50
102
RTVSPost2010PropOp37
 70
     1
102
RTVSPost2010Prop38
140
0.0
102
RTVSPost2010PropOp38
 70
     1
102
RTVSPost2010Prop39
140
1.0
102
RTVSPost2010PropOp39
 70
     1
102
RTVSPost2010Prop40
 90
        0
102
RTVSPost2010PropOp40
 70
     1
102
RTVSPost2010Prop41ColorIndex
 90
       18
102
RTVSPost2010Prop41ColorRGB
 90
        0
102
RTVSPost2010PropOp41
 70
     1
102
RTVSPost2010Prop42
 90
       50
102
RTVSPost2010PropOp42
 70
     1
102
RTVSPost2010Prop43
 90
        3
102
RTVSPost2010PropOp43
 70
     1
102
RTVSPost2010Prop44ColorIndex
 90
        5
102
RTVSPost2010Prop44ColorRGB
 90
      255
102
RTVSPost2010PropOp44
 70
     1
102
RTVSPost2010Prop45
280
     0
102
RTVSPost2010PropOp45
 70
     1
102
RTVSPost2010Prop46
 90
       50
102
RTVSPost2010PropOp46
 70
     1
102
RTVSPost2010Prop47
 90
       50
102
RTVSPost2010PropOp47
 70
     1
102
RTVSPost2010Prop48
 90
       50
102
RTVSPost2010PropOp48
 70
     1
102
RTVSPost2010Prop49
280
     0
102
RTVSPost2010PropOp49
 70
     1
102
RTVSPost2010Prop50
 90
       50
102
RTVSPost2010PropOp50
 70
     1
102
RTVSPost2010Prop51ColorIndex
 90
      256
102
RTVSPost2010Prop51ColorRGB
 90
-16777216
102
RTVSPost2010PropOp51
 70
     0
102
RTVSPost2010Prop52
140
1.0
102
RTVSPost2010PropOp52
 70
     0
102
RTVSPost2010Prop53
 90
        2
102
RTVSPost2010PropOp53
 70
     1
102
RTVSPost2010Prop54
  1
strokes_ogs.tif
102
RTVSPost2010PropOp54
 70
     1
102
RTVSPost2010Prop55
280
     0
102
RTVSPost2010PropOp55
 70
     1
102
RTVSPost2010Prop56
140
1.0
102
RTVSPost2010PropOp56
 70
     1
102
RTVSPost2010Prop57
140
1.0
102
RTVSPost2010PropOp57
 70
     1
  0
XRECORD
  5
49A
102
{ACAD_REACTORS
330
499
102
}
330
499
100
AcDbXrecord
280
     1
102
RTVSPost2010Prop28
280
     0
102
RTVSPost2010PropOp28
 70
     1
102
RTVSPost2010Prop29
280
     1
102
RTVSPost2010PropOp29
 70
     1
102
RTVSPost2010Prop30
280
     1
102
RTVSPost2010PropOp30
 70
     1
102
RTVSPost2010Prop31
280
     0
102
RTVSPost2010PropOp31
 70
     1
102
RTVSPost2010Prop32
280
     0
102
RTVSPost2010PropOp32
 70
     1
102
RTVSPost2010Prop33
280
     0
102
RTVSPost2010PropOp33
 70
     1
102
RTVSPost2010Prop34
280
     0
102
RTVSPost2010PropOp34
 70
     1
102
RTVSPost2010Prop35
280
     0
102
RTVSPost2010PropOp35
 70
     1
102
RTVSPost2010Prop36
280
     0
102
RTVSPost2010PropOp36
 70
     1
102
RTVSPost2010Prop37
 90
       50
102
RTVSPost2010PropOp37
 70
     1
102
RTVSPost2010Prop38
140
0.0
102
RTVSPost2010PropOp38
 70
     1
102
RTVSPost2010Prop39
140
1.0
102
RTVSPost2010PropOp39
 70
     1
102
RTVSPost2010Prop40
 90
        0
102
RTVSPost2010PropOp40
 70
     1
102
RTVSPost2010Prop41ColorIndex
 90
       18
102
RTVSPost2010Prop41ColorRGB
 90
        0
102
RTVSPost2010PropOp41
 70
     1
102
RTVSPost2010Prop42
 90
       50
102
RTVSPost2010PropOp42
 70
     1
102
RTVSPost2010Prop43
 90
        3
102
RTVSPost2010PropOp43
 70
     1
102
RTVSPost2010Prop44ColorIndex
 90
        5
102
RTVSPost2010Prop44ColorRGB
 90
      255
102
RTVSPost2010PropOp44
 70
     1
102
RTVSPost2010Prop45
280
     0
102
RTVSPost2010PropOp45
 70
     1
102
RTVSPost2010Prop46
 90
       50
102
RTVSPost2010PropOp46
 70
     1
102
RTVSPost2010Prop47
 90
       50
102
RTVSPost2010PropOp47
 70
     1
102
RTVSPost2010Prop48
 90
       50
102
RTVSPost2010PropOp48
 70
     1
102
RTVSPost2010Prop49
280
     0
102
RTVSPost2010PropOp49
 70
     1
102
RTVSPost2010Prop50
 90
       50
102
RTVSPost2010PropOp50
 70
     1
102
RTVSPost2010Prop51ColorIndex
 90
      256
102
RTVSPost2010Prop51ColorRGB
 90
-16777216
102
RTVSPost2010PropOp51
 70
     0
102
RTVSPost2010Prop52
140
1.0
102
RTVSPost2010PropOp52
 70
     0
102
RTVSPost2010Prop53
 90
        2
102
RTVSPost2010PropOp53
 70
     1
102
RTVSPost2010Prop54
  1
strokes_ogs.tif
102
RTVSPost2010PropOp54
 70
     1
102
RTVSPost2010Prop55
280
     0
102
RTVSPost2010PropOp55
 70
     1
102
RTVSPost2010Prop56
140
1.0
102
RTVSPost2010PropOp56
 70
     1
102
RTVSPost2010Prop57
140
1.0
102
RTVSPost2010PropOp57
 70
     1
  0
XRECORD
  5
4BA
102
{ACAD_REACTORS
330
4B9
102
}
330
4B9
100
AcDbXrecord
280
     1
102
RTVSPost2010Prop28
280
     0
102
RTVSPost2010PropOp28
 70
     1
102
RTVSPost2010Prop29
280
     1
102
RTVSPost2010PropOp29
 70
     1
102
RTVSPost2010Prop30
280
     1
102
RTVSPost2010PropOp30
 70
     1
102
RTVSPost2010Prop31
280
     0
102
RTVSPost2010PropOp31
 70
     1
102
RTVSPost2010Prop32
280
     0
102
RTVSPost2010PropOp32
 70
     1
102
RTVSPost2010Prop33
280
     0
102
RTVSPost2010PropOp33
 70
     1
102
RTVSPost2010Prop34
280
     0
102
RTVSPost2010PropOp34
 70
     1
102
RTVSPost2010Prop35
280
     0
102
RTVSPost2010PropOp35
 70
     1
102
RTVSPost2010Prop36
280
     0
102
RTVSPost2010PropOp36
 70
     1
102
RTVSPost2010Prop37
 90
       50
102
RTVSPost2010PropOp37
 70
     1
102
RTVSPost2010Prop38
140
0.0
102
RTVSPost2010PropOp38
 70
     1
102
RTVSPost2010Prop39
140
1.0
102
RTVSPost2010PropOp39
 70
     1
102
RTVSPost2010Prop40
 90
        0
102
RTVSPost2010PropOp40
 70
     1
102
RTVSPost2010Prop41ColorIndex
 90
       18
102
RTVSPost2010Prop41ColorRGB
 90
        0
102
RTVSPost2010PropOp41
 70
     1
102
RTVSPost2010Prop42
 90
       50
102
RTVSPost2010PropOp42
 70
     1
102
RTVSPost2010Prop43
 90
        3
102
RTVSPost2010PropOp43
 70
     1
102
RTVSPost2010Prop44ColorIndex
 90
        5
102
RTVSPost2010Prop44ColorRGB
 90
      255
102
RTVSPost2010PropOp44
 70
     1
102
RTVSPost2010Prop45
280
     0
102
RTVSPost2010PropOp45
 70
     1
102
RTVSPost2010Prop46
 90
       50
102
RTVSPost2010PropOp46
 70
     1
102
RTVSPost2010Prop47
 90
       50
102
RTVSPost2010PropOp47
 70
     1
102
RTVSPost2010Prop48
 90
       50
102
RTVSPost2010PropOp48
 70
     1
102
RTVSPost2010Prop49
280
     0
102
RTVSPost2010PropOp49
 70
     1
102
RTVSPost2010Prop50
 90
       50
102
RTVSPost2010PropOp50
 70
     1
102
RTVSPost2010Prop51ColorIndex
 90
      256
102
RTVSPost2010Prop51ColorRGB
 90
-16777216
102
RTVSPost2010PropOp51
 70
     0
102
RTVSPost2010Prop52
140
1.0
102
RTVSPost2010PropOp52
 70
     0
102
RTVSPost2010Prop53
 90
        2
102
RTVSPost2010PropOp53
 70
     1
102
RTVSPost2010Prop54
  1
strokes_ogs.tif
102
RTVSPost2010PropOp54
 70
     1
102
RTVSPost2010Prop55
280
     0
102
RTVSPost2010PropOp55
 70
     1
102
RTVSPost2010Prop56
140
1.0
102
RTVSPost2010PropOp56
 70
     1
102
RTVSPost2010Prop57
140
1.0
102
RTVSPost2010PropOp57
 70
     1
  0
ENDSEC
  0
EOF
