  0
SECTION
  2
HEADER
  9
$ACADVER
  1
AC1024
  9
$ACADMAINTVER
 70
     6
  9
$DWGCODEPAGE
  3
ANSI_932
  9
$INSBASE
 10
0.0
 20
0.0
 30
0.0
  9
$EXTMIN
 10
-6300.0
 20
-4455.0
 30
0.0
  9
$EXTMAX
 10
6300.0
 20
4455.0
 30
0.0
  9
$LIMMIN
 10
-6300.0
 20
-4455.0
  9
$LIMMAX
 10
6300.0
 20
4455.0
  9
$ORTHOMODE
 70
     0
  9
$REGENMODE
 70
     1
  9
$FILLMODE
 70
     1
  9
$QTEXTMODE
 70
     0
  9
$MIRRTEXT
 70
     1
  9
$LTSCALE
 40
30.0
  9
$ATTMODE
 70
     1
  9
$TEXTSIZE
 40
2.5
  9
$TRACEWID
 40
1.0
  9
$TEXTSTYLE
  7
Standard
  9
$CLAYER
  8
0
  9
$CELTYPE
  6
ByLayer
  9
$CECOLOR
 62
   256
  9
$CELTSCALE
 40
1.0
  9
$DISPSILH
 70
     0
  9
$DIMSCALE
 40
1.0
  9
$DIMASZ
 40
2.5
  9
$DIMEXO
 40
0.625
  9
$DIMDLI
 40
3.75
  9
$DIMRND
 40
0.0
  9
$DIMDLE
 40
0.0
  9
$DIMEXE
 40
1.25
  9
$DIMTP
 40
0.0
  9
$DIMTM
 40
0.0
  9
$DIMTXT
 40
2.5
  9
$DIMCEN
 40
2.5
  9
$DIMTSZ
 40
0.0
  9
$DIMTOL
 70
     0
  9
$DIMLIM
 70
     0
  9
$DIMTIH
 70
     0
  9
$DIMTOH
 70
     0
  9
$DIMSE1
 70
     0
  9
$DIMSE2
 70
     0
  9
$DIMTAD
 70
     1
  9
$DIMZIN
 70
     8
  9
$DIMBLK
  1

  9
$DIMASO
 70
     1
  9
$DIMSHO
 70
     1
  9
$DIMPOST
  1

  9
$DIMAPOST
  1

  9
$DIMALT
 70
     0
  9
$DIMALTD
 70
     3
  9
$DIMALTF
 40
0.03937007874016
  9
$DIMLFAC
 40
1.0
  9
$DIMTOFL
 70
     1
  9
$DIMTVP
 40
0.0
  9
$DIMTIX
 70
     0
  9
$DIMSOXD
 70
     0
  9
$DIMSAH
 70
     0
  9
$DIMBLK1
  1

  9
$DIMBLK2
  1

  9
$DIMSTYLE
  2
ISO-25
  9
$DIMCLRD
 70
     0
  9
$DIMCLRE
 70
     0
  9
$DIMCLRT
 70
     0
  9
$DIMTFAC
 40
1.0
  9
$DIMGAP
 40
0.625
  9
$DIMJUST
 70
     0
  9
$DIMSD1
 70
     0
  9
$DIMSD2
 70
     0
  9
$DIMTOLJ
 70
     0
  9
$DIMTZIN
 70
     8
  9
$DIMALTZ
 70
     0
  9
$DIMALTTZ
 70
     0
  9
$DIMUPT
 70
     0
  9
$DIMDEC
 70
     2
  9
$DIMTDEC
 70
     2
  9
$DIMALTU
 70
     2
  9
$DIMALTTD
 70
     3
  9
$DIMTXSTY
  7
Standard
  9
$DIMAUNIT
 70
     0
  9
$DIMADEC
 70
     0
  9
$DIMALTRND
 40
0.0
  9
$DIMAZIN
 70
     0
  9
$DIMDSEP
 70
    44
  9
$DIMATFIT
 70
     3
  9
$DIMFRAC
 70
     0
  9
$DIMLDRBLK
  1

  9
$DIMLUNIT
 70
     2
  9
$DIMLWD
 70
    -2
  9
$DIMLWE
 70
    -2
  9
$DIMTMOVE
 70
     0
  9
$DIMFXL
 40
1.0
  9
$DIMFXLON
 70
     0
  9
$DIMJOGANG
 40
0.7853981633974483
  9
$DIMTFILL
 70
     0
  9
$DIMTFILLCLR
 70
     0
  9
$DIMARCSYM
 70
     0
  9
$DIMLTYPE
  6

  9
$DIMLTEX1
  6

  9
$DIMLTEX2
  6

  9
$DIMTXTDIRECTION
 70
     0
  9
$LUNITS
 70
     2
  9
$LUPREC
 70
     4
  9
$SKETCHINC
 40
1.0
  9
$FILLETRAD
 40
10.0
  9
$AUNITS
 70
     0
  9
$AUPREC
 70
     0
  9
$MENU
  1
.
  9
$ELEVATION
 40
0.0
  9
$PELEVATION
 40
0.0
  9
$THICKNESS
 40
0.0
  9
$LIMCHECK
 70
     0
  9
$CHAMFERA
 40
10.0
  9
$CHAMFERB
 40
10.0
  9
$CHAMFERC
 40
20.0
  9
$CHAMFERD
 40
0.0
  9
$SKPOLY
 70
     0
  9
$TDCREATE
 40
2456717.532123634
  9
$TDUCREATE
 40
2456717.157123634
  9
$TDUPDATE
 40
2456717.532123646
  9
$TDUUPDATE
 40
2456717.157123646
  9
$TDINDWG
 40
0.0000000116
  9
$TDUSRTIMER
 40
0.0000000116
  9
$USRTIMER
 70
     1
  9
$ANGBASE
 50
0.0
  9
$ANGDIR
 70
     0
  9
$PDMODE
 70
     0
  9
$PDSIZE
 40
0.0
  9
$PLINEWID
 40
0.0
  9
$SPLFRAME
 70
     0
  9
$SPLINETYPE
 70
     6
  9
$SPLINESEGS
 70
     8
  9
$HANDSEED
  5
2D5
  9
$SURFTAB1
 70
     6
  9
$SURFTAB2
 70
     6
  9
$SURFTYPE
 70
     6
  9
$SURFU
 70
     6
  9
$SURFV
 70
     6
  9
$UCSBASE
  2

  9
$UCSNAME
  2

  9
$UCSORG
 10
0.0
 20
0.0
 30
0.0
  9
$UCSXDIR
 10
1.0
 20
0.0
 30
0.0
  9
$UCSYDIR
 10
0.0
 20
1.0
 30
0.0
  9
$UCSORTHOREF
  2

  9
$UCSORTHOVIEW
 70
     0
  9
$UCSORGTOP
 10
0.0
 20
0.0
 30
0.0
  9
$UCSORGBOTTOM
 10
0.0
 20
0.0
 30
0.0
  9
$UCSORGLEFT
 10
0.0
 20
0.0
 30
0.0
  9
$UCSORGRIGHT
 10
0.0
 20
0.0
 30
0.0
  9
$UCSORGFRONT
 10
0.0
 20
0.0
 30
0.0
  9
$UCSORGBACK
 10
0.0
 20
0.0
 30
0.0
  9
$PUCSBASE
  2

  9
$PUCSNAME
  2

  9
$PUCSORG
 10
0.0
 20
0.0
 30
0.0
  9
$PUCSXDIR
 10
1.0
 20
0.0
 30
0.0
  9
$PUCSYDIR
 10
0.0
 20
1.0
 30
0.0
  9
$PUCSORTHOREF
  2

  9
$PUCSORTHOVIEW
 70
     0
  9
$PUCSORGTOP
 10
0.0
 20
0.0
 30
0.0
  9
$PUCSORGBOTTOM
 10
0.0
 20
0.0
 30
0.0
  9
$PUCSORGLEFT
 10
0.0
 20
0.0
 30
0.0
  9
$PUCSORGRIGHT
 10
0.0
 20
0.0
 30
0.0
  9
$PUCSORGFRONT
 10
0.0
 20
0.0
 30
0.0
  9
$PUCSORGBACK
 10
0.0
 20
0.0
 30
0.0
  9
$USERI1
 70
     0
  9
$USERI2
 70
     0
  9
$USERI3
 70
     0
  9
$USERI4
 70
     0
  9
$USERI5
 70
     0
  9
$USERR1
 40
0.0
  9
$USERR2
 40
0.0
  9
$USERR3
 40
0.0
  9
$USERR4
 40
0.0
  9
$USERR5
 40
0.0
  9
$WORLDVIEW
 70
     1
  9
$SHADEDGE
 70
     3
  9
$SHADEDIF
 70
    70
  9
$TILEMODE
 70
     1
  9
$MAXACTVP
 70
    64
  9
$PINSBASE
 10
0.0
 20
0.0
 30
0.0
  9
$PLIMCHECK
 70
     0
  9
$PEXTMIN
 10
1.000000000000000E+20
 20
1.000000000000000E+20
 30
1.000000000000000E+20
  9
$PEXTMAX
 10
-1.000000000000000E+20
 20
-1.000000000000000E+20
 30
-1.000000000000000E+20
  9
$PLIMMIN
 10
0.0
 20
0.0
  9
$PLIMMAX
 10
420.0
 20
297.0
  9
$UNITMODE
 70
     0
  9
$VISRETAIN
 70
     1
  9
$PLINEGEN
 70
     0
  9
$PSLTSCALE
 70
     1
  9
$TREEDEPTH
 70
  3020
  9
$CMLSTYLE
  2
Standard
  9
$CMLJUST
 70
     0
  9
$CMLSCALE
 40
20.0
  9
$PROXYGRAPHICS
 70
     1
  9
$MEASUREMENT
 70
     1
  9
$CELWEIGHT
370
    -1
  9
$ENDCAPS
280
     0
  9
$JOINSTYLE
280
     0
  9
$LWDISPLAY
290
     0
  9
$INSUNITS
 70
     4
  9
$HYPERLINKBASE
  1

  9
$STYLESHEET
  1

  9
$XEDIT
290
     1
  9
$CEPSNTYPE
380
     0
  9
$PSTYLEMODE
290
     1
  9
$FINGERPRINTGUID
  2
{BDE9295E-2BCA-4FD8-9481-644018205B02}
  9
$VERSIONGUID
  2
{FAEB1C32-E019-11D5-929B-00C0DF256EC4}
  9
$EXTNAMES
290
     1
  9
$PSVPSCALE
 40
0.0
  9
$OLESTARTUP
290
     0
  9
$SORTENTS
280
   127
  9
$INDEXCTL
280
     0
  9
$HIDETEXT
280
     1
  9
$XCLIPFRAME
280
     2
  9
$HALOGAP
280
     0
  9
$OBSCOLOR
 70
   257
  9
$OBSLTYPE
280
     0
  9
$INTERSECTIONDISPLAY
280
     0
  9
$INTERSECTIONCOLOR
 70
   257
  9
$DIMASSOC
280
     2
  9
$PROJECTNAME
  1

  9
$CAMERADISPLAY
290
     0
  9
$LENSLENGTH
 40
50.0
  9
$CAMERAHEIGHT
 40
0.0
  9
$STEPSPERSEC
 40
2.0
  9
$STEPSIZE
 40
6.0
  9
$3DDWFPREC
 40
2.0
  9
$PSOLWIDTH
 40
5.0
  9
$PSOLHEIGHT
 40
80.0
  9
$LOFTANG1
 40
1.570796326794897
  9
$LOFTANG2
 40
1.570796326794897
  9
$LOFTMAG1
 40
0.0
  9
$LOFTMAG2
 40
0.0
  9
$LOFTPARAM
 70
     7
  9
$LOFTNORMALS
280
     1
  9
$LATITUDE
 40
37.795
  9
$LONGITUDE
 40
-122.394
  9
$NORTHDIRECTION
 40
0.0
  9
$TIMEZONE
 70
 -8000
  9
$LIGHTGLYPHDISPLAY
280
     1
  9
$TILEMODELIGHTSYNCH
280
     1
  9
$SOLIDHIST
280
     1
  9
$SHOWHIST
280
     1
  9
$DWFFRAME
280
     2
  9
$DGNFRAME
280
     2
  9
$REALWORLDSCALE
290
     1
  9
$INTERFERECOLOR
 62
   256
  9
$CSHADOW
280
     0
  9
$SHADOWPLANELOCATION
 40
0.0
  0
ENDSEC
  0
SECTION
  2
CLASSES
  0
CLASS
  1
ACDBDICTIONARYWDFLT
  2
AcDbDictionaryWithDefault
  3
ObjectDBX Classes
 90
        0
 91
        4
280
     0
281
     0
  0
CLASS
  1
VISUALSTYLE
  2
AcDbVisualStyle
  3
ObjectDBX Classes
 90
     4095
 91
        4
280
     0
281
     0
  0
CLASS
  1
MATERIAL
  2
AcDbMaterial
  3
ObjectDBX Classes
 90
     1153
 91
        4
280
     0
281
     0
  0
ENDSEC
  0
SECTION
  2
TABLES
  0
TABLE
  2
VPORT
  5
8
330
0
100
AcDbSymbolTable
 70
     1
  0
VPORT
  5
29
330
8
100
AcDbSymbolTableRecord
100
AcDbViewportTableRecord
  2
*Active
 70
     0
 10
0.0
 20
0.0
 11
1.0
 21
1.0
 12
0.0
 22
0.0
 13
0.0
 23
0.0
 14
10.0
 24
10.0
 15
10.0
 25
10.0
 16
0.0
 26
0.0
 36
1.0
 17
0.0
 27
0.0
 37
0.0
 40
9801.0
 41
1.414141414141414
 42
50.0
 43
0.0
 44
0.0
 50
0.0
 51
0.0
 71
     0
 72
 10000
 73
     1
 74
     3
 75
     0
 76
     0
 77
     0
 78
     0
281
     0
 65
     1
110
0.0
120
0.0
130
0.0
111
1.0
121
0.0
131
0.0
112
0.0
122
1.0
132
0.0
 79
     0
146
0.0
 60
     3
 61
     5
292
     1
282
     1
141
0.0
142
0.0
 63
   250
  0
ENDTAB
  0
TABLE
  2
LTYPE
  5
5
330
0
100
AcDbSymbolTable
 70
     3
  0
LTYPE
  5
14
330
5
100
AcDbSymbolTableRecord
100
AcDbLinetypeTableRecord
  2
ByBlock
 70
     0
  3

 72
    65
 73
     0
 40
0.0
  0
LTYPE
  5
15
330
5
100
AcDbSymbolTableRecord
100
AcDbLinetypeTableRecord
  2
ByLayer
 70
     0
  3

 72
    65
 73
     0
 40
0.0
  0
LTYPE
  5
16
330
5
100
AcDbSymbolTableRecord
100
AcDbLinetypeTableRecord
  2
Continuous
 70
     0
  3
Solid line
 72
    65
 73
     0
 40
0.0
  0
LTYPE
  5
41
330
5
100
AcDbSymbolTableRecord
100
AcDbLinetypeTableRecord
  2
JWW_HOJO
 70
     0
  3
  -   -   -   -   -   -   -   - 
 72
    65
 73
     2
 40
1.693333333333333
 49
-1.27
 74
     0
 49
0.4233333333333333
 74
     0
  0
LTYPE
  5
42
330
5
100
AcDbSymbolTableRecord
100
AcDbLinetypeTableRecord
  2
JWW_CENTER1
 70
     0
  3
-----  --  ----------  --  -----
 72
    65
 73
     4
 40
3.386666666666667
 49
2.116666666666667
 74
     0
 49
-0.4233333333333333
 74
     0
 49
0.4233333333333333
 74
     0
 49
-0.4233333333333333
 74
     0
  0
ENDTAB
  0
TABLE
  2
LAYER
  5
2
330
0
100
AcDbSymbolTable
 70
    13
  0
LAYER
  5
10
330
2
100
AcDbSymbolTableRecord
100
AcDbLayerTableRecord
  2
0
 70
     0
 62
     7
  6
Continuous
370
    -3
390
F
347
3E
  0
LAYER
  5
43
330
2
100
AcDbSymbolTableRecord
100
AcDbLayerTableRecord
  2
F-1_枠
 70
     0
 62
     7
  6
Continuous
370
    -3
390
F
347
3E
  0
LAYER
  5
44
330
2
100
AcDbSymbolTableRecord
100
AcDbLayerTableRecord
  2
F-0_補助線
 70
     0
 62
     7
  6
Continuous
370
    -3
390
F
347
3E
  0
LAYER
  5
45
330
2
100
AcDbSymbolTableRecord
100
AcDbLayerTableRecord
  2
0-A_文字
 70
     0
 62
     7
  6
Continuous
370
    -3
390
F
347
3E
  0
LAYER
  5
46
330
2
100
AcDbSymbolTableRecord
100
AcDbLayerTableRecord
  2
F-A_文字
 70
     0
 62
     7
  6
Continuous
370
    -3
390
F
347
3E
  0
LAYER
  5
47
330
2
100
AcDbSymbolTableRecord
100
AcDbLayerTableRecord
  2
_ＦＬ
 70
     0
 62
     7
  6
Continuous
370
    -3
390
F
347
3E
  0
LAYER
  5
48
330
2
100
AcDbSymbolTableRecord
100
AcDbLayerTableRecord
  2
0-1_本体
 70
     0
 62
     7
  6
Continuous
370
    -3
390
F
347
3E
  0
LAYER
  5
49
330
2
100
AcDbSymbolTableRecord
100
AcDbLayerTableRecord
  2
0-6_カウンター
 70
     0
 62
     7
  6
Continuous
370
    -3
390
F
347
3E
  0
LAYER
  5
4A
330
2
100
AcDbSymbolTableRecord
100
AcDbLayerTableRecord
  2
0-2_扉
 70
     0
 62
     7
  6
Continuous
370
    -3
390
F
347
3E
  0
LAYER
  5
4B
330
2
100
AcDbSymbolTableRecord
100
AcDbLayerTableRecord
  2
0-B_寸法
 70
     0
 62
     7
  6
Continuous
370
    -3
390
F
347
3E
  0
LAYER
  5
4C
330
2
100
AcDbSymbolTableRecord
100
AcDbLayerTableRecord
  2
0-0_補助線
 70
     0
 62
     7
  6
Continuous
370
    -3
390
F
347
3E
  0
LAYER
  5
4D
330
2
100
AcDbSymbolTableRecord
100
AcDbLayerTableRecord
  2
0-4_棚
 70
     0
 62
     7
  6
Continuous
370
    -3
390
F
347
3E
  0
LAYER
  5
4E
330
2
100
AcDbSymbolTableRecord
100
AcDbLayerTableRecord
  2
0-5_ダボ
 70
     0
 62
     7
  6
Continuous
370
    -3
390
F
347
3E
  0
ENDTAB
  0
TABLE
  2
STYLE
  5
3
330
0
100
AcDbSymbolTable
 70
     3
  0
STYLE
  5
11
330
3
100
AcDbSymbolTableRecord
100
AcDbTextStyleTableRecord
  2
Standard
 70
     0
 40
0.0
 41
1.0
 50
0.0
 71
     0
 42
2.5
  3
txt
  4

  0
STYLE
  5
3F
330
3
100
AcDbSymbolTableRecord
100
AcDbTextStyleTableRecord
  2
ＭＳ ゴシック
 70
     0
 40
1.0
 41
1.0
 50
0.0
 71
     0
 42
10.0
  3

  4

1001
ACAD
1000
MS Gothic
1071
    32817
  0
STYLE
  5
40
330
3
100
AcDbSymbolTableRecord
100
AcDbTextStyleTableRecord
  2
HG明朝B
 70
     0
 40
1.0
 41
1.0
 50
0.0
 71
     0
 42
10.0
  3

  4

1001
ACAD
1000
HGMinchoB
1071
    32785
  0
ENDTAB
  0
TABLE
  2
VIEW
  5
6
330
0
100
AcDbSymbolTable
 70
     0
  0
ENDTAB
  0
TABLE
  2
UCS
  5
7
330
0
100
AcDbSymbolTable
 70
     0
  0
ENDTAB
  0
TABLE
  2
APPID
  5
9
330
0
100
AcDbSymbolTable
 70
     1
  0
APPID
  5
12
330
9
100
AcDbSymbolTableRecord
100
AcDbRegAppTableRecord
  2
ACAD
 70
     0
  0
ENDTAB
  0
TABLE
  2
DIMSTYLE
  5
A
330
0
100
AcDbSymbolTable
 70
     1
100
AcDbDimStyleTable
  0
DIMSTYLE
105
27
330
A
100
AcDbSymbolTableRecord
100
AcDbDimStyleTableRecord
  2
ISO-25
 70
     0
 41
2.5
 42
0.625
 43
3.75
 44
1.25
 73
     0
 74
     0
 77
     1
 78
     8
140
2.5
141
2.5
143
0.03937007874016
147
0.625
171
     3
172
     1
178
     0
271
     2
272
     2
274
     3
278
    44
283
     0
284
     8
340
11
  0
ENDTAB
  0
TABLE
  2
BLOCK_RECORD
  5
1
330
0
100
AcDbSymbolTable
 70
     1
  0
BLOCK_RECORD
  5
1F
330
1
100
AcDbSymbolTableRecord
100
AcDbBlockTableRecord
  2
*Model_Space
340
22
 70
     0
280
     1
281
     0
  0
BLOCK_RECORD
  5
1B
330
1
100
AcDbSymbolTableRecord
100
AcDbBlockTableRecord
  2
*Paper_Space
340
1E
 70
     0
280
     1
281
     0
  0
BLOCK_RECORD
  5
23
330
1
100
AcDbSymbolTableRecord
100
AcDbBlockTableRecord
  2
*Paper_Space0
340
26
 70
     0
280
     1
281
     0
  0
ENDTAB
  0
ENDSEC
  0
SECTION
  2
BLOCKS
  0
BLOCK
  5
20
330
1F
100
AcDbEntity
  8
0
100
AcDbBlockBegin
  2
*Model_Space
 70
     0
 10
0.0
 20
0.0
 30
0.0
  3
*Model_Space
  1

  0
ENDBLK
  5
21
330
1F
100
AcDbEntity
  8
0
100
AcDbBlockEnd
  0
BLOCK
  5
1C
330
1B
100
AcDbEntity
 67
     1
  8
0
100
AcDbBlockBegin
  2
*Paper_Space
 70
     0
 10
0.0
 20
0.0
 30
0.0
  3
*Paper_Space
  1

  0
ENDBLK
  5
1D
330
1B
100
AcDbEntity
 67
     1
  8
0
100
AcDbBlockEnd
  0
BLOCK
  5
24
330
23
100
AcDbEntity
  8
0
100
AcDbBlockBegin
  2
*Paper_Space0
 70
     0
 10
0.0
 20
0.0
 30
0.0
  3
*Paper_Space0
  1

  0
ENDBLK
  5
25
330
23
100
AcDbEntity
  8
0
100
AcDbBlockEnd
  0
ENDSEC
  0
SECTION
  2
ENTITIES
  0
LINE
  5
4F
330
1F
100
AcDbEntity
  8
F-1_枠
  6
Continuous
 62
   200
370
    20
100
AcDbLine
 10
5689.998977248734
 20
4174.999769056166
 30
0.0
 11
5689.998977248734
 21
-4195.000217025344
 31
0.0
  0
LINE
  5
50
330
1F
100
AcDbEntity
  8
F-0_補助線
  6
JWW_HOJO
 62
   120
370
     5
100
AcDbLine
 10
-6300.0
 20
-4455.0
 30
0.0
 11
-6300.0
 21
4424.999604096284
 31
0.0
  0
LINE
  5
51
330
1F
100
AcDbEntity
  8
F-0_補助線
  6
JWW_HOJO
 62
   120
370
     5
100
AcDbLine
 10
-6300.0
 20
4424.999604096284
 30
0.0
 11
5999.999010240709
 21
4424.999604096284
 31
0.0
  0
LINE
  5
52
330
1F
100
AcDbEntity
  8
F-0_補助線
  6
JWW_HOJO
 62
   120
370
     5
100
AcDbLine
 10
5999.999010240709
 20
4424.999604096284
 30
0.0
 11
5999.999010240709
 21
-4455.0
 31
0.0
  0
LINE
  5
53
330
1F
100
AcDbEntity
  8
F-0_補助線
  6
JWW_HOJO
 62
   120
370
     5
100
AcDbLine
 10
5999.999010240709
 20
-4455.0
 30
0.0
 11
-6300.0
 21
-4455.0
 31
0.0
  0
LINE
  5
54
330
1F
100
AcDbEntity
  8
F-1_枠
  6
Continuous
 62
   200
370
    20
100
AcDbLine
 10
-5999.999752560178
 20
4174.999769056166
 30
0.0
 11
5699.998762800888
 21
4174.999769056166
 31
0.0
  0
LINE
  5
55
330
1F
100
AcDbEntity
  8
F-1_枠
  6
Continuous
 62
   200
370
    20
100
AcDbLine
 10
-5999.999752560178
 20
4164.999983504013
 30
0.0
 11
5699.998762800888
 21
4164.999983504013
 31
0.0
  0
LINE
  5
56
330
1F
100
AcDbEntity
  8
F-1_枠
  6
Continuous
 62
   200
370
    20
100
AcDbLine
 10
-5999.999752560178
 20
4169.999505120355
 30
0.0
 11
5699.998762800888
 21
4169.999505120355
 31
0.0
  0
LINE
  5
57
330
1F
100
AcDbEntity
  8
F-1_枠
  6
Continuous
 62
   200
370
    20
100
AcDbLine
 10
5694.998498865077
 20
4174.999769056166
 30
0.0
 11
5694.998498865077
 21
-4195.000217025344
 31
0.0
  0
LINE
  5
58
330
1F
100
AcDbEntity
  8
F-1_枠
  6
Continuous
 62
   200
370
    20
100
AcDbLine
 10
5699.998762800888
 20
4174.999769056166
 30
0.0
 11
5699.998762800888
 21
-4195.000217025344
 31
0.0
  0
LINE
  5
59
330
1F
100
AcDbEntity
  8
F-1_枠
  6
Continuous
 62
   200
370
    20
100
AcDbLine
 10
-5999.999984535011
 20
4174.999769056166
 30
0.0
 11
-5999.999984535011
 21
-4195.000217025344
 31
0.0
  0
LINE
  5
5A
330
1F
100
AcDbEntity
  8
F-1_枠
  6
Continuous
 62
   200
370
    20
100
AcDbLine
 10
-5994.999975771518
 20
4174.999769056166
 30
0.0
 11
-5994.999975771518
 21
-4195.000217025344
 31
0.0
  0
LINE
  5
5B
330
1F
100
AcDbEntity
  8
F-1_枠
  6
Continuous
 62
   200
370
    20
100
AcDbLine
 10
-5989.999990205507
 20
4174.999769056166
 30
0.0
 11
-5989.999990205507
 21
-4195.000217025344
 31
0.0
  0
LINE
  5
5C
330
1F
100
AcDbEntity
  8
0-A_文字
  6
Continuous
 62
     7
370
     9
100
AcDbLine
 10
-4499.999752560178
 20
3639.999983504013
 30
0.0
 11
-4499.999752560178
 21
3864.999983504013
 31
0.0
  0
LINE
  5
5D
330
1F
100
AcDbEntity
  8
0-A_文字
  6
Continuous
 62
     7
370
     9
100
AcDbLine
 10
-4499.999752560178
 20
3864.999983504013
 30
0.0
 11
-5782.499752560178
 21
3864.999983504013
 31
0.0
  0
LINE
  5
5E
330
1F
100
AcDbEntity
  8
0-A_文字
  6
Continuous
 62
     7
370
     9
100
AcDbLine
 10
-4499.999752560178
 20
3639.999983504013
 30
0.0
 11
-5782.499752560178
 21
3639.999983504013
 31
0.0
  0
LINE
  5
5F
330
1F
100
AcDbEntity
  8
0-A_文字
  6
Continuous
 62
     7
370
     9
100
AcDbLine
 10
-5782.499752560178
 20
3864.999983504013
 30
0.0
 11
-5782.499752560178
 21
3639.999983504013
 31
0.0
  0
TEXT
  5
60
330
1F
100
AcDbEntity
  8
F-A_文字
  6
Continuous
 62
     7
370
     0
100
AcDbText
 10
5190.195950842071
 20
-4282.835495935318
 30
0.0
 40
68.58
  1
,
  7
ＭＳ ゴシック
100
AcDbText
  0
TEXT
  5
61
330
1F
100
AcDbEntity
  8
F-A_文字
  6
Continuous
 62
     7
370
     0
100
AcDbText
 10
4923.937261915373
 20
-4284.229519353744
 30
0.0
 40
68.58
  1
$y
 41
1.083333333333333
  7
ＭＳ ゴシック
100
AcDbText
  0
TEXT
  5
62
330
1F
100
AcDbEntity
  8
F-A_文字
  6
Continuous
 62
     7
370
     0
100
AcDbText
 10
5078.673982954195
 20
-4284.229519353744
 30
0.0
 40
68.58
  1
$m
 41
1.083333333333333
  7
ＭＳ ゴシック
100
AcDbText
  0
TEXT
  5
63
330
1F
100
AcDbEntity
  8
F-A_文字
  6
Continuous
 62
     7
370
     0
100
AcDbText
 10
5233.410715437103
 20
-4284.229519353744
 30
0.0
 40
68.58
  1
$d
 41
1.083333333333333
  7
ＭＳ ゴシック
100
AcDbText
  0
TEXT
  5
64
330
1F
100
AcDbEntity
  8
F-A_文字
  6
Continuous
 62
     7
370
     0
100
AcDbText
 10
5388.147447920011
 20
-4284.229519353744
 30
0.0
 40
68.58
  1
印刷
 41
1.083333333333333
  7
ＭＳ ゴシック
100
AcDbText
  0
TEXT
  5
65
330
1F
100
AcDbEntity
  8
F-A_文字
  6
Continuous
 62
     7
370
     0
100
AcDbText
 10
5031.277143812345
 20
-4285.623545633193
 30
0.0
 40
68.58
  1
,
  7
ＭＳ ゴシック
100
AcDbText
  0
TEXT
  5
66
330
1F
100
AcDbEntity
  8
F-A_文字
  6
Continuous
 62
     7
370
     0
100
AcDbText
 10
5608.403311109712
 20
-4281.441471086381
 30
0.0
 40
68.58
  1
）
  7
ＭＳ ゴシック
100
AcDbText
  0
TEXT
  5
67
330
1F
100
AcDbEntity
  8
F-A_文字
  6
Continuous
 62
     7
370
     0
100
AcDbText
 10
4784.033374252999
 20
-4285.623545633193
 30
0.0
 40
68.58
  1
（
  7
ＭＳ ゴシック
100
AcDbText
  0
LINE
  5
68
330
1F
100
AcDbEntity
  8
F-0_補助線
  6
JWW_HOJO
 62
     7
370
     9
100
AcDbLine
 10
849.9995876002961
 20
-3785.000217540844
 30
0.0
 11
849.9995876002961
 21
-4185.00022269584
 31
0.0
  0
LINE
  5
69
330
1F
100
AcDbEntity
  8
F-0_補助線
  6
JWW_HOJO
 62
     7
370
     9
100
AcDbLine
 10
349.9999175200594
 20
-3785.000217540844
 30
0.0
 11
349.9999175200594
 21
-4185.00022269584
 31
0.0
  0
LINE
  5
6A
330
1F
100
AcDbEntity
  8
F-1_枠
  6
Continuous
 62
   200
370
    20
100
AcDbLine
 10
5699.998762800888
 20
-4195.000217025344
 30
0.0
 11
-5999.999752560178
 21
-4195.000217025344
 31
0.0
  0
LINE
  5
6B
330
1F
100
AcDbEntity
  8
F-1_枠
  6
Continuous
 62
   200
370
    20
100
AcDbLine
 10
5699.998762800888
 20
-4190.000208261851
 30
0.0
 11
-5999.999752560178
 21
-4190.000208261851
 31
0.0
  0
LINE
  5
6C
330
1F
100
AcDbEntity
  8
F-1_枠
  6
Continuous
 62
   200
370
    20
100
AcDbLine
 10
5699.998762800888
 20
-4185.00022269584
 30
0.0
 11
-5999.999752560178
 21
-4185.00022269584
 31
0.0
  0
LINE
  5
6D
330
1F
100
AcDbEntity
  8
F-1_枠
  6
Continuous
 62
   200
370
    20
100
AcDbLine
 10
4189.999224688556
 20
-3785.000217540844
 30
0.0
 11
4189.999224688556
 21
-4185.00022269584
 31
0.0
  0
LINE
  5
6E
330
1F
100
AcDbEntity
  8
F-1_枠
  6
Continuous
 62
   200
370
    20
100
AcDbLine
 10
2689.998729808911
 20
-3785.000217540844
 30
0.0
 11
2689.998729808911
 21
-4185.00022269584
 31
0.0
  0
LINE
  5
6F
330
1F
100
AcDbEntity
  8
F-1_枠
  6
Continuous
 62
   200
370
    20
100
AcDbLine
 10
-150.0001237199109
 20
-3785.000217540844
 30
0.0
 11
-150.0001237199109
 21
-4185.00022269584
 31
0.0
  0
LINE
  5
70
330
1F
100
AcDbEntity
  8
F-1_枠
  6
Continuous
 62
   200
370
    20
100
AcDbLine
 10
-150.0001237199109
 20
-3985.000150525892
 30
0.0
 11
5689.998977248734
 21
-3985.005578737001
 31
0.0
  0
LINE
  5
71
330
1F
100
AcDbEntity
  8
F-0_補助線
  6
JWW_HOJO
 62
     7
370
     9
100
AcDbLine
 10
-5989.999990205507
 20
-3985.000150526237
 30
0.0
 11
-150.0001237199109
 21
-3985.000150526237
 31
0.0
  0
LINE
  5
72
330
1F
100
AcDbEntity
  8
F-0_補助線
  6
JWW_HOJO
 62
     7
370
     9
100
AcDbLine
 10
-5989.999990205507
 20
-3895.000150526237
 30
0.0
 11
-150.0001237199109
 21
-3895.000150526237
 31
0.0
  0
LINE
  5
73
330
1F
100
AcDbEntity
  8
F-0_補助線
  6
JWW_HOJO
 62
     7
370
     9
100
AcDbLine
 10
-5989.999990205507
 20
-4075.000150526237
 30
0.0
 11
-150.0001237199109
 21
-4075.000150526237
 31
0.0
  0
LINE
  5
74
330
1F
100
AcDbEntity
  8
F-0_補助線
  6
JWW_HOJO
 62
     7
370
     9
100
AcDbLine
 10
-150.0002584955388
 20
-4129.999954225829
 30
0.0
 11
5689.998842473105
 21
-4130.005382436938
 31
0.0
  0
LINE
  5
75
330
1F
100
AcDbEntity
  8
F-0_補助線
  6
JWW_HOJO
 62
     7
370
     9
100
AcDbLine
 10
-150.0001748415872
 20
-4039.999954225868
 30
0.0
 11
5689.998926127057
 21
-4040.005382436977
 31
0.0
  0
LINE
  5
76
330
1F
100
AcDbEntity
  8
F-0_補助線
  6
JWW_HOJO
 62
     7
370
     9
100
AcDbLine
 10
-150.0000725978671
 20
-3929.999951665916
 30
0.0
 11
5689.999028370777
 21
-3930.005379877025
 31
0.0
  0
LINE
  5
77
330
1F
100
AcDbEntity
  8
F-0_補助線
  6
JWW_HOJO
 62
     7
370
     9
100
AcDbLine
 10
-149.9999889439155
 20
-3839.999951665955
 30
0.0
 11
5689.999112024728
 21
-3840.005379877064
 31
0.0
  0
LINE
  5
78
330
1F
100
AcDbEntity
  8
F-0_補助線
  6
JWW_HOJO
 62
     7
370
     9
100
AcDbLine
 10
2779.998729808911
 20
-3785.000217540844
 30
0.0
 11
2779.998729808911
 21
-4185.00022269584
 31
0.0
  0
LINE
  5
79
330
1F
100
AcDbEntity
  8
F-0_補助線
  6
JWW_HOJO
 62
     7
370
     9
100
AcDbLine
 10
-60.0001237199109
 20
-3785.000217540844
 30
0.0
 11
-60.0001237199109
 21
-4185.00022269584
 31
0.0
  0
LINE
  5
7A
330
1F
100
AcDbEntity
  8
F-0_補助線
  6
JWW_HOJO
 62
     7
370
     9
100
AcDbLine
 10
4279.999224688556
 20
-3785.000217540844
 30
0.0
 11
4279.999224688556
 21
-4185.00022269584
 31
0.0
  0
TEXT
  5
7B
330
1F
100
AcDbEntity
  8
F-A_文字
  6
Continuous
 62
     7
370
     0
100
AcDbText
 10
4279.999224688556
 20
-3861.544069298599
 30
0.0
 40
45.72
  1
ＤＡＴＥ
  7
ＭＳ ゴシック
100
AcDbText
  0
TEXT
  5
7C
330
1F
100
AcDbEntity
  8
F-A_文字
  6
Continuous
 62
     7
370
     0
100
AcDbText
 10
4279.999224688556
 20
-4061.544071858686
 30
0.0
 40
45.72
  1
ＮＯ．
  7
ＭＳ ゴシック
100
AcDbText
  0
TEXT
  5
7D
330
1F
100
AcDbEntity
  8
F-A_文字
  6
Continuous
 62
     7
370
     0
100
AcDbText
 10
2779.998729808911
 20
-3861.54267506562
 30
0.0
 40
45.72
  1
ＳＣＡＬＥ
  7
ＭＳ ゴシック
100
AcDbText
  0
TEXT
  5
7E
330
1F
100
AcDbEntity
  8
F-A_文字
  6
Continuous
 62
     7
370
     0
100
AcDbText
 10
2779.998729808911
 20
-4061.542677625706
 30
0.0
 40
45.72
  1
ＦＩＬＥ
  7
ＭＳ ゴシック
100
AcDbText
  0
TEXT
  5
7F
330
1F
100
AcDbEntity
  8
F-A_文字
  6
Continuous
 62
     7
370
     0
100
AcDbText
 10
-60.0001237199109
 20
-3861.540035319782
 30
0.0
 40
45.72
  1
図面名
  7
ＭＳ ゴシック
100
AcDbText
  0
TEXT
  5
80
330
1F
100
AcDbEntity
  8
F-A_文字
  6
Continuous
 62
     7
370
     0
100
AcDbText
 10
1444.998729808911
 20
-4128.082593971774
 30
0.0
 40
91.44
  1
ウッドワン・・・
 41
1.109375
  7
ＭＳ ゴシック
100
AcDbText
  0
TEXT
  5
81
330
1F
100
AcDbEntity
  8
F-A_文字
  6
Continuous
 62
     7
370
     0
100
AcDbText
 10
1234.998729808911
 20
-4070.540883713994
 30
0.0
 40
45.72
  1
株式
  7
ＭＳ ゴシック
100
AcDbText
  0
TEXT
  5
82
330
1F
100
AcDbEntity
  8
F-A_文字
  6
Continuous
 62
     7
370
     0
100
AcDbText
 10
1234.998729808911
 20
-4142.540883714033
 30
0.0
 40
45.72
  1
会社
  7
ＭＳ ゴシック
100
AcDbText
  0
LINE
  5
83
330
1F
100
AcDbEntity
  8
F-1_枠
  6
Continuous
 62
   200
370
    20
100
AcDbLine
 10
5699.998762800888
 20
-3785.000217540844
 30
0.0
 11
-5999.999752560178
 21
-3785.000217540844
 31
0.0
  0
LINE
  5
84
330
1F
100
AcDbEntity
  8
F-1_枠
  6
Continuous
 62
   200
370
    20
100
AcDbLine
 10
5699.998762800888
 20
-3780.000231974834
 30
0.0
 11
-5999.999752560178
 21
-3780.000231974834
 31
0.0
  0
LINE
  5
85
330
1F
100
AcDbEntity
  8
F-0_補助線
  6
JWW_HOJO
 62
     7
370
     9
100
AcDbLine
 10
-5247.547376752838
 20
-3785.000217540844
 30
0.0
 11
-5247.547376752838
 21
-4195.000379407728
 31
0.0
  0
LINE
  5
86
330
1F
100
AcDbEntity
  8
F-0_補助線
  6
JWW_HOJO
 62
     7
370
     9
100
AcDbLine
 10
-210.0001237199109
 20
-3785.000217540844
 30
0.0
 11
-210.0001237199109
 21
-4185.00022269584
 31
0.0
  0
TEXT
  5
87
330
1F
100
AcDbEntity
  8
F-A_文字
  6
Continuous
 62
     7
370
     0
100
AcDbText
 10
4778.749126529666
 20
-3909.814724587812
 30
0.0
 40
68.58
  1
07.05.23
 41
1.145833333333333
  7
ＭＳ ゴシック
100
AcDbText
  0
TEXT
  5
88
330
1F
100
AcDbEntity
  8
F-A_文字
  6
Continuous
 62
     7
370
     0
100
AcDbText
 10
3383.748977248734
 20
-3917.313330355173
 30
0.0
 40
68.58
  1
1/20
 41
1.125
  7
ＭＳ ゴシック
100
AcDbText
  0
TEXT
  5
89
330
1F
100
AcDbEntity
  8
F-A_文字
  6
Continuous
 62
     7
370
     0
100
AcDbText
 10
349.9999175200594
 20
-3918.097506320349
 30
0.0
 40
66.06
  1
ＧＲＡＮＳＴＡＧＥ
 41
0.8333333333333334
  7
HG明朝B
100
AcDbText
  0
TEXT
  5
8A
330
1F
100
AcDbEntity
  8
F-A_文字
  6
Continuous
 62
     7
370
     0
100
AcDbText
 10
1180.417701903719
 20
-3917.310376047685
 30
0.0
 40
68.58
  1
造り付け家具
 41
1.138888888888889
  7
ＭＳ ゴシック
100
AcDbText
  0
TEXT
  5
8B
330
1F
100
AcDbEntity
  8
F-A_文字
  6
Continuous
 62
     7
370
     9
100
AcDbText
 10
4936.249033580831
 20
-4117.314727147831
 30
0.0
 40
68.58
  1
04
 41
1.083333333333333
  7
ＭＳ ゴシック
100
AcDbText
  0
TEXT
  5
8C
330
1F
100
AcDbEntity
  8
F-A_文字
  6
Continuous
 62
     7
370
     9
100
AcDbText
 10
3252.498977248734
 20
-4117.31333291526
 30
0.0
 40
68.58
  1
TQP01_C02
 41
1.148148148148148
  7
ＭＳ ゴシック
100
AcDbText
  0
TEXT
  5
8D
330
1F
100
AcDbEntity
  8
F-A_文字
  6
Continuous
 62
     7
370
     0
100
AcDbText
 10
-5239.999990205507
 20
-4017.310150526237
 30
0.0
 40
68.58
  1
グランステージ　造り付け家具　参考プラン（リビング２）
 41
1.160493827160494
  7
ＭＳ ゴシック
100
AcDbText
  0
TEXT
  5
8E
330
1F
100
AcDbEntity
  8
0-A_文字
  6
Continuous
 62
     7
370
     9
100
AcDbText
 10
-5673.749752560178
 20
3709.419983504013
 30
0.0
 40
91.44
  1
リビングプラン２
 41
1.109375
  7
ＭＳ ゴシック
100
AcDbText
  0
LINE
  5
8F
330
1F
100
AcDbEntity
  8
0-A_文字
  6
Continuous
 62
     7
370
     9
100
AcDbLine
 10
-3872.828110775063
 20
-1755.500217540844
 30
0.0
 11
-3872.828110775063
 21
-1980.500217540844
 31
0.0
  0
LINE
  5
90
330
1F
100
AcDbEntity
  8
0-A_文字
  6
Continuous
 62
     7
370
     9
100
AcDbLine
 10
-2672.828110775062
 20
-1755.500217540844
 30
0.0
 11
-3872.828110775063
 21
-1755.500217540844
 31
0.0
  0
LINE
  5
91
330
1F
100
AcDbEntity
  8
0-A_文字
  6
Continuous
 62
     7
370
     9
100
AcDbLine
 10
-2672.828110775062
 20
-1980.500217540844
 30
0.0
 11
-2672.828110775062
 21
-1755.500217540844
 31
0.0
  0
LINE
  5
92
330
1F
100
AcDbEntity
  8
0-A_文字
  6
Continuous
 62
     7
370
     9
100
AcDbLine
 10
-3872.828110775063
 20
-1980.500217540844
 30
0.0
 11
-2672.828110775062
 21
-1980.500217540844
 31
0.0
  0
TEXT
  5
93
330
1F
100
AcDbEntity
  8
0-A_文字
  6
Continuous
 62
     7
370
     9
100
AcDbText
 10
-3602.828110775063
 20
-1911.080217540844
 30
0.0
 40
91.44
  1
扉正面図・
 41
1.100000000000001
  7
ＭＳ ゴシック
100
AcDbText
  0
TEXT
  5
94
330
1F
100
AcDbEntity
  8
_ＦＬ
  6
Continuous
 62
     7
370
     9
100
AcDbText
 10
-5768.986592992924
 20
-997.3102175408445
 30
0.0
 40
68.58
  1
ＦＬ▼
 41
1.111111111111111
  7
ＭＳ ゴシック
100
AcDbText
  0
LINE
  5
95
330
1F
100
AcDbEntity
  8
_ＦＬ
  6
Continuous
 62
     7
370
     9
100
AcDbLine
 10
-5766.578110775062
 20
-1010.000217540845
 30
0.0
 11
-1477.328110775062
 21
-1010.000217540845
 31
0.0
  0
TEXT
  5
96
330
1F
100
AcDbEntity
  8
_ＦＬ
  6
Continuous
 62
     7
370
     9
100
AcDbText
 10
-865.129441595389
 20
-997.3102175408445
 30
0.0
 40
68.58
  1
ＦＬ▼
 41
1.111111111111111
  7
ＭＳ ゴシック
100
AcDbText
  0
LINE
  5
97
330
1F
100
AcDbEntity
  8
_ＦＬ
  6
Continuous
 62
     7
370
     9
100
AcDbLine
 10
-865.129441595389
 20
-1010.000217540845
 30
0.0
 11
3424.870558404611
 21
-1010.000217540845
 31
0.0
  0
TEXT
  5
98
330
1F
100
AcDbEntity
  8
_ＦＬ
  6
Continuous
 62
     7
370
     9
100
AcDbText
 10
3887.82786333524
 20
-997.3102175408445
 30
0.0
 40
68.58
  1
ＦＬ▼
 41
1.111111111111111
  7
ＭＳ ゴシック
100
AcDbText
  0
LINE
  5
99
330
1F
100
AcDbEntity
  8
_ＦＬ
  6
Continuous
 62
     7
370
     9
100
AcDbLine
 10
3887.82786333524
 20
-1010.000217540845
 30
0.0
 11
5125.32786333524
 21
-1010.000217540845
 31
0.0
  0
LINE
  5
9A
330
1F
100
AcDbEntity
  8
0-1_本体
  6
Continuous
 62
    40
370
    15
100
AcDbLine
 10
4607.82786333524
 20
-939.5002175408443
 30
0.0
 11
5125.32786333524
 21
-939.5002175408443
 31
0.0
  0
LINE
  5
9B
330
1F
100
AcDbEntity
  8
0-1_本体
  6
Continuous
 62
    40
370
    15
100
AcDbLine
 10
5125.32786333524
 20
-939.5002175408443
 30
0.0
 11
5125.32786333524
 21
-908.000217540844
 31
0.0
  0
LINE
  5
9C
330
1F
100
AcDbEntity
  8
0-1_本体
  6
Continuous
 62
    40
370
    15
100
AcDbLine
 10
4607.82786333524
 20
-908.000217540844
 30
0.0
 11
4607.82786333524
 21
-939.5002175408443
 31
0.0
  0
LINE
  5
9D
330
1F
100
AcDbEntity
  8
0-1_本体
  6
Continuous
 62
    40
370
    15
100
AcDbLine
 10
5111.827863335238
 20
-918.5002175408447
 30
0.0
 11
5107.327863335239
 21
-918.5002175408447
 31
0.0
  0
LINE
  5
9E
330
1F
100
AcDbEntity
  8
0-1_本体
  6
Continuous
 62
    40
370
    15
100
AcDbLine
 10
5125.32786333524
 20
-908.000217540844
 30
0.0
 11
5111.827863335238
 21
-908.000217540844
 31
0.0
  0
LINE
  5
9F
330
1F
100
AcDbEntity
  8
0-1_本体
  6
Continuous
 62
    40
370
    15
100
AcDbLine
 10
5107.327863335239
 20
-908.000217540844
 30
0.0
 11
4607.82786333524
 21
-908.000217540844
 31
0.0
  0
LINE
  5
A0
330
1F
100
AcDbEntity
  8
0-6_カウンター
  6
Continuous
 62
     7
370
     9
100
AcDbLine
 10
5111.827863335238
 20
-908.000217540844
 30
0.0
 11
5125.327863335238
 21
-825.500217540844
 31
0.0
  0
LINE
  5
A1
330
1F
100
AcDbEntity
  8
0-6_カウンター
  6
Continuous
 62
    92
370
    13
100
AcDbLine
 10
5111.827863335238
 20
-825.500217540844
 30
0.0
 11
5111.827863335238
 21
-908.000217540844
 31
0.0
  0
LINE
  5
A2
330
1F
100
AcDbEntity
  8
0-6_カウンター
  6
Continuous
 62
    92
370
    13
100
AcDbLine
 10
5125.327863335238
 20
-825.500217540844
 30
0.0
 11
5111.827863335238
 21
-825.500217540844
 31
0.0
  0
LINE
  5
A3
330
1F
100
AcDbEntity
  8
0-6_カウンター
  6
Continuous
 62
    92
370
    13
100
AcDbLine
 10
5125.327863335238
 20
-908.000217540844
 30
0.0
 11
5125.327863335238
 21
-825.500217540844
 31
0.0
  0
LINE
  5
A4
330
1F
100
AcDbEntity
  8
0-6_カウンター
  6
Continuous
 62
    92
370
    13
100
AcDbLine
 10
5111.827863335238
 20
-908.000217540844
 30
0.0
 11
5125.327863335238
 21
-908.000217540844
 31
0.0
  0
LINE
  5
A5
330
1F
100
AcDbEntity
  8
0-2_扉
  6
Continuous
 62
    40
370
    15
100
AcDbLine
 10
4577.82786333524
 20
-914.7502175408438
 30
0.0
 11
4607.82786333524
 21
-914.7502175408438
 31
0.0
  0
LWPOLYLINE
  5
A6
330
1F
100
AcDbEntity
  8
0-B_寸法
  6
Continuous
 62
     7
370
     9
100
AcDbPolyline
 90
        4
 70
     1
 43
3.0
 10
5351.82786333524
 20
-939.5002175408443
 42
0.4142135623731
 10
5350.32786333524
 20
-938.0002175408443
 42
0.4142135623731
 10
5348.827863335239
 20
-939.5002175408443
 42
0.4142135623731
 10
5350.32786333524
 20
-941.0002175408443
 42
0.4142135623731
  0
LINE
  5
A7
330
1F
100
AcDbEntity
  8
0-B_寸法
  6
Continuous
 62
   120
370
     5
100
AcDbLine
 10
5350.32786333524
 20
-939.5002175408443
 30
0.0
 11
5200.32786333524
 21
-939.5002175408443
 31
0.0
  0
LWPOLYLINE
  5
A8
330
1F
100
AcDbEntity
  8
0-B_寸法
  6
Continuous
 62
     7
370
     9
100
AcDbPolyline
 90
        4
 70
     1
 43
3.0
 10
4354.32786333524
 20
-914.7502175408438
 42
0.4142135623731
 10
4352.82786333524
 20
-913.2502175408438
 42
0.4142135623731
 10
4351.327863335239
 20
-914.7502175408438
 42
0.4142135623731
 10
4352.82786333524
 20
-916.2502175408438
 42
0.4142135623731
  0
LINE
  5
A9
330
1F
100
AcDbEntity
  8
0-B_寸法
  6
Continuous
 62
   120
370
     5
100
AcDbLine
 10
4352.82786333524
 20
-914.7502175408438
 30
0.0
 11
4502.82786333524
 21
-914.7502175408438
 31
0.0
  0
LWPOLYLINE
  5
AA
330
1F
100
AcDbEntity
  8
0-B_寸法
  6
Continuous
 62
     7
370
     9
100
AcDbPolyline
 90
        4
 70
     1
 43
3.0
 10
4354.32786333524
 20
-939.5002175408443
 42
0.4142135623731
 10
4352.82786333524
 20
-938.0002175408443
 42
0.4142135623731
 10
4351.327863335239
 20
-939.5002175408443
 42
0.4142135623731
 10
4352.82786333524
 20
-941.0002175408443
 42
0.4142135623731
  0
LINE
  5
AB
330
1F
100
AcDbEntity
  8
0-B_寸法
  6
Continuous
 62
   120
370
     5
100
AcDbLine
 10
4202.82786333524
 20
-939.5002175408443
 30
0.0
 11
4502.82786333524
 21
-939.5002175408443
 31
0.0
  0
LWPOLYLINE
  5
AC
330
1F
100
AcDbEntity
  8
0-B_寸法
  6
Continuous
 62
     7
370
     9
100
AcDbPolyline
 90
        4
 70
     1
 43
3.0
 10
4204.32786333524
 20
-939.5002175408443
 42
0.4142135623731
 10
4202.82786333524
 20
-938.0002175408443
 42
0.4142135623731
 10
4201.327863335239
 20
-939.5002175408443
 42
0.4142135623731
 10
4202.82786333524
 20
-941.0002175408443
 42
0.4142135623731
  0
LINE
  5
AD
330
1F
100
AcDbEntity
  8
0-B_寸法
  6
Continuous
 62
   120
370
     5
100
AcDbLine
 10
4352.82786333524
 20
-914.7502175408438
 30
0.0
 11
4352.82786333524
 21
-1157.561802178169
 31
0.0
  0
LINE
  5
AE
330
1F
100
AcDbEntity
  8
0-1_本体
  6
Continuous
 62
    40
370
    15
100
AcDbLine
 10
5125.32786333524
 20
-36.50021754084364
 30
0.0
 11
5125.32786333524
 21
-5.000217540844147
 31
0.0
  0
LINE
  5
AF
330
1F
100
AcDbEntity
  8
0-1_本体
  6
Continuous
 62
    40
370
    15
100
AcDbLine
 10
5125.32786333524
 20
-5.000217540844147
 30
0.0
 11
4607.82786333524
 21
-5.000217540844147
 31
0.0
  0
LINE
  5
B0
330
1F
100
AcDbEntity
  8
0-1_本体
  6
Continuous
 62
    40
370
    15
100
AcDbLine
 10
4607.82786333524
 20
-5.000217540844147
 30
0.0
 11
4607.82786333524
 21
-36.50021754084364
 31
0.0
  0
LINE
  5
B1
330
1F
100
AcDbEntity
  8
0-1_本体
  6
Continuous
 62
    40
370
    15
100
AcDbLine
 10
5111.827863335238
 20
-918.5002175408447
 30
0.0
 11
5111.827863335238
 21
-26.00021754084466
 31
0.0
  0
LINE
  5
B2
330
1F
100
AcDbEntity
  8
0-1_本体
  6
Continuous
 62
    40
370
    15
100
AcDbLine
 10
5111.827863335238
 20
-26.00021754084466
 30
0.0
 11
5107.327863335239
 21
-26.00021754084466
 31
0.0
  0
LINE
  5
B3
330
1F
100
AcDbEntity
  8
0-1_本体
  6
Continuous
 62
    40
370
    15
100
AcDbLine
 10
5107.327863335239
 20
-918.5002175408447
 30
0.0
 11
5107.327863335239
 21
-26.00021754084466
 31
0.0
  0
LINE
  5
B4
330
1F
100
AcDbEntity
  8
0-1_本体
  6
Continuous
 62
    40
370
    15
100
AcDbLine
 10
4607.82786333524
 20
-36.50021754084364
 30
0.0
 11
5107.327863335239
 21
-36.50021754084364
 31
0.0
  0
LINE
  5
B5
330
1F
100
AcDbEntity
  8
0-1_本体
  6
Continuous
 62
    40
370
    15
100
AcDbLine
 10
5111.827863335238
 20
-36.50021754084364
 30
0.0
 11
5125.32786333524
 21
-36.50021754084364
 31
0.0
  0
LINE
  5
B6
330
1F
100
AcDbEntity
  8
0-6_カウンター
  6
Continuous
 62
     7
370
     9
100
AcDbLine
 10
5111.827863335238
 20
-119.0002175408436
 30
0.0
 11
5125.327863335238
 21
-36.50021754084364
 31
0.0
  0
LINE
  5
B7
330
1F
100
AcDbEntity
  8
0-6_カウンター
  6
Continuous
 62
    92
370
    13
100
AcDbLine
 10
5111.827863335238
 20
-36.50021754084364
 30
0.0
 11
5111.827863335238
 21
-119.0002175408436
 31
0.0
  0
LINE
  5
B8
330
1F
100
AcDbEntity
  8
0-6_カウンター
  6
Continuous
 62
    92
370
    13
100
AcDbLine
 10
5125.327863335238
 20
-36.50021754084364
 30
0.0
 11
5111.827863335238
 21
-36.50021754084364
 31
0.0
  0
LINE
  5
B9
330
1F
100
AcDbEntity
  8
0-6_カウンター
  6
Continuous
 62
    92
370
    13
100
AcDbLine
 10
5125.327863335238
 20
-119.0002175408436
 30
0.0
 11
5125.327863335238
 21
-36.50021754084364
 31
0.0
  0
LINE
  5
BA
330
1F
100
AcDbEntity
  8
0-6_カウンター
  6
Continuous
 62
    92
370
    13
100
AcDbLine
 10
5111.827863335238
 20
-119.0002175408436
 30
0.0
 11
5125.327863335238
 21
-119.0002175408436
 31
0.0
  0
LINE
  5
BB
330
1F
100
AcDbEntity
  8
0-1_本体
  6
Continuous
 62
     7
370
     9
100
AcDbLine
 10
5125.327863335238
 20
-36.50021754084364
 30
0.0
 11
5125.327863335238
 21
-908.000217540844
 31
0.0
  0
LINE
  5
BC
330
1F
100
AcDbEntity
  8
0-0_補助線
  6
JWW_HOJO
 62
   120
370
     5
100
AcDbLine
 10
5078.827863335239
 20
-918.5002175408447
 30
0.0
 11
5078.827863335239
 21
-26.00021754084466
 31
0.0
  0
LINE
  5
BD
330
1F
100
AcDbEntity
  8
0-0_補助線
  6
JWW_HOJO
 62
   120
370
     5
100
AcDbLine
 10
4694.827863335239
 20
-918.5002175408447
 30
0.0
 11
4694.827863335239
 21
-26.00021754084466
 31
0.0
  0
LINE
  5
BE
330
1F
100
AcDbEntity
  8
0-2_扉
  6
Continuous
 62
    40
370
    15
100
AcDbLine
 10
4577.82786333524
 20
-29.75021754084381
 30
0.0
 11
4577.82786333524
 21
-914.7502175408438
 31
0.0
  0
LINE
  5
BF
330
1F
100
AcDbEntity
  8
0-2_扉
  6
Continuous
 62
    40
370
    15
100
AcDbLine
 10
4607.82786333524
 20
-29.75021754084381
 30
0.0
 11
4607.82786333524
 21
-914.7502175408438
 31
0.0
  0
LINE
  5
C0
330
1F
100
AcDbEntity
  8
0-2_扉
  6
Continuous
 62
    40
370
    15
100
AcDbLine
 10
4577.82786333524
 20
-29.75021754084381
 30
0.0
 11
4607.82786333524
 21
-29.75021754084381
 31
0.0
  0
LWPOLYLINE
  5
C1
330
1F
100
AcDbEntity
  8
0-B_寸法
  6
Continuous
 62
     7
370
     9
100
AcDbPolyline
 90
        4
 70
     1
 43
3.0
 10
5351.82786333524
 20
-5.000217540844147
 42
0.4142135623731
 10
5350.32786333524
 20
-3.500217540844147
 42
0.4142135623731
 10
5348.827863335239
 20
-5.000217540844147
 42
0.4142135623731
 10
5350.32786333524
 20
-6.500217540844147
 42
0.4142135623731
  0
LINE
  5
C2
330
1F
100
AcDbEntity
  8
0-B_寸法
  6
Continuous
 62
   120
370
     5
100
AcDbLine
 10
5350.32786333524
 20
-5.000217540844147
 30
0.0
 11
5200.32786333524
 21
-5.000217540844147
 31
0.0
  0
TEXT
  5
C3
330
1F
100
AcDbEntity
  8
0-B_寸法
  6
Continuous
 62
     7
370
   211
100
AcDbText
 10
4325.137863335241
 20
9.071028356125481
 30
0.0
 40
68.58
  1
16.5
 50
90.0
 41
1.125
  7
ＭＳ ゴシック
100
AcDbText
  0
LWPOLYLINE
  5
C4
330
1F
100
AcDbEntity
  8
0-B_寸法
  6
Continuous
 62
     7
370
     9
100
AcDbPolyline
 90
        4
 70
     1
 43
3.0
 10
4354.32786333524
 20
-5.000217540844147
 42
0.4142135623731
 10
4352.82786333524
 20
-3.500217540844147
 42
0.4142135623731
 10
4351.327863335239
 20
-5.000217540844147
 42
0.4142135623731
 10
4352.82786333524
 20
-6.500217540844147
 42
0.4142135623731
  0
LWPOLYLINE
  5
C5
330
1F
100
AcDbEntity
  8
0-B_寸法
  6
Continuous
 62
     7
370
     9
100
AcDbPolyline
 90
        4
 70
     1
 43
3.0
 10
4354.32786333524
 20
-29.75021754084381
 42
0.4142135623731
 10
4352.82786333524
 20
-28.25021754084381
 42
0.4142135623731
 10
4351.327863335239
 20
-29.75021754084381
 42
0.4142135623731
 10
4352.82786333524
 20
-31.25021754084381
 42
0.4142135623731
  0
LINE
  5
C6
330
1F
100
AcDbEntity
  8
0-B_寸法
  6
Continuous
 62
   120
370
     5
100
AcDbLine
 10
4202.82786333524
 20
-5.000217540844147
 30
0.0
 11
4502.82786333524
 21
-5.000217540844147
 31
0.0
  0
LINE
  5
C7
330
1F
100
AcDbEntity
  8
0-B_寸法
  6
Continuous
 62
   120
370
     5
100
AcDbLine
 10
4352.82786333524
 20
-29.75021754084381
 30
0.0
 11
4502.82786333524
 21
-29.75021754084381
 31
0.0
  0
LINE
  5
C8
330
1F
100
AcDbEntity
  8
0-B_寸法
  6
Continuous
 62
   120
370
     5
100
AcDbLine
 10
4352.82786333524
 20
-29.75021754084381
 30
0.0
 11
4352.82786333524
 21
-914.7502175408438
 31
0.0
  0
TEXT
  5
C9
330
1F
100
AcDbEntity
  8
0-B_寸法
  6
Continuous
 62
     7
370
   211
100
AcDbText
 10
5322.637863335241
 20
-227.3752175408444
 30
0.0
 40
68.58
  1
161.5
 50
90.0
 41
0.9
  7
ＭＳ ゴシック
100
AcDbText
  0
LINE
  5
CA
330
1F
100
AcDbEntity
  8
0-B_寸法
  6
Continuous
 62
   120
370
     5
100
AcDbLine
 10
4202.82786333524
 20
-5.000217540844147
 30
0.0
 11
4202.82786333524
 21
-939.5002175408443
 31
0.0
  0
LWPOLYLINE
  5
CB
330
1F
100
AcDbEntity
  8
0-B_寸法
  6
Continuous
 62
     7
370
     9
100
AcDbPolyline
 90
        4
 70
     1
 43
3.0
 10
4204.32786333524
 20
-5.000217540844147
 42
0.4142135623731
 10
4202.82786333524
 20
-3.500217540844147
 42
0.4142135623731
 10
4201.327863335239
 20
-5.000217540844147
 42
0.4142135623731
 10
4202.82786333524
 20
-6.500217540844147
 42
0.4142135623731
  0
LINE
  5
CC
330
1F
100
AcDbEntity
  8
0-B_寸法
  6
Continuous
 62
   120
370
     5
100
AcDbLine
 10
4352.82786333524
 20
211.5710283561255
 30
0.0
 11
4352.82786333524
 21
-29.75021754084381
 31
0.0
  0
TEXT
  5
CD
330
1F
100
AcDbEntity
  8
0-B_寸法
  6
Continuous
 62
     7
370
   211
100
AcDbText
 10
5055.261824476674
 20
-219.5602175408442
 30
0.0
 40
68.58
  1
3
  7
ＭＳ ゴシック
100
AcDbText
  0
TEXT
  5
CE
330
1F
100
AcDbEntity
  8
0-B_寸法
  6
Continuous
 62
     7
370
   211
100
AcDbText
 10
4834.670793976677
 20
-439.1752175408442
 30
0.0
 40
57.15000000000001
  1
P30
 41
0.9999999999999999
  7
ＭＳ ゴシック
100
AcDbText
  0
TEXT
  5
CF
330
1F
100
AcDbEntity
  8
0-B_寸法
  6
Continuous
 62
     7
370
   211
100
AcDbText
 10
4175.137863335241
 20
-547.2502175408442
 30
0.0
 40
68.58
  1
623
 50
90.0
 41
1.111111111111111
  7
ＭＳ ゴシック
100
AcDbText
  0
LWPOLYLINE
  5
D0
330
1F
100
AcDbEntity
  8
0-B_寸法
  6
Continuous
 62
     7
370
     9
100
AcDbPolyline
 90
        4
 70
     1
 43
3.0
 10
5108.827863335239
 20
-247.2502175408442
 42
0.4142135623731
 10
5107.327863335239
 20
-245.7502175408442
 42
0.4142135623731
 10
5105.827863335238
 20
-247.2502175408442
 42
0.4142135623731
 10
5107.327863335239
 20
-248.7502175408443
 42
0.4142135623731
  0
LINE
  5
D1
330
1F
100
AcDbEntity
  8
0-B_寸法
  6
Continuous
 62
   120
370
     5
100
AcDbLine
 10
5107.327863335239
 20
-247.2502175408442
 30
0.0
 11
5111.82786333524
 21
-247.2502175408442
 31
0.0
  0
LWPOLYLINE
  5
D2
330
1F
100
AcDbEntity
  8
0-B_寸法
  6
Continuous
 62
     7
370
     9
100
AcDbPolyline
 90
        4
 70
     1
 43
3.0
 10
5113.32786333524
 20
-247.2502175408442
 42
0.4142135623731
 10
5111.82786333524
 20
-245.7502175408442
 42
0.4142135623731
 10
5110.32786333524
 20
-247.2502175408442
 42
0.4142135623731
 10
5111.82786333524
 20
-248.7502175408443
 42
0.4142135623731
  0
LINE
  5
D3
330
1F
100
AcDbEntity
  8
0-B_寸法
  6
Continuous
 62
   120
370
     5
100
AcDbLine
 10
5350.32786333524
 20
-247.2502175408442
 30
0.0
 11
5200.32786333524
 21
-247.2502175408442
 31
0.0
  0
LWPOLYLINE
  5
D4
330
1F
100
AcDbEntity
  8
0-B_寸法
  6
Continuous
 62
     7
370
     9
100
AcDbPolyline
 90
        4
 70
     1
 43
3.0
 10
5351.82786333524
 20
-247.2502175408442
 42
0.4142135623731
 10
5350.32786333524
 20
-245.7502175408442
 42
0.4142135623731
 10
5348.827863335239
 20
-247.2502175408442
 42
0.4142135623731
 10
5350.32786333524
 20
-248.7502175408443
 42
0.4142135623731
  0
LINE
  5
D5
330
1F
100
AcDbEntity
  8
0-B_寸法
  6
Continuous
 62
   120
370
     5
100
AcDbLine
 10
5350.32786333524
 20
-5.000217540844147
 30
0.0
 11
5350.32786333524
 21
-247.2502175408442
 31
0.0
  0
LINE
  5
D6
330
1F
100
AcDbEntity
  8
0-0_補助線
  6
JWW_HOJO
 62
   120
370
     5
100
AcDbLine
 10
4607.82786333524
 20
-292.2502175408442
 30
0.0
 11
5125.32786333524
 21
-292.2502175408442
 31
0.0
  0
LINE
  5
D7
330
1F
100
AcDbEntity
  8
0-0_補助線
  6
JWW_HOJO
 62
   120
370
     5
100
AcDbLine
 10
5125.32786333524
 20
-247.2502175408442
 30
0.0
 11
4607.82786333524
 21
-247.2502175408442
 31
0.0
  0
LINE
  5
D8
330
1F
100
AcDbEntity
  8
0-B_寸法
  6
Continuous
 62
   120
370
     5
100
AcDbLine
 10
5350.32786333524
 20
-697.2502175408442
 30
0.0
 11
5350.32786333524
 21
-939.5002175408443
 31
0.0
  0
LINE
  5
D9
330
1F
100
AcDbEntity
  8
0-B_寸法
  6
Continuous
 62
   120
370
     5
100
AcDbLine
 10
5350.32786333524
 20
-697.2502175408442
 30
0.0
 11
5200.32786333524
 21
-697.2502175408442
 31
0.0
  0
LWPOLYLINE
  5
DA
330
1F
100
AcDbEntity
  8
0-B_寸法
  6
Continuous
 62
     7
370
     9
100
AcDbPolyline
 90
        4
 70
     1
 43
3.0
 10
5351.82786333524
 20
-697.2502175408442
 42
0.4142135623731
 10
5350.32786333524
 20
-695.7502175408442
 42
0.4142135623731
 10
5348.827863335239
 20
-697.2502175408442
 42
0.4142135623731
 10
5350.32786333524
 20
-698.7502175408442
 42
0.4142135623731
  0
LINE
  5
DB
330
1F
100
AcDbEntity
  8
0-B_寸法
  6
Continuous
 62
   120
370
     5
100
AcDbLine
 10
5350.32786333524
 20
-247.2502175408442
 30
0.0
 11
5350.32786333524
 21
-697.2502175408442
 31
0.0
  0
LINE
  5
DC
330
1F
100
AcDbEntity
  8
0-0_補助線
  6
JWW_HOJO
 62
   120
370
     5
100
AcDbLine
 10
4607.82786333524
 20
-697.2502175408442
 30
0.0
 11
5125.32786333524
 21
-697.2502175408442
 31
0.0
  0
LINE
  5
DD
330
1F
100
AcDbEntity
  8
0-0_補助線
  6
JWW_HOJO
 62
   120
370
     5
100
AcDbLine
 10
4607.82786333524
 20
-652.2502175408442
 30
0.0
 11
5125.32786333524
 21
-652.2502175408442
 31
0.0
  0
LINE
  5
DE
330
1F
100
AcDbEntity
  8
0-0_補助線
  6
JWW_HOJO
 62
   120
370
     5
100
AcDbLine
 10
4607.82786333524
 20
-607.2502175408442
 30
0.0
 11
5125.32786333524
 21
-607.2502175408442
 31
0.0
  0
LINE
  5
DF
330
1F
100
AcDbEntity
  8
0-0_補助線
  6
JWW_HOJO
 62
   120
370
     5
100
AcDbLine
 10
4607.82786333524
 20
-562.2502175408442
 30
0.0
 11
5125.32786333524
 21
-562.2502175408442
 31
0.0
  0
LINE
  5
E0
330
1F
100
AcDbEntity
  8
0-0_補助線
  6
JWW_HOJO
 62
   120
370
     5
100
AcDbLine
 10
4607.82786333524
 20
-517.2502175408442
 30
0.0
 11
5125.32786333524
 21
-517.2502175408442
 31
0.0
  0
LINE
  5
E1
330
1F
100
AcDbEntity
  8
0-0_補助線
  6
JWW_HOJO
 62
   120
370
     5
100
AcDbLine
 10
4607.82786333524
 20
-472.2502175408442
 30
0.0
 11
5125.32786333524
 21
-472.2502175408442
 31
0.0
  0
LINE
  5
E2
330
1F
100
AcDbEntity
  8
0-0_補助線
  6
JWW_HOJO
 62
   120
370
     5
100
AcDbLine
 10
4607.82786333524
 20
-427.2502175408442
 30
0.0
 11
5125.32786333524
 21
-427.2502175408442
 31
0.0
  0
LINE
  5
E3
330
1F
100
AcDbEntity
  8
0-0_補助線
  6
JWW_HOJO
 62
   120
370
     5
100
AcDbLine
 10
4607.82786333524
 20
-382.2502175408442
 30
0.0
 11
5125.32786333524
 21
-382.2502175408442
 31
0.0
  0
LINE
  5
E4
330
1F
100
AcDbEntity
  8
0-0_補助線
  6
JWW_HOJO
 62
   120
370
     5
100
AcDbLine
 10
4607.82786333524
 20
-337.2502175408442
 30
0.0
 11
5125.32786333524
 21
-337.2502175408442
 31
0.0
  0
TEXT
  5
E5
330
1F
100
AcDbEntity
  8
0-B_寸法
  6
Continuous
 62
     7
370
   211
100
AcDbText
 10
5322.637863335241
 20
-547.2502175408442
 30
0.0
 40
68.58
  1
300
 50
90.0
 41
1.111111111111111
  7
ＭＳ ゴシック
100
AcDbText
  0
TEXT
  5
E6
330
1F
100
AcDbEntity
  8
0-B_寸法
  6
Continuous
 62
     7
370
   211
100
AcDbText
 10
4325.137863335241
 20
-704.7502175408442
 30
0.0
 40
68.58
  1
ＤＨ＝590
 50
90.0
 41
1.148148148148148
  7
ＭＳ ゴシック
100
AcDbText
  0
TEXT
  5
E7
330
1F
100
AcDbEntity
  8
0-B_寸法
  6
Continuous
 62
     7
370
   211
100
AcDbText
 10
4833.577863335239
 20
-716.6752175408442
 30
0.0
 40
57.15000000000001
  1
290
 41
0.9999999999999999
  7
ＭＳ ゴシック
100
AcDbText
  0
LINE
  5
E8
330
1F
100
AcDbEntity
  8
0-4_棚
  6
Continuous
 62
    40
370
    15
100
AcDbLine
 10
5107.327863335239
 20
-314.7502175408442
 30
0.0
 11
5107.327863335239
 21
-337.2502175408442
 31
0.0
  0
LINE
  5
E9
330
1F
100
AcDbEntity
  8
0-4_棚
  6
Continuous
 62
    40
370
    15
100
AcDbLine
 10
4672.327863335239
 20
-314.7502175408442
 30
0.0
 11
5107.327863335239
 21
-314.7502175408442
 31
0.0
  0
LINE
  5
EA
330
1F
100
AcDbEntity
  8
0-4_棚
  6
Continuous
 62
    40
370
    15
100
AcDbLine
 10
4672.327863335239
 20
-337.2502175408442
 30
0.0
 11
4672.327863335239
 21
-314.7502175408442
 31
0.0
  0
LINE
  5
EB
330
1F
100
AcDbEntity
  8
0-4_棚
  6
Continuous
 62
    40
370
    15
100
AcDbLine
 10
5107.327863335239
 20
-337.2502175408442
 30
0.0
 11
4672.327863335239
 21
-337.2502175408442
 31
0.0
  0
LINE
  5
EC
330
1F
100
AcDbEntity
  8
0-4_棚
  6
Continuous
 62
    40
370
    15
100
AcDbLine
 10
5107.327863335239
 20
-584.7502175408442
 30
0.0
 11
5107.327863335239
 21
-607.2502175408442
 31
0.0
  0
LINE
  5
ED
330
1F
100
AcDbEntity
  8
0-4_棚
  6
Continuous
 62
    40
370
    15
100
AcDbLine
 10
4672.327863335239
 20
-584.7502175408442
 30
0.0
 11
5107.327863335239
 21
-584.7502175408442
 31
0.0
  0
LINE
  5
EE
330
1F
100
AcDbEntity
  8
0-4_棚
  6
Continuous
 62
    40
370
    15
100
AcDbLine
 10
4672.327863335239
 20
-607.2502175408442
 30
0.0
 11
4672.327863335239
 21
-584.7502175408442
 31
0.0
  0
LINE
  5
EF
330
1F
100
AcDbEntity
  8
0-4_棚
  6
Continuous
 62
    40
370
    15
100
AcDbLine
 10
5107.327863335239
 20
-607.2502175408442
 30
0.0
 11
4672.327863335239
 21
-607.2502175408442
 31
0.0
  0
TEXT
  5
F0
330
1F
100
AcDbEntity
  8
0-B_寸法
  6
Continuous
 62
     7
370
   211
100
AcDbText
 10
5322.637863335241
 20
-919.6252175408445
 30
0.0
 40
68.58
  1
161.5
 50
90.0
 41
0.9
  7
ＭＳ ゴシック
100
AcDbText
  0
LINE
  5
F1
330
1F
100
AcDbEntity
  8
0-B_寸法
  6
Continuous
 62
   120
370
     5
100
AcDbLine
 10
4801.327863335239
 20
-427.2502175408442
 30
0.0
 11
4741.327863335239
 21
-427.2502175408442
 31
0.0
  0
LINE
  5
F2
330
1F
100
AcDbEntity
  8
0-B_寸法
  6
Continuous
 62
   120
370
     5
100
AcDbLine
 10
4801.327863335239
 20
-382.2502175408442
 30
0.0
 11
4741.327863335239
 21
-382.2502175408442
 31
0.0
  0
LWPOLYLINE
  5
F3
330
1F
100
AcDbEntity
  8
0-B_寸法
  6
Continuous
 62
     7
370
     9
100
AcDbPolyline
 90
        4
 70
     1
 43
3.0
 10
4802.82786333524
 20
-427.2502175408442
 42
0.4142135623731
 10
4801.327863335239
 20
-425.7502175408442
 42
0.4142135623731
 10
4799.827863335239
 20
-427.2502175408442
 42
0.4142135623731
 10
4801.327863335239
 20
-428.7502175408442
 42
0.4142135623731
  0
LWPOLYLINE
  5
F4
330
1F
100
AcDbEntity
  8
0-B_寸法
  6
Continuous
 62
     7
370
     9
100
AcDbPolyline
 90
        4
 70
     1
 43
3.0
 10
4802.82786333524
 20
-382.2502175408442
 42
0.4142135623731
 10
4801.327863335239
 20
-380.7502175408442
 42
0.4142135623731
 10
4799.827863335239
 20
-382.2502175408442
 42
0.4142135623731
 10
4801.327863335239
 20
-383.7502175408442
 42
0.4142135623731
  0
LINE
  5
F5
330
1F
100
AcDbEntity
  8
0-B_寸法
  6
Continuous
 62
   120
370
     5
100
AcDbLine
 10
4801.327863335239
 20
-382.2502175408442
 30
0.0
 11
4801.327863335239
 21
-427.2502175408442
 31
0.0
  0
LWPOLYLINE
  5
F6
330
1F
100
AcDbEntity
  8
0-5_ダボ
  6
Continuous
 62
     7
370
     9
100
AcDbPolyline
 90
        4
 70
     1
 43
3.0
 10
5080.32786333524
 20
-247.2502175408442
 42
0.4142135623731
 10
5078.827863335239
 20
-245.7502175408442
 42
0.4142135623731
 10
5077.327863335239
 20
-247.2502175408442
 42
0.4142135623731
 10
5078.827863335239
 20
-248.7502175408443
 42
0.4142135623731
  0
LWPOLYLINE
  5
F7
330
1F
100
AcDbEntity
  8
0-5_ダボ
  6
Continuous
 62
     7
370
     9
100
AcDbPolyline
 90
        4
 70
     1
 43
3.0
 10
5080.32786333524
 20
-292.2502175408442
 42
0.4142135623731
 10
5078.827863335239
 20
-290.7502175408442
 42
0.4142135623731
 10
5077.327863335239
 20
-292.2502175408442
 42
0.4142135623731
 10
5078.827863335239
 20
-293.7502175408442
 42
0.4142135623731
  0
LWPOLYLINE
  5
F8
330
1F
100
AcDbEntity
  8
0-5_ダボ
  6
Continuous
 62
     7
370
     9
100
AcDbPolyline
 90
        4
 70
     1
 43
3.0
 10
4696.327863335239
 20
-292.2502175408442
 42
0.4142135623731
 10
4694.827863335239
 20
-290.7502175408442
 42
0.4142135623731
 10
4693.327863335238
 20
-292.2502175408442
 42
0.4142135623731
 10
4694.827863335239
 20
-293.7502175408442
 42
0.4142135623731
  0
LWPOLYLINE
  5
F9
330
1F
100
AcDbEntity
  8
0-5_ダボ
  6
Continuous
 62
     7
370
     9
100
AcDbPolyline
 90
        4
 70
     1
 43
3.0
 10
4696.327863335239
 20
-247.2502175408442
 42
0.4142135623731
 10
4694.827863335239
 20
-245.7502175408442
 42
0.4142135623731
 10
4693.327863335238
 20
-247.2502175408442
 42
0.4142135623731
 10
4694.827863335239
 20
-248.7502175408443
 42
0.4142135623731
  0
LWPOLYLINE
  5
FA
330
1F
100
AcDbEntity
  8
0-5_ダボ
  6
Continuous
 62
     7
370
     9
100
AcDbPolyline
 90
        4
 70
     1
 43
3.0
 10
5080.32786333524
 20
-697.2502175408442
 42
0.4142135623731
 10
5078.827863335239
 20
-695.7502175408442
 42
0.4142135623731
 10
5077.327863335239
 20
-697.2502175408442
 42
0.4142135623731
 10
5078.827863335239
 20
-698.7502175408442
 42
0.4142135623731
  0
LWPOLYLINE
  5
FB
330
1F
100
AcDbEntity
  8
0-5_ダボ
  6
Continuous
 62
     7
370
     9
100
AcDbPolyline
 90
        4
 70
     1
 43
3.0
 10
4696.327863335239
 20
-697.2502175408442
 42
0.4142135623731
 10
4694.827863335239
 20
-695.7502175408442
 42
0.4142135623731
 10
4693.327863335238
 20
-697.2502175408442
 42
0.4142135623731
 10
4694.827863335239
 20
-698.7502175408442
 42
0.4142135623731
  0
LWPOLYLINE
  5
FC
330
1F
100
AcDbEntity
  8
0-5_ダボ
  6
Continuous
 62
     7
370
     9
100
AcDbPolyline
 90
        4
 70
     1
 43
3.0
 10
5080.32786333524
 20
-652.2502175408442
 42
0.4142135623731
 10
5078.827863335239
 20
-650.7502175408442
 42
0.4142135623731
 10
5077.327863335239
 20
-652.2502175408442
 42
0.4142135623731
 10
5078.827863335239
 20
-653.7502175408442
 42
0.4142135623731
  0
LWPOLYLINE
  5
FD
330
1F
100
AcDbEntity
  8
0-5_ダボ
  6
Continuous
 62
     7
370
     9
100
AcDbPolyline
 90
        4
 70
     1
 43
3.0
 10
4696.327863335239
 20
-652.2502175408442
 42
0.4142135623731
 10
4694.827863335239
 20
-650.7502175408442
 42
0.4142135623731
 10
4693.327863335238
 20
-652.2502175408442
 42
0.4142135623731
 10
4694.827863335239
 20
-653.7502175408442
 42
0.4142135623731
  0
LWPOLYLINE
  5
FE
330
1F
100
AcDbEntity
  8
0-5_ダボ
  6
Continuous
 62
     7
370
     9
100
AcDbPolyline
 90
        4
 70
     1
 43
3.0
 10
5080.32786333524
 20
-607.2502175408442
 42
0.4142135623731
 10
5078.827863335239
 20
-605.7502175408442
 42
0.4142135623731
 10
5077.327863335239
 20
-607.2502175408442
 42
0.4142135623731
 10
5078.827863335239
 20
-608.7502175408442
 42
0.4142135623731
  0
LWPOLYLINE
  5
FF
330
1F
100
AcDbEntity
  8
0-5_ダボ
  6
Continuous
 62
     7
370
     9
100
AcDbPolyline
 90
        4
 70
     1
 43
3.0
 10
4696.327863335239
 20
-607.2502175408442
 42
0.4142135623731
 10
4694.827863335239
 20
-605.7502175408442
 42
0.4142135623731
 10
4693.327863335238
 20
-607.2502175408442
 42
0.4142135623731
 10
4694.827863335239
 20
-608.7502175408442
 42
0.4142135623731
  0
LWPOLYLINE
  5
100
330
1F
100
AcDbEntity
  8
0-5_ダボ
  6
Continuous
 62
     7
370
     9
100
AcDbPolyline
 90
        4
 70
     1
 43
3.0
 10
5080.32786333524
 20
-562.2502175408442
 42
0.4142135623731
 10
5078.827863335239
 20
-560.7502175408442
 42
0.4142135623731
 10
5077.327863335239
 20
-562.2502175408442
 42
0.4142135623731
 10
5078.827863335239
 20
-563.7502175408442
 42
0.4142135623731
  0
LWPOLYLINE
  5
101
330
1F
100
AcDbEntity
  8
0-5_ダボ
  6
Continuous
 62
     7
370
     9
100
AcDbPolyline
 90
        4
 70
     1
 43
3.0
 10
4696.327863335239
 20
-562.2502175408442
 42
0.4142135623731
 10
4694.827863335239
 20
-560.7502175408442
 42
0.4142135623731
 10
4693.327863335238
 20
-562.2502175408442
 42
0.4142135623731
 10
4694.827863335239
 20
-563.7502175408442
 42
0.4142135623731
  0
LWPOLYLINE
  5
102
330
1F
100
AcDbEntity
  8
0-5_ダボ
  6
Continuous
 62
     7
370
     9
100
AcDbPolyline
 90
        4
 70
     1
 43
3.0
 10
5080.32786333524
 20
-517.2502175408442
 42
0.4142135623731
 10
5078.827863335239
 20
-515.7502175408442
 42
0.4142135623731
 10
5077.327863335239
 20
-517.2502175408442
 42
0.4142135623731
 10
5078.827863335239
 20
-518.7502175408442
 42
0.4142135623731
  0
LWPOLYLINE
  5
103
330
1F
100
AcDbEntity
  8
0-5_ダボ
  6
Continuous
 62
     7
370
     9
100
AcDbPolyline
 90
        4
 70
     1
 43
3.0
 10
4696.327863335239
 20
-517.2502175408442
 42
0.4142135623731
 10
4694.827863335239
 20
-515.7502175408442
 42
0.4142135623731
 10
4693.327863335238
 20
-517.2502175408442
 42
0.4142135623731
 10
4694.827863335239
 20
-518.7502175408442
 42
0.4142135623731
  0
LWPOLYLINE
  5
104
330
1F
100
AcDbEntity
  8
0-5_ダボ
  6
Continuous
 62
     7
370
     9
100
AcDbPolyline
 90
        4
 70
     1
 43
3.0
 10
5080.32786333524
 20
-472.2502175408442
 42
0.4142135623731
 10
5078.827863335239
 20
-470.7502175408442
 42
0.4142135623731
 10
5077.327863335239
 20
-472.2502175408442
 42
0.4142135623731
 10
5078.827863335239
 20
-473.7502175408442
 42
0.4142135623731
  0
LWPOLYLINE
  5
105
330
1F
100
AcDbEntity
  8
0-5_ダボ
  6
Continuous
 62
     7
370
     9
100
AcDbPolyline
 90
        4
 70
     1
 43
3.0
 10
4696.327863335239
 20
-472.2502175408442
 42
0.4142135623731
 10
4694.827863335239
 20
-470.7502175408442
 42
0.4142135623731
 10
4693.327863335238
 20
-472.2502175408442
 42
0.4142135623731
 10
4694.827863335239
 20
-473.7502175408442
 42
0.4142135623731
  0
LWPOLYLINE
  5
106
330
1F
100
AcDbEntity
  8
0-5_ダボ
  6
Continuous
 62
     7
370
     9
100
AcDbPolyline
 90
        4
 70
     1
 43
3.0
 10
5080.32786333524
 20
-427.2502175408442
 42
0.4142135623731
 10
5078.827863335239
 20
-425.7502175408442
 42
0.4142135623731
 10
5077.327863335239
 20
-427.2502175408442
 42
0.4142135623731
 10
5078.827863335239
 20
-428.7502175408442
 42
0.4142135623731
  0
LWPOLYLINE
  5
107
330
1F
100
AcDbEntity
  8
0-5_ダボ
  6
Continuous
 62
     7
370
     9
100
AcDbPolyline
 90
        4
 70
     1
 43
3.0
 10
4696.327863335239
 20
-427.2502175408442
 42
0.4142135623731
 10
4694.827863335239
 20
-425.7502175408442
 42
0.4142135623731
 10
4693.327863335238
 20
-427.2502175408442
 42
0.4142135623731
 10
4694.827863335239
 20
-428.7502175408442
 42
0.4142135623731
  0
LWPOLYLINE
  5
108
330
1F
100
AcDbEntity
  8
0-5_ダボ
  6
Continuous
 62
     7
370
     9
100
AcDbPolyline
 90
        4
 70
     1
 43
3.0
 10
5080.32786333524
 20
-382.2502175408442
 42
0.4142135623731
 10
5078.827863335239
 20
-380.7502175408442
 42
0.4142135623731
 10
5077.327863335239
 20
-382.2502175408442
 42
0.4142135623731
 10
5078.827863335239
 20
-383.7502175408442
 42
0.4142135623731
  0
LWPOLYLINE
  5
109
330
1F
100
AcDbEntity
  8
0-5_ダボ
  6
Continuous
 62
     7
370
     9
100
AcDbPolyline
 90
        4
 70
     1
 43
3.0
 10
4696.327863335239
 20
-382.2502175408442
 42
0.4142135623731
 10
4694.827863335239
 20
-380.7502175408442
 42
0.4142135623731
 10
4693.327863335238
 20
-382.2502175408442
 42
0.4142135623731
 10
4694.827863335239
 20
-383.7502175408442
 42
0.4142135623731
  0
LWPOLYLINE
  5
10A
330
1F
100
AcDbEntity
  8
0-5_ダボ
  6
Continuous
 62
     7
370
     9
100
AcDbPolyline
 90
        4
 70
     1
 43
3.0
 10
5080.32786333524
 20
-337.2502175408442
 42
0.4142135623731
 10
5078.827863335239
 20
-335.7502175408442
 42
0.4142135623731
 10
5077.327863335239
 20
-337.2502175408442
 42
0.4142135623731
 10
5078.827863335239
 20
-338.7502175408442
 42
0.4142135623731
  0
LWPOLYLINE
  5
10B
330
1F
100
AcDbEntity
  8
0-5_ダボ
  6
Continuous
 62
     7
370
     9
100
AcDbPolyline
 90
        4
 70
     1
 43
3.0
 10
4696.327863335239
 20
-337.2502175408442
 42
0.4142135623731
 10
4694.827863335239
 20
-335.7502175408442
 42
0.4142135623731
 10
4693.327863335238
 20
-337.2502175408442
 42
0.4142135623731
 10
4694.827863335239
 20
-338.7502175408442
 42
0.4142135623731
  0
LINE
  5
10C
330
1F
100
AcDbEntity
  8
0-B_寸法
  6
Continuous
 62
   120
370
     5
100
AcDbLine
 10
5107.327863335239
 20
-742.2502175408442
 30
0.0
 11
5107.327863335239
 21
-682.2502175408442
 31
0.0
  0
LINE
  5
10D
330
1F
100
AcDbEntity
  8
0-B_寸法
  6
Continuous
 62
   120
370
     5
100
AcDbLine
 10
4672.327863335239
 20
-742.2502175408442
 30
0.0
 11
4672.327863335239
 21
-682.2502175408442
 31
0.0
  0
LWPOLYLINE
  5
10E
330
1F
100
AcDbEntity
  8
0-B_寸法
  6
Continuous
 62
     7
370
     9
100
AcDbPolyline
 90
        4
 70
     1
 43
3.0
 10
5108.827863335239
 20
-742.2502175408442
 42
0.4142135623731
 10
5107.327863335239
 20
-740.7502175408442
 42
0.4142135623731
 10
5105.827863335238
 20
-742.2502175408442
 42
0.4142135623731
 10
5107.327863335239
 20
-743.7502175408442
 42
0.4142135623731
  0
LWPOLYLINE
  5
10F
330
1F
100
AcDbEntity
  8
0-B_寸法
  6
Continuous
 62
     7
370
     9
100
AcDbPolyline
 90
        4
 70
     1
 43
3.0
 10
4673.827863335239
 20
-742.2502175408442
 42
0.4142135623731
 10
4672.327863335239
 20
-740.7502175408442
 42
0.4142135623731
 10
4670.827863335238
 20
-742.2502175408442
 42
0.4142135623731
 10
4672.327863335239
 20
-743.7502175408442
 42
0.4142135623731
  0
LINE
  5
110
330
1F
100
AcDbEntity
  8
0-B_寸法
  6
Continuous
 62
   120
370
     5
100
AcDbLine
 10
4672.327863335239
 20
-742.2502175408442
 30
0.0
 11
5107.327863335239
 21
-742.2502175408442
 31
0.0
  0
TEXT
  5
111
330
1F
100
AcDbEntity
  8
0-B_寸法
  6
Continuous
 62
     7
370
   211
100
AcDbText
 10
4325.137863335241
 20
-1157.561802178169
 30
0.0
 40
68.58
  1
16.5
 50
90.0
 41
1.125
  7
ＭＳ ゴシック
100
AcDbText
  0
LINE
  5
112
330
1F
100
AcDbEntity
  8
0-1_本体
  6
Continuous
 62
    92
370
    13
100
AcDbLine
 10
-179.6294415953892
 20
-939.5002175408443
 30
0.0
 11
1020.370558404611
 21
-939.5002175408443
 31
0.0
  0
LINE
  5
113
330
1F
100
AcDbEntity
  8
0-1_本体
  6
Continuous
 62
    92
370
    13
100
AcDbLine
 10
-156.3794415953893
 20
-907.2502175408442
 30
0.0
 11
997.1205584046106
 21
-907.2502175408442
 31
0.0
  0
LWPOLYLINE
  5
114
330
1F
100
AcDbEntity
  8
0-B_寸法
  6
Continuous
 62
     7
370
     9
100
AcDbPolyline
 90
        4
 70
     1
 43
3.0
 10
-403.1294415953894
 20
-939.5002175408443
 42
0.4142135623731
 10
-404.6294415953894
 20
-938.0002175408443
 42
0.4142135623731
 10
-406.1294415953894
 20
-939.5002175408443
 42
0.4142135623731
 10
-404.6294415953894
 20
-941.0002175408443
 42
0.4142135623731
  0
LINE
  5
115
330
1F
100
AcDbEntity
  8
0-B_寸法
  6
Continuous
 62
   120
370
     5
100
AcDbLine
 10
-404.6294415953894
 20
-939.5002175408443
 30
0.0
 11
-254.6294415953894
 21
-939.5002175408443
 31
0.0
  0
LINE
  5
116
330
1F
100
AcDbEntity
  8
0-1_本体
  6
Continuous
 62
    92
370
    13
100
AcDbLine
 10
1020.370558404611
 20
-5.000217540844147
 30
0.0
 11
-179.6294415953892
 21
-5.000217540844147
 31
0.0
  0
LINE
  5
117
330
1F
100
AcDbEntity
  8
0-1_本体
  6
Continuous
 62
    92
370
    13
100
AcDbLine
 10
-179.6294415953892
 20
-5.000217540844147
 30
0.0
 11
-179.6294415953892
 21
-939.5002175408443
 31
0.0
  0
LINE
  5
118
330
1F
100
AcDbEntity
  8
0-1_本体
  6
Continuous
 62
    92
370
    13
100
AcDbLine
 10
1020.370558404611
 20
-939.5002175408443
 30
0.0
 11
1020.370558404611
 21
-5.000217540844147
 31
0.0
  0
LINE
  5
119
330
1F
100
AcDbEntity
  8
0-1_本体
  6
Continuous
 62
    92
370
    13
100
AcDbLine
 10
-156.3794415953893
 20
-5.000217540844147
 30
0.0
 11
-156.3794415953893
 21
-939.5002175408443
 31
0.0
  0
LINE
  5
11A
330
1F
100
AcDbEntity
  8
0-1_本体
  6
Continuous
 62
    92
370
    13
100
AcDbLine
 10
997.1205584046106
 20
-37.25021754084381
 30
0.0
 11
-156.3794415953893
 21
-37.25021754084381
 31
0.0
  0
LINE
  5
11B
330
1F
100
AcDbEntity
  8
0-1_本体
  6
Continuous
 62
    92
370
    13
100
AcDbLine
 10
997.1205584046106
 20
-939.5002175408443
 30
0.0
 11
997.1205584046106
 21
-5.000217540844147
 31
0.0
  0
LINE
  5
11C
330
1F
100
AcDbEntity
  8
0-B_寸法
  6
Continuous
 62
   120
370
     5
100
AcDbLine
 10
-404.6294415953894
 20
-5.000217540844147
 30
0.0
 11
-404.6294415953894
 21
-939.5002175408443
 31
0.0
  0
LWPOLYLINE
  5
11D
330
1F
100
AcDbEntity
  8
0-B_寸法
  6
Continuous
 62
     7
370
     9
100
AcDbPolyline
 90
        4
 70
     1
 43
3.0
 10
-403.1294415953894
 20
-5.000217540844147
 42
0.4142135623731
 10
-404.6294415953894
 20
-3.500217540844147
 42
0.4142135623731
 10
-406.1294415953894
 20
-5.000217540844147
 42
0.4142135623731
 10
-404.6294415953894
 20
-6.500217540844147
 42
0.4142135623731
  0
LINE
  5
11E
330
1F
100
AcDbEntity
  8
0-B_寸法
  6
Continuous
 62
   120
370
     5
100
AcDbLine
 10
-404.6294415953894
 20
-5.000217540844147
 30
0.0
 11
-254.6294415953894
 21
-5.000217540844147
 31
0.0
  0
TEXT
  5
11F
330
1F
100
AcDbEntity
  8
0-B_寸法
  6
Continuous
 62
     7
370
   211
100
AcDbText
 10
-432.3194415953894
 20
-547.2502175408442
 30
0.0
 40
68.58
  1
623
 50
90.0
 41
1.111111111111111
  7
ＭＳ ゴシック
100
AcDbText
  0
LINE
  5
120
330
1F
100
AcDbEntity
  8
0-4_棚
  6
Continuous
 62
    92
370
    13
100
AcDbLine
 10
-154.8794415953891
 20
-305.0002175408441
 30
0.0
 11
-154.8794415953891
 21
-327.5002175408441
 31
0.0
  0
LINE
  5
121
330
1F
100
AcDbEntity
  8
0-4_棚
  6
Continuous
 62
    92
370
    13
100
AcDbLine
 10
995.6205584046111
 20
-305.0002175408441
 30
0.0
 11
-154.8794415953891
 21
-305.0002175408441
 31
0.0
  0
LINE
  5
122
330
1F
100
AcDbEntity
  8
0-4_棚
  6
Continuous
 62
    92
370
    13
100
AcDbLine
 10
995.6205584046111
 20
-327.5002175408441
 30
0.0
 11
995.6205584046111
 21
-305.0002175408441
 31
0.0
  0
LINE
  5
123
330
1F
100
AcDbEntity
  8
0-4_棚
  6
Continuous
 62
    92
370
    13
100
AcDbLine
 10
-154.8794415953891
 20
-327.5002175408441
 30
0.0
 11
995.6205584046111
 21
-327.5002175408441
 31
0.0
  0
LINE
  5
124
330
1F
100
AcDbEntity
  8
0-B_寸法
  6
Continuous
 62
   120
370
     5
100
AcDbLine
 10
815.4926503644137
 20
-305.0002175408441
 30
0.0
 11
815.4926503644137
 21
-327.5002175408441
 31
0.0
  0
LWPOLYLINE
  5
125
330
1F
100
AcDbEntity
  8
0-B_寸法
  6
Continuous
 62
     7
370
     9
100
AcDbPolyline
 90
        4
 70
     1
 43
3.0
 10
816.9926503644137
 20
-305.0002175408441
 42
0.4142135623731
 10
815.4926503644137
 20
-303.5002175408441
 42
0.4142135623731
 10
813.9926503644136
 20
-305.0002175408441
 42
0.4142135623731
 10
815.4926503644137
 20
-306.5002175408442
 42
0.4142135623731
  0
LWPOLYLINE
  5
126
330
1F
100
AcDbEntity
  8
0-B_寸法
  6
Continuous
 62
     7
370
     9
100
AcDbPolyline
 90
        4
 70
     1
 43
3.0
 10
816.9926503644137
 20
-327.5002175408441
 42
0.4142135623731
 10
815.4926503644137
 20
-326.0002175408441
 42
0.4142135623731
 10
813.9926503644136
 20
-327.5002175408441
 42
0.4142135623731
 10
815.4926503644137
 20
-329.0002175408442
 42
0.4142135623731
  0
LINE
  5
127
330
1F
100
AcDbEntity
  8
0-B_寸法
  6
Continuous
 62
   120
370
     5
100
AcDbLine
 10
815.4926503644137
 20
-305.0002175408441
 30
0.0
 11
665.4926503644137
 21
-305.0002175408441
 31
0.0
  0
LINE
  5
128
330
1F
100
AcDbEntity
  8
0-B_寸法
  6
Continuous
 62
   120
370
     5
100
AcDbLine
 10
815.4926503644137
 20
-327.5002175408441
 30
0.0
 11
665.4926503644137
 21
-327.5002175408441
 31
0.0
  0
TEXT
  5
129
330
1F
100
AcDbEntity
  8
0-B_寸法
  6
Continuous
 62
     7
370
   211
100
AcDbText
 10
787.8026503644137
 20
-291.3279632420833
 30
0.0
 40
68.58
  1
15
 50
90.0
 41
1.083333333333333
  7
ＭＳ ゴシック
100
AcDbText
  0
TEXT
  5
12A
330
1F
100
AcDbEntity
  8
0-A_文字
  6
Continuous
 62
     7
370
     9
100
AcDbText
 10
285.3705584046108
 20
-267.7141317206999
 30
0.0
 40
68.58
  1
可動棚
  7
ＭＳ ゴシック
100
AcDbText
  0
LINE
  5
12B
330
1F
100
AcDbEntity
  8
0-4_棚
  6
Continuous
 62
    92
370
    13
100
AcDbLine
 10
-154.8794415953891
 20
-575.0002175408441
 30
0.0
 11
-154.8794415953891
 21
-597.5002175408441
 31
0.0
  0
LINE
  5
12C
330
1F
100
AcDbEntity
  8
0-4_棚
  6
Continuous
 62
    92
370
    13
100
AcDbLine
 10
995.6205584046111
 20
-575.0002175408441
 30
0.0
 11
-154.8794415953891
 21
-575.0002175408441
 31
0.0
  0
LINE
  5
12D
330
1F
100
AcDbEntity
  8
0-4_棚
  6
Continuous
 62
    92
370
    13
100
AcDbLine
 10
995.6205584046111
 20
-597.5002175408441
 30
0.0
 11
995.6205584046111
 21
-575.0002175408441
 31
0.0
  0
LINE
  5
12E
330
1F
100
AcDbEntity
  8
0-4_棚
  6
Continuous
 62
    92
370
    13
100
AcDbLine
 10
-154.8794415953891
 20
-597.5002175408441
 30
0.0
 11
995.6205584046111
 21
-597.5002175408441
 31
0.0
  0
LINE
  5
12F
330
1F
100
AcDbEntity
  8
0-B_寸法
  6
Continuous
 62
   120
370
     5
100
AcDbLine
 10
815.4926503644137
 20
-575.0002175408441
 30
0.0
 11
815.4926503644137
 21
-597.5002175408441
 31
0.0
  0
LWPOLYLINE
  5
130
330
1F
100
AcDbEntity
  8
0-B_寸法
  6
Continuous
 62
     7
370
     9
100
AcDbPolyline
 90
        4
 70
     1
 43
3.0
 10
816.9926503644137
 20
-575.0002175408441
 42
0.4142135623731
 10
815.4926503644137
 20
-573.5002175408441
 42
0.4142135623731
 10
813.9926503644136
 20
-575.0002175408441
 42
0.4142135623731
 10
815.4926503644137
 20
-576.5002175408441
 42
0.4142135623731
  0
LWPOLYLINE
  5
131
330
1F
100
AcDbEntity
  8
0-B_寸法
  6
Continuous
 62
     7
370
     9
100
AcDbPolyline
 90
        4
 70
     1
 43
3.0
 10
816.9926503644137
 20
-597.5002175408441
 42
0.4142135623731
 10
815.4926503644137
 20
-596.0002175408441
 42
0.4142135623731
 10
813.9926503644136
 20
-597.5002175408441
 42
0.4142135623731
 10
815.4926503644137
 20
-599.0002175408441
 42
0.4142135623731
  0
LINE
  5
132
330
1F
100
AcDbEntity
  8
0-B_寸法
  6
Continuous
 62
   120
370
     5
100
AcDbLine
 10
815.4926503644137
 20
-575.0002175408441
 30
0.0
 11
665.4926503644137
 21
-575.0002175408441
 31
0.0
  0
LINE
  5
133
330
1F
100
AcDbEntity
  8
0-B_寸法
  6
Continuous
 62
   120
370
     5
100
AcDbLine
 10
815.4926503644137
 20
-597.5002175408441
 30
0.0
 11
665.4926503644137
 21
-597.5002175408441
 31
0.0
  0
TEXT
  5
134
330
1F
100
AcDbEntity
  8
0-B_寸法
  6
Continuous
 62
     7
370
   211
100
AcDbText
 10
787.8026503644137
 20
-561.3279632420833
 30
0.0
 40
68.58
  1
15
 50
90.0
 41
1.083333333333333
  7
ＭＳ ゴシック
100
AcDbText
  0
TEXT
  5
135
330
1F
100
AcDbEntity
  8
0-A_文字
  6
Continuous
 62
     7
370
     9
100
AcDbText
 10
285.3705584046108
 20
-537.7141317206998
 30
0.0
 40
68.58
  1
可動棚
  7
ＭＳ ゴシック
100
AcDbText
  0
LINE
  5
136
330
1F
100
AcDbEntity
  8
0-1_本体
  6
Continuous
 62
    92
370
    13
100
AcDbLine
 10
-5076.578110775062
 20
-939.5002175408443
 30
0.0
 11
-3876.578110775061
 21
-939.5002175408443
 31
0.0
  0
LINE
  5
137
330
1F
100
AcDbEntity
  8
0-2_扉
  6
Continuous
 62
    92
370
    13
100
AcDbLine
 10
-5073.578110775062
 20
-914.7502175408442
 30
0.0
 11
-4478.82811077506
 21
-914.7502175408442
 31
0.0
  0
LINE
  5
138
330
1F
100
AcDbEntity
  8
0-2_扉
  6
Continuous
 62
    92
370
    13
100
AcDbLine
 10
-4474.328110775061
 20
-914.7502175408442
 30
0.0
 11
-3879.57811077506
 21
-914.7502175408442
 31
0.0
  0
LINE
  5
139
330
1F
100
AcDbEntity
  8
0-1_本体
  6
Continuous
 62
    92
370
    13
100
AcDbLine
 10
-5053.328110775061
 20
-914.7502175408442
 30
0.0
 11
-5053.328110775061
 21
-939.5002175408443
 31
0.0
  0
LINE
  5
13A
330
1F
100
AcDbEntity
  8
0-1_本体
  6
Continuous
 62
    92
370
    13
100
AcDbLine
 10
-3899.828110775061
 20
-939.5002175408443
 30
0.0
 11
-3899.828110775061
 21
-914.7502175408442
 31
0.0
  0
LWPOLYLINE
  5
13B
330
1F
100
AcDbEntity
  8
0-B_寸法
  6
Continuous
 62
     7
370
     9
100
AcDbPolyline
 90
        4
 70
     1
 43
3.0
 10
-5300.078110775061
 20
-939.5002175408443
 42
0.4142135623731
 10
-5301.578110775062
 20
-938.0002175408443
 42
0.4142135623731
 10
-5303.078110775062
 20
-939.5002175408443
 42
0.4142135623731
 10
-5301.578110775062
 20
-941.0002175408443
 42
0.4142135623731
  0
LINE
  5
13C
330
1F
100
AcDbEntity
  8
0-B_寸法
  6
Continuous
 62
   120
370
     5
100
AcDbLine
 10
-5301.578110775062
 20
-939.5002175408443
 30
0.0
 11
-5151.578110775062
 21
-939.5002175408443
 31
0.0
  0
LINE
  5
13D
330
1F
100
AcDbEntity
  8
0-1_本体
  6
Continuous
 62
    92
370
    13
100
AcDbLine
 10
-3876.578110775061
 20
-939.5002175408443
 30
0.0
 11
-3876.578110775061
 21
-5.000217540844147
 31
0.0
  0
LINE
  5
13E
330
1F
100
AcDbEntity
  8
0-1_本体
  6
Continuous
 62
    92
370
    13
100
AcDbLine
 10
-3876.578110775061
 20
-5.000217540844147
 30
0.0
 11
-5076.578110775062
 21
-5.000217540844147
 31
0.0
  0
LINE
  5
13F
330
1F
100
AcDbEntity
  8
0-1_本体
  6
Continuous
 62
    92
370
    13
100
AcDbLine
 10
-5076.578110775062
 20
-5.000217540844147
 30
0.0
 11
-5076.578110775062
 21
-939.5002175408443
 31
0.0
  0
LINE
  5
140
330
1F
100
AcDbEntity
  8
0-2_扉
  6
Continuous
 62
    92
370
    13
100
AcDbLine
 10
-4478.82811077506
 20
-914.7502175408442
 30
0.0
 11
-4478.82811077506
 21
-29.75021754084381
 31
0.0
  0
LINE
  5
141
330
1F
100
AcDbEntity
  8
0-2_扉
  6
Continuous
 62
    92
370
    13
100
AcDbLine
 10
-4474.328110775061
 20
-914.7502175408442
 30
0.0
 11
-4474.328110775061
 21
-29.75021754084381
 31
0.0
  0
LINE
  5
142
330
1F
100
AcDbEntity
  8
0-2_扉
  6
Continuous
 62
    92
370
    13
100
AcDbLine
 10
-4478.82811077506
 20
-29.75021754084381
 30
0.0
 11
-5073.578110775062
 21
-29.75021754084381
 31
0.0
  0
LINE
  5
143
330
1F
100
AcDbEntity
  8
0-2_扉
  6
Continuous
 62
    92
370
    13
100
AcDbLine
 10
-5073.578110775062
 20
-29.75021754084381
 30
0.0
 11
-5073.578110775062
 21
-914.7502175408442
 31
0.0
  0
LINE
  5
144
330
1F
100
AcDbEntity
  8
0-2_扉
  6
Continuous
 62
    92
370
    13
100
AcDbLine
 10
-3879.57811077506
 20
-29.75021754084381
 30
0.0
 11
-4474.328110775061
 21
-29.75021754084381
 31
0.0
  0
LINE
  5
145
330
1F
100
AcDbEntity
  8
0-2_扉
  6
Continuous
 62
    92
370
    13
100
AcDbLine
 10
-3879.57811077506
 20
-914.7502175408442
 30
0.0
 11
-3879.57811077506
 21
-29.75021754084381
 31
0.0
  0
LINE
  5
146
330
1F
100
AcDbEntity
  8
0-B_寸法
  6
Continuous
 62
   120
370
     5
100
AcDbLine
 10
-5301.578110775062
 20
-939.5002175408443
 30
0.0
 11
-5301.578110775062
 21
-5.000217540844147
 31
0.0
  0
LWPOLYLINE
  5
147
330
1F
100
AcDbEntity
  8
0-B_寸法
  6
Continuous
 62
     7
370
     9
100
AcDbPolyline
 90
        4
 70
     1
 43
3.0
 10
-5300.078110775061
 20
-5.000217540844147
 42
0.4142135623731
 10
-5301.578110775062
 20
-3.500217540844147
 42
0.4142135623731
 10
-5303.078110775062
 20
-5.000217540844147
 42
0.4142135623731
 10
-5301.578110775062
 20
-6.500217540844147
 42
0.4142135623731
  0
LINE
  5
148
330
1F
100
AcDbEntity
  8
0-B_寸法
  6
Continuous
 62
   120
370
     5
100
AcDbLine
 10
-5301.578110775062
 20
-5.000217540844147
 30
0.0
 11
-5151.578110775062
 21
-5.000217540844147
 31
0.0
  0
LINE
  5
149
330
1F
100
AcDbEntity
  8
0-2_扉
  6
JWW_CENTER1
 62
   120
370
     5
100
AcDbLine
 10
-4478.82811077506
 20
-29.75021754084381
 30
0.0
 11
-5073.578110775062
 21
-472.2502175408442
 31
0.0
  0
LINE
  5
14A
330
1F
100
AcDbEntity
  8
0-2_扉
  6
JWW_CENTER1
 62
   120
370
     5
100
AcDbLine
 10
-5073.578110775062
 20
-472.2502175408442
 30
0.0
 11
-4478.82811077506
 21
-914.7502175408442
 31
0.0
  0
LINE
  5
14B
330
1F
100
AcDbEntity
  8
0-2_扉
  6
JWW_CENTER1
 62
   120
370
     5
100
AcDbLine
 10
-4474.328110775061
 20
-914.7502175408442
 30
0.0
 11
-3879.57811077506
 21
-472.2502175408442
 31
0.0
  0
LINE
  5
14C
330
1F
100
AcDbEntity
  8
0-2_扉
  6
JWW_CENTER1
 62
   120
370
     5
100
AcDbLine
 10
-3879.57811077506
 20
-472.2502175408442
 30
0.0
 11
-4474.328110775061
 21
-29.75021754084381
 31
0.0
  0
TEXT
  5
14D
330
1F
100
AcDbEntity
  8
0-B_寸法
  6
Continuous
 62
     7
370
   211
100
AcDbText
 10
-5329.268110775061
 20
-547.2502175408442
 30
0.0
 40
68.58
  1
623
 50
90.0
 41
1.111111111111111
  7
ＭＳ ゴシック
100
AcDbText
  0
LINE
  5
14E
330
1F
100
AcDbEntity
  8
0-B_寸法
  6
Continuous
 62
   120
370
     5
100
AcDbLine
 10
3645.370558404611
 20
-1154.652122052502
 30
0.0
 11
3645.370558404611
 21
214.4807084817924
 31
0.0
  0
LWPOLYLINE
  5
14F
330
1F
100
AcDbEntity
  8
0-B_寸法
  6
Continuous
 62
     7
370
     9
100
AcDbPolyline
 90
        4
 70
     1
 43
3.0
 10
3646.870558404611
 20
-939.5002175408443
 42
0.4142135623731
 10
3645.370558404611
 20
-938.0002175408443
 42
0.4142135623731
 10
3643.870558404611
 20
-939.5002175408443
 42
0.4142135623731
 10
3645.370558404611
 20
-941.0002175408443
 42
0.4142135623731
  0
LWPOLYLINE
  5
150
330
1F
100
AcDbEntity
  8
0-B_寸法
  6
Continuous
 62
     7
370
     9
100
AcDbPolyline
 90
        4
 70
     1
 43
3.0
 10
3646.870558404611
 20
-907.2502175408442
 42
0.4142135623731
 10
3645.370558404611
 20
-905.7502175408442
 42
0.4142135623731
 10
3643.870558404611
 20
-907.2502175408442
 42
0.4142135623731
 10
3645.370558404611
 20
-908.7502175408442
 42
0.4142135623731
  0
LINE
  5
151
330
1F
100
AcDbEntity
  8
0-B_寸法
  6
Continuous
 62
   120
370
     5
100
AcDbLine
 10
3645.370558404611
 20
-939.5002175408443
 30
0.0
 11
3495.370558404611
 21
-939.5002175408443
 31
0.0
  0
LINE
  5
152
330
1F
100
AcDbEntity
  8
0-B_寸法
  6
Continuous
 62
   120
370
     5
100
AcDbLine
 10
3645.370558404611
 20
-907.2502175408442
 30
0.0
 11
3495.370558404611
 21
-907.2502175408442
 31
0.0
  0
TEXT
  5
153
330
1F
100
AcDbEntity
  8
0-B_寸法
  6
Continuous
 62
     7
370
   211
100
AcDbText
 10
3617.680558404611
 20
-1154.652122052502
 30
0.0
 40
68.58
  1
21.5
 50
90.0
 41
1.125
  7
ＭＳ ゴシック
100
AcDbText
  0
LWPOLYLINE
  5
154
330
1F
100
AcDbEntity
  8
0-B_寸法
  6
Continuous
 62
     7
370
     9
100
AcDbPolyline
 90
        4
 70
     1
 43
3.0
 10
3646.870558404611
 20
-37.25021754084381
 42
0.4142135623731
 10
3645.370558404611
 20
-35.75021754084381
 42
0.4142135623731
 10
3643.870558404611
 20
-37.25021754084381
 42
0.4142135623731
 10
3645.370558404611
 20
-38.75021754084381
 42
0.4142135623731
  0
LINE
  5
155
330
1F
100
AcDbEntity
  8
0-B_寸法
  6
Continuous
 62
   120
370
     5
100
AcDbLine
 10
3645.370558404611
 20
-37.25021754084381
 30
0.0
 11
3495.370558404611
 21
-37.25021754084381
 31
0.0
  0
LWPOLYLINE
  5
156
330
1F
100
AcDbEntity
  8
0-B_寸法
  6
Continuous
 62
     7
370
     9
100
AcDbPolyline
 90
        4
 70
     1
 43
3.0
 10
3646.870558404611
 20
-5.000217540844147
 42
0.4142135623731
 10
3645.370558404611
 20
-3.500217540844147
 42
0.4142135623731
 10
3643.870558404611
 20
-5.000217540844147
 42
0.4142135623731
 10
3645.370558404611
 20
-6.500217540844147
 42
0.4142135623731
  0
LINE
  5
157
330
1F
100
AcDbEntity
  8
0-B_寸法
  6
Continuous
 62
   120
370
     5
100
AcDbLine
 10
3645.370558404611
 20
-5.000217540844147
 30
0.0
 11
3495.370558404611
 21
-5.000217540844147
 31
0.0
  0
TEXT
  5
158
330
1F
100
AcDbEntity
  8
0-B_寸法
  6
Continuous
 62
     7
370
   211
100
AcDbText
 10
3617.680558404611
 20
11.98070848179242
 30
0.0
 40
68.58
  1
21.5
 50
90.0
 41
1.125
  7
ＭＳ ゴシック
100
AcDbText
  0
TEXT
  5
159
330
1F
100
AcDbEntity
  8
0-B_寸法
  6
Continuous
 62
     7
370
   211
100
AcDbText
 10
3617.680558404611
 20
-547.2502175408442
 30
0.0
 40
68.58
  1
580
 50
90.0
 41
1.111111111111111
  7
ＭＳ ゴシック
100
AcDbText
  0
LWPOLYLINE
  5
15A
330
1F
100
AcDbEntity
  8
0-B_寸法
  6
Continuous
 62
     7
370
     9
100
AcDbPolyline
 90
        4
 70
     1
 43
3.0
 10
-1250.078110775061
 20
-914.7502175408442
 42
0.4142135623731
 10
-1251.578110775061
 20
-913.2502175408442
 42
0.4142135623731
 10
-1253.078110775061
 20
-914.7502175408442
 42
0.4142135623731
 10
-1251.578110775061
 20
-916.2502175408442
 42
0.4142135623731
  0
LINE
  5
15B
330
1F
100
AcDbEntity
  8
0-B_寸法
  6
Continuous
 62
   120
370
     5
100
AcDbLine
 10
-1251.578110775061
 20
-914.7502175408442
 30
0.0
 11
-1401.578110775061
 21
-914.7502175408442
 31
0.0
  0
LINE
  5
15C
330
1F
100
AcDbEntity
  8
0-B_寸法
  6
Continuous
 62
   120
370
     5
100
AcDbLine
 10
-1251.578110775061
 20
208.0004990548809
 30
0.0
 11
-1251.578110775061
 21
-1156.736110883344
 31
0.0
  0
LWPOLYLINE
  5
15D
330
1F
100
AcDbEntity
  8
0-B_寸法
  6
Continuous
 62
     7
370
     9
100
AcDbPolyline
 90
        4
 70
     1
 43
3.0
 10
-1250.078110775061
 20
-939.5002175408443
 42
0.4142135623731
 10
-1251.578110775061
 20
-938.0002175408443
 42
0.4142135623731
 10
-1253.078110775061
 20
-939.5002175408443
 42
0.4142135623731
 10
-1251.578110775061
 20
-941.0002175408443
 42
0.4142135623731
  0
LINE
  5
15E
330
1F
100
AcDbEntity
  8
0-B_寸法
  6
Continuous
 62
   120
370
     5
100
AcDbLine
 10
-1251.578110775061
 20
-939.5002175408443
 30
0.0
 11
-1401.578110775061
 21
-939.5002175408443
 31
0.0
  0
TEXT
  5
15F
330
1F
100
AcDbEntity
  8
0-B_寸法
  6
Continuous
 62
     7
370
   211
100
AcDbText
 10
-1279.268110775061
 20
-1156.736110883344
 30
0.0
 40
68.58
  1
16.5
 50
90.0
 41
1.125
  7
ＭＳ ゴシック
100
AcDbText
  0
LWPOLYLINE
  5
160
330
1F
100
AcDbEntity
  8
0-B_寸法
  6
Continuous
 62
     7
370
     9
100
AcDbPolyline
 90
        4
 70
     1
 43
3.0
 10
-1250.078110775061
 20
-5.000217540844147
 42
0.4142135623731
 10
-1251.578110775061
 20
-3.500217540844147
 42
0.4142135623731
 10
-1253.078110775061
 20
-5.000217540844147
 42
0.4142135623731
 10
-1251.578110775061
 20
-6.500217540844147
 42
0.4142135623731
  0
LWPOLYLINE
  5
161
330
1F
100
AcDbEntity
  8
0-B_寸法
  6
Continuous
 62
     7
370
     9
100
AcDbPolyline
 90
        4
 70
     1
 43
3.0
 10
-1250.078110775061
 20
-29.75021754084381
 42
0.4142135623731
 10
-1251.578110775061
 20
-28.25021754084381
 42
0.4142135623731
 10
-1253.078110775061
 20
-29.75021754084381
 42
0.4142135623731
 10
-1251.578110775061
 20
-31.25021754084381
 42
0.4142135623731
  0
LINE
  5
162
330
1F
100
AcDbEntity
  8
0-B_寸法
  6
Continuous
 62
   120
370
     5
100
AcDbLine
 10
-1251.578110775061
 20
-5.000217540844147
 30
0.0
 11
-1401.578110775061
 21
-5.000217540844147
 31
0.0
  0
LINE
  5
163
330
1F
100
AcDbEntity
  8
0-B_寸法
  6
Continuous
 62
   120
370
     5
100
AcDbLine
 10
-1251.578110775061
 20
-29.75021754084381
 30
0.0
 11
-1401.578110775061
 21
-29.75021754084381
 31
0.0
  0
TEXT
  5
164
330
1F
100
AcDbEntity
  8
0-B_寸法
  6
Continuous
 62
     7
370
   211
100
AcDbText
 10
-1279.268110775061
 20
5.500499054880948
 30
0.0
 40
68.58
  1
16.5
 50
90.0
 41
1.125
  7
ＭＳ ゴシック
100
AcDbText
  0
TEXT
  5
165
330
1F
100
AcDbEntity
  8
0-B_寸法
  6
Continuous
 62
     7
370
   211
100
AcDbText
 10
-1279.268110775061
 20
-704.7502175408442
 30
0.0
 40
68.58
  1
ＤＨ＝590
 50
90.0
 41
1.148148148148148
  7
ＭＳ ゴシック
100
AcDbText
  0
LINE
  5
166
330
1F
100
AcDbEntity
  8
0-1_本体
  6
Continuous
 62
    92
370
    13
100
AcDbLine
 10
1020.370558404612
 20
-939.5002175408443
 30
0.0
 11
2220.370558404612
 21
-939.5002175408443
 31
0.0
  0
LINE
  5
167
330
1F
100
AcDbEntity
  8
0-1_本体
  6
Continuous
 62
    92
370
    13
100
AcDbLine
 10
1043.620558404612
 20
-907.2502175408442
 30
0.0
 11
2197.120558404612
 21
-907.2502175408442
 31
0.0
  0
LINE
  5
168
330
1F
100
AcDbEntity
  8
0-1_本体
  6
Continuous
 62
    92
370
    13
100
AcDbLine
 10
2220.370558404612
 20
-5.000217540844147
 30
0.0
 11
1020.370558404612
 21
-5.000217540844147
 31
0.0
  0
LINE
  5
169
330
1F
100
AcDbEntity
  8
0-1_本体
  6
Continuous
 62
    92
370
    13
100
AcDbLine
 10
1020.370558404612
 20
-5.000217540844147
 30
0.0
 11
1020.370558404612
 21
-939.5002175408443
 31
0.0
  0
LINE
  5
16A
330
1F
100
AcDbEntity
  8
0-1_本体
  6
Continuous
 62
    92
370
    13
100
AcDbLine
 10
2220.370558404612
 20
-939.5002175408443
 30
0.0
 11
2220.370558404612
 21
-5.000217540844147
 31
0.0
  0
LINE
  5
16B
330
1F
100
AcDbEntity
  8
0-1_本体
  6
Continuous
 62
    92
370
    13
100
AcDbLine
 10
1043.620558404612
 20
-5.000217540844147
 30
0.0
 11
1043.620558404612
 21
-939.5002175408443
 31
0.0
  0
LINE
  5
16C
330
1F
100
AcDbEntity
  8
0-1_本体
  6
Continuous
 62
    92
370
    13
100
AcDbLine
 10
2197.120558404612
 20
-37.25021754084381
 30
0.0
 11
1043.620558404612
 21
-37.25021754084381
 31
0.0
  0
LINE
  5
16D
330
1F
100
AcDbEntity
  8
0-1_本体
  6
Continuous
 62
    92
370
    13
100
AcDbLine
 10
2197.120558404612
 20
-939.5002175408443
 30
0.0
 11
2197.120558404612
 21
-5.000217540844147
 31
0.0
  0
LINE
  5
16E
330
1F
100
AcDbEntity
  8
0-4_棚
  6
Continuous
 62
    92
370
    13
100
AcDbLine
 10
1045.120558404612
 20
-305.0002175408441
 30
0.0
 11
1045.120558404612
 21
-327.5002175408441
 31
0.0
  0
LINE
  5
16F
330
1F
100
AcDbEntity
  8
0-4_棚
  6
Continuous
 62
    92
370
    13
100
AcDbLine
 10
2195.620558404612
 20
-305.0002175408441
 30
0.0
 11
1045.120558404612
 21
-305.0002175408441
 31
0.0
  0
LINE
  5
170
330
1F
100
AcDbEntity
  8
0-4_棚
  6
Continuous
 62
    92
370
    13
100
AcDbLine
 10
2195.620558404612
 20
-327.5002175408441
 30
0.0
 11
2195.620558404612
 21
-305.0002175408441
 31
0.0
  0
LINE
  5
171
330
1F
100
AcDbEntity
  8
0-4_棚
  6
Continuous
 62
    92
370
    13
100
AcDbLine
 10
1045.120558404612
 20
-327.5002175408441
 30
0.0
 11
2195.620558404612
 21
-327.5002175408441
 31
0.0
  0
LINE
  5
172
330
1F
100
AcDbEntity
  8
0-B_寸法
  6
Continuous
 62
   120
370
     5
100
AcDbLine
 10
2015.492650364415
 20
-305.0002175408441
 30
0.0
 11
2015.492650364415
 21
-327.5002175408441
 31
0.0
  0
LWPOLYLINE
  5
173
330
1F
100
AcDbEntity
  8
0-B_寸法
  6
Continuous
 62
     7
370
     9
100
AcDbPolyline
 90
        4
 70
     1
 43
3.0
 10
2016.992650364414
 20
-305.0002175408441
 42
0.4142135623731
 10
2015.492650364415
 20
-303.5002175408441
 42
0.4142135623731
 10
2013.992650364415
 20
-305.0002175408441
 42
0.4142135623731
 10
2015.492650364415
 20
-306.5002175408442
 42
0.4142135623731
  0
LWPOLYLINE
  5
174
330
1F
100
AcDbEntity
  8
0-B_寸法
  6
Continuous
 62
     7
370
     9
100
AcDbPolyline
 90
        4
 70
     1
 43
3.0
 10
2016.992650364414
 20
-327.5002175408441
 42
0.4142135623731
 10
2015.492650364415
 20
-326.0002175408441
 42
0.4142135623731
 10
2013.992650364415
 20
-327.5002175408441
 42
0.4142135623731
 10
2015.492650364415
 20
-329.0002175408442
 42
0.4142135623731
  0
LINE
  5
175
330
1F
100
AcDbEntity
  8
0-B_寸法
  6
Continuous
 62
   120
370
     5
100
AcDbLine
 10
2015.492650364415
 20
-305.0002175408441
 30
0.0
 11
1865.492650364415
 21
-305.0002175408441
 31
0.0
  0
LINE
  5
176
330
1F
100
AcDbEntity
  8
0-B_寸法
  6
Continuous
 62
   120
370
     5
100
AcDbLine
 10
2015.492650364415
 20
-327.5002175408441
 30
0.0
 11
1865.492650364415
 21
-327.5002175408441
 31
0.0
  0
TEXT
  5
177
330
1F
100
AcDbEntity
  8
0-B_寸法
  6
Continuous
 62
     7
370
   211
100
AcDbText
 10
1987.802650364415
 20
-291.3279632420833
 30
0.0
 40
68.58
  1
15
 50
90.0
 41
1.083333333333333
  7
ＭＳ ゴシック
100
AcDbText
  0
TEXT
  5
178
330
1F
100
AcDbEntity
  8
0-A_文字
  6
Continuous
 62
     7
370
     9
100
AcDbText
 10
1485.370558404612
 20
-267.7141317206999
 30
0.0
 40
68.58
  1
可動棚
  7
ＭＳ ゴシック
100
AcDbText
  0
LINE
  5
179
330
1F
100
AcDbEntity
  8
0-4_棚
  6
Continuous
 62
    92
370
    13
100
AcDbLine
 10
1045.120558404612
 20
-575.0002175408441
 30
0.0
 11
1045.120558404612
 21
-597.5002175408441
 31
0.0
  0
LINE
  5
17A
330
1F
100
AcDbEntity
  8
0-4_棚
  6
Continuous
 62
    92
370
    13
100
AcDbLine
 10
2195.620558404612
 20
-575.0002175408441
 30
0.0
 11
1045.120558404612
 21
-575.0002175408441
 31
0.0
  0
LINE
  5
17B
330
1F
100
AcDbEntity
  8
0-4_棚
  6
Continuous
 62
    92
370
    13
100
AcDbLine
 10
2195.620558404612
 20
-597.5002175408441
 30
0.0
 11
2195.620558404612
 21
-575.0002175408441
 31
0.0
  0
LINE
  5
17C
330
1F
100
AcDbEntity
  8
0-4_棚
  6
Continuous
 62
    92
370
    13
100
AcDbLine
 10
1045.120558404612
 20
-597.5002175408441
 30
0.0
 11
2195.620558404612
 21
-597.5002175408441
 31
0.0
  0
LINE
  5
17D
330
1F
100
AcDbEntity
  8
0-B_寸法
  6
Continuous
 62
   120
370
     5
100
AcDbLine
 10
2015.492650364415
 20
-575.0002175408441
 30
0.0
 11
2015.492650364415
 21
-597.5002175408441
 31
0.0
  0
LWPOLYLINE
  5
17E
330
1F
100
AcDbEntity
  8
0-B_寸法
  6
Continuous
 62
     7
370
     9
100
AcDbPolyline
 90
        4
 70
     1
 43
3.0
 10
2016.992650364414
 20
-575.0002175408441
 42
0.4142135623731
 10
2015.492650364415
 20
-573.5002175408441
 42
0.4142135623731
 10
2013.992650364415
 20
-575.0002175408441
 42
0.4142135623731
 10
2015.492650364415
 20
-576.5002175408441
 42
0.4142135623731
  0
LWPOLYLINE
  5
17F
330
1F
100
AcDbEntity
  8
0-B_寸法
  6
Continuous
 62
     7
370
     9
100
AcDbPolyline
 90
        4
 70
     1
 43
3.0
 10
2016.992650364414
 20
-597.5002175408441
 42
0.4142135623731
 10
2015.492650364415
 20
-596.0002175408441
 42
0.4142135623731
 10
2013.992650364415
 20
-597.5002175408441
 42
0.4142135623731
 10
2015.492650364415
 20
-599.0002175408441
 42
0.4142135623731
  0
LINE
  5
180
330
1F
100
AcDbEntity
  8
0-B_寸法
  6
Continuous
 62
   120
370
     5
100
AcDbLine
 10
2015.492650364415
 20
-575.0002175408441
 30
0.0
 11
1865.492650364415
 21
-575.0002175408441
 31
0.0
  0
LINE
  5
181
330
1F
100
AcDbEntity
  8
0-B_寸法
  6
Continuous
 62
   120
370
     5
100
AcDbLine
 10
2015.492650364415
 20
-597.5002175408441
 30
0.0
 11
1865.492650364415
 21
-597.5002175408441
 31
0.0
  0
TEXT
  5
182
330
1F
100
AcDbEntity
  8
0-B_寸法
  6
Continuous
 62
     7
370
   211
100
AcDbText
 10
1987.802650364415
 20
-561.3279632420833
 30
0.0
 40
68.58
  1
15
 50
90.0
 41
1.083333333333333
  7
ＭＳ ゴシック
100
AcDbText
  0
TEXT
  5
183
330
1F
100
AcDbEntity
  8
0-A_文字
  6
Continuous
 62
     7
370
     9
100
AcDbText
 10
1485.370558404612
 20
-537.7141317206998
 30
0.0
 40
68.58
  1
可動棚
  7
ＭＳ ゴシック
100
AcDbText
  0
LINE
  5
184
330
1F
100
AcDbEntity
  8
0-1_本体
  6
Continuous
 62
    92
370
    13
100
AcDbLine
 10
-3876.578110775061
 20
-939.5002175408443
 30
0.0
 11
-2676.57811077506
 21
-939.5002175408443
 31
0.0
  0
LINE
  5
185
330
1F
100
AcDbEntity
  8
0-2_扉
  6
Continuous
 62
    92
370
    13
100
AcDbLine
 10
-3873.578110775061
 20
-914.7502175408442
 30
0.0
 11
-3278.828110775059
 21
-914.7502175408442
 31
0.0
  0
LINE
  5
186
330
1F
100
AcDbEntity
  8
0-2_扉
  6
Continuous
 62
    92
370
    13
100
AcDbLine
 10
-3274.32811077506
 20
-914.7502175408442
 30
0.0
 11
-2679.578110775059
 21
-914.7502175408442
 31
0.0
  0
LINE
  5
187
330
1F
100
AcDbEntity
  8
0-1_本体
  6
Continuous
 62
    92
370
    13
100
AcDbLine
 10
-3853.328110775059
 20
-914.7502175408442
 30
0.0
 11
-3853.328110775059
 21
-939.5002175408443
 31
0.0
  0
LINE
  5
188
330
1F
100
AcDbEntity
  8
0-1_本体
  6
Continuous
 62
    92
370
    13
100
AcDbLine
 10
-2699.82811077506
 20
-939.5002175408443
 30
0.0
 11
-2699.82811077506
 21
-914.7502175408442
 31
0.0
  0
LINE
  5
189
330
1F
100
AcDbEntity
  8
0-1_本体
  6
Continuous
 62
    92
370
    13
100
AcDbLine
 10
-2676.57811077506
 20
-939.5002175408443
 30
0.0
 11
-2676.57811077506
 21
-5.000217540844147
 31
0.0
  0
LINE
  5
18A
330
1F
100
AcDbEntity
  8
0-1_本体
  6
Continuous
 62
    92
370
    13
100
AcDbLine
 10
-2676.57811077506
 20
-5.000217540844147
 30
0.0
 11
-3876.578110775061
 21
-5.000217540844147
 31
0.0
  0
LINE
  5
18B
330
1F
100
AcDbEntity
  8
0-1_本体
  6
Continuous
 62
    92
370
    13
100
AcDbLine
 10
-3876.578110775061
 20
-5.000217540844147
 30
0.0
 11
-3876.578110775061
 21
-939.5002175408443
 31
0.0
  0
LINE
  5
18C
330
1F
100
AcDbEntity
  8
0-2_扉
  6
Continuous
 62
    92
370
    13
100
AcDbLine
 10
-3278.828110775059
 20
-914.7502175408442
 30
0.0
 11
-3278.828110775059
 21
-29.75021754084381
 31
0.0
  0
LINE
  5
18D
330
1F
100
AcDbEntity
  8
0-2_扉
  6
Continuous
 62
    92
370
    13
100
AcDbLine
 10
-3274.32811077506
 20
-914.7502175408442
 30
0.0
 11
-3274.32811077506
 21
-29.75021754084381
 31
0.0
  0
LINE
  5
18E
330
1F
100
AcDbEntity
  8
0-2_扉
  6
Continuous
 62
    92
370
    13
100
AcDbLine
 10
-3278.828110775059
 20
-29.75021754084381
 30
0.0
 11
-3873.578110775061
 21
-29.75021754084381
 31
0.0
  0
LINE
  5
18F
330
1F
100
AcDbEntity
  8
0-2_扉
  6
Continuous
 62
    92
370
    13
100
AcDbLine
 10
-3873.578110775061
 20
-29.75021754084381
 30
0.0
 11
-3873.578110775061
 21
-914.7502175408442
 31
0.0
  0
LINE
  5
190
330
1F
100
AcDbEntity
  8
0-2_扉
  6
Continuous
 62
    92
370
    13
100
AcDbLine
 10
-2679.578110775059
 20
-29.75021754084381
 30
0.0
 11
-3274.32811077506
 21
-29.75021754084381
 31
0.0
  0
LINE
  5
191
330
1F
100
AcDbEntity
  8
0-2_扉
  6
Continuous
 62
    92
370
    13
100
AcDbLine
 10
-2679.578110775059
 20
-914.7502175408442
 30
0.0
 11
-2679.578110775059
 21
-29.75021754084381
 31
0.0
  0
LINE
  5
192
330
1F
100
AcDbEntity
  8
0-2_扉
  6
JWW_CENTER1
 62
   120
370
     5
100
AcDbLine
 10
-3278.828110775059
 20
-29.75021754084381
 30
0.0
 11
-3873.578110775061
 21
-472.2502175408442
 31
0.0
  0
LINE
  5
193
330
1F
100
AcDbEntity
  8
0-2_扉
  6
JWW_CENTER1
 62
   120
370
     5
100
AcDbLine
 10
-3873.578110775061
 20
-472.2502175408442
 30
0.0
 11
-3278.828110775059
 21
-914.7502175408442
 31
0.0
  0
LINE
  5
194
330
1F
100
AcDbEntity
  8
0-2_扉
  6
JWW_CENTER1
 62
   120
370
     5
100
AcDbLine
 10
-3274.32811077506
 20
-914.7502175408442
 30
0.0
 11
-2679.578110775059
 21
-472.2502175408442
 31
0.0
  0
LINE
  5
195
330
1F
100
AcDbEntity
  8
0-2_扉
  6
JWW_CENTER1
 62
   120
370
     5
100
AcDbLine
 10
-2679.578110775059
 20
-472.2502175408442
 30
0.0
 11
-3274.32811077506
 21
-29.75021754084381
 31
0.0
  0
LINE
  5
196
330
1F
100
AcDbEntity
  8
0-1_本体
  6
Continuous
 62
    92
370
    13
100
AcDbLine
 10
2220.370558404612
 20
-939.5002175408443
 30
0.0
 11
3420.370558404612
 21
-939.5002175408443
 31
0.0
  0
LINE
  5
197
330
1F
100
AcDbEntity
  8
0-1_本体
  6
Continuous
 62
    92
370
    13
100
AcDbLine
 10
2243.620558404613
 20
-907.2502175408442
 30
0.0
 11
3397.120558404612
 21
-907.2502175408442
 31
0.0
  0
LINE
  5
198
330
1F
100
AcDbEntity
  8
0-1_本体
  6
Continuous
 62
    92
370
    13
100
AcDbLine
 10
3420.370558404612
 20
-5.000217540844147
 30
0.0
 11
2220.370558404612
 21
-5.000217540844147
 31
0.0
  0
LINE
  5
199
330
1F
100
AcDbEntity
  8
0-1_本体
  6
Continuous
 62
    92
370
    13
100
AcDbLine
 10
2220.370558404612
 20
-5.000217540844147
 30
0.0
 11
2220.370558404612
 21
-939.5002175408443
 31
0.0
  0
LINE
  5
19A
330
1F
100
AcDbEntity
  8
0-1_本体
  6
Continuous
 62
    92
370
    13
100
AcDbLine
 10
3420.370558404612
 20
-939.5002175408443
 30
0.0
 11
3420.370558404612
 21
-5.000217540844147
 31
0.0
  0
LINE
  5
19B
330
1F
100
AcDbEntity
  8
0-1_本体
  6
Continuous
 62
    92
370
    13
100
AcDbLine
 10
2243.620558404613
 20
-5.000217540844147
 30
0.0
 11
2243.620558404613
 21
-939.5002175408443
 31
0.0
  0
LINE
  5
19C
330
1F
100
AcDbEntity
  8
0-1_本体
  6
Continuous
 62
    92
370
    13
100
AcDbLine
 10
3397.120558404612
 20
-37.25021754084381
 30
0.0
 11
2243.620558404613
 21
-37.25021754084381
 31
0.0
  0
LINE
  5
19D
330
1F
100
AcDbEntity
  8
0-1_本体
  6
Continuous
 62
    92
370
    13
100
AcDbLine
 10
3397.120558404612
 20
-939.5002175408443
 30
0.0
 11
3397.120558404612
 21
-5.000217540844147
 31
0.0
  0
LINE
  5
19E
330
1F
100
AcDbEntity
  8
0-4_棚
  6
Continuous
 62
    92
370
    13
100
AcDbLine
 10
2245.120558404612
 20
-305.0002175408441
 30
0.0
 11
2245.120558404612
 21
-327.5002175408441
 31
0.0
  0
LINE
  5
19F
330
1F
100
AcDbEntity
  8
0-4_棚
  6
Continuous
 62
    92
370
    13
100
AcDbLine
 10
3395.620558404613
 20
-305.0002175408441
 30
0.0
 11
2245.120558404612
 21
-305.0002175408441
 31
0.0
  0
LINE
  5
1A0
330
1F
100
AcDbEntity
  8
0-4_棚
  6
Continuous
 62
    92
370
    13
100
AcDbLine
 10
3395.620558404613
 20
-327.5002175408441
 30
0.0
 11
3395.620558404613
 21
-305.0002175408441
 31
0.0
  0
LINE
  5
1A1
330
1F
100
AcDbEntity
  8
0-4_棚
  6
Continuous
 62
    92
370
    13
100
AcDbLine
 10
2245.120558404612
 20
-327.5002175408441
 30
0.0
 11
3395.620558404613
 21
-327.5002175408441
 31
0.0
  0
LINE
  5
1A2
330
1F
100
AcDbEntity
  8
0-B_寸法
  6
Continuous
 62
   120
370
     5
100
AcDbLine
 10
3215.492650364416
 20
-305.0002175408441
 30
0.0
 11
3215.492650364416
 21
-327.5002175408441
 31
0.0
  0
LWPOLYLINE
  5
1A3
330
1F
100
AcDbEntity
  8
0-B_寸法
  6
Continuous
 62
     7
370
     9
100
AcDbPolyline
 90
        4
 70
     1
 43
3.0
 10
3216.992650364415
 20
-305.0002175408441
 42
0.4142135623731
 10
3215.492650364416
 20
-303.5002175408441
 42
0.4142135623731
 10
3213.992650364416
 20
-305.0002175408441
 42
0.4142135623731
 10
3215.492650364416
 20
-306.5002175408442
 42
0.4142135623731
  0
LWPOLYLINE
  5
1A4
330
1F
100
AcDbEntity
  8
0-B_寸法
  6
Continuous
 62
     7
370
     9
100
AcDbPolyline
 90
        4
 70
     1
 43
3.0
 10
3216.992650364415
 20
-327.5002175408441
 42
0.4142135623731
 10
3215.492650364416
 20
-326.0002175408441
 42
0.4142135623731
 10
3213.992650364416
 20
-327.5002175408441
 42
0.4142135623731
 10
3215.492650364416
 20
-329.0002175408442
 42
0.4142135623731
  0
LINE
  5
1A5
330
1F
100
AcDbEntity
  8
0-B_寸法
  6
Continuous
 62
   120
370
     5
100
AcDbLine
 10
3215.492650364416
 20
-305.0002175408441
 30
0.0
 11
3065.492650364416
 21
-305.0002175408441
 31
0.0
  0
LINE
  5
1A6
330
1F
100
AcDbEntity
  8
0-B_寸法
  6
Continuous
 62
   120
370
     5
100
AcDbLine
 10
3215.492650364416
 20
-327.5002175408441
 30
0.0
 11
3065.492650364416
 21
-327.5002175408441
 31
0.0
  0
TEXT
  5
1A7
330
1F
100
AcDbEntity
  8
0-B_寸法
  6
Continuous
 62
     7
370
   211
100
AcDbText
 10
3187.802650364416
 20
-291.3279632420833
 30
0.0
 40
68.58
  1
15
 50
90.0
 41
1.083333333333333
  7
ＭＳ ゴシック
100
AcDbText
  0
TEXT
  5
1A8
330
1F
100
AcDbEntity
  8
0-A_文字
  6
Continuous
 62
     7
370
     9
100
AcDbText
 10
2685.370558404612
 20
-267.7141317206999
 30
0.0
 40
68.58
  1
可動棚
  7
ＭＳ ゴシック
100
AcDbText
  0
LINE
  5
1A9
330
1F
100
AcDbEntity
  8
0-4_棚
  6
Continuous
 62
    92
370
    13
100
AcDbLine
 10
2245.120558404612
 20
-575.0002175408441
 30
0.0
 11
2245.120558404612
 21
-597.5002175408441
 31
0.0
  0
LINE
  5
1AA
330
1F
100
AcDbEntity
  8
0-4_棚
  6
Continuous
 62
    92
370
    13
100
AcDbLine
 10
3395.620558404613
 20
-575.0002175408441
 30
0.0
 11
2245.120558404612
 21
-575.0002175408441
 31
0.0
  0
LINE
  5
1AB
330
1F
100
AcDbEntity
  8
0-4_棚
  6
Continuous
 62
    92
370
    13
100
AcDbLine
 10
3395.620558404613
 20
-597.5002175408441
 30
0.0
 11
3395.620558404613
 21
-575.0002175408441
 31
0.0
  0
LINE
  5
1AC
330
1F
100
AcDbEntity
  8
0-4_棚
  6
Continuous
 62
    92
370
    13
100
AcDbLine
 10
2245.120558404612
 20
-597.5002175408441
 30
0.0
 11
3395.620558404613
 21
-597.5002175408441
 31
0.0
  0
LINE
  5
1AD
330
1F
100
AcDbEntity
  8
0-B_寸法
  6
Continuous
 62
   120
370
     5
100
AcDbLine
 10
3215.492650364416
 20
-575.0002175408441
 30
0.0
 11
3215.492650364416
 21
-597.5002175408441
 31
0.0
  0
LWPOLYLINE
  5
1AE
330
1F
100
AcDbEntity
  8
0-B_寸法
  6
Continuous
 62
     7
370
     9
100
AcDbPolyline
 90
        4
 70
     1
 43
3.0
 10
3216.992650364415
 20
-575.0002175408441
 42
0.4142135623731
 10
3215.492650364416
 20
-573.5002175408441
 42
0.4142135623731
 10
3213.992650364416
 20
-575.0002175408441
 42
0.4142135623731
 10
3215.492650364416
 20
-576.5002175408441
 42
0.4142135623731
  0
LWPOLYLINE
  5
1AF
330
1F
100
AcDbEntity
  8
0-B_寸法
  6
Continuous
 62
     7
370
     9
100
AcDbPolyline
 90
        4
 70
     1
 43
3.0
 10
3216.992650364415
 20
-597.5002175408441
 42
0.4142135623731
 10
3215.492650364416
 20
-596.0002175408441
 42
0.4142135623731
 10
3213.992650364416
 20
-597.5002175408441
 42
0.4142135623731
 10
3215.492650364416
 20
-599.0002175408441
 42
0.4142135623731
  0
LINE
  5
1B0
330
1F
100
AcDbEntity
  8
0-B_寸法
  6
Continuous
 62
   120
370
     5
100
AcDbLine
 10
3215.492650364416
 20
-575.0002175408441
 30
0.0
 11
3065.492650364416
 21
-575.0002175408441
 31
0.0
  0
LINE
  5
1B1
330
1F
100
AcDbEntity
  8
0-B_寸法
  6
Continuous
 62
   120
370
     5
100
AcDbLine
 10
3215.492650364416
 20
-597.5002175408441
 30
0.0
 11
3065.492650364416
 21
-597.5002175408441
 31
0.0
  0
TEXT
  5
1B2
330
1F
100
AcDbEntity
  8
0-B_寸法
  6
Continuous
 62
     7
370
   211
100
AcDbText
 10
3187.802650364416
 20
-561.3279632420833
 30
0.0
 40
68.58
  1
15
 50
90.0
 41
1.083333333333333
  7
ＭＳ ゴシック
100
AcDbText
  0
TEXT
  5
1B3
330
1F
100
AcDbEntity
  8
0-A_文字
  6
Continuous
 62
     7
370
     9
100
AcDbText
 10
2685.370558404612
 20
-537.7141317206998
 30
0.0
 40
68.58
  1
可動棚
  7
ＭＳ ゴシック
100
AcDbText
  0
LINE
  5
1B4
330
1F
100
AcDbEntity
  8
0-1_本体
  6
Continuous
 62
    92
370
    13
100
AcDbLine
 10
-2676.57811077506
 20
-939.5002175408443
 30
0.0
 11
-1476.578110775059
 21
-939.5002175408443
 31
0.0
  0
LINE
  5
1B5
330
1F
100
AcDbEntity
  8
0-2_扉
  6
Continuous
 62
    92
370
    13
100
AcDbLine
 10
-2673.57811077506
 20
-914.7502175408442
 30
0.0
 11
-2078.828110775059
 21
-914.7502175408442
 31
0.0
  0
LINE
  5
1B6
330
1F
100
AcDbEntity
  8
0-2_扉
  6
Continuous
 62
    92
370
    13
100
AcDbLine
 10
-2074.328110775059
 20
-914.7502175408442
 30
0.0
 11
-1479.578110775059
 21
-914.7502175408442
 31
0.0
  0
LINE
  5
1B7
330
1F
100
AcDbEntity
  8
0-1_本体
  6
Continuous
 62
    92
370
    13
100
AcDbLine
 10
-2653.328110775059
 20
-914.7502175408442
 30
0.0
 11
-2653.328110775059
 21
-939.5002175408443
 31
0.0
  0
LINE
  5
1B8
330
1F
100
AcDbEntity
  8
0-1_本体
  6
Continuous
 62
    92
370
    13
100
AcDbLine
 10
-1499.828110775059
 20
-939.5002175408443
 30
0.0
 11
-1499.828110775059
 21
-914.7502175408442
 31
0.0
  0
LINE
  5
1B9
330
1F
100
AcDbEntity
  8
0-1_本体
  6
Continuous
 62
    92
370
    13
100
AcDbLine
 10
-1476.578110775059
 20
-939.5002175408443
 30
0.0
 11
-1476.578110775059
 21
-5.000217540844147
 31
0.0
  0
LINE
  5
1BA
330
1F
100
AcDbEntity
  8
0-1_本体
  6
Continuous
 62
    92
370
    13
100
AcDbLine
 10
-1476.578110775059
 20
-5.000217540844147
 30
0.0
 11
-2676.57811077506
 21
-5.000217540844147
 31
0.0
  0
LINE
  5
1BB
330
1F
100
AcDbEntity
  8
0-1_本体
  6
Continuous
 62
    92
370
    13
100
AcDbLine
 10
-2676.57811077506
 20
-5.000217540844147
 30
0.0
 11
-2676.57811077506
 21
-939.5002175408443
 31
0.0
  0
LINE
  5
1BC
330
1F
100
AcDbEntity
  8
0-2_扉
  6
Continuous
 62
    92
370
    13
100
AcDbLine
 10
-2078.828110775059
 20
-914.7502175408442
 30
0.0
 11
-2078.828110775059
 21
-29.75021754084381
 31
0.0
  0
LINE
  5
1BD
330
1F
100
AcDbEntity
  8
0-2_扉
  6
Continuous
 62
    92
370
    13
100
AcDbLine
 10
-2074.328110775059
 20
-914.7502175408442
 30
0.0
 11
-2074.328110775059
 21
-29.75021754084381
 31
0.0
  0
LINE
  5
1BE
330
1F
100
AcDbEntity
  8
0-2_扉
  6
Continuous
 62
    92
370
    13
100
AcDbLine
 10
-2078.828110775059
 20
-29.75021754084381
 30
0.0
 11
-2673.57811077506
 21
-29.75021754084381
 31
0.0
  0
LINE
  5
1BF
330
1F
100
AcDbEntity
  8
0-2_扉
  6
Continuous
 62
    92
370
    13
100
AcDbLine
 10
-2673.57811077506
 20
-29.75021754084381
 30
0.0
 11
-2673.57811077506
 21
-914.7502175408442
 31
0.0
  0
LINE
  5
1C0
330
1F
100
AcDbEntity
  8
0-2_扉
  6
Continuous
 62
    92
370
    13
100
AcDbLine
 10
-1479.578110775059
 20
-29.75021754084381
 30
0.0
 11
-2074.328110775059
 21
-29.75021754084381
 31
0.0
  0
LINE
  5
1C1
330
1F
100
AcDbEntity
  8
0-2_扉
  6
Continuous
 62
    92
370
    13
100
AcDbLine
 10
-1479.578110775059
 20
-914.7502175408442
 30
0.0
 11
-1479.578110775059
 21
-29.75021754084381
 31
0.0
  0
LINE
  5
1C2
330
1F
100
AcDbEntity
  8
0-2_扉
  6
JWW_CENTER1
 62
   120
370
     5
100
AcDbLine
 10
-2078.828110775059
 20
-29.75021754084381
 30
0.0
 11
-2673.57811077506
 21
-472.2502175408442
 31
0.0
  0
LINE
  5
1C3
330
1F
100
AcDbEntity
  8
0-2_扉
  6
JWW_CENTER1
 62
   120
370
     5
100
AcDbLine
 10
-2673.57811077506
 20
-472.2502175408442
 30
0.0
 11
-2078.828110775059
 21
-914.7502175408442
 31
0.0
  0
LINE
  5
1C4
330
1F
100
AcDbEntity
  8
0-2_扉
  6
JWW_CENTER1
 62
   120
370
     5
100
AcDbLine
 10
-2074.328110775059
 20
-914.7502175408442
 30
0.0
 11
-1479.578110775059
 21
-472.2502175408442
 31
0.0
  0
LINE
  5
1C5
330
1F
100
AcDbEntity
  8
0-2_扉
  6
JWW_CENTER1
 62
   120
370
     5
100
AcDbLine
 10
-1479.578110775059
 20
-472.2502175408442
 30
0.0
 11
-2074.328110775059
 21
-29.75021754084381
 31
0.0
  0
LINE
  5
1C6
330
1F
100
AcDbEntity
  8
0-6_カウンター
  6
Continuous
 62
    40
370
    15
100
AcDbLine
 10
5125.32786333524
 20
39.99978245915585
 30
0.0
 11
5125.32786333524
 21
-5.000217540844147
 31
0.0
  0
LINE
  5
1C7
330
1F
100
AcDbEntity
  8
0-6_カウンター
  6
Continuous
 62
    40
370
    15
100
AcDbLine
 10
5125.32786333524
 20
-5.000217540844147
 30
0.0
 11
4576.327863335239
 21
-5.000217540844147
 31
0.0
  0
LINE
  5
1C8
330
1F
100
AcDbEntity
  8
0-6_カウンター
  6
Continuous
 62
    92
370
    13
100
AcDbLine
 10
-5081.078110775063
 20
39.99978245915628
 30
0.0
 11
-5081.078110775063
 21
-5.000217540843721
 31
0.0
  0
LINE
  5
1C9
330
1F
100
AcDbEntity
  8
0-6_カウンター
  6
Continuous
 62
    92
370
    13
100
AcDbLine
 10
-1472.078110775062
 20
39.99978245915628
 30
0.0
 11
-5081.078110775063
 21
39.99978245915628
 31
0.0
  0
LINE
  5
1CA
330
1F
100
AcDbEntity
  8
0-6_カウンター
  6
Continuous
 62
    92
370
    13
100
AcDbLine
 10
-1472.078110775062
 20
-5.000217540843721
 30
0.0
 11
-1472.078110775062
 21
39.99978245915628
 31
0.0
  0
LINE
  5
1CB
330
1F
100
AcDbEntity
  8
0-6_カウンター
  6
Continuous
 62
    92
370
    13
100
AcDbLine
 10
-5081.078110775063
 20
-5.000217540843721
 30
0.0
 11
-1472.078110775062
 21
-5.000217540843721
 31
0.0
  0
LINE
  5
1CC
330
1F
100
AcDbEntity
  8
0-6_カウンター
  6
Continuous
 62
    40
370
    15
100
AcDbLine
 10
4576.327863335239
 20
37.87846211559611
 30
0.0
 11
4576.327863335239
 21
-5.000217540844147
 31
0.0
  0
LINE
  5
1CD
330
1F
100
AcDbEntity
  8
0-6_カウンター
  6
Continuous
 62
    40
370
    15
100
AcDbLine
 10
4578.449183678798
 20
39.99978245915585
 30
0.0
 11
5125.32786333524
 21
39.99978245915585
 31
0.0
  0
LINE
  5
1CE
330
1F
100
AcDbEntity
  8
0-6_カウンター
  6
Continuous
 62
    40
370
    15
100
AcDbLine
 10
4576.327863335239
 20
37.87846211559611
 30
0.0
 11
4578.449183678798
 21
39.99978245915585
 31
0.0
  0
LINE
  5
1CF
330
1F
100
AcDbEntity
  8
0-0_補助線
  6
JWW_HOJO
 62
   120
370
     5
100
AcDbLine
 10
5200.32786333524
 20
114.9997824591559
 30
0.0
 11
4502.82786333524
 21
114.9997824591559
 31
0.0
  0
LINE
  5
1D0
330
1F
100
AcDbEntity
  8
0-0_補助線
  6
JWW_HOJO
 62
   120
370
     5
100
AcDbLine
 10
5350.32786333524
 20
264.9997824591559
 30
0.0
 11
4352.82786333524
 21
264.9997824591559
 31
0.0
  0
LINE
  5
1D1
330
1F
100
AcDbEntity
  8
0-0_補助線
  6
JWW_HOJO
 62
   120
370
     5
100
AcDbLine
 10
3495.370558404611
 20
114.9997824591559
 30
0.0
 11
-254.6294415953894
 21
114.9997824591559
 31
0.0
  0
LINE
  5
1D2
330
1F
100
AcDbEntity
  8
0-0_補助線
  6
JWW_HOJO
 62
   120
370
     5
100
AcDbLine
 10
3645.370558404611
 20
264.9997824591559
 30
0.0
 11
-404.6294415953894
 21
264.9997824591559
 31
0.0
  0
LINE
  5
1D3
330
1F
100
AcDbEntity
  8
0-0_補助線
  6
JWW_HOJO
 62
   120
370
     5
100
AcDbLine
 10
-1401.578110775061
 20
114.9997824591559
 30
0.0
 11
-5151.578110775062
 21
114.9997824591559
 31
0.0
  0
LINE
  5
1D4
330
1F
100
AcDbEntity
  8
0-0_補助線
  6
JWW_HOJO
 62
   120
370
     5
100
AcDbLine
 10
-1251.578110775061
 20
264.9997824591559
 30
0.0
 11
-5301.578110775062
 21
264.9997824591559
 31
0.0
  0
TEXT
  5
1D5
330
1F
100
AcDbEntity
  8
0-B_寸法
  6
Continuous
 62
     7
370
   211
100
AcDbText
 10
4776.57786333524
 20
592.6897824591559
 30
0.0
 40
68.58
  1
365
 41
1.111111111111111
  7
ＭＳ ゴシック
100
AcDbText
  0
LINE
  5
1D6
330
1F
100
AcDbEntity
  8
0-B_寸法
  6
Continuous
 62
   120
370
     5
100
AcDbLine
 10
5125.32786333524
 20
264.9997824591559
 30
0.0
 11
5078.827863335239
 21
264.9997824591559
 31
0.0
  0
LWPOLYLINE
  5
1D7
330
1F
100
AcDbEntity
  8
0-B_寸法
  6
Continuous
 62
     7
370
     9
100
AcDbPolyline
 90
        4
 70
     1
 43
3.0
 10
5126.82786333524
 20
264.9997824591559
 42
0.4142135623731
 10
5125.32786333524
 20
266.4997824591559
 42
0.4142135623731
 10
5123.827863335239
 20
264.9997824591559
 42
0.4142135623731
 10
5125.32786333524
 20
263.4997824591558
 42
0.4142135623731
  0
LWPOLYLINE
  5
1D8
330
1F
100
AcDbEntity
  8
0-B_寸法
  6
Continuous
 62
     7
370
     9
100
AcDbPolyline
 90
        4
 70
     1
 43
3.0
 10
5080.32786333524
 20
264.9997824591559
 42
0.4142135623731
 10
5078.827863335239
 20
266.4997824591559
 42
0.4142135623731
 10
5077.327863335239
 20
264.9997824591559
 42
0.4142135623731
 10
5078.827863335239
 20
263.4997824591558
 42
0.4142135623731
  0
LINE
  5
1D9
330
1F
100
AcDbEntity
  8
0-B_寸法
  6
Continuous
 62
   120
370
     5
100
AcDbLine
 10
5125.32786333524
 20
564.9997824591559
 30
0.0
 11
5125.32786333524
 21
114.9997824591559
 31
0.0
  0
LINE
  5
1DA
330
1F
100
AcDbEntity
  8
0-B_寸法
  6
Continuous
 62
   120
370
     5
100
AcDbLine
 10
5078.827863335239
 20
264.9997824591559
 30
0.0
 11
5078.827863335239
 21
114.9997824591559
 31
0.0
  0
LINE
  5
1DB
330
1F
100
AcDbEntity
  8
0-B_寸法
  6
Continuous
 62
   120
370
     5
100
AcDbLine
 10
5078.827863335239
 20
264.9997824591559
 30
0.0
 11
4694.827863335239
 21
264.9997824591559
 31
0.0
  0
LWPOLYLINE
  5
1DC
330
1F
100
AcDbEntity
  8
0-B_寸法
  6
Continuous
 62
     7
370
     9
100
AcDbPolyline
 90
        4
 70
     1
 43
3.0
 10
4696.327863335239
 20
264.9997824591559
 42
0.4142135623731
 10
4694.827863335239
 20
266.4997824591559
 42
0.4142135623731
 10
4693.327863335238
 20
264.9997824591559
 42
0.4142135623731
 10
4694.827863335239
 20
263.4997824591558
 42
0.4142135623731
  0
LINE
  5
1DD
330
1F
100
AcDbEntity
  8
0-B_寸法
  6
Continuous
 62
   120
370
     5
100
AcDbLine
 10
4694.827863335239
 20
264.9997824591559
 30
0.0
 11
4694.827863335239
 21
114.9997824591559
 31
0.0
  0
TEXT
  5
1DE
330
1F
100
AcDbEntity
  8
0-B_寸法
  6
Continuous
 62
     7
370
   211
100
AcDbText
 10
4588.549259860055
 20
442.6897824591559
 30
0.0
 40
68.58
  1
20
 41
1.083333333333333
  7
ＭＳ ゴシック
100
AcDbText
  0
LINE
  5
1DF
330
1F
100
AcDbEntity
  8
0-B_寸法
  6
Continuous
 62
   120
370
     5
100
AcDbLine
 10
4694.827863335239
 20
264.9997824591559
 30
0.0
 11
4607.82786333524
 21
264.9997824591559
 31
0.0
  0
LWPOLYLINE
  5
1E0
330
1F
100
AcDbEntity
  8
0-B_寸法
  6
Continuous
 62
     7
370
     9
100
AcDbPolyline
 90
        4
 70
     1
 43
3.0
 10
4609.32786333524
 20
264.9997824591559
 42
0.4142135623731
 10
4607.82786333524
 20
266.4997824591559
 42
0.4142135623731
 10
4606.327863335239
 20
264.9997824591559
 42
0.4142135623731
 10
4607.82786333524
 20
263.4997824591558
 42
0.4142135623731
  0
LINE
  5
1E1
330
1F
100
AcDbEntity
  8
0-B_寸法
  6
Continuous
 62
   120
370
     5
100
AcDbLine
 10
4607.82786333524
 20
414.9997824591559
 30
0.0
 11
4607.82786333524
 21
114.9997824591559
 31
0.0
  0
LINE
  5
1E2
330
1F
100
AcDbEntity
  8
0-B_寸法
  6
Continuous
 62
   120
370
     5
100
AcDbLine
 10
5125.32786333524
 20
414.9997824591559
 30
0.0
 11
4607.82786333524
 21
414.9997824591559
 31
0.0
  0
LWPOLYLINE
  5
1E3
330
1F
100
AcDbEntity
  8
0-B_寸法
  6
Continuous
 62
     7
370
     9
100
AcDbPolyline
 90
        4
 70
     1
 43
3.0
 10
5126.82786333524
 20
414.9997824591559
 42
0.4142135623731
 10
5125.32786333524
 20
416.4997824591559
 42
0.4142135623731
 10
5123.827863335239
 20
414.9997824591559
 42
0.4142135623731
 10
5125.32786333524
 20
413.4997824591558
 42
0.4142135623731
  0
LWPOLYLINE
  5
1E4
330
1F
100
AcDbEntity
  8
0-B_寸法
  6
Continuous
 62
     7
370
     9
100
AcDbPolyline
 90
        4
 70
     1
 43
3.0
 10
4609.32786333524
 20
414.9997824591559
 42
0.4142135623731
 10
4607.82786333524
 20
416.4997824591559
 42
0.4142135623731
 10
4606.327863335239
 20
414.9997824591559
 42
0.4142135623731
 10
4607.82786333524
 20
413.4997824591558
 42
0.4142135623731
  0
TEXT
  5
1E5
330
1F
100
AcDbEntity
  8
0-B_寸法
  6
Continuous
 62
     7
370
   211
100
AcDbText
 10
4791.57786333524
 20
442.6897824591559
 30
0.0
 40
68.58
  1
345
 41
1.111111111111111
  7
ＭＳ ゴシック
100
AcDbText
  0
LINE
  5
1E6
330
1F
100
AcDbEntity
  8
0-B_寸法
  6
Continuous
 62
   120
370
     5
100
AcDbLine
 10
4607.82786333524
 20
414.9997824591559
 30
0.0
 11
4577.82786333524
 21
414.9997824591559
 31
0.0
  0
LWPOLYLINE
  5
1E7
330
1F
100
AcDbEntity
  8
0-B_寸法
  6
Continuous
 62
     7
370
     9
100
AcDbPolyline
 90
        4
 70
     1
 43
3.0
 10
4579.32786333524
 20
414.9997824591559
 42
0.4142135623731
 10
4577.82786333524
 20
416.4997824591559
 42
0.4142135623731
 10
4576.327863335239
 20
414.9997824591559
 42
0.4142135623731
 10
4577.82786333524
 20
413.4997824591558
 42
0.4142135623731
  0
LINE
  5
1E8
330
1F
100
AcDbEntity
  8
0-B_寸法
  6
Continuous
 62
   120
370
     5
100
AcDbLine
 10
4577.82786333524
 20
564.9997824591559
 30
0.0
 11
4577.82786333524
 21
114.9997824591559
 31
0.0
  0
LINE
  5
1E9
330
1F
100
AcDbEntity
  8
0-B_寸法
  6
Continuous
 62
   120
370
     5
100
AcDbLine
 10
4577.82786333524
 20
564.9997824591559
 30
0.0
 11
5125.32786333524
 21
564.9997824591559
 31
0.0
  0
LWPOLYLINE
  5
1EA
330
1F
100
AcDbEntity
  8
0-B_寸法
  6
Continuous
 62
     7
370
     9
100
AcDbPolyline
 90
        4
 70
     1
 43
3.0
 10
4579.32786333524
 20
564.9997824591559
 42
0.4142135623731
 10
4577.82786333524
 20
566.4997824591559
 42
0.4142135623731
 10
4576.327863335239
 20
564.9997824591559
 42
0.4142135623731
 10
4577.82786333524
 20
563.4997824591559
 42
0.4142135623731
  0
LWPOLYLINE
  5
1EB
330
1F
100
AcDbEntity
  8
0-B_寸法
  6
Continuous
 62
     7
370
     9
100
AcDbPolyline
 90
        4
 70
     1
 43
3.0
 10
5126.82786333524
 20
564.9997824591559
 42
0.4142135623731
 10
5125.32786333524
 20
566.4997824591559
 42
0.4142135623731
 10
5123.827863335239
 20
564.9997824591559
 42
0.4142135623731
 10
5125.32786333524
 20
563.4997824591559
 42
0.4142135623731
  0
TEXT
  5
1EC
330
1F
100
AcDbEntity
  8
0-B_寸法
  6
Continuous
 62
     7
370
   211
100
AcDbText
 10
4617.020021815551
 20
292.6897824591559
 30
0.0
 40
68.58
  1
58
 41
1.083333333333333
  7
ＭＳ ゴシック
100
AcDbText
  0
TEXT
  5
1ED
330
1F
100
AcDbEntity
  8
0-B_寸法
  6
Continuous
 62
     7
370
   211
100
AcDbText
 10
4811.827863335239
 20
292.6897824591559
 30
0.0
 40
68.58
  1
256
 41
1.111111111111111
  7
ＭＳ ゴシック
100
AcDbText
  0
TEXT
  5
1EE
330
1F
100
AcDbEntity
  8
0-B_寸法
  6
Continuous
 62
     7
370
   211
100
AcDbText
 10
5023.14706735718
 20
292.6897824591559
 30
0.0
 40
68.58
  1
31
 41
1.083333333333333
  7
ＭＳ ゴシック
100
AcDbText
  0
LINE
  5
1EF
330
1F
100
AcDbEntity
  8
0-6_カウンター
  6
Continuous
 62
    92
370
    13
100
AcDbLine
 10
-184.1294415953892
 20
39.99978245915585
 30
0.0
 11
-184.1294415953892
 21
-5.000217540844147
 31
0.0
  0
LINE
  5
1F0
330
1F
100
AcDbEntity
  8
0-6_カウンター
  6
Continuous
 62
    92
370
    13
100
AcDbLine
 10
3424.870558404611
 20
39.99978245915585
 30
0.0
 11
-184.1294415953892
 21
39.99978245915585
 31
0.0
  0
LINE
  5
1F1
330
1F
100
AcDbEntity
  8
0-6_カウンター
  6
Continuous
 62
    92
370
    13
100
AcDbLine
 10
3424.870558404611
 20
-5.000217540844147
 30
0.0
 11
3424.870558404611
 21
39.99978245915585
 31
0.0
  0
LINE
  5
1F2
330
1F
100
AcDbEntity
  8
0-6_カウンター
  6
Continuous
 62
    92
370
    13
100
AcDbLine
 10
-184.1294415953892
 20
-5.000217540844147
 30
0.0
 11
3424.870558404611
 21
-5.000217540844147
 31
0.0
  0
LINE
  5
1F3
330
1F
100
AcDbEntity
  8
0-B_寸法
  6
Continuous
 62
   120
370
     5
100
AcDbLine
 10
3420.370558404612
 20
264.9997824591559
 30
0.0
 11
-179.6294415953892
 21
264.9997824591559
 31
0.0
  0
LWPOLYLINE
  5
1F4
330
1F
100
AcDbEntity
  8
0-B_寸法
  6
Continuous
 62
     7
370
     9
100
AcDbPolyline
 90
        4
 70
     1
 43
3.0
 10
3421.870558404612
 20
264.9997824591559
 42
0.4142135623731
 10
3420.370558404612
 20
266.4997824591559
 42
0.4142135623731
 10
3418.870558404612
 20
264.9997824591559
 42
0.4142135623731
 10
3420.370558404612
 20
263.4997824591558
 42
0.4142135623731
  0
LWPOLYLINE
  5
1F5
330
1F
100
AcDbEntity
  8
0-B_寸法
  6
Continuous
 62
     7
370
     9
100
AcDbPolyline
 90
        4
 70
     1
 43
3.0
 10
-178.1294415953892
 20
264.9997824591559
 42
0.4142135623731
 10
-179.6294415953892
 20
266.4997824591559
 42
0.4142135623731
 10
-181.1294415953892
 20
264.9997824591559
 42
0.4142135623731
 10
-179.6294415953892
 20
263.4997824591558
 42
0.4142135623731
  0
LINE
  5
1F6
330
1F
100
AcDbEntity
  8
0-B_寸法
  6
Continuous
 62
   120
370
     5
100
AcDbLine
 10
3420.370558404612
 20
264.9997824591559
 30
0.0
 11
3420.370558404612
 21
114.9997824591559
 31
0.0
  0
LINE
  5
1F7
330
1F
100
AcDbEntity
  8
0-B_寸法
  6
Continuous
 62
   120
370
     5
100
AcDbLine
 10
-179.6294415953892
 20
264.9997824591559
 30
0.0
 11
-179.6294415953892
 21
114.9997824591559
 31
0.0
  0
TEXT
  5
1F8
330
1F
100
AcDbEntity
  8
0-B_寸法
  6
Continuous
 62
     7
370
   211
100
AcDbText
 10
1492.870558404612
 20
292.6897824591559
 30
0.0
 40
68.58
  1
2,400
 41
1.133333333333333
  7
ＭＳ ゴシック
100
AcDbText
  0
LINE
  5
1F9
330
1F
100
AcDbEntity
  8
0-B_寸法
  6
Continuous
 62
   120
370
     5
100
AcDbLine
 10
-184.1294415953894
 20
414.9997824591559
 30
0.0
 11
3424.870558404611
 21
414.9997824591559
 31
0.0
  0
LWPOLYLINE
  5
1FA
330
1F
100
AcDbEntity
  8
0-B_寸法
  6
Continuous
 62
     7
370
     9
100
AcDbPolyline
 90
        4
 70
     1
 43
3.0
 10
-182.6294415953894
 20
414.9997824591559
 42
0.4142135623731
 10
-184.1294415953894
 20
416.4997824591559
 42
0.4142135623731
 10
-185.6294415953894
 20
414.9997824591559
 42
0.4142135623731
 10
-184.1294415953894
 20
413.4997824591558
 42
0.4142135623731
  0
LWPOLYLINE
  5
1FB
330
1F
100
AcDbEntity
  8
0-B_寸法
  6
Continuous
 62
     7
370
     9
100
AcDbPolyline
 90
        4
 70
     1
 43
3.0
 10
3426.370558404611
 20
414.9997824591559
 42
0.4142135623731
 10
3424.870558404611
 20
416.4997824591559
 42
0.4142135623731
 10
3423.370558404611
 20
414.9997824591559
 42
0.4142135623731
 10
3424.870558404611
 20
413.4997824591558
 42
0.4142135623731
  0
LINE
  5
1FC
330
1F
100
AcDbEntity
  8
0-B_寸法
  6
Continuous
 62
   120
370
     5
100
AcDbLine
 10
-184.1294415953894
 20
414.9997824591559
 30
0.0
 11
-184.1294415953894
 21
114.9997824591559
 31
0.0
  0
LINE
  5
1FD
330
1F
100
AcDbEntity
  8
0-B_寸法
  6
Continuous
 62
   120
370
     5
100
AcDbLine
 10
3424.870558404611
 20
414.9997824591559
 30
0.0
 11
3424.870558404611
 21
114.9997824591559
 31
0.0
  0
TEXT
  5
1FE
330
1F
100
AcDbEntity
  8
0-B_寸法
  6
Continuous
 62
     7
370
   211
100
AcDbText
 10
1309.120558404611
 20
442.6897824591559
 30
0.0
 40
68.58
  1
ｶｳﾝﾀｰ＝2,406
 41
1.152777777777778
  7
ＭＳ ゴシック
100
AcDbText
  0
LINE
  5
1FF
330
1F
100
AcDbEntity
  8
0-B_寸法
  6
Continuous
 62
   120
370
     5
100
AcDbLine
 10
5125.32786333524
 20
714.9997824591559
 30
0.0
 11
4576.327863335239
 21
714.9997824591559
 31
0.0
  0
LWPOLYLINE
  5
200
330
1F
100
AcDbEntity
  8
0-B_寸法
  6
Continuous
 62
     7
370
     9
100
AcDbPolyline
 90
        4
 70
     1
 43
3.0
 10
5126.82786333524
 20
714.9997824591559
 42
0.4142135623731
 10
5125.32786333524
 20
716.4997824591559
 42
0.4142135623731
 10
5123.827863335239
 20
714.9997824591559
 42
0.4142135623731
 10
5125.32786333524
 20
713.4997824591559
 42
0.4142135623731
  0
LWPOLYLINE
  5
201
330
1F
100
AcDbEntity
  8
0-B_寸法
  6
Continuous
 62
     7
370
     9
100
AcDbPolyline
 90
        4
 70
     1
 43
3.0
 10
4577.82786333524
 20
714.9997824591559
 42
0.4142135623731
 10
4576.327863335239
 20
716.4997824591559
 42
0.4142135623731
 10
4574.827863335239
 20
714.9997824591559
 42
0.4142135623731
 10
4576.327863335239
 20
713.4997824591559
 42
0.4142135623731
  0
LINE
  5
202
330
1F
100
AcDbEntity
  8
0-B_寸法
  6
Continuous
 62
   120
370
     5
100
AcDbLine
 10
5125.32786333524
 20
714.9997824591559
 30
0.0
 11
5125.32786333524
 21
114.9997824591559
 31
0.0
  0
LINE
  5
203
330
1F
100
AcDbEntity
  8
0-B_寸法
  6
Continuous
 62
   120
370
     5
100
AcDbLine
 10
4576.327863335239
 20
714.9997824591559
 30
0.0
 11
4576.327863335239
 21
114.9997824591559
 31
0.0
  0
TEXT
  5
204
330
1F
100
AcDbEntity
  8
0-B_寸法
  6
Continuous
 62
     7
370
   211
100
AcDbText
 10
4592.077863335239
 20
742.6897824591559
 30
0.0
 40
68.58
  1
ｶｳﾝﾀｰ＝366
 41
1.15
  7
ＭＳ ゴシック
100
AcDbText
  0
LINE
  5
205
330
1F
100
AcDbEntity
  8
0-0_補助線
  6
JWW_HOJO
 62
   120
370
     5
100
AcDbLine
 10
4502.82786333524
 20
-1155.500217540845
 30
0.0
 11
5200.32786333524
 21
-1155.500217540845
 31
0.0
  0
LINE
  5
206
330
1F
100
AcDbEntity
  8
0-0_補助線
  6
JWW_HOJO
 62
   120
370
     5
100
AcDbLine
 10
4352.82786333524
 20
-1305.500217540845
 30
0.0
 11
5350.32786333524
 21
-1305.500217540845
 31
0.0
  0
LINE
  5
207
330
1F
100
AcDbEntity
  8
0-0_補助線
  6
JWW_HOJO
 62
   120
370
     5
100
AcDbLine
 10
-254.6294415953894
 20
-1155.500217540845
 30
0.0
 11
3495.370558404611
 21
-1155.500217540845
 31
0.0
  0
LINE
  5
208
330
1F
100
AcDbEntity
  8
0-0_補助線
  6
JWW_HOJO
 62
   120
370
     5
100
AcDbLine
 10
-404.6294415953894
 20
-1305.500217540845
 30
0.0
 11
3645.370558404611
 21
-1305.500217540845
 31
0.0
  0
LINE
  5
209
330
1F
100
AcDbEntity
  8
0-0_補助線
  6
JWW_HOJO
 62
   120
370
     5
100
AcDbLine
 10
-5151.578110775062
 20
-1155.500217540845
 30
0.0
 11
-1401.578110775061
 21
-1155.500217540845
 31
0.0
  0
LINE
  5
20A
330
1F
100
AcDbEntity
  8
0-0_補助線
  6
JWW_HOJO
 62
   120
370
     5
100
AcDbLine
 10
-5301.578110775062
 20
-1305.500217540845
 30
0.0
 11
-1251.578110775061
 21
-1305.500217540845
 31
0.0
  0
LINE
  5
20B
330
1F
100
AcDbEntity
  8
0-0_補助線
  6
JWW_HOJO
 62
   120
370
     5
100
AcDbLine
 10
4502.82786333524
 20
114.9997824591559
 30
0.0
 11
4502.82786333524
 21
-1155.500217540845
 31
0.0
  0
LINE
  5
20C
330
1F
100
AcDbEntity
  8
0-0_補助線
  6
JWW_HOJO
 62
   120
370
     5
100
AcDbLine
 10
5200.32786333524
 20
-1155.500217540845
 30
0.0
 11
5200.32786333524
 21
114.9997824591559
 31
0.0
  0
LINE
  5
20D
330
1F
100
AcDbEntity
  8
0-0_補助線
  6
JWW_HOJO
 62
   120
370
     5
100
AcDbLine
 10
4352.82786333524
 20
264.9997824591559
 30
0.0
 11
4352.82786333524
 21
-1305.500217540845
 31
0.0
  0
LINE
  5
20E
330
1F
100
AcDbEntity
  8
0-0_補助線
  6
JWW_HOJO
 62
   120
370
     5
100
AcDbLine
 10
5350.32786333524
 20
-1305.500217540845
 30
0.0
 11
5350.32786333524
 21
264.9997824591559
 31
0.0
  0
LINE
  5
20F
330
1F
100
AcDbEntity
  8
0-0_補助線
  6
JWW_HOJO
 62
   120
370
     5
100
AcDbLine
 10
-254.6294415953894
 20
114.9997824591559
 30
0.0
 11
-254.6294415953894
 21
-1155.500217540845
 31
0.0
  0
LINE
  5
210
330
1F
100
AcDbEntity
  8
0-0_補助線
  6
JWW_HOJO
 62
   120
370
     5
100
AcDbLine
 10
-404.6294415953894
 20
264.9997824591559
 30
0.0
 11
-404.6294415953894
 21
-1305.500217540845
 31
0.0
  0
LINE
  5
211
330
1F
100
AcDbEntity
  8
0-0_補助線
  6
JWW_HOJO
 62
   120
370
     5
100
AcDbLine
 10
-5151.578110775062
 20
114.9997824591559
 30
0.0
 11
-5151.578110775062
 21
-1155.500217540845
 31
0.0
  0
LINE
  5
212
330
1F
100
AcDbEntity
  8
0-0_補助線
  6
JWW_HOJO
 62
   120
370
     5
100
AcDbLine
 10
-5301.578110775062
 20
264.9997824591559
 30
0.0
 11
-5301.578110775062
 21
-1305.500217540845
 31
0.0
  0
LINE
  5
213
330
1F
100
AcDbEntity
  8
0-0_補助線
  6
JWW_HOJO
 62
   120
370
     5
100
AcDbLine
 10
3495.370558404611
 20
-1155.500217540845
 30
0.0
 11
3495.370558404611
 21
114.9997824591559
 31
0.0
  0
LINE
  5
214
330
1F
100
AcDbEntity
  8
0-0_補助線
  6
JWW_HOJO
 62
   120
370
     5
100
AcDbLine
 10
3645.370558404611
 20
-1305.500217540845
 30
0.0
 11
3645.370558404611
 21
264.9997824591559
 31
0.0
  0
LINE
  5
215
330
1F
100
AcDbEntity
  8
0-0_補助線
  6
JWW_HOJO
 62
   120
370
     5
100
AcDbLine
 10
-1401.578110775061
 20
-1155.500217540845
 30
0.0
 11
-1401.578110775061
 21
114.9997824591559
 31
0.0
  0
LINE
  5
216
330
1F
100
AcDbEntity
  8
0-0_補助線
  6
JWW_HOJO
 62
   120
370
     5
100
AcDbLine
 10
-1251.578110775061
 20
-1305.500217540845
 30
0.0
 11
-1251.578110775061
 21
264.9997824591559
 31
0.0
  0
LINE
  5
217
330
1F
100
AcDbEntity
  8
0-B_寸法
  6
Continuous
 62
   120
370
     5
100
AcDbLine
 10
-179.6294415953892
 20
-1305.500217540845
 30
0.0
 11
-156.3794415953893
 21
-1305.500217540845
 31
0.0
  0
LWPOLYLINE
  5
218
330
1F
100
AcDbEntity
  8
0-B_寸法
  6
Continuous
 62
     7
370
     9
100
AcDbPolyline
 90
        4
 70
     1
 43
3.0
 10
-178.1294415953892
 20
-1305.500217540845
 42
0.4142135623731
 10
-179.6294415953892
 20
-1304.000217540845
 42
0.4142135623731
 10
-181.1294415953892
 20
-1305.500217540845
 42
0.4142135623731
 10
-179.6294415953892
 20
-1307.000217540844
 42
0.4142135623731
  0
LWPOLYLINE
  5
219
330
1F
100
AcDbEntity
  8
0-B_寸法
  6
Continuous
 62
     7
370
     9
100
AcDbPolyline
 90
        4
 70
     1
 43
3.0
 10
-154.8794415953893
 20
-1305.500217540845
 42
0.4142135623731
 10
-156.3794415953893
 20
-1304.000217540845
 42
0.4142135623731
 10
-157.8794415953892
 20
-1305.500217540845
 42
0.4142135623731
 10
-156.3794415953893
 20
-1307.000217540844
 42
0.4142135623731
  0
LINE
  5
21A
330
1F
100
AcDbEntity
  8
0-B_寸法
  6
Continuous
 62
   120
370
     5
100
AcDbLine
 10
-179.6294415953892
 20
-1305.500217540845
 30
0.0
 11
-179.6294415953892
 21
-1155.500217540845
 31
0.0
  0
LINE
  5
21B
330
1F
100
AcDbEntity
  8
0-B_寸法
  6
Continuous
 62
   120
370
     5
100
AcDbLine
 10
-156.3794415953893
 20
-1305.500217540845
 30
0.0
 11
-156.3794415953893
 21
-1155.500217540845
 31
0.0
  0
LINE
  5
21C
330
1F
100
AcDbEntity
  8
0-B_寸法
  6
Continuous
 62
   120
370
     5
100
AcDbLine
 10
-156.3794415953893
 20
-1305.500217540845
 30
0.0
 11
997.1205584046106
 21
-1305.500217540845
 31
0.0
  0
LWPOLYLINE
  5
21D
330
1F
100
AcDbEntity
  8
0-B_寸法
  6
Continuous
 62
     7
370
     9
100
AcDbPolyline
 90
        4
 70
     1
 43
3.0
 10
998.6205584046105
 20
-1305.500217540845
 42
0.4142135623731
 10
997.1205584046106
 20
-1304.000217540845
 42
0.4142135623731
 10
995.6205584046107
 20
-1305.500217540845
 42
0.4142135623731
 10
997.1205584046106
 20
-1307.000217540844
 42
0.4142135623731
  0
LINE
  5
21E
330
1F
100
AcDbEntity
  8
0-B_寸法
  6
Continuous
 62
   120
370
     5
100
AcDbLine
 10
997.1205584046106
 20
-1305.500217540845
 30
0.0
 11
997.1205584046106
 21
-1155.500217540845
 31
0.0
  0
TEXT
  5
21F
330
1F
100
AcDbEntity
  8
0-B_寸法
  6
Continuous
 62
     7
370
   211
100
AcDbText
 10
345.3705584046107
 20
-1277.810217540845
 30
0.0
 40
68.58
  1
769
 41
1.111111111111111
  7
ＭＳ ゴシック
100
AcDbText
  0
LINE
  5
220
330
1F
100
AcDbEntity
  8
0-B_寸法
  6
Continuous
 62
   120
370
     5
100
AcDbLine
 10
997.1205584046106
 20
-1305.500217540845
 30
0.0
 11
1020.370558404611
 21
-1305.500217540845
 31
0.0
  0
LWPOLYLINE
  5
221
330
1F
100
AcDbEntity
  8
0-B_寸法
  6
Continuous
 62
     7
370
     9
100
AcDbPolyline
 90
        4
 70
     1
 43
3.0
 10
1021.870558404611
 20
-1305.500217540845
 42
0.4142135623731
 10
1020.370558404611
 20
-1304.000217540845
 42
0.4142135623731
 10
1018.870558404611
 20
-1305.500217540845
 42
0.4142135623731
 10
1020.370558404611
 20
-1307.000217540844
 42
0.4142135623731
  0
LINE
  5
222
330
1F
100
AcDbEntity
  8
0-B_寸法
  6
Continuous
 62
   120
370
     5
100
AcDbLine
 10
1020.370558404611
 20
-1305.500217540845
 30
0.0
 11
1020.370558404611
 21
-1155.500217540845
 31
0.0
  0
TEXT
  5
223
330
1F
100
AcDbEntity
  8
0-B_寸法
  6
Continuous
 62
     7
370
   211
100
AcDbText
 10
787.473583963348
 20
-1277.810217540845
 30
0.0
 40
68.58
  1
15.5
 41
1.125
  7
ＭＳ ゴシック
100
AcDbText
  0
TEXT
  5
224
330
1F
100
AcDbEntity
  8
0-B_寸法
  6
Continuous
 62
     7
370
   211
100
AcDbText
 10
-148.2701110592323
 20
-1277.810217540845
 30
0.0
 40
68.58
  1
15.5
 41
1.125
  7
ＭＳ ゴシック
100
AcDbText
  0
LINE
  5
225
330
1F
100
AcDbEntity
  8
0-B_寸法
  6
Continuous
 62
   120
370
     5
100
AcDbLine
 10
1020.370558404612
 20
-1305.500217540845
 30
0.0
 11
1043.620558404612
 21
-1305.500217540845
 31
0.0
  0
LWPOLYLINE
  5
226
330
1F
100
AcDbEntity
  8
0-B_寸法
  6
Continuous
 62
     7
370
     9
100
AcDbPolyline
 90
        4
 70
     1
 43
3.0
 10
1021.870558404612
 20
-1305.500217540845
 42
0.4142135623731
 10
1020.370558404612
 20
-1304.000217540845
 42
0.4142135623731
 10
1018.870558404612
 20
-1305.500217540845
 42
0.4142135623731
 10
1020.370558404612
 20
-1307.000217540844
 42
0.4142135623731
  0
LWPOLYLINE
  5
227
330
1F
100
AcDbEntity
  8
0-B_寸法
  6
Continuous
 62
     7
370
     9
100
AcDbPolyline
 90
        4
 70
     1
 43
3.0
 10
1045.120558404612
 20
-1305.500217540845
 42
0.4142135623731
 10
1043.620558404612
 20
-1304.000217540845
 42
0.4142135623731
 10
1042.120558404612
 20
-1305.500217540845
 42
0.4142135623731
 10
1043.620558404612
 20
-1307.000217540844
 42
0.4142135623731
  0
LINE
  5
228
330
1F
100
AcDbEntity
  8
0-B_寸法
  6
Continuous
 62
   120
370
     5
100
AcDbLine
 10
1020.370558404612
 20
-1305.500217540845
 30
0.0
 11
1020.370558404612
 21
-1155.500217540845
 31
0.0
  0
LINE
  5
229
330
1F
100
AcDbEntity
  8
0-B_寸法
  6
Continuous
 62
   120
370
     5
100
AcDbLine
 10
1043.620558404612
 20
-1305.500217540845
 30
0.0
 11
1043.620558404612
 21
-1155.500217540845
 31
0.0
  0
LINE
  5
22A
330
1F
100
AcDbEntity
  8
0-B_寸法
  6
Continuous
 62
   120
370
     5
100
AcDbLine
 10
1043.620558404612
 20
-1305.500217540845
 30
0.0
 11
2197.120558404612
 21
-1305.500217540845
 31
0.0
  0
LWPOLYLINE
  5
22B
330
1F
100
AcDbEntity
  8
0-B_寸法
  6
Continuous
 62
     7
370
     9
100
AcDbPolyline
 90
        4
 70
     1
 43
3.0
 10
2198.620558404612
 20
-1305.500217540845
 42
0.4142135623731
 10
2197.120558404612
 20
-1304.000217540845
 42
0.4142135623731
 10
2195.620558404612
 20
-1305.500217540845
 42
0.4142135623731
 10
2197.120558404612
 20
-1307.000217540844
 42
0.4142135623731
  0
LINE
  5
22C
330
1F
100
AcDbEntity
  8
0-B_寸法
  6
Continuous
 62
   120
370
     5
100
AcDbLine
 10
2197.120558404612
 20
-1305.500217540845
 30
0.0
 11
2197.120558404612
 21
-1155.500217540845
 31
0.0
  0
TEXT
  5
22D
330
1F
100
AcDbEntity
  8
0-B_寸法
  6
Continuous
 62
     7
370
   211
100
AcDbText
 10
1545.370558404612
 20
-1277.810217540845
 30
0.0
 40
68.58
  1
769
 41
1.111111111111111
  7
ＭＳ ゴシック
100
AcDbText
  0
LINE
  5
22E
330
1F
100
AcDbEntity
  8
0-B_寸法
  6
Continuous
 62
   120
370
     5
100
AcDbLine
 10
2197.120558404612
 20
-1305.500217540845
 30
0.0
 11
2220.370558404612
 21
-1305.500217540845
 31
0.0
  0
LWPOLYLINE
  5
22F
330
1F
100
AcDbEntity
  8
0-B_寸法
  6
Continuous
 62
     7
370
     9
100
AcDbPolyline
 90
        4
 70
     1
 43
3.0
 10
2221.870558404612
 20
-1305.500217540845
 42
0.4142135623731
 10
2220.370558404612
 20
-1304.000217540845
 42
0.4142135623731
 10
2218.870558404612
 20
-1305.500217540845
 42
0.4142135623731
 10
2220.370558404612
 20
-1307.000217540844
 42
0.4142135623731
  0
LINE
  5
230
330
1F
100
AcDbEntity
  8
0-B_寸法
  6
Continuous
 62
   120
370
     5
100
AcDbLine
 10
2220.370558404612
 20
-1305.500217540845
 30
0.0
 11
2220.370558404612
 21
-1155.500217540845
 31
0.0
  0
TEXT
  5
231
330
1F
100
AcDbEntity
  8
0-B_寸法
  6
Continuous
 62
     7
370
   211
100
AcDbText
 10
1987.473583963349
 20
-1277.810217540845
 30
0.0
 40
68.58
  1
15.5
 41
1.125
  7
ＭＳ ゴシック
100
AcDbText
  0
TEXT
  5
232
330
1F
100
AcDbEntity
  8
0-B_寸法
  6
Continuous
 62
     7
370
   211
100
AcDbText
 10
1051.729888940768
 20
-1277.810217540845
 30
0.0
 40
68.58
  1
15.5
 41
1.125
  7
ＭＳ ゴシック
100
AcDbText
  0
LINE
  5
233
330
1F
100
AcDbEntity
  8
0-B_寸法
  6
Continuous
 62
   120
370
     5
100
AcDbLine
 10
2220.370558404612
 20
-1305.500217540845
 30
0.0
 11
2243.620558404613
 21
-1305.500217540845
 31
0.0
  0
LWPOLYLINE
  5
234
330
1F
100
AcDbEntity
  8
0-B_寸法
  6
Continuous
 62
     7
370
     9
100
AcDbPolyline
 90
        4
 70
     1
 43
3.0
 10
2221.870558404612
 20
-1305.500217540845
 42
0.4142135623731
 10
2220.370558404612
 20
-1304.000217540845
 42
0.4142135623731
 10
2218.870558404612
 20
-1305.500217540845
 42
0.4142135623731
 10
2220.370558404612
 20
-1307.000217540844
 42
0.4142135623731
  0
LWPOLYLINE
  5
235
330
1F
100
AcDbEntity
  8
0-B_寸法
  6
Continuous
 62
     7
370
     9
100
AcDbPolyline
 90
        4
 70
     1
 43
3.0
 10
2245.120558404612
 20
-1305.500217540845
 42
0.4142135623731
 10
2243.620558404613
 20
-1304.000217540845
 42
0.4142135623731
 10
2242.120558404613
 20
-1305.500217540845
 42
0.4142135623731
 10
2243.620558404613
 20
-1307.000217540844
 42
0.4142135623731
  0
LINE
  5
236
330
1F
100
AcDbEntity
  8
0-B_寸法
  6
Continuous
 62
   120
370
     5
100
AcDbLine
 10
2220.370558404612
 20
-1305.500217540845
 30
0.0
 11
2220.370558404612
 21
-1155.500217540845
 31
0.0
  0
LINE
  5
237
330
1F
100
AcDbEntity
  8
0-B_寸法
  6
Continuous
 62
   120
370
     5
100
AcDbLine
 10
2243.620558404613
 20
-1305.500217540845
 30
0.0
 11
2243.620558404613
 21
-1155.500217540845
 31
0.0
  0
LINE
  5
238
330
1F
100
AcDbEntity
  8
0-B_寸法
  6
Continuous
 62
   120
370
     5
100
AcDbLine
 10
2243.620558404613
 20
-1305.500217540845
 30
0.0
 11
3397.120558404612
 21
-1305.500217540845
 31
0.0
  0
LWPOLYLINE
  5
239
330
1F
100
AcDbEntity
  8
0-B_寸法
  6
Continuous
 62
     7
370
     9
100
AcDbPolyline
 90
        4
 70
     1
 43
3.0
 10
3398.620558404612
 20
-1305.500217540845
 42
0.4142135623731
 10
3397.120558404612
 20
-1304.000217540845
 42
0.4142135623731
 10
3395.620558404612
 20
-1305.500217540845
 42
0.4142135623731
 10
3397.120558404612
 20
-1307.000217540844
 42
0.4142135623731
  0
LINE
  5
23A
330
1F
100
AcDbEntity
  8
0-B_寸法
  6
Continuous
 62
   120
370
     5
100
AcDbLine
 10
3397.120558404612
 20
-1305.500217540845
 30
0.0
 11
3397.120558404612
 21
-1155.500217540845
 31
0.0
  0
TEXT
  5
23B
330
1F
100
AcDbEntity
  8
0-B_寸法
  6
Continuous
 62
     7
370
   211
100
AcDbText
 10
2745.370558404612
 20
-1277.810217540845
 30
0.0
 40
68.58
  1
769
 41
1.111111111111111
  7
ＭＳ ゴシック
100
AcDbText
  0
LINE
  5
23C
330
1F
100
AcDbEntity
  8
0-B_寸法
  6
Continuous
 62
   120
370
     5
100
AcDbLine
 10
3397.120558404612
 20
-1305.500217540845
 30
0.0
 11
3420.370558404612
 21
-1305.500217540845
 31
0.0
  0
LWPOLYLINE
  5
23D
330
1F
100
AcDbEntity
  8
0-B_寸法
  6
Continuous
 62
     7
370
     9
100
AcDbPolyline
 90
        4
 70
     1
 43
3.0
 10
3421.870558404612
 20
-1305.500217540845
 42
0.4142135623731
 10
3420.370558404612
 20
-1304.000217540845
 42
0.4142135623731
 10
3418.870558404612
 20
-1305.500217540845
 42
0.4142135623731
 10
3420.370558404612
 20
-1307.000217540844
 42
0.4142135623731
  0
LINE
  5
23E
330
1F
100
AcDbEntity
  8
0-B_寸法
  6
Continuous
 62
   120
370
     5
100
AcDbLine
 10
3420.370558404612
 20
-1305.500217540845
 30
0.0
 11
3420.370558404612
 21
-1155.500217540845
 31
0.0
  0
TEXT
  5
23F
330
1F
100
AcDbEntity
  8
0-B_寸法
  6
Continuous
 62
     7
370
   211
100
AcDbText
 10
3187.47358396335
 20
-1277.810217540845
 30
0.0
 40
68.58
  1
15.5
 41
1.125
  7
ＭＳ ゴシック
100
AcDbText
  0
TEXT
  5
240
330
1F
100
AcDbEntity
  8
0-B_寸法
  6
Continuous
 62
     7
370
   211
100
AcDbText
 10
2251.729888940769
 20
-1277.810217540845
 30
0.0
 40
68.58
  1
15.5
 41
1.125
  7
ＭＳ ゴシック
100
AcDbText
  0
LINE
  5
241
330
1F
100
AcDbEntity
  8
0-B_寸法
  6
Continuous
 62
   120
370
     5
100
AcDbLine
 10
3420.370558404612
 20
-1455.500217540845
 30
0.0
 11
2220.370558404612
 21
-1455.500217540845
 31
0.0
  0
LWPOLYLINE
  5
242
330
1F
100
AcDbEntity
  8
0-B_寸法
  6
Continuous
 62
     7
370
     9
100
AcDbPolyline
 90
        4
 70
     1
 43
3.0
 10
3421.870558404612
 20
-1455.500217540845
 42
0.4142135623731
 10
3420.370558404612
 20
-1454.000217540845
 42
0.4142135623731
 10
3418.870558404612
 20
-1455.500217540845
 42
0.4142135623731
 10
3420.370558404612
 20
-1457.000217540844
 42
0.4142135623731
  0
LWPOLYLINE
  5
243
330
1F
100
AcDbEntity
  8
0-B_寸法
  6
Continuous
 62
     7
370
     9
100
AcDbPolyline
 90
        4
 70
     1
 43
3.0
 10
2221.870558404612
 20
-1455.500217540845
 42
0.4142135623731
 10
2220.370558404612
 20
-1454.000217540845
 42
0.4142135623731
 10
2218.870558404612
 20
-1455.500217540845
 42
0.4142135623731
 10
2220.370558404612
 20
-1457.000217540844
 42
0.4142135623731
  0
LINE
  5
244
330
1F
100
AcDbEntity
  8
0-B_寸法
  6
Continuous
 62
   120
370
     5
100
AcDbLine
 10
3420.370558404612
 20
-1455.500217540845
 30
0.0
 11
3420.370558404612
 21
-1155.500217540845
 31
0.0
  0
LINE
  5
245
330
1F
100
AcDbEntity
  8
0-B_寸法
  6
Continuous
 62
   120
370
     5
100
AcDbLine
 10
2220.370558404612
 20
-1455.500217540845
 30
0.0
 11
2220.370558404612
 21
-1155.500217540845
 31
0.0
  0
TEXT
  5
246
330
1F
100
AcDbEntity
  8
0-B_寸法
  6
Continuous
 62
     7
370
   211
100
AcDbText
 10
2745.370558404612
 20
-1427.810217540845
 30
0.0
 40
68.58
  1
800
 41
1.111111111111111
  7
ＭＳ ゴシック
100
AcDbText
  0
LINE
  5
247
330
1F
100
AcDbEntity
  8
0-B_寸法
  6
Continuous
 62
   120
370
     5
100
AcDbLine
 10
2220.370558404612
 20
-1455.500217540845
 30
0.0
 11
1020.370558404611
 21
-1455.500217540845
 31
0.0
  0
LWPOLYLINE
  5
248
330
1F
100
AcDbEntity
  8
0-B_寸法
  6
Continuous
 62
     7
370
     9
100
AcDbPolyline
 90
        4
 70
     1
 43
3.0
 10
1021.870558404611
 20
-1455.500217540845
 42
0.4142135623731
 10
1020.370558404611
 20
-1454.000217540845
 42
0.4142135623731
 10
1018.870558404611
 20
-1455.500217540845
 42
0.4142135623731
 10
1020.370558404611
 20
-1457.000217540844
 42
0.4142135623731
  0
LINE
  5
249
330
1F
100
AcDbEntity
  8
0-B_寸法
  6
Continuous
 62
   120
370
     5
100
AcDbLine
 10
1020.370558404611
 20
-1455.500217540845
 30
0.0
 11
1020.370558404611
 21
-1155.500217540845
 31
0.0
  0
TEXT
  5
24A
330
1F
100
AcDbEntity
  8
0-B_寸法
  6
Continuous
 62
     7
370
   211
100
AcDbText
 10
1545.370558404611
 20
-1427.810217540845
 30
0.0
 40
68.58
  1
800
 41
1.111111111111111
  7
ＭＳ ゴシック
100
AcDbText
  0
LINE
  5
24B
330
1F
100
AcDbEntity
  8
0-B_寸法
  6
Continuous
 62
   120
370
     5
100
AcDbLine
 10
1020.370558404611
 20
-1455.500217540845
 30
0.0
 11
-179.6294415953892
 21
-1455.500217540845
 31
0.0
  0
LWPOLYLINE
  5
24C
330
1F
100
AcDbEntity
  8
0-B_寸法
  6
Continuous
 62
     7
370
     9
100
AcDbPolyline
 90
        4
 70
     1
 43
3.0
 10
-178.1294415953892
 20
-1455.500217540845
 42
0.4142135623731
 10
-179.6294415953892
 20
-1454.000217540845
 42
0.4142135623731
 10
-181.1294415953892
 20
-1455.500217540845
 42
0.4142135623731
 10
-179.6294415953892
 20
-1457.000217540844
 42
0.4142135623731
  0
LINE
  5
24D
330
1F
100
AcDbEntity
  8
0-B_寸法
  6
Continuous
 62
   120
370
     5
100
AcDbLine
 10
-179.6294415953892
 20
-1455.500217540845
 30
0.0
 11
-179.6294415953892
 21
-1155.500217540845
 31
0.0
  0
TEXT
  5
24E
330
1F
100
AcDbEntity
  8
0-B_寸法
  6
Continuous
 62
     7
370
   211
100
AcDbText
 10
345.3705584046108
 20
-1427.810217540845
 30
0.0
 40
68.58
  1
800
 41
1.111111111111111
  7
ＭＳ ゴシック
100
AcDbText
  0
LINE
  5
24F
330
1F
100
AcDbEntity
  8
0-1_本体
  6
Continuous
 62
     7
370
     9
100
AcDbLine
 10
-5075.828110775061
 20
-939.5002175408443
 30
0.0
 11
-1477.32811077506
 21
-939.5002175408443
 31
0.0
  0
LINE
  5
250
330
1F
100
AcDbEntity
  8
0-1_本体
  6
Continuous
 62
     7
370
     9
100
AcDbLine
 10
-1477.32811077506
 20
-939.5002175408443
 30
0.0
 11
-1477.32811077506
 21
-1010.000217540844
 31
0.0
  0
LINE
  5
251
330
1F
100
AcDbEntity
  8
0-1_本体
  6
Continuous
 62
     7
370
     9
100
AcDbLine
 10
-1477.32811077506
 20
-1010.000217540844
 30
0.0
 11
-5075.828110775061
 21
-1010.000217540844
 31
0.0
  0
LINE
  5
252
330
1F
100
AcDbEntity
  8
0-1_本体
  6
Continuous
 62
     7
370
     9
100
AcDbLine
 10
-5075.828110775061
 20
-1010.000217540844
 30
0.0
 11
-5075.828110775061
 21
-939.5002175408443
 31
0.0
  0
LINE
  5
253
330
1F
100
AcDbEntity
  8
0-1_本体
  6
Continuous
 62
     7
370
     9
100
AcDbLine
 10
-178.8794415953884
 20
-939.5002175408443
 30
0.0
 11
3419.620558404612
 21
-939.5002175408443
 31
0.0
  0
LINE
  5
254
330
1F
100
AcDbEntity
  8
0-1_本体
  6
Continuous
 62
     7
370
     9
100
AcDbLine
 10
3419.620558404612
 20
-939.5002175408443
 30
0.0
 11
3419.620558404612
 21
-1010.000217540844
 31
0.0
  0
LINE
  5
255
330
1F
100
AcDbEntity
  8
0-1_本体
  6
Continuous
 62
     7
370
     9
100
AcDbLine
 10
3419.620558404612
 20
-1010.000217540844
 30
0.0
 11
-178.8794415953884
 21
-1010.000217540844
 31
0.0
  0
LINE
  5
256
330
1F
100
AcDbEntity
  8
0-1_本体
  6
Continuous
 62
     7
370
     9
100
AcDbLine
 10
-178.8794415953884
 20
-1010.000217540844
 30
0.0
 11
-178.8794415953884
 21
-939.5002175408443
 31
0.0
  0
LINE
  5
257
330
1F
100
AcDbEntity
  8
0-1_本体
  6
Continuous
 62
     7
370
     9
100
AcDbLine
 10
5125.32786333524
 20
-1010.000217540844
 30
0.0
 11
5125.32786333524
 21
-939.5002175408443
 31
0.0
  0
LINE
  5
258
330
1F
100
AcDbEntity
  8
0-B_寸法
  6
Continuous
 62
   120
370
     5
100
AcDbLine
 10
-5076.578110775062
 20
264.9997824591559
 30
0.0
 11
-5076.578110775062
 21
114.9997824591559
 31
0.0
  0
LINE
  5
259
330
1F
100
AcDbEntity
  8
0-B_寸法
  6
Continuous
 62
   120
370
     5
100
AcDbLine
 10
-5073.578110775062
 20
264.9997824591559
 30
0.0
 11
-5073.578110775062
 21
114.9997824591559
 31
0.0
  0
LINE
  5
25A
330
1F
100
AcDbEntity
  8
0-B_寸法
  6
Continuous
 62
   120
370
     5
100
AcDbLine
 10
-4478.82811077506
 20
264.9997824591559
 30
0.0
 11
-4478.82811077506
 21
114.9997824591559
 31
0.0
  0
LINE
  5
25B
330
1F
100
AcDbEntity
  8
0-B_寸法
  6
Continuous
 62
   120
370
     5
100
AcDbLine
 10
-4474.328110775061
 20
264.9997824591559
 30
0.0
 11
-4474.328110775061
 21
114.9997824591559
 31
0.0
  0
LINE
  5
25C
330
1F
100
AcDbEntity
  8
0-B_寸法
  6
Continuous
 62
   120
370
     5
100
AcDbLine
 10
-3879.57811077506
 20
264.9997824591559
 30
0.0
 11
-3879.57811077506
 21
114.9997824591559
 31
0.0
  0
LINE
  5
25D
330
1F
100
AcDbEntity
  8
0-B_寸法
  6
Continuous
 62
   120
370
     5
100
AcDbLine
 10
-3876.578110775061
 20
264.9997824591559
 30
0.0
 11
-3876.578110775061
 21
114.9997824591559
 31
0.0
  0
LINE
  5
25E
330
1F
100
AcDbEntity
  8
0-B_寸法
  6
Continuous
 62
   120
370
     5
100
AcDbLine
 10
-3876.578110775061
 20
264.9997824591559
 30
0.0
 11
-3876.578110775061
 21
114.9997824591559
 31
0.0
  0
LINE
  5
25F
330
1F
100
AcDbEntity
  8
0-B_寸法
  6
Continuous
 62
   120
370
     5
100
AcDbLine
 10
-3873.578110775061
 20
264.9997824591559
 30
0.0
 11
-3873.578110775061
 21
114.9997824591559
 31
0.0
  0
LINE
  5
260
330
1F
100
AcDbEntity
  8
0-B_寸法
  6
Continuous
 62
   120
370
     5
100
AcDbLine
 10
-3278.828110775059
 20
264.9997824591559
 30
0.0
 11
-3278.828110775059
 21
114.9997824591559
 31
0.0
  0
LINE
  5
261
330
1F
100
AcDbEntity
  8
0-B_寸法
  6
Continuous
 62
   120
370
     5
100
AcDbLine
 10
-3274.32811077506
 20
264.9997824591559
 30
0.0
 11
-3274.32811077506
 21
114.9997824591559
 31
0.0
  0
LINE
  5
262
330
1F
100
AcDbEntity
  8
0-B_寸法
  6
Continuous
 62
   120
370
     5
100
AcDbLine
 10
-2679.578110775059
 20
264.9997824591559
 30
0.0
 11
-2679.578110775059
 21
114.9997824591559
 31
0.0
  0
LINE
  5
263
330
1F
100
AcDbEntity
  8
0-B_寸法
  6
Continuous
 62
   120
370
     5
100
AcDbLine
 10
-2676.57811077506
 20
264.9997824591559
 30
0.0
 11
-2676.57811077506
 21
114.9997824591559
 31
0.0
  0
LINE
  5
264
330
1F
100
AcDbEntity
  8
0-B_寸法
  6
Continuous
 62
   120
370
     5
100
AcDbLine
 10
-2676.57811077506
 20
264.9997824591559
 30
0.0
 11
-2676.57811077506
 21
114.9997824591559
 31
0.0
  0
LINE
  5
265
330
1F
100
AcDbEntity
  8
0-B_寸法
  6
Continuous
 62
   120
370
     5
100
AcDbLine
 10
-2673.57811077506
 20
264.9997824591559
 30
0.0
 11
-2673.57811077506
 21
114.9997824591559
 31
0.0
  0
LINE
  5
266
330
1F
100
AcDbEntity
  8
0-B_寸法
  6
Continuous
 62
   120
370
     5
100
AcDbLine
 10
-2078.828110775059
 20
264.9997824591559
 30
0.0
 11
-2078.828110775059
 21
114.9997824591559
 31
0.0
  0
LINE
  5
267
330
1F
100
AcDbEntity
  8
0-B_寸法
  6
Continuous
 62
   120
370
     5
100
AcDbLine
 10
-2074.328110775059
 20
264.9997824591559
 30
0.0
 11
-2074.328110775059
 21
114.9997824591559
 31
0.0
  0
LINE
  5
268
330
1F
100
AcDbEntity
  8
0-B_寸法
  6
Continuous
 62
   120
370
     5
100
AcDbLine
 10
-1479.578110775059
 20
264.9997824591559
 30
0.0
 11
-1479.578110775059
 21
114.9997824591559
 31
0.0
  0
LINE
  5
269
330
1F
100
AcDbEntity
  8
0-B_寸法
  6
Continuous
 62
   120
370
     5
100
AcDbLine
 10
-1476.578110775059
 20
264.9997824591559
 30
0.0
 11
-1476.578110775059
 21
114.9997824591559
 31
0.0
  0
LINE
  5
26A
330
1F
100
AcDbEntity
  8
0-B_寸法
  6
Continuous
 62
   120
370
     5
100
AcDbLine
 10
-5076.578110775062
 20
264.9997824591559
 30
0.0
 11
-5073.578110775062
 21
264.9997824591559
 31
0.0
  0
LWPOLYLINE
  5
26B
330
1F
100
AcDbEntity
  8
0-B_寸法
  6
Continuous
 62
     7
370
     9
100
AcDbPolyline
 90
        4
 70
     1
 43
3.0
 10
-5075.078110775061
 20
264.9997824591559
 42
0.4142135623731
 10
-5076.578110775062
 20
266.4997824591559
 42
0.4142135623731
 10
-5078.078110775062
 20
264.9997824591559
 42
0.4142135623731
 10
-5076.578110775062
 20
263.4997824591558
 42
0.4142135623731
  0
LWPOLYLINE
  5
26C
330
1F
100
AcDbEntity
  8
0-B_寸法
  6
Continuous
 62
     7
370
     9
100
AcDbPolyline
 90
        4
 70
     1
 43
3.0
 10
-5072.078110775062
 20
264.9997824591559
 42
0.4142135623731
 10
-5073.578110775062
 20
266.4997824591559
 42
0.4142135623731
 10
-5075.078110775062
 20
264.9997824591559
 42
0.4142135623731
 10
-5073.578110775062
 20
263.4997824591558
 42
0.4142135623731
  0
LINE
  5
26D
330
1F
100
AcDbEntity
  8
0-B_寸法
  6
Continuous
 62
   120
370
     5
100
AcDbLine
 10
-5073.578110775062
 20
264.9997824591559
 30
0.0
 11
-4478.82811077506
 21
264.9997824591559
 31
0.0
  0
LWPOLYLINE
  5
26E
330
1F
100
AcDbEntity
  8
0-B_寸法
  6
Continuous
 62
     7
370
     9
100
AcDbPolyline
 90
        4
 70
     1
 43
3.0
 10
-4477.32811077506
 20
264.9997824591559
 42
0.4142135623731
 10
-4478.82811077506
 20
266.4997824591559
 42
0.4142135623731
 10
-4480.328110775061
 20
264.9997824591559
 42
0.4142135623731
 10
-4478.82811077506
 20
263.4997824591558
 42
0.4142135623731
  0
LINE
  5
26F
330
1F
100
AcDbEntity
  8
0-B_寸法
  6
Continuous
 62
   120
370
     5
100
AcDbLine
 10
-4478.82811077506
 20
264.9997824591559
 30
0.0
 11
-4474.328110775061
 21
264.9997824591559
 31
0.0
  0
LWPOLYLINE
  5
270
330
1F
100
AcDbEntity
  8
0-B_寸法
  6
Continuous
 62
     7
370
     9
100
AcDbPolyline
 90
        4
 70
     1
 43
3.0
 10
-4472.828110775061
 20
264.9997824591559
 42
0.4142135623731
 10
-4474.328110775061
 20
266.4997824591559
 42
0.4142135623731
 10
-4475.828110775062
 20
264.9997824591559
 42
0.4142135623731
 10
-4474.328110775061
 20
263.4997824591558
 42
0.4142135623731
  0
LINE
  5
271
330
1F
100
AcDbEntity
  8
0-B_寸法
  6
Continuous
 62
   120
370
     5
100
AcDbLine
 10
-4474.328110775061
 20
264.9997824591559
 30
0.0
 11
-3879.57811077506
 21
264.9997824591559
 31
0.0
  0
LWPOLYLINE
  5
272
330
1F
100
AcDbEntity
  8
0-B_寸法
  6
Continuous
 62
     7
370
     9
100
AcDbPolyline
 90
        4
 70
     1
 43
3.0
 10
-3878.07811077506
 20
264.9997824591559
 42
0.4142135623731
 10
-3879.57811077506
 20
266.4997824591559
 42
0.4142135623731
 10
-3881.078110775061
 20
264.9997824591559
 42
0.4142135623731
 10
-3879.57811077506
 20
263.4997824591558
 42
0.4142135623731
  0
LINE
  5
273
330
1F
100
AcDbEntity
  8
0-B_寸法
  6
Continuous
 62
   120
370
     5
100
AcDbLine
 10
-3879.57811077506
 20
264.9997824591559
 30
0.0
 11
-3876.578110775061
 21
264.9997824591559
 31
0.0
  0
LWPOLYLINE
  5
274
330
1F
100
AcDbEntity
  8
0-B_寸法
  6
Continuous
 62
     7
370
     9
100
AcDbPolyline
 90
        4
 70
     1
 43
3.0
 10
-3875.07811077506
 20
264.9997824591559
 42
0.4142135623731
 10
-3876.578110775061
 20
266.4997824591559
 42
0.4142135623731
 10
-3878.078110775061
 20
264.9997824591559
 42
0.4142135623731
 10
-3876.578110775061
 20
263.4997824591558
 42
0.4142135623731
  0
LINE
  5
275
330
1F
100
AcDbEntity
  8
0-B_寸法
  6
Continuous
 62
   120
370
     5
100
AcDbLine
 10
-3876.578110775061
 20
264.9997824591559
 30
0.0
 11
-3873.578110775061
 21
264.9997824591559
 31
0.0
  0
LWPOLYLINE
  5
276
330
1F
100
AcDbEntity
  8
0-B_寸法
  6
Continuous
 62
     7
370
     9
100
AcDbPolyline
 90
        4
 70
     1
 43
3.0
 10
-3875.07811077506
 20
264.9997824591559
 42
0.4142135623731
 10
-3876.578110775061
 20
266.4997824591559
 42
0.4142135623731
 10
-3878.078110775061
 20
264.9997824591559
 42
0.4142135623731
 10
-3876.578110775061
 20
263.4997824591558
 42
0.4142135623731
  0
LWPOLYLINE
  5
277
330
1F
100
AcDbEntity
  8
0-B_寸法
  6
Continuous
 62
     7
370
     9
100
AcDbPolyline
 90
        4
 70
     1
 43
3.0
 10
-3872.07811077506
 20
264.9997824591559
 42
0.4142135623731
 10
-3873.578110775061
 20
266.4997824591559
 42
0.4142135623731
 10
-3875.078110775061
 20
264.9997824591559
 42
0.4142135623731
 10
-3873.578110775061
 20
263.4997824591558
 42
0.4142135623731
  0
LINE
  5
278
330
1F
100
AcDbEntity
  8
0-B_寸法
  6
Continuous
 62
   120
370
     5
100
AcDbLine
 10
-3873.578110775061
 20
264.9997824591559
 30
0.0
 11
-3278.828110775059
 21
264.9997824591559
 31
0.0
  0
LWPOLYLINE
  5
279
330
1F
100
AcDbEntity
  8
0-B_寸法
  6
Continuous
 62
     7
370
     9
100
AcDbPolyline
 90
        4
 70
     1
 43
3.0
 10
-3277.328110775059
 20
264.9997824591559
 42
0.4142135623731
 10
-3278.828110775059
 20
266.4997824591559
 42
0.4142135623731
 10
-3280.328110775059
 20
264.9997824591559
 42
0.4142135623731
 10
-3278.828110775059
 20
263.4997824591558
 42
0.4142135623731
  0
LINE
  5
27A
330
1F
100
AcDbEntity
  8
0-B_寸法
  6
Continuous
 62
   120
370
     5
100
AcDbLine
 10
-3278.828110775059
 20
264.9997824591559
 30
0.0
 11
-3274.32811077506
 21
264.9997824591559
 31
0.0
  0
LWPOLYLINE
  5
27B
330
1F
100
AcDbEntity
  8
0-B_寸法
  6
Continuous
 62
     7
370
     9
100
AcDbPolyline
 90
        4
 70
     1
 43
3.0
 10
-3272.82811077506
 20
264.9997824591559
 42
0.4142135623731
 10
-3274.32811077506
 20
266.4997824591559
 42
0.4142135623731
 10
-3275.82811077506
 20
264.9997824591559
 42
0.4142135623731
 10
-3274.32811077506
 20
263.4997824591558
 42
0.4142135623731
  0
LINE
  5
27C
330
1F
100
AcDbEntity
  8
0-B_寸法
  6
Continuous
 62
   120
370
     5
100
AcDbLine
 10
-3274.32811077506
 20
264.9997824591559
 30
0.0
 11
-2679.578110775059
 21
264.9997824591559
 31
0.0
  0
LWPOLYLINE
  5
27D
330
1F
100
AcDbEntity
  8
0-B_寸法
  6
Continuous
 62
     7
370
     9
100
AcDbPolyline
 90
        4
 70
     1
 43
3.0
 10
-2678.07811077506
 20
264.9997824591559
 42
0.4142135623731
 10
-2679.578110775059
 20
266.4997824591559
 42
0.4142135623731
 10
-2681.078110775059
 20
264.9997824591559
 42
0.4142135623731
 10
-2679.578110775059
 20
263.4997824591558
 42
0.4142135623731
  0
LINE
  5
27E
330
1F
100
AcDbEntity
  8
0-B_寸法
  6
Continuous
 62
   120
370
     5
100
AcDbLine
 10
-2679.578110775059
 20
264.9997824591559
 30
0.0
 11
-2676.57811077506
 21
264.9997824591559
 31
0.0
  0
LWPOLYLINE
  5
27F
330
1F
100
AcDbEntity
  8
0-B_寸法
  6
Continuous
 62
     7
370
     9
100
AcDbPolyline
 90
        4
 70
     1
 43
3.0
 10
-2675.07811077506
 20
264.9997824591559
 42
0.4142135623731
 10
-2676.57811077506
 20
266.4997824591559
 42
0.4142135623731
 10
-2678.07811077506
 20
264.9997824591559
 42
0.4142135623731
 10
-2676.57811077506
 20
263.4997824591558
 42
0.4142135623731
  0
LINE
  5
280
330
1F
100
AcDbEntity
  8
0-B_寸法
  6
Continuous
 62
   120
370
     5
100
AcDbLine
 10
-2676.57811077506
 20
264.9997824591559
 30
0.0
 11
-2673.57811077506
 21
264.9997824591559
 31
0.0
  0
LWPOLYLINE
  5
281
330
1F
100
AcDbEntity
  8
0-B_寸法
  6
Continuous
 62
     7
370
     9
100
AcDbPolyline
 90
        4
 70
     1
 43
3.0
 10
-2675.07811077506
 20
264.9997824591559
 42
0.4142135623731
 10
-2676.57811077506
 20
266.4997824591559
 42
0.4142135623731
 10
-2678.07811077506
 20
264.9997824591559
 42
0.4142135623731
 10
-2676.57811077506
 20
263.4997824591558
 42
0.4142135623731
  0
LWPOLYLINE
  5
282
330
1F
100
AcDbEntity
  8
0-B_寸法
  6
Continuous
 62
     7
370
     9
100
AcDbPolyline
 90
        4
 70
     1
 43
3.0
 10
-2672.07811077506
 20
264.9997824591559
 42
0.4142135623731
 10
-2673.57811077506
 20
266.4997824591559
 42
0.4142135623731
 10
-2675.07811077506
 20
264.9997824591559
 42
0.4142135623731
 10
-2673.57811077506
 20
263.4997824591558
 42
0.4142135623731
  0
LINE
  5
283
330
1F
100
AcDbEntity
  8
0-B_寸法
  6
Continuous
 62
   120
370
     5
100
AcDbLine
 10
-2673.57811077506
 20
264.9997824591559
 30
0.0
 11
-2078.828110775059
 21
264.9997824591559
 31
0.0
  0
LWPOLYLINE
  5
284
330
1F
100
AcDbEntity
  8
0-B_寸法
  6
Continuous
 62
     7
370
     9
100
AcDbPolyline
 90
        4
 70
     1
 43
3.0
 10
-2077.328110775059
 20
264.9997824591559
 42
0.4142135623731
 10
-2078.828110775059
 20
266.4997824591559
 42
0.4142135623731
 10
-2080.328110775059
 20
264.9997824591559
 42
0.4142135623731
 10
-2078.828110775059
 20
263.4997824591558
 42
0.4142135623731
  0
LINE
  5
285
330
1F
100
AcDbEntity
  8
0-B_寸法
  6
Continuous
 62
   120
370
     5
100
AcDbLine
 10
-2078.828110775059
 20
264.9997824591559
 30
0.0
 11
-2074.328110775059
 21
264.9997824591559
 31
0.0
  0
LWPOLYLINE
  5
286
330
1F
100
AcDbEntity
  8
0-B_寸法
  6
Continuous
 62
     7
370
     9
100
AcDbPolyline
 90
        4
 70
     1
 43
3.0
 10
-2072.828110775059
 20
264.9997824591559
 42
0.4142135623731
 10
-2074.328110775059
 20
266.4997824591559
 42
0.4142135623731
 10
-2075.828110775059
 20
264.9997824591559
 42
0.4142135623731
 10
-2074.328110775059
 20
263.4997824591558
 42
0.4142135623731
  0
LINE
  5
287
330
1F
100
AcDbEntity
  8
0-B_寸法
  6
Continuous
 62
   120
370
     5
100
AcDbLine
 10
-2074.328110775059
 20
264.9997824591559
 30
0.0
 11
-1479.578110775059
 21
264.9997824591559
 31
0.0
  0
LWPOLYLINE
  5
288
330
1F
100
AcDbEntity
  8
0-B_寸法
  6
Continuous
 62
     7
370
     9
100
AcDbPolyline
 90
        4
 70
     1
 43
3.0
 10
-1478.078110775059
 20
264.9997824591559
 42
0.4142135623731
 10
-1479.578110775059
 20
266.4997824591559
 42
0.4142135623731
 10
-1481.078110775059
 20
264.9997824591559
 42
0.4142135623731
 10
-1479.578110775059
 20
263.4997824591558
 42
0.4142135623731
  0
LINE
  5
289
330
1F
100
AcDbEntity
  8
0-B_寸法
  6
Continuous
 62
   120
370
     5
100
AcDbLine
 10
-1479.578110775059
 20
264.9997824591559
 30
0.0
 11
-1476.578110775059
 21
264.9997824591559
 31
0.0
  0
LWPOLYLINE
  5
28A
330
1F
100
AcDbEntity
  8
0-B_寸法
  6
Continuous
 62
     7
370
     9
100
AcDbPolyline
 90
        4
 70
     1
 43
3.0
 10
-1475.078110775059
 20
264.9997824591559
 42
0.4142135623731
 10
-1476.578110775059
 20
266.4997824591559
 42
0.4142135623731
 10
-1478.078110775059
 20
264.9997824591559
 42
0.4142135623731
 10
-1476.578110775059
 20
263.4997824591558
 42
0.4142135623731
  0
TEXT
  5
28B
330
1F
100
AcDbEntity
  8
0-B_寸法
  6
Continuous
 62
     7
370
   211
100
AcDbText
 10
-5008.703110775061
 20
292.6897824591559
 30
0.0
 40
68.58
  1
ＤＷ＝396.5
 41
0.9393939393939394
  7
ＭＳ ゴシック
100
AcDbText
  0
TEXT
  5
28C
330
1F
100
AcDbEntity
  8
0-B_寸法
  6
Continuous
 62
     7
370
   211
100
AcDbText
 10
-4409.45311077506
 20
292.6897824591559
 30
0.0
 40
68.58
  1
ＤＷ＝396.5
 41
0.9393939393939394
  7
ＭＳ ゴシック
100
AcDbText
  0
TEXT
  5
28D
330
1F
100
AcDbEntity
  8
0-B_寸法
  6
Continuous
 62
     7
370
   211
100
AcDbText
 10
-3808.70311077506
 20
292.6897824591559
 30
0.0
 40
68.58
  1
ＤＷ＝396.5
 41
0.9393939393939394
  7
ＭＳ ゴシック
100
AcDbText
  0
TEXT
  5
28E
330
1F
100
AcDbEntity
  8
0-B_寸法
  6
Continuous
 62
     7
370
   211
100
AcDbText
 10
-3209.453110775059
 20
292.6897824591559
 30
0.0
 40
68.58
  1
ＤＷ＝396.5
 41
0.9393939393939394
  7
ＭＳ ゴシック
100
AcDbText
  0
TEXT
  5
28F
330
1F
100
AcDbEntity
  8
0-B_寸法
  6
Continuous
 62
     7
370
   211
100
AcDbText
 10
-2608.703110775059
 20
292.6897824591559
 30
0.0
 40
68.58
  1
ＤＷ＝396.5
 41
0.9393939393939394
  7
ＭＳ ゴシック
100
AcDbText
  0
TEXT
  5
290
330
1F
100
AcDbEntity
  8
0-B_寸法
  6
Continuous
 62
     7
370
   211
100
AcDbText
 10
-2009.453110775059
 20
292.6897824591559
 30
0.0
 40
68.58
  1
ＤＷ＝396.5
 41
0.9393939393939394
  7
ＭＳ ゴシック
100
AcDbText
  0
TEXT
  5
291
330
1F
100
AcDbEntity
  8
0-B_寸法
  6
Continuous
 62
     7
370
   211
100
AcDbText
 10
-3927.699778548442
 20
292.6897824591559
 30
0.0
 40
68.58
  1
2
  7
ＭＳ ゴシック
100
AcDbText
  0
TEXT
  5
292
330
1F
100
AcDbEntity
  8
0-B_寸法
  6
Continuous
 62
     7
370
   211
100
AcDbText
 10
-3867.78092005387
 20
292.6897824591559
 30
0.0
 40
68.58
  1
2
  7
ＭＳ ゴシック
100
AcDbText
  0
TEXT
  5
293
330
1F
100
AcDbEntity
  8
0-B_寸法
  6
Continuous
 62
     7
370
   211
100
AcDbText
 10
-2727.699778548441
 20
292.6897824591559
 30
0.0
 40
68.58
  1
2
  7
ＭＳ ゴシック
100
AcDbText
  0
TEXT
  5
294
330
1F
100
AcDbEntity
  8
0-B_寸法
  6
Continuous
 62
     7
370
   211
100
AcDbText
 10
-2667.780920053869
 20
292.6897824591559
 30
0.0
 40
68.58
  1
2
  7
ＭＳ ゴシック
100
AcDbText
  0
TEXT
  5
295
330
1F
100
AcDbEntity
  8
0-B_寸法
  6
Continuous
 62
     7
370
   211
100
AcDbText
 10
-5130.140738774842
 20
292.6897824591559
 30
0.0
 40
68.58
  1
2
  7
ＭＳ ゴシック
100
AcDbText
  0
TEXT
  5
296
330
1F
100
AcDbEntity
  8
0-B_寸法
  6
Continuous
 62
     7
370
   211
100
AcDbText
 10
-4465.844867708215
 20
292.6897824591559
 30
0.0
 40
68.58
  1
3
  7
ＭＳ ゴシック
100
AcDbText
  0
TEXT
  5
297
330
1F
100
AcDbEntity
  8
0-B_寸法
  6
Continuous
 62
     7
370
   211
100
AcDbText
 10
-3265.844867708215
 20
292.6897824591559
 30
0.0
 40
68.58
  1
3
  7
ＭＳ ゴシック
100
AcDbText
  0
TEXT
  5
298
330
1F
100
AcDbEntity
  8
0-B_寸法
  6
Continuous
 62
     7
370
   211
100
AcDbText
 10
-2065.844867708214
 20
292.6897824591559
 30
0.0
 40
68.58
  1
3
  7
ＭＳ ゴシック
100
AcDbText
  0
TEXT
  5
299
330
1F
100
AcDbEntity
  8
0-B_寸法
  6
Continuous
 62
     7
370
   211
100
AcDbText
 10
-1465.707696092997
 20
292.6897824591559
 30
0.0
 40
68.58
  1
2
  7
ＭＳ ゴシック
100
AcDbText
  0
LINE
  5
29A
330
1F
100
AcDbEntity
  8
0-B_寸法
  6
Continuous
 62
   120
370
     5
100
AcDbLine
 10
-5076.578110775062
 20
-1305.500217540845
 30
0.0
 11
-5075.828110775061
 21
-1305.500217540845
 31
0.0
  0
LWPOLYLINE
  5
29B
330
1F
100
AcDbEntity
  8
0-B_寸法
  6
Continuous
 62
     7
370
     9
100
AcDbPolyline
 90
        4
 70
     1
 43
3.0
 10
-5075.078110775061
 20
-1305.500217540845
 42
0.4142135623731
 10
-5076.578110775062
 20
-1304.000217540845
 42
0.4142135623731
 10
-5078.078110775062
 20
-1305.500217540845
 42
0.4142135623731
 10
-5076.578110775062
 20
-1307.000217540844
 42
0.4142135623731
  0
LWPOLYLINE
  5
29C
330
1F
100
AcDbEntity
  8
0-B_寸法
  6
Continuous
 62
     7
370
     9
100
AcDbPolyline
 90
        4
 70
     1
 43
3.0
 10
-5074.32811077506
 20
-1305.500217540845
 42
0.4142135623731
 10
-5075.828110775061
 20
-1304.000217540845
 42
0.4142135623731
 10
-5077.328110775061
 20
-1305.500217540845
 42
0.4142135623731
 10
-5075.828110775061
 20
-1307.000217540844
 42
0.4142135623731
  0
LINE
  5
29D
330
1F
100
AcDbEntity
  8
0-B_寸法
  6
Continuous
 62
   120
370
     5
100
AcDbLine
 10
-5076.578110775062
 20
-1305.500217540845
 30
0.0
 11
-5076.578110775062
 21
-1155.500217540845
 31
0.0
  0
LINE
  5
29E
330
1F
100
AcDbEntity
  8
0-B_寸法
  6
Continuous
 62
   120
370
     5
100
AcDbLine
 10
-5075.828110775061
 20
-1305.500217540845
 30
0.0
 11
-5075.828110775061
 21
-1155.500217540845
 31
0.0
  0
LINE
  5
29F
330
1F
100
AcDbEntity
  8
0-B_寸法
  6
Continuous
 62
   120
370
     5
100
AcDbLine
 10
-5075.828110775061
 20
-1305.500217540845
 30
0.0
 11
-1477.328110775063
 21
-1305.500217540845
 31
0.0
  0
LWPOLYLINE
  5
2A0
330
1F
100
AcDbEntity
  8
0-B_寸法
  6
Continuous
 62
     7
370
     9
100
AcDbPolyline
 90
        4
 70
     1
 43
3.0
 10
-1475.828110775063
 20
-1305.500217540845
 42
0.4142135623731
 10
-1477.328110775063
 20
-1304.000217540845
 42
0.4142135623731
 10
-1478.828110775062
 20
-1305.500217540845
 42
0.4142135623731
 10
-1477.328110775063
 20
-1307.000217540844
 42
0.4142135623731
  0
LINE
  5
2A1
330
1F
100
AcDbEntity
  8
0-B_寸法
  6
Continuous
 62
   120
370
     5
100
AcDbLine
 10
-1477.328110775063
 20
-1305.500217540845
 30
0.0
 11
-1477.328110775063
 21
-1155.500217540845
 31
0.0
  0
LINE
  5
2A2
330
1F
100
AcDbEntity
  8
0-B_寸法
  6
Continuous
 62
   120
370
     5
100
AcDbLine
 10
-1477.328110775063
 20
-1305.500217540845
 30
0.0
 11
-1476.578110775059
 21
-1305.500217540845
 31
0.0
  0
LWPOLYLINE
  5
2A3
330
1F
100
AcDbEntity
  8
0-B_寸法
  6
Continuous
 62
     7
370
     9
100
AcDbPolyline
 90
        4
 70
     1
 43
3.0
 10
-1475.078110775059
 20
-1305.500217540845
 42
0.4142135623731
 10
-1476.578110775059
 20
-1304.000217540845
 42
0.4142135623731
 10
-1478.078110775059
 20
-1305.500217540845
 42
0.4142135623731
 10
-1476.578110775059
 20
-1307.000217540844
 42
0.4142135623731
  0
LINE
  5
2A4
330
1F
100
AcDbEntity
  8
0-B_寸法
  6
Continuous
 62
   120
370
     5
100
AcDbLine
 10
-1476.578110775059
 20
-1305.500217540845
 30
0.0
 11
-1476.578110775059
 21
-1155.500217540845
 31
0.0
  0
TEXT
  5
2A5
330
1F
100
AcDbEntity
  8
0-B_寸法
  6
Continuous
 62
     7
370
   211
100
AcDbText
 10
-1642.569841971945
 20
-1277.810217540845
 30
0.0
 40
68.58
  1
0.5
 41
1.111111111111111
  7
ＭＳ ゴシック
100
AcDbText
  0
TEXT
  5
2A6
330
1F
100
AcDbEntity
  8
0-B_寸法
  6
Continuous
 62
     7
370
   211
100
AcDbText
 10
-5055.345423508566
 20
-1277.810217540845
 30
0.0
 40
68.58
  1
0.5
 41
1.111111111111111
  7
ＭＳ ゴシック
100
AcDbText
  0
LINE
  5
2A7
330
1F
100
AcDbEntity
  8
0-B_寸法
  6
Continuous
 62
   120
370
     5
100
AcDbLine
 10
-5301.578110775062
 20
-1010.000217540845
 30
0.0
 11
-5301.578110775062
 21
-939.5002175408443
 31
0.0
  0
LWPOLYLINE
  5
2A8
330
1F
100
AcDbEntity
  8
0-B_寸法
  6
Continuous
 62
     7
370
     9
100
AcDbPolyline
 90
        4
 70
     1
 43
3.0
 10
-5300.078110775061
 20
-1010.000217540845
 42
0.4142135623731
 10
-5301.578110775062
 20
-1008.500217540845
 42
0.4142135623731
 10
-5303.078110775062
 20
-1010.000217540845
 42
0.4142135623731
 10
-5301.578110775062
 20
-1011.500217540844
 42
0.4142135623731
  0
LWPOLYLINE
  5
2A9
330
1F
100
AcDbEntity
  8
0-B_寸法
  6
Continuous
 62
     7
370
     9
100
AcDbPolyline
 90
        4
 70
     1
 43
3.0
 10
-5300.078110775061
 20
-939.5002175408443
 42
0.4142135623731
 10
-5301.578110775062
 20
-938.0002175408443
 42
0.4142135623731
 10
-5303.078110775062
 20
-939.5002175408443
 42
0.4142135623731
 10
-5301.578110775062
 20
-941.0002175408443
 42
0.4142135623731
  0
LINE
  5
2AA
330
1F
100
AcDbEntity
  8
0-B_寸法
  6
Continuous
 62
   120
370
     5
100
AcDbLine
 10
-5301.578110775062
 20
-1010.000217540845
 30
0.0
 11
-5151.578110775062
 21
-1010.000217540845
 31
0.0
  0
LINE
  5
2AB
330
1F
100
AcDbEntity
  8
0-B_寸法
  6
Continuous
 62
   120
370
     5
100
AcDbLine
 10
-5301.578110775062
 20
-939.5002175408443
 30
0.0
 11
-5151.578110775062
 21
-939.5002175408443
 31
0.0
  0
TEXT
  5
2AC
330
1F
100
AcDbEntity
  8
0-B_寸法
  6
Continuous
 62
     7
370
   211
100
AcDbText
 10
-5329.268110775061
 20
-993.7626115124551
 30
0.0
 40
68.58
  1
47
 50
90.0
 41
1.083333333333333
  7
ＭＳ ゴシック
100
AcDbText
  0
LINE
  5
2AD
330
1F
100
AcDbEntity
  8
0-B_寸法
  6
Continuous
 62
   120
370
     5
100
AcDbLine
 10
-5451.578110775062
 20
-1010.000217540845
 30
0.0
 11
-5451.578110775062
 21
39.99978245915628
 31
0.0
  0
LWPOLYLINE
  5
2AE
330
1F
100
AcDbEntity
  8
0-B_寸法
  6
Continuous
 62
     7
370
     9
100
AcDbPolyline
 90
        4
 70
     1
 43
3.0
 10
-5450.078110775061
 20
-1010.000217540845
 42
0.4142135623731
 10
-5451.578110775062
 20
-1008.500217540845
 42
0.4142135623731
 10
-5453.078110775062
 20
-1010.000217540845
 42
0.4142135623731
 10
-5451.578110775062
 20
-1011.500217540844
 42
0.4142135623731
  0
LWPOLYLINE
  5
2AF
330
1F
100
AcDbEntity
  8
0-B_寸法
  6
Continuous
 62
     7
370
     9
100
AcDbPolyline
 90
        4
 70
     1
 43
3.0
 10
-5450.078110775061
 20
39.99978245915628
 42
0.4142135623731
 10
-5451.578110775062
 20
41.49978245915628
 42
0.4142135623731
 10
-5453.078110775062
 20
39.99978245915628
 42
0.4142135623731
 10
-5451.578110775062
 20
38.49978245915628
 42
0.4142135623731
  0
LINE
  5
2B0
330
1F
100
AcDbEntity
  8
0-B_寸法
  6
Continuous
 62
   120
370
     5
100
AcDbLine
 10
-5451.578110775062
 20
-1010.000217540845
 30
0.0
 11
-5151.578110775062
 21
-1010.000217540845
 31
0.0
  0
LINE
  5
2B1
330
1F
100
AcDbEntity
  8
0-B_寸法
  6
Continuous
 62
   120
370
     5
100
AcDbLine
 10
-5451.578110775062
 20
39.99978245915628
 30
0.0
 11
-5151.578110775062
 21
39.99978245915626
 31
0.0
  0
TEXT
  5
2B2
330
1F
100
AcDbEntity
  8
0-B_寸法
  6
Continuous
 62
     7
370
   211
100
AcDbText
 10
-5479.268110775061
 20
-560.0002175408441
 30
0.0
 40
68.58
  1
700
 50
90.0
 41
1.111111111111111
  7
ＭＳ ゴシック
100
AcDbText
  0
LINE
  5
2B3
330
1F
100
AcDbEntity
  8
0-B_寸法
  6
Continuous
 62
   120
370
     5
100
AcDbLine
 10
-5301.578110775062
 20
39.99978245915629
 30
0.0
 11
-5301.578110775062
 21
-5.000217540843708
 31
0.0
  0
LWPOLYLINE
  5
2B4
330
1F
100
AcDbEntity
  8
0-B_寸法
  6
Continuous
 62
     7
370
     9
100
AcDbPolyline
 90
        4
 70
     1
 43
3.0
 10
-5300.078110775061
 20
39.99978245915629
 42
0.4142135623731
 10
-5301.578110775062
 20
41.49978245915629
 42
0.4142135623731
 10
-5303.078110775062
 20
39.99978245915629
 42
0.4142135623731
 10
-5301.578110775062
 20
38.49978245915629
 42
0.4142135623731
  0
LWPOLYLINE
  5
2B5
330
1F
100
AcDbEntity
  8
0-B_寸法
  6
Continuous
 62
     7
370
     9
100
AcDbPolyline
 90
        4
 70
     1
 43
3.0
 10
-5300.078110775061
 20
-5.000217540843708
 42
0.4142135623731
 10
-5301.578110775062
 20
-3.500217540843708
 42
0.4142135623731
 10
-5303.078110775062
 20
-5.000217540843708
 42
0.4142135623731
 10
-5301.578110775062
 20
-6.500217540843708
 42
0.4142135623731
  0
LINE
  5
2B6
330
1F
100
AcDbEntity
  8
0-B_寸法
  6
Continuous
 62
   120
370
     5
100
AcDbLine
 10
-5301.578110775062
 20
39.99978245915629
 30
0.0
 11
-5151.578110775062
 21
39.99978245915629
 31
0.0
  0
LINE
  5
2B7
330
1F
100
AcDbEntity
  8
0-B_寸法
  6
Continuous
 62
   120
370
     5
100
AcDbLine
 10
-5301.578110775062
 20
-5.000217540843708
 30
0.0
 11
-5151.578110775062
 21
-5.000217540843717
 31
0.0
  0
TEXT
  5
2B8
330
1F
100
AcDbEntity
  8
0-B_寸法
  6
Continuous
 62
     7
370
   211
100
AcDbText
 10
-5329.268110775061
 20
-66.26909899076516
 30
0.0
 40
68.58
  1
30
 50
90.0
 41
1.083333333333333
  7
ＭＳ ゴシック
100
AcDbText
  0
TEXT
  5
2B9
330
1F
100
AcDbEntity
  8
0-B_寸法
  6
Continuous
 62
     7
370
   211
100
AcDbText
 10
-3561.57811077506
 20
-1277.810217540845
 30
0.0
 40
68.58
  1
台輪＝2,399
 41
1.151515151515152
  7
ＭＳ ゴシック
100
AcDbText
  0
LINE
  5
2BA
330
1F
100
AcDbEntity
  8
0-B_寸法
  6
Continuous
 62
   120
370
     5
100
AcDbLine
 10
-1476.578110775059
 20
-1455.500217540845
 30
0.0
 11
-5076.578110775062
 21
-1455.500217540845
 31
0.0
  0
LWPOLYLINE
  5
2BB
330
1F
100
AcDbEntity
  8
0-B_寸法
  6
Continuous
 62
     7
370
     9
100
AcDbPolyline
 90
        4
 70
     1
 43
3.0
 10
-1475.078110775059
 20
-1455.500217540845
 42
0.4142135623731
 10
-1476.578110775059
 20
-1454.000217540845
 42
0.4142135623731
 10
-1478.078110775059
 20
-1455.500217540845
 42
0.4142135623731
 10
-1476.578110775059
 20
-1457.000217540844
 42
0.4142135623731
  0
LWPOLYLINE
  5
2BC
330
1F
100
AcDbEntity
  8
0-B_寸法
  6
Continuous
 62
     7
370
     9
100
AcDbPolyline
 90
        4
 70
     1
 43
3.0
 10
-5075.078110775061
 20
-1455.500217540845
 42
0.4142135623731
 10
-5076.578110775062
 20
-1454.000217540845
 42
0.4142135623731
 10
-5078.078110775062
 20
-1455.500217540845
 42
0.4142135623731
 10
-5076.578110775062
 20
-1457.000217540844
 42
0.4142135623731
  0
LINE
  5
2BD
330
1F
100
AcDbEntity
  8
0-B_寸法
  6
Continuous
 62
   120
370
     5
100
AcDbLine
 10
-1476.578110775059
 20
-1455.500217540845
 30
0.0
 11
-1476.578110775059
 21
-1155.500217540845
 31
0.0
  0
LINE
  5
2BE
330
1F
100
AcDbEntity
  8
0-B_寸法
  6
Continuous
 62
   120
370
     5
100
AcDbLine
 10
-5076.578110775062
 20
-1455.500217540845
 30
0.0
 11
-5076.578110775062
 21
-1155.500217540845
 31
0.0
  0
TEXT
  5
2BF
330
1F
100
AcDbEntity
  8
0-B_寸法
  6
Continuous
 62
     7
370
   211
100
AcDbText
 10
-3404.07811077506
 20
-1427.810217540845
 30
0.0
 40
68.58
  1
2,400
 41
1.133333333333333
  7
ＭＳ ゴシック
100
AcDbText
  0
LWPOLYLINE
  5
2C0
330
1F
100
AcDbEntity
  8
0-B_寸法
  6
Continuous
 62
     7
370
     9
100
AcDbPolyline
 90
        4
 70
     1
 43
3.0
 10
5126.82786333524
 20
-1305.500217540845
 42
0.4142135623731
 10
5125.32786333524
 20
-1304.000217540845
 42
0.4142135623731
 10
5123.827863335239
 20
-1305.500217540845
 42
0.4142135623731
 10
5125.32786333524
 20
-1307.000217540844
 42
0.4142135623731
  0
LINE
  5
2C1
330
1F
100
AcDbEntity
  8
0-B_寸法
  6
Continuous
 62
   120
370
     5
100
AcDbLine
 10
5125.32786333524
 20
-1305.500217540845
 30
0.0
 11
5125.32786333524
 21
-1155.500217540845
 31
0.0
  0
LINE
  5
2C2
330
1F
100
AcDbEntity
  8
0-A_文字
  6
Continuous
 62
     7
370
     9
100
AcDbLine
 10
1029.370558404611
 20
-1755.500217540844
 30
0.0
 11
1029.370558404611
 21
-1980.500217540844
 31
0.0
  0
LINE
  5
2C3
330
1F
100
AcDbEntity
  8
0-A_文字
  6
Continuous
 62
     7
370
     9
100
AcDbLine
 10
2229.370558404611
 20
-1755.500217540844
 30
0.0
 11
1029.370558404611
 21
-1755.500217540844
 31
0.0
  0
LINE
  5
2C4
330
1F
100
AcDbEntity
  8
0-A_文字
  6
Continuous
 62
     7
370
     9
100
AcDbLine
 10
2229.370558404611
 20
-1980.500217540844
 30
0.0
 11
2229.370558404611
 21
-1755.500217540844
 31
0.0
  0
LINE
  5
2C5
330
1F
100
AcDbEntity
  8
0-A_文字
  6
Continuous
 62
     7
370
     9
100
AcDbLine
 10
1029.370558404611
 20
-1980.500217540844
 30
0.0
 11
2229.370558404611
 21
-1980.500217540844
 31
0.0
  0
TEXT
  5
2C6
330
1F
100
AcDbEntity
  8
0-A_文字
  6
Continuous
 62
     7
370
     9
100
AcDbText
 10
1164.370558404611
 20
-1911.080217540844
 30
0.0
 40
91.44
  1
キャビネット図
 41
1.107142857142857
  7
ＭＳ ゴシック
100
AcDbText
  0
LINE
  5
2C7
330
1F
100
AcDbEntity
  8
0-A_文字
  6
Continuous
 62
     7
370
     9
100
AcDbLine
 10
4266.57786333524
 20
-1755.500217540844
 30
0.0
 11
4266.57786333524
 21
-1980.500217540844
 31
0.0
  0
LINE
  5
2C8
330
1F
100
AcDbEntity
  8
0-A_文字
  6
Continuous
 62
     7
370
     9
100
AcDbLine
 10
5466.57786333524
 20
-1755.500217540844
 30
0.0
 11
4266.57786333524
 21
-1755.500217540844
 31
0.0
  0
LINE
  5
2C9
330
1F
100
AcDbEntity
  8
0-A_文字
  6
Continuous
 62
     7
370
     9
100
AcDbLine
 10
5466.57786333524
 20
-1980.500217540844
 30
0.0
 11
5466.57786333524
 21
-1755.500217540844
 31
0.0
  0
LINE
  5
2CA
330
1F
100
AcDbEntity
  8
0-A_文字
  6
Continuous
 62
     7
370
     9
100
AcDbLine
 10
4266.57786333524
 20
-1980.500217540844
 30
0.0
 11
5466.57786333524
 21
-1980.500217540844
 31
0.0
  0
TEXT
  5
2CB
330
1F
100
AcDbEntity
  8
0-A_文字
  6
Continuous
 62
     7
370
     9
100
AcDbText
 10
4536.57786333524
 20
-1911.080217540844
 30
0.0
 40
91.44
  1
断面図・・
 41
1.1
  7
ＭＳ ゴシック
100
AcDbText
  0
LINE
  5
2CC
330
1F
100
AcDbEntity
  8
0-1_本体
  6
Continuous
 62
     7
370
     9
100
AcDbLine
 10
4609.32786333524
 20
-1010.000217540844
 30
0.0
 11
5125.32786333524
 21
-1010.000217540844
 31
0.0
  0
LINE
  5
2CD
330
1F
100
AcDbEntity
  8
0-1_本体
  6
Continuous
 62
     7
370
     9
100
AcDbLine
 10
4609.32786333524
 20
-939.5002175408443
 30
0.0
 11
4609.32786333524
 21
-1010.000217540844
 31
0.0
  0
LINE
  5
2CE
330
1F
100
AcDbEntity
  8
0-1_本体
  6
Continuous
 62
     7
370
     9
100
AcDbLine
 10
5125.32786333524
 20
-939.5002175408443
 30
0.0
 11
4609.32786333524
 21
-939.5002175408443
 31
0.0
  0
LINE
  5
2CF
330
1F
100
AcDbEntity
  8
0-B_寸法
  6
Continuous
 62
   120
370
     5
100
AcDbLine
 10
5125.32786333524
 20
-1305.500217540845
 30
0.0
 11
4609.32786333524
 21
-1305.500217540845
 31
0.0
  0
LWPOLYLINE
  5
2D0
330
1F
100
AcDbEntity
  8
0-B_寸法
  6
Continuous
 62
     7
370
     9
100
AcDbPolyline
 90
        4
 70
     1
 43
3.0
 10
4610.82786333524
 20
-1305.500217540845
 42
0.4142135623731
 10
4609.32786333524
 20
-1304.000217540845
 42
0.4142135623731
 10
4607.82786333524
 20
-1305.500217540845
 42
0.4142135623731
 10
4609.32786333524
 20
-1307.000217540844
 42
0.4142135623731
  0
LINE
  5
2D1
330
1F
100
AcDbEntity
  8
0-B_寸法
  6
Continuous
 62
   120
370
     5
100
AcDbLine
 10
4609.32786333524
 20
-1305.500217540845
 30
0.0
 11
4609.32786333524
 21
-1155.500217540845
 31
0.0
  0
TEXT
  5
2D2
330
1F
100
AcDbEntity
  8
0-B_寸法
  6
Continuous
 62
     7
370
   211
100
AcDbText
 10
4634.07786333524
 20
-1277.810217540845
 30
0.0
 40
68.58
  1
台輪＝344
 41
1.148148148148148
  7
ＭＳ ゴシック
100
AcDbText
  0
ENDSEC
  0
SECTION
  2
OBJECTS
  0
DICTIONARY
  5
C
330
0
100
AcDbDictionary
281
     1
  3
ACAD_GROUP
350
D
  3
ACAD_LAYOUT
350
1A
  3
ACAD_MATERIAL
350
3B
  3
ACAD_MLEADERSTYLE
350
2D4
  3
ACAD_MLINESTYLE
350
17
  3
ACAD_PLOTSETTINGS
350
19
  3
ACAD_PLOTSTYLENAME
350
E
  3
ACAD_TABLESTYLE
350
2D3
  3
ACAD_VISUALSTYLE
350
2A
  0
DICTIONARY
  5
D
102
{ACAD_REACTORS
330
C
102
}
330
C
100
AcDbDictionary
281
     1
  0
DICTIONARY
  5
1A
102
{ACAD_REACTORS
330
C
102
}
330
C
100
AcDbDictionary
281
     1
  3
Layout1
350
1E
  3
Layout2
350
26
  3
Model
350
22
  0
DICTIONARY
  5
3B
102
{ACAD_REACTORS
330
C
102
}
330
C
100
AcDbDictionary
281
     1
  3
ByBlock
350
3D
  3
ByLayer
350
3C
  3
Global
350
3E
  0
DICTIONARY
  5
2D4
102
{ACAD_REACTORS
330
C
102
}
330
C
100
AcDbDictionary
281
     1
  0
DICTIONARY
  5
17
102
{ACAD_REACTORS
330
C
102
}
330
C
100
AcDbDictionary
281
     1
  3
Standard
350
18
  0
DICTIONARY
  5
19
102
{ACAD_REACTORS
330
C
102
}
330
C
100
AcDbDictionary
281
     1
  0
ACDBDICTIONARYWDFLT
  5
E
102
{ACAD_REACTORS
330
C
102
}
330
C
100
AcDbDictionary
281
     1
  3
Normal
350
F
100
AcDbDictionaryWithDefault
340
F
  0
DICTIONARY
  5
2D3
102
{ACAD_REACTORS
330
C
102
}
330
C
100
AcDbDictionary
281
     1
  0
DICTIONARY
  5
2A
102
{ACAD_REACTORS
330
C
102
}
330
C
100
AcDbDictionary
281
     1
  3
2dWireframe
350
2F
  3
3D Hidden
350
31
  3
3dWireframe
350
30
  3
Basic
350
32
  3
Brighten
350
36
  3
ColorChange
350
3A
  3
Conceptual
350
34
  3
Dim
350
35
  3
Facepattern
350
39
  3
Flat
350
2B
  3
FlatWithEdges
350
2C
  3
Gouraud
350
2D
  3
GouraudWithEdges
350
2E
  3
Linepattern
350
38
  3
Realistic
350
33
  3
Thicken
350
37
  0
LAYOUT
  5
1E
102
{ACAD_REACTORS
330
1A
102
}
330
1A
100
AcDbPlotSettings
  1

  2
none_device
  4

  6

 40
0.0
 41
0.0
 42
0.0
 43
0.0
 44
0.0
 45
0.0
 46
0.0
 47
0.0
 48
0.0
 49
0.0
140
0.0
141
0.0
142
1.0
143
1.0
 70
   688
 72
     0
 73
     0
 74
     5
  7

 75
    16
 76
     0
 77
     5
 78
   300
147
1.0
148
0.0
149
0.0
100
AcDbLayout
  1
Layout1
 70
     1
 71
     1
 10
0.0
 20
0.0
 11
420.0
 21
297.0
 12
0.0
 22
0.0
 32
0.0
 14
1.000000000000000E+20
 24
1.000000000000000E+20
 34
1.000000000000000E+20
 15
-1.000000000000000E+20
 25
-1.000000000000000E+20
 35
-1.000000000000000E+20
146
0.0
 13
0.0
 23
0.0
 33
0.0
 16
1.0
 26
0.0
 36
0.0
 17
0.0
 27
1.0
 37
0.0
 76
     0
330
1B
  0
LAYOUT
  5
26
102
{ACAD_REACTORS
330
1A
102
}
330
1A
100
AcDbPlotSettings
  1

  2
none_device
  4

  6

 40
0.0
 41
0.0
 42
0.0
 43
0.0
 44
0.0
 45
0.0
 46
0.0
 47
0.0
 48
0.0
 49
0.0
140
0.0
141
0.0
142
1.0
143
1.0
 70
   688
 72
     0
 73
     0
 74
     5
  7

 75
    16
 76
     0
 77
     5
 78
   300
147
1.0
148
0.0
149
0.0
100
AcDbLayout
  1
Layout2
 70
     1
 71
     2
 10
0.0
 20
0.0
 11
0.0
 21
0.0
 12
0.0
 22
0.0
 32
0.0
 14
0.0
 24
0.0
 34
0.0
 15
0.0
 25
0.0
 35
0.0
146
0.0
 13
0.0
 23
0.0
 33
0.0
 16
1.0
 26
0.0
 36
0.0
 17
0.0
 27
1.0
 37
0.0
 76
     0
330
23
  0
LAYOUT
  5
22
102
{ACAD_REACTORS
330
1A
102
}
330
1A
100
AcDbPlotSettings
  1

  2
none_device
  4

  6

 40
0.0
 41
0.0
 42
0.0
 43
0.0
 44
0.0
 45
0.0
 46
0.0
 47
0.0
 48
0.0
 49
0.0
140
0.0
141
0.0
142
1.0
143
1.0
 70
  1712
 72
     0
 73
     0
 74
     0
  7

 75
     0
 76
     0
 77
     5
 78
   300
147
1.0
148
0.0
149
0.0
100
AcDbLayout
  1
Model
 70
     1
 71
     0
 10
-6300.0
 20
-4455.0
 11
6300.0
 21
4455.0
 12
0.0
 22
0.0
 32
0.0
 14
-6300.0
 24
-4455.0
 34
0.0
 15
6300.0
 25
4455.0
 35
0.0
146
0.0
 13
0.0
 23
0.0
 33
0.0
 16
1.0
 26
0.0
 36
0.0
 17
0.0
 27
1.0
 37
0.0
 76
     0
330
1F
331
29
  0
MATERIAL
  5
3D
102
{ACAD_REACTORS
330
3B
102
}
330
3B
100
AcDbMaterial
  1
ByBlock
 72
     1
 94
      127
  0
MATERIAL
  5
3C
102
{ACAD_REACTORS
330
3B
102
}
330
3B
100
AcDbMaterial
  1
ByLayer
 72
     1
 94
      127
  0
MATERIAL
  5
3E
102
{ACAD_REACTORS
330
3B
102
}
330
3B
100
AcDbMaterial
  1
Global
 72
     1
 94
      127
  0
MLINESTYLE
  5
18
102
{ACAD_REACTORS
330
17
102
}
330
17
100
AcDbMlineStyle
  2
Standard
 70
     0
  3

 62
   256
 51
90.0
 52
90.0
 71
     2
 49
0.5
 62
   256
  6
BYLAYER
 49
-0.5
 62
   256
  6
BYLAYER
  0
ACDBPLACEHOLDER
  5
F
102
{ACAD_REACTORS
330
E
102
}
330
E
  0
VISUALSTYLE
  5
2F
102
{ACAD_REACTORS
330
2A
102
}
330
2A
100
AcDbVisualStyle
  2
2dWireframe
 70
     4
177
     2
291
     0
 71
     0
176
     1
 72
     2
176
     1
 73
     0
176
     1
 90
        0
176
     1
 40
-0.6
176
     1
 41
-30.0
176
     1
 62
     5
 63
     7
421
 16777215
176
     1
 74
     1
176
     1
 91
        4
176
     1
 64
     7
176
     1
 65
   257
176
     1
 75
     1
176
     1
175
     1
176
     1
 42
1.0
176
     1
 92
        0
176
     1
 66
   257
176
     1
 43
1.0
176
     1
 76
     1
176
     1
 77
     6
176
     1
 78
     2
176
     1
 67
     7
176
     1
 79
     5
176
     1
170
     0
176
     1
171
     0
176
     1
290
     0
176
     1
 93
        1
176
     1
 44
0.0
176
     1
173
     0
176
     1
  0
VISUALSTYLE
  5
31
102
{ACAD_REACTORS
330
2A
102
}
330
2A
100
AcDbVisualStyle
  2
3D Hidden
 70
     6
177
     2
291
     0
 71
     1
176
     1
 72
     2
176
     1
 73
     2
176
     1
 90
        0
176
     1
 40
-0.6
176
     1
 41
-30.0
176
     1
 62
     5
 63
     7
421
 16777215
176
     1
 74
     2
176
     1
 91
        2
176
     1
 64
     7
176
     1
 65
   257
176
     1
 75
     2
176
     1
175
     1
176
     1
 42
40.0
176
     1
 92
        0
176
     1
 66
   257
176
     1
 43
1.0
176
     1
 76
     1
176
     1
 77
     6
176
     1
 78
     2
176
     1
 67
     7
176
     1
 79
     3
176
     1
170
     0
176
     1
171
     0
176
     1
290
     0
176
     1
 93
        1
176
     1
 44
0.0
176
     1
173
     0
176
     1
  0
VISUALSTYLE
  5
30
102
{ACAD_REACTORS
330
2A
102
}
330
2A
100
AcDbVisualStyle
  2
3dWireframe
 70
     5
177
     2
291
     0
 71
     0
176
     1
 72
     2
176
     1
 73
     0
176
     1
 90
        0
176
     1
 40
-0.6
176
     1
 41
-30.0
176
     1
 62
     5
 63
     7
421
 16777215
176
     1
 74
     1
176
     1
 91
        4
176
     1
 64
     7
176
     1
 65
   257
176
     1
 75
     1
176
     1
175
     1
176
     1
 42
1.0
176
     1
 92
        0
176
     1
 66
   257
176
     1
 43
1.0
176
     1
 76
     1
176
     1
 77
     6
176
     1
 78
     2
176
     1
 67
     7
176
     1
 79
     5
176
     1
170
     0
176
     1
171
     0
176
     1
290
     0
176
     1
 93
        1
176
     1
 44
0.0
176
     1
173
     0
176
     1
  0
VISUALSTYLE
  5
32
102
{ACAD_REACTORS
330
2A
102
}
330
2A
100
AcDbVisualStyle
  2
Basic
 70
     7
177
     2
291
     1
 71
     1
176
     1
 72
     0
176
     1
 73
     1
176
     1
 90
        0
176
     1
 40
-0.6
176
     1
 41
-30.0
176
     1
 62
     5
 63
     7
421
 16777215
176
     1
 74
     0
176
     1
 91
        4
176
     1
 64
     7
176
     1
 65
   257
176
     1
 75
     1
176
     1
175
     1
176
     1
 42
1.0
176
     1
 92
        8
176
     1
 66
     7
176
     1
 43
1.0
176
     1
 76
     1
176
     1
 77
     6
176
     1
 78
     2
176
     1
 67
     7
176
     1
 79
     5
176
     1
170
     0
176
     1
171
     0
176
     1
290
     0
176
     1
 93
        1
176
     1
 44
0.0
176
     1
173
     0
176
     1
  0
VISUALSTYLE
  5
36
102
{ACAD_REACTORS
330
2A
102
}
330
2A
100
AcDbVisualStyle
  2
Brighten
 70
    12
177
     2
291
     1
 71
     2
176
     1
 72
     2
176
     1
 73
     0
176
     1
 90
        0
176
     1
 40
-0.6
176
     1
 41
-30.0
176
     1
 62
     5
 63
     7
421
 16777215
176
     1
 74
     1
176
     1
 91
        4
176
     1
 64
     7
176
     1
 65
   257
176
     1
 75
     1
176
     1
175
     1
176
     1
 42
1.0
176
     1
 92
        8
176
     1
 66
     7
176
     1
 43
1.0
176
     1
 76
     1
176
     1
 77
     6
176
     1
 78
     2
176
     1
 67
     7
176
     1
 79
     5
176
     1
170
     0
176
     1
171
     0
176
     1
290
     0
176
     1
 93
        1
176
     1
 44
50.0
176
     1
173
     0
176
     1
  0
VISUALSTYLE
  5
3A
102
{ACAD_REACTORS
330
2A
102
}
330
2A
100
AcDbVisualStyle
  2
ColorChange
 70
    16
177
     2
291
     1
 71
     2
176
     1
 72
     2
176
     1
 73
     3
176
     1
 90
        0
176
     1
 40
-0.6
176
     1
 41
-30.0
176
     1
 62
     5
 63
     8
421
  8421504
176
     1
 74
     1
176
     1
 91
        4
176
     1
 64
     7
176
     1
 65
   257
176
     1
 75
     1
176
     1
175
     1
176
     1
 42
1.0
176
     1
 92
        8
176
     1
 66
     8
424
  8421504
176
     1
 43
1.0
176
     1
 76
     1
176
     1
 77
     6
176
     1
 78
     2
176
     1
 67
     7
176
     1
 79
     5
176
     1
170
     0
176
     1
171
     0
176
     1
290
     0
176
     1
 93
        1
176
     1
 44
0.0
176
     1
173
     0
176
     1
  0
VISUALSTYLE
  5
34
102
{ACAD_REACTORS
330
2A
102
}
330
2A
100
AcDbVisualStyle
  2
Conceptual
 70
     9
177
     2
291
     0
 71
     3
176
     1
 72
     2
176
     1
 73
     0
176
     1
 90
        0
176
     1
 40
-0.6
176
     1
 41
-30.0
176
     1
 62
     5
 63
     7
421
 16777215
176
     1
 74
     2
176
     1
 91
        2
176
     1
 64
     7
176
     1
 65
   257
176
     1
 75
     1
176
     1
175
     1
176
     1
 42
40.0
176
     1
 92
        8
176
     1
 66
     7
176
     1
 43
1.0
176
     1
 76
     1
176
     1
 77
     6
176
     1
 78
     2
176
     1
 67
     7
176
     1
 79
     3
176
     1
170
     0
176
     1
171
     0
176
     1
290
     0
176
     1
 93
        1
176
     1
 44
0.0
176
     1
173
     0
176
     1
  0
VISUALSTYLE
  5
35
102
{ACAD_REACTORS
330
2A
102
}
330
2A
100
AcDbVisualStyle
  2
Dim
 70
    11
177
     2
291
     1
 71
     2
176
     1
 72
     2
176
     1
 73
     0
176
     1
 90
        0
176
     1
 40
-0.6
176
     1
 41
-30.0
176
     1
 62
     5
 63
     7
421
 16777215
176
     1
 74
     1
176
     1
 91
        4
176
     1
 64
     7
176
     1
 65
   257
176
     1
 75
     1
176
     1
175
     1
176
     1
 42
1.0
176
     1
 92
        8
176
     1
 66
     7
176
     1
 43
1.0
176
     1
 76
     1
176
     1
 77
     6
176
     1
 78
     2
176
     1
 67
     7
176
     1
 79
     5
176
     1
170
     0
176
     1
171
     0
176
     1
290
     0
176
     1
 93
        1
176
     1
 44
-50.0
176
     1
173
     0
176
     1
  0
VISUALSTYLE
  5
39
102
{ACAD_REACTORS
330
2A
102
}
330
2A
100
AcDbVisualStyle
  2
Facepattern
 70
    15
177
     2
291
     1
 71
     2
176
     1
 72
     2
176
     1
 73
     0
176
     1
 90
        0
176
     1
 40
-0.6
176
     1
 41
-30.0
176
     1
 62
     5
 63
     7
421
 16777215
176
     1
 74
     1
176
     1
 91
        4
176
     1
 64
     7
176
     1
 65
   257
176
     1
 75
     1
176
     1
175
     1
176
     1
 42
1.0
176
     1
 92
        8
176
     1
 66
     7
176
     1
 43
1.0
176
     1
 76
     1
176
     1
 77
     6
176
     1
 78
     2
176
     1
 67
     7
176
     1
 79
     5
176
     1
170
     0
176
     1
171
     0
176
     1
290
     0
176
     1
 93
        1
176
     1
 44
0.0
176
     1
173
     0
176
     1
  0
VISUALSTYLE
  5
2B
102
{ACAD_REACTORS
330
2A
102
}
330
2A
100
AcDbVisualStyle
  2
Flat
 70
     0
177
     2
291
     1
 71
     2
176
     1
 72
     1
176
     1
 73
     1
176
     1
 90
        2
176
     1
 40
-0.6
176
     1
 41
30.0
176
     1
 62
     5
 63
     7
421
 16777215
176
     1
 74
     0
176
     1
 91
        4
176
     1
 64
     7
176
     1
 65
   257
176
     1
 75
     1
176
     1
175
     1
176
     1
 42
1.0
176
     1
 92
        8
176
     1
 66
     7
176
     1
 43
1.0
176
     1
 76
     1
176
     1
 77
     6
176
     1
 78
     2
176
     1
 67
     7
176
     1
 79
     5
176
     1
170
     0
176
     1
171
     0
176
     1
290
     0
176
     1
 93
       13
176
     1
 44
0.0
176
     1
173
     0
176
     1
  0
VISUALSTYLE
  5
2C
102
{ACAD_REACTORS
330
2A
102
}
330
2A
100
AcDbVisualStyle
  2
FlatWithEdges
 70
     1
177
     2
291
     1
 71
     2
176
     1
 72
     1
176
     1
 73
     1
176
     1
 90
        2
176
     1
 40
-0.6
176
     1
 41
30.0
176
     1
 62
     5
 63
     7
421
 16777215
176
     1
 74
     1
176
     1
 91
        4
176
     1
 64
     7
176
     1
 65
   257
176
     1
 75
     1
176
     1
175
     1
176
     1
 42
1.0
176
     1
 92
        0
176
     1
 66
   257
176
     1
 43
1.0
176
     1
 76
     1
176
     1
 77
     6
176
     1
 78
     2
176
     1
 67
     7
176
     1
 79
     5
176
     1
170
     0
176
     1
171
     0
176
     1
290
     0
176
     1
 93
       13
176
     1
 44
0.0
176
     1
173
     0
176
     1
  0
VISUALSTYLE
  5
2D
102
{ACAD_REACTORS
330
2A
102
}
330
2A
100
AcDbVisualStyle
  2
Gouraud
 70
     2
177
     2
291
     1
 71
     2
176
     1
 72
     2
176
     1
 73
     1
176
     1
 90
        2
176
     1
 40
-0.6
176
     1
 41
30.0
176
     1
 62
     5
 63
     7
421
 16777215
176
     1
 74
     0
176
     1
 91
        4
176
     1
 64
     7
176
     1
 65
   257
176
     1
 75
     1
176
     1
175
     1
176
     1
 42
1.0
176
     1
 92
        0
176
     1
 66
     7
176
     1
 43
1.0
176
     1
 76
     1
176
     1
 77
     6
176
     1
 78
     2
176
     1
 67
     7
176
     1
 79
     5
176
     1
170
     0
176
     1
171
     0
176
     1
290
     0
176
     1
 93
       13
176
     1
 44
0.0
176
     1
173
     0
176
     1
  0
VISUALSTYLE
  5
2E
102
{ACAD_REACTORS
330
2A
102
}
330
2A
100
AcDbVisualStyle
  2
GouraudWithEdges
 70
     3
177
     2
291
     1
 71
     2
176
     1
 72
     2
176
     1
 73
     1
176
     1
 90
        2
176
     1
 40
-0.6
176
     1
 41
30.0
176
     1
 62
     5
 63
     7
421
 16777215
176
     1
 74
     1
176
     1
 91
        4
176
     1
 64
     7
176
     1
 65
   257
176
     1
 75
     1
176
     1
175
     1
176
     1
 42
1.0
176
     1
 92
        0
176
     1
 66
   257
176
     1
 43
1.0
176
     1
 76
     1
176
     1
 77
     6
176
     1
 78
     2
176
     1
 67
     7
176
     1
 79
     5
176
     1
170
     0
176
     1
171
     0
176
     1
290
     0
176
     1
 93
       13
176
     1
 44
0.0
176
     1
173
     0
176
     1
  0
VISUALSTYLE
  5
38
102
{ACAD_REACTORS
330
2A
102
}
330
2A
100
AcDbVisualStyle
  2
Linepattern
 70
    14
177
     2
291
     1
 71
     2
176
     1
 72
     2
176
     1
 73
     0
176
     1
 90
        0
176
     1
 40
-0.6
176
     1
 41
-30.0
176
     1
 62
     5
 63
     7
421
 16777215
176
     1
 74
     1
176
     1
 91
        4
176
     1
 64
     7
176
     1
 65
   257
176
     1
 75
     7
176
     1
175
     7
176
     1
 42
1.0
176
     1
 92
        8
176
     1
 66
     7
176
     1
 43
1.0
176
     1
 76
     1
176
     1
 77
     6
176
     1
 78
     2
176
     1
 67
     7
176
     1
 79
     5
176
     1
170
     0
176
     1
171
     0
176
     1
290
     0
176
     1
 93
        1
176
     1
 44
0.0
176
     1
173
     0
176
     1
  0
VISUALSTYLE
  5
33
102
{ACAD_REACTORS
330
2A
102
}
330
2A
100
AcDbVisualStyle
  2
Realistic
 70
     8
177
     2
291
     0
 71
     2
176
     1
 72
     2
176
     1
 73
     0
176
     1
 90
        0
176
     1
 40
-0.6
176
     1
 41
-30.0
176
     1
 62
     5
 63
     7
421
 16777215
176
     1
 74
     1
176
     1
 91
        0
176
     1
 64
     7
176
     1
 65
   257
176
     1
 75
     1
176
     1
175
     1
176
     1
 42
1.0
176
     1
 92
        8
176
     1
 66
     8
424
  7895160
176
     1
 43
1.0
176
     1
 76
     1
176
     1
 77
     6
176
     1
 78
     2
176
     1
 67
     7
176
     1
 79
     5
176
     1
170
     0
176
     1
171
     0
176
     1
290
     0
176
     1
 93
       13
176
     1
 44
0.0
176
     1
173
     0
176
     1
  0
VISUALSTYLE
  5
37
102
{ACAD_REACTORS
330
2A
102
}
330
2A
100
AcDbVisualStyle
  2
Thicken
 70
    13
177
     2
291
     1
 71
     2
176
     1
 72
     2
176
     1
 73
     0
176
     1
 90
        0
176
     1
 40
-0.6
176
     1
 41
-30.0
176
     1
 62
     5
 63
     7
421
 16777215
176
     1
 74
     1
176
     1
 91
        4
176
     1
 64
     7
176
     1
 65
   257
176
     1
 75
     1
176
     1
175
     1
176
     1
 42
1.0
176
     1
 92
       12
176
     1
 66
     7
176
     1
 43
1.0
176
     1
 76
     1
176
     1
 77
     6
176
     1
 78
     2
176
     1
 67
     7
176
     1
 79
     5
176
     1
170
     0
176
     1
171
     0
176
     1
290
     0
176
     1
 93
        1
176
     1
 44
0.0
176
     1
173
     0
176
     1
  0
ENDSEC
  0
EOF
