  0
SECTION
  2
HEADER
  9
$ACADVER
  1
AC1024
  9
$ACADMAINTVER
 70
     6
  9
$DWGCODEPAGE
  3
ANSI_932
  9
$INSBASE
 10
0.0
 20
0.0
 30
0.0
  9
$EXTMIN
 10
-6300.0
 20
-4455.0
 30
0.0
  9
$EXTMAX
 10
6300.0
 20
4455.0
 30
0.0
  9
$LIMMIN
 10
-6300.0
 20
-4455.0
  9
$LIMMAX
 10
6300.0
 20
4455.0
  9
$ORTHOMODE
 70
     0
  9
$REGENMODE
 70
     1
  9
$FILLMODE
 70
     1
  9
$QTEXTMODE
 70
     0
  9
$MIRRTEXT
 70
     1
  9
$LTSCALE
 40
30.0
  9
$ATTMODE
 70
     1
  9
$TEXTSIZE
 40
2.5
  9
$TRACEWID
 40
1.0
  9
$TEXTSTYLE
  7
Standard
  9
$CLAYER
  8
0
  9
$CELTYPE
  6
ByLayer
  9
$CECOLOR
 62
   256
  9
$CELTSCALE
 40
1.0
  9
$DISPSILH
 70
     0
  9
$DIMSCALE
 40
1.0
  9
$DIMASZ
 40
2.5
  9
$DIMEXO
 40
0.625
  9
$DIMDLI
 40
3.75
  9
$DIMRND
 40
0.0
  9
$DIMDLE
 40
0.0
  9
$DIMEXE
 40
1.25
  9
$DIMTP
 40
0.0
  9
$DIMTM
 40
0.0
  9
$DIMTXT
 40
2.5
  9
$DIMCEN
 40
2.5
  9
$DIMTSZ
 40
0.0
  9
$DIMTOL
 70
     0
  9
$DIMLIM
 70
     0
  9
$DIMTIH
 70
     0
  9
$DIMTOH
 70
     0
  9
$DIMSE1
 70
     0
  9
$DIMSE2
 70
     0
  9
$DIMTAD
 70
     1
  9
$DIMZIN
 70
     8
  9
$DIMBLK
  1

  9
$DIMASO
 70
     1
  9
$DIMSHO
 70
     1
  9
$DIMPOST
  1

  9
$DIMAPOST
  1

  9
$DIMALT
 70
     0
  9
$DIMALTD
 70
     3
  9
$DIMALTF
 40
0.03937007874016
  9
$DIMLFAC
 40
1.0
  9
$DIMTOFL
 70
     1
  9
$DIMTVP
 40
0.0
  9
$DIMTIX
 70
     0
  9
$DIMSOXD
 70
     0
  9
$DIMSAH
 70
     0
  9
$DIMBLK1
  1

  9
$DIMBLK2
  1

  9
$DIMSTYLE
  2
ISO-25
  9
$DIMCLRD
 70
     0
  9
$DIMCLRE
 70
     0
  9
$DIMCLRT
 70
     0
  9
$DIMTFAC
 40
1.0
  9
$DIMGAP
 40
0.625
  9
$DIMJUST
 70
     0
  9
$DIMSD1
 70
     0
  9
$DIMSD2
 70
     0
  9
$DIMTOLJ
 70
     0
  9
$DIMTZIN
 70
     8
  9
$DIMALTZ
 70
     0
  9
$DIMALTTZ
 70
     0
  9
$DIMUPT
 70
     0
  9
$DIMDEC
 70
     2
  9
$DIMTDEC
 70
     2
  9
$DIMALTU
 70
     2
  9
$DIMALTTD
 70
     3
  9
$DIMTXSTY
  7
Standard
  9
$DIMAUNIT
 70
     0
  9
$DIMADEC
 70
     0
  9
$DIMALTRND
 40
0.0
  9
$DIMAZIN
 70
     0
  9
$DIMDSEP
 70
    44
  9
$DIMATFIT
 70
     3
  9
$DIMFRAC
 70
     0
  9
$DIMLDRBLK
  1

  9
$DIMLUNIT
 70
     2
  9
$DIMLWD
 70
    -2
  9
$DIMLWE
 70
    -2
  9
$DIMTMOVE
 70
     0
  9
$DIMFXL
 40
1.0
  9
$DIMFXLON
 70
     0
  9
$DIMJOGANG
 40
0.7853981633974483
  9
$DIMTFILL
 70
     0
  9
$DIMTFILLCLR
 70
     0
  9
$DIMARCSYM
 70
     0
  9
$DIMLTYPE
  6

  9
$DIMLTEX1
  6

  9
$DIMLTEX2
  6

  9
$DIMTXTDIRECTION
 70
     0
  9
$LUNITS
 70
     2
  9
$LUPREC
 70
     4
  9
$SKETCHINC
 40
1.0
  9
$FILLETRAD
 40
10.0
  9
$AUNITS
 70
     0
  9
$AUPREC
 70
     0
  9
$MENU
  1
.
  9
$ELEVATION
 40
0.0
  9
$PELEVATION
 40
0.0
  9
$THICKNESS
 40
0.0
  9
$LIMCHECK
 70
     0
  9
$CHAMFERA
 40
10.0
  9
$CHAMFERB
 40
10.0
  9
$CHAMFERC
 40
20.0
  9
$CHAMFERD
 40
0.0
  9
$SKPOLY
 70
     0
  9
$TDCREATE
 40
2456717.532166134
  9
$TDUCREATE
 40
2456717.157166134
  9
$TDUPDATE
 40
2456717.532166146
  9
$TDUUPDATE
 40
2456717.157166146
  9
$TDINDWG
 40
0.0000000116
  9
$TDUSRTIMER
 40
0.0000000116
  9
$USRTIMER
 70
     1
  9
$ANGBASE
 50
0.0
  9
$ANGDIR
 70
     0
  9
$PDMODE
 70
     0
  9
$PDSIZE
 40
0.0
  9
$PLINEWID
 40
0.0
  9
$SPLFRAME
 70
     0
  9
$SPLINETYPE
 70
     6
  9
$SPLINESEGS
 70
     8
  9
$HANDSEED
  5
27B
  9
$SURFTAB1
 70
     6
  9
$SURFTAB2
 70
     6
  9
$SURFTYPE
 70
     6
  9
$SURFU
 70
     6
  9
$SURFV
 70
     6
  9
$UCSBASE
  2

  9
$UCSNAME
  2

  9
$UCSORG
 10
0.0
 20
0.0
 30
0.0
  9
$UCSXDIR
 10
1.0
 20
0.0
 30
0.0
  9
$UCSYDIR
 10
0.0
 20
1.0
 30
0.0
  9
$UCSORTHOREF
  2

  9
$UCSORTHOVIEW
 70
     0
  9
$UCSORGTOP
 10
0.0
 20
0.0
 30
0.0
  9
$UCSORGBOTTOM
 10
0.0
 20
0.0
 30
0.0
  9
$UCSORGLEFT
 10
0.0
 20
0.0
 30
0.0
  9
$UCSORGRIGHT
 10
0.0
 20
0.0
 30
0.0
  9
$UCSORGFRONT
 10
0.0
 20
0.0
 30
0.0
  9
$UCSORGBACK
 10
0.0
 20
0.0
 30
0.0
  9
$PUCSBASE
  2

  9
$PUCSNAME
  2

  9
$PUCSORG
 10
0.0
 20
0.0
 30
0.0
  9
$PUCSXDIR
 10
1.0
 20
0.0
 30
0.0
  9
$PUCSYDIR
 10
0.0
 20
1.0
 30
0.0
  9
$PUCSORTHOREF
  2

  9
$PUCSORTHOVIEW
 70
     0
  9
$PUCSORGTOP
 10
0.0
 20
0.0
 30
0.0
  9
$PUCSORGBOTTOM
 10
0.0
 20
0.0
 30
0.0
  9
$PUCSORGLEFT
 10
0.0
 20
0.0
 30
0.0
  9
$PUCSORGRIGHT
 10
0.0
 20
0.0
 30
0.0
  9
$PUCSORGFRONT
 10
0.0
 20
0.0
 30
0.0
  9
$PUCSORGBACK
 10
0.0
 20
0.0
 30
0.0
  9
$USERI1
 70
     0
  9
$USERI2
 70
     0
  9
$USERI3
 70
     0
  9
$USERI4
 70
     0
  9
$USERI5
 70
     0
  9
$USERR1
 40
0.0
  9
$USERR2
 40
0.0
  9
$USERR3
 40
0.0
  9
$USERR4
 40
0.0
  9
$USERR5
 40
0.0
  9
$WORLDVIEW
 70
     1
  9
$SHADEDGE
 70
     3
  9
$SHADEDIF
 70
    70
  9
$TILEMODE
 70
     1
  9
$MAXACTVP
 70
    64
  9
$PINSBASE
 10
0.0
 20
0.0
 30
0.0
  9
$PLIMCHECK
 70
     0
  9
$PEXTMIN
 10
1.000000000000000E+20
 20
1.000000000000000E+20
 30
1.000000000000000E+20
  9
$PEXTMAX
 10
-1.000000000000000E+20
 20
-1.000000000000000E+20
 30
-1.000000000000000E+20
  9
$PLIMMIN
 10
0.0
 20
0.0
  9
$PLIMMAX
 10
420.0
 20
297.0
  9
$UNITMODE
 70
     0
  9
$VISRETAIN
 70
     1
  9
$PLINEGEN
 70
     0
  9
$PSLTSCALE
 70
     1
  9
$TREEDEPTH
 70
  3020
  9
$CMLSTYLE
  2
Standard
  9
$CMLJUST
 70
     0
  9
$CMLSCALE
 40
20.0
  9
$PROXYGRAPHICS
 70
     1
  9
$MEASUREMENT
 70
     1
  9
$CELWEIGHT
370
    -1
  9
$ENDCAPS
280
     0
  9
$JOINSTYLE
280
     0
  9
$LWDISPLAY
290
     0
  9
$INSUNITS
 70
     4
  9
$HYPERLINKBASE
  1

  9
$STYLESHEET
  1

  9
$XEDIT
290
     1
  9
$CEPSNTYPE
380
     0
  9
$PSTYLEMODE
290
     1
  9
$FINGERPRINTGUID
  2
{EE494A41-36EB-4CCF-8AE6-EE3D01B99B84}
  9
$VERSIONGUID
  2
{FAEB1C32-E019-11D5-929B-00C0DF256EC4}
  9
$EXTNAMES
290
     1
  9
$PSVPSCALE
 40
0.0
  9
$OLESTARTUP
290
     0
  9
$SORTENTS
280
   127
  9
$INDEXCTL
280
     0
  9
$HIDETEXT
280
     1
  9
$XCLIPFRAME
280
     2
  9
$HALOGAP
280
     0
  9
$OBSCOLOR
 70
   257
  9
$OBSLTYPE
280
     0
  9
$INTERSECTIONDISPLAY
280
     0
  9
$INTERSECTIONCOLOR
 70
   257
  9
$DIMASSOC
280
     2
  9
$PROJECTNAME
  1

  9
$CAMERADISPLAY
290
     0
  9
$LENSLENGTH
 40
50.0
  9
$CAMERAHEIGHT
 40
0.0
  9
$STEPSPERSEC
 40
2.0
  9
$STEPSIZE
 40
6.0
  9
$3DDWFPREC
 40
2.0
  9
$PSOLWIDTH
 40
5.0
  9
$PSOLHEIGHT
 40
80.0
  9
$LOFTANG1
 40
1.570796326794897
  9
$LOFTANG2
 40
1.570796326794897
  9
$LOFTMAG1
 40
0.0
  9
$LOFTMAG2
 40
0.0
  9
$LOFTPARAM
 70
     7
  9
$LOFTNORMALS
280
     1
  9
$LATITUDE
 40
37.795
  9
$LONGITUDE
 40
-122.394
  9
$NORTHDIRECTION
 40
0.0
  9
$TIMEZONE
 70
 -8000
  9
$LIGHTGLYPHDISPLAY
280
     1
  9
$TILEMODELIGHTSYNCH
280
     1
  9
$SOLIDHIST
280
     1
  9
$SHOWHIST
280
     1
  9
$DWFFRAME
280
     2
  9
$DGNFRAME
280
     2
  9
$REALWORLDSCALE
290
     1
  9
$INTERFERECOLOR
 62
   256
  9
$CSHADOW
280
     0
  9
$SHADOWPLANELOCATION
 40
0.0
  0
ENDSEC
  0
SECTION
  2
CLASSES
  0
CLASS
  1
ACDBDICTIONARYWDFLT
  2
AcDbDictionaryWithDefault
  3
ObjectDBX Classes
 90
        0
 91
        4
280
     0
281
     0
  0
CLASS
  1
VISUALSTYLE
  2
AcDbVisualStyle
  3
ObjectDBX Classes
 90
     4095
 91
        4
280
     0
281
     0
  0
CLASS
  1
MATERIAL
  2
AcDbMaterial
  3
ObjectDBX Classes
 90
     1153
 91
        4
280
     0
281
     0
  0
ENDSEC
  0
SECTION
  2
TABLES
  0
TABLE
  2
VPORT
  5
8
330
0
100
AcDbSymbolTable
 70
     1
  0
VPORT
  5
29
330
8
100
AcDbSymbolTableRecord
100
AcDbViewportTableRecord
  2
*Active
 70
     0
 10
0.0
 20
0.0
 11
1.0
 21
1.0
 12
0.0
 22
0.0
 13
0.0
 23
0.0
 14
10.0
 24
10.0
 15
10.0
 25
10.0
 16
0.0
 26
0.0
 36
1.0
 17
0.0
 27
0.0
 37
0.0
 40
9801.0
 41
1.414141414141414
 42
50.0
 43
0.0
 44
0.0
 50
0.0
 51
0.0
 71
     0
 72
 10000
 73
     1
 74
     3
 75
     0
 76
     0
 77
     0
 78
     0
281
     0
 65
     1
110
0.0
120
0.0
130
0.0
111
1.0
121
0.0
131
0.0
112
0.0
122
1.0
132
0.0
 79
     0
146
0.0
 60
     3
 61
     5
292
     1
282
     1
141
0.0
142
0.0
 63
   250
  0
ENDTAB
  0
TABLE
  2
LTYPE
  5
5
330
0
100
AcDbSymbolTable
 70
     3
  0
LTYPE
  5
14
330
5
100
AcDbSymbolTableRecord
100
AcDbLinetypeTableRecord
  2
ByBlock
 70
     0
  3

 72
    65
 73
     0
 40
0.0
  0
LTYPE
  5
15
330
5
100
AcDbSymbolTableRecord
100
AcDbLinetypeTableRecord
  2
ByLayer
 70
     0
  3

 72
    65
 73
     0
 40
0.0
  0
LTYPE
  5
16
330
5
100
AcDbSymbolTableRecord
100
AcDbLinetypeTableRecord
  2
Continuous
 70
     0
  3
Solid line
 72
    65
 73
     0
 40
0.0
  0
LTYPE
  5
41
330
5
100
AcDbSymbolTableRecord
100
AcDbLinetypeTableRecord
  2
JWW_HOJO
 70
     0
  3
  -   -   -   -   -   -   -   - 
 72
    65
 73
     2
 40
1.693333333333333
 49
-1.27
 74
     0
 49
0.4233333333333333
 74
     0
  0
LTYPE
  5
42
330
5
100
AcDbSymbolTableRecord
100
AcDbLinetypeTableRecord
  2
JWW_CENTER1
 70
     0
  3
-----  --  ----------  --  -----
 72
    65
 73
     4
 40
3.386666666666667
 49
2.116666666666667
 74
     0
 49
-0.4233333333333333
 74
     0
 49
0.4233333333333333
 74
     0
 49
-0.4233333333333333
 74
     0
  0
ENDTAB
  0
TABLE
  2
LAYER
  5
2
330
0
100
AcDbSymbolTable
 70
    13
  0
LAYER
  5
10
330
2
100
AcDbSymbolTableRecord
100
AcDbLayerTableRecord
  2
0
 70
     0
 62
     7
  6
Continuous
370
    -3
390
F
347
3E
  0
LAYER
  5
43
330
2
100
AcDbSymbolTableRecord
100
AcDbLayerTableRecord
  2
F-1_枠
 70
     0
 62
     7
  6
Continuous
370
    -3
390
F
347
3E
  0
LAYER
  5
44
330
2
100
AcDbSymbolTableRecord
100
AcDbLayerTableRecord
  2
F-0_補助線
 70
     0
 62
     7
  6
Continuous
370
    -3
390
F
347
3E
  0
LAYER
  5
45
330
2
100
AcDbSymbolTableRecord
100
AcDbLayerTableRecord
  2
0-A_文字
 70
     0
 62
     7
  6
Continuous
370
    -3
390
F
347
3E
  0
LAYER
  5
46
330
2
100
AcDbSymbolTableRecord
100
AcDbLayerTableRecord
  2
0-6_カウンター
 70
     0
 62
     7
  6
Continuous
370
    -3
390
F
347
3E
  0
LAYER
  5
47
330
2
100
AcDbSymbolTableRecord
100
AcDbLayerTableRecord
  2
0-8__
 70
     0
 62
     7
  6
Continuous
370
    -3
390
F
347
3E
  0
LAYER
  5
48
330
2
100
AcDbSymbolTableRecord
100
AcDbLayerTableRecord
  2
0-0_補助線
 70
     0
 62
     7
  6
Continuous
370
    -3
390
F
347
3E
  0
LAYER
  5
49
330
2
100
AcDbSymbolTableRecord
100
AcDbLayerTableRecord
  2
0-B_寸法
 70
     0
 62
     7
  6
Continuous
370
    -3
390
F
347
3E
  0
LAYER
  5
4A
330
2
100
AcDbSymbolTableRecord
100
AcDbLayerTableRecord
  2
F-A_文字
 70
     0
 62
     7
  6
Continuous
370
    -3
390
F
347
3E
  0
LAYER
  5
4B
330
2
100
AcDbSymbolTableRecord
100
AcDbLayerTableRecord
  2
0-1_本体
 70
     0
 62
     7
  6
Continuous
370
    -3
390
F
347
3E
  0
LAYER
  5
4C
330
2
100
AcDbSymbolTableRecord
100
AcDbLayerTableRecord
  2
0-2_扉
 70
     0
 62
     7
  6
Continuous
370
    -3
390
F
347
3E
  0
LAYER
  5
4D
330
2
100
AcDbSymbolTableRecord
100
AcDbLayerTableRecord
  2
0-4_棚
 70
     0
 62
     7
  6
Continuous
370
    -3
390
F
347
3E
  0
LAYER
  5
4E
330
2
100
AcDbSymbolTableRecord
100
AcDbLayerTableRecord
  2
0-5_ダボ
 70
     0
 62
     7
  6
Continuous
370
    -3
390
F
347
3E
  0
ENDTAB
  0
TABLE
  2
STYLE
  5
3
330
0
100
AcDbSymbolTable
 70
     3
  0
STYLE
  5
11
330
3
100
AcDbSymbolTableRecord
100
AcDbTextStyleTableRecord
  2
Standard
 70
     0
 40
0.0
 41
1.0
 50
0.0
 71
     0
 42
2.5
  3
txt
  4

  0
STYLE
  5
3F
330
3
100
AcDbSymbolTableRecord
100
AcDbTextStyleTableRecord
  2
ＭＳ ゴシック
 70
     0
 40
1.0
 41
1.0
 50
0.0
 71
     0
 42
10.0
  3

  4

1001
ACAD
1000
MS Gothic
1071
    32817
  0
STYLE
  5
40
330
3
100
AcDbSymbolTableRecord
100
AcDbTextStyleTableRecord
  2
HG明朝B
 70
     0
 40
1.0
 41
1.0
 50
0.0
 71
     0
 42
10.0
  3

  4

1001
ACAD
1000
HGMinchoB
1071
    32785
  0
ENDTAB
  0
TABLE
  2
VIEW
  5
6
330
0
100
AcDbSymbolTable
 70
     0
  0
ENDTAB
  0
TABLE
  2
UCS
  5
7
330
0
100
AcDbSymbolTable
 70
     0
  0
ENDTAB
  0
TABLE
  2
APPID
  5
9
330
0
100
AcDbSymbolTable
 70
     1
  0
APPID
  5
12
330
9
100
AcDbSymbolTableRecord
100
AcDbRegAppTableRecord
  2
ACAD
 70
     0
  0
ENDTAB
  0
TABLE
  2
DIMSTYLE
  5
A
330
0
100
AcDbSymbolTable
 70
     1
100
AcDbDimStyleTable
  0
DIMSTYLE
105
27
330
A
100
AcDbSymbolTableRecord
100
AcDbDimStyleTableRecord
  2
ISO-25
 70
     0
 41
2.5
 42
0.625
 43
3.75
 44
1.25
 73
     0
 74
     0
 77
     1
 78
     8
140
2.5
141
2.5
143
0.03937007874016
147
0.625
171
     3
172
     1
178
     0
271
     2
272
     2
274
     3
278
    44
283
     0
284
     8
340
11
  0
ENDTAB
  0
TABLE
  2
BLOCK_RECORD
  5
1
330
0
100
AcDbSymbolTable
 70
     1
  0
BLOCK_RECORD
  5
1F
330
1
100
AcDbSymbolTableRecord
100
AcDbBlockTableRecord
  2
*Model_Space
340
22
 70
     0
280
     1
281
     0
  0
BLOCK_RECORD
  5
1B
330
1
100
AcDbSymbolTableRecord
100
AcDbBlockTableRecord
  2
*Paper_Space
340
1E
 70
     0
280
     1
281
     0
  0
BLOCK_RECORD
  5
23
330
1
100
AcDbSymbolTableRecord
100
AcDbBlockTableRecord
  2
*Paper_Space0
340
26
 70
     0
280
     1
281
     0
  0
ENDTAB
  0
ENDSEC
  0
SECTION
  2
BLOCKS
  0
BLOCK
  5
20
330
1F
100
AcDbEntity
  8
0
100
AcDbBlockBegin
  2
*Model_Space
 70
     0
 10
0.0
 20
0.0
 30
0.0
  3
*Model_Space
  1

  0
ENDBLK
  5
21
330
1F
100
AcDbEntity
  8
0
100
AcDbBlockEnd
  0
BLOCK
  5
1C
330
1B
100
AcDbEntity
 67
     1
  8
0
100
AcDbBlockBegin
  2
*Paper_Space
 70
     0
 10
0.0
 20
0.0
 30
0.0
  3
*Paper_Space
  1

  0
ENDBLK
  5
1D
330
1B
100
AcDbEntity
 67
     1
  8
0
100
AcDbBlockEnd
  0
BLOCK
  5
24
330
23
100
AcDbEntity
  8
0
100
AcDbBlockBegin
  2
*Paper_Space0
 70
     0
 10
0.0
 20
0.0
 30
0.0
  3
*Paper_Space0
  1

  0
ENDBLK
  5
25
330
23
100
AcDbEntity
  8
0
100
AcDbBlockEnd
  0
ENDSEC
  0
SECTION
  2
ENTITIES
  0
LINE
  5
4F
330
1F
100
AcDbEntity
  8
F-1_枠
  6
Continuous
 62
   200
370
    20
100
AcDbLine
 10
5689.998977248734
 20
4174.999769056166
 30
0.0
 11
5689.998977248734
 21
-4195.000217025344
 31
0.0
  0
LINE
  5
50
330
1F
100
AcDbEntity
  8
F-0_補助線
  6
JWW_HOJO
 62
   120
370
     5
100
AcDbLine
 10
-6300.0
 20
-4455.0
 30
0.0
 11
-6300.0
 21
4424.999604096284
 31
0.0
  0
LINE
  5
51
330
1F
100
AcDbEntity
  8
F-0_補助線
  6
JWW_HOJO
 62
   120
370
     5
100
AcDbLine
 10
-6300.0
 20
4424.999604096284
 30
0.0
 11
5999.999010240709
 21
4424.999604096284
 31
0.0
  0
LINE
  5
52
330
1F
100
AcDbEntity
  8
F-0_補助線
  6
JWW_HOJO
 62
   120
370
     5
100
AcDbLine
 10
5999.999010240709
 20
4424.999604096284
 30
0.0
 11
5999.999010240709
 21
-4455.0
 31
0.0
  0
LINE
  5
53
330
1F
100
AcDbEntity
  8
F-0_補助線
  6
JWW_HOJO
 62
   120
370
     5
100
AcDbLine
 10
5999.999010240709
 20
-4455.0
 30
0.0
 11
-6300.0
 21
-4455.0
 31
0.0
  0
LINE
  5
54
330
1F
100
AcDbEntity
  8
F-1_枠
  6
Continuous
 62
   200
370
    20
100
AcDbLine
 10
-5999.999752560178
 20
4174.999769056166
 30
0.0
 11
5699.998762800888
 21
4174.999769056166
 31
0.0
  0
LINE
  5
55
330
1F
100
AcDbEntity
  8
F-1_枠
  6
Continuous
 62
   200
370
    20
100
AcDbLine
 10
-5999.999752560178
 20
4164.999983504013
 30
0.0
 11
5699.998762800888
 21
4164.999983504013
 31
0.0
  0
LINE
  5
56
330
1F
100
AcDbEntity
  8
F-1_枠
  6
Continuous
 62
   200
370
    20
100
AcDbLine
 10
-5999.999752560178
 20
4169.999505120355
 30
0.0
 11
5699.998762800888
 21
4169.999505120355
 31
0.0
  0
LINE
  5
57
330
1F
100
AcDbEntity
  8
F-1_枠
  6
Continuous
 62
   200
370
    20
100
AcDbLine
 10
5694.998498865077
 20
4174.999769056166
 30
0.0
 11
5694.998498865077
 21
-4195.000217025344
 31
0.0
  0
LINE
  5
58
330
1F
100
AcDbEntity
  8
F-1_枠
  6
Continuous
 62
   200
370
    20
100
AcDbLine
 10
5699.998762800888
 20
4174.999769056166
 30
0.0
 11
5699.998762800888
 21
-4195.000217025344
 31
0.0
  0
LINE
  5
59
330
1F
100
AcDbEntity
  8
F-1_枠
  6
Continuous
 62
   200
370
    20
100
AcDbLine
 10
-5999.999984535011
 20
4174.999769056166
 30
0.0
 11
-5999.999984535011
 21
-4195.000217025344
 31
0.0
  0
LINE
  5
5A
330
1F
100
AcDbEntity
  8
F-1_枠
  6
Continuous
 62
   200
370
    20
100
AcDbLine
 10
-5994.999975771518
 20
4174.999769056166
 30
0.0
 11
-5994.999975771518
 21
-4195.000217025344
 31
0.0
  0
LINE
  5
5B
330
1F
100
AcDbEntity
  8
F-1_枠
  6
Continuous
 62
   200
370
    20
100
AcDbLine
 10
-5989.999990205507
 20
4174.999769056166
 30
0.0
 11
-5989.999990205507
 21
-4195.000217025344
 31
0.0
  0
LINE
  5
5C
330
1F
100
AcDbEntity
  8
0-A_文字
  6
Continuous
 62
     7
370
     9
100
AcDbLine
 10
-4499.999752560178
 20
3639.999983504013
 30
0.0
 11
-4499.999752560178
 21
3864.999983504013
 31
0.0
  0
LINE
  5
5D
330
1F
100
AcDbEntity
  8
0-6_カウンター
  6
Continuous
 62
    92
370
    13
100
AcDbLine
 10
-5201.908793354004
 20
-150.0002319748336
 30
0.0
 11
-1592.908793354003
 21
-150.0002319748336
 31
0.0
  0
LINE
  5
5E
330
1F
100
AcDbEntity
  8
0-6_カウンター
  6
Continuous
 62
    92
370
    13
100
AcDbLine
 10
-1592.908793354003
 20
-150.0002319748336
 30
0.0
 11
-1592.908793354003
 21
-105.0002319748336
 31
0.0
  0
LINE
  5
5F
330
1F
100
AcDbEntity
  8
0-6_カウンター
  6
Continuous
 62
    92
370
    13
100
AcDbLine
 10
-1592.908793354003
 20
-105.0002319748336
 30
0.0
 11
-5201.908793354004
 21
-105.0002319748336
 31
0.0
  0
LINE
  5
60
330
1F
100
AcDbEntity
  8
0-6_カウンター
  6
Continuous
 62
    92
370
    13
100
AcDbLine
 10
-5201.908793354004
 20
-105.0002319748336
 30
0.0
 11
-5201.908793354004
 21
-150.0002319748336
 31
0.0
  0
LINE
  5
61
330
1F
100
AcDbEntity
  8
0-A_文字
  6
Continuous
 62
     7
370
     9
100
AcDbLine
 10
-3992.908793354004
 20
-1750.500231974833
 30
0.0
 11
-3992.908793354004
 21
-1975.500231974833
 31
0.0
  0
LINE
  5
62
330
1F
100
AcDbEntity
  8
0-A_文字
  6
Continuous
 62
     7
370
     9
100
AcDbLine
 10
-2792.908793354003
 20
-1750.500231974833
 30
0.0
 11
-3992.908793354004
 21
-1750.500231974833
 31
0.0
  0
LINE
  5
63
330
1F
100
AcDbEntity
  8
0-A_文字
  6
Continuous
 62
     7
370
     9
100
AcDbLine
 10
-2792.908793354003
 20
-1975.500231974833
 30
0.0
 11
-2792.908793354003
 21
-1750.500231974833
 31
0.0
  0
LINE
  5
64
330
1F
100
AcDbEntity
  8
0-A_文字
  6
Continuous
 62
     7
370
     9
100
AcDbLine
 10
-3992.908793354004
 20
-1975.500231974833
 30
0.0
 11
-2792.908793354003
 21
-1975.500231974833
 31
0.0
  0
TEXT
  5
65
330
1F
100
AcDbEntity
  8
0-A_文字
  6
Continuous
 62
     7
370
     9
100
AcDbText
 10
-3722.908793354004
 20
-1906.080231974833
 30
0.0
 40
91.44
  1
扉正面図・
 41
1.100000000000001
  7
ＭＳ ゴシック
100
AcDbText
  0
TEXT
  5
66
330
1F
100
AcDbEntity
  8
0-8__
  6
Continuous
 62
     7
370
     9
100
AcDbText
 10
-5887.408793354003
 20
-992.3102319748335
 30
0.0
 40
68.58
  1
ＦＬ▼
 41
1.111111111111111
  7
ＭＳ ゴシック
100
AcDbText
  0
LINE
  5
67
330
1F
100
AcDbEntity
  8
0-8__
  6
Continuous
 62
     7
370
     9
100
AcDbLine
 10
-5887.408793354003
 20
-1005.000231974834
 30
0.0
 11
-1597.408793354003
 21
-1005.000231974834
 31
0.0
  0
LINE
  5
68
330
1F
100
AcDbEntity
  8
0-0_補助線
  6
JWW_HOJO
 62
   120
370
     5
100
AcDbLine
 10
-493.5774813363631
 20
-1080.000231974834
 30
0.0
 11
3256.422518663637
 21
-1080.000231974834
 31
0.0
  0
LINE
  5
69
330
1F
100
AcDbEntity
  8
0-0_補助線
  6
JWW_HOJO
 62
   120
370
     5
100
AcDbLine
 10
-643.577481336363
 20
-1230.000231974834
 30
0.0
 11
3406.422518663637
 21
-1230.000231974834
 31
0.0
  0
LINE
  5
6A
330
1F
100
AcDbEntity
  8
0-0_補助線
  6
JWW_HOJO
 62
   120
370
     5
100
AcDbLine
 10
-793.577481336363
 20
-1380.000231974834
 30
0.0
 11
3556.422518663637
 21
-1380.000231974834
 31
0.0
  0
LINE
  5
6B
330
1F
100
AcDbEntity
  8
0-0_補助線
  6
JWW_HOJO
 62
   120
370
     5
100
AcDbLine
 10
3256.422518663637
 20
-1080.000231974834
 30
0.0
 11
3256.422518663637
 21
-30.00023197483358
 31
0.0
  0
LINE
  5
6C
330
1F
100
AcDbEntity
  8
0-0_補助線
  6
JWW_HOJO
 62
   120
370
     5
100
AcDbLine
 10
3406.422518663637
 20
-1230.000231974834
 30
0.0
 11
3406.422518663637
 21
119.9997680251664
 31
0.0
  0
LINE
  5
6D
330
1F
100
AcDbEntity
  8
0-0_補助線
  6
JWW_HOJO
 62
   120
370
     5
100
AcDbLine
 10
3556.422518663637
 20
-1380.000231974834
 30
0.0
 11
3556.422518663637
 21
269.9997680251664
 31
0.0
  0
LINE
  5
6E
330
1F
100
AcDbEntity
  8
0-0_補助線
  6
JWW_HOJO
 62
   120
370
     5
100
AcDbLine
 10
-493.5774813363631
 20
-30.00023197483358
 30
0.0
 11
3256.422518663637
 21
-30.00023197483358
 31
0.0
  0
LINE
  5
6F
330
1F
100
AcDbEntity
  8
0-0_補助線
  6
JWW_HOJO
 62
   120
370
     5
100
AcDbLine
 10
-493.5774813363631
 20
-30.00023197483358
 30
0.0
 11
-493.5774813363631
 21
-1080.000231974834
 31
0.0
  0
LINE
  5
70
330
1F
100
AcDbEntity
  8
0-0_補助線
  6
JWW_HOJO
 62
   120
370
     5
100
AcDbLine
 10
-643.577481336363
 20
119.9997680251664
 30
0.0
 11
3406.422518663637
 21
119.9997680251664
 31
0.0
  0
LINE
  5
71
330
1F
100
AcDbEntity
  8
0-0_補助線
  6
JWW_HOJO
 62
   120
370
     5
100
AcDbLine
 10
-643.577481336363
 20
119.9997680251664
 30
0.0
 11
-643.577481336363
 21
-1230.000231974834
 31
0.0
  0
LINE
  5
72
330
1F
100
AcDbEntity
  8
0-0_補助線
  6
JWW_HOJO
 62
   120
370
     5
100
AcDbLine
 10
-793.577481336363
 20
269.9997680251664
 30
0.0
 11
3556.422518663637
 21
269.9997680251664
 31
0.0
  0
LINE
  5
73
330
1F
100
AcDbEntity
  8
0-0_補助線
  6
JWW_HOJO
 62
   120
370
     5
100
AcDbLine
 10
-793.577481336363
 20
269.9997680251664
 30
0.0
 11
-793.577481336363
 21
-1380.000231974834
 31
0.0
  0
LINE
  5
74
330
1F
100
AcDbEntity
  8
0-6_カウンター
  6
Continuous
 62
    92
370
    13
100
AcDbLine
 10
-423.0774813363632
 20
-150.0002319748336
 30
0.0
 11
3185.922518663637
 21
-150.0002319748336
 31
0.0
  0
LINE
  5
75
330
1F
100
AcDbEntity
  8
0-6_カウンター
  6
Continuous
 62
    92
370
    13
100
AcDbLine
 10
3185.922518663637
 20
-150.0002319748336
 30
0.0
 11
3185.922518663637
 21
-105.0002319748336
 31
0.0
  0
LINE
  5
76
330
1F
100
AcDbEntity
  8
0-6_カウンター
  6
Continuous
 62
    92
370
    13
100
AcDbLine
 10
3185.922518663637
 20
-105.0002319748336
 30
0.0
 11
-423.0774813363632
 21
-105.0002319748336
 31
0.0
  0
LINE
  5
77
330
1F
100
AcDbEntity
  8
0-6_カウンター
  6
Continuous
 62
    92
370
    13
100
AcDbLine
 10
-423.0774813363632
 20
-105.0002319748336
 30
0.0
 11
-423.0774813363632
 21
-150.0002319748336
 31
0.0
  0
TEXT
  5
78
330
1F
100
AcDbEntity
  8
0-8__
  6
Continuous
 62
     7
370
     9
100
AcDbText
 10
-1108.577481336363
 20
-992.3102319748335
 30
0.0
 40
68.58
  1
ＦＬ▼
 41
1.111111111111111
  7
ＭＳ ゴシック
100
AcDbText
  0
LINE
  5
79
330
1F
100
AcDbEntity
  8
0-8__
  6
Continuous
 62
     7
370
     9
100
AcDbLine
 10
-1108.577481336363
 20
-1005.000231974834
 30
0.0
 11
3181.422518663637
 21
-1005.000231974834
 31
0.0
  0
LINE
  5
7A
330
1F
100
AcDbEntity
  8
0-6_カウンター
  6
Continuous
 62
    40
370
    15
100
AcDbLine
 10
4923.555678059536
 20
-150.0002319748336
 30
0.0
 11
4374.555678059536
 21
-150.0002319748336
 31
0.0
  0
LINE
  5
7B
330
1F
100
AcDbEntity
  8
0-6_カウンター
  6
Continuous
 62
    40
370
    15
100
AcDbLine
 10
4923.555678059536
 20
-105.0002319748336
 30
0.0
 11
4923.555678059536
 21
-150.0002319748336
 31
0.0
  0
LINE
  5
7C
330
1F
100
AcDbEntity
  8
0-0_補助線
  6
JWW_HOJO
 62
   120
370
     5
100
AcDbLine
 10
4406.055678059536
 20
-1080.000231974834
 30
0.0
 11
4923.555678059536
 21
-1080.000231974834
 31
0.0
  0
LINE
  5
7D
330
1F
100
AcDbEntity
  8
0-0_補助線
  6
JWW_HOJO
 62
   120
370
     5
100
AcDbLine
 10
4406.055678059536
 20
-1230.000231974834
 30
0.0
 11
4923.555678059536
 21
-1230.000231974834
 31
0.0
  0
LINE
  5
7E
330
1F
100
AcDbEntity
  8
0-0_補助線
  6
JWW_HOJO
 62
   120
370
     5
100
AcDbLine
 10
-5422.408793354003
 20
119.9997680251664
 30
0.0
 11
-5422.408793354003
 21
-1230.000231974834
 31
0.0
  0
LINE
  5
7F
330
1F
100
AcDbEntity
  8
0-0_補助線
  6
JWW_HOJO
 62
   120
370
     5
100
AcDbLine
 10
-5572.408793354003
 20
-150.0002319748336
 30
0.0
 11
-5572.408793354003
 21
-705.0002319748336
 31
0.0
  0
LINE
  5
80
330
1F
100
AcDbEntity
  8
0-B_寸法
  6
Continuous
 62
   120
370
     5
100
AcDbLine
 10
4406.055678059536
 20
-1230.000231974834
 30
0.0
 11
4923.555678059536
 21
-1230.000231974834
 31
0.0
  0
LWPOLYLINE
  5
81
330
1F
100
AcDbEntity
  8
0-B_寸法
  6
Continuous
 62
     7
370
     9
100
AcDbPolyline
 90
        4
 70
     1
 43
3.0
 10
4407.555678059536
 20
-1230.000231974834
 42
0.4142135623731
 10
4406.055678059536
 20
-1228.500231974834
 42
0.4142135623731
 10
4404.555678059535
 20
-1230.000231974834
 42
0.4142135623731
 10
4406.055678059536
 20
-1231.500231974833
 42
0.4142135623731
  0
LWPOLYLINE
  5
82
330
1F
100
AcDbEntity
  8
0-B_寸法
  6
Continuous
 62
     7
370
     9
100
AcDbPolyline
 90
        4
 70
     1
 43
3.0
 10
4925.055678059536
 20
-1230.000231974834
 42
0.4142135623731
 10
4923.555678059536
 20
-1228.500231974834
 42
0.4142135623731
 10
4922.055678059535
 20
-1230.000231974834
 42
0.4142135623731
 10
4923.555678059536
 20
-1231.500231974833
 42
0.4142135623731
  0
LINE
  5
83
330
1F
100
AcDbEntity
  8
0-B_寸法
  6
Continuous
 62
   120
370
     5
100
AcDbLine
 10
4406.055678059536
 20
-1230.000231974834
 30
0.0
 11
4406.055678059536
 21
-1080.000231974834
 31
0.0
  0
LINE
  5
84
330
1F
100
AcDbEntity
  8
0-B_寸法
  6
Continuous
 62
   120
370
     5
100
AcDbLine
 10
4923.555678059536
 20
-1230.000231974834
 30
0.0
 11
4923.555678059536
 21
-1080.000231974834
 31
0.0
  0
LINE
  5
85
330
1F
100
AcDbEntity
  8
0-B_寸法
  6
Continuous
 62
   120
370
     5
100
AcDbLine
 10
-5422.408793354003
 20
-105.0002319748336
 30
0.0
 11
-5422.408793354003
 21
-150.0002319748336
 31
0.0
  0
LWPOLYLINE
  5
86
330
1F
100
AcDbEntity
  8
0-B_寸法
  6
Continuous
 62
     7
370
     9
100
AcDbPolyline
 90
        4
 70
     1
 43
3.0
 10
-5420.908793354002
 20
-105.0002319748336
 42
0.4142135623731
 10
-5422.408793354003
 20
-103.5002319748336
 42
0.4142135623731
 10
-5423.908793354003
 20
-105.0002319748336
 42
0.4142135623731
 10
-5422.408793354003
 20
-106.5002319748336
 42
0.4142135623731
  0
LWPOLYLINE
  5
87
330
1F
100
AcDbEntity
  8
0-B_寸法
  6
Continuous
 62
     7
370
     9
100
AcDbPolyline
 90
        4
 70
     1
 43
3.0
 10
-5420.908793354002
 20
-150.0002319748336
 42
0.4142135623731
 10
-5422.408793354003
 20
-148.5002319748336
 42
0.4142135623731
 10
-5423.908793354003
 20
-150.0002319748336
 42
0.4142135623731
 10
-5422.408793354003
 20
-151.5002319748336
 42
0.4142135623731
  0
LINE
  5
88
330
1F
100
AcDbEntity
  8
0-B_寸法
  6
Continuous
 62
   120
370
     5
100
AcDbLine
 10
-5572.408793354003
 20
-105.0002319748336
 30
0.0
 11
-5272.408793354003
 21
-105.0002319748336
 31
0.0
  0
LINE
  5
89
330
1F
100
AcDbEntity
  8
0-B_寸法
  6
Continuous
 62
   120
370
     5
100
AcDbLine
 10
-5422.408793354003
 20
-150.0002319748336
 30
0.0
 11
-5272.408793354003
 21
-150.0002319748336
 31
0.0
  0
LINE
  5
8A
330
1F
100
AcDbEntity
  8
0-B_寸法
  6
Continuous
 62
   120
370
     5
100
AcDbLine
 10
-5422.408793354003
 20
-150.0002319748334
 30
0.0
 11
-5422.408793354003
 21
-705.0002319748336
 31
0.0
  0
LWPOLYLINE
  5
8B
330
1F
100
AcDbEntity
  8
0-B_寸法
  6
Continuous
 62
     7
370
     9
100
AcDbPolyline
 90
        4
 70
     1
 43
3.0
 10
-5420.908793354002
 20
-705.0002319748336
 42
0.4142135623731
 10
-5422.408793354003
 20
-703.5002319748336
 42
0.4142135623731
 10
-5423.908793354003
 20
-705.0002319748336
 42
0.4142135623731
 10
-5422.408793354003
 20
-706.5002319748336
 42
0.4142135623731
  0
LINE
  5
8C
330
1F
100
AcDbEntity
  8
0-B_寸法
  6
Continuous
 62
   120
370
     5
100
AcDbLine
 10
-5422.408793354003
 20
-705.0002319748336
 30
0.0
 11
-5272.408793354003
 21
-705.0002319748336
 31
0.0
  0
TEXT
  5
8D
330
1F
100
AcDbEntity
  8
0-B_寸法
  6
Continuous
 62
     7
370
   211
100
AcDbText
 10
-5450.098793354003
 20
-502.5002319748336
 30
0.0
 40
68.58
  1
370
 50
90.0
 41
1.111111111111111
  7
ＭＳ ゴシック
100
AcDbText
  0
LINE
  5
8E
330
1F
100
AcDbEntity
  8
0-B_寸法
  6
Continuous
 62
   120
370
     5
100
AcDbLine
 10
-5422.408793354003
 20
-705.0002319748336
 30
0.0
 11
-5422.408793354003
 21
-1005.000231974834
 31
0.0
  0
LWPOLYLINE
  5
8F
330
1F
100
AcDbEntity
  8
0-B_寸法
  6
Continuous
 62
     7
370
     9
100
AcDbPolyline
 90
        4
 70
     1
 43
3.0
 10
-5420.908793354002
 20
-1005.000231974834
 42
0.4142135623731
 10
-5422.408793354003
 20
-1003.500231974834
 42
0.4142135623731
 10
-5423.908793354003
 20
-1005.000231974834
 42
0.4142135623731
 10
-5422.408793354003
 20
-1006.500231974833
 42
0.4142135623731
  0
LINE
  5
90
330
1F
100
AcDbEntity
  8
0-B_寸法
  6
Continuous
 62
   120
370
     5
100
AcDbLine
 10
-5572.408793354003
 20
-1005.000231974834
 30
0.0
 11
-5272.408793354003
 21
-1005.000231974834
 31
0.0
  0
TEXT
  5
91
330
1F
100
AcDbEntity
  8
0-B_寸法
  6
Continuous
 62
     7
370
   211
100
AcDbText
 10
-5450.098793354003
 20
-930.0002319748336
 30
0.0
 40
68.58
  1
200
 50
90.0
 41
1.111111111111111
  7
ＭＳ ゴシック
100
AcDbText
  0
LINE
  5
92
330
1F
100
AcDbEntity
  8
0-B_寸法
  6
Continuous
 62
   120
370
     5
100
AcDbLine
 10
-5572.408793354003
 20
-105.0002319748336
 30
0.0
 11
-5572.408793354003
 21
-1005.000231974834
 31
0.0
  0
LWPOLYLINE
  5
93
330
1F
100
AcDbEntity
  8
0-B_寸法
  6
Continuous
 62
     7
370
     9
100
AcDbPolyline
 90
        4
 70
     1
 43
3.0
 10
-5570.908793354002
 20
-105.0002319748336
 42
0.4142135623731
 10
-5572.408793354003
 20
-103.5002319748336
 42
0.4142135623731
 10
-5573.908793354003
 20
-105.0002319748336
 42
0.4142135623731
 10
-5572.408793354003
 20
-106.5002319748336
 42
0.4142135623731
  0
LWPOLYLINE
  5
94
330
1F
100
AcDbEntity
  8
0-B_寸法
  6
Continuous
 62
     7
370
     9
100
AcDbPolyline
 90
        4
 70
     1
 43
3.0
 10
-5570.908793354002
 20
-1005.000231974834
 42
0.4142135623731
 10
-5572.408793354003
 20
-1003.500231974834
 42
0.4142135623731
 10
-5573.908793354003
 20
-1005.000231974834
 42
0.4142135623731
 10
-5572.408793354003
 20
-1006.500231974833
 42
0.4142135623731
  0
TEXT
  5
95
330
1F
100
AcDbEntity
  8
0-B_寸法
  6
Continuous
 62
     7
370
   211
100
AcDbText
 10
-5600.098793354003
 20
-630.0002319748336
 30
0.0
 40
68.58
  1
600
 50
90.0
 41
1.111111111111111
  7
ＭＳ ゴシック
100
AcDbText
  0
LINE
  5
96
330
1F
100
AcDbEntity
  8
0-A_文字
  6
Continuous
 62
     7
370
     9
100
AcDbLine
 10
-4499.999752560178
 20
3864.999983504013
 30
0.0
 11
-5782.499752560178
 21
3864.999983504013
 31
0.0
  0
LINE
  5
97
330
1F
100
AcDbEntity
  8
0-A_文字
  6
Continuous
 62
     7
370
     9
100
AcDbLine
 10
-4499.999752560178
 20
3639.999983504013
 30
0.0
 11
-5782.499752560178
 21
3639.999983504013
 31
0.0
  0
LINE
  5
98
330
1F
100
AcDbEntity
  8
0-A_文字
  6
Continuous
 62
     7
370
     9
100
AcDbLine
 10
-5782.499752560178
 20
3864.999983504013
 30
0.0
 11
-5782.499752560178
 21
3639.999983504013
 31
0.0
  0
LINE
  5
99
330
1F
100
AcDbEntity
  8
0-A_文字
  6
Continuous
 62
     7
370
     9
100
AcDbLine
 10
785.9225186636367
 20
-1750.500231974833
 30
0.0
 11
785.9225186636367
 21
-1975.500231974833
 31
0.0
  0
LINE
  5
9A
330
1F
100
AcDbEntity
  8
0-A_文字
  6
Continuous
 62
     7
370
     9
100
AcDbLine
 10
1985.922518663637
 20
-1750.500231974833
 30
0.0
 11
785.9225186636367
 21
-1750.500231974833
 31
0.0
  0
LINE
  5
9B
330
1F
100
AcDbEntity
  8
0-A_文字
  6
Continuous
 62
     7
370
     9
100
AcDbLine
 10
1985.922518663637
 20
-1975.500231974833
 30
0.0
 11
1985.922518663637
 21
-1750.500231974833
 31
0.0
  0
LINE
  5
9C
330
1F
100
AcDbEntity
  8
0-A_文字
  6
Continuous
 62
     7
370
     9
100
AcDbLine
 10
785.9225186636367
 20
-1975.500231974833
 30
0.0
 11
1985.922518663637
 21
-1975.500231974833
 31
0.0
  0
TEXT
  5
9D
330
1F
100
AcDbEntity
  8
0-A_文字
  6
Continuous
 62
     7
370
     9
100
AcDbText
 10
920.9225186636367
 20
-1906.080231974833
 30
0.0
 40
91.44
  1
キャビネット図
 41
1.107142857142857
  7
ＭＳ ゴシック
100
AcDbText
  0
LINE
  5
9E
330
1F
100
AcDbEntity
  8
0-0_補助線
  6
JWW_HOJO
 62
   120
370
     5
100
AcDbLine
 10
-793.577481336363
 20
-1530.000231974834
 30
0.0
 11
3556.422518663637
 21
-1530.000231974834
 31
0.0
  0
LINE
  5
9F
330
1F
100
AcDbEntity
  8
0-B_寸法
  6
Continuous
 62
   120
370
     5
100
AcDbLine
 10
-423.0774813363632
 20
119.9997680251664
 30
0.0
 11
3185.922518663637
 21
119.9997680251664
 31
0.0
  0
LWPOLYLINE
  5
A0
330
1F
100
AcDbEntity
  8
0-B_寸法
  6
Continuous
 62
     7
370
     9
100
AcDbPolyline
 90
        4
 70
     1
 43
3.0
 10
-421.5774813363632
 20
119.9997680251664
 42
0.4142135623731
 10
-423.0774813363632
 20
121.4997680251664
 42
0.4142135623731
 10
-424.5774813363632
 20
119.9997680251664
 42
0.4142135623731
 10
-423.0774813363632
 20
118.4997680251664
 42
0.4142135623731
  0
LWPOLYLINE
  5
A1
330
1F
100
AcDbEntity
  8
0-B_寸法
  6
Continuous
 62
     7
370
     9
100
AcDbPolyline
 90
        4
 70
     1
 43
3.0
 10
3187.422518663637
 20
119.9997680251664
 42
0.4142135623731
 10
3185.922518663637
 20
121.4997680251664
 42
0.4142135623731
 10
3184.422518663637
 20
119.9997680251664
 42
0.4142135623731
 10
3185.922518663637
 20
118.4997680251664
 42
0.4142135623731
  0
LINE
  5
A2
330
1F
100
AcDbEntity
  8
0-B_寸法
  6
Continuous
 62
   120
370
     5
100
AcDbLine
 10
-423.0774813363632
 20
119.9997680251664
 30
0.0
 11
-423.0774813363632
 21
-30.00023197483358
 31
0.0
  0
LINE
  5
A3
330
1F
100
AcDbEntity
  8
0-B_寸法
  6
Continuous
 62
   120
370
     5
100
AcDbLine
 10
3185.922518663637
 20
119.9997680251664
 30
0.0
 11
3185.922518663637
 21
-30.00023197483358
 31
0.0
  0
LINE
  5
A4
330
1F
100
AcDbEntity
  8
0-A_文字
  6
Continuous
 62
     7
370
     9
100
AcDbLine
 10
4064.805678059536
 20
-1750.500231974833
 30
0.0
 11
4064.805678059536
 21
-1975.500231974833
 31
0.0
  0
LINE
  5
A5
330
1F
100
AcDbEntity
  8
0-A_文字
  6
Continuous
 62
     7
370
     9
100
AcDbLine
 10
5264.805678059536
 20
-1750.500231974833
 30
0.0
 11
4064.805678059536
 21
-1750.500231974833
 31
0.0
  0
LINE
  5
A6
330
1F
100
AcDbEntity
  8
0-A_文字
  6
Continuous
 62
     7
370
     9
100
AcDbLine
 10
5264.805678059536
 20
-1975.500231974833
 30
0.0
 11
5264.805678059536
 21
-1750.500231974833
 31
0.0
  0
LINE
  5
A7
330
1F
100
AcDbEntity
  8
0-A_文字
  6
Continuous
 62
     7
370
     9
100
AcDbLine
 10
4064.805678059536
 20
-1975.500231974833
 30
0.0
 11
5264.805678059536
 21
-1975.500231974833
 31
0.0
  0
TEXT
  5
A8
330
1F
100
AcDbEntity
  8
0-A_文字
  6
Continuous
 62
     7
370
     9
100
AcDbText
 10
4334.805678059536
 20
-1906.080231974833
 30
0.0
 40
91.44
  1
断面図・・
 41
1.1
  7
ＭＳ ゴシック
100
AcDbText
  0
TEXT
  5
A9
330
1F
100
AcDbEntity
  8
0-A_文字
  6
Continuous
 62
     7
370
     9
100
AcDbText
 10
-5673.749752560178
 20
3709.419983504013
 30
0.0
 40
91.44
  1
リビングプラン１
 41
1.109375
  7
ＭＳ ゴシック
100
AcDbText
  0
TEXT
  5
AA
330
1F
100
AcDbEntity
  8
F-A_文字
  6
Continuous
 62
     7
370
     0
100
AcDbText
 10
5190.195950842071
 20
-4282.835333552935
 30
0.0
 40
68.58
  1
,
  7
ＭＳ ゴシック
100
AcDbText
  0
TEXT
  5
AB
330
1F
100
AcDbEntity
  8
F-A_文字
  6
Continuous
 62
     7
370
     0
100
AcDbText
 10
4923.937261915373
 20
-4284.22935697136
 30
0.0
 40
68.58
  1
$y
 41
1.083333333333333
  7
ＭＳ ゴシック
100
AcDbText
  0
TEXT
  5
AC
330
1F
100
AcDbEntity
  8
F-A_文字
  6
Continuous
 62
     7
370
     0
100
AcDbText
 10
5078.673982954195
 20
-4284.22935697136
 30
0.0
 40
68.58
  1
$m
 41
1.083333333333333
  7
ＭＳ ゴシック
100
AcDbText
  0
TEXT
  5
AD
330
1F
100
AcDbEntity
  8
F-A_文字
  6
Continuous
 62
     7
370
     0
100
AcDbText
 10
5233.410715437103
 20
-4284.22935697136
 30
0.0
 40
68.58
  1
$d
 41
1.083333333333333
  7
ＭＳ ゴシック
100
AcDbText
  0
TEXT
  5
AE
330
1F
100
AcDbEntity
  8
F-A_文字
  6
Continuous
 62
     7
370
     0
100
AcDbText
 10
5388.147447920011
 20
-4284.22935697136
 30
0.0
 40
68.58
  1
印刷
 41
1.083333333333333
  7
ＭＳ ゴシック
100
AcDbText
  0
TEXT
  5
AF
330
1F
100
AcDbEntity
  8
F-A_文字
  6
Continuous
 62
     7
370
     0
100
AcDbText
 10
5031.277143812345
 20
-4285.62338325081
 30
0.0
 40
68.58
  1
,
  7
ＭＳ ゴシック
100
AcDbText
  0
TEXT
  5
B0
330
1F
100
AcDbEntity
  8
F-A_文字
  6
Continuous
 62
     7
370
     0
100
AcDbText
 10
5608.403311109712
 20
-4281.441308703997
 30
0.0
 40
68.58
  1
）
  7
ＭＳ ゴシック
100
AcDbText
  0
TEXT
  5
B1
330
1F
100
AcDbEntity
  8
F-A_文字
  6
Continuous
 62
     7
370
     0
100
AcDbText
 10
4784.033374252999
 20
-4285.62338325081
 30
0.0
 40
68.58
  1
（
  7
ＭＳ ゴシック
100
AcDbText
  0
LINE
  5
B2
330
1F
100
AcDbEntity
  8
F-0_補助線
  6
JWW_HOJO
 62
     7
370
     9
100
AcDbLine
 10
849.9995876002961
 20
-3785.00005515846
 30
0.0
 11
849.9995876002961
 21
-4185.000060313456
 31
0.0
  0
LINE
  5
B3
330
1F
100
AcDbEntity
  8
F-0_補助線
  6
JWW_HOJO
 62
     7
370
     9
100
AcDbLine
 10
349.9999175200594
 20
-3785.00005515846
 30
0.0
 11
349.9999175200594
 21
-4185.000060313456
 31
0.0
  0
LINE
  5
B4
330
1F
100
AcDbEntity
  8
F-1_枠
  6
Continuous
 62
   200
370
    20
100
AcDbLine
 10
5699.998762800888
 20
-4195.00005464296
 30
0.0
 11
-5999.999752560178
 21
-4195.00005464296
 31
0.0
  0
LINE
  5
B5
330
1F
100
AcDbEntity
  8
F-1_枠
  6
Continuous
 62
   200
370
    20
100
AcDbLine
 10
5699.998762800888
 20
-4190.000045879467
 30
0.0
 11
-5999.999752560178
 21
-4190.000045879467
 31
0.0
  0
LINE
  5
B6
330
1F
100
AcDbEntity
  8
F-1_枠
  6
Continuous
 62
   200
370
    20
100
AcDbLine
 10
5699.998762800888
 20
-4185.000060313456
 30
0.0
 11
-5999.999752560178
 21
-4185.000060313456
 31
0.0
  0
LINE
  5
B7
330
1F
100
AcDbEntity
  8
F-1_枠
  6
Continuous
 62
   200
370
    20
100
AcDbLine
 10
4189.999224688556
 20
-3785.00005515846
 30
0.0
 11
4189.999224688556
 21
-4185.000060313456
 31
0.0
  0
LINE
  5
B8
330
1F
100
AcDbEntity
  8
F-1_枠
  6
Continuous
 62
   200
370
    20
100
AcDbLine
 10
2689.998729808911
 20
-3785.00005515846
 30
0.0
 11
2689.998729808911
 21
-4185.000060313456
 31
0.0
  0
LINE
  5
B9
330
1F
100
AcDbEntity
  8
F-1_枠
  6
Continuous
 62
   200
370
    20
100
AcDbLine
 10
-150.0001237199109
 20
-3785.00005515846
 30
0.0
 11
-150.0001237199109
 21
-4185.000060313456
 31
0.0
  0
LINE
  5
BA
330
1F
100
AcDbEntity
  8
F-1_枠
  6
Continuous
 62
   200
370
    20
100
AcDbLine
 10
-150.0001237199109
 20
-3984.999988143508
 30
0.0
 11
5689.998977248734
 21
-3985.005416354617
 31
0.0
  0
LINE
  5
BB
330
1F
100
AcDbEntity
  8
F-0_補助線
  6
JWW_HOJO
 62
     7
370
     9
100
AcDbLine
 10
-5989.999990205507
 20
-3984.999988143853
 30
0.0
 11
-150.0001237199109
 21
-3984.999988143853
 31
0.0
  0
LINE
  5
BC
330
1F
100
AcDbEntity
  8
F-0_補助線
  6
JWW_HOJO
 62
     7
370
     9
100
AcDbLine
 10
-5989.999990205507
 20
-3894.999988143853
 30
0.0
 11
-150.0001237199109
 21
-3894.999988143853
 31
0.0
  0
LINE
  5
BD
330
1F
100
AcDbEntity
  8
F-0_補助線
  6
JWW_HOJO
 62
     7
370
     9
100
AcDbLine
 10
-5989.999990205507
 20
-4074.999988143853
 30
0.0
 11
-150.0001237199109
 21
-4074.999988143853
 31
0.0
  0
LINE
  5
BE
330
1F
100
AcDbEntity
  8
F-0_補助線
  6
JWW_HOJO
 62
     7
370
     9
100
AcDbLine
 10
-150.0002584955388
 20
-4129.999791843446
 30
0.0
 11
5689.998842473105
 21
-4130.005220054553
 31
0.0
  0
LINE
  5
BF
330
1F
100
AcDbEntity
  8
F-0_補助線
  6
JWW_HOJO
 62
     7
370
     9
100
AcDbLine
 10
-150.0001748415872
 20
-4039.999791843484
 30
0.0
 11
5689.998926127057
 21
-4040.005220054593
 31
0.0
  0
LINE
  5
C0
330
1F
100
AcDbEntity
  8
F-0_補助線
  6
JWW_HOJO
 62
     7
370
     9
100
AcDbLine
 10
-150.0000725978671
 20
-3929.999789283532
 30
0.0
 11
5689.999028370777
 21
-3930.005217494641
 31
0.0
  0
LINE
  5
C1
330
1F
100
AcDbEntity
  8
F-0_補助線
  6
JWW_HOJO
 62
     7
370
     9
100
AcDbLine
 10
-149.9999889439155
 20
-3839.999789283571
 30
0.0
 11
5689.999112024728
 21
-3840.00521749468
 31
0.0
  0
LINE
  5
C2
330
1F
100
AcDbEntity
  8
F-0_補助線
  6
JWW_HOJO
 62
     7
370
     9
100
AcDbLine
 10
2779.998729808911
 20
-3785.00005515846
 30
0.0
 11
2779.998729808911
 21
-4185.000060313456
 31
0.0
  0
LINE
  5
C3
330
1F
100
AcDbEntity
  8
F-0_補助線
  6
JWW_HOJO
 62
     7
370
     9
100
AcDbLine
 10
-60.0001237199109
 20
-3785.00005515846
 30
0.0
 11
-60.0001237199109
 21
-4185.000060313456
 31
0.0
  0
LINE
  5
C4
330
1F
100
AcDbEntity
  8
F-0_補助線
  6
JWW_HOJO
 62
     7
370
     9
100
AcDbLine
 10
4279.999224688556
 20
-3785.00005515846
 30
0.0
 11
4279.999224688556
 21
-4185.000060313456
 31
0.0
  0
TEXT
  5
C5
330
1F
100
AcDbEntity
  8
F-A_文字
  6
Continuous
 62
     7
370
     0
100
AcDbText
 10
4279.999224688556
 20
-3861.543906916216
 30
0.0
 40
45.72
  1
ＤＡＴＥ
  7
ＭＳ ゴシック
100
AcDbText
  0
TEXT
  5
C6
330
1F
100
AcDbEntity
  8
F-A_文字
  6
Continuous
 62
     7
370
     0
100
AcDbText
 10
4279.999224688556
 20
-4061.543909476301
 30
0.0
 40
45.72
  1
ＮＯ．
  7
ＭＳ ゴシック
100
AcDbText
  0
TEXT
  5
C7
330
1F
100
AcDbEntity
  8
F-A_文字
  6
Continuous
 62
     7
370
     0
100
AcDbText
 10
2779.998729808911
 20
-3861.542512683236
 30
0.0
 40
45.72
  1
ＳＣＡＬＥ
  7
ＭＳ ゴシック
100
AcDbText
  0
TEXT
  5
C8
330
1F
100
AcDbEntity
  8
F-A_文字
  6
Continuous
 62
     7
370
     0
100
AcDbText
 10
2779.998729808911
 20
-4061.542515243322
 30
0.0
 40
45.72
  1
ＦＩＬＥ
  7
ＭＳ ゴシック
100
AcDbText
  0
TEXT
  5
C9
330
1F
100
AcDbEntity
  8
F-A_文字
  6
Continuous
 62
     7
370
     0
100
AcDbText
 10
-60.0001237199109
 20
-3861.539872937397
 30
0.0
 40
45.72
  1
図面名
  7
ＭＳ ゴシック
100
AcDbText
  0
TEXT
  5
CA
330
1F
100
AcDbEntity
  8
F-A_文字
  6
Continuous
 62
     7
370
     0
100
AcDbText
 10
1444.998729808911
 20
-4128.08243158939
 30
0.0
 40
91.44
  1
ウッドワン・・・
 41
1.109375
  7
ＭＳ ゴシック
100
AcDbText
  0
TEXT
  5
CB
330
1F
100
AcDbEntity
  8
F-A_文字
  6
Continuous
 62
     7
370
     0
100
AcDbText
 10
1234.998729808911
 20
-4070.54072133161
 30
0.0
 40
45.72
  1
株式
  7
ＭＳ ゴシック
100
AcDbText
  0
TEXT
  5
CC
330
1F
100
AcDbEntity
  8
F-A_文字
  6
Continuous
 62
     7
370
     0
100
AcDbText
 10
1234.998729808911
 20
-4142.540721331648
 30
0.0
 40
45.72
  1
会社
  7
ＭＳ ゴシック
100
AcDbText
  0
LINE
  5
CD
330
1F
100
AcDbEntity
  8
F-1_枠
  6
Continuous
 62
   200
370
    20
100
AcDbLine
 10
5699.998762800888
 20
-3785.00005515846
 30
0.0
 11
-5999.999752560178
 21
-3785.00005515846
 31
0.0
  0
LINE
  5
CE
330
1F
100
AcDbEntity
  8
F-1_枠
  6
Continuous
 62
   200
370
    20
100
AcDbLine
 10
5699.998762800888
 20
-3780.00006959245
 30
0.0
 11
-5999.999752560178
 21
-3780.00006959245
 31
0.0
  0
LINE
  5
CF
330
1F
100
AcDbEntity
  8
F-0_補助線
  6
JWW_HOJO
 62
     7
370
     9
100
AcDbLine
 10
-5247.547376752838
 20
-3785.000055158461
 30
0.0
 11
-5247.547376752838
 21
-4195.000217025344
 31
0.0
  0
LINE
  5
D0
330
1F
100
AcDbEntity
  8
F-0_補助線
  6
JWW_HOJO
 62
     7
370
     9
100
AcDbLine
 10
-210.0001237199109
 20
-3785.00005515846
 30
0.0
 11
-210.0001237199109
 21
-4185.000060313456
 31
0.0
  0
TEXT
  5
D1
330
1F
100
AcDbEntity
  8
F-A_文字
  6
Continuous
 62
     7
370
     9
100
AcDbText
 10
4936.249033580831
 20
-4117.314564765447
 30
0.0
 40
68.58
  1
02
 41
1.083333333333333
  7
ＭＳ ゴシック
100
AcDbText
  0
TEXT
  5
D2
330
1F
100
AcDbEntity
  8
F-A_文字
  6
Continuous
 62
     7
370
     0
100
AcDbText
 10
4778.749126529666
 20
-3909.814562205428
 30
0.0
 40
68.58
  1
07.05.23
 41
1.145833333333333
  7
ＭＳ ゴシック
100
AcDbText
  0
TEXT
  5
D3
330
1F
100
AcDbEntity
  8
F-A_文字
  6
Continuous
 62
     7
370
     9
100
AcDbText
 10
3252.498977248734
 20
-4117.313170532875
 30
0.0
 40
68.58
  1
TQP01_C02
 41
1.148148148148148
  7
ＭＳ ゴシック
100
AcDbText
  0
TEXT
  5
D4
330
1F
100
AcDbEntity
  8
F-A_文字
  6
Continuous
 62
     7
370
     0
100
AcDbText
 10
3383.748977248734
 20
-3917.313167972789
 30
0.0
 40
68.58
  1
1/20
 41
1.125
  7
ＭＳ ゴシック
100
AcDbText
  0
TEXT
  5
D5
330
1F
100
AcDbEntity
  8
F-A_文字
  6
Continuous
 62
     7
370
     0
100
AcDbText
 10
349.9999175200594
 20
-3918.097343937965
 30
0.0
 40
66.06
  1
ＧＲＡＮＳＴＡＧＥ
 41
0.8333333333333339
  7
HG明朝B
100
AcDbText
  0
TEXT
  5
D6
330
1F
100
AcDbEntity
  8
F-A_文字
  6
Continuous
 62
     7
370
     0
100
AcDbText
 10
1180.417701903719
 20
-3917.310213665301
 30
0.0
 40
68.58
  1
造り付け家具
 41
1.138888888888889
  7
ＭＳ ゴシック
100
AcDbText
  0
TEXT
  5
D7
330
1F
100
AcDbEntity
  8
F-A_文字
  6
Continuous
 62
     7
370
     0
100
AcDbText
 10
-5239.999990205507
 20
-4017.309988143852
 30
0.0
 40
68.58
  1
グランステージ　造り付け家具　参考プラン（リビング１）
 41
1.160493827160494
  7
ＭＳ ゴシック
100
AcDbText
  0
LINE
  5
D8
330
1F
100
AcDbEntity
  8
0-1_本体
  6
Continuous
 62
    92
370
    13
100
AcDbLine
 10
-5197.408793354003
 20
-705.0002319748334
 30
0.0
 11
-3997.408793354003
 21
-705.0002319748334
 31
0.0
  0
LINE
  5
D9
330
1F
100
AcDbEntity
  8
0-1_本体
  6
Continuous
 62
    92
370
    13
100
AcDbLine
 10
-3997.408793354003
 20
-705.0002319748334
 30
0.0
 11
-3997.408793354003
 21
-150.0002319748334
 31
0.0
  0
LINE
  5
DA
330
1F
100
AcDbEntity
  8
0-1_本体
  6
Continuous
 62
    92
370
    13
100
AcDbLine
 10
-3997.408793354003
 20
-150.0002319748334
 30
0.0
 11
-5197.408793354003
 21
-150.0002319748334
 31
0.0
  0
LINE
  5
DB
330
1F
100
AcDbEntity
  8
0-1_本体
  6
Continuous
 62
    92
370
    13
100
AcDbLine
 10
-5197.408793354003
 20
-150.0002319748334
 30
0.0
 11
-5197.408793354003
 21
-705.0002319748334
 31
0.0
  0
LINE
  5
DC
330
1F
100
AcDbEntity
  8
0-2_扉
  6
Continuous
 62
    92
370
    13
100
AcDbLine
 10
-4599.658793354002
 20
-680.2502319748332
 30
0.0
 11
-4599.658793354002
 21
-174.750231974833
 31
0.0
  0
LINE
  5
DD
330
1F
100
AcDbEntity
  8
0-2_扉
  6
Continuous
 62
    92
370
    13
100
AcDbLine
 10
-4595.158793354002
 20
-680.2502319748332
 30
0.0
 11
-4595.158793354002
 21
-174.750231974833
 31
0.0
  0
LINE
  5
DE
330
1F
100
AcDbEntity
  8
0-2_扉
  6
Continuous
 62
    92
370
    13
100
AcDbLine
 10
-4599.658793354002
 20
-174.750231974833
 30
0.0
 11
-5194.408793354003
 21
-174.750231974833
 31
0.0
  0
LINE
  5
DF
330
1F
100
AcDbEntity
  8
0-2_扉
  6
Continuous
 62
    92
370
    13
100
AcDbLine
 10
-5194.408793354003
 20
-174.750231974833
 30
0.0
 11
-5194.408793354003
 21
-680.2502319748332
 31
0.0
  0
LINE
  5
E0
330
1F
100
AcDbEntity
  8
0-2_扉
  6
Continuous
 62
    92
370
    13
100
AcDbLine
 10
-5194.408793354003
 20
-680.2502319748332
 30
0.0
 11
-4599.658793354002
 21
-680.2502319748332
 31
0.0
  0
LINE
  5
E1
330
1F
100
AcDbEntity
  8
0-2_扉
  6
Continuous
 62
    92
370
    13
100
AcDbLine
 10
-4000.408793354003
 20
-174.750231974833
 30
0.0
 11
-4595.158793354002
 21
-174.750231974833
 31
0.0
  0
LINE
  5
E2
330
1F
100
AcDbEntity
  8
0-2_扉
  6
Continuous
 62
    92
370
    13
100
AcDbLine
 10
-4000.408793354003
 20
-680.2502319748332
 30
0.0
 11
-4000.408793354003
 21
-174.750231974833
 31
0.0
  0
LINE
  5
E3
330
1F
100
AcDbEntity
  8
0-2_扉
  6
Continuous
 62
    92
370
    13
100
AcDbLine
 10
-4595.158793354002
 20
-680.2502319748332
 30
0.0
 11
-4000.408793354003
 21
-680.2502319748332
 31
0.0
  0
LINE
  5
E4
330
1F
100
AcDbEntity
  8
0-2_扉
  6
JWW_CENTER1
 62
   120
370
     5
100
AcDbLine
 10
-4599.658793354002
 20
-174.750231974833
 30
0.0
 11
-5194.408793354003
 21
-427.5002319748334
 31
0.0
  0
LINE
  5
E5
330
1F
100
AcDbEntity
  8
0-2_扉
  6
JWW_CENTER1
 62
   120
370
     5
100
AcDbLine
 10
-5194.408793354003
 20
-427.5002319748334
 30
0.0
 11
-4599.658793354002
 21
-680.2502319748332
 31
0.0
  0
LINE
  5
E6
330
1F
100
AcDbEntity
  8
0-2_扉
  6
JWW_CENTER1
 62
   120
370
     5
100
AcDbLine
 10
-4595.158793354002
 20
-680.2502319748332
 30
0.0
 11
-4000.408793354003
 21
-427.5002319748334
 31
0.0
  0
LINE
  5
E7
330
1F
100
AcDbEntity
  8
0-2_扉
  6
JWW_CENTER1
 62
   120
370
     5
100
AcDbLine
 10
-4000.408793354003
 20
-427.5002319748334
 30
0.0
 11
-4595.158793354002
 21
-174.750231974833
 31
0.0
  0
LINE
  5
E8
330
1F
100
AcDbEntity
  8
0-1_本体
  6
Continuous
 62
    92
370
    13
100
AcDbLine
 10
-5174.158793354002
 20
-680.2502319748332
 30
0.0
 11
-5174.158793354002
 21
-705.0002319748334
 31
0.0
  0
LINE
  5
E9
330
1F
100
AcDbEntity
  8
0-1_本体
  6
Continuous
 62
    92
370
    13
100
AcDbLine
 10
-4020.658793354003
 20
-705.0002319748334
 30
0.0
 11
-4020.658793354003
 21
-680.2502319748332
 31
0.0
  0
LINE
  5
EA
330
1F
100
AcDbEntity
  8
0-B_寸法
  6
Continuous
 62
   120
370
     5
100
AcDbLine
 10
-1372.408793354003
 20
63.00048462089194
 30
0.0
 11
-1372.408793354003
 21
-922.2361253173334
 31
0.0
  0
LWPOLYLINE
  5
EB
330
1F
100
AcDbEntity
  8
0-B_寸法
  6
Continuous
 62
     7
370
     9
100
AcDbPolyline
 90
        4
 70
     1
 43
3.0
 10
-1370.908793354003
 20
-150.0002319748334
 42
0.4142135623731
 10
-1372.408793354003
 20
-148.5002319748334
 42
0.4142135623731
 10
-1373.908793354003
 20
-150.0002319748334
 42
0.4142135623731
 10
-1372.408793354003
 20
-151.5002319748334
 42
0.4142135623731
  0
LWPOLYLINE
  5
EC
330
1F
100
AcDbEntity
  8
0-B_寸法
  6
Continuous
 62
     7
370
     9
100
AcDbPolyline
 90
        4
 70
     1
 43
3.0
 10
-1370.908793354003
 20
-174.750231974833
 42
0.4142135623731
 10
-1372.408793354003
 20
-173.250231974833
 42
0.4142135623731
 10
-1373.908793354003
 20
-174.750231974833
 42
0.4142135623731
 10
-1372.408793354003
 20
-176.250231974833
 42
0.4142135623731
  0
LINE
  5
ED
330
1F
100
AcDbEntity
  8
0-B_寸法
  6
Continuous
 62
   120
370
     5
100
AcDbLine
 10
-1372.408793354003
 20
-150.0002319748334
 30
0.0
 11
-1522.408793354003
 21
-150.0002319748334
 31
0.0
  0
LINE
  5
EE
330
1F
100
AcDbEntity
  8
0-B_寸法
  6
Continuous
 62
   120
370
     5
100
AcDbLine
 10
-1372.408793354003
 20
-174.750231974833
 30
0.0
 11
-1522.408793354003
 21
-174.750231974833
 31
0.0
  0
LWPOLYLINE
  5
EF
330
1F
100
AcDbEntity
  8
0-B_寸法
  6
Continuous
 62
     7
370
     9
100
AcDbPolyline
 90
        4
 70
     1
 43
3.0
 10
-1370.908793354003
 20
-680.2502319748332
 42
0.4142135623731
 10
-1372.408793354003
 20
-678.7502319748332
 42
0.4142135623731
 10
-1373.908793354003
 20
-680.2502319748332
 42
0.4142135623731
 10
-1372.408793354003
 20
-681.7502319748334
 42
0.4142135623731
  0
LINE
  5
F0
330
1F
100
AcDbEntity
  8
0-B_寸法
  6
Continuous
 62
   120
370
     5
100
AcDbLine
 10
-1372.408793354003
 20
-680.2502319748332
 30
0.0
 11
-1522.408793354003
 21
-680.2502319748332
 31
0.0
  0
LWPOLYLINE
  5
F1
330
1F
100
AcDbEntity
  8
0-B_寸法
  6
Continuous
 62
     7
370
     9
100
AcDbPolyline
 90
        4
 70
     1
 43
3.0
 10
-1370.908793354003
 20
-705.0002319748334
 42
0.4142135623731
 10
-1372.408793354003
 20
-703.5002319748334
 42
0.4142135623731
 10
-1373.908793354003
 20
-705.0002319748334
 42
0.4142135623731
 10
-1372.408793354003
 20
-706.5002319748334
 42
0.4142135623731
  0
LINE
  5
F2
330
1F
100
AcDbEntity
  8
0-B_寸法
  6
Continuous
 62
   120
370
     5
100
AcDbLine
 10
-1372.408793354003
 20
-705.0002319748334
 30
0.0
 11
-1522.408793354003
 21
-705.0002319748334
 31
0.0
  0
TEXT
  5
F3
330
1F
100
AcDbEntity
  8
0-B_寸法
  6
Continuous
 62
     7
370
   211
100
AcDbText
 10
-1400.098793354003
 20
-139.4995153791083
 30
0.0
 40
68.58
  1
16.5
 50
90.0
 41
1.125000000000001
  7
ＭＳ ゴシック
100
AcDbText
  0
TEXT
  5
F4
330
1F
100
AcDbEntity
  8
0-B_寸法
  6
Continuous
 62
     7
370
   211
100
AcDbText
 10
-1400.098793354003
 20
-922.2361253173334
 30
0.0
 40
68.58
  1
16.5
 50
90.0
 41
1.125
  7
ＭＳ ゴシック
100
AcDbText
  0
TEXT
  5
F5
330
1F
100
AcDbEntity
  8
0-B_寸法
  6
Continuous
 62
     7
370
   211
100
AcDbText
 10
-1400.098793354003
 20
-633.7502319748334
 30
0.0
 40
68.58
  1
ＤＨ＝337
 50
90.0
 41
1.018518518518519
  7
ＭＳ ゴシック
100
AcDbText
  0
LINE
  5
F6
330
1F
100
AcDbEntity
  8
0-1_本体
  6
Continuous
 62
    92
370
    13
100
AcDbLine
 10
-3997.408793354003
 20
-705.0002319748334
 30
0.0
 11
-2797.408793354003
 21
-705.0002319748334
 31
0.0
  0
LINE
  5
F7
330
1F
100
AcDbEntity
  8
0-1_本体
  6
Continuous
 62
    92
370
    13
100
AcDbLine
 10
-2797.408793354003
 20
-705.0002319748334
 30
0.0
 11
-2797.408793354003
 21
-150.0002319748334
 31
0.0
  0
LINE
  5
F8
330
1F
100
AcDbEntity
  8
0-1_本体
  6
Continuous
 62
    92
370
    13
100
AcDbLine
 10
-2797.408793354003
 20
-150.0002319748334
 30
0.0
 11
-3997.408793354003
 21
-150.0002319748334
 31
0.0
  0
LINE
  5
F9
330
1F
100
AcDbEntity
  8
0-2_扉
  6
Continuous
 62
    92
370
    13
100
AcDbLine
 10
-3399.658793354002
 20
-680.2502319748332
 30
0.0
 11
-3399.658793354002
 21
-174.750231974833
 31
0.0
  0
LINE
  5
FA
330
1F
100
AcDbEntity
  8
0-2_扉
  6
Continuous
 62
    92
370
    13
100
AcDbLine
 10
-3395.158793354002
 20
-680.2502319748332
 30
0.0
 11
-3395.158793354002
 21
-174.750231974833
 31
0.0
  0
LINE
  5
FB
330
1F
100
AcDbEntity
  8
0-2_扉
  6
Continuous
 62
    92
370
    13
100
AcDbLine
 10
-3399.658793354002
 20
-174.750231974833
 30
0.0
 11
-3994.408793354003
 21
-174.750231974833
 31
0.0
  0
LINE
  5
FC
330
1F
100
AcDbEntity
  8
0-2_扉
  6
Continuous
 62
    92
370
    13
100
AcDbLine
 10
-3994.408793354003
 20
-174.750231974833
 30
0.0
 11
-3994.408793354003
 21
-680.2502319748332
 31
0.0
  0
LINE
  5
FD
330
1F
100
AcDbEntity
  8
0-2_扉
  6
Continuous
 62
    92
370
    13
100
AcDbLine
 10
-3994.408793354003
 20
-680.2502319748332
 30
0.0
 11
-3399.658793354002
 21
-680.2502319748332
 31
0.0
  0
LINE
  5
FE
330
1F
100
AcDbEntity
  8
0-2_扉
  6
Continuous
 62
    92
370
    13
100
AcDbLine
 10
-2800.408793354003
 20
-174.750231974833
 30
0.0
 11
-3395.158793354002
 21
-174.750231974833
 31
0.0
  0
LINE
  5
FF
330
1F
100
AcDbEntity
  8
0-2_扉
  6
Continuous
 62
    92
370
    13
100
AcDbLine
 10
-2800.408793354003
 20
-680.2502319748332
 30
0.0
 11
-2800.408793354003
 21
-174.750231974833
 31
0.0
  0
LINE
  5
100
330
1F
100
AcDbEntity
  8
0-2_扉
  6
Continuous
 62
    92
370
    13
100
AcDbLine
 10
-3395.158793354002
 20
-680.2502319748332
 30
0.0
 11
-2800.408793354003
 21
-680.2502319748332
 31
0.0
  0
LINE
  5
101
330
1F
100
AcDbEntity
  8
0-2_扉
  6
JWW_CENTER1
 62
   120
370
     5
100
AcDbLine
 10
-3399.658793354002
 20
-174.750231974833
 30
0.0
 11
-3994.408793354003
 21
-427.5002319748334
 31
0.0
  0
LINE
  5
102
330
1F
100
AcDbEntity
  8
0-2_扉
  6
JWW_CENTER1
 62
   120
370
     5
100
AcDbLine
 10
-3994.408793354003
 20
-427.5002319748334
 30
0.0
 11
-3399.658793354002
 21
-680.2502319748332
 31
0.0
  0
LINE
  5
103
330
1F
100
AcDbEntity
  8
0-2_扉
  6
JWW_CENTER1
 62
   120
370
     5
100
AcDbLine
 10
-3395.158793354002
 20
-680.2502319748332
 30
0.0
 11
-2800.408793354003
 21
-427.5002319748334
 31
0.0
  0
LINE
  5
104
330
1F
100
AcDbEntity
  8
0-2_扉
  6
JWW_CENTER1
 62
   120
370
     5
100
AcDbLine
 10
-2800.408793354003
 20
-427.5002319748334
 30
0.0
 11
-3395.158793354002
 21
-174.750231974833
 31
0.0
  0
LINE
  5
105
330
1F
100
AcDbEntity
  8
0-1_本体
  6
Continuous
 62
    92
370
    13
100
AcDbLine
 10
-3974.158793354003
 20
-680.2502319748332
 30
0.0
 11
-3974.158793354003
 21
-705.0002319748334
 31
0.0
  0
LINE
  5
106
330
1F
100
AcDbEntity
  8
0-1_本体
  6
Continuous
 62
    92
370
    13
100
AcDbLine
 10
-2820.658793354003
 20
-705.0002319748334
 30
0.0
 11
-2820.658793354003
 21
-680.2502319748332
 31
0.0
  0
LINE
  5
107
330
1F
100
AcDbEntity
  8
0-1_本体
  6
Continuous
 62
    92
370
    13
100
AcDbLine
 10
-2797.408793354003
 20
-705.0002319748334
 30
0.0
 11
-1597.408793354003
 21
-705.0002319748334
 31
0.0
  0
LINE
  5
108
330
1F
100
AcDbEntity
  8
0-1_本体
  6
Continuous
 62
    92
370
    13
100
AcDbLine
 10
-1597.408793354003
 20
-705.0002319748334
 30
0.0
 11
-1597.408793354003
 21
-150.0002319748334
 31
0.0
  0
LINE
  5
109
330
1F
100
AcDbEntity
  8
0-1_本体
  6
Continuous
 62
    92
370
    13
100
AcDbLine
 10
-1597.408793354003
 20
-150.0002319748334
 30
0.0
 11
-2797.408793354003
 21
-150.0002319748334
 31
0.0
  0
LINE
  5
10A
330
1F
100
AcDbEntity
  8
0-2_扉
  6
Continuous
 62
    92
370
    13
100
AcDbLine
 10
-2199.658793354002
 20
-680.2502319748332
 30
0.0
 11
-2199.658793354002
 21
-174.750231974833
 31
0.0
  0
LINE
  5
10B
330
1F
100
AcDbEntity
  8
0-2_扉
  6
Continuous
 62
    92
370
    13
100
AcDbLine
 10
-2195.158793354002
 20
-680.2502319748332
 30
0.0
 11
-2195.158793354002
 21
-174.750231974833
 31
0.0
  0
LINE
  5
10C
330
1F
100
AcDbEntity
  8
0-2_扉
  6
Continuous
 62
    92
370
    13
100
AcDbLine
 10
-2199.658793354002
 20
-174.750231974833
 30
0.0
 11
-2794.408793354003
 21
-174.750231974833
 31
0.0
  0
LINE
  5
10D
330
1F
100
AcDbEntity
  8
0-2_扉
  6
Continuous
 62
    92
370
    13
100
AcDbLine
 10
-2794.408793354003
 20
-174.750231974833
 30
0.0
 11
-2794.408793354003
 21
-680.2502319748332
 31
0.0
  0
LINE
  5
10E
330
1F
100
AcDbEntity
  8
0-2_扉
  6
Continuous
 62
    92
370
    13
100
AcDbLine
 10
-2794.408793354003
 20
-680.2502319748332
 30
0.0
 11
-2199.658793354002
 21
-680.2502319748332
 31
0.0
  0
LINE
  5
10F
330
1F
100
AcDbEntity
  8
0-2_扉
  6
Continuous
 62
    92
370
    13
100
AcDbLine
 10
-1600.408793354003
 20
-174.750231974833
 30
0.0
 11
-2195.158793354002
 21
-174.750231974833
 31
0.0
  0
LINE
  5
110
330
1F
100
AcDbEntity
  8
0-2_扉
  6
Continuous
 62
    92
370
    13
100
AcDbLine
 10
-1600.408793354003
 20
-680.2502319748332
 30
0.0
 11
-1600.408793354003
 21
-174.750231974833
 31
0.0
  0
LINE
  5
111
330
1F
100
AcDbEntity
  8
0-2_扉
  6
Continuous
 62
    92
370
    13
100
AcDbLine
 10
-2195.158793354002
 20
-680.2502319748332
 30
0.0
 11
-1600.408793354003
 21
-680.2502319748332
 31
0.0
  0
LINE
  5
112
330
1F
100
AcDbEntity
  8
0-2_扉
  6
JWW_CENTER1
 62
   120
370
     5
100
AcDbLine
 10
-2199.658793354002
 20
-174.750231974833
 30
0.0
 11
-2794.408793354003
 21
-427.5002319748334
 31
0.0
  0
LINE
  5
113
330
1F
100
AcDbEntity
  8
0-2_扉
  6
JWW_CENTER1
 62
   120
370
     5
100
AcDbLine
 10
-2794.408793354003
 20
-427.5002319748334
 30
0.0
 11
-2199.658793354002
 21
-680.2502319748332
 31
0.0
  0
LINE
  5
114
330
1F
100
AcDbEntity
  8
0-2_扉
  6
JWW_CENTER1
 62
   120
370
     5
100
AcDbLine
 10
-2195.158793354002
 20
-680.2502319748332
 30
0.0
 11
-1600.408793354003
 21
-427.5002319748334
 31
0.0
  0
LINE
  5
115
330
1F
100
AcDbEntity
  8
0-2_扉
  6
JWW_CENTER1
 62
   120
370
     5
100
AcDbLine
 10
-1600.408793354003
 20
-427.5002319748334
 30
0.0
 11
-2195.158793354002
 21
-174.750231974833
 31
0.0
  0
LINE
  5
116
330
1F
100
AcDbEntity
  8
0-1_本体
  6
Continuous
 62
    92
370
    13
100
AcDbLine
 10
-2774.158793354003
 20
-680.2502319748332
 30
0.0
 11
-2774.158793354003
 21
-705.0002319748334
 31
0.0
  0
LINE
  5
117
330
1F
100
AcDbEntity
  8
0-1_本体
  6
Continuous
 62
    92
370
    13
100
AcDbLine
 10
-1620.658793354003
 20
-705.0002319748334
 30
0.0
 11
-1620.658793354003
 21
-680.2502319748332
 31
0.0
  0
LINE
  5
118
330
1F
100
AcDbEntity
  8
0-0_補助線
  6
JWW_HOJO
 62
   120
370
     5
100
AcDbLine
 10
-1372.408793354003
 20
119.9997680251664
 30
0.0
 11
-5422.408793354003
 21
119.9997680251664
 31
0.0
  0
LINE
  5
119
330
1F
100
AcDbEntity
  8
0-0_補助線
  6
JWW_HOJO
 62
   120
370
     5
100
AcDbLine
 10
-1522.408793354003
 20
-30.00023197483358
 30
0.0
 11
-5272.408793354003
 21
-30.00023197483358
 31
0.0
  0
LINE
  5
11A
330
1F
100
AcDbEntity
  8
0-B_寸法
  6
Continuous
 62
   120
370
     5
100
AcDbLine
 10
-5197.408793354003
 20
119.9997680251664
 30
0.0
 11
-5194.408793354003
 21
119.9997680251664
 31
0.0
  0
LWPOLYLINE
  5
11B
330
1F
100
AcDbEntity
  8
0-B_寸法
  6
Continuous
 62
     7
370
     9
100
AcDbPolyline
 90
        4
 70
     1
 43
3.0
 10
-5195.908793354002
 20
119.9997680251664
 42
0.4142135623731
 10
-5197.408793354003
 20
121.4997680251664
 42
0.4142135623731
 10
-5198.908793354003
 20
119.9997680251664
 42
0.4142135623731
 10
-5197.408793354003
 20
118.4997680251664
 42
0.4142135623731
  0
LWPOLYLINE
  5
11C
330
1F
100
AcDbEntity
  8
0-B_寸法
  6
Continuous
 62
     7
370
     9
100
AcDbPolyline
 90
        4
 70
     1
 43
3.0
 10
-5192.908793354002
 20
119.9997680251664
 42
0.4142135623731
 10
-5194.408793354003
 20
121.4997680251664
 42
0.4142135623731
 10
-5195.908793354003
 20
119.9997680251664
 42
0.4142135623731
 10
-5194.408793354003
 20
118.4997680251664
 42
0.4142135623731
  0
LINE
  5
11D
330
1F
100
AcDbEntity
  8
0-B_寸法
  6
Continuous
 62
   120
370
     5
100
AcDbLine
 10
-5197.408793354003
 20
119.9997680251664
 30
0.0
 11
-5197.408793354003
 21
-30.00023197483358
 31
0.0
  0
LINE
  5
11E
330
1F
100
AcDbEntity
  8
0-B_寸法
  6
Continuous
 62
   120
370
     5
100
AcDbLine
 10
-5194.408793354003
 20
119.9997680251664
 30
0.0
 11
-5194.408793354003
 21
-30.00023197483358
 31
0.0
  0
TEXT
  5
11F
330
1F
100
AcDbEntity
  8
0-B_寸法
  6
Continuous
 62
     7
370
   211
100
AcDbText
 10
-5218.408793354002
 20
147.6897680251664
 30
0.0
 40
68.58
  1
2
  7
ＭＳ ゴシック
100
AcDbText
  0
LINE
  5
120
330
1F
100
AcDbEntity
  8
0-B_寸法
  6
Continuous
 62
   120
370
     5
100
AcDbLine
 10
-5194.408793354003
 20
119.9997680251664
 30
0.0
 11
-4599.658793354002
 21
119.9997680251664
 31
0.0
  0
LWPOLYLINE
  5
121
330
1F
100
AcDbEntity
  8
0-B_寸法
  6
Continuous
 62
     7
370
     9
100
AcDbPolyline
 90
        4
 70
     1
 43
3.0
 10
-4598.158793354002
 20
119.9997680251664
 42
0.4142135623731
 10
-4599.658793354002
 20
121.4997680251664
 42
0.4142135623731
 10
-4601.158793354003
 20
119.9997680251664
 42
0.4142135623731
 10
-4599.658793354002
 20
118.4997680251664
 42
0.4142135623731
  0
LINE
  5
122
330
1F
100
AcDbEntity
  8
0-B_寸法
  6
Continuous
 62
   120
370
     5
100
AcDbLine
 10
-4599.658793354002
 20
119.9997680251664
 30
0.0
 11
-4599.658793354002
 21
-30.00023197483358
 31
0.0
  0
LINE
  5
123
330
1F
100
AcDbEntity
  8
0-B_寸法
  6
Continuous
 62
   120
370
     5
100
AcDbLine
 10
-4599.658793354002
 20
119.9997680251664
 30
0.0
 11
-4595.158793354002
 21
119.9997680251664
 31
0.0
  0
LWPOLYLINE
  5
124
330
1F
100
AcDbEntity
  8
0-B_寸法
  6
Continuous
 62
     7
370
     9
100
AcDbPolyline
 90
        4
 70
     1
 43
3.0
 10
-4593.658793354002
 20
119.9997680251664
 42
0.4142135623731
 10
-4595.158793354002
 20
121.4997680251664
 42
0.4142135623731
 10
-4596.658793354002
 20
119.9997680251664
 42
0.4142135623731
 10
-4595.158793354002
 20
118.4997680251664
 42
0.4142135623731
  0
LINE
  5
125
330
1F
100
AcDbEntity
  8
0-B_寸法
  6
Continuous
 62
   120
370
     5
100
AcDbLine
 10
-4595.158793354002
 20
119.9997680251664
 30
0.0
 11
-4595.158793354002
 21
-30.00023197483358
 31
0.0
  0
TEXT
  5
126
330
1F
100
AcDbEntity
  8
0-B_寸法
  6
Continuous
 62
     7
370
   211
100
AcDbText
 10
-4619.908793354003
 20
147.6897680251664
 30
0.0
 40
68.58
  1
3
  7
ＭＳ ゴシック
100
AcDbText
  0
LINE
  5
127
330
1F
100
AcDbEntity
  8
0-B_寸法
  6
Continuous
 62
   120
370
     5
100
AcDbLine
 10
-4595.158793354002
 20
119.9997680251664
 30
0.0
 11
-4000.408793354003
 21
119.9997680251664
 31
0.0
  0
LWPOLYLINE
  5
128
330
1F
100
AcDbEntity
  8
0-B_寸法
  6
Continuous
 62
     7
370
     9
100
AcDbPolyline
 90
        4
 70
     1
 43
3.0
 10
-3998.908793354002
 20
119.9997680251664
 42
0.4142135623731
 10
-4000.408793354003
 20
121.4997680251664
 42
0.4142135623731
 10
-4001.908793354003
 20
119.9997680251664
 42
0.4142135623731
 10
-4000.408793354003
 20
118.4997680251664
 42
0.4142135623731
  0
LINE
  5
129
330
1F
100
AcDbEntity
  8
0-B_寸法
  6
Continuous
 62
   120
370
     5
100
AcDbLine
 10
-4000.408793354003
 20
119.9997680251664
 30
0.0
 11
-4000.408793354003
 21
-30.00023197483358
 31
0.0
  0
LINE
  5
12A
330
1F
100
AcDbEntity
  8
0-B_寸法
  6
Continuous
 62
   120
370
     5
100
AcDbLine
 10
-4000.408793354003
 20
119.9997680251664
 30
0.0
 11
-3997.408793354003
 21
119.9997680251664
 31
0.0
  0
LWPOLYLINE
  5
12B
330
1F
100
AcDbEntity
  8
0-B_寸法
  6
Continuous
 62
     7
370
     9
100
AcDbPolyline
 90
        4
 70
     1
 43
3.0
 10
-3995.908793354002
 20
119.9997680251664
 42
0.4142135623731
 10
-3997.408793354003
 20
121.4997680251664
 42
0.4142135623731
 10
-3998.908793354003
 20
119.9997680251664
 42
0.4142135623731
 10
-3997.408793354003
 20
118.4997680251664
 42
0.4142135623731
  0
LINE
  5
12C
330
1F
100
AcDbEntity
  8
0-B_寸法
  6
Continuous
 62
   120
370
     5
100
AcDbLine
 10
-3997.408793354003
 20
119.9997680251664
 30
0.0
 11
-3997.408793354003
 21
-30.00023197483358
 31
0.0
  0
TEXT
  5
12D
330
1F
100
AcDbEntity
  8
0-B_寸法
  6
Continuous
 62
     7
370
   211
100
AcDbText
 10
-5129.533793354003
 20
147.6897680251664
 30
0.0
 40
68.58
  1
ＤＷ＝396.5
 41
0.9393939393939394
  7
ＭＳ ゴシック
100
AcDbText
  0
TEXT
  5
12E
330
1F
100
AcDbEntity
  8
0-B_寸法
  6
Continuous
 62
     7
370
   211
100
AcDbText
 10
-4530.283793354002
 20
147.6897680251664
 30
0.0
 40
68.58
  1
ＤＷ＝396.5
 41
0.9393939393939394
  7
ＭＳ ゴシック
100
AcDbText
  0
LINE
  5
12F
330
1F
100
AcDbEntity
  8
0-B_寸法
  6
Continuous
 62
   120
370
     5
100
AcDbLine
 10
-3997.408793354003
 20
119.9997680251664
 30
0.0
 11
-3994.408793354003
 21
119.9997680251664
 31
0.0
  0
LWPOLYLINE
  5
130
330
1F
100
AcDbEntity
  8
0-B_寸法
  6
Continuous
 62
     7
370
     9
100
AcDbPolyline
 90
        4
 70
     1
 43
3.0
 10
-3992.908793354003
 20
119.9997680251664
 42
0.4142135623731
 10
-3994.408793354003
 20
121.4997680251664
 42
0.4142135623731
 10
-3995.908793354003
 20
119.9997680251664
 42
0.4142135623731
 10
-3994.408793354003
 20
118.4997680251664
 42
0.4142135623731
  0
LINE
  5
131
330
1F
100
AcDbEntity
  8
0-B_寸法
  6
Continuous
 62
   120
370
     5
100
AcDbLine
 10
-3994.408793354003
 20
119.9997680251664
 30
0.0
 11
-3994.408793354003
 21
-30.00023197483358
 31
0.0
  0
LINE
  5
132
330
1F
100
AcDbEntity
  8
0-B_寸法
  6
Continuous
 62
   120
370
     5
100
AcDbLine
 10
-3994.408793354003
 20
119.9997680251664
 30
0.0
 11
-3399.658793354002
 21
119.9997680251664
 31
0.0
  0
LWPOLYLINE
  5
133
330
1F
100
AcDbEntity
  8
0-B_寸法
  6
Continuous
 62
     7
370
     9
100
AcDbPolyline
 90
        4
 70
     1
 43
3.0
 10
-3398.158793354003
 20
119.9997680251664
 42
0.4142135623731
 10
-3399.658793354002
 20
121.4997680251664
 42
0.4142135623731
 10
-3401.158793354002
 20
119.9997680251664
 42
0.4142135623731
 10
-3399.658793354002
 20
118.4997680251664
 42
0.4142135623731
  0
LINE
  5
134
330
1F
100
AcDbEntity
  8
0-B_寸法
  6
Continuous
 62
   120
370
     5
100
AcDbLine
 10
-3399.658793354002
 20
119.9997680251664
 30
0.0
 11
-3399.658793354002
 21
-30.00023197483358
 31
0.0
  0
LINE
  5
135
330
1F
100
AcDbEntity
  8
0-B_寸法
  6
Continuous
 62
   120
370
     5
100
AcDbLine
 10
-3399.658793354002
 20
119.9997680251664
 30
0.0
 11
-3395.158793354002
 21
119.9997680251664
 31
0.0
  0
LWPOLYLINE
  5
136
330
1F
100
AcDbEntity
  8
0-B_寸法
  6
Continuous
 62
     7
370
     9
100
AcDbPolyline
 90
        4
 70
     1
 43
3.0
 10
-3393.658793354002
 20
119.9997680251664
 42
0.4142135623731
 10
-3395.158793354002
 20
121.4997680251664
 42
0.4142135623731
 10
-3396.658793354002
 20
119.9997680251664
 42
0.4142135623731
 10
-3395.158793354002
 20
118.4997680251664
 42
0.4142135623731
  0
LINE
  5
137
330
1F
100
AcDbEntity
  8
0-B_寸法
  6
Continuous
 62
   120
370
     5
100
AcDbLine
 10
-3395.158793354002
 20
119.9997680251664
 30
0.0
 11
-3395.158793354002
 21
-30.00023197483358
 31
0.0
  0
TEXT
  5
138
330
1F
100
AcDbEntity
  8
0-B_寸法
  6
Continuous
 62
     7
370
   211
100
AcDbText
 10
-3419.908793354003
 20
147.6897680251664
 30
0.0
 40
68.58
  1
3
  7
ＭＳ ゴシック
100
AcDbText
  0
LINE
  5
139
330
1F
100
AcDbEntity
  8
0-B_寸法
  6
Continuous
 62
   120
370
     5
100
AcDbLine
 10
-3395.158793354002
 20
119.9997680251664
 30
0.0
 11
-2800.408793354003
 21
119.9997680251664
 31
0.0
  0
LWPOLYLINE
  5
13A
330
1F
100
AcDbEntity
  8
0-B_寸法
  6
Continuous
 62
     7
370
     9
100
AcDbPolyline
 90
        4
 70
     1
 43
3.0
 10
-2798.908793354003
 20
119.9997680251664
 42
0.4142135623731
 10
-2800.408793354003
 20
121.4997680251664
 42
0.4142135623731
 10
-2801.908793354003
 20
119.9997680251664
 42
0.4142135623731
 10
-2800.408793354003
 20
118.4997680251664
 42
0.4142135623731
  0
LINE
  5
13B
330
1F
100
AcDbEntity
  8
0-B_寸法
  6
Continuous
 62
   120
370
     5
100
AcDbLine
 10
-2800.408793354003
 20
119.9997680251664
 30
0.0
 11
-2800.408793354003
 21
-30.00023197483358
 31
0.0
  0
LINE
  5
13C
330
1F
100
AcDbEntity
  8
0-B_寸法
  6
Continuous
 62
   120
370
     5
100
AcDbLine
 10
-2800.408793354003
 20
119.9997680251664
 30
0.0
 11
-2797.408793354003
 21
119.9997680251664
 31
0.0
  0
LWPOLYLINE
  5
13D
330
1F
100
AcDbEntity
  8
0-B_寸法
  6
Continuous
 62
     7
370
     9
100
AcDbPolyline
 90
        4
 70
     1
 43
3.0
 10
-2795.908793354003
 20
119.9997680251664
 42
0.4142135623731
 10
-2797.408793354003
 20
121.4997680251664
 42
0.4142135623731
 10
-2798.908793354003
 20
119.9997680251664
 42
0.4142135623731
 10
-2797.408793354003
 20
118.4997680251664
 42
0.4142135623731
  0
LINE
  5
13E
330
1F
100
AcDbEntity
  8
0-B_寸法
  6
Continuous
 62
   120
370
     5
100
AcDbLine
 10
-2797.408793354003
 20
119.9997680251664
 30
0.0
 11
-2797.408793354003
 21
-30.00023197483358
 31
0.0
  0
TEXT
  5
13F
330
1F
100
AcDbEntity
  8
0-B_寸法
  6
Continuous
 62
     7
370
   211
100
AcDbText
 10
-3929.533793354003
 20
147.6897680251664
 30
0.0
 40
68.58
  1
ＤＷ＝396.5
 41
0.9393939393939394
  7
ＭＳ ゴシック
100
AcDbText
  0
TEXT
  5
140
330
1F
100
AcDbEntity
  8
0-B_寸法
  6
Continuous
 62
     7
370
   211
100
AcDbText
 10
-3330.283793354002
 20
147.6897680251664
 30
0.0
 40
68.58
  1
ＤＷ＝396.5
 41
0.9393939393939394
  7
ＭＳ ゴシック
100
AcDbText
  0
LINE
  5
141
330
1F
100
AcDbEntity
  8
0-B_寸法
  6
Continuous
 62
   120
370
     5
100
AcDbLine
 10
-2797.408793354003
 20
119.9997680251664
 30
0.0
 11
-2794.408793354003
 21
119.9997680251664
 31
0.0
  0
LWPOLYLINE
  5
142
330
1F
100
AcDbEntity
  8
0-B_寸法
  6
Continuous
 62
     7
370
     9
100
AcDbPolyline
 90
        4
 70
     1
 43
3.0
 10
-2792.908793354003
 20
119.9997680251664
 42
0.4142135623731
 10
-2794.408793354003
 20
121.4997680251664
 42
0.4142135623731
 10
-2795.908793354003
 20
119.9997680251664
 42
0.4142135623731
 10
-2794.408793354003
 20
118.4997680251664
 42
0.4142135623731
  0
LINE
  5
143
330
1F
100
AcDbEntity
  8
0-B_寸法
  6
Continuous
 62
   120
370
     5
100
AcDbLine
 10
-2794.408793354003
 20
119.9997680251664
 30
0.0
 11
-2794.408793354003
 21
-30.00023197483358
 31
0.0
  0
LINE
  5
144
330
1F
100
AcDbEntity
  8
0-B_寸法
  6
Continuous
 62
   120
370
     5
100
AcDbLine
 10
-2794.408793354003
 20
119.9997680251664
 30
0.0
 11
-2199.658793354002
 21
119.9997680251664
 31
0.0
  0
LWPOLYLINE
  5
145
330
1F
100
AcDbEntity
  8
0-B_寸法
  6
Continuous
 62
     7
370
     9
100
AcDbPolyline
 90
        4
 70
     1
 43
3.0
 10
-2198.158793354003
 20
119.9997680251664
 42
0.4142135623731
 10
-2199.658793354002
 20
121.4997680251664
 42
0.4142135623731
 10
-2201.158793354002
 20
119.9997680251664
 42
0.4142135623731
 10
-2199.658793354002
 20
118.4997680251664
 42
0.4142135623731
  0
LINE
  5
146
330
1F
100
AcDbEntity
  8
0-B_寸法
  6
Continuous
 62
   120
370
     5
100
AcDbLine
 10
-2199.658793354002
 20
119.9997680251664
 30
0.0
 11
-2199.658793354002
 21
-30.00023197483358
 31
0.0
  0
LINE
  5
147
330
1F
100
AcDbEntity
  8
0-B_寸法
  6
Continuous
 62
   120
370
     5
100
AcDbLine
 10
-2199.658793354002
 20
119.9997680251664
 30
0.0
 11
-2195.158793354002
 21
119.9997680251664
 31
0.0
  0
LWPOLYLINE
  5
148
330
1F
100
AcDbEntity
  8
0-B_寸法
  6
Continuous
 62
     7
370
     9
100
AcDbPolyline
 90
        4
 70
     1
 43
3.0
 10
-2193.658793354002
 20
119.9997680251664
 42
0.4142135623731
 10
-2195.158793354002
 20
121.4997680251664
 42
0.4142135623731
 10
-2196.658793354002
 20
119.9997680251664
 42
0.4142135623731
 10
-2195.158793354002
 20
118.4997680251664
 42
0.4142135623731
  0
LINE
  5
149
330
1F
100
AcDbEntity
  8
0-B_寸法
  6
Continuous
 62
   120
370
     5
100
AcDbLine
 10
-2195.158793354002
 20
119.9997680251664
 30
0.0
 11
-2195.158793354002
 21
-30.00023197483358
 31
0.0
  0
TEXT
  5
14A
330
1F
100
AcDbEntity
  8
0-B_寸法
  6
Continuous
 62
     7
370
   211
100
AcDbText
 10
-2219.908793354003
 20
147.6897680251664
 30
0.0
 40
68.58
  1
3
  7
ＭＳ ゴシック
100
AcDbText
  0
LINE
  5
14B
330
1F
100
AcDbEntity
  8
0-B_寸法
  6
Continuous
 62
   120
370
     5
100
AcDbLine
 10
-2195.158793354002
 20
119.9997680251664
 30
0.0
 11
-1600.408793354003
 21
119.9997680251664
 31
0.0
  0
LWPOLYLINE
  5
14C
330
1F
100
AcDbEntity
  8
0-B_寸法
  6
Continuous
 62
     7
370
     9
100
AcDbPolyline
 90
        4
 70
     1
 43
3.0
 10
-1598.908793354003
 20
119.9997680251664
 42
0.4142135623731
 10
-1600.408793354003
 20
121.4997680251664
 42
0.4142135623731
 10
-1601.908793354002
 20
119.9997680251664
 42
0.4142135623731
 10
-1600.408793354003
 20
118.4997680251664
 42
0.4142135623731
  0
LINE
  5
14D
330
1F
100
AcDbEntity
  8
0-B_寸法
  6
Continuous
 62
   120
370
     5
100
AcDbLine
 10
-1600.408793354003
 20
119.9997680251664
 30
0.0
 11
-1600.408793354003
 21
-30.00023197483358
 31
0.0
  0
LINE
  5
14E
330
1F
100
AcDbEntity
  8
0-B_寸法
  6
Continuous
 62
   120
370
     5
100
AcDbLine
 10
-1600.408793354003
 20
119.9997680251664
 30
0.0
 11
-1597.408793354003
 21
119.9997680251664
 31
0.0
  0
LWPOLYLINE
  5
14F
330
1F
100
AcDbEntity
  8
0-B_寸法
  6
Continuous
 62
     7
370
     9
100
AcDbPolyline
 90
        4
 70
     1
 43
3.0
 10
-1595.908793354003
 20
119.9997680251664
 42
0.4142135623731
 10
-1597.408793354003
 20
121.4997680251664
 42
0.4142135623731
 10
-1598.908793354003
 20
119.9997680251664
 42
0.4142135623731
 10
-1597.408793354003
 20
118.4997680251664
 42
0.4142135623731
  0
LINE
  5
150
330
1F
100
AcDbEntity
  8
0-B_寸法
  6
Continuous
 62
   120
370
     5
100
AcDbLine
 10
-1597.408793354003
 20
119.9997680251664
 30
0.0
 11
-1597.408793354003
 21
-30.00023197483358
 31
0.0
  0
TEXT
  5
151
330
1F
100
AcDbEntity
  8
0-B_寸法
  6
Continuous
 62
     7
370
   211
100
AcDbText
 10
-1621.408793354003
 20
147.6897680251664
 30
0.0
 40
68.58
  1
2
  7
ＭＳ ゴシック
100
AcDbText
  0
TEXT
  5
152
330
1F
100
AcDbEntity
  8
0-B_寸法
  6
Continuous
 62
     7
370
   211
100
AcDbText
 10
-2729.533793354003
 20
147.6897680251664
 30
0.0
 40
68.58
  1
ＤＷ＝396.5
 41
0.9393939393939394
  7
ＭＳ ゴシック
100
AcDbText
  0
TEXT
  5
153
330
1F
100
AcDbEntity
  8
0-B_寸法
  6
Continuous
 62
     7
370
   211
100
AcDbText
 10
-2130.283793354002
 20
147.6897680251664
 30
0.0
 40
68.58
  1
ＤＷ＝396.5
 41
0.9393939393939394
  7
ＭＳ ゴシック
100
AcDbText
  0
TEXT
  5
154
330
1F
100
AcDbEntity
  8
0-B_寸法
  6
Continuous
 62
     7
370
   211
100
AcDbText
 10
-3991.917050561772
 20
147.6897680251664
 30
0.0
 40
68.58
  1
2
  7
ＭＳ ゴシック
100
AcDbText
  0
TEXT
  5
155
330
1F
100
AcDbEntity
  8
0-B_寸法
  6
Continuous
 62
     7
370
   211
100
AcDbText
 10
-2791.917050561772
 20
147.6897680251664
 30
0.0
 40
68.58
  1
2
  7
ＭＳ ゴシック
100
AcDbText
  0
TEXT
  5
156
330
1F
100
AcDbEntity
  8
0-B_寸法
  6
Continuous
 62
     7
370
   211
100
AcDbText
 10
-4045.978158332658
 20
147.6897680251664
 30
0.0
 40
68.58
  1
2
  7
ＭＳ ゴシック
100
AcDbText
  0
TEXT
  5
157
330
1F
100
AcDbEntity
  8
0-B_寸法
  6
Continuous
 62
     7
370
   211
100
AcDbText
 10
-2845.978158332658
 20
147.6897680251664
 30
0.0
 40
68.58
  1
2
  7
ＭＳ ゴシック
100
AcDbText
  0
LINE
  5
158
330
1F
100
AcDbEntity
  8
0-0_補助線
  6
JWW_HOJO
 62
   120
370
     5
100
AcDbLine
 10
-5272.408793354003
 20
-1080.000231974834
 30
0.0
 11
-1522.408793354003
 21
-1080.000231974834
 31
0.0
  0
LINE
  5
159
330
1F
100
AcDbEntity
  8
0-0_補助線
  6
JWW_HOJO
 62
   120
370
     5
100
AcDbLine
 10
-5422.408793354003
 20
-1230.000231974834
 30
0.0
 11
-1372.408793354003
 21
-1230.000231974834
 31
0.0
  0
LINE
  5
15A
330
1F
100
AcDbEntity
  8
0-0_補助線
  6
JWW_HOJO
 62
   120
370
     5
100
AcDbLine
 10
-1372.408793354003
 20
-1230.000231974834
 30
0.0
 11
-1372.408793354003
 21
119.9997680251664
 31
0.0
  0
LINE
  5
15B
330
1F
100
AcDbEntity
  8
0-0_補助線
  6
JWW_HOJO
 62
   120
370
     5
100
AcDbLine
 10
-1522.408793354003
 20
-1080.000231974834
 30
0.0
 11
-1522.408793354003
 21
-30.00023197483358
 31
0.0
  0
LINE
  5
15C
330
1F
100
AcDbEntity
  8
0-0_補助線
  6
JWW_HOJO
 62
   120
370
     5
100
AcDbLine
 10
-5272.408793354003
 20
-30.00023197483358
 30
0.0
 11
-5272.408793354003
 21
-1080.000231974834
 31
0.0
  0
LINE
  5
15D
330
1F
100
AcDbEntity
  8
0-B_寸法
  6
Continuous
 62
   120
370
     5
100
AcDbLine
 10
-5197.408793354003
 20
-1230.000231974834
 30
0.0
 11
-3997.408793354003
 21
-1230.000231974834
 31
0.0
  0
LWPOLYLINE
  5
15E
330
1F
100
AcDbEntity
  8
0-B_寸法
  6
Continuous
 62
     7
370
     9
100
AcDbPolyline
 90
        4
 70
     1
 43
3.0
 10
-5195.908793354002
 20
-1230.000231974834
 42
0.4142135623731
 10
-5197.408793354003
 20
-1228.500231974834
 42
0.4142135623731
 10
-5198.908793354003
 20
-1230.000231974834
 42
0.4142135623731
 10
-5197.408793354003
 20
-1231.500231974833
 42
0.4142135623731
  0
LWPOLYLINE
  5
15F
330
1F
100
AcDbEntity
  8
0-B_寸法
  6
Continuous
 62
     7
370
     9
100
AcDbPolyline
 90
        4
 70
     1
 43
3.0
 10
-3995.908793354002
 20
-1230.000231974834
 42
0.4142135623731
 10
-3997.408793354003
 20
-1228.500231974834
 42
0.4142135623731
 10
-3998.908793354003
 20
-1230.000231974834
 42
0.4142135623731
 10
-3997.408793354003
 20
-1231.500231974833
 42
0.4142135623731
  0
LINE
  5
160
330
1F
100
AcDbEntity
  8
0-B_寸法
  6
Continuous
 62
   120
370
     5
100
AcDbLine
 10
-5197.408793354003
 20
-1380.000231974834
 30
0.0
 11
-5197.408793354003
 21
-1080.000231974834
 31
0.0
  0
LINE
  5
161
330
1F
100
AcDbEntity
  8
0-B_寸法
  6
Continuous
 62
   120
370
     5
100
AcDbLine
 10
-3997.408793354003
 20
-1230.000231974834
 30
0.0
 11
-3997.408793354003
 21
-1080.000231974834
 31
0.0
  0
TEXT
  5
162
330
1F
100
AcDbEntity
  8
0-B_寸法
  6
Continuous
 62
     7
370
   211
100
AcDbText
 10
-4672.408793354003
 20
-1202.310231974834
 30
0.0
 40
68.58
  1
800
 41
1.111111111111111
  7
ＭＳ ゴシック
100
AcDbText
  0
LINE
  5
163
330
1F
100
AcDbEntity
  8
0-B_寸法
  6
Continuous
 62
   120
370
     5
100
AcDbLine
 10
-3997.408793354003
 20
-1230.000231974834
 30
0.0
 11
-2797.408793354003
 21
-1230.000231974834
 31
0.0
  0
LWPOLYLINE
  5
164
330
1F
100
AcDbEntity
  8
0-B_寸法
  6
Continuous
 62
     7
370
     9
100
AcDbPolyline
 90
        4
 70
     1
 43
3.0
 10
-2795.908793354003
 20
-1230.000231974834
 42
0.4142135623731
 10
-2797.408793354003
 20
-1228.500231974834
 42
0.4142135623731
 10
-2798.908793354003
 20
-1230.000231974834
 42
0.4142135623731
 10
-2797.408793354003
 20
-1231.500231974833
 42
0.4142135623731
  0
LINE
  5
165
330
1F
100
AcDbEntity
  8
0-B_寸法
  6
Continuous
 62
   120
370
     5
100
AcDbLine
 10
-2797.408793354003
 20
-1230.000231974834
 30
0.0
 11
-2797.408793354003
 21
-1080.000231974834
 31
0.0
  0
TEXT
  5
166
330
1F
100
AcDbEntity
  8
0-B_寸法
  6
Continuous
 62
     7
370
   211
100
AcDbText
 10
-3472.408793354003
 20
-1202.310231974834
 30
0.0
 40
68.58
  1
800
 41
1.111111111111111
  7
ＭＳ ゴシック
100
AcDbText
  0
LINE
  5
167
330
1F
100
AcDbEntity
  8
0-B_寸法
  6
Continuous
 62
   120
370
     5
100
AcDbLine
 10
-2797.408793354003
 20
-1230.000231974834
 30
0.0
 11
-1597.408793354003
 21
-1230.000231974834
 31
0.0
  0
LWPOLYLINE
  5
168
330
1F
100
AcDbEntity
  8
0-B_寸法
  6
Continuous
 62
     7
370
     9
100
AcDbPolyline
 90
        4
 70
     1
 43
3.0
 10
-1595.908793354003
 20
-1230.000231974834
 42
0.4142135623731
 10
-1597.408793354003
 20
-1228.500231974834
 42
0.4142135623731
 10
-1598.908793354003
 20
-1230.000231974834
 42
0.4142135623731
 10
-1597.408793354003
 20
-1231.500231974833
 42
0.4142135623731
  0
LINE
  5
169
330
1F
100
AcDbEntity
  8
0-B_寸法
  6
Continuous
 62
   120
370
     5
100
AcDbLine
 10
-1597.408793354003
 20
-1380.000231974834
 30
0.0
 11
-1597.408793354003
 21
-1080.000231974834
 31
0.0
  0
TEXT
  5
16A
330
1F
100
AcDbEntity
  8
0-B_寸法
  6
Continuous
 62
     7
370
   211
100
AcDbText
 10
-2272.408793354003
 20
-1202.310231974834
 30
0.0
 40
68.58
  1
800
 41
1.111111111111111
  7
ＭＳ ゴシック
100
AcDbText
  0
LINE
  5
16B
330
1F
100
AcDbEntity
  8
0-B_寸法
  6
Continuous
 62
   120
370
     5
100
AcDbLine
 10
-5197.408793354003
 20
-1380.000231974834
 30
0.0
 11
-1597.408793354003
 21
-1380.000231974834
 31
0.0
  0
LWPOLYLINE
  5
16C
330
1F
100
AcDbEntity
  8
0-B_寸法
  6
Continuous
 62
     7
370
     9
100
AcDbPolyline
 90
        4
 70
     1
 43
3.0
 10
-5195.908793354002
 20
-1380.000231974834
 42
0.4142135623731
 10
-5197.408793354003
 20
-1378.500231974834
 42
0.4142135623731
 10
-5198.908793354003
 20
-1380.000231974834
 42
0.4142135623731
 10
-5197.408793354003
 20
-1381.500231974833
 42
0.4142135623731
  0
LWPOLYLINE
  5
16D
330
1F
100
AcDbEntity
  8
0-B_寸法
  6
Continuous
 62
     7
370
     9
100
AcDbPolyline
 90
        4
 70
     1
 43
3.0
 10
-1595.908793354003
 20
-1380.000231974834
 42
0.4142135623731
 10
-1597.408793354003
 20
-1378.500231974834
 42
0.4142135623731
 10
-1598.908793354003
 20
-1380.000231974834
 42
0.4142135623731
 10
-1597.408793354003
 20
-1381.500231974833
 42
0.4142135623731
  0
TEXT
  5
16E
330
1F
100
AcDbEntity
  8
0-B_寸法
  6
Continuous
 62
     7
370
   211
100
AcDbText
 10
-3524.908793354003
 20
-1352.310231974834
 30
0.0
 40
68.58
  1
2,400
 41
1.133333333333333
  7
ＭＳ ゴシック
100
AcDbText
  0
LINE
  5
16F
330
1F
100
AcDbEntity
  8
0-1_本体
  6
Continuous
 62
    92
370
    13
100
AcDbLine
 10
781.4225186636368
 20
-150.0002319748334
 30
0.0
 11
-418.5774813363632
 21
-150.0002319748334
 31
0.0
  0
LINE
  5
170
330
1F
100
AcDbEntity
  8
0-1_本体
  6
Continuous
 62
    92
370
    13
100
AcDbLine
 10
-418.5774813363632
 20
-150.0002319748334
 30
0.0
 11
-418.5774813363632
 21
-705.0002319748334
 31
0.0
  0
LINE
  5
171
330
1F
100
AcDbEntity
  8
0-1_本体
  6
Continuous
 62
    92
370
    13
100
AcDbLine
 10
-418.5774813363632
 20
-705.0002319748334
 30
0.0
 11
781.4225186636368
 21
-705.0002319748334
 31
0.0
  0
LINE
  5
172
330
1F
100
AcDbEntity
  8
0-1_本体
  6
Continuous
 62
    92
370
    13
100
AcDbLine
 10
781.4225186636368
 20
-705.0002319748334
 30
0.0
 11
781.4225186636368
 21
-150.0002319748334
 31
0.0
  0
LINE
  5
173
330
1F
100
AcDbEntity
  8
0-1_本体
  6
Continuous
 62
    92
370
    13
100
AcDbLine
 10
-395.3274813363633
 20
-150.0002319748334
 30
0.0
 11
-395.3274813363633
 21
-705.0002319748334
 31
0.0
  0
LINE
  5
174
330
1F
100
AcDbEntity
  8
0-1_本体
  6
Continuous
 62
    92
370
    13
100
AcDbLine
 10
758.1725186636365
 20
-182.250231974833
 30
0.0
 11
-395.3274813363633
 21
-182.250231974833
 31
0.0
  0
LINE
  5
175
330
1F
100
AcDbEntity
  8
0-1_本体
  6
Continuous
 62
    92
370
    13
100
AcDbLine
 10
-395.3274813363633
 20
-672.7502319748332
 30
0.0
 11
758.1725186636365
 21
-672.7502319748332
 31
0.0
  0
LINE
  5
176
330
1F
100
AcDbEntity
  8
0-1_本体
  6
Continuous
 62
    92
370
    13
100
AcDbLine
 10
758.1725186636365
 20
-705.0002319748334
 30
0.0
 11
758.1725186636365
 21
-150.0002319748334
 31
0.0
  0
LINE
  5
177
330
1F
100
AcDbEntity
  8
0-4_棚
  6
Continuous
 62
    92
370
    13
100
AcDbLine
 10
-393.8274813363632
 20
-405.0002319748334
 30
0.0
 11
-393.8274813363632
 21
-427.5002319748334
 31
0.0
  0
LINE
  5
178
330
1F
100
AcDbEntity
  8
0-4_棚
  6
Continuous
 62
    92
370
    13
100
AcDbLine
 10
756.6725186636371
 20
-405.0002319748334
 30
0.0
 11
-393.8274813363632
 21
-405.0002319748334
 31
0.0
  0
LINE
  5
179
330
1F
100
AcDbEntity
  8
0-4_棚
  6
Continuous
 62
    92
370
    13
100
AcDbLine
 10
756.6725186636371
 20
-427.5002319748334
 30
0.0
 11
756.6725186636371
 21
-405.0002319748334
 31
0.0
  0
LINE
  5
17A
330
1F
100
AcDbEntity
  8
0-4_棚
  6
Continuous
 62
    92
370
    13
100
AcDbLine
 10
-393.8274813363632
 20
-427.5002319748334
 30
0.0
 11
756.6725186636371
 21
-427.5002319748334
 31
0.0
  0
TEXT
  5
17B
330
1F
100
AcDbEntity
  8
0-A_文字
  6
Continuous
 62
     7
370
     9
100
AcDbText
 10
46.42251866363678
 20
-367.7141461546891
 30
0.0
 40
68.58
  1
可動棚
  7
ＭＳ ゴシック
100
AcDbText
  0
LINE
  5
17C
330
1F
100
AcDbEntity
  8
0-B_寸法
  6
Continuous
 62
   120
370
     5
100
AcDbLine
 10
-643.5774813363632
 20
-150.0002319748334
 30
0.0
 11
-643.5774813363632
 21
-705.0002319748334
 31
0.0
  0
LWPOLYLINE
  5
17D
330
1F
100
AcDbEntity
  8
0-B_寸法
  6
Continuous
 62
     7
370
     9
100
AcDbPolyline
 90
        4
 70
     1
 43
3.0
 10
-642.0774813363632
 20
-150.0002319748334
 42
0.4142135623731
 10
-643.5774813363632
 20
-148.5002319748334
 42
0.4142135623731
 10
-645.0774813363633
 20
-150.0002319748334
 42
0.4142135623731
 10
-643.5774813363632
 20
-151.5002319748334
 42
0.4142135623731
  0
LWPOLYLINE
  5
17E
330
1F
100
AcDbEntity
  8
0-B_寸法
  6
Continuous
 62
     7
370
     9
100
AcDbPolyline
 90
        4
 70
     1
 43
3.0
 10
-642.0774813363632
 20
-705.0002319748334
 42
0.4142135623731
 10
-643.5774813363632
 20
-703.5002319748334
 42
0.4142135623731
 10
-645.0774813363633
 20
-705.0002319748334
 42
0.4142135623731
 10
-643.5774813363632
 20
-706.5002319748334
 42
0.4142135623731
  0
LINE
  5
17F
330
1F
100
AcDbEntity
  8
0-B_寸法
  6
Continuous
 62
   120
370
     5
100
AcDbLine
 10
-643.5774813363632
 20
-150.0002319748334
 30
0.0
 11
-493.5774813363633
 21
-150.0002319748334
 31
0.0
  0
LINE
  5
180
330
1F
100
AcDbEntity
  8
0-B_寸法
  6
Continuous
 62
   120
370
     5
100
AcDbLine
 10
-643.5774813363632
 20
-705.0002319748334
 30
0.0
 11
-493.5774813363633
 21
-705.0002319748334
 31
0.0
  0
TEXT
  5
181
330
1F
100
AcDbEntity
  8
0-B_寸法
  6
Continuous
 62
     7
370
   211
100
AcDbText
 10
-671.2674813363633
 20
-502.5002319748334
 30
0.0
 40
68.58
  1
370
 50
90.0
 41
1.111111111111111
  7
ＭＳ ゴシック
100
AcDbText
  0
LINE
  5
182
330
1F
100
AcDbEntity
  8
0-B_寸法
  6
Continuous
 62
   120
370
     5
100
AcDbLine
 10
576.5446106234397
 20
-405.0002319748334
 30
0.0
 11
576.5446106234397
 21
-427.5002319748334
 31
0.0
  0
LWPOLYLINE
  5
183
330
1F
100
AcDbEntity
  8
0-B_寸法
  6
Continuous
 62
     7
370
     9
100
AcDbPolyline
 90
        4
 70
     1
 43
3.0
 10
578.0446106234397
 20
-405.0002319748334
 42
0.4142135623731
 10
576.5446106234397
 20
-403.5002319748334
 42
0.4142135623731
 10
575.0446106234396
 20
-405.0002319748334
 42
0.4142135623731
 10
576.5446106234397
 20
-406.5002319748334
 42
0.4142135623731
  0
LWPOLYLINE
  5
184
330
1F
100
AcDbEntity
  8
0-B_寸法
  6
Continuous
 62
     7
370
     9
100
AcDbPolyline
 90
        4
 70
     1
 43
3.0
 10
578.0446106234397
 20
-427.5002319748334
 42
0.4142135623731
 10
576.5446106234397
 20
-426.0002319748334
 42
0.4142135623731
 10
575.0446106234396
 20
-427.5002319748334
 42
0.4142135623731
 10
576.5446106234397
 20
-429.0002319748334
 42
0.4142135623731
  0
LINE
  5
185
330
1F
100
AcDbEntity
  8
0-B_寸法
  6
Continuous
 62
   120
370
     5
100
AcDbLine
 10
576.5446106234397
 20
-405.0002319748334
 30
0.0
 11
426.5446106234397
 21
-405.0002319748334
 31
0.0
  0
LINE
  5
186
330
1F
100
AcDbEntity
  8
0-B_寸法
  6
Continuous
 62
   120
370
     5
100
AcDbLine
 10
576.5446106234397
 20
-427.5002319748334
 30
0.0
 11
426.5446106234397
 21
-427.5002319748334
 31
0.0
  0
TEXT
  5
187
330
1F
100
AcDbEntity
  8
0-B_寸法
  6
Continuous
 62
     7
370
   211
100
AcDbText
 10
548.8546106234396
 20
-391.3279776760725
 30
0.0
 40
68.58
  1
15
 50
90.0
 41
1.083333333333333
  7
ＭＳ ゴシック
100
AcDbText
  0
LINE
  5
188
330
1F
100
AcDbEntity
  8
0-B_寸法
  6
Continuous
 62
   120
370
     5
100
AcDbLine
 10
3406.422518663636
 20
-920.1521364864913
 30
0.0
 11
3406.422518663636
 21
69.48069404780341
 31
0.0
  0
LWPOLYLINE
  5
189
330
1F
100
AcDbEntity
  8
0-B_寸法
  6
Continuous
 62
     7
370
     9
100
AcDbPolyline
 90
        4
 70
     1
 43
3.0
 10
3407.922518663636
 20
-705.0002319748334
 42
0.4142135623731
 10
3406.422518663636
 20
-703.5002319748334
 42
0.4142135623731
 10
3404.922518663637
 20
-705.0002319748334
 42
0.4142135623731
 10
3406.422518663636
 20
-706.5002319748334
 42
0.4142135623731
  0
LWPOLYLINE
  5
18A
330
1F
100
AcDbEntity
  8
0-B_寸法
  6
Continuous
 62
     7
370
     9
100
AcDbPolyline
 90
        4
 70
     1
 43
3.0
 10
3407.922518663636
 20
-672.7502319748332
 42
0.4142135623731
 10
3406.422518663636
 20
-671.2502319748332
 42
0.4142135623731
 10
3404.922518663637
 20
-672.7502319748332
 42
0.4142135623731
 10
3406.422518663636
 20
-674.2502319748334
 42
0.4142135623731
  0
LINE
  5
18B
330
1F
100
AcDbEntity
  8
0-B_寸法
  6
Continuous
 62
   120
370
     5
100
AcDbLine
 10
3406.422518663636
 20
-705.0002319748334
 30
0.0
 11
3256.422518663636
 21
-705.0002319748334
 31
0.0
  0
LINE
  5
18C
330
1F
100
AcDbEntity
  8
0-B_寸法
  6
Continuous
 62
   120
370
     5
100
AcDbLine
 10
3406.422518663636
 20
-672.7502319748332
 30
0.0
 11
3256.422518663636
 21
-672.7502319748332
 31
0.0
  0
LWPOLYLINE
  5
18D
330
1F
100
AcDbEntity
  8
0-B_寸法
  6
Continuous
 62
     7
370
     9
100
AcDbPolyline
 90
        4
 70
     1
 43
3.0
 10
3407.922518663636
 20
-182.250231974833
 42
0.4142135623731
 10
3406.422518663636
 20
-180.750231974833
 42
0.4142135623731
 10
3404.922518663637
 20
-182.250231974833
 42
0.4142135623731
 10
3406.422518663636
 20
-183.750231974833
 42
0.4142135623731
  0
LINE
  5
18E
330
1F
100
AcDbEntity
  8
0-B_寸法
  6
Continuous
 62
   120
370
     5
100
AcDbLine
 10
3406.422518663636
 20
-182.250231974833
 30
0.0
 11
3256.422518663636
 21
-182.250231974833
 31
0.0
  0
TEXT
  5
18F
330
1F
100
AcDbEntity
  8
0-B_寸法
  6
Continuous
 62
     7
370
   211
100
AcDbText
 10
3378.732518663636
 20
-502.5002319748334
 30
0.0
 40
68.58
  1
327
 50
90.0
 41
1.111111111111111
  7
ＭＳ ゴシック
100
AcDbText
  0
LWPOLYLINE
  5
190
330
1F
100
AcDbEntity
  8
0-B_寸法
  6
Continuous
 62
     7
370
     9
100
AcDbPolyline
 90
        4
 70
     1
 43
3.0
 10
3407.922518663636
 20
-150.0002319748334
 42
0.4142135623731
 10
3406.422518663636
 20
-148.5002319748334
 42
0.4142135623731
 10
3404.922518663637
 20
-150.0002319748334
 42
0.4142135623731
 10
3406.422518663636
 20
-151.5002319748334
 42
0.4142135623731
  0
LINE
  5
191
330
1F
100
AcDbEntity
  8
0-B_寸法
  6
Continuous
 62
   120
370
     5
100
AcDbLine
 10
3406.422518663636
 20
-150.0002319748334
 30
0.0
 11
3256.422518663636
 21
-150.0002319748334
 31
0.0
  0
TEXT
  5
192
330
1F
100
AcDbEntity
  8
0-B_寸法
  6
Continuous
 62
     7
370
   211
100
AcDbText
 10
3378.732518663636
 20
-920.1521364864913
 30
0.0
 40
68.58
  1
21.5
 50
90.0
 41
1.125
  7
ＭＳ ゴシック
100
AcDbText
  0
TEXT
  5
193
330
1F
100
AcDbEntity
  8
0-B_寸法
  6
Continuous
 62
     7
370
   211
100
AcDbText
 10
3378.732518663636
 20
-133.0193059521968
 30
0.0
 40
68.58
  1
21.5
 50
90.0
 41
1.125000000000001
  7
ＭＳ ゴシック
100
AcDbText
  0
LINE
  5
194
330
1F
100
AcDbEntity
  8
0-1_本体
  6
Continuous
 62
    92
370
    13
100
AcDbLine
 10
1981.422518663637
 20
-150.0002319748334
 30
0.0
 11
781.4225186636368
 21
-150.0002319748334
 31
0.0
  0
LINE
  5
195
330
1F
100
AcDbEntity
  8
0-1_本体
  6
Continuous
 62
    92
370
    13
100
AcDbLine
 10
781.4225186636368
 20
-705.0002319748334
 30
0.0
 11
1981.422518663637
 21
-705.0002319748334
 31
0.0
  0
LINE
  5
196
330
1F
100
AcDbEntity
  8
0-1_本体
  6
Continuous
 62
    92
370
    13
100
AcDbLine
 10
1981.422518663637
 20
-705.0002319748334
 30
0.0
 11
1981.422518663637
 21
-150.0002319748334
 31
0.0
  0
LINE
  5
197
330
1F
100
AcDbEntity
  8
0-1_本体
  6
Continuous
 62
    92
370
    13
100
AcDbLine
 10
804.6725186636367
 20
-150.0002319748334
 30
0.0
 11
804.6725186636367
 21
-705.0002319748334
 31
0.0
  0
LINE
  5
198
330
1F
100
AcDbEntity
  8
0-1_本体
  6
Continuous
 62
    92
370
    13
100
AcDbLine
 10
1958.172518663636
 20
-182.250231974833
 30
0.0
 11
804.6725186636367
 21
-182.250231974833
 31
0.0
  0
LINE
  5
199
330
1F
100
AcDbEntity
  8
0-1_本体
  6
Continuous
 62
    92
370
    13
100
AcDbLine
 10
804.6725186636367
 20
-672.7502319748332
 30
0.0
 11
1958.172518663636
 21
-672.7502319748332
 31
0.0
  0
LINE
  5
19A
330
1F
100
AcDbEntity
  8
0-1_本体
  6
Continuous
 62
    92
370
    13
100
AcDbLine
 10
1958.172518663636
 20
-705.0002319748334
 30
0.0
 11
1958.172518663636
 21
-150.0002319748334
 31
0.0
  0
LINE
  5
19B
330
1F
100
AcDbEntity
  8
0-4_棚
  6
Continuous
 62
    92
370
    13
100
AcDbLine
 10
806.1725186636368
 20
-405.0002319748334
 30
0.0
 11
806.1725186636368
 21
-427.5002319748334
 31
0.0
  0
LINE
  5
19C
330
1F
100
AcDbEntity
  8
0-4_棚
  6
Continuous
 62
    92
370
    13
100
AcDbLine
 10
1956.672518663637
 20
-405.0002319748334
 30
0.0
 11
806.1725186636368
 21
-405.0002319748334
 31
0.0
  0
LINE
  5
19D
330
1F
100
AcDbEntity
  8
0-4_棚
  6
Continuous
 62
    92
370
    13
100
AcDbLine
 10
1956.672518663637
 20
-427.5002319748334
 30
0.0
 11
1956.672518663637
 21
-405.0002319748334
 31
0.0
  0
LINE
  5
19E
330
1F
100
AcDbEntity
  8
0-4_棚
  6
Continuous
 62
    92
370
    13
100
AcDbLine
 10
806.1725186636368
 20
-427.5002319748334
 30
0.0
 11
1956.672518663637
 21
-427.5002319748334
 31
0.0
  0
TEXT
  5
19F
330
1F
100
AcDbEntity
  8
0-A_文字
  6
Continuous
 62
     7
370
     9
100
AcDbText
 10
1246.422518663637
 20
-367.7141461546891
 30
0.0
 40
68.58
  1
可動棚
  7
ＭＳ ゴシック
100
AcDbText
  0
LINE
  5
1A0
330
1F
100
AcDbEntity
  8
0-B_寸法
  6
Continuous
 62
   120
370
     5
100
AcDbLine
 10
1776.54461062344
 20
-405.0002319748334
 30
0.0
 11
1776.54461062344
 21
-427.5002319748334
 31
0.0
  0
LWPOLYLINE
  5
1A1
330
1F
100
AcDbEntity
  8
0-B_寸法
  6
Continuous
 62
     7
370
     9
100
AcDbPolyline
 90
        4
 70
     1
 43
3.0
 10
1778.044610623439
 20
-405.0002319748334
 42
0.4142135623731
 10
1776.54461062344
 20
-403.5002319748334
 42
0.4142135623731
 10
1775.04461062344
 20
-405.0002319748334
 42
0.4142135623731
 10
1776.54461062344
 20
-406.5002319748334
 42
0.4142135623731
  0
LWPOLYLINE
  5
1A2
330
1F
100
AcDbEntity
  8
0-B_寸法
  6
Continuous
 62
     7
370
     9
100
AcDbPolyline
 90
        4
 70
     1
 43
3.0
 10
1778.044610623439
 20
-427.5002319748334
 42
0.4142135623731
 10
1776.54461062344
 20
-426.0002319748334
 42
0.4142135623731
 10
1775.04461062344
 20
-427.5002319748334
 42
0.4142135623731
 10
1776.54461062344
 20
-429.0002319748334
 42
0.4142135623731
  0
LINE
  5
1A3
330
1F
100
AcDbEntity
  8
0-B_寸法
  6
Continuous
 62
   120
370
     5
100
AcDbLine
 10
1776.54461062344
 20
-405.0002319748334
 30
0.0
 11
1626.54461062344
 21
-405.0002319748334
 31
0.0
  0
LINE
  5
1A4
330
1F
100
AcDbEntity
  8
0-B_寸法
  6
Continuous
 62
   120
370
     5
100
AcDbLine
 10
1776.54461062344
 20
-427.5002319748334
 30
0.0
 11
1626.54461062344
 21
-427.5002319748334
 31
0.0
  0
TEXT
  5
1A5
330
1F
100
AcDbEntity
  8
0-B_寸法
  6
Continuous
 62
     7
370
   211
100
AcDbText
 10
1748.85461062344
 20
-391.3279776760725
 30
0.0
 40
68.58
  1
15
 50
90.0
 41
1.083333333333333
  7
ＭＳ ゴシック
100
AcDbText
  0
LINE
  5
1A6
330
1F
100
AcDbEntity
  8
0-1_本体
  6
Continuous
 62
    92
370
    13
100
AcDbLine
 10
3181.422518663636
 20
-150.0002319748334
 30
0.0
 11
1981.422518663637
 21
-150.0002319748334
 31
0.0
  0
LINE
  5
1A7
330
1F
100
AcDbEntity
  8
0-1_本体
  6
Continuous
 62
    92
370
    13
100
AcDbLine
 10
1981.422518663637
 20
-705.0002319748334
 30
0.0
 11
3181.422518663636
 21
-705.0002319748334
 31
0.0
  0
LINE
  5
1A8
330
1F
100
AcDbEntity
  8
0-1_本体
  6
Continuous
 62
    92
370
    13
100
AcDbLine
 10
3181.422518663636
 20
-705.0002319748334
 30
0.0
 11
3181.422518663636
 21
-150.0002319748334
 31
0.0
  0
LINE
  5
1A9
330
1F
100
AcDbEntity
  8
0-1_本体
  6
Continuous
 62
    92
370
    13
100
AcDbLine
 10
2004.672518663637
 20
-150.0002319748334
 30
0.0
 11
2004.672518663637
 21
-705.0002319748334
 31
0.0
  0
LINE
  5
1AA
330
1F
100
AcDbEntity
  8
0-1_本体
  6
Continuous
 62
    92
370
    13
100
AcDbLine
 10
3158.172518663636
 20
-182.250231974833
 30
0.0
 11
2004.672518663637
 21
-182.250231974833
 31
0.0
  0
LINE
  5
1AB
330
1F
100
AcDbEntity
  8
0-1_本体
  6
Continuous
 62
    92
370
    13
100
AcDbLine
 10
2004.672518663637
 20
-672.7502319748332
 30
0.0
 11
3158.172518663636
 21
-672.7502319748332
 31
0.0
  0
LINE
  5
1AC
330
1F
100
AcDbEntity
  8
0-1_本体
  6
Continuous
 62
    92
370
    13
100
AcDbLine
 10
3158.172518663636
 20
-705.0002319748334
 30
0.0
 11
3158.172518663636
 21
-150.0002319748334
 31
0.0
  0
LINE
  5
1AD
330
1F
100
AcDbEntity
  8
0-4_棚
  6
Continuous
 62
    92
370
    13
100
AcDbLine
 10
2006.172518663637
 20
-405.0002319748334
 30
0.0
 11
2006.172518663637
 21
-427.5002319748334
 31
0.0
  0
LINE
  5
1AE
330
1F
100
AcDbEntity
  8
0-4_棚
  6
Continuous
 62
    92
370
    13
100
AcDbLine
 10
3156.672518663637
 20
-405.0002319748334
 30
0.0
 11
2006.172518663637
 21
-405.0002319748334
 31
0.0
  0
LINE
  5
1AF
330
1F
100
AcDbEntity
  8
0-4_棚
  6
Continuous
 62
    92
370
    13
100
AcDbLine
 10
3156.672518663637
 20
-427.5002319748334
 30
0.0
 11
3156.672518663637
 21
-405.0002319748334
 31
0.0
  0
LINE
  5
1B0
330
1F
100
AcDbEntity
  8
0-4_棚
  6
Continuous
 62
    92
370
    13
100
AcDbLine
 10
2006.172518663637
 20
-427.5002319748334
 30
0.0
 11
3156.672518663637
 21
-427.5002319748334
 31
0.0
  0
TEXT
  5
1B1
330
1F
100
AcDbEntity
  8
0-A_文字
  6
Continuous
 62
     7
370
     9
100
AcDbText
 10
2446.422518663636
 20
-367.7141461546891
 30
0.0
 40
68.58
  1
可動棚
  7
ＭＳ ゴシック
100
AcDbText
  0
LINE
  5
1B2
330
1F
100
AcDbEntity
  8
0-B_寸法
  6
Continuous
 62
   120
370
     5
100
AcDbLine
 10
2976.544610623439
 20
-405.0002319748334
 30
0.0
 11
2976.544610623439
 21
-427.5002319748334
 31
0.0
  0
LWPOLYLINE
  5
1B3
330
1F
100
AcDbEntity
  8
0-B_寸法
  6
Continuous
 62
     7
370
     9
100
AcDbPolyline
 90
        4
 70
     1
 43
3.0
 10
2978.044610623439
 20
-405.0002319748334
 42
0.4142135623731
 10
2976.544610623439
 20
-403.5002319748334
 42
0.4142135623731
 10
2975.044610623439
 20
-405.0002319748334
 42
0.4142135623731
 10
2976.544610623439
 20
-406.5002319748334
 42
0.4142135623731
  0
LWPOLYLINE
  5
1B4
330
1F
100
AcDbEntity
  8
0-B_寸法
  6
Continuous
 62
     7
370
     9
100
AcDbPolyline
 90
        4
 70
     1
 43
3.0
 10
2978.044610623439
 20
-427.5002319748334
 42
0.4142135623731
 10
2976.544610623439
 20
-426.0002319748334
 42
0.4142135623731
 10
2975.044610623439
 20
-427.5002319748334
 42
0.4142135623731
 10
2976.544610623439
 20
-429.0002319748334
 42
0.4142135623731
  0
LINE
  5
1B5
330
1F
100
AcDbEntity
  8
0-B_寸法
  6
Continuous
 62
   120
370
     5
100
AcDbLine
 10
2976.544610623439
 20
-405.0002319748334
 30
0.0
 11
2826.544610623439
 21
-405.0002319748334
 31
0.0
  0
LINE
  5
1B6
330
1F
100
AcDbEntity
  8
0-B_寸法
  6
Continuous
 62
   120
370
     5
100
AcDbLine
 10
2976.544610623439
 20
-427.5002319748334
 30
0.0
 11
2826.544610623439
 21
-427.5002319748334
 31
0.0
  0
TEXT
  5
1B7
330
1F
100
AcDbEntity
  8
0-B_寸法
  6
Continuous
 62
     7
370
   211
100
AcDbText
 10
2948.854610623439
 20
-391.3279776760725
 30
0.0
 40
68.58
  1
15
 50
90.0
 41
1.083333333333333
  7
ＭＳ ゴシック
100
AcDbText
  0
LINE
  5
1B8
330
1F
100
AcDbEntity
  8
0-1_本体
  6
Continuous
 62
    40
370
    15
100
AcDbLine
 10
4406.055678059536
 20
-705.0002319748334
 30
0.0
 11
4923.555678059536
 21
-705.0002319748334
 31
0.0
  0
LINE
  5
1B9
330
1F
100
AcDbEntity
  8
0-1_本体
  6
Continuous
 62
    40
370
    15
100
AcDbLine
 10
4923.555678059536
 20
-705.0002319748334
 30
0.0
 11
4923.555678059536
 21
-673.500231974833
 31
0.0
  0
LINE
  5
1BA
330
1F
100
AcDbEntity
  8
0-1_本体
  6
Continuous
 62
    40
370
    15
100
AcDbLine
 10
4406.055678059536
 20
-673.500231974833
 30
0.0
 11
4406.055678059536
 21
-705.0002319748334
 31
0.0
  0
LINE
  5
1BB
330
1F
100
AcDbEntity
  8
0-1_本体
  6
Continuous
 62
    40
370
    15
100
AcDbLine
 10
4923.555678059536
 20
-181.5002319748328
 30
0.0
 11
4923.555678059536
 21
-150.0002319748334
 31
0.0
  0
LINE
  5
1BC
330
1F
100
AcDbEntity
  8
0-1_本体
  6
Continuous
 62
    40
370
    15
100
AcDbLine
 10
4923.555678059536
 20
-150.0002319748334
 30
0.0
 11
4406.055678059536
 21
-150.0002319748334
 31
0.0
  0
LINE
  5
1BD
330
1F
100
AcDbEntity
  8
0-1_本体
  6
Continuous
 62
    40
370
    15
100
AcDbLine
 10
4406.055678059536
 20
-150.0002319748334
 30
0.0
 11
4406.055678059536
 21
-181.5002319748328
 31
0.0
  0
LINE
  5
1BE
330
1F
100
AcDbEntity
  8
0-1_本体
  6
Continuous
 62
    40
370
    15
100
AcDbLine
 10
4910.055678059534
 20
-684.0002319748337
 30
0.0
 11
4905.555678059535
 21
-684.0002319748337
 31
0.0
  0
LINE
  5
1BF
330
1F
100
AcDbEntity
  8
0-1_本体
  6
Continuous
 62
    40
370
    15
100
AcDbLine
 10
4910.055678059534
 20
-684.0002319748337
 30
0.0
 11
4910.055678059534
 21
-171.0002319748339
 31
0.0
  0
LINE
  5
1C0
330
1F
100
AcDbEntity
  8
0-1_本体
  6
Continuous
 62
    40
370
    15
100
AcDbLine
 10
4910.055678059534
 20
-171.0002319748339
 30
0.0
 11
4905.555678059535
 21
-171.0002319748339
 31
0.0
  0
LINE
  5
1C1
330
1F
100
AcDbEntity
  8
0-1_本体
  6
Continuous
 62
    40
370
    15
100
AcDbLine
 10
4905.555678059535
 20
-684.0002319748337
 30
0.0
 11
4905.555678059535
 21
-171.0002319748339
 31
0.0
  0
LINE
  5
1C2
330
1F
100
AcDbEntity
  8
0-1_本体
  6
Continuous
 62
    40
370
    15
100
AcDbLine
 10
4406.055678059536
 20
-181.5002319748328
 30
0.0
 11
4905.555678059535
 21
-181.5002319748328
 31
0.0
  0
LINE
  5
1C3
330
1F
100
AcDbEntity
  8
0-1_本体
  6
Continuous
 62
    40
370
    15
100
AcDbLine
 10
4910.055678059534
 20
-181.5002319748328
 30
0.0
 11
4923.555678059536
 21
-181.5002319748328
 31
0.0
  0
LINE
  5
1C4
330
1F
100
AcDbEntity
  8
0-1_本体
  6
Continuous
 62
    40
370
    15
100
AcDbLine
 10
4923.555678059536
 20
-673.500231974833
 30
0.0
 11
4910.055678059534
 21
-673.500231974833
 31
0.0
  0
LINE
  5
1C5
330
1F
100
AcDbEntity
  8
0-1_本体
  6
Continuous
 62
    40
370
    15
100
AcDbLine
 10
4905.555678059535
 20
-673.500231974833
 30
0.0
 11
4406.055678059536
 21
-673.500231974833
 31
0.0
  0
LINE
  5
1C6
330
1F
100
AcDbEntity
  8
0-6_カウンター
  6
Continuous
 62
     7
370
     9
100
AcDbLine
 10
4910.055678059534
 20
-673.500231974833
 30
0.0
 11
4923.555678059534
 21
-591.000231974833
 31
0.0
  0
LINE
  5
1C7
330
1F
100
AcDbEntity
  8
0-6_カウンター
  6
Continuous
 62
    92
370
    13
100
AcDbLine
 10
4910.055678059534
 20
-591.000231974833
 30
0.0
 11
4910.055678059534
 21
-673.500231974833
 31
0.0
  0
LINE
  5
1C8
330
1F
100
AcDbEntity
  8
0-6_カウンター
  6
Continuous
 62
    92
370
    13
100
AcDbLine
 10
4923.555678059534
 20
-591.000231974833
 30
0.0
 11
4910.055678059534
 21
-591.000231974833
 31
0.0
  0
LINE
  5
1C9
330
1F
100
AcDbEntity
  8
0-6_カウンター
  6
Continuous
 62
    92
370
    13
100
AcDbLine
 10
4923.555678059534
 20
-673.500231974833
 30
0.0
 11
4923.555678059534
 21
-591.000231974833
 31
0.0
  0
LINE
  5
1CA
330
1F
100
AcDbEntity
  8
0-6_カウンター
  6
Continuous
 62
    92
370
    13
100
AcDbLine
 10
4910.055678059534
 20
-673.500231974833
 30
0.0
 11
4923.555678059534
 21
-673.500231974833
 31
0.0
  0
LINE
  5
1CB
330
1F
100
AcDbEntity
  8
0-6_カウンター
  6
Continuous
 62
     7
370
     9
100
AcDbLine
 10
4910.055678059534
 20
-264.0002319748328
 30
0.0
 11
4923.555678059534
 21
-181.5002319748328
 31
0.0
  0
LINE
  5
1CC
330
1F
100
AcDbEntity
  8
0-6_カウンター
  6
Continuous
 62
    92
370
    13
100
AcDbLine
 10
4910.055678059534
 20
-181.5002319748328
 30
0.0
 11
4910.055678059534
 21
-264.0002319748328
 31
0.0
  0
LINE
  5
1CD
330
1F
100
AcDbEntity
  8
0-6_カウンター
  6
Continuous
 62
    92
370
    13
100
AcDbLine
 10
4923.555678059534
 20
-181.5002319748328
 30
0.0
 11
4910.055678059534
 21
-181.5002319748328
 31
0.0
  0
LINE
  5
1CE
330
1F
100
AcDbEntity
  8
0-6_カウンター
  6
Continuous
 62
    92
370
    13
100
AcDbLine
 10
4923.555678059534
 20
-264.0002319748328
 30
0.0
 11
4923.555678059534
 21
-181.5002319748328
 31
0.0
  0
LINE
  5
1CF
330
1F
100
AcDbEntity
  8
0-6_カウンター
  6
Continuous
 62
    92
370
    13
100
AcDbLine
 10
4910.055678059534
 20
-264.0002319748328
 30
0.0
 11
4923.555678059534
 21
-264.0002319748328
 31
0.0
  0
LINE
  5
1D0
330
1F
100
AcDbEntity
  8
0-1_本体
  6
Continuous
 62
     7
370
     9
100
AcDbLine
 10
4923.555678059534
 20
-181.5002319748328
 30
0.0
 11
4923.555678059534
 21
-673.500231974833
 31
0.0
  0
LINE
  5
1D1
330
1F
100
AcDbEntity
  8
0-0_補助線
  6
JWW_HOJO
 62
   120
370
     5
100
AcDbLine
 10
4877.055678059535
 20
-684.0002319748337
 30
0.0
 11
4877.055678059535
 21
-171.0002319748339
 31
0.0
  0
LINE
  5
1D2
330
1F
100
AcDbEntity
  8
0-0_補助線
  6
JWW_HOJO
 62
   120
370
     5
100
AcDbLine
 10
4493.055678059535
 20
-684.0002319748337
 30
0.0
 11
4493.055678059535
 21
-171.0002319748339
 31
0.0
  0
LINE
  5
1D3
330
1F
100
AcDbEntity
  8
0-0_補助線
  6
JWW_HOJO
 62
   120
370
     5
100
AcDbLine
 10
4923.555678059536
 20
-382.5002319748334
 30
0.0
 11
4406.055678059536
 21
-382.5002319748334
 31
0.0
  0
LINE
  5
1D4
330
1F
100
AcDbEntity
  8
0-0_補助線
  6
JWW_HOJO
 62
   120
370
     5
100
AcDbLine
 10
4406.055678059536
 20
-472.5002319748334
 30
0.0
 11
4923.555678059536
 21
-472.5002319748334
 31
0.0
  0
LINE
  5
1D5
330
1F
100
AcDbEntity
  8
0-0_補助線
  6
JWW_HOJO
 62
   120
370
     5
100
AcDbLine
 10
4406.055678059536
 20
-427.5002319748334
 30
0.0
 11
4923.555678059536
 21
-427.5002319748334
 31
0.0
  0
LINE
  5
1D6
330
1F
100
AcDbEntity
  8
0-2_扉
  6
Continuous
 62
    40
370
    15
100
AcDbLine
 10
4376.055678059536
 20
-174.750231974833
 30
0.0
 11
4376.055678059536
 21
-680.2502319748329
 31
0.0
  0
LINE
  5
1D7
330
1F
100
AcDbEntity
  8
0-2_扉
  6
Continuous
 62
    40
370
    15
100
AcDbLine
 10
4376.055678059536
 20
-680.2502319748329
 30
0.0
 11
4406.055678059536
 21
-680.2502319748329
 31
0.0
  0
LINE
  5
1D8
330
1F
100
AcDbEntity
  8
0-2_扉
  6
Continuous
 62
    40
370
    15
100
AcDbLine
 10
4406.055678059536
 20
-174.750231974833
 30
0.0
 11
4406.055678059536
 21
-680.2502319748329
 31
0.0
  0
LINE
  5
1D9
330
1F
100
AcDbEntity
  8
0-2_扉
  6
Continuous
 62
    40
370
    15
100
AcDbLine
 10
4376.055678059536
 20
-174.750231974833
 30
0.0
 11
4406.055678059536
 21
-174.750231974833
 31
0.0
  0
LINE
  5
1DA
330
1F
100
AcDbEntity
  8
0-4_棚
  6
Continuous
 62
    40
370
    15
100
AcDbLine
 10
4905.555678059535
 20
-427.5002319748334
 30
0.0
 11
4470.555678059535
 21
-427.5002319748334
 31
0.0
  0
LINE
  5
1DB
330
1F
100
AcDbEntity
  8
0-4_棚
  6
Continuous
 62
    40
370
    15
100
AcDbLine
 10
4470.555678059535
 20
-427.5002319748334
 30
0.0
 11
4470.555678059535
 21
-405.0002319748334
 31
0.0
  0
LINE
  5
1DC
330
1F
100
AcDbEntity
  8
0-4_棚
  6
Continuous
 62
    40
370
    15
100
AcDbLine
 10
4470.555678059535
 20
-405.0002319748334
 30
0.0
 11
4905.555678059535
 21
-405.0002319748334
 31
0.0
  0
LINE
  5
1DD
330
1F
100
AcDbEntity
  8
0-4_棚
  6
Continuous
 62
    40
370
    15
100
AcDbLine
 10
4905.555678059535
 20
-405.0002319748334
 30
0.0
 11
4905.555678059535
 21
-427.5002319748334
 31
0.0
  0
LINE
  5
1DE
330
1F
100
AcDbEntity
  8
0-B_寸法
  6
Continuous
 62
   120
370
     5
100
AcDbLine
 10
5148.555678059536
 20
-150.0002319748334
 30
0.0
 11
5148.555678059536
 21
-382.5002319748334
 31
0.0
  0
LWPOLYLINE
  5
1DF
330
1F
100
AcDbEntity
  8
0-B_寸法
  6
Continuous
 62
     7
370
     9
100
AcDbPolyline
 90
        4
 70
     1
 43
3.0
 10
5150.055678059536
 20
-150.0002319748334
 42
0.4142135623731
 10
5148.555678059536
 20
-148.5002319748334
 42
0.4142135623731
 10
5147.055678059535
 20
-150.0002319748334
 42
0.4142135623731
 10
5148.555678059536
 20
-151.5002319748334
 42
0.4142135623731
  0
LWPOLYLINE
  5
1E0
330
1F
100
AcDbEntity
  8
0-B_寸法
  6
Continuous
 62
     7
370
     9
100
AcDbPolyline
 90
        4
 70
     1
 43
3.0
 10
5150.055678059536
 20
-382.5002319748334
 42
0.4142135623731
 10
5148.555678059536
 20
-381.0002319748334
 42
0.4142135623731
 10
5147.055678059535
 20
-382.5002319748334
 42
0.4142135623731
 10
5148.555678059536
 20
-384.0002319748334
 42
0.4142135623731
  0
LINE
  5
1E1
330
1F
100
AcDbEntity
  8
0-B_寸法
  6
Continuous
 62
   120
370
     5
100
AcDbLine
 10
5148.555678059536
 20
-150.0002319748334
 30
0.0
 11
4998.555678059536
 21
-150.0002319748334
 31
0.0
  0
LINE
  5
1E2
330
1F
100
AcDbEntity
  8
0-B_寸法
  6
Continuous
 62
   120
370
     5
100
AcDbLine
 10
5148.555678059536
 20
-382.5002319748334
 30
0.0
 11
4998.555678059536
 21
-382.5002319748334
 31
0.0
  0
TEXT
  5
1E3
330
1F
100
AcDbEntity
  8
0-B_寸法
  6
Continuous
 62
     7
370
   211
100
AcDbText
 10
5120.865678059537
 20
-341.2502319748334
 30
0.0
 40
68.58
  1
155
 50
90.0
 41
1.111111111111111
  7
ＭＳ ゴシック
100
AcDbText
  0
LINE
  5
1E4
330
1F
100
AcDbEntity
  8
0-B_寸法
  6
Continuous
 62
   120
370
     5
100
AcDbLine
 10
5148.555678059536
 20
-382.5002319748334
 30
0.0
 11
5148.555678059536
 21
-472.5002319748334
 31
0.0
  0
LWPOLYLINE
  5
1E5
330
1F
100
AcDbEntity
  8
0-B_寸法
  6
Continuous
 62
     7
370
     9
100
AcDbPolyline
 90
        4
 70
     1
 43
3.0
 10
5150.055678059536
 20
-472.5002319748334
 42
0.4142135623731
 10
5148.555678059536
 20
-471.0002319748334
 42
0.4142135623731
 10
5147.055678059535
 20
-472.5002319748334
 42
0.4142135623731
 10
5148.555678059536
 20
-474.0002319748334
 42
0.4142135623731
  0
LINE
  5
1E6
330
1F
100
AcDbEntity
  8
0-B_寸法
  6
Continuous
 62
   120
370
     5
100
AcDbLine
 10
5148.555678059536
 20
-472.5002319748334
 30
0.0
 11
4998.555678059536
 21
-472.5002319748334
 31
0.0
  0
TEXT
  5
1E7
330
1F
100
AcDbEntity
  8
0-B_寸法
  6
Continuous
 62
     7
370
   211
100
AcDbText
 10
5120.865678059537
 20
-476.2502319748334
 30
0.0
 40
68.58
  1
60
 50
90.0
 41
1.083333333333333
  7
ＭＳ ゴシック
100
AcDbText
  0
LINE
  5
1E8
330
1F
100
AcDbEntity
  8
0-B_寸法
  6
Continuous
 62
   120
370
     5
100
AcDbLine
 10
5148.555678059536
 20
-472.5002319748334
 30
0.0
 11
5148.555678059536
 21
-705.0002319748334
 31
0.0
  0
LWPOLYLINE
  5
1E9
330
1F
100
AcDbEntity
  8
0-B_寸法
  6
Continuous
 62
     7
370
     9
100
AcDbPolyline
 90
        4
 70
     1
 43
3.0
 10
5150.055678059536
 20
-705.0002319748334
 42
0.4142135623731
 10
5148.555678059536
 20
-703.5002319748334
 42
0.4142135623731
 10
5147.055678059535
 20
-705.0002319748334
 42
0.4142135623731
 10
5148.555678059536
 20
-706.5002319748334
 42
0.4142135623731
  0
LINE
  5
1EA
330
1F
100
AcDbEntity
  8
0-B_寸法
  6
Continuous
 62
   120
370
     5
100
AcDbLine
 10
5148.555678059536
 20
-705.0002319748334
 30
0.0
 11
4998.555678059536
 21
-705.0002319748334
 31
0.0
  0
TEXT
  5
1EB
330
1F
100
AcDbEntity
  8
0-B_寸法
  6
Continuous
 62
     7
370
   211
100
AcDbText
 10
5120.865678059537
 20
-663.7502319748334
 30
0.0
 40
68.58
  1
155
 50
90.0
 41
1.111111111111111
  7
ＭＳ ゴシック
100
AcDbText
  0
LINE
  5
1EC
330
1F
100
AcDbEntity
  8
0-B_寸法
  6
Continuous
 62
   120
370
     5
100
AcDbLine
 10
4599.555678059535
 20
-382.5002319748334
 30
0.0
 11
4599.555678059535
 21
-427.5002319748334
 31
0.0
  0
LWPOLYLINE
  5
1ED
330
1F
100
AcDbEntity
  8
0-B_寸法
  6
Continuous
 62
     7
370
     9
100
AcDbPolyline
 90
        4
 70
     1
 43
3.0
 10
4601.055678059536
 20
-382.5002319748334
 42
0.4142135623731
 10
4599.555678059535
 20
-381.0002319748334
 42
0.4142135623731
 10
4598.055678059535
 20
-382.5002319748334
 42
0.4142135623731
 10
4599.555678059535
 20
-384.0002319748334
 42
0.4142135623731
  0
LWPOLYLINE
  5
1EE
330
1F
100
AcDbEntity
  8
0-B_寸法
  6
Continuous
 62
     7
370
     9
100
AcDbPolyline
 90
        4
 70
     1
 43
3.0
 10
4601.055678059536
 20
-427.5002319748334
 42
0.4142135623731
 10
4599.555678059535
 20
-426.0002319748334
 42
0.4142135623731
 10
4598.055678059535
 20
-427.5002319748334
 42
0.4142135623731
 10
4599.555678059535
 20
-429.0002319748334
 42
0.4142135623731
  0
LINE
  5
1EF
330
1F
100
AcDbEntity
  8
0-B_寸法
  6
Continuous
 62
   120
370
     5
100
AcDbLine
 10
4599.555678059535
 20
-382.5002319748334
 30
0.0
 11
4539.555678059535
 21
-382.5002319748334
 31
0.0
  0
LINE
  5
1F0
330
1F
100
AcDbEntity
  8
0-B_寸法
  6
Continuous
 62
   120
370
     5
100
AcDbLine
 10
4599.555678059535
 20
-427.5002319748334
 30
0.0
 11
4539.555678059535
 21
-427.5002319748334
 31
0.0
  0
LWPOLYLINE
  5
1F1
330
1F
100
AcDbEntity
  8
0-B_寸法
  6
Continuous
 62
     7
370
     9
100
AcDbPolyline
 90
        4
 70
     1
 43
3.0
 10
4152.555678059536
 20
-150.0002319748334
 42
0.4142135623731
 10
4151.055678059536
 20
-148.5002319748334
 42
0.4142135623731
 10
4149.555678059535
 20
-150.0002319748334
 42
0.4142135623731
 10
4151.055678059536
 20
-151.5002319748334
 42
0.4142135623731
  0
LWPOLYLINE
  5
1F2
330
1F
100
AcDbEntity
  8
0-B_寸法
  6
Continuous
 62
     7
370
     9
100
AcDbPolyline
 90
        4
 70
     1
 43
3.0
 10
4152.555678059536
 20
-174.750231974833
 42
0.4142135623731
 10
4151.055678059536
 20
-173.250231974833
 42
0.4142135623731
 10
4149.555678059535
 20
-174.750231974833
 42
0.4142135623731
 10
4151.055678059536
 20
-176.250231974833
 42
0.4142135623731
  0
LINE
  5
1F3
330
1F
100
AcDbEntity
  8
0-B_寸法
  6
Continuous
 62
   120
370
     5
100
AcDbLine
 10
4001.055678059536
 20
-150.0002319748334
 30
0.0
 11
4301.055678059536
 21
-150.0002319748334
 31
0.0
  0
LINE
  5
1F4
330
1F
100
AcDbEntity
  8
0-B_寸法
  6
Continuous
 62
   120
370
     5
100
AcDbLine
 10
4151.055678059536
 20
-174.750231974833
 30
0.0
 11
4301.055678059536
 21
-174.750231974833
 31
0.0
  0
LINE
  5
1F5
330
1F
100
AcDbEntity
  8
0-B_寸法
  6
Continuous
 62
   120
370
     5
100
AcDbLine
 10
4151.055678059536
 20
-174.750231974833
 30
0.0
 11
4151.055678059536
 21
-680.2502319748329
 31
0.0
  0
LWPOLYLINE
  5
1F6
330
1F
100
AcDbEntity
  8
0-B_寸法
  6
Continuous
 62
     7
370
     9
100
AcDbPolyline
 90
        4
 70
     1
 43
3.0
 10
4152.555678059536
 20
-680.2502319748329
 42
0.4142135623731
 10
4151.055678059536
 20
-678.7502319748328
 42
0.4142135623731
 10
4149.555678059535
 20
-680.2502319748329
 42
0.4142135623731
 10
4151.055678059536
 20
-681.7502319748329
 42
0.4142135623731
  0
LINE
  5
1F7
330
1F
100
AcDbEntity
  8
0-B_寸法
  6
Continuous
 62
   120
370
     5
100
AcDbLine
 10
4151.055678059536
 20
-680.2502319748329
 30
0.0
 11
4301.055678059536
 21
-680.2502319748329
 31
0.0
  0
LWPOLYLINE
  5
1F8
330
1F
100
AcDbEntity
  8
0-B_寸法
  6
Continuous
 62
     7
370
     9
100
AcDbPolyline
 90
        4
 70
     1
 43
3.0
 10
4152.555678059536
 20
-705.0002319748334
 42
0.4142135623731
 10
4151.055678059536
 20
-703.5002319748334
 42
0.4142135623731
 10
4149.555678059535
 20
-705.0002319748334
 42
0.4142135623731
 10
4151.055678059536
 20
-706.5002319748334
 42
0.4142135623731
  0
LINE
  5
1F9
330
1F
100
AcDbEntity
  8
0-B_寸法
  6
Continuous
 62
   120
370
     5
100
AcDbLine
 10
4001.055678059536
 20
-705.0002319748334
 30
0.0
 11
4301.055678059536
 21
-705.0002319748334
 31
0.0
  0
TEXT
  5
1FA
330
1F
100
AcDbEntity
  8
0-B_寸法
  6
Continuous
 62
     7
370
   211
100
AcDbText
 10
4123.365678059537
 20
-135.9289860778637
 30
0.0
 40
68.58
  1
16.5
 50
90.0
 41
1.124999999999999
  7
ＭＳ ゴシック
100
AcDbText
  0
LINE
  5
1FB
330
1F
100
AcDbEntity
  8
0-B_寸法
  6
Continuous
 62
   120
370
     5
100
AcDbLine
 10
4001.055678059536
 20
-150.0002319748334
 30
0.0
 11
4001.055678059536
 21
-705.0002319748334
 31
0.0
  0
LWPOLYLINE
  5
1FC
330
1F
100
AcDbEntity
  8
0-B_寸法
  6
Continuous
 62
     7
370
     9
100
AcDbPolyline
 90
        4
 70
     1
 43
3.0
 10
4002.555678059536
 20
-150.0002319748334
 42
0.4142135623731
 10
4001.055678059536
 20
-148.5002319748334
 42
0.4142135623731
 10
3999.555678059535
 20
-150.0002319748334
 42
0.4142135623731
 10
4001.055678059536
 20
-151.5002319748334
 42
0.4142135623731
  0
LWPOLYLINE
  5
1FD
330
1F
100
AcDbEntity
  8
0-B_寸法
  6
Continuous
 62
     7
370
     9
100
AcDbPolyline
 90
        4
 70
     1
 43
3.0
 10
4002.555678059536
 20
-705.0002319748334
 42
0.4142135623731
 10
4001.055678059536
 20
-703.5002319748334
 42
0.4142135623731
 10
3999.555678059535
 20
-705.0002319748334
 42
0.4142135623731
 10
4001.055678059536
 20
-706.5002319748334
 42
0.4142135623731
  0
TEXT
  5
1FE
330
1F
100
AcDbEntity
  8
0-B_寸法
  6
Continuous
 62
     7
370
   211
100
AcDbText
 10
3973.365678059536
 20
-502.5002319748334
 30
0.0
 40
68.58
  1
370
 50
90.0
 41
1.111111111111111
  7
ＭＳ ゴシック
100
AcDbText
  0
TEXT
  5
1FF
330
1F
100
AcDbEntity
  8
0-B_寸法
  6
Continuous
 62
     7
370
   211
100
AcDbText
 10
4123.365678059537
 20
-923.0618166121578
 30
0.0
 40
68.58
  1
16.5
 50
90.0
 41
1.125
  7
ＭＳ ゴシック
100
AcDbText
  0
TEXT
  5
200
330
1F
100
AcDbEntity
  8
0-B_寸法
  6
Continuous
 62
     7
370
   211
100
AcDbText
 10
4123.365678059537
 20
-633.7502319748329
 30
0.0
 40
68.58
  1
ＤＨ＝337
 50
90.0
 41
1.018518518518519
  7
ＭＳ ゴシック
100
AcDbText
  0
LWPOLYLINE
  5
201
330
1F
100
AcDbEntity
  8
0-B_寸法
  6
Continuous
 62
     7
370
     9
100
AcDbPolyline
 90
        4
 70
     1
 43
3.0
 10
4911.555678059536
 20
-382.5002319748334
 42
0.4142135623731
 10
4910.055678059536
 20
-381.0002319748334
 42
0.4142135623731
 10
4908.555678059536
 20
-382.5002319748334
 42
0.4142135623731
 10
4910.055678059536
 20
-384.0002319748334
 42
0.4142135623731
  0
LINE
  5
202
330
1F
100
AcDbEntity
  8
0-B_寸法
  6
Continuous
 62
   120
370
     5
100
AcDbLine
 10
4905.555678059535
 20
-382.5002319748334
 30
0.0
 11
4910.055678059536
 21
-382.5002319748334
 31
0.0
  0
LWPOLYLINE
  5
203
330
1F
100
AcDbEntity
  8
0-B_寸法
  6
Continuous
 62
     7
370
     9
100
AcDbPolyline
 90
        4
 70
     1
 43
3.0
 10
4907.055678059535
 20
-382.5002319748334
 42
0.4142135623731
 10
4905.555678059535
 20
-381.0002319748334
 42
0.4142135623731
 10
4904.055678059534
 20
-382.5002319748334
 42
0.4142135623731
 10
4905.555678059535
 20
-384.0002319748334
 42
0.4142135623731
  0
TEXT
  5
204
330
1F
100
AcDbEntity
  8
0-B_寸法
  6
Continuous
 62
     7
370
   211
100
AcDbText
 10
4853.48963920097
 20
-354.8102319748334
 30
0.0
 40
68.58
  1
3
  7
ＭＳ ゴシック
100
AcDbText
  0
LINE
  5
205
330
1F
100
AcDbEntity
  8
0-B_寸法
  6
Continuous
 62
   120
370
     5
100
AcDbLine
 10
4151.055678059536
 20
66.57101392213605
 30
0.0
 11
4151.055678059536
 21
-174.750231974833
 31
0.0
  0
LINE
  5
206
330
1F
100
AcDbEntity
  8
0-B_寸法
  6
Continuous
 62
   120
370
     5
100
AcDbLine
 10
4151.055678059536
 20
-680.2502319748329
 30
0.0
 11
4151.055678059536
 21
-923.0618166121578
 31
0.0
  0
LWPOLYLINE
  5
207
330
1F
100
AcDbEntity
  8
0-5_ダボ
  6
Continuous
 62
     7
370
     9
100
AcDbPolyline
 90
        4
 70
     1
 43
3.0
 10
4494.555678059535
 20
-382.5002319748334
 42
0.4142135623731
 10
4493.055678059535
 20
-381.0002319748334
 42
0.4142135623731
 10
4491.555678059534
 20
-382.5002319748334
 42
0.4142135623731
 10
4493.055678059535
 20
-384.0002319748334
 42
0.4142135623731
  0
LWPOLYLINE
  5
208
330
1F
100
AcDbEntity
  8
0-5_ダボ
  6
Continuous
 62
     7
370
     9
100
AcDbPolyline
 90
        4
 70
     1
 43
3.0
 10
4494.555678059535
 20
-427.5002319748334
 42
0.4142135623731
 10
4493.055678059535
 20
-426.0002319748334
 42
0.4142135623731
 10
4491.555678059534
 20
-427.5002319748334
 42
0.4142135623731
 10
4493.055678059535
 20
-429.0002319748334
 42
0.4142135623731
  0
LWPOLYLINE
  5
209
330
1F
100
AcDbEntity
  8
0-5_ダボ
  6
Continuous
 62
     7
370
     9
100
AcDbPolyline
 90
        4
 70
     1
 43
3.0
 10
4494.555678059535
 20
-472.5002319748334
 42
0.4142135623731
 10
4493.055678059535
 20
-471.0002319748334
 42
0.4142135623731
 10
4491.555678059534
 20
-472.5002319748334
 42
0.4142135623731
 10
4493.055678059535
 20
-474.0002319748334
 42
0.4142135623731
  0
LWPOLYLINE
  5
20A
330
1F
100
AcDbEntity
  8
0-5_ダボ
  6
Continuous
 62
     7
370
     9
100
AcDbPolyline
 90
        4
 70
     1
 43
3.0
 10
4878.555678059536
 20
-472.5002319748334
 42
0.4142135623731
 10
4877.055678059535
 20
-471.0002319748334
 42
0.4142135623731
 10
4875.555678059535
 20
-472.5002319748334
 42
0.4142135623731
 10
4877.055678059535
 20
-474.0002319748334
 42
0.4142135623731
  0
LWPOLYLINE
  5
20B
330
1F
100
AcDbEntity
  8
0-5_ダボ
  6
Continuous
 62
     7
370
     9
100
AcDbPolyline
 90
        4
 70
     1
 43
3.0
 10
4878.555678059536
 20
-427.5002319748334
 42
0.4142135623731
 10
4877.055678059535
 20
-426.0002319748334
 42
0.4142135623731
 10
4875.555678059535
 20
-427.5002319748334
 42
0.4142135623731
 10
4877.055678059535
 20
-429.0002319748334
 42
0.4142135623731
  0
LWPOLYLINE
  5
20C
330
1F
100
AcDbEntity
  8
0-5_ダボ
  6
Continuous
 62
     7
370
     9
100
AcDbPolyline
 90
        4
 70
     1
 43
3.0
 10
4878.555678059536
 20
-382.5002319748334
 42
0.4142135623731
 10
4877.055678059535
 20
-381.0002319748334
 42
0.4142135623731
 10
4875.555678059535
 20
-382.5002319748334
 42
0.4142135623731
 10
4877.055678059535
 20
-384.0002319748334
 42
0.4142135623731
  0
LINE
  5
20D
330
1F
100
AcDbEntity
  8
0-B_寸法
  6
Continuous
 62
   120
370
     5
100
AcDbLine
 10
4374.555678059536
 20
569.9997680251664
 30
0.0
 11
4923.555678059536
 21
569.9997680251664
 31
0.0
  0
LWPOLYLINE
  5
20E
330
1F
100
AcDbEntity
  8
0-B_寸法
  6
Continuous
 62
     7
370
     9
100
AcDbPolyline
 90
        4
 70
     1
 43
3.0
 10
4376.055678059536
 20
569.9997680251664
 42
0.4142135623731
 10
4374.555678059536
 20
571.4997680251664
 42
0.4142135623731
 10
4373.055678059536
 20
569.9997680251664
 42
0.4142135623731
 10
4374.555678059536
 20
568.4997680251664
 42
0.4142135623731
  0
LWPOLYLINE
  5
20F
330
1F
100
AcDbEntity
  8
0-B_寸法
  6
Continuous
 62
     7
370
     9
100
AcDbPolyline
 90
        4
 70
     1
 43
3.0
 10
4925.055678059536
 20
569.9997680251664
 42
0.4142135623731
 10
4923.555678059536
 20
571.4997680251664
 42
0.4142135623731
 10
4922.055678059535
 20
569.9997680251664
 42
0.4142135623731
 10
4923.555678059536
 20
568.4997680251664
 42
0.4142135623731
  0
LINE
  5
210
330
1F
100
AcDbEntity
  8
0-B_寸法
  6
Continuous
 62
   120
370
     5
100
AcDbLine
 10
4374.555678059536
 20
569.9997680251664
 30
0.0
 11
4374.555678059536
 21
-30.00023197483358
 31
0.0
  0
LINE
  5
211
330
1F
100
AcDbEntity
  8
0-B_寸法
  6
Continuous
 62
   120
370
     5
100
AcDbLine
 10
4923.555678059536
 20
569.9997680251664
 30
0.0
 11
4923.555678059536
 21
-30.00023197483358
 31
0.0
  0
LINE
  5
212
330
1F
100
AcDbEntity
  8
0-B_寸法
  6
Continuous
 62
   120
370
     5
100
AcDbLine
 10
4923.555678059536
 20
119.9997680251664
 30
0.0
 11
4877.055678059535
 21
119.9997680251664
 31
0.0
  0
LWPOLYLINE
  5
213
330
1F
100
AcDbEntity
  8
0-B_寸法
  6
Continuous
 62
     7
370
     9
100
AcDbPolyline
 90
        4
 70
     1
 43
3.0
 10
4925.055678059536
 20
119.9997680251664
 42
0.4142135623731
 10
4923.555678059536
 20
121.4997680251664
 42
0.4142135623731
 10
4922.055678059535
 20
119.9997680251664
 42
0.4142135623731
 10
4923.555678059536
 20
118.4997680251664
 42
0.4142135623731
  0
LWPOLYLINE
  5
214
330
1F
100
AcDbEntity
  8
0-B_寸法
  6
Continuous
 62
     7
370
     9
100
AcDbPolyline
 90
        4
 70
     1
 43
3.0
 10
4878.555678059536
 20
119.9997680251664
 42
0.4142135623731
 10
4877.055678059535
 20
121.4997680251664
 42
0.4142135623731
 10
4875.555678059535
 20
119.9997680251664
 42
0.4142135623731
 10
4877.055678059535
 20
118.4997680251664
 42
0.4142135623731
  0
LINE
  5
215
330
1F
100
AcDbEntity
  8
0-B_寸法
  6
Continuous
 62
   120
370
     5
100
AcDbLine
 10
4877.055678059535
 20
119.9997680251664
 30
0.0
 11
4877.055678059535
 21
-30.00023197483358
 31
0.0
  0
LINE
  5
216
330
1F
100
AcDbEntity
  8
0-B_寸法
  6
Continuous
 62
   120
370
     5
100
AcDbLine
 10
4877.055678059535
 20
119.9997680251664
 30
0.0
 11
4493.055678059535
 21
119.9997680251664
 31
0.0
  0
LWPOLYLINE
  5
217
330
1F
100
AcDbEntity
  8
0-B_寸法
  6
Continuous
 62
     7
370
     9
100
AcDbPolyline
 90
        4
 70
     1
 43
3.0
 10
4494.555678059535
 20
119.9997680251664
 42
0.4142135623731
 10
4493.055678059535
 20
121.4997680251664
 42
0.4142135623731
 10
4491.555678059534
 20
119.9997680251664
 42
0.4142135623731
 10
4493.055678059535
 20
118.4997680251664
 42
0.4142135623731
  0
LINE
  5
218
330
1F
100
AcDbEntity
  8
0-B_寸法
  6
Continuous
 62
   120
370
     5
100
AcDbLine
 10
4493.055678059535
 20
119.9997680251664
 30
0.0
 11
4493.055678059535
 21
-30.00023197483358
 31
0.0
  0
TEXT
  5
219
330
1F
100
AcDbEntity
  8
0-B_寸法
  6
Continuous
 62
     7
370
   211
100
AcDbText
 10
4610.055678059536
 20
147.6897680251664
 30
0.0
 40
68.58
  1
256
 41
1.111111111111111
  7
ＭＳ ゴシック
100
AcDbText
  0
LINE
  5
21A
330
1F
100
AcDbEntity
  8
0-B_寸法
  6
Continuous
 62
   120
370
     5
100
AcDbLine
 10
4493.055678059535
 20
119.9997680251664
 30
0.0
 11
4406.055678059536
 21
119.9997680251664
 31
0.0
  0
LWPOLYLINE
  5
21B
330
1F
100
AcDbEntity
  8
0-B_寸法
  6
Continuous
 62
     7
370
     9
100
AcDbPolyline
 90
        4
 70
     1
 43
3.0
 10
4407.555678059536
 20
119.9997680251664
 42
0.4142135623731
 10
4406.055678059536
 20
121.4997680251664
 42
0.4142135623731
 10
4404.555678059535
 20
119.9997680251664
 42
0.4142135623731
 10
4406.055678059536
 20
118.4997680251664
 42
0.4142135623731
  0
LINE
  5
21C
330
1F
100
AcDbEntity
  8
0-B_寸法
  6
Continuous
 62
   120
370
     5
100
AcDbLine
 10
4406.055678059536
 20
269.9997680251664
 30
0.0
 11
4406.055678059536
 21
-30.00023197483358
 31
0.0
  0
LINE
  5
21D
330
1F
100
AcDbEntity
  8
0-B_寸法
  6
Continuous
 62
   120
370
     5
100
AcDbLine
 10
4923.555678059536
 20
269.9997680251664
 30
0.0
 11
4406.055678059536
 21
269.9997680251664
 31
0.0
  0
LWPOLYLINE
  5
21E
330
1F
100
AcDbEntity
  8
0-B_寸法
  6
Continuous
 62
     7
370
     9
100
AcDbPolyline
 90
        4
 70
     1
 43
3.0
 10
4925.055678059536
 20
269.9997680251664
 42
0.4142135623731
 10
4923.555678059536
 20
271.4997680251664
 42
0.4142135623731
 10
4922.055678059535
 20
269.9997680251664
 42
0.4142135623731
 10
4923.555678059536
 20
268.4997680251664
 42
0.4142135623731
  0
LWPOLYLINE
  5
21F
330
1F
100
AcDbEntity
  8
0-B_寸法
  6
Continuous
 62
     7
370
     9
100
AcDbPolyline
 90
        4
 70
     1
 43
3.0
 10
4407.555678059536
 20
269.9997680251664
 42
0.4142135623731
 10
4406.055678059536
 20
271.4997680251664
 42
0.4142135623731
 10
4404.555678059535
 20
269.9997680251664
 42
0.4142135623731
 10
4406.055678059536
 20
268.4997680251664
 42
0.4142135623731
  0
TEXT
  5
220
330
1F
100
AcDbEntity
  8
0-B_寸法
  6
Continuous
 62
     7
370
   211
100
AcDbText
 10
4589.805678059536
 20
297.6897680251664
 30
0.0
 40
68.58
  1
345
 41
1.111111111111111
  7
ＭＳ ゴシック
100
AcDbText
  0
LINE
  5
221
330
1F
100
AcDbEntity
  8
0-B_寸法
  6
Continuous
 62
   120
370
     5
100
AcDbLine
 10
4406.055678059536
 20
269.9997680251664
 30
0.0
 11
4376.055678059536
 21
269.9997680251664
 31
0.0
  0
LWPOLYLINE
  5
222
330
1F
100
AcDbEntity
  8
0-B_寸法
  6
Continuous
 62
     7
370
     9
100
AcDbPolyline
 90
        4
 70
     1
 43
3.0
 10
4377.555678059536
 20
269.9997680251664
 42
0.4142135623731
 10
4376.055678059536
 20
271.4997680251664
 42
0.4142135623731
 10
4374.555678059535
 20
269.9997680251664
 42
0.4142135623731
 10
4376.055678059536
 20
268.4997680251664
 42
0.4142135623731
  0
LINE
  5
223
330
1F
100
AcDbEntity
  8
0-B_寸法
  6
Continuous
 62
   120
370
     5
100
AcDbLine
 10
4376.055678059536
 20
419.9997680251664
 30
0.0
 11
4376.055678059536
 21
-30.00023197483358
 31
0.0
  0
LINE
  5
224
330
1F
100
AcDbEntity
  8
0-B_寸法
  6
Continuous
 62
   120
370
     5
100
AcDbLine
 10
4376.055678059536
 20
419.9997680251664
 30
0.0
 11
4923.555678059536
 21
419.9997680251664
 31
0.0
  0
LWPOLYLINE
  5
225
330
1F
100
AcDbEntity
  8
0-B_寸法
  6
Continuous
 62
     7
370
     9
100
AcDbPolyline
 90
        4
 70
     1
 43
3.0
 10
4377.555678059536
 20
419.9997680251664
 42
0.4142135623731
 10
4376.055678059536
 20
421.4997680251664
 42
0.4142135623731
 10
4374.555678059535
 20
419.9997680251664
 42
0.4142135623731
 10
4376.055678059536
 20
418.4997680251664
 42
0.4142135623731
  0
LWPOLYLINE
  5
226
330
1F
100
AcDbEntity
  8
0-B_寸法
  6
Continuous
 62
     7
370
     9
100
AcDbPolyline
 90
        4
 70
     1
 43
3.0
 10
4925.055678059536
 20
419.9997680251664
 42
0.4142135623731
 10
4923.555678059536
 20
421.4997680251664
 42
0.4142135623731
 10
4922.055678059535
 20
419.9997680251664
 42
0.4142135623731
 10
4923.555678059536
 20
418.4997680251664
 42
0.4142135623731
  0
TEXT
  5
227
330
1F
100
AcDbEntity
  8
0-B_寸法
  6
Continuous
 62
     7
370
   211
100
AcDbText
 10
4574.805678059536
 20
447.6897680251664
 30
0.0
 40
68.58
  1
365
 41
1.111111111111111
  7
ＭＳ ゴシック
100
AcDbText
  0
TEXT
  5
228
330
1F
100
AcDbEntity
  8
0-B_寸法
  6
Continuous
 62
     7
370
   211
100
AcDbText
 10
4386.77707458435
 20
297.6897680251664
 30
0.0
 40
68.58
  1
20
 41
1.083333333333333
  7
ＭＳ ゴシック
100
AcDbText
  0
TEXT
  5
229
330
1F
100
AcDbEntity
  8
0-B_寸法
  6
Continuous
 62
     7
370
   211
100
AcDbText
 10
4415.247836539847
 20
147.6897680251664
 30
0.0
 40
68.58
  1
58
 41
1.083333333333333
  7
ＭＳ ゴシック
100
AcDbText
  0
TEXT
  5
22A
330
1F
100
AcDbEntity
  8
0-B_寸法
  6
Continuous
 62
     7
370
   211
100
AcDbText
 10
4821.374882081476
 20
147.6897680251664
 30
0.0
 40
68.58
  1
31
 41
1.083333333333333
  7
ＭＳ ゴシック
100
AcDbText
  0
TEXT
  5
22B
330
1F
100
AcDbEntity
  8
0-B_寸法
  6
Continuous
 62
     7
370
   211
100
AcDbText
 10
4390.305678059536
 20
597.6897680251665
 30
0.0
 40
68.58
  1
ｶｳﾝﾀｰ＝366
 41
1.15
  7
ＭＳ ゴシック
100
AcDbText
  0
TEXT
  5
22C
330
1F
100
AcDbEntity
  8
0-B_寸法
  6
Continuous
 62
     7
370
   211
100
AcDbText
 10
4632.898608700973
 20
-387.5438360879497
 30
0.0
 40
57.15000000000001
  1
P30
 41
0.9999999999999999
  7
ＭＳ ゴシック
100
AcDbText
  0
LINE
  5
22D
330
1F
100
AcDbEntity
  8
0-0_補助線
  6
JWW_HOJO
 62
   120
370
     5
100
AcDbLine
 10
4301.055678059536
 20
-780.0002319748334
 30
0.0
 11
4998.555678059536
 21
-780.0002319748334
 31
0.0
  0
LINE
  5
22E
330
1F
100
AcDbEntity
  8
0-0_補助線
  6
JWW_HOJO
 62
   120
370
     5
100
AcDbLine
 10
4151.055678059536
 20
-930.0002319748334
 30
0.0
 11
5148.555678059536
 21
-930.0002319748334
 31
0.0
  0
LINE
  5
22F
330
1F
100
AcDbEntity
  8
0-0_補助線
  6
JWW_HOJO
 62
   120
370
     5
100
AcDbLine
 10
4998.555678059536
 20
-30.00023197483358
 30
0.0
 11
4301.055678059536
 21
-30.00023197483358
 31
0.0
  0
LINE
  5
230
330
1F
100
AcDbEntity
  8
0-0_補助線
  6
JWW_HOJO
 62
   120
370
     5
100
AcDbLine
 10
5148.555678059536
 20
119.9997680251664
 30
0.0
 11
4151.055678059536
 21
119.9997680251664
 31
0.0
  0
LINE
  5
231
330
1F
100
AcDbEntity
  8
0-0_補助線
  6
JWW_HOJO
 62
   120
370
     5
100
AcDbLine
 10
4301.055678059536
 20
-30.00023197483358
 30
0.0
 11
4301.055678059536
 21
-780.0002319748334
 31
0.0
  0
LINE
  5
232
330
1F
100
AcDbEntity
  8
0-0_補助線
  6
JWW_HOJO
 62
   120
370
     5
100
AcDbLine
 10
4998.555678059536
 20
-780.0002319748334
 30
0.0
 11
4998.555678059536
 21
-30.00023197483358
 31
0.0
  0
LINE
  5
233
330
1F
100
AcDbEntity
  8
0-0_補助線
  6
JWW_HOJO
 62
   120
370
     5
100
AcDbLine
 10
4151.055678059536
 20
119.9997680251664
 30
0.0
 11
4151.055678059536
 21
-930.0002319748334
 31
0.0
  0
LINE
  5
234
330
1F
100
AcDbEntity
  8
0-0_補助線
  6
JWW_HOJO
 62
   120
370
     5
100
AcDbLine
 10
5148.555678059536
 20
-930.0002319748334
 30
0.0
 11
5148.555678059536
 21
119.9997680251664
 31
0.0
  0
LINE
  5
235
330
1F
100
AcDbEntity
  8
0-8__
  6
Continuous
 62
     7
370
     9
100
AcDbLine
 10
3721.753942561736
 20
-1005.000231974834
 30
0.0
 11
4923.555678059536
 21
-1005.000231974834
 31
0.0
  0
TEXT
  5
236
330
1F
100
AcDbEntity
  8
0-8__
  6
Continuous
 62
     7
370
     9
100
AcDbText
 10
3721.753942561736
 20
-992.3102319748335
 30
0.0
 40
68.58
  1
ＦＬ▼
 41
1.111111111111111
  7
ＭＳ ゴシック
100
AcDbText
  0
LINE
  5
237
330
1F
100
AcDbEntity
  8
0-6_カウンター
  6
Continuous
 62
    40
370
    15
100
AcDbLine
 10
4376.676998403095
 20
-105.0002319748336
 30
0.0
 11
4923.555678059536
 21
-105.0002319748336
 31
0.0
  0
LINE
  5
238
330
1F
100
AcDbEntity
  8
0-6_カウンター
  6
Continuous
 62
    40
370
    15
100
AcDbLine
 10
4374.555678059536
 20
-107.1215523183932
 30
0.0
 11
4374.555678059536
 21
-150.0002319748336
 31
0.0
  0
LINE
  5
239
330
1F
100
AcDbEntity
  8
0-6_カウンター
  6
Continuous
 62
    40
370
    15
100
AcDbLine
 10
4376.676998403095
 20
-105.0002319748336
 30
0.0
 11
4374.555678059536
 21
-107.1215523183932
 31
0.0
  0
TEXT
  5
23A
330
1F
100
AcDbEntity
  8
0-B_寸法
  6
Continuous
 62
     7
370
   211
100
AcDbText
 10
-5450.098793354003
 20
-84.1813446187941
 30
0.0
 40
68.58
  1
30(ｶｳﾝﾀｰ)
 50
90.0
 41
1.148148148148148
  7
ＭＳ ゴシック
100
AcDbText
  0
LINE
  5
23B
330
1F
100
AcDbEntity
  8
0-B_寸法
  6
Continuous
 62
   120
370
     5
100
AcDbLine
 10
4905.555678059535
 20
-562.5002319748334
 30
0.0
 11
4905.555678059535
 21
-502.5002319748334
 31
0.0
  0
LINE
  5
23C
330
1F
100
AcDbEntity
  8
0-B_寸法
  6
Continuous
 62
   120
370
     5
100
AcDbLine
 10
4470.555678059535
 20
-562.5002319748334
 30
0.0
 11
4470.555678059535
 21
-502.5002319748334
 31
0.0
  0
LWPOLYLINE
  5
23D
330
1F
100
AcDbEntity
  8
0-B_寸法
  6
Continuous
 62
     7
370
     9
100
AcDbPolyline
 90
        4
 70
     1
 43
3.0
 10
4907.055678059535
 20
-562.5002319748334
 42
0.4142135623731
 10
4905.555678059535
 20
-561.0002319748334
 42
0.4142135623731
 10
4904.055678059534
 20
-562.5002319748334
 42
0.4142135623731
 10
4905.555678059535
 20
-564.0002319748334
 42
0.4142135623731
  0
LWPOLYLINE
  5
23E
330
1F
100
AcDbEntity
  8
0-B_寸法
  6
Continuous
 62
     7
370
     9
100
AcDbPolyline
 90
        4
 70
     1
 43
3.0
 10
4472.055678059535
 20
-562.5002319748334
 42
0.4142135623731
 10
4470.555678059535
 20
-561.0002319748334
 42
0.4142135623731
 10
4469.055678059534
 20
-562.5002319748334
 42
0.4142135623731
 10
4470.555678059535
 20
-564.0002319748334
 42
0.4142135623731
  0
LINE
  5
23F
330
1F
100
AcDbEntity
  8
0-B_寸法
  6
Continuous
 62
   120
370
     5
100
AcDbLine
 10
4470.555678059535
 20
-562.5002319748334
 30
0.0
 11
4905.555678059535
 21
-562.5002319748334
 31
0.0
  0
TEXT
  5
240
330
1F
100
AcDbEntity
  8
0-B_寸法
  6
Continuous
 62
     7
370
   211
100
AcDbText
 10
4631.805678059535
 20
-536.9252319748333
 30
0.0
 40
57.15000000000001
  1
290
 41
0.9999999999999999
  7
ＭＳ ゴシック
100
AcDbText
  0
LINE
  5
241
330
1F
100
AcDbEntity
  8
0-B_寸法
  6
Continuous
 62
   120
370
     5
100
AcDbLine
 10
-418.5774813363631
 20
-1380.000231974834
 30
0.0
 11
-418.5774813363631
 21
-1080.000231974834
 31
0.0
  0
LINE
  5
242
330
1F
100
AcDbEntity
  8
0-B_寸法
  6
Continuous
 62
   120
370
     5
100
AcDbLine
 10
781.422518663637
 20
-1380.000231974834
 30
0.0
 11
781.422518663637
 21
-1080.000231974834
 31
0.0
  0
LINE
  5
243
330
1F
100
AcDbEntity
  8
0-B_寸法
  6
Continuous
 62
   120
370
     5
100
AcDbLine
 10
1981.422518663637
 20
-1380.000231974834
 30
0.0
 11
1981.422518663637
 21
-1080.000231974834
 31
0.0
  0
LINE
  5
244
330
1F
100
AcDbEntity
  8
0-B_寸法
  6
Continuous
 62
   120
370
     5
100
AcDbLine
 10
3181.422518663637
 20
-1380.000231974834
 30
0.0
 11
3181.422518663637
 21
-1080.000231974834
 31
0.0
  0
LINE
  5
245
330
1F
100
AcDbEntity
  8
0-B_寸法
  6
Continuous
 62
   120
370
     5
100
AcDbLine
 10
-418.5774813363631
 20
-1380.000231974834
 30
0.0
 11
781.422518663637
 21
-1380.000231974834
 31
0.0
  0
LWPOLYLINE
  5
246
330
1F
100
AcDbEntity
  8
0-B_寸法
  6
Continuous
 62
     7
370
     9
100
AcDbPolyline
 90
        4
 70
     1
 43
3.0
 10
-417.0774813363631
 20
-1380.000231974834
 42
0.4142135623731
 10
-418.5774813363631
 20
-1378.500231974834
 42
0.4142135623731
 10
-420.0774813363631
 20
-1380.000231974834
 42
0.4142135623731
 10
-418.5774813363631
 20
-1381.500231974833
 42
0.4142135623731
  0
LWPOLYLINE
  5
247
330
1F
100
AcDbEntity
  8
0-B_寸法
  6
Continuous
 62
     7
370
     9
100
AcDbPolyline
 90
        4
 70
     1
 43
3.0
 10
782.922518663637
 20
-1380.000231974834
 42
0.4142135623731
 10
781.422518663637
 20
-1378.500231974834
 42
0.4142135623731
 10
779.9225186636369
 20
-1380.000231974834
 42
0.4142135623731
 10
781.422518663637
 20
-1381.500231974833
 42
0.4142135623731
  0
LINE
  5
248
330
1F
100
AcDbEntity
  8
0-B_寸法
  6
Continuous
 62
   120
370
     5
100
AcDbLine
 10
781.422518663637
 20
-1380.000231974834
 30
0.0
 11
1981.422518663637
 21
-1380.000231974834
 31
0.0
  0
LWPOLYLINE
  5
249
330
1F
100
AcDbEntity
  8
0-B_寸法
  6
Continuous
 62
     7
370
     9
100
AcDbPolyline
 90
        4
 70
     1
 43
3.0
 10
1982.922518663637
 20
-1380.000231974834
 42
0.4142135623731
 10
1981.422518663637
 20
-1378.500231974834
 42
0.4142135623731
 10
1979.922518663637
 20
-1380.000231974834
 42
0.4142135623731
 10
1981.422518663637
 20
-1381.500231974833
 42
0.4142135623731
  0
LINE
  5
24A
330
1F
100
AcDbEntity
  8
0-B_寸法
  6
Continuous
 62
   120
370
     5
100
AcDbLine
 10
1981.422518663637
 20
-1380.000231974834
 30
0.0
 11
3181.422518663637
 21
-1380.000231974834
 31
0.0
  0
LWPOLYLINE
  5
24B
330
1F
100
AcDbEntity
  8
0-B_寸法
  6
Continuous
 62
     7
370
     9
100
AcDbPolyline
 90
        4
 70
     1
 43
3.0
 10
3182.922518663637
 20
-1380.000231974834
 42
0.4142135623731
 10
3181.422518663637
 20
-1378.500231974834
 42
0.4142135623731
 10
3179.922518663637
 20
-1380.000231974834
 42
0.4142135623731
 10
3181.422518663637
 20
-1381.500231974833
 42
0.4142135623731
  0
TEXT
  5
24C
330
1F
100
AcDbEntity
  8
0-B_寸法
  6
Continuous
 62
     7
370
   211
100
AcDbText
 10
106.4225186636369
 20
-1352.310231974834
 30
0.0
 40
68.58
  1
800
 41
1.111111111111111
  7
ＭＳ ゴシック
100
AcDbText
  0
TEXT
  5
24D
330
1F
100
AcDbEntity
  8
0-B_寸法
  6
Continuous
 62
     7
370
   211
100
AcDbText
 10
1306.422518663637
 20
-1352.310231974834
 30
0.0
 40
68.58
  1
800
 41
1.111111111111111
  7
ＭＳ ゴシック
100
AcDbText
  0
TEXT
  5
24E
330
1F
100
AcDbEntity
  8
0-B_寸法
  6
Continuous
 62
     7
370
   211
100
AcDbText
 10
2506.422518663637
 20
-1352.310231974834
 30
0.0
 40
68.58
  1
800
 41
1.111111111111111
  7
ＭＳ ゴシック
100
AcDbText
  0
LINE
  5
24F
330
1F
100
AcDbEntity
  8
0-B_寸法
  6
Continuous
 62
   120
370
     5
100
AcDbLine
 10
-418.5774813363631
 20
-1530.000231974834
 30
0.0
 11
3181.422518663637
 21
-1530.000231974834
 31
0.0
  0
LWPOLYLINE
  5
250
330
1F
100
AcDbEntity
  8
0-B_寸法
  6
Continuous
 62
     7
370
     9
100
AcDbPolyline
 90
        4
 70
     1
 43
3.0
 10
-417.0774813363631
 20
-1530.000231974834
 42
0.4142135623731
 10
-418.5774813363631
 20
-1528.500231974834
 42
0.4142135623731
 10
-420.0774813363631
 20
-1530.000231974834
 42
0.4142135623731
 10
-418.5774813363631
 20
-1531.500231974833
 42
0.4142135623731
  0
LWPOLYLINE
  5
251
330
1F
100
AcDbEntity
  8
0-B_寸法
  6
Continuous
 62
     7
370
     9
100
AcDbPolyline
 90
        4
 70
     1
 43
3.0
 10
3182.922518663637
 20
-1530.000231974834
 42
0.4142135623731
 10
3181.422518663637
 20
-1528.500231974834
 42
0.4142135623731
 10
3179.922518663637
 20
-1530.000231974834
 42
0.4142135623731
 10
3181.422518663637
 20
-1531.500231974833
 42
0.4142135623731
  0
LINE
  5
252
330
1F
100
AcDbEntity
  8
0-B_寸法
  6
Continuous
 62
   120
370
     5
100
AcDbLine
 10
-418.5774813363631
 20
-1530.000231974834
 30
0.0
 11
-418.5774813363631
 21
-1080.000231974834
 31
0.0
  0
LINE
  5
253
330
1F
100
AcDbEntity
  8
0-B_寸法
  6
Continuous
 62
   120
370
     5
100
AcDbLine
 10
3181.422518663637
 20
-1530.000231974834
 30
0.0
 11
3181.422518663637
 21
-1080.000231974834
 31
0.0
  0
TEXT
  5
254
330
1F
100
AcDbEntity
  8
0-B_寸法
  6
Continuous
 62
     7
370
   211
100
AcDbText
 10
1253.922518663637
 20
-1502.310231974834
 30
0.0
 40
68.58
  1
2,400
 41
1.133333333333333
  7
ＭＳ ゴシック
100
AcDbText
  0
LINE
  5
255
330
1F
100
AcDbEntity
  8
0-B_寸法
  6
Continuous
 62
   120
370
     5
100
AcDbLine
 10
-418.5774813363631
 20
-1230.000231974834
 30
0.0
 11
-395.3274813363631
 21
-1230.000231974834
 31
0.0
  0
LWPOLYLINE
  5
256
330
1F
100
AcDbEntity
  8
0-B_寸法
  6
Continuous
 62
     7
370
     9
100
AcDbPolyline
 90
        4
 70
     1
 43
3.0
 10
-417.0774813363631
 20
-1230.000231974834
 42
0.4142135623731
 10
-418.5774813363631
 20
-1228.500231974834
 42
0.4142135623731
 10
-420.0774813363631
 20
-1230.000231974834
 42
0.4142135623731
 10
-418.5774813363631
 20
-1231.500231974833
 42
0.4142135623731
  0
LWPOLYLINE
  5
257
330
1F
100
AcDbEntity
  8
0-B_寸法
  6
Continuous
 62
     7
370
     9
100
AcDbPolyline
 90
        4
 70
     1
 43
3.0
 10
-393.8274813363631
 20
-1230.000231974834
 42
0.4142135623731
 10
-395.3274813363631
 20
-1228.500231974834
 42
0.4142135623731
 10
-396.8274813363631
 20
-1230.000231974834
 42
0.4142135623731
 10
-395.3274813363631
 20
-1231.500231974833
 42
0.4142135623731
  0
LINE
  5
258
330
1F
100
AcDbEntity
  8
0-B_寸法
  6
Continuous
 62
   120
370
     5
100
AcDbLine
 10
-395.3274813363631
 20
-1230.000231974834
 30
0.0
 11
-395.3274813363631
 21
-1080.000231974834
 31
0.0
  0
LINE
  5
259
330
1F
100
AcDbEntity
  8
0-B_寸法
  6
Continuous
 62
   120
370
     5
100
AcDbLine
 10
-395.3274813363631
 20
-1230.000231974834
 30
0.0
 11
758.1725186636368
 21
-1230.000231974834
 31
0.0
  0
LWPOLYLINE
  5
25A
330
1F
100
AcDbEntity
  8
0-B_寸法
  6
Continuous
 62
     7
370
     9
100
AcDbPolyline
 90
        4
 70
     1
 43
3.0
 10
759.6725186636368
 20
-1230.000231974834
 42
0.4142135623731
 10
758.1725186636368
 20
-1228.500231974834
 42
0.4142135623731
 10
756.6725186636368
 20
-1230.000231974834
 42
0.4142135623731
 10
758.1725186636368
 20
-1231.500231974833
 42
0.4142135623731
  0
LINE
  5
25B
330
1F
100
AcDbEntity
  8
0-B_寸法
  6
Continuous
 62
   120
370
     5
100
AcDbLine
 10
758.1725186636368
 20
-1230.000231974834
 30
0.0
 11
758.1725186636368
 21
-1080.000231974834
 31
0.0
  0
TEXT
  5
25C
330
1F
100
AcDbEntity
  8
0-B_寸法
  6
Continuous
 62
     7
370
   211
100
AcDbText
 10
106.4225186636369
 20
-1202.310231974834
 30
0.0
 40
68.58
  1
769
 41
1.111111111111111
  7
ＭＳ ゴシック
100
AcDbText
  0
LINE
  5
25D
330
1F
100
AcDbEntity
  8
0-B_寸法
  6
Continuous
 62
   120
370
     5
100
AcDbLine
 10
758.1725186636368
 20
-1230.000231974834
 30
0.0
 11
781.422518663637
 21
-1230.000231974834
 31
0.0
  0
LWPOLYLINE
  5
25E
330
1F
100
AcDbEntity
  8
0-B_寸法
  6
Continuous
 62
     7
370
     9
100
AcDbPolyline
 90
        4
 70
     1
 43
3.0
 10
782.922518663637
 20
-1230.000231974834
 42
0.4142135623731
 10
781.422518663637
 20
-1228.500231974834
 42
0.4142135623731
 10
779.9225186636369
 20
-1230.000231974834
 42
0.4142135623731
 10
781.422518663637
 20
-1231.500231974833
 42
0.4142135623731
  0
TEXT
  5
25F
330
1F
100
AcDbEntity
  8
0-B_寸法
  6
Continuous
 62
     7
370
   211
100
AcDbText
 10
548.5255442223742
 20
-1202.310231974834
 30
0.0
 40
68.58
  1
15.5
 41
1.125
  7
ＭＳ ゴシック
100
AcDbText
  0
TEXT
  5
260
330
1F
100
AcDbEntity
  8
0-B_寸法
  6
Continuous
 62
     7
370
   211
100
AcDbText
 10
-387.2181508002063
 20
-1202.310231974834
 30
0.0
 40
68.58
  1
15.5
 41
1.125
  7
ＭＳ ゴシック
100
AcDbText
  0
LINE
  5
261
330
1F
100
AcDbEntity
  8
0-B_寸法
  6
Continuous
 62
   120
370
     5
100
AcDbLine
 10
781.422518663637
 20
-1230.000231974834
 30
0.0
 11
804.6725186636369
 21
-1230.000231974834
 31
0.0
  0
LWPOLYLINE
  5
262
330
1F
100
AcDbEntity
  8
0-B_寸法
  6
Continuous
 62
     7
370
     9
100
AcDbPolyline
 90
        4
 70
     1
 43
3.0
 10
806.1725186636369
 20
-1230.000231974834
 42
0.4142135623731
 10
804.6725186636369
 20
-1228.500231974834
 42
0.4142135623731
 10
803.1725186636369
 20
-1230.000231974834
 42
0.4142135623731
 10
804.6725186636369
 20
-1231.500231974833
 42
0.4142135623731
  0
LINE
  5
263
330
1F
100
AcDbEntity
  8
0-B_寸法
  6
Continuous
 62
   120
370
     5
100
AcDbLine
 10
804.6725186636369
 20
-1230.000231974834
 30
0.0
 11
804.6725186636369
 21
-1080.000231974834
 31
0.0
  0
LINE
  5
264
330
1F
100
AcDbEntity
  8
0-B_寸法
  6
Continuous
 62
   120
370
     5
100
AcDbLine
 10
804.6725186636369
 20
-1230.000231974834
 30
0.0
 11
1958.172518663636
 21
-1230.000231974834
 31
0.0
  0
LWPOLYLINE
  5
265
330
1F
100
AcDbEntity
  8
0-B_寸法
  6
Continuous
 62
     7
370
     9
100
AcDbPolyline
 90
        4
 70
     1
 43
3.0
 10
1959.672518663636
 20
-1230.000231974834
 42
0.4142135623731
 10
1958.172518663636
 20
-1228.500231974834
 42
0.4142135623731
 10
1956.672518663636
 20
-1230.000231974834
 42
0.4142135623731
 10
1958.172518663636
 20
-1231.500231974833
 42
0.4142135623731
  0
LINE
  5
266
330
1F
100
AcDbEntity
  8
0-B_寸法
  6
Continuous
 62
   120
370
     5
100
AcDbLine
 10
1958.172518663636
 20
-1230.000231974834
 30
0.0
 11
1958.172518663636
 21
-1080.000231974834
 31
0.0
  0
TEXT
  5
267
330
1F
100
AcDbEntity
  8
0-B_寸法
  6
Continuous
 62
     7
370
   211
100
AcDbText
 10
1306.422518663637
 20
-1202.310231974834
 30
0.0
 40
68.58
  1
769
 41
1.111111111111111
  7
ＭＳ ゴシック
100
AcDbText
  0
LINE
  5
268
330
1F
100
AcDbEntity
  8
0-B_寸法
  6
Continuous
 62
   120
370
     5
100
AcDbLine
 10
1958.172518663636
 20
-1230.000231974834
 30
0.0
 11
1981.422518663637
 21
-1230.000231974834
 31
0.0
  0
LWPOLYLINE
  5
269
330
1F
100
AcDbEntity
  8
0-B_寸法
  6
Continuous
 62
     7
370
     9
100
AcDbPolyline
 90
        4
 70
     1
 43
3.0
 10
1982.922518663636
 20
-1230.000231974834
 42
0.4142135623731
 10
1981.422518663637
 20
-1228.500231974834
 42
0.4142135623731
 10
1979.922518663637
 20
-1230.000231974834
 42
0.4142135623731
 10
1981.422518663637
 20
-1231.500231974833
 42
0.4142135623731
  0
TEXT
  5
26A
330
1F
100
AcDbEntity
  8
0-B_寸法
  6
Continuous
 62
     7
370
   211
100
AcDbText
 10
1748.525544222374
 20
-1202.310231974834
 30
0.0
 40
68.58
  1
15.5
 41
1.124999999999998
  7
ＭＳ ゴシック
100
AcDbText
  0
TEXT
  5
26B
330
1F
100
AcDbEntity
  8
0-B_寸法
  6
Continuous
 62
     7
370
   211
100
AcDbText
 10
812.7818491997938
 20
-1202.310231974834
 30
0.0
 40
68.58
  1
15.5
 41
1.125
  7
ＭＳ ゴシック
100
AcDbText
  0
LINE
  5
26C
330
1F
100
AcDbEntity
  8
0-B_寸法
  6
Continuous
 62
   120
370
     5
100
AcDbLine
 10
1981.422518663637
 20
-1230.000231974834
 30
0.0
 11
2004.672518663637
 21
-1230.000231974834
 31
0.0
  0
LWPOLYLINE
  5
26D
330
1F
100
AcDbEntity
  8
0-B_寸法
  6
Continuous
 62
     7
370
     9
100
AcDbPolyline
 90
        4
 70
     1
 43
3.0
 10
2006.172518663637
 20
-1230.000231974834
 42
0.4142135623731
 10
2004.672518663637
 20
-1228.500231974834
 42
0.4142135623731
 10
2003.172518663637
 20
-1230.000231974834
 42
0.4142135623731
 10
2004.672518663637
 20
-1231.500231974833
 42
0.4142135623731
  0
LINE
  5
26E
330
1F
100
AcDbEntity
  8
0-B_寸法
  6
Continuous
 62
   120
370
     5
100
AcDbLine
 10
2004.672518663637
 20
-1230.000231974834
 30
0.0
 11
2004.672518663637
 21
-1080.000231974834
 31
0.0
  0
LINE
  5
26F
330
1F
100
AcDbEntity
  8
0-B_寸法
  6
Continuous
 62
   120
370
     5
100
AcDbLine
 10
2004.672518663637
 20
-1230.000231974834
 30
0.0
 11
3158.172518663636
 21
-1230.000231974834
 31
0.0
  0
LWPOLYLINE
  5
270
330
1F
100
AcDbEntity
  8
0-B_寸法
  6
Continuous
 62
     7
370
     9
100
AcDbPolyline
 90
        4
 70
     1
 43
3.0
 10
3159.672518663636
 20
-1230.000231974834
 42
0.4142135623731
 10
3158.172518663636
 20
-1228.500231974834
 42
0.4142135623731
 10
3156.672518663636
 20
-1230.000231974834
 42
0.4142135623731
 10
3158.172518663636
 20
-1231.500231974833
 42
0.4142135623731
  0
LINE
  5
271
330
1F
100
AcDbEntity
  8
0-B_寸法
  6
Continuous
 62
   120
370
     5
100
AcDbLine
 10
3158.172518663636
 20
-1230.000231974834
 30
0.0
 11
3158.172518663636
 21
-1080.000231974834
 31
0.0
  0
TEXT
  5
272
330
1F
100
AcDbEntity
  8
0-B_寸法
  6
Continuous
 62
     7
370
   211
100
AcDbText
 10
2506.422518663636
 20
-1202.310231974834
 30
0.0
 40
68.58
  1
769
 41
1.111111111111111
  7
ＭＳ ゴシック
100
AcDbText
  0
LINE
  5
273
330
1F
100
AcDbEntity
  8
0-B_寸法
  6
Continuous
 62
   120
370
     5
100
AcDbLine
 10
3158.172518663636
 20
-1230.000231974834
 30
0.0
 11
3181.422518663636
 21
-1230.000231974834
 31
0.0
  0
LWPOLYLINE
  5
274
330
1F
100
AcDbEntity
  8
0-B_寸法
  6
Continuous
 62
     7
370
     9
100
AcDbPolyline
 90
        4
 70
     1
 43
3.0
 10
3182.922518663636
 20
-1230.000231974834
 42
0.4142135623731
 10
3181.422518663636
 20
-1228.500231974834
 42
0.4142135623731
 10
3179.922518663637
 20
-1230.000231974834
 42
0.4142135623731
 10
3181.422518663636
 20
-1231.500231974833
 42
0.4142135623731
  0
TEXT
  5
275
330
1F
100
AcDbEntity
  8
0-B_寸法
  6
Continuous
 62
     7
370
   211
100
AcDbText
 10
2948.525544222374
 20
-1202.310231974834
 30
0.0
 40
68.58
  1
15.5
 41
1.125
  7
ＭＳ ゴシック
100
AcDbText
  0
TEXT
  5
276
330
1F
100
AcDbEntity
  8
0-B_寸法
  6
Continuous
 62
     7
370
   211
100
AcDbText
 10
2012.781849199793
 20
-1202.310231974834
 30
0.0
 40
68.58
  1
15.5
 41
1.125
  7
ＭＳ ゴシック
100
AcDbText
  0
TEXT
  5
277
330
1F
100
AcDbEntity
  8
0-B_寸法
  6
Continuous
 62
     7
370
   211
100
AcDbText
 10
1070.172518663637
 20
147.6897680251664
 30
0.0
 40
68.58
  1
ｶｳﾝﾀｰ＝2,406
 41
1.152777777777778
  7
ＭＳ ゴシック
100
AcDbText
  0
TEXT
  5
278
330
1F
100
AcDbEntity
  8
0-B_寸法
  6
Continuous
 62
     7
370
   211
100
AcDbText
 10
4589.805678059536
 20
-1202.310231974834
 30
0.0
 40
68.58
  1
345
 41
1.111111111111111
  7
ＭＳ ゴシック
100
AcDbText
  0
ENDSEC
  0
SECTION
  2
OBJECTS
  0
DICTIONARY
  5
C
330
0
100
AcDbDictionary
281
     1
  3
ACAD_GROUP
350
D
  3
ACAD_LAYOUT
350
1A
  3
ACAD_MATERIAL
350
3B
  3
ACAD_MLEADERSTYLE
350
27A
  3
ACAD_MLINESTYLE
350
17
  3
ACAD_PLOTSETTINGS
350
19
  3
ACAD_PLOTSTYLENAME
350
E
  3
ACAD_TABLESTYLE
350
279
  3
ACAD_VISUALSTYLE
350
2A
  0
DICTIONARY
  5
D
102
{ACAD_REACTORS
330
C
102
}
330
C
100
AcDbDictionary
281
     1
  0
DICTIONARY
  5
1A
102
{ACAD_REACTORS
330
C
102
}
330
C
100
AcDbDictionary
281
     1
  3
Layout1
350
1E
  3
Layout2
350
26
  3
Model
350
22
  0
DICTIONARY
  5
3B
102
{ACAD_REACTORS
330
C
102
}
330
C
100
AcDbDictionary
281
     1
  3
ByBlock
350
3D
  3
ByLayer
350
3C
  3
Global
350
3E
  0
DICTIONARY
  5
27A
102
{ACAD_REACTORS
330
C
102
}
330
C
100
AcDbDictionary
281
     1
  0
DICTIONARY
  5
17
102
{ACAD_REACTORS
330
C
102
}
330
C
100
AcDbDictionary
281
     1
  3
Standard
350
18
  0
DICTIONARY
  5
19
102
{ACAD_REACTORS
330
C
102
}
330
C
100
AcDbDictionary
281
     1
  0
ACDBDICTIONARYWDFLT
  5
E
102
{ACAD_REACTORS
330
C
102
}
330
C
100
AcDbDictionary
281
     1
  3
Normal
350
F
100
AcDbDictionaryWithDefault
340
F
  0
DICTIONARY
  5
279
102
{ACAD_REACTORS
330
C
102
}
330
C
100
AcDbDictionary
281
     1
  0
DICTIONARY
  5
2A
102
{ACAD_REACTORS
330
C
102
}
330
C
100
AcDbDictionary
281
     1
  3
2dWireframe
350
2F
  3
3D Hidden
350
31
  3
3dWireframe
350
30
  3
Basic
350
32
  3
Brighten
350
36
  3
ColorChange
350
3A
  3
Conceptual
350
34
  3
Dim
350
35
  3
Facepattern
350
39
  3
Flat
350
2B
  3
FlatWithEdges
350
2C
  3
Gouraud
350
2D
  3
GouraudWithEdges
350
2E
  3
Linepattern
350
38
  3
Realistic
350
33
  3
Thicken
350
37
  0
LAYOUT
  5
1E
102
{ACAD_REACTORS
330
1A
102
}
330
1A
100
AcDbPlotSettings
  1

  2
none_device
  4

  6

 40
0.0
 41
0.0
 42
0.0
 43
0.0
 44
0.0
 45
0.0
 46
0.0
 47
0.0
 48
0.0
 49
0.0
140
0.0
141
0.0
142
1.0
143
1.0
 70
   688
 72
     0
 73
     0
 74
     5
  7

 75
    16
 76
     0
 77
     5
 78
   300
147
1.0
148
0.0
149
0.0
100
AcDbLayout
  1
Layout1
 70
     1
 71
     1
 10
0.0
 20
0.0
 11
420.0
 21
297.0
 12
0.0
 22
0.0
 32
0.0
 14
1.000000000000000E+20
 24
1.000000000000000E+20
 34
1.000000000000000E+20
 15
-1.000000000000000E+20
 25
-1.000000000000000E+20
 35
-1.000000000000000E+20
146
0.0
 13
0.0
 23
0.0
 33
0.0
 16
1.0
 26
0.0
 36
0.0
 17
0.0
 27
1.0
 37
0.0
 76
     0
330
1B
  0
LAYOUT
  5
26
102
{ACAD_REACTORS
330
1A
102
}
330
1A
100
AcDbPlotSettings
  1

  2
none_device
  4

  6

 40
0.0
 41
0.0
 42
0.0
 43
0.0
 44
0.0
 45
0.0
 46
0.0
 47
0.0
 48
0.0
 49
0.0
140
0.0
141
0.0
142
1.0
143
1.0
 70
   688
 72
     0
 73
     0
 74
     5
  7

 75
    16
 76
     0
 77
     5
 78
   300
147
1.0
148
0.0
149
0.0
100
AcDbLayout
  1
Layout2
 70
     1
 71
     2
 10
0.0
 20
0.0
 11
0.0
 21
0.0
 12
0.0
 22
0.0
 32
0.0
 14
0.0
 24
0.0
 34
0.0
 15
0.0
 25
0.0
 35
0.0
146
0.0
 13
0.0
 23
0.0
 33
0.0
 16
1.0
 26
0.0
 36
0.0
 17
0.0
 27
1.0
 37
0.0
 76
     0
330
23
  0
LAYOUT
  5
22
102
{ACAD_REACTORS
330
1A
102
}
330
1A
100
AcDbPlotSettings
  1

  2
none_device
  4

  6

 40
0.0
 41
0.0
 42
0.0
 43
0.0
 44
0.0
 45
0.0
 46
0.0
 47
0.0
 48
0.0
 49
0.0
140
0.0
141
0.0
142
1.0
143
1.0
 70
  1712
 72
     0
 73
     0
 74
     0
  7

 75
     0
 76
     0
 77
     5
 78
   300
147
1.0
148
0.0
149
0.0
100
AcDbLayout
  1
Model
 70
     1
 71
     0
 10
-6300.0
 20
-4455.0
 11
6300.0
 21
4455.0
 12
0.0
 22
0.0
 32
0.0
 14
-6300.0
 24
-4455.0
 34
0.0
 15
6300.0
 25
4455.0
 35
0.0
146
0.0
 13
0.0
 23
0.0
 33
0.0
 16
1.0
 26
0.0
 36
0.0
 17
0.0
 27
1.0
 37
0.0
 76
     0
330
1F
331
29
  0
MATERIAL
  5
3D
102
{ACAD_REACTORS
330
3B
102
}
330
3B
100
AcDbMaterial
  1
ByBlock
 72
     1
 94
      127
  0
MATERIAL
  5
3C
102
{ACAD_REACTORS
330
3B
102
}
330
3B
100
AcDbMaterial
  1
ByLayer
 72
     1
 94
      127
  0
MATERIAL
  5
3E
102
{ACAD_REACTORS
330
3B
102
}
330
3B
100
AcDbMaterial
  1
Global
 72
     1
 94
      127
  0
MLINESTYLE
  5
18
102
{ACAD_REACTORS
330
17
102
}
330
17
100
AcDbMlineStyle
  2
Standard
 70
     0
  3

 62
   256
 51
90.0
 52
90.0
 71
     2
 49
0.5
 62
   256
  6
BYLAYER
 49
-0.5
 62
   256
  6
BYLAYER
  0
ACDBPLACEHOLDER
  5
F
102
{ACAD_REACTORS
330
E
102
}
330
E
  0
VISUALSTYLE
  5
2F
102
{ACAD_REACTORS
330
2A
102
}
330
2A
100
AcDbVisualStyle
  2
2dWireframe
 70
     4
177
     2
291
     0
 71
     0
176
     1
 72
     2
176
     1
 73
     0
176
     1
 90
        0
176
     1
 40
-0.6
176
     1
 41
-30.0
176
     1
 62
     5
 63
     7
421
 16777215
176
     1
 74
     1
176
     1
 91
        4
176
     1
 64
     7
176
     1
 65
   257
176
     1
 75
     1
176
     1
175
     1
176
     1
 42
1.0
176
     1
 92
        0
176
     1
 66
   257
176
     1
 43
1.0
176
     1
 76
     1
176
     1
 77
     6
176
     1
 78
     2
176
     1
 67
     7
176
     1
 79
     5
176
     1
170
     0
176
     1
171
     0
176
     1
290
     0
176
     1
 93
        1
176
     1
 44
0.0
176
     1
173
     0
176
     1
  0
VISUALSTYLE
  5
31
102
{ACAD_REACTORS
330
2A
102
}
330
2A
100
AcDbVisualStyle
  2
3D Hidden
 70
     6
177
     2
291
     0
 71
     1
176
     1
 72
     2
176
     1
 73
     2
176
     1
 90
        0
176
     1
 40
-0.6
176
     1
 41
-30.0
176
     1
 62
     5
 63
     7
421
 16777215
176
     1
 74
     2
176
     1
 91
        2
176
     1
 64
     7
176
     1
 65
   257
176
     1
 75
     2
176
     1
175
     1
176
     1
 42
40.0
176
     1
 92
        0
176
     1
 66
   257
176
     1
 43
1.0
176
     1
 76
     1
176
     1
 77
     6
176
     1
 78
     2
176
     1
 67
     7
176
     1
 79
     3
176
     1
170
     0
176
     1
171
     0
176
     1
290
     0
176
     1
 93
        1
176
     1
 44
0.0
176
     1
173
     0
176
     1
  0
VISUALSTYLE
  5
30
102
{ACAD_REACTORS
330
2A
102
}
330
2A
100
AcDbVisualStyle
  2
3dWireframe
 70
     5
177
     2
291
     0
 71
     0
176
     1
 72
     2
176
     1
 73
     0
176
     1
 90
        0
176
     1
 40
-0.6
176
     1
 41
-30.0
176
     1
 62
     5
 63
     7
421
 16777215
176
     1
 74
     1
176
     1
 91
        4
176
     1
 64
     7
176
     1
 65
   257
176
     1
 75
     1
176
     1
175
     1
176
     1
 42
1.0
176
     1
 92
        0
176
     1
 66
   257
176
     1
 43
1.0
176
     1
 76
     1
176
     1
 77
     6
176
     1
 78
     2
176
     1
 67
     7
176
     1
 79
     5
176
     1
170
     0
176
     1
171
     0
176
     1
290
     0
176
     1
 93
        1
176
     1
 44
0.0
176
     1
173
     0
176
     1
  0
VISUALSTYLE
  5
32
102
{ACAD_REACTORS
330
2A
102
}
330
2A
100
AcDbVisualStyle
  2
Basic
 70
     7
177
     2
291
     1
 71
     1
176
     1
 72
     0
176
     1
 73
     1
176
     1
 90
        0
176
     1
 40
-0.6
176
     1
 41
-30.0
176
     1
 62
     5
 63
     7
421
 16777215
176
     1
 74
     0
176
     1
 91
        4
176
     1
 64
     7
176
     1
 65
   257
176
     1
 75
     1
176
     1
175
     1
176
     1
 42
1.0
176
     1
 92
        8
176
     1
 66
     7
176
     1
 43
1.0
176
     1
 76
     1
176
     1
 77
     6
176
     1
 78
     2
176
     1
 67
     7
176
     1
 79
     5
176
     1
170
     0
176
     1
171
     0
176
     1
290
     0
176
     1
 93
        1
176
     1
 44
0.0
176
     1
173
     0
176
     1
  0
VISUALSTYLE
  5
36
102
{ACAD_REACTORS
330
2A
102
}
330
2A
100
AcDbVisualStyle
  2
Brighten
 70
    12
177
     2
291
     1
 71
     2
176
     1
 72
     2
176
     1
 73
     0
176
     1
 90
        0
176
     1
 40
-0.6
176
     1
 41
-30.0
176
     1
 62
     5
 63
     7
421
 16777215
176
     1
 74
     1
176
     1
 91
        4
176
     1
 64
     7
176
     1
 65
   257
176
     1
 75
     1
176
     1
175
     1
176
     1
 42
1.0
176
     1
 92
        8
176
     1
 66
     7
176
     1
 43
1.0
176
     1
 76
     1
176
     1
 77
     6
176
     1
 78
     2
176
     1
 67
     7
176
     1
 79
     5
176
     1
170
     0
176
     1
171
     0
176
     1
290
     0
176
     1
 93
        1
176
     1
 44
50.0
176
     1
173
     0
176
     1
  0
VISUALSTYLE
  5
3A
102
{ACAD_REACTORS
330
2A
102
}
330
2A
100
AcDbVisualStyle
  2
ColorChange
 70
    16
177
     2
291
     1
 71
     2
176
     1
 72
     2
176
     1
 73
     3
176
     1
 90
        0
176
     1
 40
-0.6
176
     1
 41
-30.0
176
     1
 62
     5
 63
     8
421
  8421504
176
     1
 74
     1
176
     1
 91
        4
176
     1
 64
     7
176
     1
 65
   257
176
     1
 75
     1
176
     1
175
     1
176
     1
 42
1.0
176
     1
 92
        8
176
     1
 66
     8
424
  8421504
176
     1
 43
1.0
176
     1
 76
     1
176
     1
 77
     6
176
     1
 78
     2
176
     1
 67
     7
176
     1
 79
     5
176
     1
170
     0
176
     1
171
     0
176
     1
290
     0
176
     1
 93
        1
176
     1
 44
0.0
176
     1
173
     0
176
     1
  0
VISUALSTYLE
  5
34
102
{ACAD_REACTORS
330
2A
102
}
330
2A
100
AcDbVisualStyle
  2
Conceptual
 70
     9
177
     2
291
     0
 71
     3
176
     1
 72
     2
176
     1
 73
     0
176
     1
 90
        0
176
     1
 40
-0.6
176
     1
 41
-30.0
176
     1
 62
     5
 63
     7
421
 16777215
176
     1
 74
     2
176
     1
 91
        2
176
     1
 64
     7
176
     1
 65
   257
176
     1
 75
     1
176
     1
175
     1
176
     1
 42
40.0
176
     1
 92
        8
176
     1
 66
     7
176
     1
 43
1.0
176
     1
 76
     1
176
     1
 77
     6
176
     1
 78
     2
176
     1
 67
     7
176
     1
 79
     3
176
     1
170
     0
176
     1
171
     0
176
     1
290
     0
176
     1
 93
        1
176
     1
 44
0.0
176
     1
173
     0
176
     1
  0
VISUALSTYLE
  5
35
102
{ACAD_REACTORS
330
2A
102
}
330
2A
100
AcDbVisualStyle
  2
Dim
 70
    11
177
     2
291
     1
 71
     2
176
     1
 72
     2
176
     1
 73
     0
176
     1
 90
        0
176
     1
 40
-0.6
176
     1
 41
-30.0
176
     1
 62
     5
 63
     7
421
 16777215
176
     1
 74
     1
176
     1
 91
        4
176
     1
 64
     7
176
     1
 65
   257
176
     1
 75
     1
176
     1
175
     1
176
     1
 42
1.0
176
     1
 92
        8
176
     1
 66
     7
176
     1
 43
1.0
176
     1
 76
     1
176
     1
 77
     6
176
     1
 78
     2
176
     1
 67
     7
176
     1
 79
     5
176
     1
170
     0
176
     1
171
     0
176
     1
290
     0
176
     1
 93
        1
176
     1
 44
-50.0
176
     1
173
     0
176
     1
  0
VISUALSTYLE
  5
39
102
{ACAD_REACTORS
330
2A
102
}
330
2A
100
AcDbVisualStyle
  2
Facepattern
 70
    15
177
     2
291
     1
 71
     2
176
     1
 72
     2
176
     1
 73
     0
176
     1
 90
        0
176
     1
 40
-0.6
176
     1
 41
-30.0
176
     1
 62
     5
 63
     7
421
 16777215
176
     1
 74
     1
176
     1
 91
        4
176
     1
 64
     7
176
     1
 65
   257
176
     1
 75
     1
176
     1
175
     1
176
     1
 42
1.0
176
     1
 92
        8
176
     1
 66
     7
176
     1
 43
1.0
176
     1
 76
     1
176
     1
 77
     6
176
     1
 78
     2
176
     1
 67
     7
176
     1
 79
     5
176
     1
170
     0
176
     1
171
     0
176
     1
290
     0
176
     1
 93
        1
176
     1
 44
0.0
176
     1
173
     0
176
     1
  0
VISUALSTYLE
  5
2B
102
{ACAD_REACTORS
330
2A
102
}
330
2A
100
AcDbVisualStyle
  2
Flat
 70
     0
177
     2
291
     1
 71
     2
176
     1
 72
     1
176
     1
 73
     1
176
     1
 90
        2
176
     1
 40
-0.6
176
     1
 41
30.0
176
     1
 62
     5
 63
     7
421
 16777215
176
     1
 74
     0
176
     1
 91
        4
176
     1
 64
     7
176
     1
 65
   257
176
     1
 75
     1
176
     1
175
     1
176
     1
 42
1.0
176
     1
 92
        8
176
     1
 66
     7
176
     1
 43
1.0
176
     1
 76
     1
176
     1
 77
     6
176
     1
 78
     2
176
     1
 67
     7
176
     1
 79
     5
176
     1
170
     0
176
     1
171
     0
176
     1
290
     0
176
     1
 93
       13
176
     1
 44
0.0
176
     1
173
     0
176
     1
  0
VISUALSTYLE
  5
2C
102
{ACAD_REACTORS
330
2A
102
}
330
2A
100
AcDbVisualStyle
  2
FlatWithEdges
 70
     1
177
     2
291
     1
 71
     2
176
     1
 72
     1
176
     1
 73
     1
176
     1
 90
        2
176
     1
 40
-0.6
176
     1
 41
30.0
176
     1
 62
     5
 63
     7
421
 16777215
176
     1
 74
     1
176
     1
 91
        4
176
     1
 64
     7
176
     1
 65
   257
176
     1
 75
     1
176
     1
175
     1
176
     1
 42
1.0
176
     1
 92
        0
176
     1
 66
   257
176
     1
 43
1.0
176
     1
 76
     1
176
     1
 77
     6
176
     1
 78
     2
176
     1
 67
     7
176
     1
 79
     5
176
     1
170
     0
176
     1
171
     0
176
     1
290
     0
176
     1
 93
       13
176
     1
 44
0.0
176
     1
173
     0
176
     1
  0
VISUALSTYLE
  5
2D
102
{ACAD_REACTORS
330
2A
102
}
330
2A
100
AcDbVisualStyle
  2
Gouraud
 70
     2
177
     2
291
     1
 71
     2
176
     1
 72
     2
176
     1
 73
     1
176
     1
 90
        2
176
     1
 40
-0.6
176
     1
 41
30.0
176
     1
 62
     5
 63
     7
421
 16777215
176
     1
 74
     0
176
     1
 91
        4
176
     1
 64
     7
176
     1
 65
   257
176
     1
 75
     1
176
     1
175
     1
176
     1
 42
1.0
176
     1
 92
        0
176
     1
 66
     7
176
     1
 43
1.0
176
     1
 76
     1
176
     1
 77
     6
176
     1
 78
     2
176
     1
 67
     7
176
     1
 79
     5
176
     1
170
     0
176
     1
171
     0
176
     1
290
     0
176
     1
 93
       13
176
     1
 44
0.0
176
     1
173
     0
176
     1
  0
VISUALSTYLE
  5
2E
102
{ACAD_REACTORS
330
2A
102
}
330
2A
100
AcDbVisualStyle
  2
GouraudWithEdges
 70
     3
177
     2
291
     1
 71
     2
176
     1
 72
     2
176
     1
 73
     1
176
     1
 90
        2
176
     1
 40
-0.6
176
     1
 41
30.0
176
     1
 62
     5
 63
     7
421
 16777215
176
     1
 74
     1
176
     1
 91
        4
176
     1
 64
     7
176
     1
 65
   257
176
     1
 75
     1
176
     1
175
     1
176
     1
 42
1.0
176
     1
 92
        0
176
     1
 66
   257
176
     1
 43
1.0
176
     1
 76
     1
176
     1
 77
     6
176
     1
 78
     2
176
     1
 67
     7
176
     1
 79
     5
176
     1
170
     0
176
     1
171
     0
176
     1
290
     0
176
     1
 93
       13
176
     1
 44
0.0
176
     1
173
     0
176
     1
  0
VISUALSTYLE
  5
38
102
{ACAD_REACTORS
330
2A
102
}
330
2A
100
AcDbVisualStyle
  2
Linepattern
 70
    14
177
     2
291
     1
 71
     2
176
     1
 72
     2
176
     1
 73
     0
176
     1
 90
        0
176
     1
 40
-0.6
176
     1
 41
-30.0
176
     1
 62
     5
 63
     7
421
 16777215
176
     1
 74
     1
176
     1
 91
        4
176
     1
 64
     7
176
     1
 65
   257
176
     1
 75
     7
176
     1
175
     7
176
     1
 42
1.0
176
     1
 92
        8
176
     1
 66
     7
176
     1
 43
1.0
176
     1
 76
     1
176
     1
 77
     6
176
     1
 78
     2
176
     1
 67
     7
176
     1
 79
     5
176
     1
170
     0
176
     1
171
     0
176
     1
290
     0
176
     1
 93
        1
176
     1
 44
0.0
176
     1
173
     0
176
     1
  0
VISUALSTYLE
  5
33
102
{ACAD_REACTORS
330
2A
102
}
330
2A
100
AcDbVisualStyle
  2
Realistic
 70
     8
177
     2
291
     0
 71
     2
176
     1
 72
     2
176
     1
 73
     0
176
     1
 90
        0
176
     1
 40
-0.6
176
     1
 41
-30.0
176
     1
 62
     5
 63
     7
421
 16777215
176
     1
 74
     1
176
     1
 91
        0
176
     1
 64
     7
176
     1
 65
   257
176
     1
 75
     1
176
     1
175
     1
176
     1
 42
1.0
176
     1
 92
        8
176
     1
 66
     8
424
  7895160
176
     1
 43
1.0
176
     1
 76
     1
176
     1
 77
     6
176
     1
 78
     2
176
     1
 67
     7
176
     1
 79
     5
176
     1
170
     0
176
     1
171
     0
176
     1
290
     0
176
     1
 93
       13
176
     1
 44
0.0
176
     1
173
     0
176
     1
  0
VISUALSTYLE
  5
37
102
{ACAD_REACTORS
330
2A
102
}
330
2A
100
AcDbVisualStyle
  2
Thicken
 70
    13
177
     2
291
     1
 71
     2
176
     1
 72
     2
176
     1
 73
     0
176
     1
 90
        0
176
     1
 40
-0.6
176
     1
 41
-30.0
176
     1
 62
     5
 63
     7
421
 16777215
176
     1
 74
     1
176
     1
 91
        4
176
     1
 64
     7
176
     1
 65
   257
176
     1
 75
     1
176
     1
175
     1
176
     1
 42
1.0
176
     1
 92
       12
176
     1
 66
     7
176
     1
 43
1.0
176
     1
 76
     1
176
     1
 77
     6
176
     1
 78
     2
176
     1
 67
     7
176
     1
 79
     5
176
     1
170
     0
176
     1
171
     0
176
     1
290
     0
176
     1
 93
        1
176
     1
 44
0.0
176
     1
173
     0
176
     1
  0
ENDSEC
  0
EOF
