  0
SECTION
  2
HEADER
  9
$ACADVER
  1
AC1024
  9
$ACADMAINTVER
 70
     6
  9
$DWGCODEPAGE
  3
ANSI_932
  9
$INSBASE
 10
0.0
 20
0.0
 30
0.0
  9
$EXTMIN
 10
-6300.0
 20
-4455.0
 30
0.0
  9
$EXTMAX
 10
6300.0
 20
4455.0
 30
0.0
  9
$LIMMIN
 10
-6300.0
 20
-4455.0
  9
$LIMMAX
 10
6300.0
 20
4455.0
  9
$ORTHOMODE
 70
     0
  9
$REGENMODE
 70
     1
  9
$FILLMODE
 70
     1
  9
$QTEXTMODE
 70
     0
  9
$MIRRTEXT
 70
     1
  9
$LTSCALE
 40
30.0
  9
$ATTMODE
 70
     1
  9
$TEXTSIZE
 40
2.5
  9
$TRACEWID
 40
1.0
  9
$TEXTSTYLE
  7
Standard
  9
$CLAYER
  8
0
  9
$CELTYPE
  6
ByLayer
  9
$CECOLOR
 62
   256
  9
$CELTSCALE
 40
1.0
  9
$DISPSILH
 70
     0
  9
$DIMSCALE
 40
1.0
  9
$DIMASZ
 40
2.5
  9
$DIMEXO
 40
0.625
  9
$DIMDLI
 40
3.75
  9
$DIMRND
 40
0.0
  9
$DIMDLE
 40
0.0
  9
$DIMEXE
 40
1.25
  9
$DIMTP
 40
0.0
  9
$DIMTM
 40
0.0
  9
$DIMTXT
 40
2.5
  9
$DIMCEN
 40
2.5
  9
$DIMTSZ
 40
0.0
  9
$DIMTOL
 70
     0
  9
$DIMLIM
 70
     0
  9
$DIMTIH
 70
     0
  9
$DIMTOH
 70
     0
  9
$DIMSE1
 70
     0
  9
$DIMSE2
 70
     0
  9
$DIMTAD
 70
     1
  9
$DIMZIN
 70
     8
  9
$DIMBLK
  1

  9
$DIMASO
 70
     1
  9
$DIMSHO
 70
     1
  9
$DIMPOST
  1

  9
$DIMAPOST
  1

  9
$DIMALT
 70
     0
  9
$DIMALTD
 70
     3
  9
$DIMALTF
 40
0.03937007874016
  9
$DIMLFAC
 40
1.0
  9
$DIMTOFL
 70
     1
  9
$DIMTVP
 40
0.0
  9
$DIMTIX
 70
     0
  9
$DIMSOXD
 70
     0
  9
$DIMSAH
 70
     0
  9
$DIMBLK1
  1

  9
$DIMBLK2
  1

  9
$DIMSTYLE
  2
ISO-25
  9
$DIMCLRD
 70
     0
  9
$DIMCLRE
 70
     0
  9
$DIMCLRT
 70
     0
  9
$DIMTFAC
 40
1.0
  9
$DIMGAP
 40
0.625
  9
$DIMJUST
 70
     0
  9
$DIMSD1
 70
     0
  9
$DIMSD2
 70
     0
  9
$DIMTOLJ
 70
     0
  9
$DIMTZIN
 70
     8
  9
$DIMALTZ
 70
     0
  9
$DIMALTTZ
 70
     0
  9
$DIMUPT
 70
     0
  9
$DIMDEC
 70
     2
  9
$DIMTDEC
 70
     2
  9
$DIMALTU
 70
     2
  9
$DIMALTTD
 70
     3
  9
$DIMTXSTY
  7
Standard
  9
$DIMAUNIT
 70
     0
  9
$DIMADEC
 70
     0
  9
$DIMALTRND
 40
0.0
  9
$DIMAZIN
 70
     0
  9
$DIMDSEP
 70
    44
  9
$DIMATFIT
 70
     3
  9
$DIMFRAC
 70
     0
  9
$DIMLDRBLK
  1

  9
$DIMLUNIT
 70
     2
  9
$DIMLWD
 70
    -2
  9
$DIMLWE
 70
    -2
  9
$DIMTMOVE
 70
     0
  9
$DIMFXL
 40
1.0
  9
$DIMFXLON
 70
     0
  9
$DIMJOGANG
 40
0.7853981633974483
  9
$DIMTFILL
 70
     0
  9
$DIMTFILLCLR
 70
     0
  9
$DIMARCSYM
 70
     0
  9
$DIMLTYPE
  6

  9
$DIMLTEX1
  6

  9
$DIMLTEX2
  6

  9
$DIMTXTDIRECTION
 70
     0
  9
$LUNITS
 70
     2
  9
$LUPREC
 70
     4
  9
$SKETCHINC
 40
1.0
  9
$FILLETRAD
 40
10.0
  9
$AUNITS
 70
     0
  9
$AUPREC
 70
     0
  9
$MENU
  1
.
  9
$ELEVATION
 40
0.0
  9
$PELEVATION
 40
0.0
  9
$THICKNESS
 40
0.0
  9
$LIMCHECK
 70
     0
  9
$CHAMFERA
 40
10.0
  9
$CHAMFERB
 40
10.0
  9
$CHAMFERC
 40
20.0
  9
$CHAMFERD
 40
0.0
  9
$SKPOLY
 70
     0
  9
$TDCREATE
 40
2456717.532117303
  9
$TDUCREATE
 40
2456717.157117303
  9
$TDUPDATE
 40
2456717.532117315
  9
$TDUUPDATE
 40
2456717.157117315
  9
$TDINDWG
 40
0.0000000116
  9
$TDUSRTIMER
 40
0.0000000116
  9
$USRTIMER
 70
     1
  9
$ANGBASE
 50
0.0
  9
$ANGDIR
 70
     0
  9
$PDMODE
 70
     0
  9
$PDSIZE
 40
0.0
  9
$PLINEWID
 40
0.0
  9
$SPLFRAME
 70
     0
  9
$SPLINETYPE
 70
     6
  9
$SPLINESEGS
 70
     8
  9
$HANDSEED
  5
34B
  9
$SURFTAB1
 70
     6
  9
$SURFTAB2
 70
     6
  9
$SURFTYPE
 70
     6
  9
$SURFU
 70
     6
  9
$SURFV
 70
     6
  9
$UCSBASE
  2

  9
$UCSNAME
  2

  9
$UCSORG
 10
0.0
 20
0.0
 30
0.0
  9
$UCSXDIR
 10
1.0
 20
0.0
 30
0.0
  9
$UCSYDIR
 10
0.0
 20
1.0
 30
0.0
  9
$UCSORTHOREF
  2

  9
$UCSORTHOVIEW
 70
     0
  9
$UCSORGTOP
 10
0.0
 20
0.0
 30
0.0
  9
$UCSORGBOTTOM
 10
0.0
 20
0.0
 30
0.0
  9
$UCSORGLEFT
 10
0.0
 20
0.0
 30
0.0
  9
$UCSORGRIGHT
 10
0.0
 20
0.0
 30
0.0
  9
$UCSORGFRONT
 10
0.0
 20
0.0
 30
0.0
  9
$UCSORGBACK
 10
0.0
 20
0.0
 30
0.0
  9
$PUCSBASE
  2

  9
$PUCSNAME
  2

  9
$PUCSORG
 10
0.0
 20
0.0
 30
0.0
  9
$PUCSXDIR
 10
1.0
 20
0.0
 30
0.0
  9
$PUCSYDIR
 10
0.0
 20
1.0
 30
0.0
  9
$PUCSORTHOREF
  2

  9
$PUCSORTHOVIEW
 70
     0
  9
$PUCSORGTOP
 10
0.0
 20
0.0
 30
0.0
  9
$PUCSORGBOTTOM
 10
0.0
 20
0.0
 30
0.0
  9
$PUCSORGLEFT
 10
0.0
 20
0.0
 30
0.0
  9
$PUCSORGRIGHT
 10
0.0
 20
0.0
 30
0.0
  9
$PUCSORGFRONT
 10
0.0
 20
0.0
 30
0.0
  9
$PUCSORGBACK
 10
0.0
 20
0.0
 30
0.0
  9
$USERI1
 70
     0
  9
$USERI2
 70
     0
  9
$USERI3
 70
     0
  9
$USERI4
 70
     0
  9
$USERI5
 70
     0
  9
$USERR1
 40
0.0
  9
$USERR2
 40
0.0
  9
$USERR3
 40
0.0
  9
$USERR4
 40
0.0
  9
$USERR5
 40
0.0
  9
$WORLDVIEW
 70
     1
  9
$SHADEDGE
 70
     3
  9
$SHADEDIF
 70
    70
  9
$TILEMODE
 70
     1
  9
$MAXACTVP
 70
    64
  9
$PINSBASE
 10
0.0
 20
0.0
 30
0.0
  9
$PLIMCHECK
 70
     0
  9
$PEXTMIN
 10
1.000000000000000E+20
 20
1.000000000000000E+20
 30
1.000000000000000E+20
  9
$PEXTMAX
 10
-1.000000000000000E+20
 20
-1.000000000000000E+20
 30
-1.000000000000000E+20
  9
$PLIMMIN
 10
0.0
 20
0.0
  9
$PLIMMAX
 10
420.0
 20
297.0
  9
$UNITMODE
 70
     0
  9
$VISRETAIN
 70
     1
  9
$PLINEGEN
 70
     0
  9
$PSLTSCALE
 70
     1
  9
$TREEDEPTH
 70
  3020
  9
$CMLSTYLE
  2
Standard
  9
$CMLJUST
 70
     0
  9
$CMLSCALE
 40
20.0
  9
$PROXYGRAPHICS
 70
     1
  9
$MEASUREMENT
 70
     1
  9
$CELWEIGHT
370
    -1
  9
$ENDCAPS
280
     0
  9
$JOINSTYLE
280
     0
  9
$LWDISPLAY
290
     0
  9
$INSUNITS
 70
     4
  9
$HYPERLINKBASE
  1

  9
$STYLESHEET
  1

  9
$XEDIT
290
     1
  9
$CEPSNTYPE
380
     0
  9
$PSTYLEMODE
290
     1
  9
$FINGERPRINTGUID
  2
{931BCD6E-BFBF-480B-B078-407E3421F395}
  9
$VERSIONGUID
  2
{FAEB1C32-E019-11D5-929B-00C0DF256EC4}
  9
$EXTNAMES
290
     1
  9
$PSVPSCALE
 40
0.0
  9
$OLESTARTUP
290
     0
  9
$SORTENTS
280
   127
  9
$INDEXCTL
280
     0
  9
$HIDETEXT
280
     1
  9
$XCLIPFRAME
280
     2
  9
$HALOGAP
280
     0
  9
$OBSCOLOR
 70
   257
  9
$OBSLTYPE
280
     0
  9
$INTERSECTIONDISPLAY
280
     0
  9
$INTERSECTIONCOLOR
 70
   257
  9
$DIMASSOC
280
     2
  9
$PROJECTNAME
  1

  9
$CAMERADISPLAY
290
     0
  9
$LENSLENGTH
 40
50.0
  9
$CAMERAHEIGHT
 40
0.0
  9
$STEPSPERSEC
 40
2.0
  9
$STEPSIZE
 40
6.0
  9
$3DDWFPREC
 40
2.0
  9
$PSOLWIDTH
 40
5.0
  9
$PSOLHEIGHT
 40
80.0
  9
$LOFTANG1
 40
1.570796326794897
  9
$LOFTANG2
 40
1.570796326794897
  9
$LOFTMAG1
 40
0.0
  9
$LOFTMAG2
 40
0.0
  9
$LOFTPARAM
 70
     7
  9
$LOFTNORMALS
280
     1
  9
$LATITUDE
 40
37.795
  9
$LONGITUDE
 40
-122.394
  9
$NORTHDIRECTION
 40
0.0
  9
$TIMEZONE
 70
 -8000
  9
$LIGHTGLYPHDISPLAY
280
     1
  9
$TILEMODELIGHTSYNCH
280
     1
  9
$SOLIDHIST
280
     1
  9
$SHOWHIST
280
     1
  9
$DWFFRAME
280
     2
  9
$DGNFRAME
280
     2
  9
$REALWORLDSCALE
290
     1
  9
$INTERFERECOLOR
 62
   256
  9
$CSHADOW
280
     0
  9
$SHADOWPLANELOCATION
 40
0.0
  0
ENDSEC
  0
SECTION
  2
CLASSES
  0
CLASS
  1
ACDBDICTIONARYWDFLT
  2
AcDbDictionaryWithDefault
  3
ObjectDBX Classes
 90
        0
 91
        4
280
     0
281
     0
  0
CLASS
  1
VISUALSTYLE
  2
AcDbVisualStyle
  3
ObjectDBX Classes
 90
     4095
 91
        4
280
     0
281
     0
  0
CLASS
  1
MATERIAL
  2
AcDbMaterial
  3
ObjectDBX Classes
 90
     1153
 91
        4
280
     0
281
     0
  0
ENDSEC
  0
SECTION
  2
TABLES
  0
TABLE
  2
VPORT
  5
8
330
0
100
AcDbSymbolTable
 70
     1
  0
VPORT
  5
29
330
8
100
AcDbSymbolTableRecord
100
AcDbViewportTableRecord
  2
*Active
 70
     0
 10
0.0
 20
0.0
 11
1.0
 21
1.0
 12
0.0
 22
0.0
 13
0.0
 23
0.0
 14
10.0
 24
10.0
 15
10.0
 25
10.0
 16
0.0
 26
0.0
 36
1.0
 17
0.0
 27
0.0
 37
0.0
 40
9801.0
 41
1.414141414141414
 42
50.0
 43
0.0
 44
0.0
 50
0.0
 51
0.0
 71
     0
 72
 10000
 73
     1
 74
     3
 75
     0
 76
     0
 77
     0
 78
     0
281
     0
 65
     1
110
0.0
120
0.0
130
0.0
111
1.0
121
0.0
131
0.0
112
0.0
122
1.0
132
0.0
 79
     0
146
0.0
 60
     3
 61
     5
292
     1
282
     1
141
0.0
142
0.0
 63
   250
  0
ENDTAB
  0
TABLE
  2
LTYPE
  5
5
330
0
100
AcDbSymbolTable
 70
     5
  0
LTYPE
  5
14
330
5
100
AcDbSymbolTableRecord
100
AcDbLinetypeTableRecord
  2
ByBlock
 70
     0
  3

 72
    65
 73
     0
 40
0.0
  0
LTYPE
  5
15
330
5
100
AcDbSymbolTableRecord
100
AcDbLinetypeTableRecord
  2
ByLayer
 70
     0
  3

 72
    65
 73
     0
 40
0.0
  0
LTYPE
  5
16
330
5
100
AcDbSymbolTableRecord
100
AcDbLinetypeTableRecord
  2
Continuous
 70
     0
  3
Solid line
 72
    65
 73
     0
 40
0.0
  0
LTYPE
  5
41
330
5
100
AcDbSymbolTableRecord
100
AcDbLinetypeTableRecord
  2
JWW_HOJO
 70
     0
  3
  -   -   -   -   -   -   -   - 
 72
    65
 73
     2
 40
1.693333333333333
 49
-1.27
 74
     0
 49
0.4233333333333333
 74
     0
  0
LTYPE
  5
42
330
5
100
AcDbSymbolTableRecord
100
AcDbLinetypeTableRecord
  2
JWW_DASHED1
 70
     0
  3
-  --  --  --  --  --  --  --  -
 72
    65
 73
     2
 40
0.3386666666666667
 49
0.1693333333333333
 74
     0
 49
-0.1693333333333333
 74
     0
  0
LTYPE
  5
43
330
5
100
AcDbSymbolTableRecord
100
AcDbLinetypeTableRecord
  2
JWW_CENTER1
 70
     0
  3
-----  --  ----------  --  -----
 72
    65
 73
     4
 40
3.386666666666667
 49
2.116666666666667
 74
     0
 49
-0.4233333333333333
 74
     0
 49
0.4233333333333333
 74
     0
 49
-0.4233333333333333
 74
     0
  0
LTYPE
  5
44
330
5
100
AcDbSymbolTableRecord
100
AcDbLinetypeTableRecord
  2
JWW_CENTER2
 70
     0
  3
-------------  --  -------------
 72
    65
 73
     4
 40
13.54666666666667
 49
11.00666666666667
 74
     0
 49
-0.8466666666666667
 74
     0
 49
0.8466666666666667
 74
     0
 49
-0.8466666666666667
 74
     0
  0
ENDTAB
  0
TABLE
  2
LAYER
  5
2
330
0
100
AcDbSymbolTable
 70
    14
  0
LAYER
  5
10
330
2
100
AcDbSymbolTableRecord
100
AcDbLayerTableRecord
  2
0
 70
     0
 62
     7
  6
Continuous
370
    -3
390
F
347
3E
  0
LAYER
  5
45
330
2
100
AcDbSymbolTableRecord
100
AcDbLayerTableRecord
  2
0-B_寸法
 70
     0
 62
     7
  6
Continuous
370
    -3
390
F
347
3E
  0
LAYER
  5
46
330
2
100
AcDbSymbolTableRecord
100
AcDbLayerTableRecord
  2
F-1_枠
 70
     0
 62
     7
  6
Continuous
370
    -3
390
F
347
3E
  0
LAYER
  5
47
330
2
100
AcDbSymbolTableRecord
100
AcDbLayerTableRecord
  2
F-0_補助線
 70
     0
 62
     7
  6
Continuous
370
    -3
390
F
347
3E
  0
LAYER
  5
48
330
2
100
AcDbSymbolTableRecord
100
AcDbLayerTableRecord
  2
0-A_文字
 70
     0
 62
     7
  6
Continuous
370
    -3
390
F
347
3E
  0
LAYER
  5
49
330
2
100
AcDbSymbolTableRecord
100
AcDbLayerTableRecord
  2
0-6_カウンター
 70
     0
 62
     7
  6
Continuous
370
    -3
390
F
347
3E
  0
LAYER
  5
4A
330
2
100
AcDbSymbolTableRecord
100
AcDbLayerTableRecord
  2
0-0_補助線
 70
     0
 62
     7
  6
Continuous
370
    -3
390
F
347
3E
  0
LAYER
  5
4B
330
2
100
AcDbSymbolTableRecord
100
AcDbLayerTableRecord
  2
_ＦＬ
 70
     0
 62
     7
  6
Continuous
370
    -3
390
F
347
3E
  0
LAYER
  5
4C
330
2
100
AcDbSymbolTableRecord
100
AcDbLayerTableRecord
  2
F-A_文字
 70
     0
 62
     7
  6
Continuous
370
    -3
390
F
347
3E
  0
LAYER
  5
4D
330
2
100
AcDbSymbolTableRecord
100
AcDbLayerTableRecord
  2
0-1_本体
 70
     0
 62
     7
  6
Continuous
370
    -3
390
F
347
3E
  0
LAYER
  5
4E
330
2
100
AcDbSymbolTableRecord
100
AcDbLayerTableRecord
  2
0-2_扉
 70
     0
 62
     7
  6
Continuous
370
    -3
390
F
347
3E
  0
LAYER
  5
4F
330
2
100
AcDbSymbolTableRecord
100
AcDbLayerTableRecord
  2
0-4_棚
 70
     0
 62
     7
  6
Continuous
370
    -3
390
F
347
3E
  0
LAYER
  5
50
330
2
100
AcDbSymbolTableRecord
100
AcDbLayerTableRecord
  2
0-5_ダボ
 70
     0
 62
     7
  6
Continuous
370
    -3
390
F
347
3E
  0
LAYER
  5
51
330
2
100
AcDbSymbolTableRecord
100
AcDbLayerTableRecord
  2
0-7_サイドパネル
 70
     0
 62
     7
  6
Continuous
370
    -3
390
F
347
3E
  0
ENDTAB
  0
TABLE
  2
STYLE
  5
3
330
0
100
AcDbSymbolTable
 70
     3
  0
STYLE
  5
11
330
3
100
AcDbSymbolTableRecord
100
AcDbTextStyleTableRecord
  2
Standard
 70
     0
 40
0.0
 41
1.0
 50
0.0
 71
     0
 42
2.5
  3
txt
  4

  0
STYLE
  5
3F
330
3
100
AcDbSymbolTableRecord
100
AcDbTextStyleTableRecord
  2
ＭＳ ゴシック
 70
     0
 40
1.0
 41
1.0
 50
0.0
 71
     0
 42
10.0
  3

  4

1001
ACAD
1000
MS Gothic
1071
    32817
  0
STYLE
  5
40
330
3
100
AcDbSymbolTableRecord
100
AcDbTextStyleTableRecord
  2
HG明朝B
 70
     0
 40
1.0
 41
1.0
 50
0.0
 71
     0
 42
10.0
  3

  4

1001
ACAD
1000
HGMinchoB
1071
    32785
  0
ENDTAB
  0
TABLE
  2
VIEW
  5
6
330
0
100
AcDbSymbolTable
 70
     0
  0
ENDTAB
  0
TABLE
  2
UCS
  5
7
330
0
100
AcDbSymbolTable
 70
     0
  0
ENDTAB
  0
TABLE
  2
APPID
  5
9
330
0
100
AcDbSymbolTable
 70
     1
  0
APPID
  5
12
330
9
100
AcDbSymbolTableRecord
100
AcDbRegAppTableRecord
  2
ACAD
 70
     0
  0
ENDTAB
  0
TABLE
  2
DIMSTYLE
  5
A
330
0
100
AcDbSymbolTable
 70
     1
100
AcDbDimStyleTable
  0
DIMSTYLE
105
27
330
A
100
AcDbSymbolTableRecord
100
AcDbDimStyleTableRecord
  2
ISO-25
 70
     0
 41
2.5
 42
0.625
 43
3.75
 44
1.25
 73
     0
 74
     0
 77
     1
 78
     8
140
2.5
141
2.5
143
0.03937007874016
147
0.625
171
     3
172
     1
178
     0
271
     2
272
     2
274
     3
278
    44
283
     0
284
     8
340
11
  0
ENDTAB
  0
TABLE
  2
BLOCK_RECORD
  5
1
330
0
100
AcDbSymbolTable
 70
     1
  0
BLOCK_RECORD
  5
1F
330
1
100
AcDbSymbolTableRecord
100
AcDbBlockTableRecord
  2
*Model_Space
340
22
 70
     0
280
     1
281
     0
  0
BLOCK_RECORD
  5
1B
330
1
100
AcDbSymbolTableRecord
100
AcDbBlockTableRecord
  2
*Paper_Space
340
1E
 70
     0
280
     1
281
     0
  0
BLOCK_RECORD
  5
23
330
1
100
AcDbSymbolTableRecord
100
AcDbBlockTableRecord
  2
*Paper_Space0
340
26
 70
     0
280
     1
281
     0
  0
ENDTAB
  0
ENDSEC
  0
SECTION
  2
BLOCKS
  0
BLOCK
  5
20
330
1F
100
AcDbEntity
  8
0
100
AcDbBlockBegin
  2
*Model_Space
 70
     0
 10
0.0
 20
0.0
 30
0.0
  3
*Model_Space
  1

  0
ENDBLK
  5
21
330
1F
100
AcDbEntity
  8
0
100
AcDbBlockEnd
  0
BLOCK
  5
1C
330
1B
100
AcDbEntity
 67
     1
  8
0
100
AcDbBlockBegin
  2
*Paper_Space
 70
     0
 10
0.0
 20
0.0
 30
0.0
  3
*Paper_Space
  1

  0
ENDBLK
  5
1D
330
1B
100
AcDbEntity
 67
     1
  8
0
100
AcDbBlockEnd
  0
BLOCK
  5
24
330
23
100
AcDbEntity
  8
0
100
AcDbBlockBegin
  2
*Paper_Space0
 70
     0
 10
0.0
 20
0.0
 30
0.0
  3
*Paper_Space0
  1

  0
ENDBLK
  5
25
330
23
100
AcDbEntity
  8
0
100
AcDbBlockEnd
  0
ENDSEC
  0
SECTION
  2
ENTITIES
  0
TEXT
  5
52
330
1F
100
AcDbEntity
  8
0-B_寸法
  6
Continuous
 62
     7
370
   211
100
AcDbText
 10
-1447.928516223624
 20
-2557.780528308962
 30
0.0
 40
68.58
  1
15.5
 41
1.125
  7
ＭＳ ゴシック
100
AcDbText
  0
LINE
  5
53
330
1F
100
AcDbEntity
  8
0-B_寸法
  6
Continuous
 62
   120
370
     5
100
AcDbLine
 10
-4322.249752560177
 20
-2585.470528308962
 30
0.0
 11
-4322.249752560177
 21
-2435.470528308962
 31
0.0
  0
LINE
  5
54
330
1F
100
AcDbEntity
  8
0-B_寸法
  6
Continuous
 62
   120
370
     5
100
AcDbLine
 10
-4345.499752560178
 20
-2735.470528308962
 30
0.0
 11
-4345.499752560178
 21
-2435.470528308962
 31
0.0
  0
LWPOLYLINE
  5
55
330
1F
100
AcDbEntity
  8
0-B_寸法
  6
Continuous
 62
     7
370
     9
100
AcDbPolyline
 90
        4
 70
     1
 43
3.0
 10
-4320.749752560177
 20
-2585.470528308962
 42
0.4142135623731
 10
-4322.249752560177
 20
-2583.970528308962
 42
0.4142135623731
 10
-4323.749752560178
 20
-2585.470528308962
 42
0.4142135623731
 10
-4322.249752560177
 20
-2586.970528308962
 42
0.4142135623731
  0
LWPOLYLINE
  5
56
330
1F
100
AcDbEntity
  8
0-B_寸法
  6
Continuous
 62
     7
370
     9
100
AcDbPolyline
 90
        4
 70
     1
 43
3.0
 10
-4343.999752560177
 20
-2585.470528308962
 42
0.4142135623731
 10
-4345.499752560178
 20
-2583.970528308962
 42
0.4142135623731
 10
-4346.999752560178
 20
-2585.470528308962
 42
0.4142135623731
 10
-4345.499752560178
 20
-2586.970528308962
 42
0.4142135623731
  0
LINE
  5
57
330
1F
100
AcDbEntity
  8
0-B_寸法
  6
Continuous
 62
   120
370
     5
100
AcDbLine
 10
-4345.499752560178
 20
-2585.470528308962
 30
0.0
 11
-4322.249752560177
 21
-2585.470528308962
 31
0.0
  0
LINE
  5
58
330
1F
100
AcDbEntity
  8
F-1_枠
  6
Continuous
 62
   200
370
    20
100
AcDbLine
 10
5689.998977248734
 20
4174.999769056166
 30
0.0
 11
5689.998977248734
 21
-4195.000217025344
 31
0.0
  0
LINE
  5
59
330
1F
100
AcDbEntity
  8
F-0_補助線
  6
JWW_HOJO
 62
   120
370
     5
100
AcDbLine
 10
-6300.0
 20
-4455.0
 30
0.0
 11
-6300.0
 21
4424.999604096284
 31
0.0
  0
LINE
  5
5A
330
1F
100
AcDbEntity
  8
F-0_補助線
  6
JWW_HOJO
 62
   120
370
     5
100
AcDbLine
 10
-6300.0
 20
4424.999604096284
 30
0.0
 11
5999.999010240709
 21
4424.999604096284
 31
0.0
  0
LINE
  5
5B
330
1F
100
AcDbEntity
  8
F-0_補助線
  6
JWW_HOJO
 62
   120
370
     5
100
AcDbLine
 10
5999.999010240709
 20
4424.999604096284
 30
0.0
 11
5999.999010240709
 21
-4455.0
 31
0.0
  0
LINE
  5
5C
330
1F
100
AcDbEntity
  8
F-0_補助線
  6
JWW_HOJO
 62
   120
370
     5
100
AcDbLine
 10
5999.999010240709
 20
-4455.0
 30
0.0
 11
-6300.0
 21
-4455.0
 31
0.0
  0
LINE
  5
5D
330
1F
100
AcDbEntity
  8
F-1_枠
  6
Continuous
 62
   200
370
    20
100
AcDbLine
 10
-5999.999752560178
 20
4174.999769056166
 30
0.0
 11
5699.998762800888
 21
4174.999769056166
 31
0.0
  0
LINE
  5
5E
330
1F
100
AcDbEntity
  8
F-1_枠
  6
Continuous
 62
   200
370
    20
100
AcDbLine
 10
-5999.999752560178
 20
4164.999983504013
 30
0.0
 11
5699.998762800888
 21
4164.999983504013
 31
0.0
  0
LINE
  5
5F
330
1F
100
AcDbEntity
  8
F-1_枠
  6
Continuous
 62
   200
370
    20
100
AcDbLine
 10
-5999.999752560178
 20
4169.999505120355
 30
0.0
 11
5699.998762800888
 21
4169.999505120355
 31
0.0
  0
LINE
  5
60
330
1F
100
AcDbEntity
  8
F-1_枠
  6
Continuous
 62
   200
370
    20
100
AcDbLine
 10
5694.998498865077
 20
4174.999769056166
 30
0.0
 11
5694.998498865077
 21
-4195.000217025344
 31
0.0
  0
LINE
  5
61
330
1F
100
AcDbEntity
  8
F-1_枠
  6
Continuous
 62
   200
370
    20
100
AcDbLine
 10
5699.998762800888
 20
4174.999769056166
 30
0.0
 11
5699.998762800888
 21
-4195.000217025344
 31
0.0
  0
LINE
  5
62
330
1F
100
AcDbEntity
  8
F-1_枠
  6
Continuous
 62
   200
370
    20
100
AcDbLine
 10
-5999.999984535011
 20
4174.999769056166
 30
0.0
 11
-5999.999984535011
 21
-4195.000217025344
 31
0.0
  0
LINE
  5
63
330
1F
100
AcDbEntity
  8
F-1_枠
  6
Continuous
 62
   200
370
    20
100
AcDbLine
 10
-5994.999975771518
 20
4174.999769056166
 30
0.0
 11
-5994.999975771518
 21
-4195.000217025344
 31
0.0
  0
LINE
  5
64
330
1F
100
AcDbEntity
  8
F-1_枠
  6
Continuous
 62
   200
370
    20
100
AcDbLine
 10
-5989.999990205507
 20
4174.999769056166
 30
0.0
 11
-5989.999990205507
 21
-4195.000217025344
 31
0.0
  0
LINE
  5
65
330
1F
100
AcDbEntity
  8
0-A_文字
  6
Continuous
 62
     7
370
     9
100
AcDbLine
 10
-5699.999752560178
 20
3864.999983504013
 30
0.0
 11
-5699.999752560178
 21
3639.999983504013
 31
0.0
  0
LINE
  5
66
330
1F
100
AcDbEntity
  8
0-A_文字
  6
Continuous
 62
     7
370
     9
100
AcDbLine
 10
-4499.999752560178
 20
3864.999983504013
 30
0.0
 11
-5699.999752560178
 21
3864.999983504013
 31
0.0
  0
LINE
  5
67
330
1F
100
AcDbEntity
  8
0-A_文字
  6
Continuous
 62
     7
370
     9
100
AcDbLine
 10
-4499.999752560178
 20
3639.999983504013
 30
0.0
 11
-4499.999752560178
 21
3864.999983504013
 31
0.0
  0
LINE
  5
68
330
1F
100
AcDbEntity
  8
0-A_文字
  6
Continuous
 62
     7
370
     9
100
AcDbLine
 10
-5699.999752560178
 20
3639.999983504013
 30
0.0
 11
-4499.999752560178
 21
3639.999983504013
 31
0.0
  0
LINE
  5
69
330
1F
100
AcDbEntity
  8
0-6_カウンター
  6
Continuous
 62
    40
370
    15
100
AcDbLine
 10
2081.761788237523
 20
-1355.470528308962
 30
0.0
 11
1532.761788237523
 21
-1355.470528308962
 31
0.0
  0
LINE
  5
6A
330
1F
100
AcDbEntity
  8
0-6_カウンター
  6
Continuous
 62
    40
370
    15
100
AcDbLine
 10
2081.761788237523
 20
-1310.470528308962
 30
0.0
 11
2081.761788237523
 21
-1355.470528308962
 31
0.0
  0
LINE
  5
6B
330
1F
100
AcDbEntity
  8
0-6_カウンター
  6
Continuous
 62
    40
370
    15
100
AcDbLine
 10
3975.115948770346
 20
-1355.470528308963
 30
0.0
 11
3426.115948770346
 21
-1355.470528308963
 31
0.0
  0
LINE
  5
6C
330
1F
100
AcDbEntity
  8
0-6_カウンター
  6
Continuous
 62
    40
370
    15
100
AcDbLine
 10
3975.115948770346
 20
-1310.470528308963
 30
0.0
 11
3975.115948770346
 21
-1355.470528308963
 31
0.0
  0
LINE
  5
6D
330
1F
100
AcDbEntity
  8
0-A_文字
  6
Continuous
 62
     7
370
     9
100
AcDbLine
 10
2169.688868503934
 20
-3035.470528308962
 30
0.0
 11
2169.688868503934
 21
-3260.470528308962
 31
0.0
  0
LINE
  5
6E
330
1F
100
AcDbEntity
  8
0-A_文字
  6
Continuous
 62
     7
370
     9
100
AcDbLine
 10
3369.688868503934
 20
-3035.470528308962
 30
0.0
 11
2169.688868503934
 21
-3035.470528308962
 31
0.0
  0
LINE
  5
6F
330
1F
100
AcDbEntity
  8
0-A_文字
  6
Continuous
 62
     7
370
     9
100
AcDbLine
 10
3369.688868503934
 20
-3260.470528308962
 30
0.0
 11
3369.688868503934
 21
-3035.470528308962
 31
0.0
  0
LINE
  5
70
330
1F
100
AcDbEntity
  8
0-A_文字
  6
Continuous
 62
     7
370
     9
100
AcDbLine
 10
2169.688868503934
 20
-3260.470528308962
 30
0.0
 11
3369.688868503934
 21
-3260.470528308962
 31
0.0
  0
TEXT
  5
71
330
1F
100
AcDbEntity
  8
0-A_文字
  6
Continuous
 62
     7
370
     9
100
AcDbText
 10
2439.688868503934
 20
-3191.050528308961
 30
0.0
 40
91.44
  1
断面図・・
 41
1.1
  7
ＭＳ ゴシック
100
AcDbText
  0
LINE
  5
72
330
1F
100
AcDbEntity
  8
0-0_補助線
  6
JWW_HOJO
 62
     7
370
     9
100
AcDbLine
 10
-4349.999752560178
 20
1457.259387859344
 30
0.0
 11
-4349.999752560178
 21
272.4293820641936
 31
0.0
  0
LINE
  5
73
330
1F
100
AcDbEntity
  8
0-6_カウンター
  6
Continuous
 62
    92
370
    13
100
AcDbLine
 10
-4349.999752560178
 20
1412.259387859343
 30
0.0
 11
-740.9997525601774
 21
1412.259387859343
 31
0.0
  0
LINE
  5
74
330
1F
100
AcDbEntity
  8
0-6_カウンター
  6
Continuous
 62
    92
370
    13
100
AcDbLine
 10
-740.9997525601774
 20
1412.259387859343
 30
0.0
 11
-740.9997525601774
 21
1457.259387859343
 31
0.0
  0
LINE
  5
75
330
1F
100
AcDbEntity
  8
0-6_カウンター
  6
Continuous
 62
    92
370
    13
100
AcDbLine
 10
-740.9997525601774
 20
1457.259387859343
 30
0.0
 11
-4349.999752560178
 21
1457.259387859343
 31
0.0
  0
LINE
  5
76
330
1F
100
AcDbEntity
  8
0-6_カウンター
  6
Continuous
 62
    92
370
    13
100
AcDbLine
 10
-4349.999752560178
 20
1412.259387859343
 30
0.0
 11
-4349.999752560178
 21
1457.259387859343
 31
0.0
  0
LINE
  5
77
330
1F
100
AcDbEntity
  8
0-0_補助線
  6
JWW_HOJO
 62
     7
370
     9
100
AcDbLine
 10
-1340.999752560178
 20
1457.259387859343
 30
0.0
 11
-1340.999752560178
 21
432.7593878593432
 31
0.0
  0
LINE
  5
78
330
1F
100
AcDbEntity
  8
0-0_補助線
  6
JWW_HOJO
 62
     7
370
     9
100
AcDbLine
 10
-740.9997525601774
 20
1457.259387859343
 30
0.0
 11
-740.9997525601774
 21
432.7593878593432
 31
0.0
  0
LINE
  5
79
330
1F
100
AcDbEntity
  8
0-0_補助線
  6
JWW_HOJO
 62
   120
370
     5
100
AcDbLine
 10
-1415.999752560178
 20
332.2593878593433
 30
0.0
 11
-665.9997525601774
 21
332.2593878593433
 31
0.0
  0
LINE
  5
7A
330
1F
100
AcDbEntity
  8
0-0_補助線
  6
JWW_HOJO
 62
   120
370
     5
100
AcDbLine
 10
-4424.999752560178
 20
1532.259387859344
 30
0.0
 11
-4424.999752560178
 21
332.2593878593437
 31
0.0
  0
LINE
  5
7B
330
1F
100
AcDbEntity
  8
0-0_補助線
  6
JWW_HOJO
 62
   120
370
     5
100
AcDbLine
 10
-4574.999752560178
 20
1532.259387859344
 30
0.0
 11
-4574.999752560178
 21
332.2593878593437
 31
0.0
  0
LINE
  5
7C
330
1F
100
AcDbEntity
  8
0-0_補助線
  6
JWW_HOJO
 62
   120
370
     5
100
AcDbLine
 10
-4724.999752560178
 20
1532.259387859344
 30
0.0
 11
-4724.999752560178
 21
332.2593878593437
 31
0.0
  0
LINE
  5
7D
330
1F
100
AcDbEntity
  8
0-0_補助線
  6
JWW_HOJO
 62
   120
370
     5
100
AcDbLine
 10
-665.9997525601774
 20
1532.259387859344
 30
0.0
 11
-4874.999752560178
 21
1532.259387859344
 31
0.0
  0
LINE
  5
7E
330
1F
100
AcDbEntity
  8
0-0_補助線
  6
JWW_HOJO
 62
   120
370
     5
100
AcDbLine
 10
-4874.999752560178
 20
332.2593878593437
 30
0.0
 11
-3074.999752560178
 21
332.2593878593437
 31
0.0
  0
LINE
  5
7F
330
1F
100
AcDbEntity
  8
0-0_補助線
  6
JWW_HOJO
 62
   120
370
     5
100
AcDbLine
 10
-515.9997525601774
 20
1682.259387859344
 30
0.0
 11
-515.9997525601774
 21
182.2593878593433
 31
0.0
  0
LINE
  5
80
330
1F
100
AcDbEntity
  8
0-0_補助線
  6
JWW_HOJO
 62
   120
370
     5
100
AcDbLine
 10
-365.9997525601774
 20
1682.259387859344
 30
0.0
 11
-365.9997525601774
 21
32.25938785934332
 31
0.0
  0
LINE
  5
81
330
1F
100
AcDbEntity
  8
0-0_補助線
  6
JWW_HOJO
 62
   120
370
     5
100
AcDbLine
 10
-215.9997525601774
 20
1682.259387859344
 30
0.0
 11
-215.9997525601774
 21
32.25938785934332
 31
0.0
  0
LINE
  5
82
330
1F
100
AcDbEntity
  8
0-0_補助線
  6
JWW_HOJO
 62
   120
370
     5
100
AcDbLine
 10
-1415.999752560178
 20
182.2593878593433
 30
0.0
 11
-515.9997525601774
 21
182.2593878593433
 31
0.0
  0
LINE
  5
83
330
1F
100
AcDbEntity
  8
0-0_補助線
  6
JWW_HOJO
 62
   120
370
     5
100
AcDbLine
 10
-1415.999752560178
 20
32.25938785934332
 30
0.0
 11
-215.9997525601774
 21
32.25938785934332
 31
0.0
  0
LINE
  5
84
330
1F
100
AcDbEntity
  8
0-0_補助線
  6
JWW_HOJO
 62
   120
370
     5
100
AcDbLine
 10
-1415.999752560178
 20
1412.259387859343
 30
0.0
 11
-1415.999752560178
 21
32.25938785934332
 31
0.0
  0
LINE
  5
85
330
1F
100
AcDbEntity
  8
0-0_補助線
  6
JWW_HOJO
 62
   120
370
     5
100
AcDbLine
 10
-4874.999752560178
 20
182.2593878593437
 30
0.0
 11
-3074.999752560178
 21
182.2593878593437
 31
0.0
  0
LINE
  5
86
330
1F
100
AcDbEntity
  8
0-0_補助線
  6
JWW_HOJO
 62
   120
370
     5
100
AcDbLine
 10
-4874.999752560178
 20
32.25938785934375
 30
0.0
 11
-3074.999752560178
 21
32.25938785934375
 31
0.0
  0
LINE
  5
87
330
1F
100
AcDbEntity
  8
0-0_補助線
  6
JWW_HOJO
 62
   120
370
     5
100
AcDbLine
 10
-4874.999752560178
 20
1682.259387859344
 30
0.0
 11
-4874.999752560178
 21
32.25938785934375
 31
0.0
  0
LINE
  5
88
330
1F
100
AcDbEntity
  8
0-0_補助線
  6
JWW_HOJO
 62
   120
370
     5
100
AcDbLine
 10
-215.9997525601774
 20
1682.259387859344
 30
0.0
 11
-4874.999752560178
 21
1682.259387859344
 31
0.0
  0
LINE
  5
89
330
1F
100
AcDbEntity
  8
0-6_カウンター
  6
Continuous
 62
    92
370
    13
100
AcDbLine
 10
-4349.999752560178
 20
-1355.470528308962
 30
0.0
 11
-740.9997525601779
 21
-1355.470528308962
 31
0.0
  0
LINE
  5
8A
330
1F
100
AcDbEntity
  8
0-6_カウンター
  6
Continuous
 62
    92
370
    13
100
AcDbLine
 10
-740.9997525601779
 20
-1355.470528308962
 30
0.0
 11
-740.9997525601779
 21
-1310.470528308962
 31
0.0
  0
LINE
  5
8B
330
1F
100
AcDbEntity
  8
0-6_カウンター
  6
Continuous
 62
    92
370
    13
100
AcDbLine
 10
-740.9997525601779
 20
-1310.470528308962
 30
0.0
 11
-4349.999752560178
 21
-1310.470528308962
 31
0.0
  0
LINE
  5
8C
330
1F
100
AcDbEntity
  8
0-6_カウンター
  6
Continuous
 62
    92
370
    13
100
AcDbLine
 10
-4349.999752560178
 20
-1355.470528308962
 30
0.0
 11
-4349.999752560178
 21
-1310.470528308962
 31
0.0
  0
LINE
  5
8D
330
1F
100
AcDbEntity
  8
0-0_補助線
  6
JWW_HOJO
 62
   120
370
     5
100
AcDbLine
 10
-740.9997525601779
 20
-1235.470528308962
 30
0.0
 11
-4349.999752560178
 21
-1235.470528308962
 31
0.0
  0
LINE
  5
8E
330
1F
100
AcDbEntity
  8
0-0_補助線
  6
JWW_HOJO
 62
   120
370
     5
100
AcDbLine
 10
-4424.999752560178
 20
-1355.470528308962
 30
0.0
 11
-4424.999752560178
 21
-2360.470528308962
 31
0.0
  0
LINE
  5
8F
330
1F
100
AcDbEntity
  8
0-0_補助線
  6
JWW_HOJO
 62
   120
370
     5
100
AcDbLine
 10
-1415.999752560178
 20
-1355.470528308962
 30
0.0
 11
-1415.999752560178
 21
-2360.470528308962
 31
0.0
  0
LINE
  5
90
330
1F
100
AcDbEntity
  8
0-0_補助線
  6
JWW_HOJO
 62
   120
370
     5
100
AcDbLine
 10
-665.9997525601779
 20
-1355.470528308962
 30
0.0
 11
-665.9997525601779
 21
-2360.470528308962
 31
0.0
  0
LINE
  5
91
330
1F
100
AcDbEntity
  8
0-0_補助線
  6
JWW_HOJO
 62
   120
370
     5
100
AcDbLine
 10
-515.9997525601779
 20
-1355.470528308962
 30
0.0
 11
-515.9997525601779
 21
-2360.470528308962
 31
0.0
  0
LINE
  5
92
330
1F
100
AcDbEntity
  8
0-0_補助線
  6
JWW_HOJO
 62
   120
370
     5
100
AcDbLine
 10
-4574.999752560178
 20
-1355.470528308962
 30
0.0
 11
-4574.999752560178
 21
-2360.470528308962
 31
0.0
  0
LINE
  5
93
330
1F
100
AcDbEntity
  8
0-0_補助線
  6
JWW_HOJO
 62
   120
370
     5
100
AcDbLine
 10
-4724.999752560178
 20
-1355.470528308962
 30
0.0
 11
-4724.999752560178
 21
-2360.470528308962
 31
0.0
  0
LINE
  5
94
330
1F
100
AcDbEntity
  8
0-0_補助線
  6
JWW_HOJO
 62
   120
370
     5
100
AcDbLine
 10
-4874.999752560178
 20
-1355.470528308962
 30
0.0
 11
-4874.999752560178
 21
-2360.470528308962
 31
0.0
  0
TEXT
  5
95
330
1F
100
AcDbEntity
  8
0-A_文字
  6
Continuous
 62
     7
370
     9
100
AcDbText
 10
-2875.499752560178
 20
-423.3206121406562
 30
0.0
 40
91.44
  1
扉正面図・
 41
1.100000000000001
  7
ＭＳ ゴシック
100
AcDbText
  0
LINE
  5
96
330
1F
100
AcDbEntity
  8
0-A_文字
  6
Continuous
 62
     7
370
     9
100
AcDbLine
 10
-3145.499752560178
 20
-267.7406121406563
 30
0.0
 11
-3145.499752560178
 21
-492.7406121406558
 31
0.0
  0
LINE
  5
97
330
1F
100
AcDbEntity
  8
0-A_文字
  6
Continuous
 62
     7
370
     9
100
AcDbLine
 10
-1945.499752560177
 20
-267.7406121406563
 30
0.0
 11
-3145.499752560178
 21
-267.7406121406563
 31
0.0
  0
LINE
  5
98
330
1F
100
AcDbEntity
  8
0-A_文字
  6
Continuous
 62
     7
370
     9
100
AcDbLine
 10
-1945.499752560177
 20
-492.7406121406558
 30
0.0
 11
-1945.499752560177
 21
-267.7406121406563
 31
0.0
  0
LINE
  5
99
330
1F
100
AcDbEntity
  8
0-A_文字
  6
Continuous
 62
     7
370
     9
100
AcDbLine
 10
-3145.499752560178
 20
-492.7406121406558
 30
0.0
 11
-1945.499752560177
 21
-492.7406121406558
 31
0.0
  0
LINE
  5
9A
330
1F
100
AcDbEntity
  8
0-A_文字
  6
Continuous
 62
     7
370
     9
100
AcDbLine
 10
-3145.499752560178
 20
-3035.470528308962
 30
0.0
 11
-3145.499752560178
 21
-3260.470528308962
 31
0.0
  0
LINE
  5
9B
330
1F
100
AcDbEntity
  8
0-A_文字
  6
Continuous
 62
     7
370
     9
100
AcDbLine
 10
-1945.499752560178
 20
-3035.470528308962
 30
0.0
 11
-3145.499752560178
 21
-3035.470528308962
 31
0.0
  0
LINE
  5
9C
330
1F
100
AcDbEntity
  8
0-A_文字
  6
Continuous
 62
     7
370
     9
100
AcDbLine
 10
-1945.499752560178
 20
-3260.470528308962
 30
0.0
 11
-1945.499752560178
 21
-3035.470528308962
 31
0.0
  0
LINE
  5
9D
330
1F
100
AcDbEntity
  8
0-A_文字
  6
Continuous
 62
     7
370
     9
100
AcDbLine
 10
-3145.499752560178
 20
-3260.470528308962
 30
0.0
 11
-1945.499752560178
 21
-3260.470528308962
 31
0.0
  0
TEXT
  5
9E
330
1F
100
AcDbEntity
  8
0-A_文字
  6
Continuous
 62
     7
370
     9
100
AcDbText
 10
-3010.499752560178
 20
-3191.050528308961
 30
0.0
 40
91.44
  1
キャビネット図
 41
1.107142857142857
  7
ＭＳ ゴシック
100
AcDbText
  0
LINE
  5
9F
330
1F
100
AcDbEntity
  8
0-0_補助線
  6
JWW_HOJO
 62
   120
370
     5
100
AcDbLine
 10
-215.9997525601774
 20
1832.259387859344
 30
0.0
 11
-4874.999752560178
 21
1832.259387859344
 31
0.0
  0
LINE
  5
A0
330
1F
100
AcDbEntity
  8
0-0_補助線
  6
JWW_HOJO
 62
   120
370
     5
100
AcDbLine
 10
-3070.499752560177
 20
1412.259387859343
 30
0.0
 11
-3070.499752560177
 21
32.25938785934375
 31
0.0
  0
LINE
  5
A1
330
1F
100
AcDbEntity
  8
_ＦＬ
  6
Continuous
 62
     7
370
     9
100
AcDbLine
 10
-105.831992234761
 20
407.2593878593437
 30
0.0
 11
-5424.028935443112
 21
407.2593878593437
 31
0.0
  0
LINE
  5
A2
330
1F
100
AcDbEntity
  8
0-B_寸法
  6
Continuous
 62
   120
370
     5
100
AcDbLine
 10
-515.9997525601774
 20
1169.259387859343
 30
0.0
 11
-632.1484451701774
 21
1102.200908914936
 31
0.0
  0
LINE
  5
A3
330
1F
100
AcDbEntity
  8
0-B_寸法
  6
Continuous
 62
   120
370
     5
100
AcDbLine
 10
-515.9997525601774
 20
938.2593878593432
 30
0.0
 11
-632.1484451701774
 21
871.2009089149365
 31
0.0
  0
LINE
  5
A4
330
1F
100
AcDbEntity
  8
0-B_寸法
  6
Continuous
 62
   120
370
     5
100
AcDbLine
 10
-632.1484451701774
 20
1102.200908914936
 30
0.0
 11
-632.1484451701774
 21
1015.595854451775
 31
0.0
  0
LINE
  5
A5
330
1F
100
AcDbEntity
  8
0-B_寸法
  6
Continuous
 62
   120
370
     5
100
AcDbLine
 10
-632.1484451701774
 20
871.2009089149365
 30
0.0
 11
-632.1484451701774
 21
778.1290958135504
 31
0.0
  0
LINE
  5
A6
330
1F
100
AcDbEntity
  8
0-0_補助線
  6
JWW_HOJO
 62
   120
370
     5
100
AcDbLine
 10
-740.9997525601779
 20
-1085.470528308962
 30
0.0
 11
-4349.999752560178
 21
-1085.470528308962
 31
0.0
  0
LINE
  5
A7
330
1F
100
AcDbEntity
  8
0-B_寸法
  6
Continuous
 62
   120
370
     5
100
AcDbLine
 10
-515.9997525601779
 20
-1599.595528308962
 30
0.0
 11
-634.7855394601779
 21
-1668.176534351579
 31
0.0
  0
LINE
  5
A8
330
1F
100
AcDbEntity
  8
0-B_寸法
  6
Continuous
 62
   120
370
     5
100
AcDbLine
 10
-515.9997525601779
 20
-1830.595528308962
 30
0.0
 11
-634.7855394601779
 21
-1899.176534351579
 31
0.0
  0
LINE
  5
A9
330
1F
100
AcDbEntity
  8
0-B_寸法
  6
Continuous
 62
   120
370
     5
100
AcDbLine
 10
-634.7855394601779
 20
-1668.176534351579
 30
0.0
 11
-634.7855394601779
 21
-1817.656888949132
 31
0.0
  0
LINE
  5
AA
330
1F
100
AcDbEntity
  8
0-B_寸法
  6
Continuous
 62
   120
370
     5
100
AcDbLine
 10
-634.7855394601779
 20
-1899.176534351579
 30
0.0
 11
-634.7855394601779
 21
-2053.79542948118
 31
0.0
  0
LINE
  5
AB
330
1F
100
AcDbEntity
  8
_ＦＬ
  6
Continuous
 62
     7
370
     9
100
AcDbLine
 10
4421.699806237079
 20
-2360.470528308962
 30
0.0
 11
385.2617882375222
 21
-2360.470528308962
 31
0.0
  0
LINE
  5
AC
330
1F
100
AcDbEntity
  8
_ＦＬ
  6
Continuous
 62
     7
370
     9
100
AcDbLine
 10
-745.499752560178
 20
-2360.470528308962
 30
0.0
 11
-5424.028935443112
 21
-2360.470528308962
 31
0.0
  0
TEXT
  5
AD
330
1F
100
AcDbEntity
  8
_ＦＬ
  6
Continuous
 62
     7
370
     9
100
AcDbText
 10
-5424.028935443112
 20
-2347.780528308961
 30
0.0
 40
68.58
  1
ＦＬ▼
 41
1.111111111111111
  7
ＭＳ ゴシック
100
AcDbText
  0
TEXT
  5
AE
330
1F
100
AcDbEntity
  8
_ＦＬ
  6
Continuous
 62
     7
370
     9
100
AcDbText
 10
-5424.028935443112
 20
419.9493878593437
 30
0.0
 40
68.58
  1
ＦＬ▼
 41
1.111111111111111
  7
ＭＳ ゴシック
100
AcDbText
  0
TEXT
  5
AF
330
1F
100
AcDbEntity
  8
_ＦＬ
  6
Continuous
 62
     7
370
     9
100
AcDbText
 10
385.2617882375222
 20
-2347.780528308961
 30
0.0
 40
68.58
  1
ＦＬ▼
 41
1.111111111111111
  7
ＭＳ ゴシック
100
AcDbText
  0
LINE
  5
B0
330
1F
100
AcDbEntity
  8
0-B_寸法
  6
Continuous
 62
   120
370
     5
100
AcDbLine
 10
-740.9997525601774
 20
1682.259387859344
 30
0.0
 11
-740.9997525601774
 21
1532.259387859344
 31
0.0
  0
LINE
  5
B1
330
1F
100
AcDbEntity
  8
0-B_寸法
  6
Continuous
 62
   120
370
     5
100
AcDbLine
 10
-4349.999752560178
 20
1682.259387859344
 30
0.0
 11
-4349.999752560178
 21
1532.259387859344
 31
0.0
  0
LWPOLYLINE
  5
B2
330
1F
100
AcDbEntity
  8
0-B_寸法
  6
Continuous
 62
     7
370
     9
100
AcDbPolyline
 90
        4
 70
     1
 43
3.0
 10
-739.4997525601774
 20
1682.259387859344
 42
0.4142135623731
 10
-740.9997525601774
 20
1683.759387859343
 42
0.4142135623731
 10
-742.4997525601774
 20
1682.259387859344
 42
0.4142135623731
 10
-740.9997525601774
 20
1680.759387859344
 42
0.4142135623731
  0
LWPOLYLINE
  5
B3
330
1F
100
AcDbEntity
  8
0-B_寸法
  6
Continuous
 62
     7
370
     9
100
AcDbPolyline
 90
        4
 70
     1
 43
3.0
 10
-4348.499752560177
 20
1682.259387859344
 42
0.4142135623731
 10
-4349.999752560178
 20
1683.759387859343
 42
0.4142135623731
 10
-4351.499752560178
 20
1682.259387859344
 42
0.4142135623731
 10
-4349.999752560178
 20
1680.759387859344
 42
0.4142135623731
  0
LINE
  5
B4
330
1F
100
AcDbEntity
  8
0-B_寸法
  6
Continuous
 62
   120
370
     5
100
AcDbLine
 10
-4349.999752560178
 20
1682.259387859344
 30
0.0
 11
-740.9997525601774
 21
1682.259387859344
 31
0.0
  0
LINE
  5
B5
330
1F
100
AcDbEntity
  8
0-B_寸法
  6
Continuous
 62
   120
370
     5
100
AcDbLine
 10
-4574.999752560178
 20
1412.259387859343
 30
0.0
 11
-4574.999752560178
 21
1387.509387859344
 31
0.0
  0
LWPOLYLINE
  5
B6
330
1F
100
AcDbEntity
  8
0-B_寸法
  6
Continuous
 62
     7
370
     9
100
AcDbPolyline
 90
        4
 70
     1
 43
3.0
 10
-4573.499752560177
 20
1412.259387859343
 42
0.4142135623731
 10
-4574.999752560178
 20
1413.759387859343
 42
0.4142135623731
 10
-4576.499752560178
 20
1412.259387859343
 42
0.4142135623731
 10
-4574.999752560178
 20
1410.759387859343
 42
0.4142135623731
  0
LWPOLYLINE
  5
B7
330
1F
100
AcDbEntity
  8
0-B_寸法
  6
Continuous
 62
     7
370
     9
100
AcDbPolyline
 90
        4
 70
     1
 43
3.0
 10
-4573.499752560177
 20
1387.509387859344
 42
0.4142135623731
 10
-4574.999752560178
 20
1389.009387859344
 42
0.4142135623731
 10
-4576.499752560178
 20
1387.509387859344
 42
0.4142135623731
 10
-4574.999752560178
 20
1386.009387859344
 42
0.4142135623731
  0
LINE
  5
B8
330
1F
100
AcDbEntity
  8
0-B_寸法
  6
Continuous
 62
   120
370
     5
100
AcDbLine
 10
-4724.999752560178
 20
1412.259387859343
 30
0.0
 11
-4424.999752560178
 21
1412.259387859343
 31
0.0
  0
LINE
  5
B9
330
1F
100
AcDbEntity
  8
0-B_寸法
  6
Continuous
 62
   120
370
     5
100
AcDbLine
 10
-4574.999752560178
 20
1387.509387859344
 30
0.0
 11
-4424.999752560178
 21
1387.509387859344
 31
0.0
  0
LINE
  5
BA
330
1F
100
AcDbEntity
  8
0-B_寸法
  6
Continuous
 62
   120
370
     5
100
AcDbLine
 10
-4574.999752560178
 20
1387.509387859344
 30
0.0
 11
-4574.999752560178
 21
502.5093878593436
 31
0.0
  0
LWPOLYLINE
  5
BB
330
1F
100
AcDbEntity
  8
0-B_寸法
  6
Continuous
 62
     7
370
     9
100
AcDbPolyline
 90
        4
 70
     1
 43
3.0
 10
-4573.499752560177
 20
502.5093878593436
 42
0.4142135623731
 10
-4574.999752560178
 20
504.0093878593437
 42
0.4142135623731
 10
-4576.499752560178
 20
502.5093878593436
 42
0.4142135623731
 10
-4574.999752560178
 20
501.0093878593436
 42
0.4142135623731
  0
LINE
  5
BC
330
1F
100
AcDbEntity
  8
0-B_寸法
  6
Continuous
 62
   120
370
     5
100
AcDbLine
 10
-4574.999752560178
 20
502.5093878593436
 30
0.0
 11
-4424.999752560178
 21
502.5093878593436
 31
0.0
  0
LINE
  5
BD
330
1F
100
AcDbEntity
  8
0-B_寸法
  6
Continuous
 62
   120
370
     5
100
AcDbLine
 10
-4574.999752560178
 20
502.5093878593436
 30
0.0
 11
-4574.999752560178
 21
477.7593878593436
 31
0.0
  0
LWPOLYLINE
  5
BE
330
1F
100
AcDbEntity
  8
0-B_寸法
  6
Continuous
 62
     7
370
     9
100
AcDbPolyline
 90
        4
 70
     1
 43
3.0
 10
-4573.499752560177
 20
477.7593878593436
 42
0.4142135623731
 10
-4574.999752560178
 20
479.2593878593436
 42
0.4142135623731
 10
-4576.499752560178
 20
477.7593878593436
 42
0.4142135623731
 10
-4574.999752560178
 20
476.2593878593436
 42
0.4142135623731
  0
LINE
  5
BF
330
1F
100
AcDbEntity
  8
0-B_寸法
  6
Continuous
 62
   120
370
     5
100
AcDbLine
 10
-4724.999752560178
 20
477.7593878593436
 30
0.0
 11
-4424.999752560178
 21
477.7593878593436
 31
0.0
  0
LINE
  5
C0
330
1F
100
AcDbEntity
  8
0-B_寸法
  6
Continuous
 62
   120
370
     5
100
AcDbLine
 10
-4724.999752560178
 20
1457.259387859344
 30
0.0
 11
-4724.999752560178
 21
1412.259387859343
 31
0.0
  0
LWPOLYLINE
  5
C1
330
1F
100
AcDbEntity
  8
0-B_寸法
  6
Continuous
 62
     7
370
     9
100
AcDbPolyline
 90
        4
 70
     1
 43
3.0
 10
-4723.499752560177
 20
1457.259387859344
 42
0.4142135623731
 10
-4724.999752560178
 20
1458.759387859343
 42
0.4142135623731
 10
-4726.499752560178
 20
1457.259387859344
 42
0.4142135623731
 10
-4724.999752560178
 20
1455.759387859344
 42
0.4142135623731
  0
LWPOLYLINE
  5
C2
330
1F
100
AcDbEntity
  8
0-B_寸法
  6
Continuous
 62
     7
370
     9
100
AcDbPolyline
 90
        4
 70
     1
 43
3.0
 10
-4723.499752560177
 20
1412.259387859343
 42
0.4142135623731
 10
-4724.999752560178
 20
1413.759387859343
 42
0.4142135623731
 10
-4726.499752560178
 20
1412.259387859343
 42
0.4142135623731
 10
-4724.999752560178
 20
1410.759387859343
 42
0.4142135623731
  0
LINE
  5
C3
330
1F
100
AcDbEntity
  8
0-B_寸法
  6
Continuous
 62
   120
370
     5
100
AcDbLine
 10
-4724.999752560178
 20
1412.259387859343
 30
0.0
 11
-4724.999752560178
 21
477.7593878593436
 31
0.0
  0
LWPOLYLINE
  5
C4
330
1F
100
AcDbEntity
  8
0-B_寸法
  6
Continuous
 62
     7
370
     9
100
AcDbPolyline
 90
        4
 70
     1
 43
3.0
 10
-4723.499752560177
 20
477.7593878593436
 42
0.4142135623731
 10
-4724.999752560178
 20
479.2593878593436
 42
0.4142135623731
 10
-4726.499752560178
 20
477.7593878593436
 42
0.4142135623731
 10
-4724.999752560178
 20
476.2593878593436
 42
0.4142135623731
  0
LINE
  5
C5
330
1F
100
AcDbEntity
  8
0-B_寸法
  6
Continuous
 62
   120
370
     5
100
AcDbLine
 10
-4724.999752560178
 20
477.7593878593436
 30
0.0
 11
-4724.999752560178
 21
407.2593878593437
 31
0.0
  0
LWPOLYLINE
  5
C6
330
1F
100
AcDbEntity
  8
0-B_寸法
  6
Continuous
 62
     7
370
     9
100
AcDbPolyline
 90
        4
 70
     1
 43
3.0
 10
-4723.499752560177
 20
407.2593878593437
 42
0.4142135623731
 10
-4724.999752560178
 20
408.7593878593437
 42
0.4142135623731
 10
-4726.499752560178
 20
407.2593878593437
 42
0.4142135623731
 10
-4724.999752560178
 20
405.7593878593437
 42
0.4142135623731
  0
LINE
  5
C7
330
1F
100
AcDbEntity
  8
0-B_寸法
  6
Continuous
 62
   120
370
     5
100
AcDbLine
 10
-4874.999752560178
 20
407.2593878593437
 30
0.0
 11
-4424.999752560178
 21
407.2593878593437
 31
0.0
  0
LINE
  5
C8
330
1F
100
AcDbEntity
  8
0-B_寸法
  6
Continuous
 62
   120
370
     5
100
AcDbLine
 10
-4874.999752560178
 20
1457.259387859343
 30
0.0
 11
-4874.999752560178
 21
407.2593878593437
 31
0.0
  0
LWPOLYLINE
  5
C9
330
1F
100
AcDbEntity
  8
0-B_寸法
  6
Continuous
 62
     7
370
     9
100
AcDbPolyline
 90
        4
 70
     1
 43
3.0
 10
-4873.499752560177
 20
1457.259387859343
 42
0.4142135623731
 10
-4874.999752560178
 20
1458.759387859343
 42
0.4142135623731
 10
-4876.499752560178
 20
1457.259387859343
 42
0.4142135623731
 10
-4874.999752560178
 20
1455.759387859343
 42
0.4142135623731
  0
LWPOLYLINE
  5
CA
330
1F
100
AcDbEntity
  8
0-B_寸法
  6
Continuous
 62
     7
370
     9
100
AcDbPolyline
 90
        4
 70
     1
 43
3.0
 10
-4873.499752560177
 20
407.2593878593437
 42
0.4142135623731
 10
-4874.999752560178
 20
408.7593878593437
 42
0.4142135623731
 10
-4876.499752560178
 20
407.2593878593437
 42
0.4142135623731
 10
-4874.999752560178
 20
405.7593878593437
 42
0.4142135623731
  0
TEXT
  5
CB
330
1F
100
AcDbEntity
  8
0-B_寸法
  6
Continuous
 62
     7
370
   211
100
AcDbText
 10
-4902.689752560177
 20
857.2593878593435
 30
0.0
 40
68.58
  1
700
 50
90.0
 41
1.111111111111111
  7
ＭＳ ゴシック
100
AcDbText
  0
TEXT
  5
CC
330
1F
100
AcDbEntity
  8
0-B_寸法
  6
Continuous
 62
     7
370
   211
100
AcDbText
 10
-4602.689752560177
 20
712.5093878593436
 30
0.0
 40
68.58
  1
590(前板)
 50
90.0
 41
1.148148148148148
  7
ＭＳ ゴシック
100
AcDbText
  0
TEXT
  5
CD
330
1F
100
AcDbEntity
  8
0-B_寸法
  6
Continuous
 62
     7
370
   211
100
AcDbText
 10
-4602.689752560177
 20
388.8843878593434
 30
0.0
 40
68.58
  1
16.5
 50
90.0
 41
1.125
  7
ＭＳ ゴシック
100
AcDbText
  0
LWPOLYLINE
  5
CE
330
1F
100
AcDbEntity
  8
0-B_寸法
  6
Continuous
 62
     7
370
     9
100
AcDbPolyline
 90
        4
 70
     1
 43
3.0
 10
-514.4997525601779
 20
-1355.470528308962
 42
0.4142135623731
 10
-515.9997525601779
 20
-1353.970528308962
 42
0.4142135623731
 10
-517.4997525601779
 20
-1355.470528308962
 42
0.4142135623731
 10
-515.9997525601779
 20
-1356.970528308962
 42
0.4142135623731
  0
LWPOLYLINE
  5
CF
330
1F
100
AcDbEntity
  8
0-B_寸法
  6
Continuous
 62
     7
370
     9
100
AcDbPolyline
 90
        4
 70
     1
 43
3.0
 10
-514.4997525601779
 20
-1387.720528308962
 42
0.4142135623731
 10
-515.9997525601779
 20
-1386.220528308962
 42
0.4142135623731
 10
-517.4997525601779
 20
-1387.720528308962
 42
0.4142135623731
 10
-515.9997525601779
 20
-1389.220528308962
 42
0.4142135623731
  0
LINE
  5
D0
330
1F
100
AcDbEntity
  8
0-B_寸法
  6
Continuous
 62
   120
370
     5
100
AcDbLine
 10
-515.9997525601779
 20
-1387.720528308962
 30
0.0
 11
-665.9997525601779
 21
-1387.720528308962
 31
0.0
  0
LINE
  5
D1
330
1F
100
AcDbEntity
  8
0-B_寸法
  6
Continuous
 62
   120
370
     5
100
AcDbLine
 10
-515.9997525601779
 20
-1387.720528308962
 30
0.0
 11
-515.9997525601779
 21
-1583.470528308962
 31
0.0
  0
LWPOLYLINE
  5
D2
330
1F
100
AcDbEntity
  8
0-B_寸法
  6
Continuous
 62
     7
370
     9
100
AcDbPolyline
 90
        4
 70
     1
 43
3.0
 10
-514.4997525601779
 20
-1583.470528308962
 42
0.4142135623731
 10
-515.9997525601779
 20
-1581.970528308962
 42
0.4142135623731
 10
-517.4997525601779
 20
-1583.470528308962
 42
0.4142135623731
 10
-515.9997525601779
 20
-1584.970528308962
 42
0.4142135623731
  0
LINE
  5
D3
330
1F
100
AcDbEntity
  8
0-B_寸法
  6
Continuous
 62
   120
370
     5
100
AcDbLine
 10
-515.9997525601779
 20
-1583.470528308962
 30
0.0
 11
-515.9997525601779
 21
-1615.720528308962
 31
0.0
  0
LWPOLYLINE
  5
D4
330
1F
100
AcDbEntity
  8
0-B_寸法
  6
Continuous
 62
     7
370
     9
100
AcDbPolyline
 90
        4
 70
     1
 43
3.0
 10
-514.4997525601779
 20
-1615.720528308962
 42
0.4142135623731
 10
-515.9997525601779
 20
-1614.220528308962
 42
0.4142135623731
 10
-517.4997525601779
 20
-1615.720528308962
 42
0.4142135623731
 10
-515.9997525601779
 20
-1617.220528308962
 42
0.4142135623731
  0
LINE
  5
D5
330
1F
100
AcDbEntity
  8
0-B_寸法
  6
Continuous
 62
   120
370
     5
100
AcDbLine
 10
-515.9997525601779
 20
-1615.720528308962
 30
0.0
 11
-515.9997525601779
 21
-1814.470528308962
 31
0.0
  0
LWPOLYLINE
  5
D6
330
1F
100
AcDbEntity
  8
0-B_寸法
  6
Continuous
 62
     7
370
     9
100
AcDbPolyline
 90
        4
 70
     1
 43
3.0
 10
-514.4997525601779
 20
-1814.470528308962
 42
0.4142135623731
 10
-515.9997525601779
 20
-1812.970528308962
 42
0.4142135623731
 10
-517.4997525601779
 20
-1814.470528308962
 42
0.4142135623731
 10
-515.9997525601779
 20
-1815.970528308962
 42
0.4142135623731
  0
LINE
  5
D7
330
1F
100
AcDbEntity
  8
0-B_寸法
  6
Continuous
 62
   120
370
     5
100
AcDbLine
 10
-515.9997525601779
 20
-1814.470528308962
 30
0.0
 11
-515.9997525601779
 21
-1846.720528308962
 31
0.0
  0
LWPOLYLINE
  5
D8
330
1F
100
AcDbEntity
  8
0-B_寸法
  6
Continuous
 62
     7
370
     9
100
AcDbPolyline
 90
        4
 70
     1
 43
3.0
 10
-514.4997525601779
 20
-1846.720528308962
 42
0.4142135623731
 10
-515.9997525601779
 20
-1845.220528308962
 42
0.4142135623731
 10
-517.4997525601779
 20
-1846.720528308962
 42
0.4142135623731
 10
-515.9997525601779
 20
-1848.220528308962
 42
0.4142135623731
  0
LINE
  5
D9
330
1F
100
AcDbEntity
  8
0-B_寸法
  6
Continuous
 62
   120
370
     5
100
AcDbLine
 10
-515.9997525601779
 20
-1846.720528308962
 30
0.0
 11
-515.9997525601779
 21
-2257.720528308962
 31
0.0
  0
LWPOLYLINE
  5
DA
330
1F
100
AcDbEntity
  8
0-B_寸法
  6
Continuous
 62
     7
370
     9
100
AcDbPolyline
 90
        4
 70
     1
 43
3.0
 10
-514.4997525601779
 20
-2257.720528308962
 42
0.4142135623731
 10
-515.9997525601779
 20
-2256.220528308962
 42
0.4142135623731
 10
-517.4997525601779
 20
-2257.720528308962
 42
0.4142135623731
 10
-515.9997525601779
 20
-2259.220528308962
 42
0.4142135623731
  0
LINE
  5
DB
330
1F
100
AcDbEntity
  8
0-B_寸法
  6
Continuous
 62
   120
370
     5
100
AcDbLine
 10
-515.9997525601779
 20
-2257.720528308962
 30
0.0
 11
-665.9997525601779
 21
-2257.720528308962
 31
0.0
  0
TEXT
  5
DC
330
1F
100
AcDbEntity
  8
0-B_寸法
  6
Continuous
 62
     7
370
   211
100
AcDbText
 10
-543.6897525601779
 20
-2127.220528308962
 30
0.0
 40
68.58
  1
274
 50
90.0
 41
1.111111111111111
  7
ＭＳ ゴシック
100
AcDbText
  0
LWPOLYLINE
  5
DD
330
1F
100
AcDbEntity
  8
0-B_寸法
  6
Continuous
 62
     7
370
     9
100
AcDbPolyline
 90
        4
 70
     1
 43
3.0
 10
-514.4997525601779
 20
-2289.970528308962
 42
0.4142135623731
 10
-515.9997525601779
 20
-2288.470528308962
 42
0.4142135623731
 10
-517.4997525601779
 20
-2289.970528308962
 42
0.4142135623731
 10
-515.9997525601779
 20
-2291.470528308962
 42
0.4142135623731
  0
LINE
  5
DE
330
1F
100
AcDbEntity
  8
0-B_寸法
  6
Continuous
 62
   120
370
     5
100
AcDbLine
 10
-515.9997525601779
 20
-1583.470528308962
 30
0.0
 11
-634.0176301501912
 21
-1583.470528308962
 31
0.0
  0
LINE
  5
DF
330
1F
100
AcDbEntity
  8
0-B_寸法
  6
Continuous
 62
   120
370
     5
100
AcDbLine
 10
-515.9997525601779
 20
-1615.720528308962
 30
0.0
 11
-634.0176301501912
 21
-1615.720528308962
 31
0.0
  0
LINE
  5
E0
330
1F
100
AcDbEntity
  8
0-B_寸法
  6
Continuous
 62
   120
370
     5
100
AcDbLine
 10
-515.9997525601779
 20
-1814.470528308962
 30
0.0
 11
-634.0176301501912
 21
-1814.470528308962
 31
0.0
  0
LINE
  5
E1
330
1F
100
AcDbEntity
  8
0-B_寸法
  6
Continuous
 62
   120
370
     5
100
AcDbLine
 10
-515.9997525601779
 20
-1846.720528308962
 30
0.0
 11
-634.0176301501912
 21
-1846.720528308962
 31
0.0
  0
TEXT
  5
E2
330
1F
100
AcDbEntity
  8
0-B_寸法
  6
Continuous
 62
     7
370
   211
100
AcDbText
 10
-543.6897525601775
 20
1399.884387859343
 30
0.0
 40
68.58
  1
16.5
 50
90.0
 41
1.125
  7
ＭＳ ゴシック
100
AcDbText
  0
TEXT
  5
E3
330
1F
100
AcDbEntity
  8
0-B_寸法
  6
Continuous
 62
     7
370
   211
100
AcDbText
 10
-543.6897525601775
 20
1209.759387859343
 30
0.0
 40
68.58
  1
137
 50
90.0
 41
1.111111111111111
  7
ＭＳ ゴシック
100
AcDbText
  0
TEXT
  5
E4
330
1F
100
AcDbEntity
  8
0-B_寸法
  6
Continuous
 62
     7
370
   211
100
AcDbText
 10
-543.6897525601775
 20
978.7593878593432
 30
0.0
 40
68.58
  1
137
 50
90.0
 41
1.111111111111111
  7
ＭＳ ゴシック
100
AcDbText
  0
TEXT
  5
E5
330
1F
100
AcDbEntity
  8
0-B_寸法
  6
Continuous
 62
     7
370
   211
100
AcDbText
 10
-543.6897525601775
 20
639.0093878593432
 30
0.0
 40
68.58
  1
282
 50
90.0
 41
1.111111111111111
  7
ＭＳ ゴシック
100
AcDbText
  0
TEXT
  5
E6
330
1F
100
AcDbEntity
  8
0-B_寸法
  6
Continuous
 62
     7
370
   211
100
AcDbText
 10
-543.6897525601775
 20
287.6343878593434
 30
0.0
 40
68.58
  1
16.5
 50
90.0
 41
1.125
  7
ＭＳ ゴシック
100
AcDbText
  0
LWPOLYLINE
  5
E7
330
1F
100
AcDbEntity
  8
0-B_寸法
  6
Continuous
 62
     7
370
     9
100
AcDbPolyline
 90
        4
 70
     1
 43
3.0
 10
-514.4997525601774
 20
1412.259387859343
 42
0.4142135623731
 10
-515.9997525601774
 20
1413.759387859343
 42
0.4142135623731
 10
-517.4997525601774
 20
1412.259387859343
 42
0.4142135623731
 10
-515.9997525601774
 20
1410.759387859343
 42
0.4142135623731
  0
LWPOLYLINE
  5
E8
330
1F
100
AcDbEntity
  8
0-B_寸法
  6
Continuous
 62
     7
370
     9
100
AcDbPolyline
 90
        4
 70
     1
 43
3.0
 10
-514.4997525601774
 20
1387.509387859343
 42
0.4142135623731
 10
-515.9997525601774
 20
1389.009387859343
 42
0.4142135623731
 10
-517.4997525601774
 20
1387.509387859343
 42
0.4142135623731
 10
-515.9997525601774
 20
1386.009387859343
 42
0.4142135623731
  0
LINE
  5
E9
330
1F
100
AcDbEntity
  8
0-B_寸法
  6
Continuous
 62
   120
370
     5
100
AcDbLine
 10
-515.9997525601774
 20
1387.509387859343
 30
0.0
 11
-665.9997525601774
 21
1387.509387859343
 31
0.0
  0
LINE
  5
EA
330
1F
100
AcDbEntity
  8
0-B_寸法
  6
Continuous
 62
   120
370
     5
100
AcDbLine
 10
-515.9997525601774
 20
1387.509387859343
 30
0.0
 11
-515.9997525601774
 21
1182.009387859343
 31
0.0
  0
LWPOLYLINE
  5
EB
330
1F
100
AcDbEntity
  8
0-B_寸法
  6
Continuous
 62
     7
370
     9
100
AcDbPolyline
 90
        4
 70
     1
 43
3.0
 10
-514.4997525601774
 20
1182.009387859343
 42
0.4142135623731
 10
-515.9997525601774
 20
1183.509387859343
 42
0.4142135623731
 10
-517.4997525601774
 20
1182.009387859343
 42
0.4142135623731
 10
-515.9997525601774
 20
1180.509387859343
 42
0.4142135623731
  0
LINE
  5
EC
330
1F
100
AcDbEntity
  8
0-B_寸法
  6
Continuous
 62
   120
370
     5
100
AcDbLine
 10
-515.9997525601774
 20
1182.009387859343
 30
0.0
 11
-515.9997525601774
 21
1156.509387859343
 31
0.0
  0
LWPOLYLINE
  5
ED
330
1F
100
AcDbEntity
  8
0-B_寸法
  6
Continuous
 62
     7
370
     9
100
AcDbPolyline
 90
        4
 70
     1
 43
3.0
 10
-514.4997525601774
 20
1156.509387859343
 42
0.4142135623731
 10
-515.9997525601774
 20
1158.009387859343
 42
0.4142135623731
 10
-517.4997525601774
 20
1156.509387859343
 42
0.4142135623731
 10
-515.9997525601774
 20
1155.009387859343
 42
0.4142135623731
  0
LINE
  5
EE
330
1F
100
AcDbEntity
  8
0-B_寸法
  6
Continuous
 62
   120
370
     5
100
AcDbLine
 10
-515.9997525601774
 20
1156.509387859343
 30
0.0
 11
-515.9997525601774
 21
951.0093878593433
 31
0.0
  0
LWPOLYLINE
  5
EF
330
1F
100
AcDbEntity
  8
0-B_寸法
  6
Continuous
 62
     7
370
     9
100
AcDbPolyline
 90
        4
 70
     1
 43
3.0
 10
-514.4997525601774
 20
951.0093878593433
 42
0.4142135623731
 10
-515.9997525601774
 20
952.5093878593433
 42
0.4142135623731
 10
-517.4997525601774
 20
951.0093878593433
 42
0.4142135623731
 10
-515.9997525601774
 20
949.5093878593433
 42
0.4142135623731
  0
LINE
  5
F0
330
1F
100
AcDbEntity
  8
0-B_寸法
  6
Continuous
 62
   120
370
     5
100
AcDbLine
 10
-515.9997525601774
 20
951.0093878593433
 30
0.0
 11
-515.9997525601774
 21
925.5093878593431
 31
0.0
  0
LWPOLYLINE
  5
F1
330
1F
100
AcDbEntity
  8
0-B_寸法
  6
Continuous
 62
     7
370
     9
100
AcDbPolyline
 90
        4
 70
     1
 43
3.0
 10
-514.4997525601774
 20
925.5093878593431
 42
0.4142135623731
 10
-515.9997525601774
 20
927.0093878593431
 42
0.4142135623731
 10
-517.4997525601774
 20
925.5093878593431
 42
0.4142135623731
 10
-515.9997525601774
 20
924.0093878593431
 42
0.4142135623731
  0
LINE
  5
F2
330
1F
100
AcDbEntity
  8
0-B_寸法
  6
Continuous
 62
   120
370
     5
100
AcDbLine
 10
-515.9997525601774
 20
925.5093878593431
 30
0.0
 11
-515.9997525601774
 21
502.5093878593432
 31
0.0
  0
LWPOLYLINE
  5
F3
330
1F
100
AcDbEntity
  8
0-B_寸法
  6
Continuous
 62
     7
370
     9
100
AcDbPolyline
 90
        4
 70
     1
 43
3.0
 10
-514.4997525601774
 20
502.5093878593432
 42
0.4142135623731
 10
-515.9997525601774
 20
504.0093878593432
 42
0.4142135623731
 10
-517.4997525601774
 20
502.5093878593432
 42
0.4142135623731
 10
-515.9997525601774
 20
501.0093878593432
 42
0.4142135623731
  0
LINE
  5
F4
330
1F
100
AcDbEntity
  8
0-B_寸法
  6
Continuous
 62
   120
370
     5
100
AcDbLine
 10
-515.9997525601774
 20
502.5093878593432
 30
0.0
 11
-665.9997525601774
 21
502.5093878593432
 31
0.0
  0
LWPOLYLINE
  5
F5
330
1F
100
AcDbEntity
  8
0-B_寸法
  6
Continuous
 62
     7
370
     9
100
AcDbPolyline
 90
        4
 70
     1
 43
3.0
 10
-514.4997525601774
 20
477.7593878593432
 42
0.4142135623731
 10
-515.9997525601774
 20
479.2593878593432
 42
0.4142135623731
 10
-517.4997525601774
 20
477.7593878593432
 42
0.4142135623731
 10
-515.9997525601774
 20
476.2593878593431
 42
0.4142135623731
  0
LINE
  5
F6
330
1F
100
AcDbEntity
  8
0-B_寸法
  6
Continuous
 62
   120
370
     5
100
AcDbLine
 10
-515.9997525601774
 20
1182.009387859343
 30
0.0
 11
-620.1675213491372
 21
1182.009387859343
 31
0.0
  0
LINE
  5
F7
330
1F
100
AcDbEntity
  8
0-B_寸法
  6
Continuous
 62
   120
370
     5
100
AcDbLine
 10
-515.9997525601774
 20
1156.509387859343
 30
0.0
 11
-620.1675213491372
 21
1156.509387859343
 31
0.0
  0
LINE
  5
F8
330
1F
100
AcDbEntity
  8
0-B_寸法
  6
Continuous
 62
   120
370
     5
100
AcDbLine
 10
-515.9997525601774
 20
951.0093878593433
 30
0.0
 11
-620.1675213491372
 21
951.0093878593433
 31
0.0
  0
LINE
  5
F9
330
1F
100
AcDbEntity
  8
0-B_寸法
  6
Continuous
 62
   120
370
     5
100
AcDbLine
 10
-515.9997525601774
 20
925.5093878593431
 30
0.0
 11
-620.1675213491372
 21
925.5093878593431
 31
0.0
  0
LINE
  5
FA
330
1F
100
AcDbEntity
  8
0-B_寸法
  6
Continuous
 62
   120
370
     5
100
AcDbLine
 10
-4574.999752560178
 20
-1355.470528308962
 30
0.0
 11
-4574.999752560178
 21
-1387.720528308962
 31
0.0
  0
LWPOLYLINE
  5
FB
330
1F
100
AcDbEntity
  8
0-B_寸法
  6
Continuous
 62
     7
370
     9
100
AcDbPolyline
 90
        4
 70
     1
 43
3.0
 10
-4573.499752560177
 20
-1355.470528308962
 42
0.4142135623731
 10
-4574.999752560178
 20
-1353.970528308962
 42
0.4142135623731
 10
-4576.499752560178
 20
-1355.470528308962
 42
0.4142135623731
 10
-4574.999752560178
 20
-1356.970528308962
 42
0.4142135623731
  0
LWPOLYLINE
  5
FC
330
1F
100
AcDbEntity
  8
0-B_寸法
  6
Continuous
 62
     7
370
     9
100
AcDbPolyline
 90
        4
 70
     1
 43
3.0
 10
-4573.499752560177
 20
-1387.720528308962
 42
0.4142135623731
 10
-4574.999752560178
 20
-1386.220528308962
 42
0.4142135623731
 10
-4576.499752560178
 20
-1387.720528308962
 42
0.4142135623731
 10
-4574.999752560178
 20
-1389.220528308962
 42
0.4142135623731
  0
LINE
  5
FD
330
1F
100
AcDbEntity
  8
0-B_寸法
  6
Continuous
 62
   120
370
     5
100
AcDbLine
 10
-4724.999752560178
 20
-1355.470528308962
 30
0.0
 11
-4424.999752560178
 21
-1355.470528308962
 31
0.0
  0
LINE
  5
FE
330
1F
100
AcDbEntity
  8
0-B_寸法
  6
Continuous
 62
   120
370
     5
100
AcDbLine
 10
-4574.999752560178
 20
-1387.720528308962
 30
0.0
 11
-4424.999752560178
 21
-1387.720528308962
 31
0.0
  0
TEXT
  5
FF
330
1F
100
AcDbEntity
  8
0-B_寸法
  6
Continuous
 62
     7
370
   211
100
AcDbText
 10
-4602.689752560177
 20
-1472.845528308962
 30
0.0
 40
68.58
  1
21.5
 50
90.0
 41
1.125
  7
ＭＳ ゴシック
100
AcDbText
  0
LINE
  5
100
330
1F
100
AcDbEntity
  8
0-B_寸法
  6
Continuous
 62
   120
370
     5
100
AcDbLine
 10
-4574.999752560178
 20
-1387.720528308962
 30
0.0
 11
-4574.999752560178
 21
-2257.720528308962
 31
0.0
  0
LWPOLYLINE
  5
101
330
1F
100
AcDbEntity
  8
0-B_寸法
  6
Continuous
 62
     7
370
     9
100
AcDbPolyline
 90
        4
 70
     1
 43
3.0
 10
-4573.499752560177
 20
-2257.720528308962
 42
0.4142135623731
 10
-4574.999752560178
 20
-2256.220528308962
 42
0.4142135623731
 10
-4576.499752560178
 20
-2257.720528308962
 42
0.4142135623731
 10
-4574.999752560178
 20
-2259.220528308962
 42
0.4142135623731
  0
LINE
  5
102
330
1F
100
AcDbEntity
  8
0-B_寸法
  6
Continuous
 62
   120
370
     5
100
AcDbLine
 10
-4574.999752560178
 20
-2257.720528308962
 30
0.0
 11
-4424.999752560178
 21
-2257.720528308962
 31
0.0
  0
TEXT
  5
103
330
1F
100
AcDbEntity
  8
0-B_寸法
  6
Continuous
 62
     7
370
   211
100
AcDbText
 10
-4602.689752560177
 20
-1897.720528308962
 30
0.0
 40
68.58
  1
580
 50
90.0
 41
1.111111111111111
  7
ＭＳ ゴシック
100
AcDbText
  0
LINE
  5
104
330
1F
100
AcDbEntity
  8
0-B_寸法
  6
Continuous
 62
   120
370
     5
100
AcDbLine
 10
-4574.999752560178
 20
-2257.720528308962
 30
0.0
 11
-4574.999752560178
 21
-2289.970528308962
 31
0.0
  0
LWPOLYLINE
  5
105
330
1F
100
AcDbEntity
  8
0-B_寸法
  6
Continuous
 62
     7
370
     9
100
AcDbPolyline
 90
        4
 70
     1
 43
3.0
 10
-4573.499752560177
 20
-2289.970528308962
 42
0.4142135623731
 10
-4574.999752560178
 20
-2288.470528308962
 42
0.4142135623731
 10
-4576.499752560178
 20
-2289.970528308962
 42
0.4142135623731
 10
-4574.999752560178
 20
-2291.470528308962
 42
0.4142135623731
  0
LINE
  5
106
330
1F
100
AcDbEntity
  8
0-B_寸法
  6
Continuous
 62
   120
370
     5
100
AcDbLine
 10
-4724.999752560178
 20
-2289.970528308962
 30
0.0
 11
-4424.999752560178
 21
-2289.970528308962
 31
0.0
  0
TEXT
  5
107
330
1F
100
AcDbEntity
  8
0-B_寸法
  6
Continuous
 62
     7
370
   211
100
AcDbText
 10
-4602.689752560177
 20
-2375.095528308962
 30
0.0
 40
68.58
  1
21.5
 50
90.0
 41
1.125
  7
ＭＳ ゴシック
100
AcDbText
  0
LINE
  5
108
330
1F
100
AcDbEntity
  8
0-B_寸法
  6
Continuous
 62
   120
370
     5
100
AcDbLine
 10
-4724.999752560178
 20
-1310.470528308962
 30
0.0
 11
-4724.999752560178
 21
-1355.470528308962
 31
0.0
  0
LWPOLYLINE
  5
109
330
1F
100
AcDbEntity
  8
0-B_寸法
  6
Continuous
 62
     7
370
     9
100
AcDbPolyline
 90
        4
 70
     1
 43
3.0
 10
-4723.499752560177
 20
-1310.470528308962
 42
0.4142135623731
 10
-4724.999752560178
 20
-1308.970528308962
 42
0.4142135623731
 10
-4726.499752560178
 20
-1310.470528308962
 42
0.4142135623731
 10
-4724.999752560178
 20
-1311.970528308962
 42
0.4142135623731
  0
LWPOLYLINE
  5
10A
330
1F
100
AcDbEntity
  8
0-B_寸法
  6
Continuous
 62
     7
370
     9
100
AcDbPolyline
 90
        4
 70
     1
 43
3.0
 10
-4723.499752560177
 20
-1355.470528308962
 42
0.4142135623731
 10
-4724.999752560178
 20
-1353.970528308962
 42
0.4142135623731
 10
-4726.499752560178
 20
-1355.470528308962
 42
0.4142135623731
 10
-4724.999752560178
 20
-1356.970528308962
 42
0.4142135623731
  0
LINE
  5
10B
330
1F
100
AcDbEntity
  8
0-B_寸法
  6
Continuous
 62
   120
370
     5
100
AcDbLine
 10
-4724.999752560178
 20
-1355.470528308962
 30
0.0
 11
-4724.999752560178
 21
-2289.970528308962
 31
0.0
  0
LWPOLYLINE
  5
10C
330
1F
100
AcDbEntity
  8
0-B_寸法
  6
Continuous
 62
     7
370
     9
100
AcDbPolyline
 90
        4
 70
     1
 43
3.0
 10
-4723.499752560177
 20
-2289.970528308962
 42
0.4142135623731
 10
-4724.999752560178
 20
-2288.470528308962
 42
0.4142135623731
 10
-4726.499752560178
 20
-2289.970528308962
 42
0.4142135623731
 10
-4724.999752560178
 20
-2291.470528308962
 42
0.4142135623731
  0
LINE
  5
10D
330
1F
100
AcDbEntity
  8
0-B_寸法
  6
Continuous
 62
   120
370
     5
100
AcDbLine
 10
-4724.999752560178
 20
-2289.970528308962
 30
0.0
 11
-4724.999752560178
 21
-2360.470528308962
 31
0.0
  0
LWPOLYLINE
  5
10E
330
1F
100
AcDbEntity
  8
0-B_寸法
  6
Continuous
 62
     7
370
     9
100
AcDbPolyline
 90
        4
 70
     1
 43
3.0
 10
-4723.499752560177
 20
-2360.470528308962
 42
0.4142135623731
 10
-4724.999752560178
 20
-2358.970528308962
 42
0.4142135623731
 10
-4726.499752560178
 20
-2360.470528308962
 42
0.4142135623731
 10
-4724.999752560178
 20
-2361.970528308962
 42
0.4142135623731
  0
LINE
  5
10F
330
1F
100
AcDbEntity
  8
0-B_寸法
  6
Continuous
 62
   120
370
     5
100
AcDbLine
 10
-4874.999752560178
 20
-2360.470528308962
 30
0.0
 11
-4424.999752560178
 21
-2360.470528308962
 31
0.0
  0
LINE
  5
110
330
1F
100
AcDbEntity
  8
0-B_寸法
  6
Continuous
 62
   120
370
     5
100
AcDbLine
 10
-4874.999752560178
 20
-1310.470528308962
 30
0.0
 11
-4874.999752560178
 21
-2360.470528308962
 31
0.0
  0
LWPOLYLINE
  5
111
330
1F
100
AcDbEntity
  8
0-B_寸法
  6
Continuous
 62
     7
370
     9
100
AcDbPolyline
 90
        4
 70
     1
 43
3.0
 10
-4873.499752560177
 20
-1310.470528308962
 42
0.4142135623731
 10
-4874.999752560178
 20
-1308.970528308962
 42
0.4142135623731
 10
-4876.499752560178
 20
-1310.470528308962
 42
0.4142135623731
 10
-4874.999752560178
 20
-1311.970528308962
 42
0.4142135623731
  0
LWPOLYLINE
  5
112
330
1F
100
AcDbEntity
  8
0-B_寸法
  6
Continuous
 62
     7
370
     9
100
AcDbPolyline
 90
        4
 70
     1
 43
3.0
 10
-4873.499752560177
 20
-2360.470528308962
 42
0.4142135623731
 10
-4874.999752560178
 20
-2358.970528308962
 42
0.4142135623731
 10
-4876.499752560178
 20
-2360.470528308962
 42
0.4142135623731
 10
-4874.999752560178
 20
-2361.970528308962
 42
0.4142135623731
  0
TEXT
  5
113
330
1F
100
AcDbEntity
  8
0-B_寸法
  6
Continuous
 62
     7
370
   211
100
AcDbText
 10
-4902.689752560177
 20
-1910.470528308962
 30
0.0
 40
68.58
  1
700
 50
90.0
 41
1.111111111111111
  7
ＭＳ ゴシック
100
AcDbText
  0
LINE
  5
114
330
1F
100
AcDbEntity
  8
0-B_寸法
  6
Continuous
 62
   120
370
     5
100
AcDbLine
 10
-665.9997525601774
 20
407.2593878593433
 30
0.0
 11
-365.9997525601774
 21
407.2593878593433
 31
0.0
  0
TEXT
  5
115
330
1F
100
AcDbEntity
  8
0-B_寸法
  6
Continuous
 62
     7
370
   211
100
AcDbText
 10
-4752.898633703671
 20
990.3413014769135
 30
0.0
 40
68.58
  1
623
 50
90.0
 41
1.111111111111111
  7
ＭＳ ゴシック
100
AcDbText
  0
LINE
  5
116
330
1F
100
AcDbEntity
  8
0-B_寸法
  6
Continuous
 62
   120
370
     5
100
AcDbLine
 10
-4874.999752560178
 20
1457.259387859343
 30
0.0
 11
-4574.999752560178
 21
1457.259387859344
 31
0.0
  0
TEXT
  5
117
330
1F
100
AcDbEntity
  8
0-B_寸法
  6
Continuous
 62
     7
370
   211
100
AcDbText
 10
-4602.689752560177
 20
1250.397563838898
 30
0.0
 40
68.58
  1
16.5
 50
90.0
 41
1.125
  7
ＭＳ ゴシック
100
AcDbText
  0
LINE
  5
118
330
1F
100
AcDbEntity
  8
0-B_寸法
  6
Continuous
 62
   120
370
     5
100
AcDbLine
 10
-515.9997525601774
 20
1387.509387859343
 30
0.0
 11
-515.9997525601774
 21
1412.259387859343
 31
0.0
  0
LINE
  5
119
330
1F
100
AcDbEntity
  8
0-B_寸法
  6
Continuous
 62
   120
370
     5
100
AcDbLine
 10
-665.9997525601774
 20
1412.259387859343
 30
0.0
 11
-515.9997525601774
 21
1412.259387859343
 31
0.0
  0
LINE
  5
11A
330
1F
100
AcDbEntity
  8
0-B_寸法
  6
Continuous
 62
   120
370
     5
100
AcDbLine
 10
-515.9997525601774
 20
502.5093878593432
 30
0.0
 11
-515.9997525601774
 21
477.7593878593432
 31
0.0
  0
LINE
  5
11B
330
1F
100
AcDbEntity
  8
0-B_寸法
  6
Continuous
 62
   120
370
     5
100
AcDbLine
 10
-665.9997525601774
 20
477.7593878593432
 30
0.0
 11
-515.9997525601774
 21
477.7593878593432
 31
0.0
  0
TEXT
  5
11C
330
1F
100
AcDbEntity
  8
0-B_寸法
  6
Continuous
 62
     7
370
   211
100
AcDbText
 10
-644.8384451701775
 20
1004.700908914936
 30
0.0
 40
68.58
  1
17
 50
90.0
 41
1.083333333333333
  7
ＭＳ ゴシック
100
AcDbText
  0
TEXT
  5
11D
330
1F
100
AcDbEntity
  8
0-B_寸法
  6
Continuous
 62
     7
370
   211
100
AcDbText
 10
-644.8384451701775
 20
773.7009089149365
 30
0.0
 40
68.58
  1
17
 50
90.0
 41
1.083333333333333
  7
ＭＳ ゴシック
100
AcDbText
  0
LINE
  5
11E
330
1F
100
AcDbEntity
  8
0-B_寸法
  6
Continuous
 62
   120
370
     5
100
AcDbLine
 10
-4349.999752560178
 20
-1085.470528308962
 30
0.0
 11
-740.9997525601779
 21
-1085.470528308962
 31
0.0
  0
LWPOLYLINE
  5
11F
330
1F
100
AcDbEntity
  8
0-B_寸法
  6
Continuous
 62
     7
370
     9
100
AcDbPolyline
 90
        4
 70
     1
 43
3.0
 10
-4348.499752560177
 20
-1085.470528308962
 42
0.4142135623731
 10
-4349.999752560178
 20
-1083.970528308962
 42
0.4142135623731
 10
-4351.499752560178
 20
-1085.470528308962
 42
0.4142135623731
 10
-4349.999752560178
 20
-1086.970528308962
 42
0.4142135623731
  0
LWPOLYLINE
  5
120
330
1F
100
AcDbEntity
  8
0-B_寸法
  6
Continuous
 62
     7
370
     9
100
AcDbPolyline
 90
        4
 70
     1
 43
3.0
 10
-739.4997525601779
 20
-1085.470528308962
 42
0.4142135623731
 10
-740.9997525601779
 20
-1083.970528308962
 42
0.4142135623731
 10
-742.4997525601779
 20
-1085.470528308962
 42
0.4142135623731
 10
-740.9997525601779
 20
-1086.970528308962
 42
0.4142135623731
  0
LINE
  5
121
330
1F
100
AcDbEntity
  8
0-B_寸法
  6
Continuous
 62
   120
370
     5
100
AcDbLine
 10
-4349.999752560178
 20
-1085.470528308962
 30
0.0
 11
-4349.999752560178
 21
-1235.470528308962
 31
0.0
  0
LINE
  5
122
330
1F
100
AcDbEntity
  8
0-B_寸法
  6
Continuous
 62
   120
370
     5
100
AcDbLine
 10
-740.9997525601779
 20
-1085.470528308962
 30
0.0
 11
-740.9997525601779
 21
-1235.470528308962
 31
0.0
  0
TEXT
  5
123
330
1F
100
AcDbEntity
  8
0-B_寸法
  6
Continuous
 62
     7
370
   211
100
AcDbText
 10
-4752.689752560177
 20
-1381.720528308962
 30
0.0
 40
68.58
  1
30(ｶｳﾝﾀｰ)
 50
90.0
 41
1.148148148148148
  7
ＭＳ ゴシック
100
AcDbText
  0
TEXT
  5
124
330
1F
100
AcDbEntity
  8
0-B_寸法
  6
Continuous
 62
     7
370
   211
100
AcDbText
 10
-4752.689752560177
 20
-2373.970528308962
 30
0.0
 40
68.58
  1
47(台輪)
 50
90.0
 41
1.145833333333333
  7
ＭＳ ゴシック
100
AcDbText
  0
TEXT
  5
125
330
1F
100
AcDbEntity
  8
0-B_寸法
  6
Continuous
 62
     7
370
   211
100
AcDbText
 10
-4752.689752560177
 20
-1868.888675486143
 30
0.0
 40
68.58
  1
623
 50
90.0
 41
1.111111111111111
  7
ＭＳ ゴシック
100
AcDbText
  0
LINE
  5
126
330
1F
100
AcDbEntity
  8
0-B_寸法
  6
Continuous
 62
   120
370
     5
100
AcDbLine
 10
-4874.999752560178
 20
-1310.470528308962
 30
0.0
 11
-4574.999752560178
 21
-1310.470528308962
 31
0.0
  0
LINE
  5
127
330
1F
100
AcDbEntity
  8
0-B_寸法
  6
Continuous
 62
   120
370
     5
100
AcDbLine
 10
-665.9997525601779
 20
-2360.470528308962
 30
0.0
 11
-365.9997525601779
 21
-2360.470528308962
 31
0.0
  0
LINE
  5
128
330
1F
100
AcDbEntity
  8
0-B_寸法
  6
Continuous
 62
   120
370
     5
100
AcDbLine
 10
-515.9997525601779
 20
-1387.720528308962
 30
0.0
 11
-515.9997525601779
 21
-1355.470528308962
 31
0.0
  0
LINE
  5
129
330
1F
100
AcDbEntity
  8
0-B_寸法
  6
Continuous
 62
   120
370
     5
100
AcDbLine
 10
-665.9997525601779
 20
-1355.470528308962
 30
0.0
 11
-571.8583911042742
 21
-1355.470528308962
 31
0.0
  0
LINE
  5
12A
330
1F
100
AcDbEntity
  8
0-B_寸法
  6
Continuous
 62
   120
370
     5
100
AcDbLine
 10
-571.8583911042742
 20
-1355.470528308962
 30
0.0
 11
-515.9997525601779
 21
-1355.470528308962
 31
0.0
  0
LINE
  5
12B
330
1F
100
AcDbEntity
  8
0-B_寸法
  6
Continuous
 62
   120
370
     5
100
AcDbLine
 10
-515.9997525601779
 20
-2257.720528308962
 30
0.0
 11
-515.9997525601779
 21
-2289.970528308962
 31
0.0
  0
LINE
  5
12C
330
1F
100
AcDbEntity
  8
0-B_寸法
  6
Continuous
 62
   120
370
     5
100
AcDbLine
 10
-665.9997525601779
 20
-2289.970528308962
 30
0.0
 11
-532.1247525601781
 21
-2289.970528308962
 31
0.0
  0
LINE
  5
12D
330
1F
100
AcDbEntity
  8
0-B_寸法
  6
Continuous
 62
   120
370
     5
100
AcDbLine
 10
-532.1247525601781
 20
-2289.970528308962
 30
0.0
 11
-515.9997525601779
 21
-2289.970528308962
 31
0.0
  0
TEXT
  5
12E
330
1F
100
AcDbEntity
  8
0-B_寸法
  6
Continuous
 62
     7
370
   211
100
AcDbText
 10
-543.6897525601779
 20
-2476.345528308962
 30
0.0
 40
68.58
  1
21.5
 50
90.0
 41
1.125
  7
ＭＳ ゴシック
100
AcDbText
  0
TEXT
  5
12F
330
1F
100
AcDbEntity
  8
0-B_寸法
  6
Continuous
 62
     7
370
   211
100
AcDbText
 10
-541.5747525601779
 20
-1355.470528308962
 30
0.0
 40
57.15000000000001
  1
21.5
 50
90.0
 41
0.9999999999999998
  7
ＭＳ ゴシック
100
AcDbText
  0
TEXT
  5
130
330
1F
100
AcDbEntity
  8
0-B_寸法
  6
Continuous
 62
     7
370
   211
100
AcDbText
 10
-541.5747525601779
 20
-1579.345528308962
 30
0.0
 40
57.15000000000001
  1
130.5
 50
90.0
 41
0.9999999999999999
  7
ＭＳ ゴシック
100
AcDbText
  0
TEXT
  5
131
330
1F
100
AcDbEntity
  8
0-B_寸法
  6
Continuous
 62
     7
370
   211
100
AcDbText
 10
-541.5747525601779
 20
-1806.033028308962
 30
0.0
 40
57.15000000000001
  1
132.5
 50
90.0
 41
0.9999999999999999
  7
ＭＳ ゴシック
100
AcDbText
  0
TEXT
  5
132
330
1F
100
AcDbEntity
  8
0-B_寸法
  6
Continuous
 62
     7
370
   211
100
AcDbText
 10
-645.360539460178
 20
-1818.176534351579
 30
0.0
 40
57.15000000000001
  1
21.5
 50
90.0
 41
0.9999999999999998
  7
ＭＳ ゴシック
100
AcDbText
  0
TEXT
  5
133
330
1F
100
AcDbEntity
  8
0-B_寸法
  6
Continuous
 62
     7
370
   211
100
AcDbText
 10
-645.360539460178
 20
-2049.176534351579
 30
0.0
 40
57.15000000000001
  1
21.5
 50
90.0
 41
0.9999999999999998
  7
ＭＳ ゴシック
100
AcDbText
  0
TEXT
  5
134
330
1F
100
AcDbEntity
  8
0-A_文字
  6
Continuous
 62
     7
370
     9
100
AcDbText
 10
-5429.999752560178
 20
3709.419983504013
 30
0.0
 40
91.44
  1
書斎プラン
 41
1.1
  7
ＭＳ ゴシック
100
AcDbText
  0
LINE
  5
135
330
1F
100
AcDbEntity
  8
F-0_補助線
  6
JWW_HOJO
 62
     7
370
     9
100
AcDbLine
 10
849.9995876002961
 20
-3785.000217540844
 30
0.0
 11
849.9995876002961
 21
-4185.00022269584
 31
0.0
  0
LINE
  5
136
330
1F
100
AcDbEntity
  8
F-0_補助線
  6
JWW_HOJO
 62
     7
370
     9
100
AcDbLine
 10
349.9999175200594
 20
-3785.000217540844
 30
0.0
 11
349.9999175200594
 21
-4185.00022269584
 31
0.0
  0
LINE
  5
137
330
1F
100
AcDbEntity
  8
F-1_枠
  6
Continuous
 62
   200
370
    20
100
AcDbLine
 10
5699.998762800888
 20
-4195.000217025344
 30
0.0
 11
-5999.999752560178
 21
-4195.000217025344
 31
0.0
  0
LINE
  5
138
330
1F
100
AcDbEntity
  8
F-1_枠
  6
Continuous
 62
   200
370
    20
100
AcDbLine
 10
5699.998762800888
 20
-4190.000208261851
 30
0.0
 11
-5999.999752560178
 21
-4190.000208261851
 31
0.0
  0
LINE
  5
139
330
1F
100
AcDbEntity
  8
F-1_枠
  6
Continuous
 62
   200
370
    20
100
AcDbLine
 10
5699.998762800888
 20
-4185.00022269584
 30
0.0
 11
-5999.999752560178
 21
-4185.00022269584
 31
0.0
  0
LINE
  5
13A
330
1F
100
AcDbEntity
  8
F-1_枠
  6
Continuous
 62
   200
370
    20
100
AcDbLine
 10
4189.999224688556
 20
-3785.000217540844
 30
0.0
 11
4189.999224688556
 21
-4185.00022269584
 31
0.0
  0
LINE
  5
13B
330
1F
100
AcDbEntity
  8
F-1_枠
  6
Continuous
 62
   200
370
    20
100
AcDbLine
 10
2689.998729808911
 20
-3785.000217540844
 30
0.0
 11
2689.998729808911
 21
-4185.00022269584
 31
0.0
  0
LINE
  5
13C
330
1F
100
AcDbEntity
  8
F-1_枠
  6
Continuous
 62
   200
370
    20
100
AcDbLine
 10
-150.0001237199109
 20
-3785.000217540844
 30
0.0
 11
-150.0001237199109
 21
-4185.00022269584
 31
0.0
  0
LINE
  5
13D
330
1F
100
AcDbEntity
  8
F-1_枠
  6
Continuous
 62
   200
370
    20
100
AcDbLine
 10
-150.0001237199109
 20
-3985.000150525892
 30
0.0
 11
5689.998977248734
 21
-3985.005578737001
 31
0.0
  0
LINE
  5
13E
330
1F
100
AcDbEntity
  8
F-0_補助線
  6
JWW_HOJO
 62
     7
370
     9
100
AcDbLine
 10
-5989.999990205507
 20
-3985.000150526237
 30
0.0
 11
-150.0001237199109
 21
-3985.000150526237
 31
0.0
  0
LINE
  5
13F
330
1F
100
AcDbEntity
  8
F-0_補助線
  6
JWW_HOJO
 62
     7
370
     9
100
AcDbLine
 10
-5989.999990205507
 20
-3895.000150526237
 30
0.0
 11
-150.0001237199109
 21
-3895.000150526237
 31
0.0
  0
LINE
  5
140
330
1F
100
AcDbEntity
  8
F-0_補助線
  6
JWW_HOJO
 62
     7
370
     9
100
AcDbLine
 10
-5989.999990205507
 20
-4075.000150526237
 30
0.0
 11
-150.0001237199109
 21
-4075.000150526237
 31
0.0
  0
LINE
  5
141
330
1F
100
AcDbEntity
  8
F-0_補助線
  6
JWW_HOJO
 62
     7
370
     9
100
AcDbLine
 10
-150.0002584955388
 20
-4129.999954225829
 30
0.0
 11
5689.998842473105
 21
-4130.005382436938
 31
0.0
  0
LINE
  5
142
330
1F
100
AcDbEntity
  8
F-0_補助線
  6
JWW_HOJO
 62
     7
370
     9
100
AcDbLine
 10
-150.0001748415872
 20
-4039.999954225868
 30
0.0
 11
5689.998926127057
 21
-4040.005382436977
 31
0.0
  0
LINE
  5
143
330
1F
100
AcDbEntity
  8
F-0_補助線
  6
JWW_HOJO
 62
     7
370
     9
100
AcDbLine
 10
-150.0000725978671
 20
-3929.999951665916
 30
0.0
 11
5689.999028370777
 21
-3930.005379877025
 31
0.0
  0
LINE
  5
144
330
1F
100
AcDbEntity
  8
F-0_補助線
  6
JWW_HOJO
 62
     7
370
     9
100
AcDbLine
 10
-149.9999889439155
 20
-3839.999951665955
 30
0.0
 11
5689.999112024728
 21
-3840.005379877064
 31
0.0
  0
LINE
  5
145
330
1F
100
AcDbEntity
  8
F-0_補助線
  6
JWW_HOJO
 62
     7
370
     9
100
AcDbLine
 10
2779.998729808911
 20
-3785.000217540844
 30
0.0
 11
2779.998729808911
 21
-4185.00022269584
 31
0.0
  0
LINE
  5
146
330
1F
100
AcDbEntity
  8
F-0_補助線
  6
JWW_HOJO
 62
     7
370
     9
100
AcDbLine
 10
-60.0001237199109
 20
-3785.000217540844
 30
0.0
 11
-60.0001237199109
 21
-4185.00022269584
 31
0.0
  0
LINE
  5
147
330
1F
100
AcDbEntity
  8
F-0_補助線
  6
JWW_HOJO
 62
     7
370
     9
100
AcDbLine
 10
4279.999224688556
 20
-3785.000217540844
 30
0.0
 11
4279.999224688556
 21
-4185.00022269584
 31
0.0
  0
LINE
  5
148
330
1F
100
AcDbEntity
  8
F-1_枠
  6
Continuous
 62
   200
370
    20
100
AcDbLine
 10
5699.998762800888
 20
-3785.000217540844
 30
0.0
 11
-5999.999752560178
 21
-3785.000217540844
 31
0.0
  0
LINE
  5
149
330
1F
100
AcDbEntity
  8
F-1_枠
  6
Continuous
 62
   200
370
    20
100
AcDbLine
 10
5699.998762800888
 20
-3780.000231974834
 30
0.0
 11
-5999.999752560178
 21
-3780.000231974834
 31
0.0
  0
LINE
  5
14A
330
1F
100
AcDbEntity
  8
F-0_補助線
  6
JWW_HOJO
 62
     7
370
     9
100
AcDbLine
 10
-5247.547376752838
 20
-3785.000217540844
 30
0.0
 11
-5247.547376752838
 21
-4195.000379407728
 31
0.0
  0
LINE
  5
14B
330
1F
100
AcDbEntity
  8
F-0_補助線
  6
JWW_HOJO
 62
     7
370
     9
100
AcDbLine
 10
-210.0001237199109
 20
-3785.000217540844
 30
0.0
 11
-210.0001237199109
 21
-4185.00022269584
 31
0.0
  0
TEXT
  5
14C
330
1F
100
AcDbEntity
  8
F-A_文字
  6
Continuous
 62
     7
370
     0
100
AcDbText
 10
-60.0001237199109
 20
-3861.540035319782
 30
0.0
 40
45.72
  1
図面名
  7
ＭＳ ゴシック
100
AcDbText
  0
TEXT
  5
14D
330
1F
100
AcDbEntity
  8
F-A_文字
  6
Continuous
 62
     7
370
     0
100
AcDbText
 10
2779.998729808911
 20
-3861.54267506562
 30
0.0
 40
45.72
  1
ＳＣＡＬＥ
  7
ＭＳ ゴシック
100
AcDbText
  0
TEXT
  5
14E
330
1F
100
AcDbEntity
  8
F-A_文字
  6
Continuous
 62
     7
370
     0
100
AcDbText
 10
4279.999224688556
 20
-3861.544069298599
 30
0.0
 40
45.72
  1
ＤＡＴＥ
  7
ＭＳ ゴシック
100
AcDbText
  0
TEXT
  5
14F
330
1F
100
AcDbEntity
  8
F-A_文字
  6
Continuous
 62
     7
370
     0
100
AcDbText
 10
2779.998729808911
 20
-4061.542677625706
 30
0.0
 40
45.72
  1
ＦＩＬＥ
  7
ＭＳ ゴシック
100
AcDbText
  0
TEXT
  5
150
330
1F
100
AcDbEntity
  8
F-A_文字
  6
Continuous
 62
     7
370
     0
100
AcDbText
 10
4279.999224688556
 20
-4061.544071858686
 30
0.0
 40
45.72
  1
ＮＯ．
  7
ＭＳ ゴシック
100
AcDbText
  0
TEXT
  5
151
330
1F
100
AcDbEntity
  8
F-A_文字
  6
Continuous
 62
     7
370
     0
100
AcDbText
 10
1234.998729808911
 20
-4070.540883713994
 30
0.0
 40
45.72
  1
株式
  7
ＭＳ ゴシック
100
AcDbText
  0
TEXT
  5
152
330
1F
100
AcDbEntity
  8
F-A_文字
  6
Continuous
 62
     7
370
     0
100
AcDbText
 10
1444.998729808911
 20
-4128.082593971774
 30
0.0
 40
91.44
  1
ウッドワン・・・
 41
1.109375
  7
ＭＳ ゴシック
100
AcDbText
  0
TEXT
  5
153
330
1F
100
AcDbEntity
  8
F-A_文字
  6
Continuous
 62
     7
370
     0
100
AcDbText
 10
1234.998729808911
 20
-4142.540883714033
 30
0.0
 40
45.72
  1
会社
  7
ＭＳ ゴシック
100
AcDbText
  0
TEXT
  5
154
330
1F
100
AcDbEntity
  8
F-A_文字
  6
Continuous
 62
     7
370
     0
100
AcDbText
 10
5608.403311109712
 20
-4281.441633468765
 30
0.0
 40
68.58
  1
）
  7
ＭＳ ゴシック
100
AcDbText
  0
TEXT
  5
155
330
1F
100
AcDbEntity
  8
F-A_文字
  6
Continuous
 62
     7
370
     0
100
AcDbText
 10
5190.195950842071
 20
-4282.835658317703
 30
0.0
 40
68.58
  1
,
  7
ＭＳ ゴシック
100
AcDbText
  0
TEXT
  5
156
330
1F
100
AcDbEntity
  8
F-A_文字
  6
Continuous
 62
     7
370
     0
100
AcDbText
 10
4923.937261915373
 20
-4284.229681736128
 30
0.0
 40
68.58
  1
$y
 41
1.083333333333333
  7
ＭＳ ゴシック
100
AcDbText
  0
TEXT
  5
157
330
1F
100
AcDbEntity
  8
F-A_文字
  6
Continuous
 62
     7
370
     0
100
AcDbText
 10
5078.673982954195
 20
-4284.229681736128
 30
0.0
 40
68.58
  1
$m
 41
1.083333333333333
  7
ＭＳ ゴシック
100
AcDbText
  0
TEXT
  5
158
330
1F
100
AcDbEntity
  8
F-A_文字
  6
Continuous
 62
     7
370
     0
100
AcDbText
 10
5233.410715437103
 20
-4284.229681736128
 30
0.0
 40
68.58
  1
$d
 41
1.083333333333333
  7
ＭＳ ゴシック
100
AcDbText
  0
TEXT
  5
159
330
1F
100
AcDbEntity
  8
F-A_文字
  6
Continuous
 62
     7
370
     0
100
AcDbText
 10
5388.147447920011
 20
-4284.229681736128
 30
0.0
 40
68.58
  1
印刷
 41
1.083333333333333
  7
ＭＳ ゴシック
100
AcDbText
  0
TEXT
  5
15A
330
1F
100
AcDbEntity
  8
F-A_文字
  6
Continuous
 62
     7
370
     0
100
AcDbText
 10
4784.033374252999
 20
-4285.623708015578
 30
0.0
 40
68.58
  1
（
  7
ＭＳ ゴシック
100
AcDbText
  0
TEXT
  5
15B
330
1F
100
AcDbEntity
  8
F-A_文字
  6
Continuous
 62
     7
370
     0
100
AcDbText
 10
5031.277143812345
 20
-4285.623708015578
 30
0.0
 40
68.58
  1
,
  7
ＭＳ ゴシック
100
AcDbText
  0
TEXT
  5
15C
330
1F
100
AcDbEntity
  8
F-A_文字
  6
Continuous
 62
     7
370
     0
100
AcDbText
 10
4778.749126529666
 20
-3909.814724587812
 30
0.0
 40
68.58
  1
07.05.23
 41
1.145833333333333
  7
ＭＳ ゴシック
100
AcDbText
  0
TEXT
  5
15D
330
1F
100
AcDbEntity
  8
F-A_文字
  6
Continuous
 62
     7
370
     9
100
AcDbText
 10
4936.249033580831
 20
-4117.314727147831
 30
0.0
 40
68.58
  1
01
 41
1.083333333333333
  7
ＭＳ ゴシック
100
AcDbText
  0
TEXT
  5
15E
330
1F
100
AcDbEntity
  8
F-A_文字
  6
Continuous
 62
     7
370
     0
100
AcDbText
 10
3383.748977248734
 20
-3917.313330355154
 30
0.0
 40
68.58
  1
1/20
 41
1.125
  7
ＭＳ ゴシック
100
AcDbText
  0
TEXT
  5
15F
330
1F
100
AcDbEntity
  8
F-A_文字
  6
Continuous
 62
     7
370
     0
100
AcDbText
 10
1180.417701903719
 20
-3917.310376047685
 30
0.0
 40
68.58
  1
造り付け家具
 41
1.138888888888889
  7
ＭＳ ゴシック
100
AcDbText
  0
TEXT
  5
160
330
1F
100
AcDbEntity
  8
F-A_文字
  6
Continuous
 62
     7
370
     0
100
AcDbText
 10
349.9999175200594
 20
-3918.097506320349
 30
0.0
 40
66.06
  1
ＧＲＡＮＳＴＡＧＥ
 41
0.8333333333333339
  7
HG明朝B
100
AcDbText
  0
TEXT
  5
161
330
1F
100
AcDbEntity
  8
F-A_文字
  6
Continuous
 62
     7
370
     0
100
AcDbText
 10
-5247.547376752838
 20
-4017.310150526237
 30
0.0
 40
68.58
  1
グランステージ　造り付け家具　参考プラン（書斎１）
 41
1.16
  7
ＭＳ ゴシック
100
AcDbText
  0
LINE
  5
162
330
1F
100
AcDbEntity
  8
0-1_本体
  6
Continuous
 62
     7
370
     9
100
AcDbLine
 10
-1345.499752560177
 20
1412.259387859343
 30
0.0
 11
-745.4997525601774
 21
1412.259387859343
 31
0.0
  0
LINE
  5
163
330
1F
100
AcDbEntity
  8
0-1_本体
  6
Continuous
 62
     7
370
     9
100
AcDbLine
 10
-745.4997525601774
 20
1412.259387859343
 30
0.0
 11
-745.4997525601774
 21
477.7593878593432
 31
0.0
  0
LINE
  5
164
330
1F
100
AcDbEntity
  8
0-1_本体
  6
Continuous
 62
     7
370
     9
100
AcDbLine
 10
-745.4997525601774
 20
477.7593878593432
 30
0.0
 11
-1345.499752560177
 21
477.7593878593432
 31
0.0
  0
LINE
  5
165
330
1F
100
AcDbEntity
  8
0-1_本体
  6
Continuous
 62
     7
370
     9
100
AcDbLine
 10
-1345.499752560177
 20
477.7593878593432
 30
0.0
 11
-1345.499752560177
 21
1412.259387859343
 31
0.0
  0
LINE
  5
166
330
1F
100
AcDbEntity
  8
0-2_扉
  6
Continuous
 62
    92
370
    13
100
AcDbLine
 10
-1342.799752560177
 20
1387.509387859343
 30
0.0
 11
-748.0497525601772
 21
1387.509387859343
 31
0.0
  0
LINE
  5
167
330
1F
100
AcDbEntity
  8
0-2_扉
  6
JWW_DASHED1
 62
   120
370
     5
100
AcDbLine
 10
-1105.423852939679
 20
1365.009199849264
 30
0.0
 11
-985.425652180675
 21
1365.009199849264
 31
0.0
  0
ARC
  5
168
330
1F
100
AcDbEntity
  8
0-2_扉
  6
JWW_DASHED1
 62
   120
370
     5
100
AcDbCircle
 10
-1105.423852939679
 20
1395.009800774547
 30
0.0
 40
30.00000167767514
100
AcDbArc
 50
194.4778137207031
 51
270.0
  0
ARC
  5
169
330
1F
100
AcDbEntity
  8
0-2_扉
  6
JWW_DASHED1
 62
   120
370
     5
100
AcDbCircle
 10
-985.425652180675
 20
1395.009800774547
 30
0.0
 40
30.00000167767514
100
AcDbArc
 50
270.0
 51
345.5221862792969
  0
LINE
  5
16A
330
1F
100
AcDbEntity
  8
0-2_扉
  6
Continuous
 62
    92
370
    13
100
AcDbLine
 10
-1342.799752560177
 20
1387.509387859343
 30
0.0
 11
-1342.799752560177
 21
1182.009387859343
 31
0.0
  0
LINE
  5
16B
330
1F
100
AcDbEntity
  8
0-2_扉
  6
Continuous
 62
    92
370
    13
100
AcDbLine
 10
-1342.799752560177
 20
1156.509387859343
 30
0.0
 11
-748.0497525601772
 21
1156.509387859343
 31
0.0
  0
LINE
  5
16C
330
1F
100
AcDbEntity
  8
0-2_扉
  6
Continuous
 62
    92
370
    13
100
AcDbLine
 10
-1342.799752560177
 20
1182.009387859343
 30
0.0
 11
-748.0497525601772
 21
1182.009387859343
 31
0.0
  0
LINE
  5
16D
330
1F
100
AcDbEntity
  8
0-2_扉
  6
Continuous
 62
    92
370
    13
100
AcDbLine
 10
-748.0497525601772
 20
1387.509387859343
 30
0.0
 11
-748.0497525601772
 21
1182.009387859343
 31
0.0
  0
LINE
  5
16E
330
1F
100
AcDbEntity
  8
0-2_扉
  6
JWW_CENTER1
 62
   120
370
     5
100
AcDbLine
 10
-1342.799752560177
 20
1387.509387859343
 30
0.0
 11
-748.0497525601772
 21
1182.009387859343
 31
0.0
  0
LINE
  5
16F
330
1F
100
AcDbEntity
  8
0-2_扉
  6
JWW_DASHED1
 62
   120
370
     5
100
AcDbLine
 10
-1105.423852939679
 20
1134.009199849264
 30
0.0
 11
-985.425652180675
 21
1134.009199849264
 31
0.0
  0
ARC
  5
170
330
1F
100
AcDbEntity
  8
0-2_扉
  6
JWW_DASHED1
 62
   120
370
     5
100
AcDbCircle
 10
-1105.423852939679
 20
1164.009800774547
 30
0.0
 40
30.00000167767514
100
AcDbArc
 50
194.4778137207031
 51
270.0
  0
ARC
  5
171
330
1F
100
AcDbEntity
  8
0-2_扉
  6
JWW_DASHED1
 62
   120
370
     5
100
AcDbCircle
 10
-985.425652180675
 20
1164.009800774547
 30
0.0
 40
30.00000167767514
100
AcDbArc
 50
270.0
 51
345.5221862792969
  0
LINE
  5
172
330
1F
100
AcDbEntity
  8
0-2_扉
  6
Continuous
 62
    92
370
    13
100
AcDbLine
 10
-748.0497525601772
 20
951.0093878593433
 30
0.0
 11
-1342.799752560177
 21
951.0093878593433
 31
0.0
  0
LINE
  5
173
330
1F
100
AcDbEntity
  8
0-2_扉
  6
Continuous
 62
    92
370
    13
100
AcDbLine
 10
-1342.799752560177
 20
1156.509387859343
 30
0.0
 11
-1342.799752560177
 21
951.0093878593433
 31
0.0
  0
LINE
  5
174
330
1F
100
AcDbEntity
  8
0-2_扉
  6
Continuous
 62
    92
370
    13
100
AcDbLine
 10
-748.0497525601772
 20
1156.509387859343
 30
0.0
 11
-748.0497525601772
 21
951.0093878593433
 31
0.0
  0
LINE
  5
175
330
1F
100
AcDbEntity
  8
0-2_扉
  6
JWW_CENTER1
 62
   120
370
     5
100
AcDbLine
 10
-1342.799752560177
 20
1156.509387859343
 30
0.0
 11
-748.0497525601772
 21
951.0093878593433
 31
0.0
  0
LINE
  5
176
330
1F
100
AcDbEntity
  8
0-2_扉
  6
Continuous
 62
    92
370
    13
100
AcDbLine
 10
-1342.799752560177
 20
925.5093878593433
 30
0.0
 11
-748.0497525601772
 21
925.5093878593433
 31
0.0
  0
LINE
  5
177
330
1F
100
AcDbEntity
  8
0-2_扉
  6
JWW_DASHED1
 62
   120
370
     5
100
AcDbLine
 10
-1105.423852939679
 20
903.0091998492638
 30
0.0
 11
-985.425652180675
 21
903.0091998492638
 31
0.0
  0
ARC
  5
178
330
1F
100
AcDbEntity
  8
0-2_扉
  6
JWW_DASHED1
 62
   120
370
     5
100
AcDbCircle
 10
-1105.423852939679
 20
933.0098007745472
 30
0.0
 40
30.00000167767514
100
AcDbArc
 50
194.4778137207031
 51
270.0
  0
ARC
  5
179
330
1F
100
AcDbEntity
  8
0-2_扉
  6
JWW_DASHED1
 62
   120
370
     5
100
AcDbCircle
 10
-985.425652180675
 20
933.0098007745472
 30
0.0
 40
30.00000167767514
100
AcDbArc
 50
270.0
 51
345.5221862792969
  0
LINE
  5
17A
330
1F
100
AcDbEntity
  8
0-2_扉
  6
Continuous
 62
    92
370
    13
100
AcDbLine
 10
-748.0497525601772
 20
502.5093878593432
 30
0.0
 11
-1342.799752560177
 21
502.5093878593432
 31
0.0
  0
LINE
  5
17B
330
1F
100
AcDbEntity
  8
0-2_扉
  6
Continuous
 62
    92
370
    13
100
AcDbLine
 10
-1342.799752560177
 20
925.5093878593433
 30
0.0
 11
-1342.799752560177
 21
502.5093878593432
 31
0.0
  0
LINE
  5
17C
330
1F
100
AcDbEntity
  8
0-2_扉
  6
Continuous
 62
    92
370
    13
100
AcDbLine
 10
-748.0497525601772
 20
925.5093878593433
 30
0.0
 11
-748.0497525601772
 21
502.5093878593432
 31
0.0
  0
LINE
  5
17D
330
1F
100
AcDbEntity
  8
0-2_扉
  6
JWW_CENTER1
 62
   120
370
     5
100
AcDbLine
 10
-1342.799752560177
 20
925.5093878593433
 30
0.0
 11
-748.0497525601772
 21
502.5093878593432
 31
0.0
  0
LINE
  5
17E
330
1F
100
AcDbEntity
  8
0-B_寸法
  6
Continuous
 62
   120
370
     5
100
AcDbLine
 10
-748.0497525601772
 20
182.2593878593433
 30
0.0
 11
-745.4997525601774
 21
182.2593878593433
 31
0.0
  0
LINE
  5
17F
330
1F
100
AcDbEntity
  8
0-B_寸法
  6
Continuous
 62
   120
370
     5
100
AcDbLine
 10
-748.0497525601772
 20
182.2593878593433
 30
0.0
 11
-748.0497525601772
 21
332.2593878593435
 31
0.0
  0
LWPOLYLINE
  5
180
330
1F
100
AcDbEntity
  8
0-B_寸法
  6
Continuous
 62
     7
370
     9
100
AcDbPolyline
 90
        4
 70
     1
 43
3.0
 10
-746.5497525601771
 20
182.2593878593433
 42
0.4142135623731
 10
-748.0497525601772
 20
183.7593878593433
 42
0.4142135623731
 10
-749.5497525601772
 20
182.2593878593433
 42
0.4142135623731
 10
-748.0497525601772
 20
180.7593878593433
 42
0.4142135623731
  0
LINE
  5
181
330
1F
100
AcDbEntity
  8
0-B_寸法
  6
Continuous
 62
   120
370
     5
100
AcDbLine
 10
-1342.799752560177
 20
182.2593878593433
 30
0.0
 11
-748.0497525601772
 21
182.2593878593433
 31
0.0
  0
LINE
  5
182
330
1F
100
AcDbEntity
  8
0-B_寸法
  6
Continuous
 62
   120
370
     5
100
AcDbLine
 10
-1342.799752560177
 20
182.2593878593433
 30
0.0
 11
-1342.799752560177
 21
332.2593878593435
 31
0.0
  0
LWPOLYLINE
  5
183
330
1F
100
AcDbEntity
  8
0-B_寸法
  6
Continuous
 62
     7
370
     9
100
AcDbPolyline
 90
        4
 70
     1
 43
3.0
 10
-1341.299752560177
 20
182.2593878593433
 42
0.4142135623731
 10
-1342.799752560177
 20
183.7593878593433
 42
0.4142135623731
 10
-1344.299752560177
 20
182.2593878593433
 42
0.4142135623731
 10
-1342.799752560177
 20
180.7593878593433
 42
0.4142135623731
  0
LINE
  5
184
330
1F
100
AcDbEntity
  8
0-B_寸法
  6
Continuous
 62
   120
370
     5
100
AcDbLine
 10
-1345.499752560177
 20
182.2593878593433
 30
0.0
 11
-1342.799752560177
 21
182.2593878593433
 31
0.0
  0
LINE
  5
185
330
1F
100
AcDbEntity
  8
0-B_寸法
  6
Continuous
 62
   120
370
     5
100
AcDbLine
 10
-745.4997525601774
 20
32.25938785934332
 30
0.0
 11
-745.4997525601774
 21
332.2593878593435
 31
0.0
  0
LWPOLYLINE
  5
186
330
1F
100
AcDbEntity
  8
0-B_寸法
  6
Continuous
 62
     7
370
     9
100
AcDbPolyline
 90
        4
 70
     1
 43
3.0
 10
-743.9997525601774
 20
182.2593878593433
 42
0.4142135623731
 10
-745.4997525601774
 20
183.7593878593433
 42
0.4142135623731
 10
-746.9997525601774
 20
182.2593878593433
 42
0.4142135623731
 10
-745.4997525601774
 20
180.7593878593433
 42
0.4142135623731
  0
LINE
  5
187
330
1F
100
AcDbEntity
  8
0-B_寸法
  6
Continuous
 62
   120
370
     5
100
AcDbLine
 10
-1345.499752560178
 20
32.25938785934332
 30
0.0
 11
-1345.499752560177
 21
332.2593878593435
 31
0.0
  0
LWPOLYLINE
  5
188
330
1F
100
AcDbEntity
  8
0-B_寸法
  6
Continuous
 62
     7
370
     9
100
AcDbPolyline
 90
        4
 70
     1
 43
3.0
 10
-1343.999752560178
 20
182.2593878593433
 42
0.4142135623731
 10
-1345.499752560177
 20
183.7593878593433
 42
0.4142135623731
 10
-1346.999752560177
 20
182.2593878593433
 42
0.4142135623731
 10
-1345.499752560177
 20
180.7593878593433
 42
0.4142135623731
  0
TEXT
  5
189
330
1F
100
AcDbEntity
  8
0-B_寸法
  6
Continuous
 62
     7
370
   211
100
AcDbText
 10
-1172.924752560177
 20
194.9493878593433
 30
0.0
 40
68.58
  1
396.5
 41
1.133333333333333
  7
ＭＳ ゴシック
100
AcDbText
  0
LINE
  5
18A
330
1F
100
AcDbEntity
  8
0-1_本体
  6
Continuous
 62
     7
370
     9
100
AcDbLine
 10
-746.2497525601773
 20
477.7593878593432
 30
0.0
 11
-746.2497525601773
 21
407.2593878593433
 31
0.0
  0
LINE
  5
18B
330
1F
100
AcDbEntity
  8
0-1_本体
  6
Continuous
 62
     7
370
     9
100
AcDbLine
 10
-746.2497525601773
 20
407.2593878593433
 30
0.0
 11
-1344.749752560178
 21
407.2593878593433
 31
0.0
  0
LINE
  5
18C
330
1F
100
AcDbEntity
  8
0-1_本体
  6
Continuous
 62
     7
370
     9
100
AcDbLine
 10
-1344.749752560178
 20
407.2593878593433
 30
0.0
 11
-1344.749752560178
 21
477.7593878593432
 31
0.0
  0
LINE
  5
18D
330
1F
100
AcDbEntity
  8
0-B_寸法
  6
Continuous
 62
   120
370
     5
100
AcDbLine
 10
-1345.499752560178
 20
32.25938785934332
 30
0.0
 11
-1344.749752560178
 21
32.25938785934332
 31
0.0
  0
LWPOLYLINE
  5
18E
330
1F
100
AcDbEntity
  8
0-B_寸法
  6
Continuous
 62
     7
370
     9
100
AcDbPolyline
 90
        4
 70
     1
 43
3.0
 10
-1343.999752560178
 20
32.25938785934332
 42
0.4142135623731
 10
-1345.499752560178
 20
33.75938785934332
 42
0.4142135623731
 10
-1346.999752560178
 20
32.25938785934332
 42
0.4142135623731
 10
-1345.499752560178
 20
30.75938785934332
 42
0.4142135623731
  0
LWPOLYLINE
  5
18F
330
1F
100
AcDbEntity
  8
0-B_寸法
  6
Continuous
 62
     7
370
     9
100
AcDbPolyline
 90
        4
 70
     1
 43
3.0
 10
-1343.249752560178
 20
32.25938785934332
 42
0.4142135623731
 10
-1344.749752560178
 20
33.75938785934332
 42
0.4142135623731
 10
-1346.249752560177
 20
32.25938785934332
 42
0.4142135623731
 10
-1344.749752560178
 20
30.75938785934332
 42
0.4142135623731
  0
LINE
  5
190
330
1F
100
AcDbEntity
  8
0-B_寸法
  6
Continuous
 62
   120
370
     5
100
AcDbLine
 10
-1344.749752560178
 20
32.25938785934332
 30
0.0
 11
-1344.749752560178
 21
332.2593878593435
 31
0.0
  0
LINE
  5
191
330
1F
100
AcDbEntity
  8
0-B_寸法
  6
Continuous
 62
   120
370
     5
100
AcDbLine
 10
-1344.749752560178
 20
32.25938785934332
 30
0.0
 11
-746.2497525601773
 21
32.25938785934332
 31
0.0
  0
LWPOLYLINE
  5
192
330
1F
100
AcDbEntity
  8
0-B_寸法
  6
Continuous
 62
     7
370
     9
100
AcDbPolyline
 90
        4
 70
     1
 43
3.0
 10
-744.7497525601773
 20
32.25938785934332
 42
0.4142135623731
 10
-746.2497525601773
 20
33.75938785934332
 42
0.4142135623731
 10
-747.7497525601774
 20
32.25938785934332
 42
0.4142135623731
 10
-746.2497525601773
 20
30.75938785934332
 42
0.4142135623731
  0
LINE
  5
193
330
1F
100
AcDbEntity
  8
0-B_寸法
  6
Continuous
 62
   120
370
     5
100
AcDbLine
 10
-746.2497525601773
 20
32.25938785934332
 30
0.0
 11
-746.2497525601773
 21
332.2593878593435
 31
0.0
  0
LINE
  5
194
330
1F
100
AcDbEntity
  8
0-B_寸法
  6
Continuous
 62
   120
370
     5
100
AcDbLine
 10
-746.2497525601773
 20
32.25938785934332
 30
0.0
 11
-745.4997525601774
 21
32.25938785934332
 31
0.0
  0
LWPOLYLINE
  5
195
330
1F
100
AcDbEntity
  8
0-B_寸法
  6
Continuous
 62
     7
370
     9
100
AcDbPolyline
 90
        4
 70
     1
 43
3.0
 10
-743.9997525601774
 20
32.25938785934332
 42
0.4142135623731
 10
-745.4997525601774
 20
33.75938785934332
 42
0.4142135623731
 10
-746.9997525601774
 20
32.25938785934332
 42
0.4142135623731
 10
-745.4997525601774
 20
30.75938785934332
 42
0.4142135623731
  0
TEXT
  5
196
330
1F
100
AcDbEntity
  8
0-B_寸法
  6
Continuous
 62
     7
370
   211
100
AcDbText
 10
-1251.749752560177
 20
59.94938785934332
 30
0.0
 40
68.58
  1
台輪＝399
 41
1.018518518518519
  7
ＭＳ ゴシック
100
AcDbText
  0
TEXT
  5
197
330
1F
100
AcDbEntity
  8
0-B_寸法
  6
Continuous
 62
     7
370
   211
100
AcDbText
 10
-1511.054222234683
 20
59.94938785934332
 30
0.0
 40
68.58
  1
0.5
 41
1.111111111111111
  7
ＭＳ ゴシック
100
AcDbText
  0
TEXT
  5
198
330
1F
100
AcDbEntity
  8
0-B_寸法
  6
Continuous
 62
     7
370
   211
100
AcDbText
 10
-1511.054222234683
 20
194.9493878593433
 30
0.0
 40
68.58
  1
1.8
 41
1.111111111111111
  7
ＭＳ ゴシック
100
AcDbText
  0
TEXT
  5
199
330
1F
100
AcDbEntity
  8
0-B_寸法
  6
Continuous
 62
     7
370
   211
100
AcDbText
 10
-731.73689498229
 20
59.94938785934332
 30
0.0
 40
68.58
  1
0.5
 41
1.111111111111111
  7
ＭＳ ゴシック
100
AcDbText
  0
TEXT
  5
19A
330
1F
100
AcDbEntity
  8
0-B_寸法
  6
Continuous
 62
     7
370
   211
100
AcDbText
 10
-731.73689498229
 20
194.9493878593433
 30
0.0
 40
68.58
  1
1.7
 41
1.111111111111111
  7
ＭＳ ゴシック
100
AcDbText
  0
LINE
  5
19B
330
1F
100
AcDbEntity
  8
0-1_本体
  6
Continuous
 62
    92
370
    13
100
AcDbLine
 10
-4345.499752560178
 20
477.7593878593432
 30
0.0
 11
-3145.499752560177
 21
477.7593878593432
 31
0.0
  0
LINE
  5
19C
330
1F
100
AcDbEntity
  8
0-2_扉
  6
Continuous
 62
    92
370
    13
100
AcDbLine
 10
-4342.499752560178
 20
502.5093878593435
 30
0.0
 11
-3747.749752560177
 21
502.5093878593435
 31
0.0
  0
LINE
  5
19D
330
1F
100
AcDbEntity
  8
0-2_扉
  6
Continuous
 62
    92
370
    13
100
AcDbLine
 10
-3743.249752560177
 20
502.5093878593435
 30
0.0
 11
-3148.499752560177
 21
502.5093878593435
 31
0.0
  0
LINE
  5
19E
330
1F
100
AcDbEntity
  8
0-1_本体
  6
Continuous
 62
    92
370
    13
100
AcDbLine
 10
-4322.249752560177
 20
502.5093878593435
 30
0.0
 11
-4322.249752560177
 21
477.7593878593432
 31
0.0
  0
LINE
  5
19F
330
1F
100
AcDbEntity
  8
0-1_本体
  6
Continuous
 62
    92
370
    13
100
AcDbLine
 10
-3168.749752560178
 20
477.7593878593432
 30
0.0
 11
-3168.749752560178
 21
502.5093878593435
 31
0.0
  0
LINE
  5
1A0
330
1F
100
AcDbEntity
  8
0-1_本体
  6
Continuous
 62
    92
370
    13
100
AcDbLine
 10
-3145.499752560177
 20
477.7593878593432
 30
0.0
 11
-3145.499752560177
 21
1412.259387859343
 31
0.0
  0
LINE
  5
1A1
330
1F
100
AcDbEntity
  8
0-1_本体
  6
Continuous
 62
    92
370
    13
100
AcDbLine
 10
-3145.499752560177
 20
1412.259387859343
 30
0.0
 11
-4345.499752560178
 21
1412.259387859343
 31
0.0
  0
LINE
  5
1A2
330
1F
100
AcDbEntity
  8
0-1_本体
  6
Continuous
 62
    92
370
    13
100
AcDbLine
 10
-4345.499752560178
 20
1412.259387859343
 30
0.0
 11
-4345.499752560178
 21
477.7593878593432
 31
0.0
  0
LINE
  5
1A3
330
1F
100
AcDbEntity
  8
0-2_扉
  6
Continuous
 62
    92
370
    13
100
AcDbLine
 10
-3747.749752560177
 20
502.5093878593435
 30
0.0
 11
-3747.749752560177
 21
1387.509387859344
 31
0.0
  0
LINE
  5
1A4
330
1F
100
AcDbEntity
  8
0-2_扉
  6
Continuous
 62
    92
370
    13
100
AcDbLine
 10
-3743.249752560177
 20
502.5093878593435
 30
0.0
 11
-3743.249752560177
 21
1387.509387859344
 31
0.0
  0
LINE
  5
1A5
330
1F
100
AcDbEntity
  8
0-2_扉
  6
Continuous
 62
    92
370
    13
100
AcDbLine
 10
-3747.749752560177
 20
1387.509387859344
 30
0.0
 11
-4342.499752560178
 21
1387.509387859344
 31
0.0
  0
LINE
  5
1A6
330
1F
100
AcDbEntity
  8
0-2_扉
  6
Continuous
 62
    92
370
    13
100
AcDbLine
 10
-4342.499752560178
 20
1387.509387859344
 30
0.0
 11
-4342.499752560178
 21
502.5093878593435
 31
0.0
  0
LINE
  5
1A7
330
1F
100
AcDbEntity
  8
0-2_扉
  6
Continuous
 62
    92
370
    13
100
AcDbLine
 10
-3148.499752560177
 20
1387.509387859344
 30
0.0
 11
-3743.249752560177
 21
1387.509387859344
 31
0.0
  0
LINE
  5
1A8
330
1F
100
AcDbEntity
  8
0-2_扉
  6
Continuous
 62
    92
370
    13
100
AcDbLine
 10
-3148.499752560177
 20
502.5093878593435
 30
0.0
 11
-3148.499752560177
 21
1387.509387859344
 31
0.0
  0
LINE
  5
1A9
330
1F
100
AcDbEntity
  8
0-2_扉
  6
JWW_CENTER1
 62
   120
370
     5
100
AcDbLine
 10
-3747.749752560177
 20
1387.509387859344
 30
0.0
 11
-4342.499752560178
 21
945.0093878593435
 31
0.0
  0
LINE
  5
1AA
330
1F
100
AcDbEntity
  8
0-2_扉
  6
JWW_CENTER1
 62
   120
370
     5
100
AcDbLine
 10
-4342.499752560178
 20
945.0093878593435
 30
0.0
 11
-3747.749752560177
 21
502.5093878593435
 31
0.0
  0
LINE
  5
1AB
330
1F
100
AcDbEntity
  8
0-2_扉
  6
JWW_CENTER1
 62
   120
370
     5
100
AcDbLine
 10
-3743.249752560177
 20
502.5093878593435
 30
0.0
 11
-3148.499752560177
 21
945.0093878593435
 31
0.0
  0
LINE
  5
1AC
330
1F
100
AcDbEntity
  8
0-2_扉
  6
JWW_CENTER1
 62
   120
370
     5
100
AcDbLine
 10
-3148.499752560177
 20
945.0093878593435
 30
0.0
 11
-3743.249752560177
 21
1387.509387859344
 31
0.0
  0
LINE
  5
1AD
330
1F
100
AcDbEntity
  8
0-1_本体
  6
Continuous
 62
     7
370
     9
100
AcDbLine
 10
-4344.749752560177
 20
477.7593878593432
 30
0.0
 11
-3146.249752560178
 21
477.7593878593432
 31
0.0
  0
LINE
  5
1AE
330
1F
100
AcDbEntity
  8
0-1_本体
  6
Continuous
 62
     7
370
     9
100
AcDbLine
 10
-3146.249752560178
 20
477.7593878593432
 30
0.0
 11
-3146.249752560178
 21
407.2593878593433
 31
0.0
  0
LINE
  5
1AF
330
1F
100
AcDbEntity
  8
0-1_本体
  6
Continuous
 62
     7
370
     9
100
AcDbLine
 10
-3146.249752560178
 20
407.2593878593433
 30
0.0
 11
-4344.749752560177
 21
407.2593878593433
 31
0.0
  0
LINE
  5
1B0
330
1F
100
AcDbEntity
  8
0-1_本体
  6
Continuous
 62
     7
370
     9
100
AcDbLine
 10
-4344.749752560177
 20
407.2593878593433
 30
0.0
 11
-4344.749752560177
 21
477.7593878593432
 31
0.0
  0
LINE
  5
1B1
330
1F
100
AcDbEntity
  8
0-B_寸法
  6
Continuous
 62
   120
370
     5
100
AcDbLine
 10
-4345.499752560178
 20
182.2593878593437
 30
0.0
 11
-4342.499752560178
 21
182.2593878593437
 31
0.0
  0
LWPOLYLINE
  5
1B2
330
1F
100
AcDbEntity
  8
0-B_寸法
  6
Continuous
 62
     7
370
     9
100
AcDbPolyline
 90
        4
 70
     1
 43
3.0
 10
-4343.999752560177
 20
182.2593878593437
 42
0.4142135623731
 10
-4345.499752560178
 20
183.7593878593437
 42
0.4142135623731
 10
-4346.999752560178
 20
182.2593878593437
 42
0.4142135623731
 10
-4345.499752560178
 20
180.7593878593437
 42
0.4142135623731
  0
LWPOLYLINE
  5
1B3
330
1F
100
AcDbEntity
  8
0-B_寸法
  6
Continuous
 62
     7
370
     9
100
AcDbPolyline
 90
        4
 70
     1
 43
3.0
 10
-4340.999752560177
 20
182.2593878593437
 42
0.4142135623731
 10
-4342.499752560178
 20
183.7593878593437
 42
0.4142135623731
 10
-4343.999752560178
 20
182.2593878593437
 42
0.4142135623731
 10
-4342.499752560178
 20
180.7593878593437
 42
0.4142135623731
  0
LINE
  5
1B4
330
1F
100
AcDbEntity
  8
0-B_寸法
  6
Continuous
 62
   120
370
     5
100
AcDbLine
 10
-4345.499752560178
 20
32.25938785934375
 30
0.0
 11
-4345.499752560178
 21
332.2593878593437
 31
0.0
  0
LINE
  5
1B5
330
1F
100
AcDbEntity
  8
0-B_寸法
  6
Continuous
 62
   120
370
     5
100
AcDbLine
 10
-4342.499752560178
 20
182.2593878593437
 30
0.0
 11
-4342.499752560178
 21
332.2593878593437
 31
0.0
  0
LINE
  5
1B6
330
1F
100
AcDbEntity
  8
0-B_寸法
  6
Continuous
 62
   120
370
     5
100
AcDbLine
 10
-4342.499752560178
 20
182.2593878593437
 30
0.0
 11
-3747.749752560177
 21
182.2593878593437
 31
0.0
  0
LWPOLYLINE
  5
1B7
330
1F
100
AcDbEntity
  8
0-B_寸法
  6
Continuous
 62
     7
370
     9
100
AcDbPolyline
 90
        4
 70
     1
 43
3.0
 10
-3746.249752560177
 20
182.2593878593437
 42
0.4142135623731
 10
-3747.749752560177
 20
183.7593878593437
 42
0.4142135623731
 10
-3749.249752560177
 20
182.2593878593437
 42
0.4142135623731
 10
-3747.749752560177
 20
180.7593878593437
 42
0.4142135623731
  0
LINE
  5
1B8
330
1F
100
AcDbEntity
  8
0-B_寸法
  6
Continuous
 62
   120
370
     5
100
AcDbLine
 10
-3747.749752560177
 20
182.2593878593437
 30
0.0
 11
-3747.749752560177
 21
332.2593878593437
 31
0.0
  0
LINE
  5
1B9
330
1F
100
AcDbEntity
  8
0-B_寸法
  6
Continuous
 62
   120
370
     5
100
AcDbLine
 10
-3747.749752560177
 20
182.2593878593437
 30
0.0
 11
-3743.249752560177
 21
182.2593878593437
 31
0.0
  0
LWPOLYLINE
  5
1BA
330
1F
100
AcDbEntity
  8
0-B_寸法
  6
Continuous
 62
     7
370
     9
100
AcDbPolyline
 90
        4
 70
     1
 43
3.0
 10
-3741.749752560177
 20
182.2593878593437
 42
0.4142135623731
 10
-3743.249752560177
 20
183.7593878593437
 42
0.4142135623731
 10
-3744.749752560177
 20
182.2593878593437
 42
0.4142135623731
 10
-3743.249752560177
 20
180.7593878593437
 42
0.4142135623731
  0
LINE
  5
1BB
330
1F
100
AcDbEntity
  8
0-B_寸法
  6
Continuous
 62
   120
370
     5
100
AcDbLine
 10
-3743.249752560177
 20
182.2593878593437
 30
0.0
 11
-3743.249752560177
 21
332.2593878593437
 31
0.0
  0
LINE
  5
1BC
330
1F
100
AcDbEntity
  8
0-B_寸法
  6
Continuous
 62
   120
370
     5
100
AcDbLine
 10
-3743.249752560177
 20
182.2593878593437
 30
0.0
 11
-3148.499752560177
 21
182.2593878593437
 31
0.0
  0
LWPOLYLINE
  5
1BD
330
1F
100
AcDbEntity
  8
0-B_寸法
  6
Continuous
 62
     7
370
     9
100
AcDbPolyline
 90
        4
 70
     1
 43
3.0
 10
-3146.999752560177
 20
182.2593878593437
 42
0.4142135623731
 10
-3148.499752560177
 20
183.7593878593437
 42
0.4142135623731
 10
-3149.999752560177
 20
182.2593878593437
 42
0.4142135623731
 10
-3148.499752560177
 20
180.7593878593437
 42
0.4142135623731
  0
LINE
  5
1BE
330
1F
100
AcDbEntity
  8
0-B_寸法
  6
Continuous
 62
   120
370
     5
100
AcDbLine
 10
-3148.499752560177
 20
182.2593878593437
 30
0.0
 11
-3148.499752560177
 21
332.2593878593437
 31
0.0
  0
LINE
  5
1BF
330
1F
100
AcDbEntity
  8
0-B_寸法
  6
Continuous
 62
   120
370
     5
100
AcDbLine
 10
-3148.499752560177
 20
182.2593878593437
 30
0.0
 11
-3145.499752560177
 21
182.2593878593437
 31
0.0
  0
LWPOLYLINE
  5
1C0
330
1F
100
AcDbEntity
  8
0-B_寸法
  6
Continuous
 62
     7
370
     9
100
AcDbPolyline
 90
        4
 70
     1
 43
3.0
 10
-3143.999752560177
 20
182.2593878593437
 42
0.4142135623731
 10
-3145.499752560177
 20
183.7593878593437
 42
0.4142135623731
 10
-3146.999752560177
 20
182.2593878593437
 42
0.4142135623731
 10
-3145.499752560177
 20
180.7593878593437
 42
0.4142135623731
  0
LINE
  5
1C1
330
1F
100
AcDbEntity
  8
0-B_寸法
  6
Continuous
 62
   120
370
     5
100
AcDbLine
 10
-3145.499752560177
 20
32.25938785934375
 30
0.0
 11
-3145.499752560177
 21
332.2593878593437
 31
0.0
  0
TEXT
  5
1C2
330
1F
100
AcDbEntity
  8
0-B_寸法
  6
Continuous
 62
     7
370
   211
100
AcDbText
 10
-4277.624752560177
 20
209.9493878593437
 30
0.0
 40
68.58
  1
ＤＷ＝396.5
 41
0.9393939393939394
  7
ＭＳ ゴシック
100
AcDbText
  0
TEXT
  5
1C3
330
1F
100
AcDbEntity
  8
0-B_寸法
  6
Continuous
 62
     7
370
   211
100
AcDbText
 10
-3678.374752560177
 20
209.9493878593437
 30
0.0
 40
68.58
  1
ＤＷ＝396.5
 41
0.9393939393939394
  7
ＭＳ ゴシック
100
AcDbText
  0
TEXT
  5
1C4
330
1F
100
AcDbEntity
  8
0-B_寸法
  6
Continuous
 62
     7
370
   211
100
AcDbText
 10
-3767.999752560176
 20
302.840559340567
 30
0.0
 40
68.58
  1
3
  7
ＭＳ ゴシック
100
AcDbText
  0
TEXT
  5
1C5
330
1F
100
AcDbEntity
  8
0-B_寸法
  6
Continuous
 62
     7
370
   211
100
AcDbText
 10
-4403.783933483485
 20
209.9493878593437
 30
0.0
 40
68.58
  1
2
  7
ＭＳ ゴシック
100
AcDbText
  0
TEXT
  5
1C6
330
1F
100
AcDbEntity
  8
0-B_寸法
  6
Continuous
 62
     7
370
   211
100
AcDbText
 10
-3133.787910601041
 20
209.9493878593437
 30
0.0
 40
68.58
  1
2
  7
ＭＳ ゴシック
100
AcDbText
  0
LINE
  5
1C7
330
1F
100
AcDbEntity
  8
0-B_寸法
  6
Continuous
 62
   120
370
     5
100
AcDbLine
 10
-4345.499752560178
 20
32.25938785934375
 30
0.0
 11
-4344.749752560177
 21
32.25938785934375
 31
0.0
  0
LWPOLYLINE
  5
1C8
330
1F
100
AcDbEntity
  8
0-B_寸法
  6
Continuous
 62
     7
370
     9
100
AcDbPolyline
 90
        4
 70
     1
 43
3.0
 10
-4343.999752560177
 20
32.25938785934375
 42
0.4142135623731
 10
-4345.499752560178
 20
33.75938785934375
 42
0.4142135623731
 10
-4346.999752560178
 20
32.25938785934375
 42
0.4142135623731
 10
-4345.499752560178
 20
30.75938785934375
 42
0.4142135623731
  0
LWPOLYLINE
  5
1C9
330
1F
100
AcDbEntity
  8
0-B_寸法
  6
Continuous
 62
     7
370
     9
100
AcDbPolyline
 90
        4
 70
     1
 43
3.0
 10
-4343.249752560177
 20
32.25938785934375
 42
0.4142135623731
 10
-4344.749752560177
 20
33.75938785934375
 42
0.4142135623731
 10
-4346.249752560178
 20
32.25938785934375
 42
0.4142135623731
 10
-4344.749752560177
 20
30.75938785934375
 42
0.4142135623731
  0
LINE
  5
1CA
330
1F
100
AcDbEntity
  8
0-B_寸法
  6
Continuous
 62
   120
370
     5
100
AcDbLine
 10
-4344.749752560177
 20
32.25938785934375
 30
0.0
 11
-4344.749752560177
 21
332.2593878593437
 31
0.0
  0
LINE
  5
1CB
330
1F
100
AcDbEntity
  8
0-B_寸法
  6
Continuous
 62
   120
370
     5
100
AcDbLine
 10
-4344.749752560177
 20
32.25938785934375
 30
0.0
 11
-3146.249752560178
 21
32.25938785934375
 31
0.0
  0
LWPOLYLINE
  5
1CC
330
1F
100
AcDbEntity
  8
0-B_寸法
  6
Continuous
 62
     7
370
     9
100
AcDbPolyline
 90
        4
 70
     1
 43
3.0
 10
-3144.749752560178
 20
32.25938785934375
 42
0.4142135623731
 10
-3146.249752560178
 20
33.75938785934375
 42
0.4142135623731
 10
-3147.749752560177
 20
32.25938785934375
 42
0.4142135623731
 10
-3146.249752560178
 20
30.75938785934375
 42
0.4142135623731
  0
LINE
  5
1CD
330
1F
100
AcDbEntity
  8
0-B_寸法
  6
Continuous
 62
   120
370
     5
100
AcDbLine
 10
-3146.249752560178
 20
32.25938785934375
 30
0.0
 11
-3146.249752560178
 21
332.2593878593437
 31
0.0
  0
LINE
  5
1CE
330
1F
100
AcDbEntity
  8
0-B_寸法
  6
Continuous
 62
   120
370
     5
100
AcDbLine
 10
-3146.249752560178
 20
32.25938785934375
 30
0.0
 11
-3145.499752560177
 21
32.25938785934375
 31
0.0
  0
LWPOLYLINE
  5
1CF
330
1F
100
AcDbEntity
  8
0-B_寸法
  6
Continuous
 62
     7
370
     9
100
AcDbPolyline
 90
        4
 70
     1
 43
3.0
 10
-3143.999752560177
 20
32.25938785934375
 42
0.4142135623731
 10
-3145.499752560177
 20
33.75938785934375
 42
0.4142135623731
 10
-3146.999752560177
 20
32.25938785934375
 42
0.4142135623731
 10
-3145.499752560177
 20
30.75938785934375
 42
0.4142135623731
  0
TEXT
  5
1D0
330
1F
100
AcDbEntity
  8
0-B_寸法
  6
Continuous
 62
     7
370
   211
100
AcDbText
 10
-3220.874752560177
 20
59.94938785934374
 30
0.0
 40
68.58
  1
0.5
 41
1.111111111111111
  7
ＭＳ ゴシック
100
AcDbText
  0
TEXT
  5
1D1
330
1F
100
AcDbEntity
  8
0-B_寸法
  6
Continuous
 62
     7
370
   211
100
AcDbText
 10
-4506.385719429302
 20
59.94938785934374
 30
0.0
 40
68.58
  1
0.5
 41
1.111111111111111
  7
ＭＳ ゴシック
100
AcDbText
  0
TEXT
  5
1D2
330
1F
100
AcDbEntity
  8
0-B_寸法
  6
Continuous
 62
     7
370
   211
100
AcDbText
 10
-3977.999752560178
 20
59.94938785934374
 30
0.0
 40
68.58
  1
台輪＝799
 41
1.14814814814815
  7
ＭＳ ゴシック
100
AcDbText
  0
TEXT
  5
1D3
330
1F
100
AcDbEntity
  8
0-B_寸法
  6
Continuous
 62
     7
370
   211
100
AcDbText
 10
-4752.689752560177
 20
423.751192635291
 30
0.0
 40
68.58
  1
47(台輪)
 50
90.0
 41
1.145833333333333
  7
ＭＳ ゴシック
100
AcDbText
  0
TEXT
  5
1D4
330
1F
100
AcDbEntity
  8
0-B_寸法
  6
Continuous
 62
     7
370
   211
100
AcDbText
 10
-4752.689752560177
 20
1345.514762601927
 30
0.0
 40
68.58
  1
30(ｶｳﾝﾀｰ)
 50
90.0
 41
1.148148148148148
  7
ＭＳ ゴシック
100
AcDbText
  0
LINE
  5
1D5
330
1F
100
AcDbEntity
  8
0-1_本体
  6
Continuous
 62
    92
370
    13
100
AcDbLine
 10
-4345.499752560178
 20
-2289.970528308962
 30
0.0
 11
-3145.499752560177
 21
-2289.970528308962
 31
0.0
  0
LINE
  5
1D6
330
1F
100
AcDbEntity
  8
0-1_本体
  6
Continuous
 62
    92
370
    13
100
AcDbLine
 10
-4322.249752560177
 20
-2257.720528308962
 30
0.0
 11
-3168.749752560178
 21
-2257.720528308962
 31
0.0
  0
LINE
  5
1D7
330
1F
100
AcDbEntity
  8
0-1_本体
  6
Continuous
 62
    92
370
    13
100
AcDbLine
 10
-3145.499752560177
 20
-1355.470528308962
 30
0.0
 11
-4345.499752560178
 21
-1355.470528308962
 31
0.0
  0
LINE
  5
1D8
330
1F
100
AcDbEntity
  8
0-1_本体
  6
Continuous
 62
    92
370
    13
100
AcDbLine
 10
-4345.499752560178
 20
-1355.470528308962
 30
0.0
 11
-4345.499752560178
 21
-2289.970528308962
 31
0.0
  0
LINE
  5
1D9
330
1F
100
AcDbEntity
  8
0-1_本体
  6
Continuous
 62
    92
370
    13
100
AcDbLine
 10
-3145.499752560177
 20
-2289.970528308962
 30
0.0
 11
-3145.499752560177
 21
-1355.470528308962
 31
0.0
  0
LINE
  5
1DA
330
1F
100
AcDbEntity
  8
0-1_本体
  6
Continuous
 62
    92
370
    13
100
AcDbLine
 10
-4322.249752560177
 20
-1355.470528308962
 30
0.0
 11
-4322.249752560177
 21
-2289.970528308962
 31
0.0
  0
LINE
  5
1DB
330
1F
100
AcDbEntity
  8
0-1_本体
  6
Continuous
 62
    92
370
    13
100
AcDbLine
 10
-3168.749752560178
 20
-1387.720528308962
 30
0.0
 11
-4322.249752560177
 21
-1387.720528308962
 31
0.0
  0
LINE
  5
1DC
330
1F
100
AcDbEntity
  8
0-1_本体
  6
Continuous
 62
    92
370
    13
100
AcDbLine
 10
-3168.749752560178
 20
-2289.970528308962
 30
0.0
 11
-3168.749752560178
 21
-1355.470528308962
 31
0.0
  0
LINE
  5
1DD
330
1F
100
AcDbEntity
  8
0-4_棚
  6
Continuous
 62
    92
370
    13
100
AcDbLine
 10
-4320.749752560178
 20
-1655.470528308962
 30
0.0
 11
-4320.749752560178
 21
-1677.970528308962
 31
0.0
  0
LINE
  5
1DE
330
1F
100
AcDbEntity
  8
0-4_棚
  6
Continuous
 62
    92
370
    13
100
AcDbLine
 10
-3170.249752560177
 20
-1655.470528308962
 30
0.0
 11
-4320.749752560178
 21
-1655.470528308962
 31
0.0
  0
LINE
  5
1DF
330
1F
100
AcDbEntity
  8
0-4_棚
  6
Continuous
 62
    92
370
    13
100
AcDbLine
 10
-3170.249752560177
 20
-1677.970528308962
 30
0.0
 11
-3170.249752560177
 21
-1655.470528308962
 31
0.0
  0
LINE
  5
1E0
330
1F
100
AcDbEntity
  8
0-4_棚
  6
Continuous
 62
    92
370
    13
100
AcDbLine
 10
-4320.749752560178
 20
-1677.970528308962
 30
0.0
 11
-3170.249752560177
 21
-1677.970528308962
 31
0.0
  0
LINE
  5
1E1
330
1F
100
AcDbEntity
  8
0-B_寸法
  6
Continuous
 62
   120
370
     5
100
AcDbLine
 10
-3350.377660600374
 20
-1655.470528308962
 30
0.0
 11
-3350.377660600374
 21
-1677.970528308962
 31
0.0
  0
LWPOLYLINE
  5
1E2
330
1F
100
AcDbEntity
  8
0-B_寸法
  6
Continuous
 62
     7
370
     9
100
AcDbPolyline
 90
        4
 70
     1
 43
3.0
 10
-3348.877660600374
 20
-1655.470528308962
 42
0.4142135623731
 10
-3350.377660600374
 20
-1653.970528308962
 42
0.4142135623731
 10
-3351.877660600374
 20
-1655.470528308962
 42
0.4142135623731
 10
-3350.377660600374
 20
-1656.970528308962
 42
0.4142135623731
  0
LWPOLYLINE
  5
1E3
330
1F
100
AcDbEntity
  8
0-B_寸法
  6
Continuous
 62
     7
370
     9
100
AcDbPolyline
 90
        4
 70
     1
 43
3.0
 10
-3348.877660600374
 20
-1677.970528308962
 42
0.4142135623731
 10
-3350.377660600374
 20
-1676.470528308962
 42
0.4142135623731
 10
-3351.877660600374
 20
-1677.970528308962
 42
0.4142135623731
 10
-3350.377660600374
 20
-1679.470528308962
 42
0.4142135623731
  0
LINE
  5
1E4
330
1F
100
AcDbEntity
  8
0-B_寸法
  6
Continuous
 62
   120
370
     5
100
AcDbLine
 10
-3350.377660600374
 20
-1655.470528308962
 30
0.0
 11
-3500.377660600374
 21
-1655.470528308962
 31
0.0
  0
LINE
  5
1E5
330
1F
100
AcDbEntity
  8
0-B_寸法
  6
Continuous
 62
   120
370
     5
100
AcDbLine
 10
-3350.377660600374
 20
-1677.970528308962
 30
0.0
 11
-3500.377660600374
 21
-1677.970528308962
 31
0.0
  0
TEXT
  5
1E6
330
1F
100
AcDbEntity
  8
0-B_寸法
  6
Continuous
 62
     7
370
   211
100
AcDbText
 10
-3378.067660600374
 20
-1641.798274010201
 30
0.0
 40
68.58
  1
15
 50
90.0
 41
1.083333333333333
  7
ＭＳ ゴシック
100
AcDbText
  0
TEXT
  5
1E7
330
1F
100
AcDbEntity
  8
0-A_文字
  6
Continuous
 62
     7
370
     9
100
AcDbText
 10
-3880.499752560177
 20
-1618.184442488818
 30
0.0
 40
68.58
  1
可動棚
  7
ＭＳ ゴシック
100
AcDbText
  0
LINE
  5
1E8
330
1F
100
AcDbEntity
  8
0-4_棚
  6
Continuous
 62
    92
370
    13
100
AcDbLine
 10
-4320.749752560178
 20
-1925.470528308962
 30
0.0
 11
-4320.749752560178
 21
-1947.970528308962
 31
0.0
  0
LINE
  5
1E9
330
1F
100
AcDbEntity
  8
0-4_棚
  6
Continuous
 62
    92
370
    13
100
AcDbLine
 10
-3170.249752560177
 20
-1925.470528308962
 30
0.0
 11
-4320.749752560178
 21
-1925.470528308962
 31
0.0
  0
LINE
  5
1EA
330
1F
100
AcDbEntity
  8
0-4_棚
  6
Continuous
 62
    92
370
    13
100
AcDbLine
 10
-3170.249752560177
 20
-1947.970528308962
 30
0.0
 11
-3170.249752560177
 21
-1925.470528308962
 31
0.0
  0
LINE
  5
1EB
330
1F
100
AcDbEntity
  8
0-4_棚
  6
Continuous
 62
    92
370
    13
100
AcDbLine
 10
-4320.749752560178
 20
-1947.970528308962
 30
0.0
 11
-3170.249752560177
 21
-1947.970528308962
 31
0.0
  0
LINE
  5
1EC
330
1F
100
AcDbEntity
  8
0-B_寸法
  6
Continuous
 62
   120
370
     5
100
AcDbLine
 10
-3350.377660600374
 20
-1925.470528308962
 30
0.0
 11
-3350.377660600374
 21
-1947.970528308962
 31
0.0
  0
LWPOLYLINE
  5
1ED
330
1F
100
AcDbEntity
  8
0-B_寸法
  6
Continuous
 62
     7
370
     9
100
AcDbPolyline
 90
        4
 70
     1
 43
3.0
 10
-3348.877660600374
 20
-1925.470528308962
 42
0.4142135623731
 10
-3350.377660600374
 20
-1923.970528308962
 42
0.4142135623731
 10
-3351.877660600374
 20
-1925.470528308962
 42
0.4142135623731
 10
-3350.377660600374
 20
-1926.970528308962
 42
0.4142135623731
  0
LWPOLYLINE
  5
1EE
330
1F
100
AcDbEntity
  8
0-B_寸法
  6
Continuous
 62
     7
370
     9
100
AcDbPolyline
 90
        4
 70
     1
 43
3.0
 10
-3348.877660600374
 20
-1947.970528308962
 42
0.4142135623731
 10
-3350.377660600374
 20
-1946.470528308962
 42
0.4142135623731
 10
-3351.877660600374
 20
-1947.970528308962
 42
0.4142135623731
 10
-3350.377660600374
 20
-1949.470528308962
 42
0.4142135623731
  0
LINE
  5
1EF
330
1F
100
AcDbEntity
  8
0-B_寸法
  6
Continuous
 62
   120
370
     5
100
AcDbLine
 10
-3350.377660600374
 20
-1925.470528308962
 30
0.0
 11
-3500.377660600374
 21
-1925.470528308962
 31
0.0
  0
LINE
  5
1F0
330
1F
100
AcDbEntity
  8
0-B_寸法
  6
Continuous
 62
   120
370
     5
100
AcDbLine
 10
-3350.377660600374
 20
-1947.970528308962
 30
0.0
 11
-3500.377660600374
 21
-1947.970528308962
 31
0.0
  0
TEXT
  5
1F1
330
1F
100
AcDbEntity
  8
0-B_寸法
  6
Continuous
 62
     7
370
   211
100
AcDbText
 10
-3378.067660600374
 20
-1911.798274010201
 30
0.0
 40
68.58
  1
15
 50
90.0
 41
1.083333333333333
  7
ＭＳ ゴシック
100
AcDbText
  0
TEXT
  5
1F2
330
1F
100
AcDbEntity
  8
0-A_文字
  6
Continuous
 62
     7
370
     9
100
AcDbText
 10
-3880.499752560177
 20
-1888.184442488818
 30
0.0
 40
68.58
  1
可動棚
  7
ＭＳ ゴシック
100
AcDbText
  0
LINE
  5
1F3
330
1F
100
AcDbEntity
  8
0-0_補助線
  6
JWW_HOJO
 62
   120
370
     5
100
AcDbLine
 10
-3070.499752560177
 20
-2364.970528308962
 30
0.0
 11
-3070.499752560177
 21
-1355.470528308962
 31
0.0
  0
LINE
  5
1F4
330
1F
100
AcDbEntity
  8
0-1_本体
  6
Continuous
 62
     7
370
     9
100
AcDbLine
 10
-4344.749752560177
 20
-2289.970528308962
 30
0.0
 11
-3146.249752560178
 21
-2289.970528308962
 31
0.0
  0
LINE
  5
1F5
330
1F
100
AcDbEntity
  8
0-1_本体
  6
Continuous
 62
     7
370
     9
100
AcDbLine
 10
-3146.249752560178
 20
-2289.970528308962
 30
0.0
 11
-3146.249752560178
 21
-2360.470528308962
 31
0.0
  0
LINE
  5
1F6
330
1F
100
AcDbEntity
  8
0-1_本体
  6
Continuous
 62
     7
370
     9
100
AcDbLine
 10
-3146.249752560178
 20
-2360.470528308962
 30
0.0
 11
-4344.749752560177
 21
-2360.470528308962
 31
0.0
  0
LINE
  5
1F7
330
1F
100
AcDbEntity
  8
0-1_本体
  6
Continuous
 62
     7
370
     9
100
AcDbLine
 10
-4344.749752560177
 20
-2360.470528308962
 30
0.0
 11
-4344.749752560177
 21
-2289.970528308962
 31
0.0
  0
LINE
  5
1F8
330
1F
100
AcDbEntity
  8
0-1_本体
  6
Continuous
 62
    92
370
    13
100
AcDbLine
 10
-1345.499752560177
 20
-1355.470528308962
 30
0.0
 11
-745.4997525601774
 21
-1355.470528308962
 31
0.0
  0
LINE
  5
1F9
330
1F
100
AcDbEntity
  8
0-1_本体
  6
Continuous
 62
    92
370
    13
100
AcDbLine
 10
-1322.249752560178
 20
-1387.720528308962
 30
0.0
 11
-768.7497525601773
 21
-1387.720528308962
 31
0.0
  0
LINE
  5
1FA
330
1F
100
AcDbEntity
  8
0-1_本体
  6
Continuous
 62
    92
370
    13
100
AcDbLine
 10
-745.4997525601774
 20
-1355.470528308962
 30
0.0
 11
-745.4997525601774
 21
-2289.970528308962
 31
0.0
  0
LINE
  5
1FB
330
1F
100
AcDbEntity
  8
0-1_本体
  6
Continuous
 62
    92
370
    13
100
AcDbLine
 10
-745.4997525601774
 20
-2289.970528308962
 30
0.0
 11
-1345.499752560177
 21
-2289.970528308962
 31
0.0
  0
LINE
  5
1FC
330
1F
100
AcDbEntity
  8
0-1_本体
  6
Continuous
 62
    92
370
    13
100
AcDbLine
 10
-1345.499752560177
 20
-2289.970528308962
 30
0.0
 11
-1345.499752560177
 21
-1355.470528308962
 31
0.0
  0
LINE
  5
1FD
330
1F
100
AcDbEntity
  8
0-1_本体
  6
Continuous
 62
    92
370
    13
100
AcDbLine
 10
-1322.249752560178
 20
-2289.970528308962
 30
0.0
 11
-1322.249752560178
 21
-1355.470528308962
 31
0.0
  0
LINE
  5
1FE
330
1F
100
AcDbEntity
  8
0-1_本体
  6
Continuous
 62
    92
370
    13
100
AcDbLine
 10
-768.7497525601773
 20
-1355.470528308962
 30
0.0
 11
-768.7497525601773
 21
-2289.970528308962
 31
0.0
  0
LINE
  5
1FF
330
1F
100
AcDbEntity
  8
0-1_本体
  6
Continuous
 62
    92
370
    13
100
AcDbLine
 10
-768.7497525601773
 20
-2257.720528308962
 30
0.0
 11
-1322.249752560178
 21
-2257.720528308962
 31
0.0
  0
LINE
  5
200
330
1F
100
AcDbEntity
  8
0-1_本体
  6
Continuous
 62
    92
370
    13
100
AcDbLine
 10
-768.7497525601773
 20
-1615.720528308962
 30
0.0
 11
-1322.249752560178
 21
-1615.720528308962
 31
0.0
  0
LINE
  5
201
330
1F
100
AcDbEntity
  8
0-1_本体
  6
Continuous
 62
    92
370
    13
100
AcDbLine
 10
-768.7497525601773
 20
-1583.470528308962
 30
0.0
 11
-1322.249752560178
 21
-1583.470528308962
 31
0.0
  0
LINE
  5
202
330
1F
100
AcDbEntity
  8
0-1_本体
  6
Continuous
 62
    92
370
    13
100
AcDbLine
 10
-768.7497525601773
 20
-1846.720528308962
 30
0.0
 11
-1322.249752560178
 21
-1846.720528308962
 31
0.0
  0
LINE
  5
203
330
1F
100
AcDbEntity
  8
0-1_本体
  6
Continuous
 62
    92
370
    13
100
AcDbLine
 10
-768.7497525601773
 20
-1814.470528308962
 30
0.0
 11
-1322.249752560178
 21
-1814.470528308962
 31
0.0
  0
LINE
  5
204
330
1F
100
AcDbEntity
  8
0-4_棚
  6
JWW_CENTER1
 62
     7
370
     9
100
AcDbLine
 10
-787.499752560177
 20
-1972.720528308962
 30
0.0
 11
-1303.499752560177
 21
-1972.720528308962
 31
0.0
  0
LINE
  5
205
330
1F
100
AcDbEntity
  8
0-4_棚
  6
JWW_CENTER1
 62
     7
370
     9
100
AcDbLine
 10
-787.499752560177
 20
-2242.720528308962
 30
0.0
 11
-787.499752560177
 21
-1972.720528308962
 31
0.0
  0
LINE
  5
206
330
1F
100
AcDbEntity
  8
0-4_棚
  6
JWW_CENTER1
 62
     7
370
     9
100
AcDbLine
 10
-1303.499752560177
 20
-2242.720528308962
 30
0.0
 11
-787.499752560177
 21
-2242.720528308962
 31
0.0
  0
LINE
  5
207
330
1F
100
AcDbEntity
  8
0-4_棚
  6
JWW_CENTER1
 62
     7
370
     9
100
AcDbLine
 10
-787.4997525601772
 20
-1794.220528308962
 30
0.0
 11
-787.4997525601772
 21
-1651.720528308962
 31
0.0
  0
LINE
  5
208
330
1F
100
AcDbEntity
  8
0-4_棚
  6
JWW_CENTER1
 62
     7
370
     9
100
AcDbLine
 10
-787.4997525601772
 20
-1651.720528308962
 30
0.0
 11
-1303.499752560177
 21
-1651.720528308962
 31
0.0
  0
LINE
  5
209
330
1F
100
AcDbEntity
  8
0-4_棚
  6
JWW_CENTER1
 62
     7
370
     9
100
AcDbLine
 10
-1303.499752560177
 20
-1794.220528308962
 30
0.0
 11
-787.4997525601772
 21
-1794.220528308962
 31
0.0
  0
LINE
  5
20A
330
1F
100
AcDbEntity
  8
0-4_棚
  6
JWW_CENTER1
 62
     7
370
     9
100
AcDbLine
 10
-787.4997525601772
 20
-1563.220528308962
 30
0.0
 11
-787.4997525601772
 21
-1420.720528308962
 31
0.0
  0
LINE
  5
20B
330
1F
100
AcDbEntity
  8
0-4_棚
  6
JWW_CENTER1
 62
     7
370
     9
100
AcDbLine
 10
-787.4997525601772
 20
-1420.720528308962
 30
0.0
 11
-1303.499752560177
 21
-1420.720528308962
 31
0.0
  0
LINE
  5
20C
330
1F
100
AcDbEntity
  8
0-4_棚
  6
JWW_CENTER1
 62
     7
370
     9
100
AcDbLine
 10
-1303.499752560177
 20
-1563.220528308962
 30
0.0
 11
-787.4997525601772
 21
-1563.220528308962
 31
0.0
  0
LINE
  5
20D
330
1F
100
AcDbEntity
  8
0-4_棚
  6
JWW_CENTER1
 62
     7
370
     9
100
AcDbLine
 10
-1303.499752560177
 20
-1972.720528308962
 30
0.0
 11
-1303.499752560177
 21
-2242.720528308962
 31
0.0
  0
LINE
  5
20E
330
1F
100
AcDbEntity
  8
0-4_棚
  6
JWW_CENTER1
 62
     7
370
     9
100
AcDbLine
 10
-1303.499752560177
 20
-1651.720528308962
 30
0.0
 11
-1303.499752560177
 21
-1794.220528308962
 31
0.0
  0
LINE
  5
20F
330
1F
100
AcDbEntity
  8
0-4_棚
  6
JWW_CENTER1
 62
     7
370
     9
100
AcDbLine
 10
-1303.499752560177
 20
-1420.720528308962
 30
0.0
 11
-1303.499752560177
 21
-1563.220528308962
 31
0.0
  0
LINE
  5
210
330
1F
100
AcDbEntity
  8
0-1_本体
  6
Continuous
 62
     7
370
     9
100
AcDbLine
 10
-1344.749752560178
 20
-2289.970528308962
 30
0.0
 11
-746.2497525601773
 21
-2289.970528308962
 31
0.0
  0
LINE
  5
211
330
1F
100
AcDbEntity
  8
0-1_本体
  6
Continuous
 62
     7
370
     9
100
AcDbLine
 10
-746.2497525601773
 20
-2289.970528308962
 30
0.0
 11
-746.2497525601773
 21
-2360.470528308962
 31
0.0
  0
LINE
  5
212
330
1F
100
AcDbEntity
  8
0-1_本体
  6
Continuous
 62
     7
370
     9
100
AcDbLine
 10
-746.2497525601773
 20
-2360.470528308962
 30
0.0
 11
-1344.749752560178
 21
-2360.470528308962
 31
0.0
  0
LINE
  5
213
330
1F
100
AcDbEntity
  8
0-1_本体
  6
Continuous
 62
     7
370
     9
100
AcDbLine
 10
-1344.749752560178
 20
-2360.470528308962
 30
0.0
 11
-1344.749752560178
 21
-2289.970528308962
 31
0.0
  0
LINE
  5
214
330
1F
100
AcDbEntity
  8
0-B_寸法
  6
Continuous
 62
   120
370
     5
100
AcDbLine
 10
-4322.249752560177
 20
-2585.470528308962
 30
0.0
 11
-3168.749752560178
 21
-2585.470528308962
 31
0.0
  0
LWPOLYLINE
  5
215
330
1F
100
AcDbEntity
  8
0-B_寸法
  6
Continuous
 62
     7
370
     9
100
AcDbPolyline
 90
        4
 70
     1
 43
3.0
 10
-3167.249752560178
 20
-2585.470528308962
 42
0.4142135623731
 10
-3168.749752560178
 20
-2583.970528308962
 42
0.4142135623731
 10
-3170.249752560177
 20
-2585.470528308962
 42
0.4142135623731
 10
-3168.749752560178
 20
-2586.970528308962
 42
0.4142135623731
  0
LINE
  5
216
330
1F
100
AcDbEntity
  8
0-B_寸法
  6
Continuous
 62
   120
370
     5
100
AcDbLine
 10
-3168.749752560178
 20
-2585.470528308962
 30
0.0
 11
-3168.749752560178
 21
-2435.470528308962
 31
0.0
  0
TEXT
  5
217
330
1F
100
AcDbEntity
  8
0-B_寸法
  6
Continuous
 62
     7
370
   211
100
AcDbText
 10
-3820.499752560177
 20
-2557.780528308962
 30
0.0
 40
68.58
  1
769
 41
1.111111111111111
  7
ＭＳ ゴシック
100
AcDbText
  0
LINE
  5
218
330
1F
100
AcDbEntity
  8
0-B_寸法
  6
Continuous
 62
   120
370
     5
100
AcDbLine
 10
-3168.749752560178
 20
-2585.470528308962
 30
0.0
 11
-3145.499752560177
 21
-2585.470528308962
 31
0.0
  0
LWPOLYLINE
  5
219
330
1F
100
AcDbEntity
  8
0-B_寸法
  6
Continuous
 62
     7
370
     9
100
AcDbPolyline
 90
        4
 70
     1
 43
3.0
 10
-3143.999752560177
 20
-2585.470528308962
 42
0.4142135623731
 10
-3145.499752560177
 20
-2583.970528308962
 42
0.4142135623731
 10
-3146.999752560177
 20
-2585.470528308962
 42
0.4142135623731
 10
-3145.499752560177
 20
-2586.970528308962
 42
0.4142135623731
  0
LINE
  5
21A
330
1F
100
AcDbEntity
  8
0-B_寸法
  6
Continuous
 62
   120
370
     5
100
AcDbLine
 10
-3145.499752560177
 20
-2735.470528308962
 30
0.0
 11
-3145.499752560177
 21
-2435.470528308962
 31
0.0
  0
LWPOLYLINE
  5
21B
330
1F
100
AcDbEntity
  8
0-B_寸法
  6
Continuous
 62
     7
370
     9
100
AcDbPolyline
 90
        4
 70
     1
 43
3.0
 10
-1343.999752560177
 20
-2585.470528308962
 42
0.4142135623731
 10
-1345.499752560177
 20
-2583.970528308962
 42
0.4142135623731
 10
-1346.999752560177
 20
-2585.470528308962
 42
0.4142135623731
 10
-1345.499752560177
 20
-2586.970528308962
 42
0.4142135623731
  0
LWPOLYLINE
  5
21C
330
1F
100
AcDbEntity
  8
0-B_寸法
  6
Continuous
 62
     7
370
     9
100
AcDbPolyline
 90
        4
 70
     1
 43
3.0
 10
-1320.749752560178
 20
-2585.470528308962
 42
0.4142135623731
 10
-1322.249752560178
 20
-2583.970528308962
 42
0.4142135623731
 10
-1323.749752560177
 20
-2585.470528308962
 42
0.4142135623731
 10
-1322.249752560178
 20
-2586.970528308962
 42
0.4142135623731
  0
LINE
  5
21D
330
1F
100
AcDbEntity
  8
0-B_寸法
  6
Continuous
 62
   120
370
     5
100
AcDbLine
 10
-1345.499752560177
 20
-2735.470528308962
 30
0.0
 11
-1345.499752560177
 21
-2435.470528308962
 31
0.0
  0
LINE
  5
21E
330
1F
100
AcDbEntity
  8
0-B_寸法
  6
Continuous
 62
   120
370
     5
100
AcDbLine
 10
-1322.249752560178
 20
-2585.470528308962
 30
0.0
 11
-1322.249752560178
 21
-2435.470528308962
 31
0.0
  0
LINE
  5
21F
330
1F
100
AcDbEntity
  8
0-B_寸法
  6
Continuous
 62
   120
370
     5
100
AcDbLine
 10
-1322.249752560178
 20
-2585.470528308962
 30
0.0
 11
-768.7497525601773
 21
-2585.470528308962
 31
0.0
  0
LWPOLYLINE
  5
220
330
1F
100
AcDbEntity
  8
0-B_寸法
  6
Continuous
 62
     7
370
     9
100
AcDbPolyline
 90
        4
 70
     1
 43
3.0
 10
-767.2497525601773
 20
-2585.470528308962
 42
0.4142135623731
 10
-768.7497525601773
 20
-2583.970528308962
 42
0.4142135623731
 10
-770.2497525601774
 20
-2585.470528308962
 42
0.4142135623731
 10
-768.7497525601773
 20
-2586.970528308962
 42
0.4142135623731
  0
LINE
  5
221
330
1F
100
AcDbEntity
  8
0-B_寸法
  6
Continuous
 62
   120
370
     5
100
AcDbLine
 10
-768.7497525601773
 20
-2585.470528308962
 30
0.0
 11
-768.7497525601773
 21
-2435.470528308962
 31
0.0
  0
TEXT
  5
222
330
1F
100
AcDbEntity
  8
0-B_寸法
  6
Continuous
 62
     7
370
   211
100
AcDbText
 10
-1120.499752560177
 20
-2557.780528308962
 30
0.0
 40
68.58
  1
369
 41
1.111111111111111
  7
ＭＳ ゴシック
100
AcDbText
  0
LWPOLYLINE
  5
223
330
1F
100
AcDbEntity
  8
0-B_寸法
  6
Continuous
 62
     7
370
     9
100
AcDbPolyline
 90
        4
 70
     1
 43
3.0
 10
-743.9997525601772
 20
-2585.470528308962
 42
0.4142135623731
 10
-745.4997525601772
 20
-2583.970528308962
 42
0.4142135623731
 10
-746.9997525601772
 20
-2585.470528308962
 42
0.4142135623731
 10
-745.4997525601772
 20
-2586.970528308962
 42
0.4142135623731
  0
LINE
  5
224
330
1F
100
AcDbEntity
  8
0-B_寸法
  6
Continuous
 62
   120
370
     5
100
AcDbLine
 10
-745.4997525601772
 20
-2735.470528308962
 30
0.0
 11
-745.4997525601772
 21
-2435.470528308962
 31
0.0
  0
LINE
  5
225
330
1F
100
AcDbEntity
  8
0-B_寸法
  6
Continuous
 62
   120
370
     5
100
AcDbLine
 10
-745.4997525601772
 20
-2735.470528308962
 30
0.0
 11
-1345.499752560177
 21
-2735.470528308962
 31
0.0
  0
LWPOLYLINE
  5
226
330
1F
100
AcDbEntity
  8
0-B_寸法
  6
Continuous
 62
     7
370
     9
100
AcDbPolyline
 90
        4
 70
     1
 43
3.0
 10
-743.9997525601772
 20
-2735.470528308962
 42
0.4142135623731
 10
-745.4997525601772
 20
-2733.970528308962
 42
0.4142135623731
 10
-746.9997525601772
 20
-2735.470528308962
 42
0.4142135623731
 10
-745.4997525601772
 20
-2736.970528308962
 42
0.4142135623731
  0
LWPOLYLINE
  5
227
330
1F
100
AcDbEntity
  8
0-B_寸法
  6
Continuous
 62
     7
370
     9
100
AcDbPolyline
 90
        4
 70
     1
 43
3.0
 10
-1343.999752560177
 20
-2735.470528308962
 42
0.4142135623731
 10
-1345.499752560177
 20
-2733.970528308962
 42
0.4142135623731
 10
-1346.999752560177
 20
-2735.470528308962
 42
0.4142135623731
 10
-1345.499752560177
 20
-2736.970528308962
 42
0.4142135623731
  0
TEXT
  5
228
330
1F
100
AcDbEntity
  8
0-B_寸法
  6
Continuous
 62
     7
370
   211
100
AcDbText
 10
-1120.499752560177
 20
-2707.780528308962
 30
0.0
 40
68.58
  1
400
 41
1.111111111111111
  7
ＭＳ ゴシック
100
AcDbText
  0
LINE
  5
229
330
1F
100
AcDbEntity
  8
0-B_寸法
  6
Continuous
 62
   120
370
     5
100
AcDbLine
 10
-3145.499752560177
 20
-2735.470528308962
 30
0.0
 11
-4345.499752560178
 21
-2735.470528308962
 31
0.0
  0
LWPOLYLINE
  5
22A
330
1F
100
AcDbEntity
  8
0-B_寸法
  6
Continuous
 62
     7
370
     9
100
AcDbPolyline
 90
        4
 70
     1
 43
3.0
 10
-3143.999752560177
 20
-2735.470528308962
 42
0.4142135623731
 10
-3145.499752560177
 20
-2733.970528308962
 42
0.4142135623731
 10
-3146.999752560177
 20
-2735.470528308962
 42
0.4142135623731
 10
-3145.499752560177
 20
-2736.970528308962
 42
0.4142135623731
  0
LWPOLYLINE
  5
22B
330
1F
100
AcDbEntity
  8
0-B_寸法
  6
Continuous
 62
     7
370
     9
100
AcDbPolyline
 90
        4
 70
     1
 43
3.0
 10
-4343.999752560177
 20
-2735.470528308962
 42
0.4142135623731
 10
-4345.499752560178
 20
-2733.970528308962
 42
0.4142135623731
 10
-4346.999752560178
 20
-2735.470528308962
 42
0.4142135623731
 10
-4345.499752560178
 20
-2736.970528308962
 42
0.4142135623731
  0
TEXT
  5
22C
330
1F
100
AcDbEntity
  8
0-B_寸法
  6
Continuous
 62
     7
370
   211
100
AcDbText
 10
-3820.499752560177
 20
-2707.780528308962
 30
0.0
 40
68.58
  1
800
 41
1.111111111111111
  7
ＭＳ ゴシック
100
AcDbText
  0
TEXT
  5
22D
330
1F
100
AcDbEntity
  8
0-B_寸法
  6
Continuous
 62
     7
370
   211
100
AcDbText
 10
-4311.551597627848
 20
-2557.780528308962
 30
0.0
 40
68.58
  1
15.5
 41
1.125
  7
ＭＳ ゴシック
100
AcDbText
  0
TEXT
  5
22E
330
1F
100
AcDbEntity
  8
0-B_寸法
  6
Continuous
 62
     7
370
   211
100
AcDbText
 10
-3390.962070427167
 20
-2557.780528308962
 30
0.0
 40
68.58
  1
15.5
 41
1.125
  7
ＭＳ ゴシック
100
AcDbText
  0
TEXT
  5
22F
330
1F
100
AcDbEntity
  8
0-B_寸法
  6
Continuous
 62
     7
370
   211
100
AcDbText
 10
-873.6285875625215
 20
-2557.780528308962
 30
0.0
 40
68.58
  1
15.5
 41
1.125
  7
ＭＳ ゴシック
100
AcDbText
  0
LINE
  5
230
330
1F
100
AcDbEntity
  8
0-B_寸法
  6
Continuous
 62
   120
370
     5
100
AcDbLine
 10
-768.7497525601773
 20
-2585.470528308962
 30
0.0
 11
-745.4997525601772
 21
-2585.470528308962
 31
0.0
  0
LINE
  5
231
330
1F
100
AcDbEntity
  8
0-B_寸法
  6
Continuous
 62
   120
370
     5
100
AcDbLine
 10
-1345.499752560177
 20
-2585.470528308962
 30
0.0
 11
-1322.249752560178
 21
-2585.470528308962
 31
0.0
  0
LINE
  5
232
330
1F
100
AcDbEntity
  8
0-1_本体
  6
Continuous
 62
    40
370
    15
100
AcDbLine
 10
1564.261788237523
 20
-2289.970528308962
 30
0.0
 11
2081.761788237523
 21
-2289.970528308962
 31
0.0
  0
LINE
  5
233
330
1F
100
AcDbEntity
  8
0-1_本体
  6
Continuous
 62
    40
370
    15
100
AcDbLine
 10
2081.761788237523
 20
-2289.970528308962
 30
0.0
 11
2081.761788237523
 21
-2258.470528308962
 31
0.0
  0
LINE
  5
234
330
1F
100
AcDbEntity
  8
0-1_本体
  6
Continuous
 62
    40
370
    15
100
AcDbLine
 10
1564.261788237523
 20
-2258.470528308962
 30
0.0
 11
1564.261788237523
 21
-2289.970528308962
 31
0.0
  0
LINE
  5
235
330
1F
100
AcDbEntity
  8
0-1_本体
  6
Continuous
 62
    40
370
    15
100
AcDbLine
 10
2068.261788237521
 20
-2268.970528308963
 30
0.0
 11
2063.761788237522
 21
-2268.970528308963
 31
0.0
  0
LINE
  5
236
330
1F
100
AcDbEntity
  8
0-1_本体
  6
Continuous
 62
    40
370
    15
100
AcDbLine
 10
2081.761788237523
 20
-2258.470528308962
 30
0.0
 11
2068.261788237521
 21
-2258.470528308962
 31
0.0
  0
LINE
  5
237
330
1F
100
AcDbEntity
  8
0-1_本体
  6
Continuous
 62
    40
370
    15
100
AcDbLine
 10
2063.761788237522
 20
-2258.470528308962
 30
0.0
 11
1564.261788237523
 21
-2258.470528308962
 31
0.0
  0
LINE
  5
238
330
1F
100
AcDbEntity
  8
0-6_カウンター
  6
Continuous
 62
     7
370
     9
100
AcDbLine
 10
2068.261788237521
 20
-2258.470528308962
 30
0.0
 11
2081.761788237521
 21
-2175.970528308962
 31
0.0
  0
LINE
  5
239
330
1F
100
AcDbEntity
  8
0-6_カウンター
  6
Continuous
 62
    92
370
    13
100
AcDbLine
 10
2068.261788237521
 20
-2175.970528308962
 30
0.0
 11
2068.261788237521
 21
-2258.470528308962
 31
0.0
  0
LINE
  5
23A
330
1F
100
AcDbEntity
  8
0-6_カウンター
  6
Continuous
 62
    92
370
    13
100
AcDbLine
 10
2081.761788237521
 20
-2175.970528308962
 30
0.0
 11
2068.261788237521
 21
-2175.970528308962
 31
0.0
  0
LINE
  5
23B
330
1F
100
AcDbEntity
  8
0-6_カウンター
  6
Continuous
 62
    92
370
    13
100
AcDbLine
 10
2081.761788237521
 20
-2258.470528308962
 30
0.0
 11
2081.761788237521
 21
-2175.970528308962
 31
0.0
  0
LINE
  5
23C
330
1F
100
AcDbEntity
  8
0-6_カウンター
  6
Continuous
 62
    92
370
    13
100
AcDbLine
 10
2068.261788237521
 20
-2258.470528308962
 30
0.0
 11
2081.761788237521
 21
-2258.470528308962
 31
0.0
  0
LINE
  5
23D
330
1F
100
AcDbEntity
  8
0-2_扉
  6
Continuous
 62
    40
370
    15
100
AcDbLine
 10
1534.261788237523
 20
-2265.220528308962
 30
0.0
 11
1564.261788237523
 21
-2265.220528308962
 31
0.0
  0
LWPOLYLINE
  5
23E
330
1F
100
AcDbEntity
  8
0-B_寸法
  6
Continuous
 62
     7
370
     9
100
AcDbPolyline
 90
        4
 70
     1
 43
3.0
 10
2308.261788237523
 20
-2289.970528308962
 42
0.4142135623731
 10
2306.761788237523
 20
-2288.470528308962
 42
0.4142135623731
 10
2305.261788237523
 20
-2289.970528308962
 42
0.4142135623731
 10
2306.761788237523
 20
-2291.470528308962
 42
0.4142135623731
  0
LINE
  5
23F
330
1F
100
AcDbEntity
  8
0-B_寸法
  6
Continuous
 62
   120
370
     5
100
AcDbLine
 10
2306.761788237523
 20
-2289.970528308962
 30
0.0
 11
2156.761788237523
 21
-2289.970528308962
 31
0.0
  0
LWPOLYLINE
  5
240
330
1F
100
AcDbEntity
  8
0-B_寸法
  6
Continuous
 62
     7
370
     9
100
AcDbPolyline
 90
        4
 70
     1
 43
3.0
 10
1310.761788237523
 20
-2265.220528308962
 42
0.4142135623731
 10
1309.261788237523
 20
-2263.720528308962
 42
0.4142135623731
 10
1307.761788237523
 20
-2265.220528308962
 42
0.4142135623731
 10
1309.261788237523
 20
-2266.720528308962
 42
0.4142135623731
  0
LINE
  5
241
330
1F
100
AcDbEntity
  8
0-B_寸法
  6
Continuous
 62
   120
370
     5
100
AcDbLine
 10
1309.261788237523
 20
-2265.220528308962
 30
0.0
 11
1459.261788237523
 21
-2265.220528308962
 31
0.0
  0
LWPOLYLINE
  5
242
330
1F
100
AcDbEntity
  8
0-B_寸法
  6
Continuous
 62
     7
370
     9
100
AcDbPolyline
 90
        4
 70
     1
 43
3.0
 10
1310.761788237523
 20
-2289.970528308962
 42
0.4142135623731
 10
1309.261788237523
 20
-2288.470528308962
 42
0.4142135623731
 10
1307.761788237523
 20
-2289.970528308962
 42
0.4142135623731
 10
1309.261788237523
 20
-2291.470528308962
 42
0.4142135623731
  0
LINE
  5
243
330
1F
100
AcDbEntity
  8
0-B_寸法
  6
Continuous
 62
   120
370
     5
100
AcDbLine
 10
1159.261788237523
 20
-2289.970528308962
 30
0.0
 11
1459.261788237523
 21
-2289.970528308962
 31
0.0
  0
LWPOLYLINE
  5
244
330
1F
100
AcDbEntity
  8
0-B_寸法
  6
Continuous
 62
     7
370
     9
100
AcDbPolyline
 90
        4
 70
     1
 43
3.0
 10
1160.761788237523
 20
-2289.970528308962
 42
0.4142135623731
 10
1159.261788237523
 20
-2288.470528308962
 42
0.4142135623731
 10
1157.761788237523
 20
-2289.970528308962
 42
0.4142135623731
 10
1159.261788237523
 20
-2291.470528308962
 42
0.4142135623731
  0
TEXT
  5
245
330
1F
100
AcDbEntity
  8
0-B_寸法
  6
Continuous
 62
     7
370
   211
100
AcDbText
 10
1733.011788237523
 20
-802.7805283089623
 30
0.0
 40
68.58
  1
365
 41
1.111111111111111
  7
ＭＳ ゴシック
100
AcDbText
  0
LINE
  5
246
330
1F
100
AcDbEntity
  8
0-B_寸法
  6
Continuous
 62
   120
370
     5
100
AcDbLine
 10
1309.261788237523
 20
-2265.220528308962
 30
0.0
 11
1309.261788237523
 21
-2508.032112946287
 31
0.0
  0
LINE
  5
247
330
1F
100
AcDbEntity
  8
0-1_本体
  6
Continuous
 62
    40
370
    15
100
AcDbLine
 10
2081.761788237523
 20
-1386.970528308962
 30
0.0
 11
2081.761788237523
 21
-1355.470528308962
 31
0.0
  0
LINE
  5
248
330
1F
100
AcDbEntity
  8
0-1_本体
  6
Continuous
 62
    40
370
    15
100
AcDbLine
 10
2081.761788237523
 20
-1355.470528308962
 30
0.0
 11
1564.261788237523
 21
-1355.470528308962
 31
0.0
  0
LINE
  5
249
330
1F
100
AcDbEntity
  8
0-1_本体
  6
Continuous
 62
    40
370
    15
100
AcDbLine
 10
1564.261788237523
 20
-1355.470528308962
 30
0.0
 11
1564.261788237523
 21
-1386.970528308962
 31
0.0
  0
LINE
  5
24A
330
1F
100
AcDbEntity
  8
0-1_本体
  6
Continuous
 62
    40
370
    15
100
AcDbLine
 10
2068.261788237521
 20
-2268.970528308963
 30
0.0
 11
2068.261788237521
 21
-1376.470528308963
 31
0.0
  0
LINE
  5
24B
330
1F
100
AcDbEntity
  8
0-1_本体
  6
Continuous
 62
    40
370
    15
100
AcDbLine
 10
2068.261788237521
 20
-1376.470528308963
 30
0.0
 11
2063.761788237522
 21
-1376.470528308963
 31
0.0
  0
LINE
  5
24C
330
1F
100
AcDbEntity
  8
0-1_本体
  6
Continuous
 62
    40
370
    15
100
AcDbLine
 10
2063.761788237522
 20
-2268.970528308963
 30
0.0
 11
2063.761788237522
 21
-1376.470528308963
 31
0.0
  0
LINE
  5
24D
330
1F
100
AcDbEntity
  8
0-1_本体
  6
Continuous
 62
    40
370
    15
100
AcDbLine
 10
1564.261788237523
 20
-1386.970528308962
 30
0.0
 11
2063.761788237522
 21
-1386.970528308962
 31
0.0
  0
LINE
  5
24E
330
1F
100
AcDbEntity
  8
0-1_本体
  6
Continuous
 62
    40
370
    15
100
AcDbLine
 10
2068.261788237521
 20
-1386.970528308962
 30
0.0
 11
2081.761788237523
 21
-1386.970528308962
 31
0.0
  0
LINE
  5
24F
330
1F
100
AcDbEntity
  8
0-6_カウンター
  6
Continuous
 62
     7
370
     9
100
AcDbLine
 10
2068.261788237521
 20
-1469.470528308962
 30
0.0
 11
2081.761788237521
 21
-1386.970528308962
 31
0.0
  0
LINE
  5
250
330
1F
100
AcDbEntity
  8
0-6_カウンター
  6
Continuous
 62
    92
370
    13
100
AcDbLine
 10
2068.261788237521
 20
-1386.970528308962
 30
0.0
 11
2068.261788237521
 21
-1469.470528308962
 31
0.0
  0
LINE
  5
251
330
1F
100
AcDbEntity
  8
0-6_カウンター
  6
Continuous
 62
    92
370
    13
100
AcDbLine
 10
2081.761788237521
 20
-1386.970528308962
 30
0.0
 11
2068.261788237521
 21
-1386.970528308962
 31
0.0
  0
LINE
  5
252
330
1F
100
AcDbEntity
  8
0-6_カウンター
  6
Continuous
 62
    92
370
    13
100
AcDbLine
 10
2081.761788237521
 20
-1469.470528308962
 30
0.0
 11
2081.761788237521
 21
-1386.970528308962
 31
0.0
  0
LINE
  5
253
330
1F
100
AcDbEntity
  8
0-6_カウンター
  6
Continuous
 62
    92
370
    13
100
AcDbLine
 10
2068.261788237521
 20
-1469.470528308962
 30
0.0
 11
2081.761788237521
 21
-1469.470528308962
 31
0.0
  0
LINE
  5
254
330
1F
100
AcDbEntity
  8
0-1_本体
  6
Continuous
 62
     7
370
     9
100
AcDbLine
 10
2081.761788237521
 20
-1386.970528308962
 30
0.0
 11
2081.761788237521
 21
-2258.470528308962
 31
0.0
  0
LINE
  5
255
330
1F
100
AcDbEntity
  8
0-0_補助線
  6
JWW_HOJO
 62
   120
370
     5
100
AcDbLine
 10
2035.261788237522
 20
-2268.970528308963
 30
0.0
 11
2035.261788237522
 21
-1376.470528308963
 31
0.0
  0
LINE
  5
256
330
1F
100
AcDbEntity
  8
0-0_補助線
  6
JWW_HOJO
 62
   120
370
     5
100
AcDbLine
 10
1651.261788237522
 20
-2268.970528308963
 30
0.0
 11
1651.261788237522
 21
-1376.470528308963
 31
0.0
  0
LINE
  5
257
330
1F
100
AcDbEntity
  8
0-2_扉
  6
Continuous
 62
    40
370
    15
100
AcDbLine
 10
1534.261788237523
 20
-1380.220528308962
 30
0.0
 11
1534.261788237523
 21
-2265.220528308962
 31
0.0
  0
LINE
  5
258
330
1F
100
AcDbEntity
  8
0-2_扉
  6
Continuous
 62
    40
370
    15
100
AcDbLine
 10
1564.261788237523
 20
-1380.220528308962
 30
0.0
 11
1564.261788237523
 21
-2265.220528308962
 31
0.0
  0
LINE
  5
259
330
1F
100
AcDbEntity
  8
0-2_扉
  6
Continuous
 62
    40
370
    15
100
AcDbLine
 10
1534.261788237523
 20
-1380.220528308962
 30
0.0
 11
1564.261788237523
 21
-1380.220528308962
 31
0.0
  0
LINE
  5
25A
330
1F
100
AcDbEntity
  8
0-0_補助線
  6
JWW_HOJO
 62
   120
370
     5
100
AcDbLine
 10
2156.761788237523
 20
-1280.470528308963
 30
0.0
 11
1459.261788237523
 21
-1280.470528308963
 31
0.0
  0
LINE
  5
25B
330
1F
100
AcDbEntity
  8
0-0_補助線
  6
JWW_HOJO
 62
   120
370
     5
100
AcDbLine
 10
2306.761788237523
 20
-1130.470528308962
 30
0.0
 11
1309.261788237523
 21
-1130.470528308962
 31
0.0
  0
LWPOLYLINE
  5
25C
330
1F
100
AcDbEntity
  8
0-B_寸法
  6
Continuous
 62
     7
370
     9
100
AcDbPolyline
 90
        4
 70
     1
 43
3.0
 10
2308.261788237523
 20
-1355.470528308962
 42
0.4142135623731
 10
2306.761788237523
 20
-1353.970528308962
 42
0.4142135623731
 10
2305.261788237523
 20
-1355.470528308962
 42
0.4142135623731
 10
2306.761788237523
 20
-1356.970528308962
 42
0.4142135623731
  0
LINE
  5
25D
330
1F
100
AcDbEntity
  8
0-B_寸法
  6
Continuous
 62
   120
370
     5
100
AcDbLine
 10
2306.761788237523
 20
-1355.470528308962
 30
0.0
 11
2156.761788237523
 21
-1355.470528308962
 31
0.0
  0
LINE
  5
25E
330
1F
100
AcDbEntity
  8
0-B_寸法
  6
Continuous
 62
   120
370
     5
100
AcDbLine
 10
2081.761788237523
 20
-1130.470528308962
 30
0.0
 11
2035.261788237522
 21
-1130.470528308962
 31
0.0
  0
LWPOLYLINE
  5
25F
330
1F
100
AcDbEntity
  8
0-B_寸法
  6
Continuous
 62
     7
370
     9
100
AcDbPolyline
 90
        4
 70
     1
 43
3.0
 10
2083.261788237523
 20
-1130.470528308962
 42
0.4142135623731
 10
2081.761788237523
 20
-1128.970528308962
 42
0.4142135623731
 10
2080.261788237523
 20
-1130.470528308962
 42
0.4142135623731
 10
2081.761788237523
 20
-1131.970528308962
 42
0.4142135623731
  0
LWPOLYLINE
  5
260
330
1F
100
AcDbEntity
  8
0-B_寸法
  6
Continuous
 62
     7
370
     9
100
AcDbPolyline
 90
        4
 70
     1
 43
3.0
 10
2036.761788237522
 20
-1130.470528308962
 42
0.4142135623731
 10
2035.261788237522
 20
-1128.970528308962
 42
0.4142135623731
 10
2033.761788237522
 20
-1130.470528308962
 42
0.4142135623731
 10
2035.261788237522
 20
-1131.970528308962
 42
0.4142135623731
  0
LINE
  5
261
330
1F
100
AcDbEntity
  8
0-B_寸法
  6
Continuous
 62
   120
370
     5
100
AcDbLine
 10
2081.761788237523
 20
-830.4705283089623
 30
0.0
 11
2081.761788237523
 21
-1280.470528308963
 31
0.0
  0
LINE
  5
262
330
1F
100
AcDbEntity
  8
0-B_寸法
  6
Continuous
 62
   120
370
     5
100
AcDbLine
 10
2035.261788237522
 20
-1130.470528308962
 30
0.0
 11
2035.261788237522
 21
-1280.470528308963
 31
0.0
  0
LINE
  5
263
330
1F
100
AcDbEntity
  8
0-B_寸法
  6
Continuous
 62
   120
370
     5
100
AcDbLine
 10
2035.261788237522
 20
-1130.470528308962
 30
0.0
 11
1651.261788237522
 21
-1130.470528308962
 31
0.0
  0
LWPOLYLINE
  5
264
330
1F
100
AcDbEntity
  8
0-B_寸法
  6
Continuous
 62
     7
370
     9
100
AcDbPolyline
 90
        4
 70
     1
 43
3.0
 10
1652.761788237522
 20
-1130.470528308962
 42
0.4142135623731
 10
1651.261788237522
 20
-1128.970528308962
 42
0.4142135623731
 10
1649.761788237522
 20
-1130.470528308962
 42
0.4142135623731
 10
1651.261788237522
 20
-1131.970528308962
 42
0.4142135623731
  0
LINE
  5
265
330
1F
100
AcDbEntity
  8
0-B_寸法
  6
Continuous
 62
   120
370
     5
100
AcDbLine
 10
1651.261788237522
 20
-1130.470528308962
 30
0.0
 11
1651.261788237522
 21
-1280.470528308963
 31
0.0
  0
TEXT
  5
266
330
1F
100
AcDbEntity
  8
0-B_寸法
  6
Continuous
 62
     7
370
   211
100
AcDbText
 10
1544.983184762337
 20
-952.7805283089622
 30
0.0
 40
68.58
  1
20
 41
1.083333333333333
  7
ＭＳ ゴシック
100
AcDbText
  0
LINE
  5
267
330
1F
100
AcDbEntity
  8
0-B_寸法
  6
Continuous
 62
   120
370
     5
100
AcDbLine
 10
1651.261788237522
 20
-1130.470528308962
 30
0.0
 11
1564.261788237523
 21
-1130.470528308962
 31
0.0
  0
LWPOLYLINE
  5
268
330
1F
100
AcDbEntity
  8
0-B_寸法
  6
Continuous
 62
     7
370
     9
100
AcDbPolyline
 90
        4
 70
     1
 43
3.0
 10
1565.761788237523
 20
-1130.470528308962
 42
0.4142135623731
 10
1564.261788237523
 20
-1128.970528308962
 42
0.4142135623731
 10
1562.761788237523
 20
-1130.470528308962
 42
0.4142135623731
 10
1564.261788237523
 20
-1131.970528308962
 42
0.4142135623731
  0
LINE
  5
269
330
1F
100
AcDbEntity
  8
0-B_寸法
  6
Continuous
 62
   120
370
     5
100
AcDbLine
 10
1564.261788237523
 20
-980.4705283089622
 30
0.0
 11
1564.261788237523
 21
-1280.470528308963
 31
0.0
  0
LINE
  5
26A
330
1F
100
AcDbEntity
  8
0-B_寸法
  6
Continuous
 62
   120
370
     5
100
AcDbLine
 10
2081.761788237523
 20
-980.4705283089622
 30
0.0
 11
1564.261788237523
 21
-980.4705283089622
 31
0.0
  0
LWPOLYLINE
  5
26B
330
1F
100
AcDbEntity
  8
0-B_寸法
  6
Continuous
 62
     7
370
     9
100
AcDbPolyline
 90
        4
 70
     1
 43
3.0
 10
2083.261788237523
 20
-980.4705283089622
 42
0.4142135623731
 10
2081.761788237523
 20
-978.9705283089622
 42
0.4142135623731
 10
2080.261788237523
 20
-980.4705283089622
 42
0.4142135623731
 10
2081.761788237523
 20
-981.9705283089621
 42
0.4142135623731
  0
LWPOLYLINE
  5
26C
330
1F
100
AcDbEntity
  8
0-B_寸法
  6
Continuous
 62
     7
370
     9
100
AcDbPolyline
 90
        4
 70
     1
 43
3.0
 10
1565.761788237523
 20
-980.4705283089622
 42
0.4142135623731
 10
1564.261788237523
 20
-978.9705283089622
 42
0.4142135623731
 10
1562.761788237523
 20
-980.4705283089622
 42
0.4142135623731
 10
1564.261788237523
 20
-981.9705283089621
 42
0.4142135623731
  0
TEXT
  5
26D
330
1F
100
AcDbEntity
  8
0-B_寸法
  6
Continuous
 62
     7
370
   211
100
AcDbText
 10
1748.011788237523
 20
-952.7805283089622
 30
0.0
 40
68.58
  1
345
 41
1.111111111111111
  7
ＭＳ ゴシック
100
AcDbText
  0
LINE
  5
26E
330
1F
100
AcDbEntity
  8
0-B_寸法
  6
Continuous
 62
   120
370
     5
100
AcDbLine
 10
1564.261788237523
 20
-980.4705283089622
 30
0.0
 11
1534.261788237523
 21
-980.4705283089622
 31
0.0
  0
LWPOLYLINE
  5
26F
330
1F
100
AcDbEntity
  8
0-B_寸法
  6
Continuous
 62
     7
370
     9
100
AcDbPolyline
 90
        4
 70
     1
 43
3.0
 10
1535.761788237523
 20
-980.4705283089622
 42
0.4142135623731
 10
1534.261788237523
 20
-978.9705283089622
 42
0.4142135623731
 10
1532.761788237523
 20
-980.4705283089622
 42
0.4142135623731
 10
1534.261788237523
 20
-981.9705283089621
 42
0.4142135623731
  0
LINE
  5
270
330
1F
100
AcDbEntity
  8
0-B_寸法
  6
Continuous
 62
   120
370
     5
100
AcDbLine
 10
1534.261788237523
 20
-830.4705283089623
 30
0.0
 11
1534.261788237523
 21
-1280.470528308963
 31
0.0
  0
LINE
  5
271
330
1F
100
AcDbEntity
  8
0-B_寸法
  6
Continuous
 62
   120
370
     5
100
AcDbLine
 10
1534.261788237523
 20
-830.4705283089623
 30
0.0
 11
2081.761788237523
 21
-830.4705283089623
 31
0.0
  0
LWPOLYLINE
  5
272
330
1F
100
AcDbEntity
  8
0-B_寸法
  6
Continuous
 62
     7
370
     9
100
AcDbPolyline
 90
        4
 70
     1
 43
3.0
 10
1535.761788237523
 20
-830.4705283089623
 42
0.4142135623731
 10
1534.261788237523
 20
-828.9705283089622
 42
0.4142135623731
 10
1532.761788237523
 20
-830.4705283089623
 42
0.4142135623731
 10
1534.261788237523
 20
-831.9705283089623
 42
0.4142135623731
  0
LWPOLYLINE
  5
273
330
1F
100
AcDbEntity
  8
0-B_寸法
  6
Continuous
 62
     7
370
     9
100
AcDbPolyline
 90
        4
 70
     1
 43
3.0
 10
2083.261788237523
 20
-830.4705283089623
 42
0.4142135623731
 10
2081.761788237523
 20
-828.9705283089622
 42
0.4142135623731
 10
2080.261788237523
 20
-830.4705283089623
 42
0.4142135623731
 10
2081.761788237523
 20
-831.9705283089623
 42
0.4142135623731
  0
TEXT
  5
274
330
1F
100
AcDbEntity
  8
0-B_寸法
  6
Continuous
 62
     7
370
   211
100
AcDbText
 10
1573.453946717833
 20
-1102.780528308962
 30
0.0
 40
68.58
  1
58
 41
1.083333333333333
  7
ＭＳ ゴシック
100
AcDbText
  0
TEXT
  5
275
330
1F
100
AcDbEntity
  8
0-B_寸法
  6
Continuous
 62
     7
370
   211
100
AcDbText
 10
1768.261788237522
 20
-1102.780528308962
 30
0.0
 40
68.58
  1
256
 41
1.111111111111111
  7
ＭＳ ゴシック
100
AcDbText
  0
TEXT
  5
276
330
1F
100
AcDbEntity
  8
0-B_寸法
  6
Continuous
 62
     7
370
   211
100
AcDbText
 10
1979.580992259464
 20
-1102.780528308962
 30
0.0
 40
68.58
  1
31
 41
1.083333333333333
  7
ＭＳ ゴシック
100
AcDbText
  0
TEXT
  5
277
330
1F
100
AcDbEntity
  8
0-B_寸法
  6
Continuous
 62
     7
370
   211
100
AcDbText
 10
1281.571788237522
 20
-1341.399282411993
 30
0.0
 40
68.58
  1
16.5
 50
90.0
 41
1.125000000000001
  7
ＭＳ ゴシック
100
AcDbText
  0
LWPOLYLINE
  5
278
330
1F
100
AcDbEntity
  8
0-B_寸法
  6
Continuous
 62
     7
370
     9
100
AcDbPolyline
 90
        4
 70
     1
 43
3.0
 10
1310.761788237523
 20
-1355.470528308962
 42
0.4142135623731
 10
1309.261788237523
 20
-1353.970528308962
 42
0.4142135623731
 10
1307.761788237523
 20
-1355.470528308962
 42
0.4142135623731
 10
1309.261788237523
 20
-1356.970528308962
 42
0.4142135623731
  0
LWPOLYLINE
  5
279
330
1F
100
AcDbEntity
  8
0-B_寸法
  6
Continuous
 62
     7
370
     9
100
AcDbPolyline
 90
        4
 70
     1
 43
3.0
 10
1310.761788237523
 20
-1380.220528308962
 42
0.4142135623731
 10
1309.261788237523
 20
-1378.720528308962
 42
0.4142135623731
 10
1307.761788237523
 20
-1380.220528308962
 42
0.4142135623731
 10
1309.261788237523
 20
-1381.720528308962
 42
0.4142135623731
  0
LINE
  5
27A
330
1F
100
AcDbEntity
  8
0-B_寸法
  6
Continuous
 62
   120
370
     5
100
AcDbLine
 10
1159.261788237523
 20
-1355.470528308962
 30
0.0
 11
1459.261788237523
 21
-1355.470528308962
 31
0.0
  0
LINE
  5
27B
330
1F
100
AcDbEntity
  8
0-B_寸法
  6
Continuous
 62
   120
370
     5
100
AcDbLine
 10
1309.261788237523
 20
-1380.220528308962
 30
0.0
 11
1459.261788237523
 21
-1380.220528308962
 31
0.0
  0
LINE
  5
27C
330
1F
100
AcDbEntity
  8
0-B_寸法
  6
Continuous
 62
   120
370
     5
100
AcDbLine
 10
1309.261788237523
 20
-1380.220528308962
 30
0.0
 11
1309.261788237523
 21
-2265.220528308962
 31
0.0
  0
TEXT
  5
27D
330
1F
100
AcDbEntity
  8
0-B_寸法
  6
Continuous
 62
     7
370
   211
100
AcDbText
 10
2279.071788237522
 20
-1577.845528308962
 30
0.0
 40
68.58
  1
161.5
 50
90.0
 41
0.9
  7
ＭＳ ゴシック
100
AcDbText
  0
LINE
  5
27E
330
1F
100
AcDbEntity
  8
0-B_寸法
  6
Continuous
 62
   120
370
     5
100
AcDbLine
 10
1159.261788237523
 20
-1355.470528308962
 30
0.0
 11
1159.261788237523
 21
-2289.970528308962
 31
0.0
  0
LWPOLYLINE
  5
27F
330
1F
100
AcDbEntity
  8
0-B_寸法
  6
Continuous
 62
     7
370
     9
100
AcDbPolyline
 90
        4
 70
     1
 43
3.0
 10
1160.761788237523
 20
-1355.470528308962
 42
0.4142135623731
 10
1159.261788237523
 20
-1353.970528308962
 42
0.4142135623731
 10
1157.761788237523
 20
-1355.470528308962
 42
0.4142135623731
 10
1159.261788237523
 20
-1356.970528308962
 42
0.4142135623731
  0
LINE
  5
280
330
1F
100
AcDbEntity
  8
0-B_寸法
  6
Continuous
 62
   120
370
     5
100
AcDbLine
 10
1309.261788237523
 20
-1138.899282411993
 30
0.0
 11
1309.261788237523
 21
-1380.220528308962
 31
0.0
  0
TEXT
  5
281
330
1F
100
AcDbEntity
  8
0-B_寸法
  6
Continuous
 62
     7
370
   211
100
AcDbText
 10
2011.695749378957
 20
-1570.030528308962
 30
0.0
 40
68.58
  1
3
  7
ＭＳ ゴシック
100
AcDbText
  0
TEXT
  5
282
330
1F
100
AcDbEntity
  8
0-B_寸法
  6
Continuous
 62
     7
370
   211
100
AcDbText
 10
1791.104718878959
 20
-1789.645528308962
 30
0.0
 40
57.15000000000001
  1
P30
 41
0.9999999999999999
  7
ＭＳ ゴシック
100
AcDbText
  0
TEXT
  5
283
330
1F
100
AcDbEntity
  8
0-B_寸法
  6
Continuous
 62
     7
370
   211
100
AcDbText
 10
1131.571788237522
 20
-1897.720528308962
 30
0.0
 40
68.58
  1
623
 50
90.0
 41
1.111111111111111
  7
ＭＳ ゴシック
100
AcDbText
  0
LWPOLYLINE
  5
284
330
1F
100
AcDbEntity
  8
0-B_寸法
  6
Continuous
 62
     7
370
     9
100
AcDbPolyline
 90
        4
 70
     1
 43
3.0
 10
2065.261788237521
 20
-1597.720528308962
 42
0.4142135623731
 10
2063.761788237522
 20
-1596.220528308962
 42
0.4142135623731
 10
2062.261788237522
 20
-1597.720528308962
 42
0.4142135623731
 10
2063.761788237522
 20
-1599.220528308962
 42
0.4142135623731
  0
LINE
  5
285
330
1F
100
AcDbEntity
  8
0-B_寸法
  6
Continuous
 62
   120
370
     5
100
AcDbLine
 10
2063.761788237522
 20
-1597.720528308962
 30
0.0
 11
2068.261788237523
 21
-1597.720528308962
 31
0.0
  0
LWPOLYLINE
  5
286
330
1F
100
AcDbEntity
  8
0-B_寸法
  6
Continuous
 62
     7
370
     9
100
AcDbPolyline
 90
        4
 70
     1
 43
3.0
 10
2069.761788237523
 20
-1597.720528308962
 42
0.4142135623731
 10
2068.261788237523
 20
-1596.220528308962
 42
0.4142135623731
 10
2066.761788237523
 20
-1597.720528308962
 42
0.4142135623731
 10
2068.261788237523
 20
-1599.220528308962
 42
0.4142135623731
  0
LINE
  5
287
330
1F
100
AcDbEntity
  8
0-B_寸法
  6
Continuous
 62
   120
370
     5
100
AcDbLine
 10
2306.761788237523
 20
-1597.720528308962
 30
0.0
 11
2156.761788237523
 21
-1597.720528308962
 31
0.0
  0
LWPOLYLINE
  5
288
330
1F
100
AcDbEntity
  8
0-B_寸法
  6
Continuous
 62
     7
370
     9
100
AcDbPolyline
 90
        4
 70
     1
 43
3.0
 10
2308.261788237523
 20
-1597.720528308962
 42
0.4142135623731
 10
2306.761788237523
 20
-1596.220528308962
 42
0.4142135623731
 10
2305.261788237523
 20
-1597.720528308962
 42
0.4142135623731
 10
2306.761788237523
 20
-1599.220528308962
 42
0.4142135623731
  0
LINE
  5
289
330
1F
100
AcDbEntity
  8
0-B_寸法
  6
Continuous
 62
   120
370
     5
100
AcDbLine
 10
2306.761788237523
 20
-1355.470528308962
 30
0.0
 11
2306.761788237523
 21
-1597.720528308962
 31
0.0
  0
LINE
  5
28A
330
1F
100
AcDbEntity
  8
0-0_補助線
  6
JWW_HOJO
 62
   120
370
     5
100
AcDbLine
 10
1564.261788237523
 20
-1642.720528308962
 30
0.0
 11
2081.761788237523
 21
-1642.720528308962
 31
0.0
  0
LINE
  5
28B
330
1F
100
AcDbEntity
  8
0-0_補助線
  6
JWW_HOJO
 62
   120
370
     5
100
AcDbLine
 10
2081.761788237523
 20
-1597.720528308962
 30
0.0
 11
1564.261788237523
 21
-1597.720528308962
 31
0.0
  0
LINE
  5
28C
330
1F
100
AcDbEntity
  8
0-B_寸法
  6
Continuous
 62
   120
370
     5
100
AcDbLine
 10
2306.761788237523
 20
-2047.720528308962
 30
0.0
 11
2306.761788237523
 21
-2289.970528308962
 31
0.0
  0
LINE
  5
28D
330
1F
100
AcDbEntity
  8
0-B_寸法
  6
Continuous
 62
   120
370
     5
100
AcDbLine
 10
2306.761788237523
 20
-2047.720528308962
 30
0.0
 11
2156.761788237523
 21
-2047.720528308962
 31
0.0
  0
LWPOLYLINE
  5
28E
330
1F
100
AcDbEntity
  8
0-B_寸法
  6
Continuous
 62
     7
370
     9
100
AcDbPolyline
 90
        4
 70
     1
 43
3.0
 10
2308.261788237523
 20
-2047.720528308962
 42
0.4142135623731
 10
2306.761788237523
 20
-2046.220528308962
 42
0.4142135623731
 10
2305.261788237523
 20
-2047.720528308962
 42
0.4142135623731
 10
2306.761788237523
 20
-2049.220528308962
 42
0.4142135623731
  0
LINE
  5
28F
330
1F
100
AcDbEntity
  8
0-B_寸法
  6
Continuous
 62
   120
370
     5
100
AcDbLine
 10
2306.761788237523
 20
-1597.720528308962
 30
0.0
 11
2306.761788237523
 21
-2047.720528308962
 31
0.0
  0
LINE
  5
290
330
1F
100
AcDbEntity
  8
0-0_補助線
  6
JWW_HOJO
 62
   120
370
     5
100
AcDbLine
 10
1564.261788237523
 20
-2047.720528308962
 30
0.0
 11
2081.761788237523
 21
-2047.720528308962
 31
0.0
  0
LINE
  5
291
330
1F
100
AcDbEntity
  8
0-0_補助線
  6
JWW_HOJO
 62
   120
370
     5
100
AcDbLine
 10
1564.261788237523
 20
-2002.720528308962
 30
0.0
 11
2081.761788237523
 21
-2002.720528308962
 31
0.0
  0
LINE
  5
292
330
1F
100
AcDbEntity
  8
0-0_補助線
  6
JWW_HOJO
 62
   120
370
     5
100
AcDbLine
 10
1564.261788237523
 20
-1957.720528308962
 30
0.0
 11
2081.761788237523
 21
-1957.720528308962
 31
0.0
  0
LINE
  5
293
330
1F
100
AcDbEntity
  8
0-0_補助線
  6
JWW_HOJO
 62
   120
370
     5
100
AcDbLine
 10
1564.261788237523
 20
-1912.720528308962
 30
0.0
 11
2081.761788237523
 21
-1912.720528308962
 31
0.0
  0
LINE
  5
294
330
1F
100
AcDbEntity
  8
0-0_補助線
  6
JWW_HOJO
 62
   120
370
     5
100
AcDbLine
 10
1564.261788237523
 20
-1867.720528308962
 30
0.0
 11
2081.761788237523
 21
-1867.720528308962
 31
0.0
  0
LINE
  5
295
330
1F
100
AcDbEntity
  8
0-0_補助線
  6
JWW_HOJO
 62
   120
370
     5
100
AcDbLine
 10
1564.261788237523
 20
-1822.720528308962
 30
0.0
 11
2081.761788237523
 21
-1822.720528308962
 31
0.0
  0
LINE
  5
296
330
1F
100
AcDbEntity
  8
0-0_補助線
  6
JWW_HOJO
 62
   120
370
     5
100
AcDbLine
 10
1564.261788237523
 20
-1777.720528308962
 30
0.0
 11
2081.761788237523
 21
-1777.720528308962
 31
0.0
  0
LINE
  5
297
330
1F
100
AcDbEntity
  8
0-0_補助線
  6
JWW_HOJO
 62
   120
370
     5
100
AcDbLine
 10
1564.261788237523
 20
-1732.720528308962
 30
0.0
 11
2081.761788237523
 21
-1732.720528308962
 31
0.0
  0
LINE
  5
298
330
1F
100
AcDbEntity
  8
0-0_補助線
  6
JWW_HOJO
 62
   120
370
     5
100
AcDbLine
 10
1564.261788237523
 20
-1687.720528308962
 30
0.0
 11
2081.761788237523
 21
-1687.720528308962
 31
0.0
  0
TEXT
  5
299
330
1F
100
AcDbEntity
  8
0-B_寸法
  6
Continuous
 62
     7
370
   211
100
AcDbText
 10
2279.071788237522
 20
-1897.720528308962
 30
0.0
 40
68.58
  1
300
 50
90.0
 41
1.111111111111113
  7
ＭＳ ゴシック
100
AcDbText
  0
TEXT
  5
29A
330
1F
100
AcDbEntity
  8
0-B_寸法
  6
Continuous
 62
     7
370
   211
100
AcDbText
 10
1281.571788237522
 20
-2055.220528308962
 30
0.0
 40
68.58
  1
ＤＨ＝590
 50
90.0
 41
1.148148148148148
  7
ＭＳ ゴシック
100
AcDbText
  0
TEXT
  5
29B
330
1F
100
AcDbEntity
  8
0-B_寸法
  6
Continuous
 62
     7
370
   211
100
AcDbText
 10
2279.071788237522
 20
-2270.095528308962
 30
0.0
 40
68.58
  1
161.5
 50
90.0
 41
0.9
  7
ＭＳ ゴシック
100
AcDbText
  0
LINE
  5
29C
330
1F
100
AcDbEntity
  8
0-4_棚
  6
Continuous
 62
    40
370
    15
100
AcDbLine
 10
2063.761788237522
 20
-1665.220528308962
 30
0.0
 11
2063.761788237522
 21
-1687.720528308962
 31
0.0
  0
LINE
  5
29D
330
1F
100
AcDbEntity
  8
0-4_棚
  6
Continuous
 62
    40
370
    15
100
AcDbLine
 10
1628.761788237522
 20
-1665.220528308962
 30
0.0
 11
2063.761788237522
 21
-1665.220528308962
 31
0.0
  0
LINE
  5
29E
330
1F
100
AcDbEntity
  8
0-4_棚
  6
Continuous
 62
    40
370
    15
100
AcDbLine
 10
1628.761788237522
 20
-1687.720528308962
 30
0.0
 11
1628.761788237522
 21
-1665.220528308962
 31
0.0
  0
LINE
  5
29F
330
1F
100
AcDbEntity
  8
0-4_棚
  6
Continuous
 62
    40
370
    15
100
AcDbLine
 10
2063.761788237522
 20
-1687.720528308962
 30
0.0
 11
1628.761788237522
 21
-1687.720528308962
 31
0.0
  0
LINE
  5
2A0
330
1F
100
AcDbEntity
  8
0-4_棚
  6
Continuous
 62
    40
370
    15
100
AcDbLine
 10
2063.761788237522
 20
-1935.220528308962
 30
0.0
 11
2063.761788237522
 21
-1957.720528308962
 31
0.0
  0
LINE
  5
2A1
330
1F
100
AcDbEntity
  8
0-4_棚
  6
Continuous
 62
    40
370
    15
100
AcDbLine
 10
1628.761788237522
 20
-1935.220528308962
 30
0.0
 11
2063.761788237522
 21
-1935.220528308962
 31
0.0
  0
LINE
  5
2A2
330
1F
100
AcDbEntity
  8
0-4_棚
  6
Continuous
 62
    40
370
    15
100
AcDbLine
 10
1628.761788237522
 20
-1957.720528308962
 30
0.0
 11
1628.761788237522
 21
-1935.220528308962
 31
0.0
  0
LINE
  5
2A3
330
1F
100
AcDbEntity
  8
0-4_棚
  6
Continuous
 62
    40
370
    15
100
AcDbLine
 10
2063.761788237522
 20
-1957.720528308962
 30
0.0
 11
1628.761788237522
 21
-1957.720528308962
 31
0.0
  0
TEXT
  5
2A4
330
1F
100
AcDbEntity
  8
0-B_寸法
  6
Continuous
 62
     7
370
   211
100
AcDbText
 10
1281.571788237522
 20
-2508.032112946287
 30
0.0
 40
68.58
  1
16.5
 50
90.0
 41
1.125
  7
ＭＳ ゴシック
100
AcDbText
  0
LINE
  5
2A5
330
1F
100
AcDbEntity
  8
0-B_寸法
  6
Continuous
 62
   120
370
     5
100
AcDbLine
 10
1757.761788237522
 20
-1777.720528308962
 30
0.0
 11
1697.761788237522
 21
-1777.720528308962
 31
0.0
  0
LINE
  5
2A6
330
1F
100
AcDbEntity
  8
0-B_寸法
  6
Continuous
 62
   120
370
     5
100
AcDbLine
 10
1757.761788237522
 20
-1732.720528308962
 30
0.0
 11
1697.761788237522
 21
-1732.720528308962
 31
0.0
  0
LWPOLYLINE
  5
2A7
330
1F
100
AcDbEntity
  8
0-B_寸法
  6
Continuous
 62
     7
370
     9
100
AcDbPolyline
 90
        4
 70
     1
 43
3.0
 10
1759.261788237522
 20
-1777.720528308962
 42
0.4142135623731
 10
1757.761788237522
 20
-1776.220528308963
 42
0.4142135623731
 10
1756.261788237522
 20
-1777.720528308962
 42
0.4142135623731
 10
1757.761788237522
 20
-1779.220528308962
 42
0.4142135623731
  0
LWPOLYLINE
  5
2A8
330
1F
100
AcDbEntity
  8
0-B_寸法
  6
Continuous
 62
     7
370
     9
100
AcDbPolyline
 90
        4
 70
     1
 43
3.0
 10
1759.261788237522
 20
-1732.720528308962
 42
0.4142135623731
 10
1757.761788237522
 20
-1731.220528308963
 42
0.4142135623731
 10
1756.261788237522
 20
-1732.720528308962
 42
0.4142135623731
 10
1757.761788237522
 20
-1734.220528308962
 42
0.4142135623731
  0
LINE
  5
2A9
330
1F
100
AcDbEntity
  8
0-B_寸法
  6
Continuous
 62
   120
370
     5
100
AcDbLine
 10
1757.761788237522
 20
-1732.720528308962
 30
0.0
 11
1757.761788237522
 21
-1777.720528308962
 31
0.0
  0
LWPOLYLINE
  5
2AA
330
1F
100
AcDbEntity
  8
0-5_ダボ
  6
Continuous
 62
     7
370
     9
100
AcDbPolyline
 90
        4
 70
     1
 43
3.0
 10
2036.761788237522
 20
-1597.720528308962
 42
0.4142135623731
 10
2035.261788237522
 20
-1596.220528308962
 42
0.4142135623731
 10
2033.761788237522
 20
-1597.720528308962
 42
0.4142135623731
 10
2035.261788237522
 20
-1599.220528308962
 42
0.4142135623731
  0
LWPOLYLINE
  5
2AB
330
1F
100
AcDbEntity
  8
0-5_ダボ
  6
Continuous
 62
     7
370
     9
100
AcDbPolyline
 90
        4
 70
     1
 43
3.0
 10
2036.761788237522
 20
-1642.720528308962
 42
0.4142135623731
 10
2035.261788237522
 20
-1641.220528308962
 42
0.4142135623731
 10
2033.761788237522
 20
-1642.720528308962
 42
0.4142135623731
 10
2035.261788237522
 20
-1644.220528308962
 42
0.4142135623731
  0
LWPOLYLINE
  5
2AC
330
1F
100
AcDbEntity
  8
0-5_ダボ
  6
Continuous
 62
     7
370
     9
100
AcDbPolyline
 90
        4
 70
     1
 43
3.0
 10
1652.761788237522
 20
-1642.720528308962
 42
0.4142135623731
 10
1651.261788237522
 20
-1641.220528308962
 42
0.4142135623731
 10
1649.761788237522
 20
-1642.720528308962
 42
0.4142135623731
 10
1651.261788237522
 20
-1644.220528308962
 42
0.4142135623731
  0
LWPOLYLINE
  5
2AD
330
1F
100
AcDbEntity
  8
0-5_ダボ
  6
Continuous
 62
     7
370
     9
100
AcDbPolyline
 90
        4
 70
     1
 43
3.0
 10
1652.761788237522
 20
-1597.720528308962
 42
0.4142135623731
 10
1651.261788237522
 20
-1596.220528308962
 42
0.4142135623731
 10
1649.761788237522
 20
-1597.720528308962
 42
0.4142135623731
 10
1651.261788237522
 20
-1599.220528308962
 42
0.4142135623731
  0
LWPOLYLINE
  5
2AE
330
1F
100
AcDbEntity
  8
0-5_ダボ
  6
Continuous
 62
     7
370
     9
100
AcDbPolyline
 90
        4
 70
     1
 43
3.0
 10
2036.761788237522
 20
-2047.720528308962
 42
0.4142135623731
 10
2035.261788237522
 20
-2046.220528308962
 42
0.4142135623731
 10
2033.761788237522
 20
-2047.720528308962
 42
0.4142135623731
 10
2035.261788237522
 20
-2049.220528308962
 42
0.4142135623731
  0
LWPOLYLINE
  5
2AF
330
1F
100
AcDbEntity
  8
0-5_ダボ
  6
Continuous
 62
     7
370
     9
100
AcDbPolyline
 90
        4
 70
     1
 43
3.0
 10
1652.761788237522
 20
-2047.720528308962
 42
0.4142135623731
 10
1651.261788237522
 20
-2046.220528308962
 42
0.4142135623731
 10
1649.761788237522
 20
-2047.720528308962
 42
0.4142135623731
 10
1651.261788237522
 20
-2049.220528308962
 42
0.4142135623731
  0
LWPOLYLINE
  5
2B0
330
1F
100
AcDbEntity
  8
0-5_ダボ
  6
Continuous
 62
     7
370
     9
100
AcDbPolyline
 90
        4
 70
     1
 43
3.0
 10
2036.761788237522
 20
-2002.720528308962
 42
0.4142135623731
 10
2035.261788237522
 20
-2001.220528308962
 42
0.4142135623731
 10
2033.761788237522
 20
-2002.720528308962
 42
0.4142135623731
 10
2035.261788237522
 20
-2004.220528308962
 42
0.4142135623731
  0
LWPOLYLINE
  5
2B1
330
1F
100
AcDbEntity
  8
0-5_ダボ
  6
Continuous
 62
     7
370
     9
100
AcDbPolyline
 90
        4
 70
     1
 43
3.0
 10
1652.761788237522
 20
-2002.720528308962
 42
0.4142135623731
 10
1651.261788237522
 20
-2001.220528308962
 42
0.4142135623731
 10
1649.761788237522
 20
-2002.720528308962
 42
0.4142135623731
 10
1651.261788237522
 20
-2004.220528308962
 42
0.4142135623731
  0
LWPOLYLINE
  5
2B2
330
1F
100
AcDbEntity
  8
0-5_ダボ
  6
Continuous
 62
     7
370
     9
100
AcDbPolyline
 90
        4
 70
     1
 43
3.0
 10
2036.761788237522
 20
-1957.720528308962
 42
0.4142135623731
 10
2035.261788237522
 20
-1956.220528308962
 42
0.4142135623731
 10
2033.761788237522
 20
-1957.720528308962
 42
0.4142135623731
 10
2035.261788237522
 20
-1959.220528308962
 42
0.4142135623731
  0
LWPOLYLINE
  5
2B3
330
1F
100
AcDbEntity
  8
0-5_ダボ
  6
Continuous
 62
     7
370
     9
100
AcDbPolyline
 90
        4
 70
     1
 43
3.0
 10
1652.761788237522
 20
-1957.720528308962
 42
0.4142135623731
 10
1651.261788237522
 20
-1956.220528308962
 42
0.4142135623731
 10
1649.761788237522
 20
-1957.720528308962
 42
0.4142135623731
 10
1651.261788237522
 20
-1959.220528308962
 42
0.4142135623731
  0
LWPOLYLINE
  5
2B4
330
1F
100
AcDbEntity
  8
0-5_ダボ
  6
Continuous
 62
     7
370
     9
100
AcDbPolyline
 90
        4
 70
     1
 43
3.0
 10
2036.761788237522
 20
-1912.720528308962
 42
0.4142135623731
 10
2035.261788237522
 20
-1911.220528308963
 42
0.4142135623731
 10
2033.761788237522
 20
-1912.720528308962
 42
0.4142135623731
 10
2035.261788237522
 20
-1914.220528308962
 42
0.4142135623731
  0
LWPOLYLINE
  5
2B5
330
1F
100
AcDbEntity
  8
0-5_ダボ
  6
Continuous
 62
     7
370
     9
100
AcDbPolyline
 90
        4
 70
     1
 43
3.0
 10
1652.761788237522
 20
-1912.720528308962
 42
0.4142135623731
 10
1651.261788237522
 20
-1911.220528308963
 42
0.4142135623731
 10
1649.761788237522
 20
-1912.720528308962
 42
0.4142135623731
 10
1651.261788237522
 20
-1914.220528308962
 42
0.4142135623731
  0
LWPOLYLINE
  5
2B6
330
1F
100
AcDbEntity
  8
0-5_ダボ
  6
Continuous
 62
     7
370
     9
100
AcDbPolyline
 90
        4
 70
     1
 43
3.0
 10
2036.761788237522
 20
-1867.720528308962
 42
0.4142135623731
 10
2035.261788237522
 20
-1866.220528308963
 42
0.4142135623731
 10
2033.761788237522
 20
-1867.720528308962
 42
0.4142135623731
 10
2035.261788237522
 20
-1869.220528308962
 42
0.4142135623731
  0
LWPOLYLINE
  5
2B7
330
1F
100
AcDbEntity
  8
0-5_ダボ
  6
Continuous
 62
     7
370
     9
100
AcDbPolyline
 90
        4
 70
     1
 43
3.0
 10
1652.761788237522
 20
-1867.720528308962
 42
0.4142135623731
 10
1651.261788237522
 20
-1866.220528308963
 42
0.4142135623731
 10
1649.761788237522
 20
-1867.720528308962
 42
0.4142135623731
 10
1651.261788237522
 20
-1869.220528308962
 42
0.4142135623731
  0
LWPOLYLINE
  5
2B8
330
1F
100
AcDbEntity
  8
0-5_ダボ
  6
Continuous
 62
     7
370
     9
100
AcDbPolyline
 90
        4
 70
     1
 43
3.0
 10
2036.761788237522
 20
-1822.720528308962
 42
0.4142135623731
 10
2035.261788237522
 20
-1821.220528308963
 42
0.4142135623731
 10
2033.761788237522
 20
-1822.720528308962
 42
0.4142135623731
 10
2035.261788237522
 20
-1824.220528308962
 42
0.4142135623731
  0
LWPOLYLINE
  5
2B9
330
1F
100
AcDbEntity
  8
0-5_ダボ
  6
Continuous
 62
     7
370
     9
100
AcDbPolyline
 90
        4
 70
     1
 43
3.0
 10
1652.761788237522
 20
-1822.720528308962
 42
0.4142135623731
 10
1651.261788237522
 20
-1821.220528308963
 42
0.4142135623731
 10
1649.761788237522
 20
-1822.720528308962
 42
0.4142135623731
 10
1651.261788237522
 20
-1824.220528308962
 42
0.4142135623731
  0
LWPOLYLINE
  5
2BA
330
1F
100
AcDbEntity
  8
0-5_ダボ
  6
Continuous
 62
     7
370
     9
100
AcDbPolyline
 90
        4
 70
     1
 43
3.0
 10
2036.761788237522
 20
-1777.720528308962
 42
0.4142135623731
 10
2035.261788237522
 20
-1776.220528308963
 42
0.4142135623731
 10
2033.761788237522
 20
-1777.720528308962
 42
0.4142135623731
 10
2035.261788237522
 20
-1779.220528308962
 42
0.4142135623731
  0
LWPOLYLINE
  5
2BB
330
1F
100
AcDbEntity
  8
0-5_ダボ
  6
Continuous
 62
     7
370
     9
100
AcDbPolyline
 90
        4
 70
     1
 43
3.0
 10
1652.761788237522
 20
-1777.720528308962
 42
0.4142135623731
 10
1651.261788237522
 20
-1776.220528308963
 42
0.4142135623731
 10
1649.761788237522
 20
-1777.720528308962
 42
0.4142135623731
 10
1651.261788237522
 20
-1779.220528308962
 42
0.4142135623731
  0
LWPOLYLINE
  5
2BC
330
1F
100
AcDbEntity
  8
0-5_ダボ
  6
Continuous
 62
     7
370
     9
100
AcDbPolyline
 90
        4
 70
     1
 43
3.0
 10
2036.761788237522
 20
-1732.720528308962
 42
0.4142135623731
 10
2035.261788237522
 20
-1731.220528308963
 42
0.4142135623731
 10
2033.761788237522
 20
-1732.720528308962
 42
0.4142135623731
 10
2035.261788237522
 20
-1734.220528308962
 42
0.4142135623731
  0
LWPOLYLINE
  5
2BD
330
1F
100
AcDbEntity
  8
0-5_ダボ
  6
Continuous
 62
     7
370
     9
100
AcDbPolyline
 90
        4
 70
     1
 43
3.0
 10
1652.761788237522
 20
-1732.720528308962
 42
0.4142135623731
 10
1651.261788237522
 20
-1731.220528308963
 42
0.4142135623731
 10
1649.761788237522
 20
-1732.720528308962
 42
0.4142135623731
 10
1651.261788237522
 20
-1734.220528308962
 42
0.4142135623731
  0
LWPOLYLINE
  5
2BE
330
1F
100
AcDbEntity
  8
0-5_ダボ
  6
Continuous
 62
     7
370
     9
100
AcDbPolyline
 90
        4
 70
     1
 43
3.0
 10
2036.761788237522
 20
-1687.720528308962
 42
0.4142135623731
 10
2035.261788237522
 20
-1686.220528308962
 42
0.4142135623731
 10
2033.761788237522
 20
-1687.720528308962
 42
0.4142135623731
 10
2035.261788237522
 20
-1689.220528308962
 42
0.4142135623731
  0
LWPOLYLINE
  5
2BF
330
1F
100
AcDbEntity
  8
0-5_ダボ
  6
Continuous
 62
     7
370
     9
100
AcDbPolyline
 90
        4
 70
     1
 43
3.0
 10
1652.761788237522
 20
-1687.720528308962
 42
0.4142135623731
 10
1651.261788237522
 20
-1686.220528308962
 42
0.4142135623731
 10
1649.761788237522
 20
-1687.720528308962
 42
0.4142135623731
 10
1651.261788237522
 20
-1689.220528308962
 42
0.4142135623731
  0
LINE
  5
2C0
330
1F
100
AcDbEntity
  8
0-1_本体
  6
Continuous
 62
    40
370
    15
100
AcDbLine
 10
3975.115948770346
 20
-1355.470528308963
 30
0.0
 11
3457.615948770346
 21
-1355.470528308963
 31
0.0
  0
LINE
  5
2C1
330
1F
100
AcDbEntity
  8
0-1_本体
  6
Continuous
 62
    40
370
    15
100
AcDbLine
 10
3457.615948770346
 20
-1355.470528308963
 30
0.0
 11
3457.615948770346
 21
-1387.720528308963
 31
0.0
  0
LINE
  5
2C2
330
1F
100
AcDbEntity
  8
0-1_本体
  6
Continuous
 62
    40
370
    15
100
AcDbLine
 10
3975.115948770346
 20
-1387.720528308963
 30
0.0
 11
3975.115948770346
 21
-1355.470528308963
 31
0.0
  0
LINE
  5
2C3
330
1F
100
AcDbEntity
  8
0-1_本体
  6
Continuous
 62
    40
370
    15
100
AcDbLine
 10
3957.115948770346
 20
-1377.220528308963
 30
0.0
 11
3961.615948770346
 21
-1377.220528308963
 31
0.0
  0
LINE
  5
2C4
330
1F
100
AcDbEntity
  8
0-1_本体
  6
Continuous
 62
    40
370
    15
100
AcDbLine
 10
3457.615948770346
 20
-1387.720528308963
 30
0.0
 11
3957.115948770346
 21
-1387.720528308963
 31
0.0
  0
LINE
  5
2C5
330
1F
100
AcDbEntity
  8
0-1_本体
  6
Continuous
 62
    40
370
    15
100
AcDbLine
 10
3961.615948770346
 20
-1387.720528308963
 30
0.0
 11
3975.115948770346
 21
-1387.720528308963
 31
0.0
  0
LINE
  5
2C6
330
1F
100
AcDbEntity
  8
0-6_カウンター
  6
Continuous
 62
    92
370
    13
100
AcDbLine
 10
3961.615948770346
 20
-1387.720528308963
 30
0.0
 11
3975.115948770346
 21
-1387.720528308963
 31
0.0
  0
LINE
  5
2C7
330
1F
100
AcDbEntity
  8
0-6_カウンター
  6
Continuous
 62
    92
370
    13
100
AcDbLine
 10
3975.115948770346
 20
-1387.720528308963
 30
0.0
 11
3975.115948770346
 21
-1470.220528308963
 31
0.0
  0
LINE
  5
2C8
330
1F
100
AcDbEntity
  8
0-6_カウンター
  6
Continuous
 62
    92
370
    13
100
AcDbLine
 10
3975.115948770346
 20
-1470.220528308963
 30
0.0
 11
3961.615948770346
 21
-1470.220528308963
 31
0.0
  0
LINE
  5
2C9
330
1F
100
AcDbEntity
  8
0-6_カウンター
  6
Continuous
 62
    92
370
    13
100
AcDbLine
 10
3961.615948770346
 20
-1470.220528308963
 30
0.0
 11
3961.615948770346
 21
-1387.720528308963
 31
0.0
  0
LINE
  5
2CA
330
1F
100
AcDbEntity
  8
0-6_カウンター
  6
Continuous
 62
     7
370
     9
100
AcDbLine
 10
3961.615948770346
 20
-1470.220528308963
 30
0.0
 11
3975.115948770346
 21
-1387.720528308963
 31
0.0
  0
LINE
  5
2CB
330
1F
100
AcDbEntity
  8
0-2_扉
  6
Continuous
 62
    40
370
    15
100
AcDbLine
 10
3457.615948770346
 20
-1380.220528308963
 30
0.0
 11
3427.615948770346
 21
-1380.220528308963
 31
0.0
  0
LINE
  5
2CC
330
1F
100
AcDbEntity
  8
0-1_本体
  6
Continuous
 62
    40
370
    15
100
AcDbLine
 10
3975.115948770346
 20
-2289.970528308963
 30
0.0
 11
3457.615948770346
 21
-2289.970528308963
 31
0.0
  0
LINE
  5
2CD
330
1F
100
AcDbEntity
  8
0-1_本体
  6
Continuous
 62
    40
370
    15
100
AcDbLine
 10
3457.615948770346
 20
-2289.970528308963
 30
0.0
 11
3457.615948770346
 21
-2257.720528308963
 31
0.0
  0
LINE
  5
2CE
330
1F
100
AcDbEntity
  8
0-1_本体
  6
Continuous
 62
    40
370
    15
100
AcDbLine
 10
3975.115948770346
 20
-2257.720528308963
 30
0.0
 11
3975.115948770346
 21
-2289.970528308963
 31
0.0
  0
LINE
  5
2CF
330
1F
100
AcDbEntity
  8
0-1_本体
  6
Continuous
 62
    40
370
    15
100
AcDbLine
 10
3957.115948770346
 20
-2268.220528308963
 30
0.0
 11
3961.615948770346
 21
-2268.220528308963
 31
0.0
  0
LINE
  5
2D0
330
1F
100
AcDbEntity
  8
0-1_本体
  6
Continuous
 62
    40
370
    15
100
AcDbLine
 10
3457.615948770346
 20
-2257.720528308963
 30
0.0
 11
3957.115948770346
 21
-2257.720528308963
 31
0.0
  0
LINE
  5
2D1
330
1F
100
AcDbEntity
  8
0-1_本体
  6
Continuous
 62
    40
370
    15
100
AcDbLine
 10
3961.615948770346
 20
-2257.720528308963
 30
0.0
 11
3975.115948770346
 21
-2257.720528308963
 31
0.0
  0
LINE
  5
2D2
330
1F
100
AcDbEntity
  8
0-1_本体
  6
Continuous
 62
    40
370
    15
100
AcDbLine
 10
3957.115948770346
 20
-2268.220528308963
 30
0.0
 11
3957.115948770346
 21
-1377.220528308963
 31
0.0
  0
LINE
  5
2D3
330
1F
100
AcDbEntity
  8
0-1_本体
  6
Continuous
 62
    40
370
    15
100
AcDbLine
 10
3961.615948770346
 20
-2268.220528308963
 30
0.0
 11
3961.615948770346
 21
-1377.220528308963
 31
0.0
  0
LINE
  5
2D4
330
1F
100
AcDbEntity
  8
0-6_カウンター
  6
Continuous
 62
    92
370
    13
100
AcDbLine
 10
3961.615948770346
 20
-2257.720528308963
 30
0.0
 11
3975.115948770346
 21
-2257.720528308963
 31
0.0
  0
LINE
  5
2D5
330
1F
100
AcDbEntity
  8
0-4_棚
  6
JWW_CENTER1
 62
     7
370
     9
100
AcDbLine
 10
3457.615948770346
 20
-1563.220528308962
 30
0.0
 11
3907.615948770346
 21
-1563.220528308962
 31
0.0
  0
LWPOLYLINE
  5
2D6
330
1F
100
AcDbEntity
  8
0-5_ダボ
  6
Continuous
 62
    92
370
    13
100
AcDbPolyline
 90
        4
 70
     1
 43
3.0
 10
3501.115948770346
 20
-1553.470528308963
 42
0.4142135623731
 10
3499.615948770346
 20
-1551.970528308963
 42
0.4142135623731
 10
3498.115948770346
 20
-1553.470528308963
 42
0.4142135623731
 10
3499.615948770346
 20
-1554.970528308963
 42
0.4142135623731
  0
LWPOLYLINE
  5
2D7
330
1F
100
AcDbEntity
  8
0-5_ダボ
  6
Continuous
 62
    92
370
    13
100
AcDbPolyline
 90
        4
 70
     1
 43
3.0
 10
3837.115948770346
 20
-1553.470528308963
 42
0.4142135623731
 10
3835.615948770346
 20
-1551.970528308963
 42
0.4142135623731
 10
3834.115948770346
 20
-1553.470528308963
 42
0.4142135623731
 10
3835.615948770346
 20
-1554.970528308963
 42
0.4142135623731
  0
LINE
  5
2D8
330
1F
100
AcDbEntity
  8
0-2_扉
  6
Continuous
 62
    40
370
    15
100
AcDbLine
 10
3427.615948770346
 20
-1380.220528308963
 30
0.0
 11
3427.615948770346
 21
-1585.720528308962
 31
0.0
  0
LINE
  5
2D9
330
1F
100
AcDbEntity
  8
0-2_扉
  6
Continuous
 62
    40
370
    15
100
AcDbLine
 10
3427.615948770346
 20
-1585.720528308962
 30
0.0
 11
3457.615948770346
 21
-1585.720528308962
 31
0.0
  0
LINE
  5
2DA
330
1F
100
AcDbEntity
  8
0-2_扉
  6
Continuous
 62
    40
370
    15
100
AcDbLine
 10
3457.615948770346
 20
-1585.720528308962
 30
0.0
 11
3457.615948770346
 21
-1380.220528308963
 31
0.0
  0
LINE
  5
2DB
330
1F
100
AcDbEntity
  8
0-2_扉
  6
Continuous
 62
    40
370
    15
100
AcDbLine
 10
3427.615948770346
 20
-1611.220528308963
 30
0.0
 11
3457.615948770346
 21
-1611.220528308963
 31
0.0
  0
LINE
  5
2DC
330
1F
100
AcDbEntity
  8
0-7_サイドパネル
  6
JWW_CENTER2
 62
   120
370
     5
100
AcDbLine
 10
3457.615948770346
 20
-1553.470528308963
 30
0.0
 11
3907.615948770346
 21
-1553.470528308963
 31
0.0
  0
LINE
  5
2DD
330
1F
100
AcDbEntity
  8
0-1_本体
  6
Continuous
 62
    40
370
    15
100
AcDbLine
 10
3457.615948770346
 20
-1583.470528308963
 30
0.0
 11
3532.615948770346
 21
-1583.470528308963
 31
0.0
  0
LINE
  5
2DE
330
1F
100
AcDbEntity
  8
0-1_本体
  6
Continuous
 62
    40
370
    15
100
AcDbLine
 10
3532.615948770346
 20
-1615.720528308963
 30
0.0
 11
3457.615948770346
 21
-1615.720528308963
 31
0.0
  0
LINE
  5
2DF
330
1F
100
AcDbEntity
  8
0-1_本体
  6
Continuous
 62
    40
370
    15
100
AcDbLine
 10
3532.615948770346
 20
-1583.470528308963
 30
0.0
 11
3532.615948770346
 21
-1615.720528308963
 31
0.0
  0
LINE
  5
2E0
330
1F
100
AcDbEntity
  8
0-1_本体
  6
Continuous
 62
    40
370
    15
100
AcDbLine
 10
3457.615948770346
 20
-1615.720528308963
 30
0.0
 11
3457.615948770346
 21
-1583.470528308963
 31
0.0
  0
LINE
  5
2E1
330
1F
100
AcDbEntity
  8
0-4_棚
  6
JWW_CENTER1
 62
     7
370
     9
100
AcDbLine
 10
3457.615948770346
 20
-1420.720528308962
 30
0.0
 11
3457.615948770346
 21
-1563.220528308962
 31
0.0
  0
LINE
  5
2E2
330
1F
100
AcDbEntity
  8
0-4_棚
  6
JWW_CENTER1
 62
     7
370
     9
100
AcDbLine
 10
3907.615948770346
 20
-1420.720528308962
 30
0.0
 11
3457.615948770346
 21
-1420.720528308962
 31
0.0
  0
LINE
  5
2E3
330
1F
100
AcDbEntity
  8
0-4_棚
  6
JWW_CENTER1
 62
     7
370
     9
100
AcDbLine
 10
3907.615948770346
 20
-1563.220528308962
 30
0.0
 11
3907.615948770346
 21
-1420.720528308962
 31
0.0
  0
LINE
  5
2E4
330
1F
100
AcDbEntity
  8
0-6_カウンター
  6
Continuous
 62
    92
370
    13
100
AcDbLine
 10
3975.115948770346
 20
-2175.220528308963
 30
0.0
 11
3961.615948770346
 21
-2175.220528308963
 31
0.0
  0
LINE
  5
2E5
330
1F
100
AcDbEntity
  8
0-1_本体
  6
Continuous
 62
     7
370
     9
100
AcDbLine
 10
3975.115948770346
 20
-1470.220528308963
 30
0.0
 11
3975.115948770346
 21
-2175.220528308963
 31
0.0
  0
LINE
  5
2E6
330
1F
100
AcDbEntity
  8
0-6_カウンター
  6
Continuous
 62
    92
370
    13
100
AcDbLine
 10
3975.115948770346
 20
-2257.720528308963
 30
0.0
 11
3975.115948770346
 21
-2175.220528308963
 31
0.0
  0
LINE
  5
2E7
330
1F
100
AcDbEntity
  8
0-6_カウンター
  6
Continuous
 62
    92
370
    13
100
AcDbLine
 10
3961.615948770346
 20
-2175.220528308963
 30
0.0
 11
3961.615948770346
 21
-2257.720528308963
 31
0.0
  0
LINE
  5
2E8
330
1F
100
AcDbEntity
  8
0-6_カウンター
  6
Continuous
 62
     7
370
     9
100
AcDbLine
 10
3961.615948770346
 20
-2257.720528308963
 30
0.0
 11
3975.115948770346
 21
-2175.220528308963
 31
0.0
  0
LINE
  5
2E9
330
1F
100
AcDbEntity
  8
0-1_本体
  6
Continuous
 62
    40
370
    15
100
AcDbLine
 10
3457.615948770346
 20
-1814.470528308962
 30
0.0
 11
3532.615948770346
 21
-1814.470528308962
 31
0.0
  0
LINE
  5
2EA
330
1F
100
AcDbEntity
  8
0-1_本体
  6
Continuous
 62
    40
370
    15
100
AcDbLine
 10
3532.615948770346
 20
-1846.720528308963
 30
0.0
 11
3457.615948770346
 21
-1846.720528308963
 31
0.0
  0
LINE
  5
2EB
330
1F
100
AcDbEntity
  8
0-1_本体
  6
Continuous
 62
    40
370
    15
100
AcDbLine
 10
3532.615948770346
 20
-1814.470528308962
 30
0.0
 11
3532.615948770346
 21
-1846.720528308963
 31
0.0
  0
LINE
  5
2EC
330
1F
100
AcDbEntity
  8
0-1_本体
  6
Continuous
 62
    40
370
    15
100
AcDbLine
 10
3457.615948770346
 20
-1846.720528308963
 30
0.0
 11
3457.615948770346
 21
-1814.470528308962
 31
0.0
  0
LINE
  5
2ED
330
1F
100
AcDbEntity
  8
0-4_棚
  6
JWW_CENTER1
 62
     7
370
     9
100
AcDbLine
 10
3457.615948770346
 20
-1794.220528308963
 30
0.0
 11
3907.615948770346
 21
-1794.220528308963
 31
0.0
  0
LINE
  5
2EE
330
1F
100
AcDbEntity
  8
0-2_扉
  6
Continuous
 62
    40
370
    15
100
AcDbLine
 10
3457.615948770346
 20
-1816.720528308963
 30
0.0
 11
3427.615948770346
 21
-1816.720528308963
 31
0.0
  0
LINE
  5
2EF
330
1F
100
AcDbEntity
  8
0-2_扉
  6
Continuous
 62
    40
370
    15
100
AcDbLine
 10
3427.615948770346
 20
-1816.720528308963
 30
0.0
 11
3427.615948770346
 21
-1611.220528308963
 31
0.0
  0
LINE
  5
2F0
330
1F
100
AcDbEntity
  8
0-2_扉
  6
Continuous
 62
    40
370
    15
100
AcDbLine
 10
3457.615948770346
 20
-1611.220528308963
 30
0.0
 11
3457.615948770346
 21
-1816.720528308963
 31
0.0
  0
LWPOLYLINE
  5
2F1
330
1F
100
AcDbEntity
  8
0-5_ダボ
  6
Continuous
 62
    92
370
    13
100
AcDbPolyline
 90
        4
 70
     1
 43
3.0
 10
3501.115948770346
 20
-1784.470528308962
 42
0.4142135623731
 10
3499.615948770346
 20
-1782.970528308963
 42
0.4142135623731
 10
3498.115948770346
 20
-1784.470528308962
 42
0.4142135623731
 10
3499.615948770346
 20
-1785.970528308962
 42
0.4142135623731
  0
LWPOLYLINE
  5
2F2
330
1F
100
AcDbEntity
  8
0-5_ダボ
  6
Continuous
 62
    92
370
    13
100
AcDbPolyline
 90
        4
 70
     1
 43
3.0
 10
3837.115948770346
 20
-1784.470528308962
 42
0.4142135623731
 10
3835.615948770346
 20
-1782.970528308963
 42
0.4142135623731
 10
3834.115948770346
 20
-1784.470528308962
 42
0.4142135623731
 10
3835.615948770346
 20
-1785.970528308962
 42
0.4142135623731
  0
LINE
  5
2F3
330
1F
100
AcDbEntity
  8
0-7_サイドパネル
  6
JWW_CENTER2
 62
   120
370
     5
100
AcDbLine
 10
3457.615948770346
 20
-1784.470528308962
 30
0.0
 11
3907.615948770346
 21
-1784.470528308962
 31
0.0
  0
LINE
  5
2F4
330
1F
100
AcDbEntity
  8
0-4_棚
  6
JWW_CENTER1
 62
     7
370
     9
100
AcDbLine
 10
3907.615948770346
 20
-1651.720528308963
 30
0.0
 11
3457.615948770346
 21
-1651.720528308963
 31
0.0
  0
LINE
  5
2F5
330
1F
100
AcDbEntity
  8
0-4_棚
  6
JWW_CENTER1
 62
     7
370
     9
100
AcDbLine
 10
3457.615948770346
 20
-1651.720528308963
 30
0.0
 11
3457.615948770346
 21
-1794.220528308963
 31
0.0
  0
LINE
  5
2F6
330
1F
100
AcDbEntity
  8
0-4_棚
  6
JWW_CENTER1
 62
     7
370
     9
100
AcDbLine
 10
3907.615948770346
 20
-1794.220528308963
 30
0.0
 11
3907.615948770346
 21
-1651.720528308963
 31
0.0
  0
LINE
  5
2F7
330
1F
100
AcDbEntity
  8
0-4_棚
  6
JWW_CENTER1
 62
     7
370
     9
100
AcDbLine
 10
3457.615948770346
 20
-2242.720528308963
 30
0.0
 11
3907.615948770346
 21
-2242.720528308963
 31
0.0
  0
LINE
  5
2F8
330
1F
100
AcDbEntity
  8
0-2_扉
  6
Continuous
 62
    40
370
    15
100
AcDbLine
 10
3457.615948770346
 20
-2265.220528308963
 30
0.0
 11
3427.615948770346
 21
-2265.220528308963
 31
0.0
  0
LINE
  5
2F9
330
1F
100
AcDbEntity
  8
0-2_扉
  6
Continuous
 62
    40
370
    15
100
AcDbLine
 10
3427.615948770346
 20
-1842.220528308963
 30
0.0
 11
3457.615948770346
 21
-1842.220528308963
 31
0.0
  0
LINE
  5
2FA
330
1F
100
AcDbEntity
  8
0-2_扉
  6
Continuous
 62
    40
370
    15
100
AcDbLine
 10
3427.615948770346
 20
-2265.220528308963
 30
0.0
 11
3427.615948770346
 21
-1842.220528308963
 31
0.0
  0
LINE
  5
2FB
330
1F
100
AcDbEntity
  8
0-2_扉
  6
Continuous
 62
    40
370
    15
100
AcDbLine
 10
3457.615948770346
 20
-1842.220528308963
 30
0.0
 11
3457.615948770346
 21
-2265.220528308963
 31
0.0
  0
LINE
  5
2FC
330
1F
100
AcDbEntity
  8
0-4_棚
  6
JWW_CENTER1
 62
     7
370
     9
100
AcDbLine
 10
3907.615948770346
 20
-1972.720528308963
 30
0.0
 11
3457.615948770346
 21
-1972.720528308963
 31
0.0
  0
LINE
  5
2FD
330
1F
100
AcDbEntity
  8
0-4_棚
  6
JWW_CENTER1
 62
     7
370
     9
100
AcDbLine
 10
3457.615948770346
 20
-1972.720528308963
 30
0.0
 11
3457.615948770346
 21
-2242.720528308963
 31
0.0
  0
LINE
  5
2FE
330
1F
100
AcDbEntity
  8
0-4_棚
  6
JWW_CENTER1
 62
     7
370
     9
100
AcDbLine
 10
3907.615948770346
 20
-2242.720528308963
 30
0.0
 11
3907.615948770346
 21
-1972.720528308963
 31
0.0
  0
LWPOLYLINE
  5
2FF
330
1F
100
AcDbEntity
  8
0-5_ダボ
  6
Continuous
 62
    92
370
    13
100
AcDbPolyline
 90
        4
 70
     1
 43
3.0
 10
3501.115948770346
 20
-2227.720528308963
 42
0.4142135623731
 10
3499.615948770346
 20
-2226.220528308963
 42
0.4142135623731
 10
3498.115948770346
 20
-2227.720528308963
 42
0.4142135623731
 10
3499.615948770346
 20
-2229.220528308962
 42
0.4142135623731
  0
LWPOLYLINE
  5
300
330
1F
100
AcDbEntity
  8
0-5_ダボ
  6
Continuous
 62
    92
370
    13
100
AcDbPolyline
 90
        4
 70
     1
 43
3.0
 10
3837.115948770346
 20
-2227.720528308963
 42
0.4142135623731
 10
3835.615948770346
 20
-2226.220528308963
 42
0.4142135623731
 10
3834.115948770346
 20
-2227.720528308963
 42
0.4142135623731
 10
3835.615948770346
 20
-2229.220528308962
 42
0.4142135623731
  0
LINE
  5
301
330
1F
100
AcDbEntity
  8
0-7_サイドパネル
  6
JWW_CENTER2
 62
   120
370
     5
100
AcDbLine
 10
3457.615948770346
 20
-2227.720528308963
 30
0.0
 11
3907.615948770346
 21
-2227.720528308963
 31
0.0
  0
TEXT
  5
302
330
1F
100
AcDbEntity
  8
0-A_文字
  6
Continuous
 62
     7
370
     9
100
AcDbText
 10
3502.615948770346
 20
-1508.635528308963
 30
0.0
 40
45.72
  1
ｽﾗｲﾄﾞﾚｰﾙL300
  7
ＭＳ ゴシック
100
AcDbText
  0
TEXT
  5
303
330
1F
100
AcDbEntity
  8
0-A_文字
  6
Continuous
 62
     7
370
     9
100
AcDbText
 10
3502.615948770346
 20
-1739.635528308963
 30
0.0
 40
45.72
  1
ｽﾗｲﾄﾞﾚｰﾙL300
  7
ＭＳ ゴシック
100
AcDbText
  0
TEXT
  5
304
330
1F
100
AcDbEntity
  8
0-A_文字
  6
Continuous
 62
     7
370
     9
100
AcDbText
 10
3502.615948770346
 20
-2121.760528308963
 30
0.0
 40
45.72
  1
ｽﾗｲﾄﾞﾚｰﾙL300
  7
ＭＳ ゴシック
100
AcDbText
  0
LINE
  5
305
330
1F
100
AcDbEntity
  8
0-B_寸法
  6
Continuous
 62
   120
370
     5
100
AcDbLine
 10
3607.986704674479
 20
-1814.470528308963
 30
0.0
 11
3607.986704674479
 21
-1846.720528308963
 31
0.0
  0
LWPOLYLINE
  5
306
330
1F
100
AcDbEntity
  8
0-B_寸法
  6
Continuous
 62
     7
370
     9
100
AcDbPolyline
 90
        4
 70
     1
 43
3.0
 10
3609.486704674479
 20
-1814.470528308963
 42
0.4142135623731
 10
3607.986704674479
 20
-1812.970528308963
 42
0.4142135623731
 10
3606.486704674479
 20
-1814.470528308963
 42
0.4142135623731
 10
3607.986704674479
 20
-1815.970528308963
 42
0.4142135623731
  0
LWPOLYLINE
  5
307
330
1F
100
AcDbEntity
  8
0-B_寸法
  6
Continuous
 62
     7
370
     9
100
AcDbPolyline
 90
        4
 70
     1
 43
3.0
 10
3609.486704674479
 20
-1846.720528308963
 42
0.4142135623731
 10
3607.986704674479
 20
-1845.220528308963
 42
0.4142135623731
 10
3606.486704674479
 20
-1846.720528308963
 42
0.4142135623731
 10
3607.986704674479
 20
-1848.220528308962
 42
0.4142135623731
  0
TEXT
  5
308
330
1F
100
AcDbEntity
  8
0-B_寸法
  6
Continuous
 62
     7
370
   211
100
AcDbText
 10
3672.056820143648
 20
-1916.311815720248
 30
0.0
 40
45.72
  1
21.5
 50
90.0
  7
ＭＳ ゴシック
100
AcDbText
  0
LINE
  5
309
330
1F
100
AcDbEntity
  8
0-B_寸法
  6
Continuous
 62
   120
370
     5
100
AcDbLine
 10
3457.615948770346
 20
-1936.397151550789
 30
0.0
 11
3532.615948770346
 21
-1936.397151550789
 31
0.0
  0
LWPOLYLINE
  5
30A
330
1F
100
AcDbEntity
  8
0-B_寸法
  6
Continuous
 62
     7
370
     9
100
AcDbPolyline
 90
        4
 70
     1
 43
3.0
 10
3459.115948770346
 20
-1936.397151550789
 42
0.4142135623731
 10
3457.615948770346
 20
-1934.897151550789
 42
0.4142135623731
 10
3456.115948770346
 20
-1936.397151550789
 42
0.4142135623731
 10
3457.615948770346
 20
-1937.897151550789
 42
0.4142135623731
  0
LWPOLYLINE
  5
30B
330
1F
100
AcDbEntity
  8
0-B_寸法
  6
Continuous
 62
     7
370
     9
100
AcDbPolyline
 90
        4
 70
     1
 43
3.0
 10
3534.115948770346
 20
-1936.397151550789
 42
0.4142135623731
 10
3532.615948770346
 20
-1934.897151550789
 42
0.4142135623731
 10
3531.115948770346
 20
-1936.397151550789
 42
0.4142135623731
 10
3532.615948770346
 20
-1937.897151550789
 42
0.4142135623731
  0
LINE
  5
30C
330
1F
100
AcDbEntity
  8
0-B_寸法
  6
Continuous
 62
   120
370
     5
100
AcDbLine
 10
3457.615948770346
 20
-1936.397151550789
 30
0.0
 11
3457.615948770346
 21
-1860.844947937071
 31
0.0
  0
LINE
  5
30D
330
1F
100
AcDbEntity
  8
0-B_寸法
  6
Continuous
 62
   120
370
     5
100
AcDbLine
 10
3532.615948770346
 20
-1936.397151550789
 30
0.0
 11
3532.615948770346
 21
-1860.844947937071
 31
0.0
  0
TEXT
  5
30E
330
1F
100
AcDbEntity
  8
0-B_寸法
  6
Continuous
 62
     7
370
   211
100
AcDbText
 10
3465.115948770346
 20
-1912.937151550789
 30
0.0
 40
45.72
  1
50
  7
ＭＳ ゴシック
100
AcDbText
  0
LINE
  5
30F
330
1F
100
AcDbEntity
  8
0-B_寸法
  6
Continuous
 62
   120
370
     5
100
AcDbLine
 10
3607.986704674479
 20
-1814.470528308963
 30
0.0
 11
3542.568658824428
 21
-1814.470528308963
 31
0.0
  0
LINE
  5
310
330
1F
100
AcDbEntity
  8
0-B_寸法
  6
Continuous
 62
   120
370
     5
100
AcDbLine
 10
3607.986704674479
 20
-1846.720528308963
 30
0.0
 11
3542.568658824428
 21
-1846.720528308963
 31
0.0
  0
LINE
  5
311
330
1F
100
AcDbEntity
  8
0-B_寸法
  6
Continuous
 62
   120
370
     5
100
AcDbLine
 10
3957.115948770346
 20
-1590.976479165999
 30
0.0
 11
3975.115948770346
 21
-1590.976479165999
 31
0.0
  0
LWPOLYLINE
  5
312
330
1F
100
AcDbEntity
  8
0-B_寸法
  6
Continuous
 62
     7
370
     9
100
AcDbPolyline
 90
        4
 70
     1
 43
3.0
 10
3958.615948770347
 20
-1590.976479165999
 42
0.4142135623731
 10
3957.115948770346
 20
-1589.476479165999
 42
0.4142135623731
 10
3955.615948770346
 20
-1590.976479165999
 42
0.4142135623731
 10
3957.115948770346
 20
-1592.476479165999
 42
0.4142135623731
  0
LWPOLYLINE
  5
313
330
1F
100
AcDbEntity
  8
0-B_寸法
  6
Continuous
 62
     7
370
     9
100
AcDbPolyline
 90
        4
 70
     1
 43
3.0
 10
3976.615948770346
 20
-1590.976479165999
 42
0.4142135623731
 10
3975.115948770346
 20
-1589.476479165999
 42
0.4142135623731
 10
3973.615948770346
 20
-1590.976479165999
 42
0.4142135623731
 10
3975.115948770346
 20
-1592.476479165999
 42
0.4142135623731
  0
LINE
  5
314
330
1F
100
AcDbEntity
  8
0-B_寸法
  6
Continuous
 62
   120
370
     5
100
AcDbLine
 10
3957.115948770346
 20
-1590.976479165999
 30
0.0
 11
3957.115948770346
 21
-1554.002325844452
 31
0.0
  0
LINE
  5
315
330
1F
100
AcDbEntity
  8
0-B_寸法
  6
Continuous
 62
   120
370
     5
100
AcDbLine
 10
3975.115948770346
 20
-1590.976479165999
 30
0.0
 11
3975.115948770346
 21
-1554.002325844452
 31
0.0
  0
TEXT
  5
316
330
1F
100
AcDbEntity
  8
0-B_寸法
  6
Continuous
 62
     7
370
   211
100
AcDbText
 10
3975.115948770346
 20
-1567.516479165999
 30
0.0
 40
45.72
  1
12
  7
ＭＳ ゴシック
100
AcDbText
  0
LINE
  5
317
330
1F
100
AcDbEntity
  8
0-0_補助線
  6
JWW_HOJO
 62
   120
370
     5
100
AcDbLine
 10
1459.261788237523
 20
-2442.408943671638
 30
0.0
 11
2156.761788237523
 21
-2442.408943671638
 31
0.0
  0
LINE
  5
318
330
1F
100
AcDbEntity
  8
0-0_補助線
  6
JWW_HOJO
 62
   120
370
     5
100
AcDbLine
 10
1309.261788237523
 20
-2592.408943671638
 30
0.0
 11
2306.761788237523
 21
-2592.408943671638
 31
0.0
  0
LINE
  5
319
330
1F
100
AcDbEntity
  8
0-0_補助線
  6
JWW_HOJO
 62
   120
370
     5
100
AcDbLine
 10
1459.261788237523
 20
-1280.470528308963
 30
0.0
 11
1459.261788237523
 21
-2442.408943671638
 31
0.0
  0
LINE
  5
31A
330
1F
100
AcDbEntity
  8
0-0_補助線
  6
JWW_HOJO
 62
   120
370
     5
100
AcDbLine
 10
2156.761788237523
 20
-2442.408943671638
 30
0.0
 11
2156.761788237523
 21
-1280.470528308963
 31
0.0
  0
LINE
  5
31B
330
1F
100
AcDbEntity
  8
0-0_補助線
  6
JWW_HOJO
 62
   120
370
     5
100
AcDbLine
 10
1309.261788237523
 20
-1130.470528308962
 30
0.0
 11
1309.261788237523
 21
-2592.408943671638
 31
0.0
  0
LINE
  5
31C
330
1F
100
AcDbEntity
  8
0-0_補助線
  6
JWW_HOJO
 62
   120
370
     5
100
AcDbLine
 10
2306.761788237523
 20
-2592.408943671638
 30
0.0
 11
2306.761788237523
 21
-1130.470528308962
 31
0.0
  0
LINE
  5
31D
330
1F
100
AcDbEntity
  8
0-1_本体
  6
Continuous
 62
     7
370
     9
100
AcDbLine
 10
2081.761788237523
 20
-2289.970528308962
 30
0.0
 11
1565.761788237523
 21
-2289.970528308962
 31
0.0
  0
LINE
  5
31E
330
1F
100
AcDbEntity
  8
0-1_本体
  6
Continuous
 62
     7
370
     9
100
AcDbLine
 10
1565.761788237523
 20
-2289.970528308962
 30
0.0
 11
1565.761788237523
 21
-2360.470528308962
 31
0.0
  0
LINE
  5
31F
330
1F
100
AcDbEntity
  8
0-1_本体
  6
Continuous
 62
     7
370
     9
100
AcDbLine
 10
1565.761788237523
 20
-2360.470528308962
 30
0.0
 11
2081.761788237523
 21
-2360.470528308962
 31
0.0
  0
LINE
  5
320
330
1F
100
AcDbEntity
  8
0-1_本体
  6
Continuous
 62
     7
370
     9
100
AcDbLine
 10
2081.761788237523
 20
-2360.470528308962
 30
0.0
 11
2081.761788237523
 21
-2289.970528308962
 31
0.0
  0
LINE
  5
321
330
1F
100
AcDbEntity
  8
0-1_本体
  6
Continuous
 62
     7
370
     9
100
AcDbLine
 10
3975.115948770346
 20
-2360.470528308962
 30
0.0
 11
3975.115948770346
 21
-2289.970528308963
 31
0.0
  0
LINE
  5
322
330
1F
100
AcDbEntity
  8
0-6_カウンター
  6
Continuous
 62
    40
370
    15
100
AcDbLine
 10
1532.761788237523
 20
-1312.591848652522
 30
0.0
 11
1532.761788237523
 21
-1355.470528308962
 31
0.0
  0
LINE
  5
323
330
1F
100
AcDbEntity
  8
0-6_カウンター
  6
Continuous
 62
    40
370
    15
100
AcDbLine
 10
1534.883108581082
 20
-1310.470528308962
 30
0.0
 11
2081.761788237523
 21
-1310.470528308962
 31
0.0
  0
LINE
  5
324
330
1F
100
AcDbEntity
  8
0-6_カウンター
  6
Continuous
 62
    40
370
    15
100
AcDbLine
 10
1532.761788237523
 20
-1312.591848652522
 30
0.0
 11
1534.883108581082
 21
-1310.470528308962
 31
0.0
  0
LINE
  5
325
330
1F
100
AcDbEntity
  8
0-6_カウンター
  6
Continuous
 62
    40
370
    15
100
AcDbLine
 10
3426.115948770346
 20
-1312.591848652522
 30
0.0
 11
3426.115948770346
 21
-1355.470528308963
 31
0.0
  0
LINE
  5
326
330
1F
100
AcDbEntity
  8
0-6_カウンター
  6
Continuous
 62
    40
370
    15
100
AcDbLine
 10
3428.237269113906
 20
-1310.470528308963
 30
0.0
 11
3975.115948770346
 21
-1310.470528308963
 31
0.0
  0
LINE
  5
327
330
1F
100
AcDbEntity
  8
0-6_カウンター
  6
Continuous
 62
    40
370
    15
100
AcDbLine
 10
3426.115948770346
 20
-1312.591848652522
 30
0.0
 11
3428.237269113906
 21
-1310.470528308963
 31
0.0
  0
LINE
  5
328
330
1F
100
AcDbEntity
  8
0-B_寸法
  6
Continuous
 62
   120
370
     5
100
AcDbLine
 10
2081.761788237523
 20
-2592.408943671638
 30
0.0
 11
1564.261788237523
 21
-2592.408943671638
 31
0.0
  0
LWPOLYLINE
  5
329
330
1F
100
AcDbEntity
  8
0-B_寸法
  6
Continuous
 62
     7
370
     9
100
AcDbPolyline
 90
        4
 70
     1
 43
3.0
 10
2083.261788237523
 20
-2592.408943671638
 42
0.4142135623731
 10
2081.761788237523
 20
-2590.908943671638
 42
0.4142135623731
 10
2080.261788237523
 20
-2592.408943671638
 42
0.4142135623731
 10
2081.761788237523
 20
-2593.908943671638
 42
0.4142135623731
  0
LWPOLYLINE
  5
32A
330
1F
100
AcDbEntity
  8
0-B_寸法
  6
Continuous
 62
     7
370
     9
100
AcDbPolyline
 90
        4
 70
     1
 43
3.0
 10
1565.761788237523
 20
-2592.408943671638
 42
0.4142135623731
 10
1564.261788237523
 20
-2590.908943671638
 42
0.4142135623731
 10
1562.761788237523
 20
-2592.408943671638
 42
0.4142135623731
 10
1564.261788237523
 20
-2593.908943671638
 42
0.4142135623731
  0
LINE
  5
32B
330
1F
100
AcDbEntity
  8
0-B_寸法
  6
Continuous
 62
   120
370
     5
100
AcDbLine
 10
2081.761788237523
 20
-2592.408943671638
 30
0.0
 11
2081.761788237523
 21
-2442.408943671638
 31
0.0
  0
LINE
  5
32C
330
1F
100
AcDbEntity
  8
0-B_寸法
  6
Continuous
 62
   120
370
     5
100
AcDbLine
 10
1564.261788237523
 20
-2592.408943671638
 30
0.0
 11
1564.261788237523
 21
-2442.408943671638
 31
0.0
  0
TEXT
  5
32D
330
1F
100
AcDbEntity
  8
0-B_寸法
  6
Continuous
 62
     7
370
   211
100
AcDbText
 10
1748.011788237523
 20
-2564.718943671638
 30
0.0
 40
68.58
  1
345
 41
1.111111111111111
  7
ＭＳ ゴシック
100
AcDbText
  0
LWPOLYLINE
  5
32E
330
1F
100
AcDbEntity
  8
0-B_寸法
  6
Continuous
 62
     7
370
     9
100
AcDbPolyline
 90
        4
 70
     1
 43
3.0
 10
3976.615948770346
 20
-2592.408943671638
 42
0.4142135623731
 10
3975.115948770346
 20
-2590.908943671638
 42
0.4142135623731
 10
3973.615948770346
 20
-2592.408943671638
 42
0.4142135623731
 10
3975.115948770346
 20
-2593.908943671638
 42
0.4142135623731
  0
LINE
  5
32F
330
1F
100
AcDbEntity
  8
0-B_寸法
  6
Continuous
 62
   120
370
     5
100
AcDbLine
 10
3975.115948770346
 20
-2592.408943671638
 30
0.0
 11
3975.115948770346
 21
-2442.408943671638
 31
0.0
  0
LINE
  5
330
330
1F
100
AcDbEntity
  8
0-B_寸法
  6
Continuous
 62
   120
370
     5
100
AcDbLine
 10
3975.115948770346
 20
-1130.470528308962
 30
0.0
 11
3426.115948770346
 21
-1130.470528308962
 31
0.0
  0
LWPOLYLINE
  5
331
330
1F
100
AcDbEntity
  8
0-B_寸法
  6
Continuous
 62
     7
370
     9
100
AcDbPolyline
 90
        4
 70
     1
 43
3.0
 10
3976.615948770346
 20
-1130.470528308962
 42
0.4142135623731
 10
3975.115948770346
 20
-1128.970528308962
 42
0.4142135623731
 10
3973.615948770346
 20
-1130.470528308962
 42
0.4142135623731
 10
3975.115948770346
 20
-1131.970528308962
 42
0.4142135623731
  0
LWPOLYLINE
  5
332
330
1F
100
AcDbEntity
  8
0-B_寸法
  6
Continuous
 62
     7
370
     9
100
AcDbPolyline
 90
        4
 70
     1
 43
3.0
 10
3427.615948770346
 20
-1130.470528308962
 42
0.4142135623731
 10
3426.115948770346
 20
-1128.970528308962
 42
0.4142135623731
 10
3424.615948770346
 20
-1130.470528308962
 42
0.4142135623731
 10
3426.115948770346
 20
-1131.970528308962
 42
0.4142135623731
  0
LINE
  5
333
330
1F
100
AcDbEntity
  8
0-B_寸法
  6
Continuous
 62
   120
370
     5
100
AcDbLine
 10
3975.115948770346
 20
-1130.470528308962
 30
0.0
 11
3975.115948770346
 21
-1280.470528308963
 31
0.0
  0
LINE
  5
334
330
1F
100
AcDbEntity
  8
0-B_寸法
  6
Continuous
 62
   120
370
     5
100
AcDbLine
 10
3426.115948770346
 20
-1130.470528308962
 30
0.0
 11
3426.115948770346
 21
-1280.470528308963
 31
0.0
  0
TEXT
  5
335
330
1F
100
AcDbEntity
  8
0-B_寸法
  6
Continuous
 62
     7
370
   211
100
AcDbText
 10
3441.865948770346
 20
-1102.780528308962
 30
0.0
 40
68.58
  1
ｶｳﾝﾀｰ＝366
 41
1.15
  7
ＭＳ ゴシック
100
AcDbText
  0
TEXT
  5
336
330
1F
100
AcDbEntity
  8
0-A_文字
  6
Continuous
 62
     7
370
     9
100
AcDbText
 10
-1463.499242997729
 20
-2140.030528308962
 30
0.0
 40
68.58
  1
箱　344×180×300
  7
ＭＳ ゴシック
100
AcDbText
  0
TEXT
  5
337
330
1F
100
AcDbEntity
  8
0-A_文字
  6
Continuous
 62
     7
370
     9
100
AcDbText
 10
-1440.999242997729
 20
-1755.280528308962
 30
0.0
 40
68.58
  1
箱　344×95×300
  7
ＭＳ ゴシック
100
AcDbText
  0
TEXT
  5
338
330
1F
100
AcDbEntity
  8
0-A_文字
  6
Continuous
 62
     7
370
     9
100
AcDbText
 10
-1440.999242997729
 20
-1524.280528308962
 30
0.0
 40
68.58
  1
箱　344×95×300
  7
ＭＳ ゴシック
100
AcDbText
  0
TEXT
  5
339
330
1F
100
AcDbEntity
  8
F-A_文字
  6
Continuous
 62
     7
370
     9
100
AcDbText
 10
3226.248977248734
 20
-4117.31333291526
 30
0.0
 40
68.58
  1
TQP01S_C02
 41
1.15
  7
ＭＳ ゴシック
100
AcDbText
  0
LINE
  5
33A
330
1F
100
AcDbEntity
  8
0-B_寸法
  6
Continuous
 62
   120
370
     5
100
AcDbLine
 10
2063.761788237522
 20
-2092.720528308962
 30
0.0
 11
2063.761788237522
 21
-2032.720528308962
 31
0.0
  0
LINE
  5
33B
330
1F
100
AcDbEntity
  8
0-B_寸法
  6
Continuous
 62
   120
370
     5
100
AcDbLine
 10
1628.761788237522
 20
-2092.720528308962
 30
0.0
 11
1628.761788237522
 21
-2032.720528308962
 31
0.0
  0
LWPOLYLINE
  5
33C
330
1F
100
AcDbEntity
  8
0-B_寸法
  6
Continuous
 62
     7
370
     9
100
AcDbPolyline
 90
        4
 70
     1
 43
3.0
 10
2065.261788237522
 20
-2092.720528308962
 42
0.4142135623731
 10
2063.761788237522
 20
-2091.220528308962
 42
0.4142135623731
 10
2062.261788237522
 20
-2092.720528308962
 42
0.4142135623731
 10
2063.761788237522
 20
-2094.220528308962
 42
0.4142135623731
  0
LWPOLYLINE
  5
33D
330
1F
100
AcDbEntity
  8
0-B_寸法
  6
Continuous
 62
     7
370
     9
100
AcDbPolyline
 90
        4
 70
     1
 43
3.0
 10
1630.261788237522
 20
-2092.720528308962
 42
0.4142135623731
 10
1628.761788237522
 20
-2091.220528308962
 42
0.4142135623731
 10
1627.261788237522
 20
-2092.720528308962
 42
0.4142135623731
 10
1628.761788237522
 20
-2094.220528308962
 42
0.4142135623731
  0
LINE
  5
33E
330
1F
100
AcDbEntity
  8
0-B_寸法
  6
Continuous
 62
   120
370
     5
100
AcDbLine
 10
1628.761788237522
 20
-2092.720528308962
 30
0.0
 11
2063.761788237522
 21
-2092.720528308962
 31
0.0
  0
TEXT
  5
33F
330
1F
100
AcDbEntity
  8
0-B_寸法
  6
Continuous
 62
     7
370
   211
100
AcDbText
 10
1790.011788237522
 20
-2067.145528308963
 30
0.0
 40
57.15000000000001
  1
290
 41
0.9999999999999999
  7
ＭＳ ゴシック
100
AcDbText
  0
TEXT
  5
340
330
1F
100
AcDbEntity
  8
0-B_寸法
  6
Continuous
 62
     7
370
   211
100
AcDbText
 10
-2856.749752560177
 20
1709.949387859344
 30
0.0
 40
68.58
  1
ｶｳﾝﾀｰ＝2,406
 41
1.152777777777778
  7
ＭＳ ゴシック
100
AcDbText
  0
TEXT
  5
341
330
1F
100
AcDbEntity
  8
0-B_寸法
  6
Continuous
 62
     7
370
   211
100
AcDbText
 10
-2856.749752560178
 20
-1057.780528308962
 30
0.0
 40
68.58
  1
ｶｳﾝﾀｰ＝2,406
 41
1.152777777777778
  7
ＭＳ ゴシック
100
AcDbText
  0
LINE
  5
342
330
1F
100
AcDbEntity
  8
0-B_寸法
  6
Continuous
 62
   120
370
     5
100
AcDbLine
 10
3459.115948770346
 20
-2592.408943671638
 30
0.0
 11
3459.115948770346
 21
-2442.408943671638
 31
0.0
  0
LWPOLYLINE
  5
343
330
1F
100
AcDbEntity
  8
0-B_寸法
  6
Continuous
 62
     7
370
     9
100
AcDbPolyline
 90
        4
 70
     1
 43
3.0
 10
3460.615948770346
 20
-2592.408943671638
 42
0.4142135623731
 10
3459.115948770346
 20
-2590.908943671638
 42
0.4142135623731
 10
3457.615948770346
 20
-2592.408943671638
 42
0.4142135623731
 10
3459.115948770346
 20
-2593.908943671638
 42
0.4142135623731
  0
LINE
  5
344
330
1F
100
AcDbEntity
  8
0-B_寸法
  6
Continuous
 62
   120
370
     5
100
AcDbLine
 10
3459.115948770346
 20
-2592.408943671638
 30
0.0
 11
3975.115948770346
 21
-2592.408943671638
 31
0.0
  0
LINE
  5
345
330
1F
100
AcDbEntity
  8
0-1_本体
  6
Continuous
 62
     7
370
     9
100
AcDbLine
 10
3459.115948770346
 20
-2360.470528308962
 30
0.0
 11
3975.115948770346
 21
-2360.470528308962
 31
0.0
  0
LINE
  5
346
330
1F
100
AcDbEntity
  8
0-1_本体
  6
Continuous
 62
     7
370
     9
100
AcDbLine
 10
3459.115948770346
 20
-2289.970528308963
 30
0.0
 11
3459.115948770346
 21
-2360.470528308962
 31
0.0
  0
LINE
  5
347
330
1F
100
AcDbEntity
  8
0-1_本体
  6
Continuous
 62
     7
370
     9
100
AcDbLine
 10
3975.115948770346
 20
-2289.970528308963
 30
0.0
 11
3459.115948770346
 21
-2289.970528308963
 31
0.0
  0
TEXT
  5
348
330
1F
100
AcDbEntity
  8
0-B_寸法
  6
Continuous
 62
     7
370
   211
100
AcDbText
 10
3483.865948770345
 20
-2564.718943671638
 30
0.0
 40
68.58
  1
台輪＝344
 41
1.148148148148148
  7
ＭＳ ゴシック
100
AcDbText
  0
ENDSEC
  0
SECTION
  2
OBJECTS
  0
DICTIONARY
  5
C
330
0
100
AcDbDictionary
281
     1
  3
ACAD_GROUP
350
D
  3
ACAD_LAYOUT
350
1A
  3
ACAD_MATERIAL
350
3B
  3
ACAD_MLEADERSTYLE
350
34A
  3
ACAD_MLINESTYLE
350
17
  3
ACAD_PLOTSETTINGS
350
19
  3
ACAD_PLOTSTYLENAME
350
E
  3
ACAD_TABLESTYLE
350
349
  3
ACAD_VISUALSTYLE
350
2A
  0
DICTIONARY
  5
D
102
{ACAD_REACTORS
330
C
102
}
330
C
100
AcDbDictionary
281
     1
  0
DICTIONARY
  5
1A
102
{ACAD_REACTORS
330
C
102
}
330
C
100
AcDbDictionary
281
     1
  3
Layout1
350
1E
  3
Layout2
350
26
  3
Model
350
22
  0
DICTIONARY
  5
3B
102
{ACAD_REACTORS
330
C
102
}
330
C
100
AcDbDictionary
281
     1
  3
ByBlock
350
3D
  3
ByLayer
350
3C
  3
Global
350
3E
  0
DICTIONARY
  5
34A
102
{ACAD_REACTORS
330
C
102
}
330
C
100
AcDbDictionary
281
     1
  0
DICTIONARY
  5
17
102
{ACAD_REACTORS
330
C
102
}
330
C
100
AcDbDictionary
281
     1
  3
Standard
350
18
  0
DICTIONARY
  5
19
102
{ACAD_REACTORS
330
C
102
}
330
C
100
AcDbDictionary
281
     1
  0
ACDBDICTIONARYWDFLT
  5
E
102
{ACAD_REACTORS
330
C
102
}
330
C
100
AcDbDictionary
281
     1
  3
Normal
350
F
100
AcDbDictionaryWithDefault
340
F
  0
DICTIONARY
  5
349
102
{ACAD_REACTORS
330
C
102
}
330
C
100
AcDbDictionary
281
     1
  0
DICTIONARY
  5
2A
102
{ACAD_REACTORS
330
C
102
}
330
C
100
AcDbDictionary
281
     1
  3
2dWireframe
350
2F
  3
3D Hidden
350
31
  3
3dWireframe
350
30
  3
Basic
350
32
  3
Brighten
350
36
  3
ColorChange
350
3A
  3
Conceptual
350
34
  3
Dim
350
35
  3
Facepattern
350
39
  3
Flat
350
2B
  3
FlatWithEdges
350
2C
  3
Gouraud
350
2D
  3
GouraudWithEdges
350
2E
  3
Linepattern
350
38
  3
Realistic
350
33
  3
Thicken
350
37
  0
LAYOUT
  5
1E
102
{ACAD_REACTORS
330
1A
102
}
330
1A
100
AcDbPlotSettings
  1

  2
none_device
  4

  6

 40
0.0
 41
0.0
 42
0.0
 43
0.0
 44
0.0
 45
0.0
 46
0.0
 47
0.0
 48
0.0
 49
0.0
140
0.0
141
0.0
142
1.0
143
1.0
 70
   688
 72
     0
 73
     0
 74
     5
  7

 75
    16
 76
     0
 77
     5
 78
   300
147
1.0
148
0.0
149
0.0
100
AcDbLayout
  1
Layout1
 70
     1
 71
     1
 10
0.0
 20
0.0
 11
420.0
 21
297.0
 12
0.0
 22
0.0
 32
0.0
 14
1.000000000000000E+20
 24
1.000000000000000E+20
 34
1.000000000000000E+20
 15
-1.000000000000000E+20
 25
-1.000000000000000E+20
 35
-1.000000000000000E+20
146
0.0
 13
0.0
 23
0.0
 33
0.0
 16
1.0
 26
0.0
 36
0.0
 17
0.0
 27
1.0
 37
0.0
 76
     0
330
1B
  0
LAYOUT
  5
26
102
{ACAD_REACTORS
330
1A
102
}
330
1A
100
AcDbPlotSettings
  1

  2
none_device
  4

  6

 40
0.0
 41
0.0
 42
0.0
 43
0.0
 44
0.0
 45
0.0
 46
0.0
 47
0.0
 48
0.0
 49
0.0
140
0.0
141
0.0
142
1.0
143
1.0
 70
   688
 72
     0
 73
     0
 74
     5
  7

 75
    16
 76
     0
 77
     5
 78
   300
147
1.0
148
0.0
149
0.0
100
AcDbLayout
  1
Layout2
 70
     1
 71
     2
 10
0.0
 20
0.0
 11
0.0
 21
0.0
 12
0.0
 22
0.0
 32
0.0
 14
0.0
 24
0.0
 34
0.0
 15
0.0
 25
0.0
 35
0.0
146
0.0
 13
0.0
 23
0.0
 33
0.0
 16
1.0
 26
0.0
 36
0.0
 17
0.0
 27
1.0
 37
0.0
 76
     0
330
23
  0
LAYOUT
  5
22
102
{ACAD_REACTORS
330
1A
102
}
330
1A
100
AcDbPlotSettings
  1

  2
none_device
  4

  6

 40
0.0
 41
0.0
 42
0.0
 43
0.0
 44
0.0
 45
0.0
 46
0.0
 47
0.0
 48
0.0
 49
0.0
140
0.0
141
0.0
142
1.0
143
1.0
 70
  1712
 72
     0
 73
     0
 74
     0
  7

 75
     0
 76
     0
 77
     5
 78
   300
147
1.0
148
0.0
149
0.0
100
AcDbLayout
  1
Model
 70
     1
 71
     0
 10
-6300.0
 20
-4455.0
 11
6300.0
 21
4455.0
 12
0.0
 22
0.0
 32
0.0
 14
-6300.0
 24
-4455.0
 34
0.0
 15
6300.0
 25
4455.0
 35
0.0
146
0.0
 13
0.0
 23
0.0
 33
0.0
 16
1.0
 26
0.0
 36
0.0
 17
0.0
 27
1.0
 37
0.0
 76
     0
330
1F
331
29
  0
MATERIAL
  5
3D
102
{ACAD_REACTORS
330
3B
102
}
330
3B
100
AcDbMaterial
  1
ByBlock
 72
     1
 94
      127
  0
MATERIAL
  5
3C
102
{ACAD_REACTORS
330
3B
102
}
330
3B
100
AcDbMaterial
  1
ByLayer
 72
     1
 94
      127
  0
MATERIAL
  5
3E
102
{ACAD_REACTORS
330
3B
102
}
330
3B
100
AcDbMaterial
  1
Global
 72
     1
 94
      127
  0
MLINESTYLE
  5
18
102
{ACAD_REACTORS
330
17
102
}
330
17
100
AcDbMlineStyle
  2
Standard
 70
     0
  3

 62
   256
 51
90.0
 52
90.0
 71
     2
 49
0.5
 62
   256
  6
BYLAYER
 49
-0.5
 62
   256
  6
BYLAYER
  0
ACDBPLACEHOLDER
  5
F
102
{ACAD_REACTORS
330
E
102
}
330
E
  0
VISUALSTYLE
  5
2F
102
{ACAD_REACTORS
330
2A
102
}
330
2A
100
AcDbVisualStyle
  2
2dWireframe
 70
     4
177
     2
291
     0
 71
     0
176
     1
 72
     2
176
     1
 73
     0
176
     1
 90
        0
176
     1
 40
-0.6
176
     1
 41
-30.0
176
     1
 62
     5
 63
     7
421
 16777215
176
     1
 74
     1
176
     1
 91
        4
176
     1
 64
     7
176
     1
 65
   257
176
     1
 75
     1
176
     1
175
     1
176
     1
 42
1.0
176
     1
 92
        0
176
     1
 66
   257
176
     1
 43
1.0
176
     1
 76
     1
176
     1
 77
     6
176
     1
 78
     2
176
     1
 67
     7
176
     1
 79
     5
176
     1
170
     0
176
     1
171
     0
176
     1
290
     0
176
     1
 93
        1
176
     1
 44
0.0
176
     1
173
     0
176
     1
  0
VISUALSTYLE
  5
31
102
{ACAD_REACTORS
330
2A
102
}
330
2A
100
AcDbVisualStyle
  2
3D Hidden
 70
     6
177
     2
291
     0
 71
     1
176
     1
 72
     2
176
     1
 73
     2
176
     1
 90
        0
176
     1
 40
-0.6
176
     1
 41
-30.0
176
     1
 62
     5
 63
     7
421
 16777215
176
     1
 74
     2
176
     1
 91
        2
176
     1
 64
     7
176
     1
 65
   257
176
     1
 75
     2
176
     1
175
     1
176
     1
 42
40.0
176
     1
 92
        0
176
     1
 66
   257
176
     1
 43
1.0
176
     1
 76
     1
176
     1
 77
     6
176
     1
 78
     2
176
     1
 67
     7
176
     1
 79
     3
176
     1
170
     0
176
     1
171
     0
176
     1
290
     0
176
     1
 93
        1
176
     1
 44
0.0
176
     1
173
     0
176
     1
  0
VISUALSTYLE
  5
30
102
{ACAD_REACTORS
330
2A
102
}
330
2A
100
AcDbVisualStyle
  2
3dWireframe
 70
     5
177
     2
291
     0
 71
     0
176
     1
 72
     2
176
     1
 73
     0
176
     1
 90
        0
176
     1
 40
-0.6
176
     1
 41
-30.0
176
     1
 62
     5
 63
     7
421
 16777215
176
     1
 74
     1
176
     1
 91
        4
176
     1
 64
     7
176
     1
 65
   257
176
     1
 75
     1
176
     1
175
     1
176
     1
 42
1.0
176
     1
 92
        0
176
     1
 66
   257
176
     1
 43
1.0
176
     1
 76
     1
176
     1
 77
     6
176
     1
 78
     2
176
     1
 67
     7
176
     1
 79
     5
176
     1
170
     0
176
     1
171
     0
176
     1
290
     0
176
     1
 93
        1
176
     1
 44
0.0
176
     1
173
     0
176
     1
  0
VISUALSTYLE
  5
32
102
{ACAD_REACTORS
330
2A
102
}
330
2A
100
AcDbVisualStyle
  2
Basic
 70
     7
177
     2
291
     1
 71
     1
176
     1
 72
     0
176
     1
 73
     1
176
     1
 90
        0
176
     1
 40
-0.6
176
     1
 41
-30.0
176
     1
 62
     5
 63
     7
421
 16777215
176
     1
 74
     0
176
     1
 91
        4
176
     1
 64
     7
176
     1
 65
   257
176
     1
 75
     1
176
     1
175
     1
176
     1
 42
1.0
176
     1
 92
        8
176
     1
 66
     7
176
     1
 43
1.0
176
     1
 76
     1
176
     1
 77
     6
176
     1
 78
     2
176
     1
 67
     7
176
     1
 79
     5
176
     1
170
     0
176
     1
171
     0
176
     1
290
     0
176
     1
 93
        1
176
     1
 44
0.0
176
     1
173
     0
176
     1
  0
VISUALSTYLE
  5
36
102
{ACAD_REACTORS
330
2A
102
}
330
2A
100
AcDbVisualStyle
  2
Brighten
 70
    12
177
     2
291
     1
 71
     2
176
     1
 72
     2
176
     1
 73
     0
176
     1
 90
        0
176
     1
 40
-0.6
176
     1
 41
-30.0
176
     1
 62
     5
 63
     7
421
 16777215
176
     1
 74
     1
176
     1
 91
        4
176
     1
 64
     7
176
     1
 65
   257
176
     1
 75
     1
176
     1
175
     1
176
     1
 42
1.0
176
     1
 92
        8
176
     1
 66
     7
176
     1
 43
1.0
176
     1
 76
     1
176
     1
 77
     6
176
     1
 78
     2
176
     1
 67
     7
176
     1
 79
     5
176
     1
170
     0
176
     1
171
     0
176
     1
290
     0
176
     1
 93
        1
176
     1
 44
50.0
176
     1
173
     0
176
     1
  0
VISUALSTYLE
  5
3A
102
{ACAD_REACTORS
330
2A
102
}
330
2A
100
AcDbVisualStyle
  2
ColorChange
 70
    16
177
     2
291
     1
 71
     2
176
     1
 72
     2
176
     1
 73
     3
176
     1
 90
        0
176
     1
 40
-0.6
176
     1
 41
-30.0
176
     1
 62
     5
 63
     8
421
  8421504
176
     1
 74
     1
176
     1
 91
        4
176
     1
 64
     7
176
     1
 65
   257
176
     1
 75
     1
176
     1
175
     1
176
     1
 42
1.0
176
     1
 92
        8
176
     1
 66
     8
424
  8421504
176
     1
 43
1.0
176
     1
 76
     1
176
     1
 77
     6
176
     1
 78
     2
176
     1
 67
     7
176
     1
 79
     5
176
     1
170
     0
176
     1
171
     0
176
     1
290
     0
176
     1
 93
        1
176
     1
 44
0.0
176
     1
173
     0
176
     1
  0
VISUALSTYLE
  5
34
102
{ACAD_REACTORS
330
2A
102
}
330
2A
100
AcDbVisualStyle
  2
Conceptual
 70
     9
177
     2
291
     0
 71
     3
176
     1
 72
     2
176
     1
 73
     0
176
     1
 90
        0
176
     1
 40
-0.6
176
     1
 41
-30.0
176
     1
 62
     5
 63
     7
421
 16777215
176
     1
 74
     2
176
     1
 91
        2
176
     1
 64
     7
176
     1
 65
   257
176
     1
 75
     1
176
     1
175
     1
176
     1
 42
40.0
176
     1
 92
        8
176
     1
 66
     7
176
     1
 43
1.0
176
     1
 76
     1
176
     1
 77
     6
176
     1
 78
     2
176
     1
 67
     7
176
     1
 79
     3
176
     1
170
     0
176
     1
171
     0
176
     1
290
     0
176
     1
 93
        1
176
     1
 44
0.0
176
     1
173
     0
176
     1
  0
VISUALSTYLE
  5
35
102
{ACAD_REACTORS
330
2A
102
}
330
2A
100
AcDbVisualStyle
  2
Dim
 70
    11
177
     2
291
     1
 71
     2
176
     1
 72
     2
176
     1
 73
     0
176
     1
 90
        0
176
     1
 40
-0.6
176
     1
 41
-30.0
176
     1
 62
     5
 63
     7
421
 16777215
176
     1
 74
     1
176
     1
 91
        4
176
     1
 64
     7
176
     1
 65
   257
176
     1
 75
     1
176
     1
175
     1
176
     1
 42
1.0
176
     1
 92
        8
176
     1
 66
     7
176
     1
 43
1.0
176
     1
 76
     1
176
     1
 77
     6
176
     1
 78
     2
176
     1
 67
     7
176
     1
 79
     5
176
     1
170
     0
176
     1
171
     0
176
     1
290
     0
176
     1
 93
        1
176
     1
 44
-50.0
176
     1
173
     0
176
     1
  0
VISUALSTYLE
  5
39
102
{ACAD_REACTORS
330
2A
102
}
330
2A
100
AcDbVisualStyle
  2
Facepattern
 70
    15
177
     2
291
     1
 71
     2
176
     1
 72
     2
176
     1
 73
     0
176
     1
 90
        0
176
     1
 40
-0.6
176
     1
 41
-30.0
176
     1
 62
     5
 63
     7
421
 16777215
176
     1
 74
     1
176
     1
 91
        4
176
     1
 64
     7
176
     1
 65
   257
176
     1
 75
     1
176
     1
175
     1
176
     1
 42
1.0
176
     1
 92
        8
176
     1
 66
     7
176
     1
 43
1.0
176
     1
 76
     1
176
     1
 77
     6
176
     1
 78
     2
176
     1
 67
     7
176
     1
 79
     5
176
     1
170
     0
176
     1
171
     0
176
     1
290
     0
176
     1
 93
        1
176
     1
 44
0.0
176
     1
173
     0
176
     1
  0
VISUALSTYLE
  5
2B
102
{ACAD_REACTORS
330
2A
102
}
330
2A
100
AcDbVisualStyle
  2
Flat
 70
     0
177
     2
291
     1
 71
     2
176
     1
 72
     1
176
     1
 73
     1
176
     1
 90
        2
176
     1
 40
-0.6
176
     1
 41
30.0
176
     1
 62
     5
 63
     7
421
 16777215
176
     1
 74
     0
176
     1
 91
        4
176
     1
 64
     7
176
     1
 65
   257
176
     1
 75
     1
176
     1
175
     1
176
     1
 42
1.0
176
     1
 92
        8
176
     1
 66
     7
176
     1
 43
1.0
176
     1
 76
     1
176
     1
 77
     6
176
     1
 78
     2
176
     1
 67
     7
176
     1
 79
     5
176
     1
170
     0
176
     1
171
     0
176
     1
290
     0
176
     1
 93
       13
176
     1
 44
0.0
176
     1
173
     0
176
     1
  0
VISUALSTYLE
  5
2C
102
{ACAD_REACTORS
330
2A
102
}
330
2A
100
AcDbVisualStyle
  2
FlatWithEdges
 70
     1
177
     2
291
     1
 71
     2
176
     1
 72
     1
176
     1
 73
     1
176
     1
 90
        2
176
     1
 40
-0.6
176
     1
 41
30.0
176
     1
 62
     5
 63
     7
421
 16777215
176
     1
 74
     1
176
     1
 91
        4
176
     1
 64
     7
176
     1
 65
   257
176
     1
 75
     1
176
     1
175
     1
176
     1
 42
1.0
176
     1
 92
        0
176
     1
 66
   257
176
     1
 43
1.0
176
     1
 76
     1
176
     1
 77
     6
176
     1
 78
     2
176
     1
 67
     7
176
     1
 79
     5
176
     1
170
     0
176
     1
171
     0
176
     1
290
     0
176
     1
 93
       13
176
     1
 44
0.0
176
     1
173
     0
176
     1
  0
VISUALSTYLE
  5
2D
102
{ACAD_REACTORS
330
2A
102
}
330
2A
100
AcDbVisualStyle
  2
Gouraud
 70
     2
177
     2
291
     1
 71
     2
176
     1
 72
     2
176
     1
 73
     1
176
     1
 90
        2
176
     1
 40
-0.6
176
     1
 41
30.0
176
     1
 62
     5
 63
     7
421
 16777215
176
     1
 74
     0
176
     1
 91
        4
176
     1
 64
     7
176
     1
 65
   257
176
     1
 75
     1
176
     1
175
     1
176
     1
 42
1.0
176
     1
 92
        0
176
     1
 66
     7
176
     1
 43
1.0
176
     1
 76
     1
176
     1
 77
     6
176
     1
 78
     2
176
     1
 67
     7
176
     1
 79
     5
176
     1
170
     0
176
     1
171
     0
176
     1
290
     0
176
     1
 93
       13
176
     1
 44
0.0
176
     1
173
     0
176
     1
  0
VISUALSTYLE
  5
2E
102
{ACAD_REACTORS
330
2A
102
}
330
2A
100
AcDbVisualStyle
  2
GouraudWithEdges
 70
     3
177
     2
291
     1
 71
     2
176
     1
 72
     2
176
     1
 73
     1
176
     1
 90
        2
176
     1
 40
-0.6
176
     1
 41
30.0
176
     1
 62
     5
 63
     7
421
 16777215
176
     1
 74
     1
176
     1
 91
        4
176
     1
 64
     7
176
     1
 65
   257
176
     1
 75
     1
176
     1
175
     1
176
     1
 42
1.0
176
     1
 92
        0
176
     1
 66
   257
176
     1
 43
1.0
176
     1
 76
     1
176
     1
 77
     6
176
     1
 78
     2
176
     1
 67
     7
176
     1
 79
     5
176
     1
170
     0
176
     1
171
     0
176
     1
290
     0
176
     1
 93
       13
176
     1
 44
0.0
176
     1
173
     0
176
     1
  0
VISUALSTYLE
  5
38
102
{ACAD_REACTORS
330
2A
102
}
330
2A
100
AcDbVisualStyle
  2
Linepattern
 70
    14
177
     2
291
     1
 71
     2
176
     1
 72
     2
176
     1
 73
     0
176
     1
 90
        0
176
     1
 40
-0.6
176
     1
 41
-30.0
176
     1
 62
     5
 63
     7
421
 16777215
176
     1
 74
     1
176
     1
 91
        4
176
     1
 64
     7
176
     1
 65
   257
176
     1
 75
     7
176
     1
175
     7
176
     1
 42
1.0
176
     1
 92
        8
176
     1
 66
     7
176
     1
 43
1.0
176
     1
 76
     1
176
     1
 77
     6
176
     1
 78
     2
176
     1
 67
     7
176
     1
 79
     5
176
     1
170
     0
176
     1
171
     0
176
     1
290
     0
176
     1
 93
        1
176
     1
 44
0.0
176
     1
173
     0
176
     1
  0
VISUALSTYLE
  5
33
102
{ACAD_REACTORS
330
2A
102
}
330
2A
100
AcDbVisualStyle
  2
Realistic
 70
     8
177
     2
291
     0
 71
     2
176
     1
 72
     2
176
     1
 73
     0
176
     1
 90
        0
176
     1
 40
-0.6
176
     1
 41
-30.0
176
     1
 62
     5
 63
     7
421
 16777215
176
     1
 74
     1
176
     1
 91
        0
176
     1
 64
     7
176
     1
 65
   257
176
     1
 75
     1
176
     1
175
     1
176
     1
 42
1.0
176
     1
 92
        8
176
     1
 66
     8
424
  7895160
176
     1
 43
1.0
176
     1
 76
     1
176
     1
 77
     6
176
     1
 78
     2
176
     1
 67
     7
176
     1
 79
     5
176
     1
170
     0
176
     1
171
     0
176
     1
290
     0
176
     1
 93
       13
176
     1
 44
0.0
176
     1
173
     0
176
     1
  0
VISUALSTYLE
  5
37
102
{ACAD_REACTORS
330
2A
102
}
330
2A
100
AcDbVisualStyle
  2
Thicken
 70
    13
177
     2
291
     1
 71
     2
176
     1
 72
     2
176
     1
 73
     0
176
     1
 90
        0
176
     1
 40
-0.6
176
     1
 41
-30.0
176
     1
 62
     5
 63
     7
421
 16777215
176
     1
 74
     1
176
     1
 91
        4
176
     1
 64
     7
176
     1
 65
   257
176
     1
 75
     1
176
     1
175
     1
176
     1
 42
1.0
176
     1
 92
       12
176
     1
 66
     7
176
     1
 43
1.0
176
     1
 76
     1
176
     1
 77
     6
176
     1
 78
     2
176
     1
 67
     7
176
     1
 79
     5
176
     1
170
     0
176
     1
171
     0
176
     1
290
     0
176
     1
 93
        1
176
     1
 44
0.0
176
     1
173
     0
176
     1
  0
ENDSEC
  0
EOF
