  0
SECTION
  2
HEADER
  9
$ACADVER
  1
AC1024
  9
$ACADMAINTVER
 70
     6
  9
$DWGCODEPAGE
  3
ANSI_932
  9
$INSBASE
 10
0.0
 20
0.0
 30
0.0
  9
$EXTMIN
 10
-21000.0
 20
-14850.0
 30
0.0
  9
$EXTMAX
 10
21000.0
 20
14850.0
 30
0.0
  9
$LIMMIN
 10
-21000.0
 20
-14850.0
  9
$LIMMAX
 10
21000.0
 20
14850.0
  9
$ORTHOMODE
 70
     0
  9
$REGENMODE
 70
     1
  9
$FILLMODE
 70
     1
  9
$QTEXTMODE
 70
     0
  9
$MIRRTEXT
 70
     1
  9
$LTSCALE
 40
100.0
  9
$ATTMODE
 70
     1
  9
$TEXTSIZE
 40
2.5
  9
$TRACEWID
 40
1.0
  9
$TEXTSTYLE
  7
Standard
  9
$CLAYER
  8
0
  9
$CELTYPE
  6
ByLayer
  9
$CECOLOR
 62
   256
  9
$CELTSCALE
 40
1.0
  9
$DISPSILH
 70
     0
  9
$DIMSCALE
 40
1.0
  9
$DIMASZ
 40
2.5
  9
$DIMEXO
 40
0.625
  9
$DIMDLI
 40
3.75
  9
$DIMRND
 40
0.0
  9
$DIMDLE
 40
0.0
  9
$DIMEXE
 40
1.25
  9
$DIMTP
 40
0.0
  9
$DIMTM
 40
0.0
  9
$DIMTXT
 40
2.5
  9
$DIMCEN
 40
2.5
  9
$DIMTSZ
 40
0.0
  9
$DIMTOL
 70
     0
  9
$DIMLIM
 70
     0
  9
$DIMTIH
 70
     0
  9
$DIMTOH
 70
     0
  9
$DIMSE1
 70
     0
  9
$DIMSE2
 70
     0
  9
$DIMTAD
 70
     1
  9
$DIMZIN
 70
     8
  9
$DIMBLK
  1

  9
$DIMASO
 70
     1
  9
$DIMSHO
 70
     1
  9
$DIMPOST
  1

  9
$DIMAPOST
  1

  9
$DIMALT
 70
     0
  9
$DIMALTD
 70
     3
  9
$DIMALTF
 40
0.03937007874016
  9
$DIMLFAC
 40
1.0
  9
$DIMTOFL
 70
     1
  9
$DIMTVP
 40
0.0
  9
$DIMTIX
 70
     0
  9
$DIMSOXD
 70
     0
  9
$DIMSAH
 70
     0
  9
$DIMBLK1
  1

  9
$DIMBLK2
  1

  9
$DIMSTYLE
  2
ISO-25
  9
$DIMCLRD
 70
     0
  9
$DIMCLRE
 70
     0
  9
$DIMCLRT
 70
     0
  9
$DIMTFAC
 40
1.0
  9
$DIMGAP
 40
0.625
  9
$DIMJUST
 70
     0
  9
$DIMSD1
 70
     0
  9
$DIMSD2
 70
     0
  9
$DIMTOLJ
 70
     0
  9
$DIMTZIN
 70
     8
  9
$DIMALTZ
 70
     0
  9
$DIMALTTZ
 70
     0
  9
$DIMUPT
 70
     0
  9
$DIMDEC
 70
     2
  9
$DIMTDEC
 70
     2
  9
$DIMALTU
 70
     2
  9
$DIMALTTD
 70
     3
  9
$DIMTXSTY
  7
Standard
  9
$DIMAUNIT
 70
     0
  9
$DIMADEC
 70
     0
  9
$DIMALTRND
 40
0.0
  9
$DIMAZIN
 70
     0
  9
$DIMDSEP
 70
    44
  9
$DIMATFIT
 70
     3
  9
$DIMFRAC
 70
     0
  9
$DIMLDRBLK
  1

  9
$DIMLUNIT
 70
     2
  9
$DIMLWD
 70
    -2
  9
$DIMLWE
 70
    -2
  9
$DIMTMOVE
 70
     0
  9
$DIMFXL
 40
1.0
  9
$DIMFXLON
 70
     0
  9
$DIMJOGANG
 40
0.7853981633974483
  9
$DIMTFILL
 70
     0
  9
$DIMTFILLCLR
 70
     0
  9
$DIMARCSYM
 70
     0
  9
$DIMLTYPE
  6

  9
$DIMLTEX1
  6

  9
$DIMLTEX2
  6

  9
$DIMTXTDIRECTION
 70
     0
  9
$LUNITS
 70
     2
  9
$LUPREC
 70
     4
  9
$SKETCHINC
 40
1.0
  9
$FILLETRAD
 40
10.0
  9
$AUNITS
 70
     0
  9
$AUPREC
 70
     0
  9
$MENU
  1
.
  9
$ELEVATION
 40
0.0
  9
$PELEVATION
 40
0.0
  9
$THICKNESS
 40
0.0
  9
$LIMCHECK
 70
     0
  9
$CHAMFERA
 40
0.0
  9
$CHAMFERB
 40
0.0
  9
$CHAMFERC
 40
0.0
  9
$CHAMFERD
 40
0.0
  9
$SKPOLY
 70
     0
  9
$TDCREATE
 40
2458031.61543096
  9
$TDUCREATE
 40
2458031.24043096
  9
$TDUPDATE
 40
2458031.615431505
  9
$TDUUPDATE
 40
2458031.240431505
  9
$TDINDWG
 40
0.0000000116
  9
$TDUSRTIMER
 40
0.0000000116
  9
$USRTIMER
 70
     1
  9
$ANGBASE
 50
0.0
  9
$ANGDIR
 70
     0
  9
$PDMODE
 70
     0
  9
$PDSIZE
 40
0.0
  9
$PLINEWID
 40
0.0
  9
$SPLFRAME
 70
     0
  9
$SPLINETYPE
 70
     6
  9
$SPLINESEGS
 70
     8
  9
$HANDSEED
  5
4D0
  9
$SURFTAB1
 70
     6
  9
$SURFTAB2
 70
     6
  9
$SURFTYPE
 70
     6
  9
$SURFU
 70
     6
  9
$SURFV
 70
     6
  9
$UCSBASE
  2

  9
$UCSNAME
  2

  9
$UCSORG
 10
0.0
 20
0.0
 30
0.0
  9
$UCSXDIR
 10
1.0
 20
0.0
 30
0.0
  9
$UCSYDIR
 10
0.0
 20
1.0
 30
0.0
  9
$UCSORTHOREF
  2

  9
$UCSORTHOVIEW
 70
     0
  9
$UCSORGTOP
 10
0.0
 20
0.0
 30
0.0
  9
$UCSORGBOTTOM
 10
0.0
 20
0.0
 30
0.0
  9
$UCSORGLEFT
 10
0.0
 20
0.0
 30
0.0
  9
$UCSORGRIGHT
 10
0.0
 20
0.0
 30
0.0
  9
$UCSORGFRONT
 10
0.0
 20
0.0
 30
0.0
  9
$UCSORGBACK
 10
0.0
 20
0.0
 30
0.0
  9
$PUCSBASE
  2

  9
$PUCSNAME
  2

  9
$PUCSORG
 10
0.0
 20
0.0
 30
0.0
  9
$PUCSXDIR
 10
1.0
 20
0.0
 30
0.0
  9
$PUCSYDIR
 10
0.0
 20
1.0
 30
0.0
  9
$PUCSORTHOREF
  2

  9
$PUCSORTHOVIEW
 70
     0
  9
$PUCSORGTOP
 10
0.0
 20
0.0
 30
0.0
  9
$PUCSORGBOTTOM
 10
0.0
 20
0.0
 30
0.0
  9
$PUCSORGLEFT
 10
0.0
 20
0.0
 30
0.0
  9
$PUCSORGRIGHT
 10
0.0
 20
0.0
 30
0.0
  9
$PUCSORGFRONT
 10
0.0
 20
0.0
 30
0.0
  9
$PUCSORGBACK
 10
0.0
 20
0.0
 30
0.0
  9
$USERI1
 70
     0
  9
$USERI2
 70
     0
  9
$USERI3
 70
     0
  9
$USERI4
 70
     0
  9
$USERI5
 70
     0
  9
$USERR1
 40
0.0
  9
$USERR2
 40
0.0
  9
$USERR3
 40
0.0
  9
$USERR4
 40
0.0
  9
$USERR5
 40
0.0
  9
$WORLDVIEW
 70
     1
  9
$SHADEDGE
 70
     3
  9
$SHADEDIF
 70
    70
  9
$TILEMODE
 70
     1
  9
$MAXACTVP
 70
    64
  9
$PINSBASE
 10
0.0
 20
0.0
 30
0.0
  9
$PLIMCHECK
 70
     0
  9
$PEXTMIN
 10
1.000000000000000E+20
 20
1.000000000000000E+20
 30
1.000000000000000E+20
  9
$PEXTMAX
 10
-1.000000000000000E+20
 20
-1.000000000000000E+20
 30
-1.000000000000000E+20
  9
$PLIMMIN
 10
0.0
 20
0.0
  9
$PLIMMAX
 10
420.0
 20
297.0
  9
$UNITMODE
 70
     0
  9
$VISRETAIN
 70
     1
  9
$PLINEGEN
 70
     0
  9
$PSLTSCALE
 70
     1
  9
$TREEDEPTH
 70
  3020
  9
$CMLSTYLE
  2
Standard
  9
$CMLJUST
 70
     0
  9
$CMLSCALE
 40
20.0
  9
$PROXYGRAPHICS
 70
     1
  9
$MEASUREMENT
 70
     1
  9
$CELWEIGHT
370
    -1
  9
$ENDCAPS
280
     0
  9
$JOINSTYLE
280
     0
  9
$LWDISPLAY
290
     0
  9
$INSUNITS
 70
     4
  9
$HYPERLINKBASE
  1

  9
$STYLESHEET
  1

  9
$XEDIT
290
     1
  9
$CEPSNTYPE
380
     0
  9
$PSTYLEMODE
290
     1
  9
$FINGERPRINTGUID
  2
{9729D99F-C8BC-44AF-989E-F1D18D5049CB}
  9
$VERSIONGUID
  2
{FAEB1C32-E019-11D5-929B-00C0DF256EC4}
  9
$EXTNAMES
290
     1
  9
$PSVPSCALE
 40
0.0
  9
$OLESTARTUP
290
     0
  9
$SORTENTS
280
   127
  9
$INDEXCTL
280
     0
  9
$HIDETEXT
280
     1
  9
$XCLIPFRAME
280
     2
  9
$HALOGAP
280
     0
  9
$OBSCOLOR
 70
   257
  9
$OBSLTYPE
280
     0
  9
$INTERSECTIONDISPLAY
280
     0
  9
$INTERSECTIONCOLOR
 70
   257
  9
$DIMASSOC
280
     2
  9
$PROJECTNAME
  1

  9
$CAMERADISPLAY
290
     0
  9
$LENSLENGTH
 40
50.0
  9
$CAMERAHEIGHT
 40
0.0
  9
$STEPSPERSEC
 40
2.0
  9
$STEPSIZE
 40
6.0
  9
$3DDWFPREC
 40
2.0
  9
$PSOLWIDTH
 40
5.0
  9
$PSOLHEIGHT
 40
80.0
  9
$LOFTANG1
 40
1.570796326794897
  9
$LOFTANG2
 40
1.570796326794897
  9
$LOFTMAG1
 40
0.0
  9
$LOFTMAG2
 40
0.0
  9
$LOFTPARAM
 70
     7
  9
$LOFTNORMALS
280
     1
  9
$LATITUDE
 40
37.795
  9
$LONGITUDE
 40
-122.394
  9
$NORTHDIRECTION
 40
0.0
  9
$TIMEZONE
 70
 -8000
  9
$LIGHTGLYPHDISPLAY
280
     1
  9
$TILEMODELIGHTSYNCH
280
     1
  9
$CMATERIAL
347
44
  9
$SOLIDHIST
280
     0
  9
$SHOWHIST
280
     1
  9
$DWFFRAME
280
     2
  9
$DGNFRAME
280
     2
  9
$REALWORLDSCALE
290
     1
  9
$INTERFERECOLOR
 62
   256
  9
$CSHADOW
280
     0
  9
$SHADOWPLANELOCATION
 40
0.0
  0
ENDSEC
  0
SECTION
  2
CLASSES
  0
CLASS
  1
ACDBDICTIONARYWDFLT
  2
AcDbDictionaryWithDefault
  3
ObjectDBX Classes
 90
        0
 91
        4
280
     0
281
     0
  0
CLASS
  1
VISUALSTYLE
  2
AcDbVisualStyle
  3
ObjectDBX Classes
 90
     4095
 91
        4
280
     0
281
     0
  0
CLASS
  1
MATERIAL
  2
AcDbMaterial
  3
ObjectDBX Classes
 90
     1153
 91
        4
280
     0
281
     0
  0
CLASS
  1
SCALE
  2
AcDbScale
  3
ObjectDBX Classes
 90
     1153
 91
        4
280
     0
281
     0
  0
CLASS
  1
TABLESTYLE
  2
AcDbTableStyle
  3
ObjectDBX Classes
 90
     4095
 91
        4
280
     0
281
     0
  0
CLASS
  1
MLEADERSTYLE
  2
AcDbMLeaderStyle
  3
ACDB_MLEADERSTYLE_CLASS
 90
     4095
 91
        4
280
     0
281
     0
  0
CLASS
  1
SUN
  2
AcDbSun
  3
SCENEOE
 90
     1153
 91
        4
280
     0
281
     0
  0
CLASS
  1
DICTIONARYVAR
  2
AcDbDictionaryVar
  3
ObjectDBX Classes
 90
        0
 91
        4
280
     0
281
     0
  0
CLASS
  1
CELLSTYLEMAP
  2
AcDbCellStyleMap
  3
ObjectDBX Classes
 90
     1152
 91
        4
280
     0
281
     0
  0
ENDSEC
  0
SECTION
  2
TABLES
  0
TABLE
  2
VPORT
  5
8
330
0
100
AcDbSymbolTable
 70
     1
  0
VPORT
  5
29
330
8
100
AcDbSymbolTableRecord
100
AcDbViewportTableRecord
  2
*Active
 70
     0
 10
0.0
 20
0.0
 11
1.0
 21
1.0
 12
0.0
 22
0.0
 13
0.0
 23
0.0
 14
10.0
 24
10.0
 15
10.0
 25
10.0
 16
0.0
 26
0.0
 36
1.0
 17
0.0
 27
0.0
 37
0.0
 40
32670.0
 41
1.414141414141414
 42
50.0
 43
0.0
 44
0.0
 50
0.0
 51
0.0
 71
     0
 72
 10000
 73
     1
 74
     3
 75
     0
 76
     0
 77
     0
 78
     0
281
     0
 65
     1
110
0.0
120
0.0
130
0.0
111
1.0
121
0.0
131
0.0
112
0.0
122
1.0
132
0.0
 79
     0
146
0.0
348
2F
 60
     3
 61
     5
292
     1
282
     1
141
0.0
142
0.0
 63
   250
361
6D
  0
ENDTAB
  0
TABLE
  2
LTYPE
  5
5
330
0
100
AcDbSymbolTable
 70
     4
  0
LTYPE
  5
14
330
5
100
AcDbSymbolTableRecord
100
AcDbLinetypeTableRecord
  2
ByBlock
 70
     0
  3

 72
    65
 73
     0
 40
0.0
  0
LTYPE
  5
15
330
5
100
AcDbSymbolTableRecord
100
AcDbLinetypeTableRecord
  2
ByLayer
 70
     0
  3

 72
    65
 73
     0
 40
0.0
  0
LTYPE
  5
16
330
5
100
AcDbSymbolTableRecord
100
AcDbLinetypeTableRecord
  2
Continuous
 70
     0
  3
Solid line
 72
    65
 73
     0
 40
0.0
  0
LTYPE
  5
70
330
5
100
AcDbSymbolTableRecord
100
AcDbLinetypeTableRecord
  2
JWW_CENTER1
 70
     0
  3
-----  --  ----------  --  -----
 72
    65
 73
     4
 40
6.773333333333333
 49
4.233333333333333
 74
     0
 49
-0.8466666666666667
 74
     0
 49
0.8466666666666667
 74
     0
 49
-0.8466666666666667
 74
     0
  0
LTYPE
  5
71
330
5
100
AcDbSymbolTableRecord
100
AcDbLinetypeTableRecord
  2
JWW_HOJO
 70
     0
  3
  -   -   -   -   -   -   -   - 
 72
    65
 73
     2
 40
1.693333333333333
 49
-1.27
 74
     0
 49
0.4233333333333333
 74
     0
  0
LTYPE
  5
72
330
5
100
AcDbSymbolTableRecord
100
AcDbLinetypeTableRecord
  2
JWW_DASHED1
 70
     0
  3
-  --  --  --  --  --  --  --  -
 72
    65
 73
     2
 40
1.693333333333333
 49
0.8466666666666667
 74
     0
 49
-0.8466666666666667
 74
     0
  0
ENDTAB
  0
TABLE
  2
LAYER
  5
2
330
0
100
AcDbSymbolTable
 70
    11
  0
LAYER
  5
10
330
2
100
AcDbSymbolTableRecord
100
AcDbLayerTableRecord
  2
0
 70
     0
 62
     7
  6
Continuous
370
    -3
390
F
347
46
  0
LAYER
  5
73
330
2
100
AcDbSymbolTableRecord
100
AcDbLayerTableRecord
  2
0-3_仕上
 70
     0
 62
     7
  6
Continuous
370
    -3
390
F
347
46
  0
LAYER
  5
74
330
2
100
AcDbSymbolTableRecord
100
AcDbLayerTableRecord
  2
0-1_通り芯
 70
     0
 62
     7
  6
Continuous
370
    -3
390
F
347
46
  0
LAYER
  5
75
330
2
100
AcDbSymbolTableRecord
100
AcDbLayerTableRecord
  2
0-0_補助線
 70
     0
 62
     7
  6
Continuous
370
    -3
390
F
347
46
  0
LAYER
  5
76
330
2
100
AcDbSymbolTableRecord
100
AcDbLayerTableRecord
  2
0-2_柱
 70
     0
 62
     7
  6
Continuous
370
    -3
390
F
347
46
  0
LAYER
  5
77
330
2
100
AcDbSymbolTableRecord
100
AcDbLayerTableRecord
  2
0-B_寸法
 70
     0
 62
     7
  6
Continuous
370
    -3
390
F
347
46
  0
LAYER
  5
78
330
2
100
AcDbSymbolTableRecord
100
AcDbLayerTableRecord
  2
0-A_文字
 70
     0
 62
     7
  6
Continuous
370
    -3
390
F
347
46
  0
LAYER
  5
79
330
2
100
AcDbSymbolTableRecord
100
AcDbLayerTableRecord
  2
0-C_ハッチ
 70
     0
 62
     7
  6
Continuous
370
    -3
390
F
347
46
  0
LAYER
  5
7A
330
2
100
AcDbSymbolTableRecord
100
AcDbLayerTableRecord
  2
F-0ﾚｲﾔ
 70
     0
 62
     7
  6
Continuous
370
    -3
390
F
347
46
  0
LAYER
  5
7B
330
2
100
AcDbSymbolTableRecord
100
AcDbLayerTableRecord
  2
F-Aﾚｲﾔ
 70
     0
 62
     7
  6
Continuous
370
    -3
390
F
347
46
  0
LAYER
  5
7C
330
2
100
AcDbSymbolTableRecord
100
AcDbLayerTableRecord
  2
F-1ﾚｲﾔ
 70
     0
 62
     7
  6
Continuous
370
    -3
390
F
347
46
  0
ENDTAB
  0
TABLE
  2
STYLE
  5
3
330
0
100
AcDbSymbolTable
 70
     3
  0
STYLE
  5
11
330
3
100
AcDbSymbolTableRecord
100
AcDbTextStyleTableRecord
  2
Standard
 70
     0
 40
0.0
 41
1.0
 50
0.0
 71
     0
 42
2.5
  3
txt
  4

  0
STYLE
  5
6E
330
3
100
AcDbSymbolTableRecord
100
AcDbTextStyleTableRecord
  2
ＭＳ ゴシック
 70
     0
 40
1.0
 41
1.0
 50
0.0
 71
     0
 42
2.5
  3

  4

1001
ACAD
1000
MS Gothic
1071
    32817
  0
STYLE
  5
6F
330
3
100
AcDbSymbolTableRecord
100
AcDbTextStyleTableRecord
  2
HG明朝B
 70
     0
 40
1.0
 41
1.0
 50
0.0
 71
     0
 42
2.5
  3

  4

1001
ACAD
1000
HGMinchoB
1071
    32785
  0
ENDTAB
  0
TABLE
  2
VIEW
  5
6
330
0
100
AcDbSymbolTable
 70
     0
  0
ENDTAB
  0
TABLE
  2
UCS
  5
7
330
0
100
AcDbSymbolTable
 70
     0
  0
ENDTAB
  0
TABLE
  2
APPID
  5
9
330
0
100
AcDbSymbolTable
 70
     1
  0
APPID
  5
12
330
9
100
AcDbSymbolTableRecord
100
AcDbRegAppTableRecord
  2
ACAD
 70
     0
  0
ENDTAB
  0
TABLE
  2
DIMSTYLE
  5
A
330
0
100
AcDbSymbolTable
 70
     1
100
AcDbDimStyleTable
  0
DIMSTYLE
105
27
330
A
100
AcDbSymbolTableRecord
100
AcDbDimStyleTableRecord
  2
ISO-25
 70
     0
 41
2.5
 42
0.625
 43
3.75
 44
1.25
 73
     0
 74
     0
 77
     1
 78
     8
140
2.5
141
2.5
143
0.03937007874016
147
0.625
171
     3
172
     1
178
     0
271
     2
272
     2
274
     3
278
    44
283
     0
284
     8
340
11
  0
ENDTAB
  0
TABLE
  2
BLOCK_RECORD
  5
1
330
0
100
AcDbSymbolTable
 70
     1
  0
BLOCK_RECORD
  5
1F
330
1
100
AcDbSymbolTableRecord
100
AcDbBlockTableRecord
  2
*Model_Space
340
22
 70
     0
280
     1
281
     0
  0
BLOCK_RECORD
  5
1B
330
1
100
AcDbSymbolTableRecord
100
AcDbBlockTableRecord
  2
*Paper_Space
340
1E
 70
     0
280
     1
281
     0
  0
BLOCK_RECORD
  5
23
330
1
100
AcDbSymbolTableRecord
100
AcDbBlockTableRecord
  2
*Paper_Space0
340
26
 70
     0
280
     1
281
     0
  0
ENDTAB
  0
ENDSEC
  0
SECTION
  2
BLOCKS
  0
BLOCK
  5
20
330
1F
100
AcDbEntity
  8
0
100
AcDbBlockBegin
  2
*Model_Space
 70
     0
 10
0.0
 20
0.0
 30
0.0
  3
*Model_Space
  1

  0
ENDBLK
  5
21
330
1F
100
AcDbEntity
  8
0
100
AcDbBlockEnd
  0
BLOCK
  5
1C
330
1B
100
AcDbEntity
 67
     1
  8
0
100
AcDbBlockBegin
  2
*Paper_Space
 70
     0
 10
0.0
 20
0.0
 30
0.0
  3
*Paper_Space
  1

  0
ENDBLK
  5
1D
330
1B
100
AcDbEntity
 67
     1
  8
0
100
AcDbBlockEnd
  0
BLOCK
  5
24
330
23
100
AcDbEntity
  8
0
100
AcDbBlockBegin
  2
*Paper_Space0
 70
     0
 10
0.0
 20
0.0
 30
0.0
  3
*Paper_Space0
  1

  0
ENDBLK
  5
25
330
23
100
AcDbEntity
  8
0
100
AcDbBlockEnd
  0
ENDSEC
  0
SECTION
  2
ENTITIES
  0
LINE
  5
7D
330
1F
100
AcDbEntity
  8
0-3_仕上
  6
Continuous
 62
     7
370
     9
100
AcDbLine
 10
-16536.04972375691
 20
-11123.12815668229
 30
0.0
 11
-3387.845303867402
 21
-11123.12815668229
 31
0.0
  0
LINE
  5
7E
330
1F
100
AcDbEntity
  8
0-1_通り芯
  6
JWW_CENTER1
 62
     3
370
     9
100
AcDbLine
 10
-17960.22099447514
 20
-10843.12815668229
 30
0.0
 11
-3387.845303867403
 21
-10843.12815668229
 31
0.0
  0
LINE
  5
7F
330
1F
100
AcDbEntity
  8
0-0_補助線
  6
JWW_HOJO
 62
     3
370
     9
100
AcDbLine
 10
-18331.49171270718
 20
-2803.128156682293
 30
0.0
 11
-9420.99447513812
 21
-2803.128156682293
 31
0.0
  0
LINE
  5
80
330
1F
100
AcDbEntity
  8
0-0_補助線
  6
JWW_HOJO
 62
     3
370
     9
100
AcDbLine
 10
-18331.49171270718
 20
1955.214384317708
 30
0.0
 11
-9420.99447513812
 21
1955.214384317708
 31
0.0
  0
LINE
  5
81
330
1F
100
AcDbEntity
  8
0-1_通り芯
  6
JWW_CENTER1
 62
     3
370
     9
100
AcDbLine
 10
-5065.7755393941
 20
155.7668709420167
 30
0.0
 11
7928.699598727445
 21
155.7668709420167
 31
0.0
  0
LINE
  5
82
330
1F
100
AcDbEntity
  8
0-3_仕上
  6
Continuous
 62
     7
370
     9
100
AcDbLine
 10
-3363.151230001834
 20
680.7668709420167
 30
0.0
 11
-3363.151230001834
 21
-4746.63421831985
 31
0.0
  0
LINE
  5
83
330
1F
100
AcDbEntity
  8
0-3_仕上
  6
Continuous
 62
     7
370
     9
100
AcDbLine
 10
-4814.669257809433
 20
680.7668709420167
 30
0.0
 11
-2313.151230001835
 21
680.7668709420167
 31
0.0
  0
LINE
  5
84
330
1F
100
AcDbEntity
  8
0-3_仕上
  6
Continuous
 62
     7
370
     9
100
AcDbLine
 10
-2313.151230001835
 20
680.7668709420167
 30
0.0
 11
-2313.151230001835
 21
-4746.63421831985
 31
0.0
  0
LINE
  5
85
330
1F
100
AcDbEntity
  8
0-3_仕上
  6
Continuous
 62
     7
370
     9
100
AcDbLine
 10
-4814.669257809433
 20
-369.2331290579833
 30
0.0
 11
-2313.151230001835
 21
-369.2331290579833
 31
0.0
  0
LINE
  5
86
330
1F
100
AcDbEntity
  8
0-3_仕上
  6
Continuous
 62
     7
370
     9
100
AcDbLine
 10
-3363.151230001834
 20
-369.2331290579833
 30
0.0
 11
-2313.151230001835
 21
680.7668709420167
 31
0.0
  0
LINE
  5
87
330
1F
100
AcDbEntity
  8
0-3_仕上
  6
Continuous
 62
     7
370
     9
100
AcDbLine
 10
-3363.151230001834
 20
680.7668709420167
 30
0.0
 11
-2313.151230001835
 21
-369.2331290579833
 31
0.0
  0
LINE
  5
88
330
1F
100
AcDbEntity
  8
0-3_仕上
  6
Continuous
 62
     7
370
     9
100
AcDbLine
 10
-4814.669257809433
 20
805.7668709420167
 30
0.0
 11
-2188.151230001835
 21
805.7668709420167
 31
0.0
  0
LINE
  5
89
330
1F
100
AcDbEntity
  8
0-3_仕上
  6
Continuous
 62
     7
370
     9
100
AcDbLine
 10
-2188.151230001835
 20
805.7668709420167
 30
0.0
 11
-2188.151230001835
 21
-4746.63421831985
 31
0.0
  0
LINE
  5
8A
330
1F
100
AcDbEntity
  8
0-0_補助線
  6
JWW_HOJO
 62
     3
370
     9
100
AcDbLine
 10
-2843.943170511379
 20
405.7668709420167
 30
0.0
 11
4907.579439527635
 21
405.7668709420167
 31
0.0
  0
LINE
  5
8B
330
1F
100
AcDbEntity
  8
0-2_柱
  6
Continuous
 62
     7
370
     9
100
AcDbLine
 10
-16536.04972375691
 20
11618.75029635638
 30
0.0
 11
-16536.04972375691
 21
-86.98142054026957
 31
0.0
  0
LINE
  5
8C
330
1F
100
AcDbEntity
  8
0-2_柱
  6
Continuous
 62
     7
370
     9
100
AcDbLine
 10
-15486.04972375691
 20
11618.75029635638
 30
0.0
 11
-15486.04972375691
 21
-86.98142054026957
 31
0.0
  0
LINE
  5
8D
330
1F
100
AcDbEntity
  8
0-2_柱
  6
Continuous
 62
     7
370
     9
100
AcDbLine
 10
-15361.04972375691
 20
-525.4093224019648
 30
0.0
 11
-15361.04972375691
 21
-10843.12815668229
 31
0.0
  0
LINE
  5
8E
330
1F
100
AcDbEntity
  8
0-1_通り芯
  6
JWW_CENTER1
 62
     3
370
     9
100
AcDbLine
 10
-2838.151230001835
 20
2024.1858022729
 30
0.0
 11
-2838.151230001835
 21
-5970.199979886712
 31
0.0
  0
LINE
  5
8F
330
1F
100
AcDbEntity
  8
0-B_寸法
  6
Continuous
 62
     3
370
     9
100
AcDbLine
 10
-1888.151230001835
 20
2156.170857123672
 30
0.0
 11
-1618.151230001835
 21
2156.170857123672
 31
0.0
  0
LWPOLYLINE
  5
90
330
1F
100
AcDbEntity
  8
0-B_寸法
  6
Continuous
 62
     3
370
     9
100
AcDbPolyline
 90
        4
 70
     1
 43
20.0
 10
-1878.151230001835
 20
2156.170857123672
 42
0.4142135623731
 10
-1888.151230001835
 20
2166.170857123672
 42
0.4142135623731
 10
-1898.151230001835
 20
2156.170857123672
 42
0.4142135623731
 10
-1888.151230001835
 20
2146.170857123672
 42
0.4142135623731
  0
LWPOLYLINE
  5
91
330
1F
100
AcDbEntity
  8
0-B_寸法
  6
Continuous
 62
     3
370
     9
100
AcDbPolyline
 90
        4
 70
     1
 43
20.0
 10
-1608.151230001835
 20
2156.170857123672
 42
0.4142135623731
 10
-1618.151230001835
 20
2166.170857123672
 42
0.4142135623731
 10
-1628.151230001835
 20
2156.170857123672
 42
0.4142135623731
 10
-1618.151230001835
 20
2146.170857123672
 42
0.4142135623731
  0
LINE
  5
92
330
1F
100
AcDbEntity
  8
0-B_寸法
  6
Continuous
 62
     3
370
     9
100
AcDbLine
 10
-1888.151230001835
 20
2156.170857123672
 30
0.0
 11
-1888.151230001835
 21
1374.713743241773
 31
0.0
  0
LINE
  5
93
330
1F
100
AcDbEntity
  8
0-B_寸法
  6
Continuous
 62
     3
370
     9
100
AcDbLine
 10
-1618.151230001835
 20
2156.170857123672
 30
0.0
 11
-1618.151230001835
 21
1374.713743241773
 31
0.0
  0
LINE
  5
94
330
1F
100
AcDbEntity
  8
0-B_寸法
  6
Continuous
 62
     3
370
     9
100
AcDbLine
 10
-1618.151230001835
 20
2156.170857123672
 30
0.0
 11
-1308.151230001835
 21
2156.170857123672
 31
0.0
  0
LWPOLYLINE
  5
95
330
1F
100
AcDbEntity
  8
0-B_寸法
  6
Continuous
 62
     3
370
     9
100
AcDbPolyline
 90
        4
 70
     1
 43
20.0
 10
-1298.151230001835
 20
2156.170857123672
 42
0.4142135623731
 10
-1308.151230001835
 20
2166.170857123672
 42
0.4142135623731
 10
-1318.151230001835
 20
2156.170857123672
 42
0.4142135623731
 10
-1308.151230001835
 20
2146.170857123672
 42
0.4142135623731
  0
LINE
  5
96
330
1F
100
AcDbEntity
  8
0-B_寸法
  6
Continuous
 62
     3
370
     9
100
AcDbLine
 10
-1308.151230001835
 20
2156.170857123672
 30
0.0
 11
-1308.151230001835
 21
1374.713743241773
 31
0.0
  0
LINE
  5
97
330
1F
100
AcDbEntity
  8
0-B_寸法
  6
Continuous
 62
     3
370
     9
100
AcDbLine
 10
-1308.151230001835
 20
2156.170857123672
 30
0.0
 11
-1038.151230001835
 21
2156.170857123672
 31
0.0
  0
LWPOLYLINE
  5
98
330
1F
100
AcDbEntity
  8
0-B_寸法
  6
Continuous
 62
     3
370
     9
100
AcDbPolyline
 90
        4
 70
     1
 43
20.0
 10
-1028.151230001835
 20
2156.170857123672
 42
0.4142135623731
 10
-1038.151230001835
 20
2166.170857123672
 42
0.4142135623731
 10
-1048.151230001834
 20
2156.170857123672
 42
0.4142135623731
 10
-1038.151230001835
 20
2146.170857123672
 42
0.4142135623731
  0
LINE
  5
99
330
1F
100
AcDbEntity
  8
0-B_寸法
  6
Continuous
 62
     3
370
     9
100
AcDbLine
 10
-1038.151230001835
 20
2156.170857123672
 30
0.0
 11
-1038.151230001835
 21
1374.713743241773
 31
0.0
  0
LINE
  5
9A
330
1F
100
AcDbEntity
  8
0-B_寸法
  6
Continuous
 62
     3
370
     9
100
AcDbLine
 10
-1038.151230001835
 20
2156.170857123672
 30
0.0
 11
-728.1512300018344
 21
2156.170857123672
 31
0.0
  0
LWPOLYLINE
  5
9B
330
1F
100
AcDbEntity
  8
0-B_寸法
  6
Continuous
 62
     3
370
     9
100
AcDbPolyline
 90
        4
 70
     1
 43
20.0
 10
-718.1512300018344
 20
2156.170857123672
 42
0.4142135623731
 10
-728.1512300018344
 20
2166.170857123672
 42
0.4142135623731
 10
-738.1512300018344
 20
2156.170857123672
 42
0.4142135623731
 10
-728.1512300018344
 20
2146.170857123672
 42
0.4142135623731
  0
LINE
  5
9C
330
1F
100
AcDbEntity
  8
0-B_寸法
  6
Continuous
 62
     3
370
     9
100
AcDbLine
 10
-728.1512300018344
 20
2156.170857123672
 30
0.0
 11
-728.1512300018344
 21
1374.713743241773
 31
0.0
  0
LINE
  5
9D
330
1F
100
AcDbEntity
  8
0-B_寸法
  6
Continuous
 62
     3
370
     9
100
AcDbLine
 10
-728.1512300018344
 20
2156.170857123672
 30
0.0
 11
-458.1512300018341
 21
2156.170857123672
 31
0.0
  0
LWPOLYLINE
  5
9E
330
1F
100
AcDbEntity
  8
0-B_寸法
  6
Continuous
 62
     3
370
     9
100
AcDbPolyline
 90
        4
 70
     1
 43
20.0
 10
-448.1512300018341
 20
2156.170857123672
 42
0.4142135623731
 10
-458.1512300018341
 20
2166.170857123672
 42
0.4142135623731
 10
-468.1512300018341
 20
2156.170857123672
 42
0.4142135623731
 10
-458.1512300018341
 20
2146.170857123672
 42
0.4142135623731
  0
LINE
  5
9F
330
1F
100
AcDbEntity
  8
0-B_寸法
  6
Continuous
 62
     3
370
     9
100
AcDbLine
 10
-458.1512300018341
 20
2156.170857123672
 30
0.0
 11
-458.1512300018341
 21
1374.713743241773
 31
0.0
  0
TEXT
  5
A0
330
1F
100
AcDbEntity
  8
0-B_寸法
  6
Continuous
 62
     7
370
     0
100
AcDbText
 10
-755.6512300018343
 20
2248.470857123672
 30
0.0
 40
228.6
  1
27
 41
1.083333333333333
  7
ＭＳ ゴシック
100
AcDbText
  0
LINE
  5
A1
330
1F
100
AcDbEntity
  8
0-B_寸法
  6
Continuous
 62
     3
370
     9
100
AcDbLine
 10
-458.1512300018341
 20
2156.170857123672
 30
0.0
 11
-148.1512300018339
 21
2156.170857123672
 31
0.0
  0
LWPOLYLINE
  5
A2
330
1F
100
AcDbEntity
  8
0-B_寸法
  6
Continuous
 62
     3
370
     9
100
AcDbPolyline
 90
        4
 70
     1
 43
20.0
 10
-138.1512300018339
 20
2156.170857123672
 42
0.4142135623731
 10
-148.1512300018339
 20
2166.170857123672
 42
0.4142135623731
 10
-158.151230001834
 20
2156.170857123672
 42
0.4142135623731
 10
-148.1512300018339
 20
2146.170857123672
 42
0.4142135623731
  0
LINE
  5
A3
330
1F
100
AcDbEntity
  8
0-B_寸法
  6
Continuous
 62
     3
370
     9
100
AcDbLine
 10
-148.1512300018339
 20
2156.170857123672
 30
0.0
 11
-148.1512300018339
 21
1374.713743241773
 31
0.0
  0
LINE
  5
A4
330
1F
100
AcDbEntity
  8
0-B_寸法
  6
Continuous
 62
     3
370
     9
100
AcDbLine
 10
-148.1512300018339
 20
2156.170857123672
 30
0.0
 11
121.8487699981663
 21
2156.170857123672
 31
0.0
  0
LWPOLYLINE
  5
A5
330
1F
100
AcDbEntity
  8
0-B_寸法
  6
Continuous
 62
     3
370
     9
100
AcDbPolyline
 90
        4
 70
     1
 43
20.0
 10
131.8487699981663
 20
2156.170857123672
 42
0.4142135623731
 10
121.8487699981663
 20
2166.170857123672
 42
0.4142135623731
 10
111.8487699981663
 20
2156.170857123672
 42
0.4142135623731
 10
121.8487699981663
 20
2146.170857123672
 42
0.4142135623731
  0
LINE
  5
A6
330
1F
100
AcDbEntity
  8
0-B_寸法
  6
Continuous
 62
     3
370
     9
100
AcDbLine
 10
121.8487699981663
 20
2156.170857123672
 30
0.0
 11
121.8487699981663
 21
1374.713743241773
 31
0.0
  0
TEXT
  5
A7
330
1F
100
AcDbEntity
  8
0-B_寸法
  6
Continuous
 62
     7
370
     0
100
AcDbText
 10
-175.6512300018338
 20
2248.470857123672
 30
0.0
 40
228.6
  1
27
 41
1.083333333333333
  7
ＭＳ ゴシック
100
AcDbText
  0
LINE
  5
A8
330
1F
100
AcDbEntity
  8
0-B_寸法
  6
Continuous
 62
     3
370
     9
100
AcDbLine
 10
121.8487699981663
 20
2156.170857123672
 30
0.0
 11
431.8487699981665
 21
2156.170857123672
 31
0.0
  0
LWPOLYLINE
  5
A9
330
1F
100
AcDbEntity
  8
0-B_寸法
  6
Continuous
 62
     3
370
     9
100
AcDbPolyline
 90
        4
 70
     1
 43
20.0
 10
441.8487699981665
 20
2156.170857123672
 42
0.4142135623731
 10
431.8487699981665
 20
2166.170857123672
 42
0.4142135623731
 10
421.8487699981665
 20
2156.170857123672
 42
0.4142135623731
 10
431.8487699981665
 20
2146.170857123672
 42
0.4142135623731
  0
LINE
  5
AA
330
1F
100
AcDbEntity
  8
0-B_寸法
  6
Continuous
 62
     3
370
     9
100
AcDbLine
 10
431.8487699981665
 20
2156.170857123672
 30
0.0
 11
431.8487699981665
 21
1374.713743241773
 31
0.0
  0
LINE
  5
AB
330
1F
100
AcDbEntity
  8
0-B_寸法
  6
Continuous
 62
     3
370
     9
100
AcDbLine
 10
431.8487699981665
 20
2156.170857123672
 30
0.0
 11
701.8487699981667
 21
2156.170857123672
 31
0.0
  0
LWPOLYLINE
  5
AC
330
1F
100
AcDbEntity
  8
0-B_寸法
  6
Continuous
 62
     3
370
     9
100
AcDbPolyline
 90
        4
 70
     1
 43
20.0
 10
711.8487699981667
 20
2156.170857123672
 42
0.4142135623731
 10
701.8487699981667
 20
2166.170857123672
 42
0.4142135623731
 10
691.8487699981667
 20
2156.170857123672
 42
0.4142135623731
 10
701.8487699981667
 20
2146.170857123672
 42
0.4142135623731
  0
LINE
  5
AD
330
1F
100
AcDbEntity
  8
0-B_寸法
  6
Continuous
 62
     3
370
     9
100
AcDbLine
 10
701.8487699981667
 20
2156.170857123672
 30
0.0
 11
701.8487699981667
 21
1374.713743241773
 31
0.0
  0
TEXT
  5
AE
330
1F
100
AcDbEntity
  8
0-B_寸法
  6
Continuous
 62
     7
370
     0
100
AcDbText
 10
404.3487699981666
 20
2248.470857123672
 30
0.0
 40
228.6
  1
27
 41
1.083333333333333
  7
ＭＳ ゴシック
100
AcDbText
  0
LINE
  5
AF
330
1F
100
AcDbEntity
  8
0-B_寸法
  6
Continuous
 62
     3
370
     9
100
AcDbLine
 10
701.8487699981667
 20
2156.170857123672
 30
0.0
 11
1011.848769998167
 21
2156.170857123672
 31
0.0
  0
LWPOLYLINE
  5
B0
330
1F
100
AcDbEntity
  8
0-B_寸法
  6
Continuous
 62
     3
370
     9
100
AcDbPolyline
 90
        4
 70
     1
 43
20.0
 10
1021.848769998167
 20
2156.170857123672
 42
0.4142135623731
 10
1011.848769998167
 20
2166.170857123672
 42
0.4142135623731
 10
1001.848769998167
 20
2156.170857123672
 42
0.4142135623731
 10
1011.848769998167
 20
2146.170857123672
 42
0.4142135623731
  0
LINE
  5
B1
330
1F
100
AcDbEntity
  8
0-B_寸法
  6
Continuous
 62
     3
370
     9
100
AcDbLine
 10
1011.848769998167
 20
2156.170857123672
 30
0.0
 11
1011.848769998167
 21
1374.713743241773
 31
0.0
  0
LINE
  5
B2
330
1F
100
AcDbEntity
  8
0-B_寸法
  6
Continuous
 62
     3
370
     9
100
AcDbLine
 10
1011.848769998167
 20
2156.170857123672
 30
0.0
 11
1281.848769998167
 21
2156.170857123672
 31
0.0
  0
LWPOLYLINE
  5
B3
330
1F
100
AcDbEntity
  8
0-B_寸法
  6
Continuous
 62
     3
370
     9
100
AcDbPolyline
 90
        4
 70
     1
 43
20.0
 10
1291.848769998167
 20
2156.170857123672
 42
0.4142135623731
 10
1281.848769998167
 20
2166.170857123672
 42
0.4142135623731
 10
1271.848769998167
 20
2156.170857123672
 42
0.4142135623731
 10
1281.848769998167
 20
2146.170857123672
 42
0.4142135623731
  0
LINE
  5
B4
330
1F
100
AcDbEntity
  8
0-B_寸法
  6
Continuous
 62
     3
370
     9
100
AcDbLine
 10
1281.848769998167
 20
2156.170857123672
 30
0.0
 11
1281.848769998167
 21
1374.713743241773
 31
0.0
  0
TEXT
  5
B5
330
1F
100
AcDbEntity
  8
0-B_寸法
  6
Continuous
 62
     7
370
     0
100
AcDbText
 10
984.3487699981671
 20
2248.470857123672
 30
0.0
 40
228.6
  1
27
 41
1.083333333333333
  7
ＭＳ ゴシック
100
AcDbText
  0
LINE
  5
B6
330
1F
100
AcDbEntity
  8
0-B_寸法
  6
Continuous
 62
     3
370
     9
100
AcDbLine
 10
1281.848769998167
 20
2156.170857123672
 30
0.0
 11
1591.848769998167
 21
2156.170857123672
 31
0.0
  0
LWPOLYLINE
  5
B7
330
1F
100
AcDbEntity
  8
0-B_寸法
  6
Continuous
 62
     3
370
     9
100
AcDbPolyline
 90
        4
 70
     1
 43
20.0
 10
1601.848769998167
 20
2156.170857123672
 42
0.4142135623731
 10
1591.848769998167
 20
2166.170857123672
 42
0.4142135623731
 10
1581.848769998167
 20
2156.170857123672
 42
0.4142135623731
 10
1591.848769998167
 20
2146.170857123672
 42
0.4142135623731
  0
LINE
  5
B8
330
1F
100
AcDbEntity
  8
0-B_寸法
  6
Continuous
 62
     3
370
     9
100
AcDbLine
 10
1591.848769998167
 20
2156.170857123672
 30
0.0
 11
1591.848769998167
 21
1374.713743241773
 31
0.0
  0
LINE
  5
B9
330
1F
100
AcDbEntity
  8
0-B_寸法
  6
Continuous
 62
     3
370
     9
100
AcDbLine
 10
1591.848769998167
 20
2156.170857123672
 30
0.0
 11
1861.848769998167
 21
2156.170857123672
 31
0.0
  0
LWPOLYLINE
  5
BA
330
1F
100
AcDbEntity
  8
0-B_寸法
  6
Continuous
 62
     3
370
     9
100
AcDbPolyline
 90
        4
 70
     1
 43
20.0
 10
1871.848769998167
 20
2156.170857123672
 42
0.4142135623731
 10
1861.848769998167
 20
2166.170857123672
 42
0.4142135623731
 10
1851.848769998167
 20
2156.170857123672
 42
0.4142135623731
 10
1861.848769998167
 20
2146.170857123672
 42
0.4142135623731
  0
LINE
  5
BB
330
1F
100
AcDbEntity
  8
0-B_寸法
  6
Continuous
 62
     3
370
     9
100
AcDbLine
 10
1861.848769998167
 20
2156.170857123672
 30
0.0
 11
1861.848769998167
 21
1374.713743241773
 31
0.0
  0
TEXT
  5
BC
330
1F
100
AcDbEntity
  8
0-B_寸法
  6
Continuous
 62
     7
370
     0
100
AcDbText
 10
1564.348769998167
 20
2248.470857123672
 30
0.0
 40
228.6
  1
27
 41
1.083333333333333
  7
ＭＳ ゴシック
100
AcDbText
  0
LINE
  5
BD
330
1F
100
AcDbEntity
  8
0-B_寸法
  6
Continuous
 62
     3
370
     9
100
AcDbLine
 10
1861.848769998167
 20
2156.170857123672
 30
0.0
 11
2171.848769998168
 21
2156.170857123672
 31
0.0
  0
LWPOLYLINE
  5
BE
330
1F
100
AcDbEntity
  8
0-B_寸法
  6
Continuous
 62
     3
370
     9
100
AcDbPolyline
 90
        4
 70
     1
 43
20.0
 10
2181.848769998168
 20
2156.170857123672
 42
0.4142135623731
 10
2171.848769998168
 20
2166.170857123672
 42
0.4142135623731
 10
2161.848769998168
 20
2156.170857123672
 42
0.4142135623731
 10
2171.848769998168
 20
2146.170857123672
 42
0.4142135623731
  0
LINE
  5
BF
330
1F
100
AcDbEntity
  8
0-B_寸法
  6
Continuous
 62
     3
370
     9
100
AcDbLine
 10
2171.848769998168
 20
2156.170857123672
 30
0.0
 11
2171.848769998168
 21
1374.713743241773
 31
0.0
  0
LINE
  5
C0
330
1F
100
AcDbEntity
  8
0-B_寸法
  6
Continuous
 62
     3
370
     9
100
AcDbLine
 10
2171.848769998168
 20
2156.170857123672
 30
0.0
 11
2441.848769998168
 21
2156.170857123672
 31
0.0
  0
LWPOLYLINE
  5
C1
330
1F
100
AcDbEntity
  8
0-B_寸法
  6
Continuous
 62
     3
370
     9
100
AcDbPolyline
 90
        4
 70
     1
 43
20.0
 10
2451.848769998168
 20
2156.170857123672
 42
0.4142135623731
 10
2441.848769998168
 20
2166.170857123672
 42
0.4142135623731
 10
2431.848769998168
 20
2156.170857123672
 42
0.4142135623731
 10
2441.848769998168
 20
2146.170857123672
 42
0.4142135623731
  0
LINE
  5
C2
330
1F
100
AcDbEntity
  8
0-B_寸法
  6
Continuous
 62
     3
370
     9
100
AcDbLine
 10
2441.848769998168
 20
2156.170857123672
 30
0.0
 11
2441.848769998168
 21
1374.713743241773
 31
0.0
  0
TEXT
  5
C3
330
1F
100
AcDbEntity
  8
0-B_寸法
  6
Continuous
 62
     7
370
     0
100
AcDbText
 10
2144.348769998168
 20
2248.470857123672
 30
0.0
 40
228.6
  1
27
 41
1.083333333333333
  7
ＭＳ ゴシック
100
AcDbText
  0
TEXT
  5
C4
330
1F
100
AcDbEntity
  8
0-B_寸法
  6
Continuous
 62
     7
370
     0
100
AcDbText
 10
-1972.309150526891
 20
2249.409981884587
 30
0.0
 40
228.6
  1
27
 41
1.083333333333333
  7
ＭＳ ゴシック
100
AcDbText
  0
TEXT
  5
C5
330
1F
100
AcDbEntity
  8
0-B_寸法
  6
Continuous
 62
     7
370
     0
100
AcDbText
 10
-1606.154547962405
 20
1895.460532738917
 30
0.0
 40
228.6
  1
31
 41
1.083333333333333
  7
ＭＳ ゴシック
100
AcDbText
  0
TEXT
  5
C6
330
1F
100
AcDbEntity
  8
0-B_寸法
  6
Continuous
 62
     7
370
     0
100
AcDbText
 10
-1354.1268065132
 20
2235.932253227789
 30
0.0
 40
228.6
  1
27
 41
1.083333333333333
  7
ＭＳ ゴシック
100
AcDbText
  0
TEXT
  5
C7
330
1F
100
AcDbEntity
  8
0-B_寸法
  6
Continuous
 62
     7
370
     0
100
AcDbText
 10
-1050.67545658377
 20
1887.709392653033
 30
0.0
 40
228.6
  1
31
 41
1.083333333333333
  7
ＭＳ ゴシック
100
AcDbText
  0
TEXT
  5
C8
330
1F
100
AcDbEntity
  8
0-B_寸法
  6
Continuous
 62
     7
370
     0
100
AcDbText
 10
-468.6458181945351
 20
1887.709392653033
 30
0.0
 40
228.6
  1
31
 41
1.083333333333333
  7
ＭＳ ゴシック
100
AcDbText
  0
TEXT
  5
C9
330
1F
100
AcDbEntity
  8
0-B_寸法
  6
Continuous
 62
     7
370
     0
100
AcDbText
 10
108.4092079007748
 20
1887.709392653033
 30
0.0
 40
228.6
  1
31
 41
1.083333333333333
  7
ＭＳ ゴシック
100
AcDbText
  0
TEXT
  5
CA
330
1F
100
AcDbEntity
  8
0-B_寸法
  6
Continuous
 62
     7
370
     0
100
AcDbText
 10
695.413458583935
 20
1892.684004946958
 30
0.0
 40
228.6
  1
31
 41
1.083333333333333
  7
ＭＳ ゴシック
100
AcDbText
  0
TEXT
  5
CB
330
1F
100
AcDbEntity
  8
0-B_寸法
  6
Continuous
 62
     7
370
     0
100
AcDbText
 10
1272.468484679245
 20
1897.658617240883
 30
0.0
 40
228.6
  1
31
 41
1.083333333333333
  7
ＭＳ ゴシック
100
AcDbText
  0
TEXT
  5
CC
330
1F
100
AcDbEntity
  8
0-B_寸法
  6
Continuous
 62
     7
370
     0
100
AcDbText
 10
1854.49812306848
 20
1882.734780359108
 30
0.0
 40
228.6
  1
31
 41
1.083333333333333
  7
ＭＳ ゴシック
100
AcDbText
  0
LINE
  5
CD
330
1F
100
AcDbEntity
  8
0-B_寸法
  6
Continuous
 62
     3
370
     9
100
AcDbLine
 10
-2838.151230001835
 20
3011.968264109457
 30
0.0
 11
-2188.151230001835
 21
3011.968264109457
 31
0.0
  0
LWPOLYLINE
  5
CE
330
1F
100
AcDbEntity
  8
0-B_寸法
  6
Continuous
 62
     3
370
     9
100
AcDbPolyline
 90
        4
 70
     1
 43
20.0
 10
-2828.151230001834
 20
3011.968264109457
 42
0.4142135623731
 10
-2838.151230001835
 20
3021.968264109457
 42
0.4142135623731
 10
-2848.151230001835
 20
3011.968264109457
 42
0.4142135623731
 10
-2838.151230001835
 20
3001.968264109457
 42
0.4142135623731
  0
LWPOLYLINE
  5
CF
330
1F
100
AcDbEntity
  8
0-B_寸法
  6
Continuous
 62
     3
370
     9
100
AcDbPolyline
 90
        4
 70
     1
 43
20.0
 10
-2178.151230001835
 20
3011.968264109457
 42
0.4142135623731
 10
-2188.151230001835
 20
3021.968264109457
 42
0.4142135623731
 10
-2198.151230001835
 20
3011.968264109457
 42
0.4142135623731
 10
-2188.151230001835
 20
3001.968264109457
 42
0.4142135623731
  0
LINE
  5
D0
330
1F
100
AcDbEntity
  8
0-B_寸法
  6
Continuous
 62
     3
370
     9
100
AcDbLine
 10
-2838.151230001835
 20
3011.968264109457
 30
0.0
 11
-2838.151230001835
 21
2156.170857123672
 31
0.0
  0
LINE
  5
D1
330
1F
100
AcDbEntity
  8
0-B_寸法
  6
Continuous
 62
     3
370
     9
100
AcDbLine
 10
-2188.151230001835
 20
3011.968264109457
 30
0.0
 11
-2188.151230001835
 21
2156.170857123672
 31
0.0
  0
LINE
  5
D2
330
1F
100
AcDbEntity
  8
0-B_寸法
  6
Continuous
 62
     3
370
     9
100
AcDbLine
 10
-2188.151230001835
 20
3011.968264109457
 30
0.0
 11
-1888.151230001835
 21
3011.968264109457
 31
0.0
  0
LWPOLYLINE
  5
D3
330
1F
100
AcDbEntity
  8
0-B_寸法
  6
Continuous
 62
     3
370
     9
100
AcDbPolyline
 90
        4
 70
     1
 43
20.0
 10
-1878.151230001835
 20
3011.968264109457
 42
0.4142135623731
 10
-1888.151230001835
 20
3021.968264109457
 42
0.4142135623731
 10
-1898.151230001835
 20
3011.968264109457
 42
0.4142135623731
 10
-1888.151230001835
 20
3001.968264109457
 42
0.4142135623731
  0
LINE
  5
D4
330
1F
100
AcDbEntity
  8
0-B_寸法
  6
Continuous
 62
     3
370
     9
100
AcDbLine
 10
-1888.151230001835
 20
3011.968264109457
 30
0.0
 11
-1888.151230001835
 21
2156.170857123672
 31
0.0
  0
LINE
  5
D5
330
1F
100
AcDbEntity
  8
0-B_寸法
  6
Continuous
 62
     3
370
     9
100
AcDbLine
 10
-1888.151230001835
 20
3011.968264109457
 30
0.0
 11
2441.848769998169
 21
3011.968264109457
 31
0.0
  0
LWPOLYLINE
  5
D6
330
1F
100
AcDbEntity
  8
0-B_寸法
  6
Continuous
 62
     3
370
     9
100
AcDbPolyline
 90
        4
 70
     1
 43
20.0
 10
2451.848769998169
 20
3011.968264109457
 42
0.4142135623731
 10
2441.848769998169
 20
3021.968264109457
 42
0.4142135623731
 10
2431.848769998168
 20
3011.968264109457
 42
0.4142135623731
 10
2441.848769998169
 20
3001.968264109457
 42
0.4142135623731
  0
LINE
  5
D7
330
1F
100
AcDbEntity
  8
0-B_寸法
  6
Continuous
 62
     3
370
     9
100
AcDbLine
 10
2441.848769998169
 20
3011.968264109457
 30
0.0
 11
2441.848769998169
 21
2156.170857123672
 31
0.0
  0
TEXT
  5
D8
330
1F
100
AcDbEntity
  8
0-B_寸法
  6
Continuous
 62
     7
370
     0
100
AcDbText
 10
26.84876999816694
 20
3104.268264109458
 30
0.0
 40
228.6
  1
433
 41
1.111111111111111
  7
ＭＳ ゴシック
100
AcDbText
  0
LWPOLYLINE
  5
D9
330
1F
100
AcDbEntity
  8
0-B_寸法
  6
Continuous
 62
     3
370
     9
100
AcDbPolyline
 90
        4
 70
     1
 43
20.0
 10
-17920.08824068498
 20
1955.214384317708
 42
0.4142135623731
 10
-17930.08824068498
 20
1965.214384317708
 42
0.4142135623731
 10
-17940.08824068498
 20
1955.214384317708
 42
0.4142135623731
 10
-17930.08824068498
 20
1945.214384317708
 42
0.4142135623731
  0
LINE
  5
DA
330
1F
100
AcDbEntity
  8
0-B_寸法
  6
Continuous
 62
     3
370
     9
100
AcDbLine
 10
-17930.08824068498
 20
1955.214384317708
 30
0.0
 11
-16920.16443664738
 21
1955.214384317708
 31
0.0
  0
LINE
  5
DB
330
1F
100
AcDbEntity
  8
0-B_寸法
  6
Continuous
 62
     3
370
     9
100
AcDbLine
 10
-17930.08824068498
 20
1955.214384317708
 30
0.0
 11
-17930.08824068498
 21
-2803.128156682294
 31
0.0
  0
LWPOLYLINE
  5
DC
330
1F
100
AcDbEntity
  8
0-B_寸法
  6
Continuous
 62
     3
370
     9
100
AcDbPolyline
 90
        4
 70
     1
 43
20.0
 10
-17920.08824068498
 20
-2803.128156682294
 42
0.4142135623731
 10
-17930.08824068498
 20
-2793.128156682294
 42
0.4142135623731
 10
-17940.08824068498
 20
-2803.128156682294
 42
0.4142135623731
 10
-17930.08824068498
 20
-2813.128156682294
 42
0.4142135623731
  0
LINE
  5
DD
330
1F
100
AcDbEntity
  8
0-B_寸法
  6
Continuous
 62
     3
370
     9
100
AcDbLine
 10
-17930.08824068498
 20
-2803.128156682294
 30
0.0
 11
-16920.16443664738
 21
-2803.128156682294
 31
0.0
  0
TEXT
  5
DE
330
1F
100
AcDbEntity
  8
0-A_文字
  6
Continuous
 62
     7
370
     0
100
AcDbText
 10
2533.407412741221
 20
2212.078219999475
 30
0.0
 40
228.6
  1
（桟木）
 41
1.125
  7
ＭＳ ゴシック
100
AcDbText
  0
TEXT
  5
DF
330
1F
100
AcDbEntity
  8
0-A_文字
  6
Continuous
 62
     7
370
     0
100
AcDbText
 10
2598.071862480688
 20
1759.427071823204
 30
0.0
 40
228.6
  1
（ｸﾘｱﾗﾝｽ）
 41
1.133333333333333
  7
ＭＳ ゴシック
100
AcDbText
  0
LWPOLYLINE
  5
E0
330
1F
100
AcDbEntity
  8
0-B_寸法
  6
Continuous
 62
     3
370
     9
100
AcDbPolyline
 90
        4
 70
     1
 43
20.0
 10
-8946.906077348067
 20
10160.21438431771
 42
0.4142135623731
 10
-8956.906077348065
 20
10170.21438431771
 42
0.4142135623731
 10
-8966.906077348065
 20
10160.21438431771
 42
0.4142135623731
 10
-8956.906077348065
 20
10150.21438431771
 42
0.4142135623731
  0
LINE
  5
E1
330
1F
100
AcDbEntity
  8
0-B_寸法
  6
Continuous
 62
     3
370
     9
100
AcDbLine
 10
-8956.906077348065
 20
10160.21438431771
 30
0.0
 11
-10117.1270718232
 21
10160.21438431771
 31
0.0
  0
LINE
  5
E2
330
1F
100
AcDbEntity
  8
0-B_寸法
  6
Continuous
 62
     3
370
     9
100
AcDbLine
 10
-8956.906077348067
 20
-10773.12815668229
 30
0.0
 11
-8956.906077348067
 21
-10843.12815668229
 31
0.0
  0
LWPOLYLINE
  5
E3
330
1F
100
AcDbEntity
  8
0-B_寸法
  6
Continuous
 62
     3
370
     9
100
AcDbPolyline
 90
        4
 70
     1
 43
20.0
 10
-8946.906077348067
 20
-10843.12815668229
 42
0.4142135623731
 10
-8956.906077348067
 20
-10833.12815668229
 42
0.4142135623731
 10
-8966.906077348067
 20
-10843.12815668229
 42
0.4142135623731
 10
-8956.906077348067
 20
-10853.12815668229
 42
0.4142135623731
  0
LINE
  5
E4
330
1F
100
AcDbEntity
  8
0-B_寸法
  6
Continuous
 62
     3
370
     9
100
AcDbLine
 10
-8956.906077348067
 20
-10843.12815668229
 30
0.0
 11
-10117.1270718232
 21
-10843.12815668229
 31
0.0
  0
LINE
  5
E5
330
1F
100
AcDbEntity
  8
0-2_柱
  6
Continuous
 62
     7
370
     9
100
AcDbLine
 10
-16536.04972375691
 20
-525.4093224019648
 30
0.0
 11
-16536.04972375691
 21
-12173.12815668229
 31
0.0
  0
LINE
  5
E6
330
1F
100
AcDbEntity
  8
0-3_仕上
  6
Continuous
 62
     7
370
     9
100
AcDbLine
 10
-16536.04972375691
 20
-12173.12815668229
 30
0.0
 11
-15486.04972375691
 21
-12173.12815668229
 31
0.0
  0
LINE
  5
E7
330
1F
100
AcDbEntity
  8
0-2_柱
  6
Continuous
 62
     7
370
     9
100
AcDbLine
 10
-15486.04972375691
 20
-525.4093224019648
 30
0.0
 11
-15486.04972375691
 21
-12173.12815668229
 31
0.0
  0
LINE
  5
E8
330
1F
100
AcDbEntity
  8
0-1_通り芯
  6
JWW_CENTER1
 62
     3
370
     9
100
AcDbLine
 10
-16011.04972375691
 20
10922.6176996713
 30
0.0
 11
-16011.04972375691
 21
-12359.26789034066
 31
0.0
  0
LINE
  5
E9
330
1F
100
AcDbEntity
  8
0-3_仕上
  6
Continuous
 62
     7
370
     9
100
AcDbLine
 10
-15486.04972375691
 20
-11123.12815668229
 30
0.0
 11
-16536.04972375691
 21
-12173.12815668229
 31
0.0
  0
LINE
  5
EA
330
1F
100
AcDbEntity
  8
0-3_仕上
  6
Continuous
 62
     7
370
     9
100
AcDbLine
 10
-16536.04972375691
 20
-11123.12815668229
 30
0.0
 11
-15486.04972375691
 21
-12173.12815668229
 31
0.0
  0
LINE
  5
EB
330
1F
100
AcDbEntity
  8
0-3_仕上
  6
Continuous
 62
     7
370
     9
100
AcDbLine
 10
-15486.04972375691
 20
10160.21438431771
 30
0.0
 11
-3387.845303867402
 21
10160.21438431771
 31
0.0
  0
LINE
  5
EC
330
1F
100
AcDbEntity
  8
0-2_柱
  6
Continuous
 62
     7
370
     9
100
AcDbLine
 10
-15361.04972375691
 20
10160.21438431771
 30
0.0
 11
-15361.04972375691
 21
-86.98142054026957
 31
0.0
  0
LINE
  5
ED
330
1F
100
AcDbEntity
  8
0-C_ハッチ
  6
JWW_DASHED1
 62
     3
370
     9
100
AcDbLine
 10
-15368.6115562762
 20
-10843.12815668226
 30
0.0
 11
-15361.04972375693
 21
-10835.56632416299
 31
0.0
  0
LINE
  5
EE
330
1F
100
AcDbEntity
  8
0-C_ハッチ
  6
JWW_DASHED1
 62
     3
370
     9
100
AcDbLine
 10
-15486.04972375689
 20
-9687.774118027131
 30
0.0
 11
-15361.0497237569
 21
-9562.774118027139
 31
0.0
  0
LINE
  5
EF
330
1F
100
AcDbEntity
  8
0-C_ハッチ
  6
JWW_DASHED1
 62
     3
370
     9
100
AcDbLine
 10
-15486.04972375692
 20
-9546.352761790005
 30
0.0
 11
-15361.04972375687
 21
-9421.35276178996
 31
0.0
  0
LINE
  5
F0
330
1F
100
AcDbEntity
  8
0-C_ハッチ
  6
JWW_DASHED1
 62
     3
370
     9
100
AcDbLine
 10
-15486.04972375687
 20
-9404.93140555263
 30
0.0
 11
-15361.04972375688
 21
-9279.931405552637
 31
0.0
  0
LINE
  5
F1
330
1F
100
AcDbEntity
  8
0-C_ハッチ
  6
JWW_DASHED1
 62
     3
370
     9
100
AcDbLine
 10
-15486.04972375689
 20
-9263.51004931531
 30
0.0
 11
-15361.04972375689
 21
-9138.510049315317
 31
0.0
  0
LINE
  5
F2
330
1F
100
AcDbEntity
  8
0-C_ハッチ
  6
JWW_DASHED1
 62
     3
370
     9
100
AcDbLine
 10
-15486.0497237569
 20
-9122.088693077989
 30
0.0
 11
-15361.04972375691
 21
-8997.088693077996
 31
0.0
  0
LINE
  5
F3
330
1F
100
AcDbEntity
  8
0-C_ハッチ
  6
JWW_DASHED1
 62
     3
370
     9
100
AcDbLine
 10
-15486.04972375691
 20
-8980.667336840663
 30
0.0
 11
-15361.04972375691
 21
-8855.66733684067
 31
0.0
  0
LINE
  5
F4
330
1F
100
AcDbEntity
  8
0-C_ハッチ
  6
JWW_DASHED1
 62
     3
370
     9
100
AcDbLine
 10
-15486.04972375692
 20
-8839.24598060334
 30
0.0
 11
-15361.04972375692
 21
-8714.245980603348
 31
0.0
  0
LINE
  5
F5
330
1F
100
AcDbEntity
  8
0-C_ハッチ
  6
JWW_DASHED1
 62
     3
370
     9
100
AcDbLine
 10
-15486.04972375693
 20
-8697.824624366018
 30
0.0
 11
-15361.04972375694
 21
-8572.824624366027
 31
0.0
  0
LINE
  5
F6
330
1F
100
AcDbEntity
  8
0-C_ハッチ
  6
JWW_DASHED1
 62
     3
370
     9
100
AcDbLine
 10
-15486.04972375689
 20
-8556.40326812865
 30
0.0
 11
-15361.0497237569
 21
-8431.403268128657
 31
0.0
  0
LINE
  5
F7
330
1F
100
AcDbEntity
  8
0-C_ハッチ
  6
JWW_DASHED1
 62
     3
370
     9
100
AcDbLine
 10
-15486.04972375692
 20
-8414.981911891524
 30
0.0
 11
-15361.04972375687
 21
-8289.981911891478
 31
0.0
  0
LINE
  5
F8
330
1F
100
AcDbEntity
  8
0-C_ハッチ
  6
JWW_DASHED1
 62
     3
370
     9
100
AcDbLine
 10
-15486.04972375688
 20
-8273.560555654152
 30
0.0
 11
-15361.04972375689
 21
-8148.560555654159
 31
0.0
  0
LINE
  5
F9
330
1F
100
AcDbEntity
  8
0-C_ハッチ
  6
JWW_DASHED1
 62
     3
370
     9
100
AcDbLine
 10
-15486.04972375689
 20
-8132.13919941683
 30
0.0
 11
-15361.0497237569
 21
-8007.139199416836
 31
0.0
  0
LINE
  5
FA
330
1F
100
AcDbEntity
  8
0-C_ハッチ
  6
JWW_DASHED1
 62
     3
370
     9
100
AcDbLine
 10
-15486.0497237569
 20
-7990.717843179507
 30
0.0
 11
-15361.04972375691
 21
-7865.717843179515
 31
0.0
  0
LINE
  5
FB
330
1F
100
AcDbEntity
  8
0-C_ハッチ
  6
JWW_DASHED1
 62
     3
370
     9
100
AcDbLine
 10
-15486.04972375691
 20
-7849.296486942178
 30
0.0
 11
-15361.04972375692
 21
-7724.296486942188
 31
0.0
  0
LINE
  5
FC
330
1F
100
AcDbEntity
  8
0-C_ハッチ
  6
JWW_DASHED1
 62
     3
370
     9
100
AcDbLine
 10
-15486.04972375692
 20
-7707.875130704858
 30
0.0
 11
-15361.04972375693
 21
-7582.875130704865
 31
0.0
  0
LINE
  5
FD
330
1F
100
AcDbEntity
  8
0-C_ハッチ
  6
JWW_DASHED1
 62
     3
370
     9
100
AcDbLine
 10
-15486.04972375689
 20
-7566.453774467492
 30
0.0
 11
-15361.04972375689
 21
-7441.453774467499
 31
0.0
  0
LINE
  5
FE
330
1F
100
AcDbEntity
  8
0-C_ハッチ
  6
JWW_DASHED1
 62
     3
370
     9
100
AcDbLine
 10
-15486.0497237569
 20
-7425.032418230169
 30
0.0
 11
-15361.04972375691
 21
-7300.032418230177
 31
0.0
  0
LINE
  5
FF
330
1F
100
AcDbEntity
  8
0-C_ハッチ
  6
JWW_DASHED1
 62
     3
370
     9
100
AcDbLine
 10
-15486.04972375687
 20
-7283.611061992991
 30
0.0
 11
-15361.04972375688
 21
-7158.611061992999
 31
0.0
  0
LINE
  5
100
330
1F
100
AcDbEntity
  8
0-C_ハッチ
  6
JWW_DASHED1
 62
     3
370
     9
100
AcDbLine
 10
-15486.04972375688
 20
-7142.189705755671
 30
0.0
 11
-15361.04972375689
 21
-7017.189705755678
 31
0.0
  0
LINE
  5
101
330
1F
100
AcDbEntity
  8
0-C_ハッチ
  6
JWW_DASHED1
 62
     3
370
     9
100
AcDbLine
 10
-15486.04972375689
 20
-7000.768349518348
 30
0.0
 11
-15361.0497237569
 21
-6875.768349518356
 31
0.0
  0
LINE
  5
102
330
1F
100
AcDbEntity
  8
0-C_ハッチ
  6
JWW_DASHED1
 62
     3
370
     9
100
AcDbLine
 10
-15486.0497237569
 20
-6859.346993281019
 30
0.0
 11
-15361.04972375691
 21
-6734.346993281025
 31
0.0
  0
LINE
  5
103
330
1F
100
AcDbEntity
  8
0-C_ハッチ
  6
JWW_DASHED1
 62
     3
370
     9
100
AcDbLine
 10
-15486.04972375691
 20
-6717.925637043696
 30
0.0
 11
-15361.04972375692
 21
-6592.925637043703
 31
0.0
  0
LINE
  5
104
330
1F
100
AcDbEntity
  8
0-C_ハッチ
  6
JWW_DASHED1
 62
     3
370
     9
100
AcDbLine
 10
-15486.04972375692
 20
-6576.504280806374
 30
0.0
 11
-15361.04972375693
 21
-6451.50428080638
 31
0.0
  0
LINE
  5
105
330
1F
100
AcDbEntity
  8
0-C_ハッチ
  6
JWW_DASHED1
 62
     3
370
     9
100
AcDbLine
 10
-15486.04972375689
 20
-6435.082924569011
 30
0.0
 11
-15361.0497237569
 21
-6310.082924569017
 31
0.0
  0
LINE
  5
106
330
1F
100
AcDbEntity
  8
0-C_ハッチ
  6
JWW_DASHED1
 62
     3
370
     9
100
AcDbLine
 10
-15486.04972375692
 20
-6293.661568331885
 30
0.0
 11
-15361.04972375687
 21
-6168.66156833184
 31
0.0
  0
LINE
  5
107
330
1F
100
AcDbEntity
  8
0-C_ハッチ
  6
JWW_DASHED1
 62
     3
370
     9
100
AcDbLine
 10
-15486.04972375688
 20
-6152.240212094512
 30
0.0
 11
-15361.04972375689
 21
-6027.24021209452
 31
0.0
  0
LINE
  5
108
330
1F
100
AcDbEntity
  8
0-C_ハッチ
  6
JWW_DASHED1
 62
     3
370
     9
100
AcDbLine
 10
-15486.04972375689
 20
-6010.818855857189
 30
0.0
 11
-15361.0497237569
 21
-5885.818855857198
 31
0.0
  0
LINE
  5
109
330
1F
100
AcDbEntity
  8
0-C_ハッチ
  6
JWW_DASHED1
 62
     3
370
     9
100
AcDbLine
 10
-15486.0497237569
 20
-5869.397499619868
 30
0.0
 11
-15361.04972375691
 21
-5744.397499619875
 31
0.0
  0
LINE
  5
10A
330
1F
100
AcDbEntity
  8
0-C_ハッチ
  6
JWW_DASHED1
 62
     3
370
     9
100
AcDbLine
 10
-15486.0497237569
 20
-5727.976143382534
 30
0.0
 11
-15361.04972375691
 21
-5602.976143382542
 31
0.0
  0
LINE
  5
10B
330
1F
100
AcDbEntity
  8
0-C_ハッチ
  6
JWW_DASHED1
 62
     3
370
     9
100
AcDbLine
 10
-15486.04972375691
 20
-5586.554787145214
 30
0.0
 11
-15361.04972375692
 21
-5461.554787145221
 31
0.0
  0
LINE
  5
10C
330
1F
100
AcDbEntity
  8
0-C_ハッチ
  6
JWW_DASHED1
 62
     3
370
     9
100
AcDbLine
 10
-15486.04972375692
 20
-5445.133430907892
 30
0.0
 11
-15361.04972375693
 21
-5320.133430907898
 31
0.0
  0
LINE
  5
10D
330
1F
100
AcDbEntity
  8
0-C_ハッチ
  6
JWW_DASHED1
 62
     3
370
     9
100
AcDbLine
 10
-15486.04972375689
 20
-5303.71207467053
 30
0.0
 11
-15361.0497237569
 21
-5178.712074670537
 31
0.0
  0
LINE
  5
10E
330
1F
100
AcDbEntity
  8
0-C_ハッチ
  6
JWW_DASHED1
 62
     3
370
     9
100
AcDbLine
 10
-15486.04972375687
 20
-5162.290718433353
 30
0.0
 11
-15361.04972375688
 21
-5037.290718433358
 31
0.0
  0
LINE
  5
10F
330
1F
100
AcDbEntity
  8
0-C_ハッチ
  6
JWW_DASHED1
 62
     3
370
     9
100
AcDbLine
 10
-15486.04972375688
 20
-5020.869362196031
 30
0.0
 11
-15361.04972375689
 21
-4895.869362196039
 31
0.0
  0
LINE
  5
110
330
1F
100
AcDbEntity
  8
0-C_ハッチ
  6
JWW_DASHED1
 62
     3
370
     9
100
AcDbLine
 10
-15486.04972375689
 20
-4879.448005958709
 30
0.0
 11
-15361.04972375691
 21
-4754.44800595872
 31
0.0
  0
LINE
  5
111
330
1F
100
AcDbEntity
  8
0-C_ハッチ
  6
JWW_DASHED1
 62
     3
370
     9
100
AcDbLine
 10
-15486.04972375689
 20
-4738.026649721371
 30
0.0
 11
-15361.0497237569
 21
-4613.026649721382
 31
0.0
  0
LINE
  5
112
330
1F
100
AcDbEntity
  8
0-C_ハッチ
  6
JWW_DASHED1
 62
     3
370
     9
100
AcDbLine
 10
-15486.0497237569
 20
-4596.605293484052
 30
0.0
 11
-15361.04972375691
 21
-4471.605293484059
 31
0.0
  0
LINE
  5
113
330
1F
100
AcDbEntity
  8
0-C_ハッチ
  6
JWW_DASHED1
 62
     3
370
     9
100
AcDbLine
 10
-15486.04972375691
 20
-4455.183937246728
 30
0.0
 11
-15361.04972375692
 21
-4330.183937246738
 31
0.0
  0
LINE
  5
114
330
1F
100
AcDbEntity
  8
0-C_ハッチ
  6
JWW_DASHED1
 62
     3
370
     9
100
AcDbLine
 10
-15486.04972375689
 20
-4313.76258100937
 30
0.0
 11
-15361.0497237569
 21
-4188.76258100938
 31
0.0
  0
LINE
  5
115
330
1F
100
AcDbEntity
  8
0-C_ハッチ
  6
JWW_DASHED1
 62
     3
370
     9
100
AcDbLine
 10
-15486.04972375692
 20
-4172.341224772248
 30
0.0
 11
-15361.04972375687
 21
-4047.341224772203
 31
0.0
  0
LINE
  5
116
330
1F
100
AcDbEntity
  8
0-C_ハッチ
  6
JWW_DASHED1
 62
     3
370
     9
100
AcDbLine
 10
-15486.04972375688
 20
-4030.919868534873
 30
0.0
 11
-15361.04972375688
 21
-3905.91986853488
 31
0.0
  0
LINE
  5
117
330
1F
100
AcDbEntity
  8
0-C_ハッチ
  6
JWW_DASHED1
 62
     3
370
     9
100
AcDbLine
 10
-15486.04972375689
 20
-3889.498512297553
 30
0.0
 11
-15361.04972375689
 21
-3764.498512297557
 31
0.0
  0
LINE
  5
118
330
1F
100
AcDbEntity
  8
0-C_ハッチ
  6
JWW_DASHED1
 62
     3
370
     9
100
AcDbLine
 10
-15486.0497237569
 20
-3748.077156060229
 30
0.0
 11
-15361.04972375691
 21
-3623.077156060238
 31
0.0
  0
LINE
  5
119
330
1F
100
AcDbEntity
  8
0-C_ハッチ
  6
JWW_DASHED1
 62
     3
370
     9
100
AcDbLine
 10
-15486.04972375689
 20
-3606.655799822892
 30
0.0
 11
-15361.0497237569
 21
-3481.655799822899
 31
0.0
  0
LINE
  5
11A
330
1F
100
AcDbEntity
  8
0-C_ハッチ
  6
JWW_DASHED1
 62
     3
370
     9
100
AcDbLine
 10
-15486.04972375691
 20
-3465.234443585569
 30
0.0
 11
-15361.04972375691
 21
-3340.234443585577
 31
0.0
  0
LINE
  5
11B
330
1F
100
AcDbEntity
  8
0-C_ハッチ
  6
JWW_DASHED1
 62
     3
370
     9
100
AcDbLine
 10
-15486.04972375692
 20
-3323.813087348248
 30
0.0
 11
-15361.04972375692
 21
-3198.813087348255
 31
0.0
  0
LINE
  5
11C
330
1F
100
AcDbEntity
  8
0-C_ハッチ
  6
JWW_DASHED1
 62
     3
370
     9
100
AcDbLine
 10
-15486.04972375689
 20
-3182.39173111089
 30
0.0
 11
-15361.0497237569
 21
-3057.3917311109
 31
0.0
  0
LINE
  5
11D
330
1F
100
AcDbEntity
  8
0-C_ハッチ
  6
JWW_DASHED1
 62
     3
370
     9
100
AcDbLine
 10
-15486.04972375692
 20
-3040.970374873768
 30
0.0
 11
-15361.04972375688
 21
-2915.970374873722
 31
0.0
  0
LINE
  5
11E
330
1F
100
AcDbEntity
  8
0-C_ハッチ
  6
JWW_DASHED1
 62
     3
370
     9
100
AcDbLine
 10
-15486.04972375688
 20
-2899.549018636392
 30
0.0
 11
-15361.04972375689
 21
-2774.549018636402
 31
0.0
  0
LINE
  5
11F
330
1F
100
AcDbEntity
  8
0-C_ハッチ
  6
JWW_DASHED1
 62
     3
370
     9
100
AcDbLine
 10
-15486.04972375689
 20
-2758.127662399073
 30
0.0
 11
-15361.0497237569
 21
-2633.127662399079
 31
0.0
  0
LINE
  5
120
330
1F
100
AcDbEntity
  8
0-C_ハッチ
  6
JWW_DASHED1
 62
     3
370
     9
100
AcDbLine
 10
-15486.04972375691
 20
-2616.70630616175
 30
0.0
 11
-15361.04972375691
 21
-2491.706306161757
 31
0.0
  0
LINE
  5
121
330
1F
100
AcDbEntity
  8
0-C_ハッチ
  6
JWW_DASHED1
 62
     3
370
     9
100
AcDbLine
 10
-15486.0497237569
 20
-2475.284949924409
 30
0.0
 11
-15361.0497237569
 21
-2350.284949924415
 31
0.0
  0
LINE
  5
122
330
1F
100
AcDbEntity
  8
0-C_ハッチ
  6
JWW_DASHED1
 62
     3
370
     9
100
AcDbLine
 10
-15486.04972375691
 20
-2333.863593687086
 30
0.0
 11
-15361.04972375692
 21
-2208.863593687094
 31
0.0
  0
LINE
  5
123
330
1F
100
AcDbEntity
  8
0-C_ハッチ
  6
JWW_DASHED1
 62
     3
370
     9
100
AcDbLine
 10
-15486.04972375689
 20
-2192.442237449734
 30
0.0
 11
-15361.04972375689
 21
-2067.442237449741
 31
0.0
  0
LINE
  5
124
330
1F
100
AcDbEntity
  8
0-C_ハッチ
  6
JWW_DASHED1
 62
     3
370
     9
100
AcDbLine
 10
-15486.0497237569
 20
-2051.020881212412
 30
0.0
 11
-15361.04972375691
 21
-1926.020881212421
 31
0.0
  0
LINE
  5
125
330
1F
100
AcDbEntity
  8
0-C_ハッチ
  6
JWW_DASHED1
 62
     3
370
     9
100
AcDbLine
 10
-15486.04972375687
 20
-1909.599524975235
 30
0.0
 11
-15361.04972375688
 21
-1784.59952497524
 31
0.0
  0
LINE
  5
126
330
1F
100
AcDbEntity
  8
0-C_ハッチ
  6
JWW_DASHED1
 62
     3
370
     9
100
AcDbLine
 10
-15486.04972375689
 20
-1768.178168737913
 30
0.0
 11
-15361.04972375689
 21
-1643.178168737921
 31
0.0
  0
LINE
  5
127
330
1F
100
AcDbEntity
  8
0-C_ハッチ
  6
JWW_DASHED1
 62
     3
370
     9
100
AcDbLine
 10
-15486.0497237569
 20
-1626.756812500591
 30
0.0
 11
-15361.04972375691
 21
-1501.756812500599
 31
0.0
  0
LINE
  5
128
330
1F
100
AcDbEntity
  8
0-C_ハッチ
  6
JWW_DASHED1
 62
     3
370
     9
100
AcDbLine
 10
-15486.04972375689
 20
-1485.335456263246
 30
0.0
 11
-15361.04972375689
 21
-1360.335456263255
 31
0.0
  0
LINE
  5
129
330
1F
100
AcDbEntity
  8
0-C_ハッチ
  6
JWW_DASHED1
 62
     3
370
     9
100
AcDbLine
 10
-15486.0497237569
 20
-1343.914100025924
 30
0.0
 11
-15361.04972375691
 21
-1218.914100025933
 31
0.0
  0
LINE
  5
12A
330
1F
100
AcDbEntity
  8
0-C_ハッチ
  6
JWW_DASHED1
 62
     3
370
     9
100
AcDbLine
 10
-15486.04972375691
 20
-1202.492743788602
 30
0.0
 11
-15361.04972375692
 21
-1077.492743788611
 31
0.0
  0
LINE
  5
12B
330
1F
100
AcDbEntity
  8
0-C_ハッチ
  6
JWW_DASHED1
 62
     3
370
     9
100
AcDbLine
 10
-15486.04972375689
 20
-1061.071387551253
 30
0.0
 11
-15361.0497237569
 21
-936.0713875512602
 31
0.0
  0
LINE
  5
12C
330
1F
100
AcDbEntity
  8
0-C_ハッチ
  6
JWW_DASHED1
 62
     3
370
     9
100
AcDbLine
 10
-15486.04972375692
 20
-919.6500313141286
 30
0.0
 11
-15361.04972375687
 21
-794.6500313140831
 31
0.0
  0
LINE
  5
12D
330
1F
100
AcDbEntity
  8
0-C_ハッチ
  6
JWW_DASHED1
 62
     3
370
     9
100
AcDbLine
 10
-15486.04972375688
 20
-778.2286750767539
 30
0.0
 11
-15361.04972375689
 21
-653.2286750767626
 31
0.0
  0
LINE
  5
12E
330
1F
100
AcDbEntity
  8
0-C_ハッチ
  6
JWW_DASHED1
 62
     3
370
     9
100
AcDbLine
 10
-15486.04972375689
 20
-636.8073188394334
 30
0.0
 11
-15361.0497237569
 21
-511.8073188394405
 31
0.0
  0
LINE
  5
12F
330
1F
100
AcDbEntity
  8
0-C_ハッチ
  6
JWW_DASHED1
 62
     3
370
     9
100
AcDbLine
 10
-15486.04972375691
 20
-71.12189389011974
 30
0.0
 11
-15361.04972375692
 21
53.87810610987316
 31
0.0
  0
LINE
  5
130
330
1F
100
AcDbEntity
  8
0-C_ハッチ
  6
JWW_DASHED1
 62
     3
370
     9
100
AcDbLine
 10
-15486.0497237569
 20
70.29946234722786
 30
0.0
 11
-15361.04972375691
 21
195.2994623472179
 31
0.0
  0
LINE
  5
131
330
1F
100
AcDbEntity
  8
0-C_ハッチ
  6
JWW_DASHED1
 62
     3
370
     9
100
AcDbLine
 10
-15486.04972375687
 20
211.7208185844063
 30
0.0
 11
-15361.04972375688
 21
336.7208185843964
 31
0.0
  0
LINE
  5
132
330
1F
100
AcDbEntity
  8
0-C_ハッチ
  6
JWW_DASHED1
 62
     3
370
     9
100
AcDbLine
 10
-15486.04972375688
 20
353.1421748217255
 30
0.0
 11
-15361.04972375689
 21
478.1421748217184
 31
0.0
  0
LINE
  5
133
330
1F
100
AcDbEntity
  8
0-C_ハッチ
  6
JWW_DASHED1
 62
     3
370
     9
100
AcDbLine
 10
-15486.0497237569
 20
494.5635310590461
 30
0.0
 11
-15361.04972375691
 21
619.563531059039
 31
0.0
  0
LINE
  5
134
330
1F
100
AcDbEntity
  8
0-C_ハッチ
  6
JWW_DASHED1
 62
     3
370
     9
100
AcDbLine
 10
-15486.04972375691
 20
635.9848872963681
 30
0.0
 11
-15361.04972375692
 21
760.984887296361
 31
0.0
  0
LINE
  5
135
330
1F
100
AcDbEntity
  8
0-C_ハッチ
  6
JWW_DASHED1
 62
     3
370
     9
100
AcDbLine
 10
-15486.04972375689
 20
777.40624353372
 30
0.0
 11
-15361.0497237569
 21
902.4062435337129
 31
0.0
  0
LINE
  5
136
330
1F
100
AcDbEntity
  8
0-C_ハッチ
  6
JWW_DASHED1
 62
     3
370
     9
100
AcDbLine
 10
-15486.0497237569
 20
918.8275997710406
 30
0.0
 11
-15361.04972375691
 21
1043.827599771033
 31
0.0
  0
LINE
  5
137
330
1F
100
AcDbEntity
  8
0-C_ハッチ
  6
JWW_DASHED1
 62
     3
370
     9
100
AcDbLine
 10
-15486.04972375689
 20
1060.248956008385
 30
0.0
 11
-15361.0497237569
 21
1185.248956008378
 31
0.0
  0
LINE
  5
138
330
1F
100
AcDbEntity
  8
0-C_ハッチ
  6
JWW_DASHED1
 62
     3
370
     9
100
AcDbLine
 10
-15486.0497237569
 20
1201.670312245707
 30
0.0
 11
-15361.04972375691
 21
1326.670312245699
 31
0.0
  0
LINE
  5
139
330
1F
100
AcDbEntity
  8
0-C_ハッチ
  6
JWW_DASHED1
 62
     3
370
     9
100
AcDbLine
 10
-15486.04972375688
 20
1343.091668482884
 30
0.0
 11
-15361.04972375688
 21
1468.091668482877
 31
0.0
  0
LINE
  5
13A
330
1F
100
AcDbEntity
  8
0-C_ハッチ
  6
JWW_DASHED1
 62
     3
370
     9
100
AcDbLine
 10
-15486.04972375689
 20
1484.513024720206
 30
0.0
 11
-15361.04972375689
 21
1609.513024720199
 31
0.0
  0
LINE
  5
13B
330
1F
100
AcDbEntity
  8
0-C_ハッチ
  6
JWW_DASHED1
 62
     3
370
     9
100
AcDbLine
 10
-15486.0497237569
 20
1625.934380957527
 30
0.0
 11
-15361.04972375691
 21
1750.93438095752
 31
0.0
  0
LINE
  5
13C
330
1F
100
AcDbEntity
  8
0-C_ハッチ
  6
JWW_DASHED1
 62
     3
370
     9
100
AcDbLine
 10
-15486.04972375688
 20
1767.35573719488
 30
0.0
 11
-15361.04972375689
 21
1892.355737194873
 31
0.0
  0
LINE
  5
13D
330
1F
100
AcDbEntity
  8
0-C_ハッチ
  6
JWW_DASHED1
 62
     3
370
     9
100
AcDbLine
 10
-15486.04972375689
 20
1908.777093432202
 30
0.0
 11
-15361.0497237569
 21
2033.777093432195
 31
0.0
  0
LINE
  5
13E
330
1F
100
AcDbEntity
  8
0-C_ハッチ
  6
JWW_DASHED1
 62
     3
370
     9
100
AcDbLine
 10
-15486.04972375691
 20
2050.198449669525
 30
0.0
 11
-15361.04972375691
 21
2175.198449669517
 31
0.0
  0
LINE
  5
13F
330
1F
100
AcDbEntity
  8
0-C_ハッチ
  6
JWW_DASHED1
 62
     3
370
     9
100
AcDbLine
 10
-15486.0497237569
 20
2191.619805906865
 30
0.0
 11
-15361.04972375691
 21
2316.619805906858
 31
0.0
  0
LINE
  5
140
330
1F
100
AcDbEntity
  8
0-C_ハッチ
  6
JWW_DASHED1
 62
     3
370
     9
100
AcDbLine
 10
-15486.04972375692
 20
2333.041162143991
 30
0.0
 11
-15361.04972375688
 21
2458.041162144036
 31
0.0
  0
LINE
  5
141
330
1F
100
AcDbEntity
  8
0-C_ハッチ
  6
JWW_DASHED1
 62
     3
370
     9
100
AcDbLine
 10
-15486.04972375688
 20
2474.462518381365
 30
0.0
 11
-15361.04972375689
 21
2599.462518381357
 31
0.0
  0
LINE
  5
142
330
1F
100
AcDbEntity
  8
0-C_ハッチ
  6
JWW_DASHED1
 62
     3
370
     9
100
AcDbLine
 10
-15486.04972375689
 20
2615.883874618686
 30
0.0
 11
-15361.0497237569
 21
2740.883874618678
 31
0.0
  0
LINE
  5
143
330
1F
100
AcDbEntity
  8
0-C_ハッチ
  6
JWW_DASHED1
 62
     3
370
     9
100
AcDbLine
 10
-15486.04972375691
 20
2757.305230856008
 30
0.0
 11
-15361.04972375691
 21
2882.305230856
 31
0.0
  0
LINE
  5
144
330
1F
100
AcDbEntity
  8
0-C_ハッチ
  6
JWW_DASHED1
 62
     3
370
     9
100
AcDbLine
 10
-15486.04972375688
 20
2898.726587093363
 30
0.0
 11
-15361.04972375689
 21
3023.726587093356
 31
0.0
  0
LINE
  5
145
330
1F
100
AcDbEntity
  8
0-C_ハッチ
  6
JWW_DASHED1
 62
     3
370
     9
100
AcDbLine
 10
-15486.04972375689
 20
3040.147943330684
 30
0.0
 11
-15361.0497237569
 21
3165.147943330678
 31
0.0
  0
LINE
  5
146
330
1F
100
AcDbEntity
  8
0-C_ハッチ
  6
JWW_DASHED1
 62
     3
370
     9
100
AcDbLine
 10
-15486.04972375691
 20
3181.569299568007
 30
0.0
 11
-15361.04972375691
 21
3306.569299568
 31
0.0
  0
LINE
  5
147
330
1F
100
AcDbEntity
  8
0-C_ハッチ
  6
JWW_DASHED1
 62
     3
370
     9
100
AcDbLine
 10
-15486.0497237569
 20
3322.990655805346
 30
0.0
 11
-15361.04972375691
 21
3447.990655805339
 31
0.0
  0
LINE
  5
148
330
1F
100
AcDbEntity
  8
0-C_ハッチ
  6
JWW_DASHED1
 62
     3
370
     9
100
AcDbLine
 10
-15486.04972375688
 20
3464.412012042523
 30
0.0
 11
-15361.04972375688
 21
3589.412012042516
 31
0.0
  0
LINE
  5
149
330
1F
100
AcDbEntity
  8
0-C_ハッチ
  6
JWW_DASHED1
 62
     3
370
     9
100
AcDbLine
 10
-15486.04972375689
 20
3605.833368279846
 30
0.0
 11
-15361.04972375689
 21
3730.833368279837
 31
0.0
  0
LINE
  5
14A
330
1F
100
AcDbEntity
  8
0-C_ハッチ
  6
JWW_DASHED1
 62
     3
370
     9
100
AcDbLine
 10
-15486.0497237569
 20
3747.254724517167
 30
0.0
 11
-15361.04972375691
 21
3872.254724517159
 31
0.0
  0
LINE
  5
14B
330
1F
100
AcDbEntity
  8
0-C_ハッチ
  6
JWW_DASHED1
 62
     3
370
     9
100
AcDbLine
 10
-15486.04972375687
 20
3888.676080754524
 30
0.0
 11
-15361.04972375688
 21
4013.676080754517
 31
0.0
  0
LINE
  5
14C
330
1F
100
AcDbEntity
  8
0-C_ハッチ
  6
JWW_DASHED1
 62
     3
370
     9
100
AcDbLine
 10
-15486.04972375689
 20
4030.097436991846
 30
0.0
 11
-15361.04972375689
 21
4155.097436991839
 31
0.0
  0
LINE
  5
14D
330
1F
100
AcDbEntity
  8
0-C_ハッチ
  6
JWW_DASHED1
 62
     3
370
     9
100
AcDbLine
 10
-15486.0497237569
 20
4171.518793229168
 30
0.0
 11
-15361.04972375691
 21
4296.518793229161
 31
0.0
  0
LINE
  5
14E
330
1F
100
AcDbEntity
  8
0-C_ハッチ
  6
JWW_DASHED1
 62
     3
370
     9
100
AcDbLine
 10
-15486.04972375689
 20
4312.940149466504
 30
0.0
 11
-15361.0497237569
 21
4437.940149466496
 31
0.0
  0
LINE
  5
14F
330
1F
100
AcDbEntity
  8
0-C_ハッチ
  6
JWW_DASHED1
 62
     3
370
     9
100
AcDbLine
 10
-15486.04972375692
 20
4454.36150570363
 30
0.0
 11
-15361.04972375687
 21
4579.361505703675
 31
0.0
  0
LINE
  5
150
330
1F
100
AcDbEntity
  8
0-C_ハッチ
  6
JWW_DASHED1
 62
     3
370
     9
100
AcDbLine
 10
-15486.04972375688
 20
4595.782861941005
 30
0.0
 11
-15361.04972375689
 21
4720.782861940996
 31
0.0
  0
LINE
  5
151
330
1F
100
AcDbEntity
  8
0-C_ハッチ
  6
JWW_DASHED1
 62
     3
370
     9
100
AcDbLine
 10
-15486.04972375689
 20
4737.204218178325
 30
0.0
 11
-15361.0497237569
 21
4862.204218178317
 31
0.0
  0
LINE
  5
152
330
1F
100
AcDbEntity
  8
0-C_ハッチ
  6
JWW_DASHED1
 62
     3
370
     9
100
AcDbLine
 10
-15486.04972375691
 20
4878.625574415646
 30
0.0
 11
-15361.04972375691
 21
5003.625574415639
 31
0.0
  0
LINE
  5
153
330
1F
100
AcDbEntity
  8
0-C_ハッチ
  6
JWW_DASHED1
 62
     3
370
     9
100
AcDbLine
 10
-15486.04972375688
 20
5020.046930653008
 30
0.0
 11
-15361.04972375688
 21
5145.046930653
 31
0.0
  0
LINE
  5
154
330
1F
100
AcDbEntity
  8
0-C_ハッチ
  6
JWW_DASHED1
 62
     3
370
     9
100
AcDbLine
 10
-15486.04972375689
 20
5161.468286890329
 30
0.0
 11
-15361.04972375689
 21
5286.468286890322
 31
0.0
  0
LINE
  5
155
330
1F
100
AcDbEntity
  8
0-C_ハッチ
  6
JWW_DASHED1
 62
     3
370
     9
100
AcDbLine
 10
-15486.0497237569
 20
5302.889643127653
 30
0.0
 11
-15361.04972375691
 21
5427.889643127643
 31
0.0
  0
LINE
  5
156
330
1F
100
AcDbEntity
  8
0-C_ハッチ
  6
JWW_DASHED1
 62
     3
370
     9
100
AcDbLine
 10
-15486.0497237569
 20
5444.310999364986
 30
0.0
 11
-15361.04972375691
 21
5569.310999364976
 31
0.0
  0
LINE
  5
157
330
1F
100
AcDbEntity
  8
0-C_ハッチ
  6
JWW_DASHED1
 62
     3
370
     9
100
AcDbLine
 10
-15486.04972375693
 20
5585.732355602109
 30
0.0
 11
-15361.04972375688
 21
5710.732355602155
 31
0.0
  0
LINE
  5
158
330
1F
100
AcDbEntity
  8
0-C_ハッチ
  6
JWW_DASHED1
 62
     3
370
     9
100
AcDbLine
 10
-15486.04972375689
 20
5727.153711839484
 30
0.0
 11
-15361.04972375689
 21
5852.153711839476
 31
0.0
  0
LINE
  5
159
330
1F
100
AcDbEntity
  8
0-C_ハッチ
  6
JWW_DASHED1
 62
     3
370
     9
100
AcDbLine
 10
-15486.0497237569
 20
5868.575068076806
 30
0.0
 11
-15361.04972375691
 21
5993.575068076798
 31
0.0
  0
LINE
  5
15A
330
1F
100
AcDbEntity
  8
0-C_ハッチ
  6
JWW_DASHED1
 62
     3
370
     9
100
AcDbLine
 10
-15486.04972375691
 20
6009.996424314126
 30
0.0
 11
-15361.04972375692
 21
6134.996424314118
 31
0.0
  0
LINE
  5
15B
330
1F
100
AcDbEntity
  8
0-C_ハッチ
  6
JWW_DASHED1
 62
     3
370
     9
100
AcDbLine
 10
-15486.04972375688
 20
6151.41778055149
 30
0.0
 11
-15361.04972375689
 21
6276.417780551484
 31
0.0
  0
LINE
  5
15C
330
1F
100
AcDbEntity
  8
0-C_ハッチ
  6
JWW_DASHED1
 62
     3
370
     9
100
AcDbLine
 10
-15486.04972375689
 20
6292.839136788813
 30
0.0
 11
-15361.0497237569
 21
6417.839136788805
 31
0.0
  0
LINE
  5
15D
330
1F
100
AcDbEntity
  8
0-C_ハッチ
  6
JWW_DASHED1
 62
     3
370
     9
100
AcDbLine
 10
-15486.04972375689
 20
6434.260493026144
 30
0.0
 11
-15361.0497237569
 21
6559.260493026136
 31
0.0
  0
LINE
  5
15E
330
1F
100
AcDbEntity
  8
0-C_ハッチ
  6
JWW_DASHED1
 62
     3
370
     9
100
AcDbLine
 10
-15486.04972375691
 20
6575.681849263465
 30
0.0
 11
-15361.04972375691
 21
6700.681849263457
 31
0.0
  0
LINE
  5
15F
330
1F
100
AcDbEntity
  8
0-C_ハッチ
  6
JWW_DASHED1
 62
     3
370
     9
100
AcDbLine
 10
-15486.04972375688
 20
6717.103205500644
 30
0.0
 11
-15361.04972375689
 21
6842.103205500635
 31
0.0
  0
LINE
  5
160
330
1F
100
AcDbEntity
  8
0-C_ハッチ
  6
JWW_DASHED1
 62
     3
370
     9
100
AcDbLine
 10
-15486.04972375689
 20
6858.524561737962
 30
0.0
 11
-15361.0497237569
 21
6983.524561737957
 31
0.0
  0
LINE
  5
161
330
1F
100
AcDbEntity
  8
0-C_ハッチ
  6
JWW_DASHED1
 62
     3
370
     9
100
AcDbLine
 10
-15486.0497237569
 20
6999.945917975285
 30
0.0
 11
-15361.04972375691
 21
7124.945917975278
 31
0.0
  0
LINE
  5
162
330
1F
100
AcDbEntity
  8
0-C_ハッチ
  6
JWW_DASHED1
 62
     3
370
     9
100
AcDbLine
 10
-15486.04972375687
 20
7141.367274212652
 30
0.0
 11
-15361.04972375688
 21
7266.367274212645
 31
0.0
  0
LINE
  5
163
330
1F
100
AcDbEntity
  8
0-C_ハッチ
  6
JWW_DASHED1
 62
     3
370
     9
100
AcDbLine
 10
-15486.04972375688
 20
7282.788630449974
 30
0.0
 11
-15361.04972375689
 21
7407.788630449966
 31
0.0
  0
LINE
  5
164
330
1F
100
AcDbEntity
  8
0-C_ハッチ
  6
JWW_DASHED1
 62
     3
370
     9
100
AcDbLine
 10
-15486.04972375689
 20
7424.209986687296
 30
0.0
 11
-15361.0497237569
 21
7549.209986687288
 31
0.0
  0
LINE
  5
165
330
1F
100
AcDbEntity
  8
0-C_ハッチ
  6
JWW_DASHED1
 62
     3
370
     9
100
AcDbLine
 10
-15486.0497237569
 20
7565.631342924624
 30
0.0
 11
-15361.04972375691
 21
7690.631342924616
 31
0.0
  0
LINE
  5
166
330
1F
100
AcDbEntity
  8
0-C_ハッチ
  6
JWW_DASHED1
 62
     3
370
     9
100
AcDbLine
 10
-15486.04972375692
 20
7707.05269916175
 30
0.0
 11
-15361.04972375688
 21
7832.052699161793
 31
0.0
  0
LINE
  5
167
330
1F
100
AcDbEntity
  8
0-C_ハッチ
  6
JWW_DASHED1
 62
     3
370
     9
100
AcDbLine
 10
-15486.04972375688
 20
7848.474055399123
 30
0.0
 11
-15361.04972375689
 21
7973.474055399114
 31
0.0
  0
LINE
  5
168
330
1F
100
AcDbEntity
  8
0-C_ハッチ
  6
JWW_DASHED1
 62
     3
370
     9
100
AcDbLine
 10
-15486.04972375689
 20
7989.895411636445
 30
0.0
 11
-15361.0497237569
 21
8114.895411636437
 31
0.0
  0
LINE
  5
169
330
1F
100
AcDbEntity
  8
0-C_ハッチ
  6
JWW_DASHED1
 62
     3
370
     9
100
AcDbLine
 10
-15486.04972375691
 20
8131.316767873765
 30
0.0
 11
-15361.04972375691
 21
8256.316767873759
 31
0.0
  0
LINE
  5
16A
330
1F
100
AcDbEntity
  8
0-C_ハッチ
  6
JWW_DASHED1
 62
     3
370
     9
100
AcDbLine
 10
-15486.04972375687
 20
8272.738124111134
 30
0.0
 11
-15361.04972375688
 21
8397.738124111127
 31
0.0
  0
LINE
  5
16B
330
1F
100
AcDbEntity
  8
0-C_ハッチ
  6
JWW_DASHED1
 62
     3
370
     9
100
AcDbLine
 10
-15486.04972375688
 20
8414.159480348457
 30
0.0
 11
-15361.04972375689
 21
8539.15948034845
 31
0.0
  0
LINE
  5
16C
330
1F
100
AcDbEntity
  8
0-C_ハッチ
  6
JWW_DASHED1
 62
     3
370
     9
100
AcDbLine
 10
-15486.04972375689
 20
8555.58083658578
 30
0.0
 11
-15361.0497237569
 21
8680.58083658577
 31
0.0
  0
LINE
  5
16D
330
1F
100
AcDbEntity
  8
0-C_ハッチ
  6
JWW_DASHED1
 62
     3
370
     9
100
AcDbLine
 10
-15486.0497237569
 20
8697.002192823104
 30
0.0
 11
-15361.04972375691
 21
8822.002192823096
 31
0.0
  0
LINE
  5
16E
330
1F
100
AcDbEntity
  8
0-C_ハッチ
  6
JWW_DASHED1
 62
     3
370
     9
100
AcDbLine
 10
-15486.04972375688
 20
8838.423549060282
 30
0.0
 11
-15361.04972375688
 21
8963.423549060273
 31
0.0
  0
LINE
  5
16F
330
1F
100
AcDbEntity
  8
0-C_ハッチ
  6
JWW_DASHED1
 62
     3
370
     9
100
AcDbLine
 10
-15486.04972375689
 20
8979.844905297603
 30
0.0
 11
-15361.04972375689
 21
9104.844905297596
 31
0.0
  0
LINE
  5
170
330
1F
100
AcDbEntity
  8
0-C_ハッチ
  6
JWW_DASHED1
 62
     3
370
     9
100
AcDbLine
 10
-15486.0497237569
 20
9121.266261534925
 30
0.0
 11
-15361.04972375691
 21
9246.266261534916
 31
0.0
  0
LINE
  5
171
330
1F
100
AcDbEntity
  8
0-C_ハッチ
  6
JWW_DASHED1
 62
     3
370
     9
100
AcDbLine
 10
-15486.04972375691
 20
9262.687617772246
 30
0.0
 11
-15361.04972375692
 21
9387.687617772239
 31
0.0
  0
LINE
  5
172
330
1F
100
AcDbEntity
  8
0-C_ハッチ
  6
JWW_DASHED1
 62
     3
370
     9
100
AcDbLine
 10
-15486.04972375687
 20
9404.108974009618
 30
0.0
 11
-15361.04972375688
 21
9529.10897400961
 31
0.0
  0
LINE
  5
173
330
1F
100
AcDbEntity
  8
0-C_ハッチ
  6
JWW_DASHED1
 62
     3
370
     9
100
AcDbLine
 10
-15486.04972375689
 20
9545.530330246938
 30
0.0
 11
-15361.04972375689
 21
9670.530330246933
 31
0.0
  0
LINE
  5
174
330
1F
100
AcDbEntity
  8
0-C_ハッチ
  6
JWW_DASHED1
 62
     3
370
     9
100
AcDbLine
 10
-15486.04972375689
 20
9686.951686484263
 30
0.0
 11
-15361.0497237569
 21
9811.951686484255
 31
0.0
  0
LINE
  5
175
330
1F
100
AcDbEntity
  8
0-C_ハッチ
  6
JWW_DASHED1
 62
     3
370
     9
100
AcDbLine
 10
-15486.04972375692
 20
9828.373042721387
 30
0.0
 11
-15361.04972375688
 21
9953.373042721432
 31
0.0
  0
LINE
  5
176
330
1F
100
AcDbEntity
  8
0-C_ハッチ
  6
JWW_DASHED1
 62
     3
370
     9
100
AcDbLine
 10
-15486.04972375688
 20
9969.794398958762
 30
0.0
 11
-15361.04972375689
 21
10094.79439895875
 31
0.0
  0
LINE
  5
177
330
1F
100
AcDbEntity
  8
0-C_ハッチ
  6
JWW_DASHED1
 62
     3
370
     9
100
AcDbLine
 10
-15486.04972375689
 20
10111.21575519608
 30
0.0
 11
-15437.05109463528
 21
10160.2143843177
 31
0.0
  0
LINE
  5
178
330
1F
100
AcDbEntity
  8
0-0_補助線
  6
JWW_HOJO
 62
     3
370
     9
100
AcDbLine
 10
-4814.669257809433
 20
805.7668709420167
 30
0.0
 11
-4814.669257809433
 21
-369.2331290579833
 31
0.0
  0
LINE
  5
179
330
1F
100
AcDbEntity
  8
0-0_補助線
  6
JWW_HOJO
 62
     3
370
     9
100
AcDbLine
 10
-2188.151230001835
 20
-4746.63421831985
 30
0.0
 11
-3363.151230001834
 21
-4746.63421831985
 31
0.0
  0
LINE
  5
17A
330
1F
100
AcDbEntity
  8
0-C_ハッチ
  6
JWW_DASHED1
 62
     3
370
     9
100
AcDbLine
 10
-2201.04980604815
 20
-4746.634218319787
 30
0.0
 11
-2188.151230001899
 21
-4733.735642273537
 31
0.0
  0
LINE
  5
17B
330
1F
100
AcDbEntity
  8
0-C_ハッチ
  6
JWW_DASHED1
 62
     3
370
     9
100
AcDbLine
 10
-2313.151230001851
 20
-4717.314286036154
 30
0.0
 11
-2188.151230001806
 21
-4592.314286036109
 31
0.0
  0
LINE
  5
17C
330
1F
100
AcDbEntity
  8
0-C_ハッチ
  6
JWW_DASHED1
 62
     3
370
     9
100
AcDbLine
 10
-2313.151230001863
 20
-4575.892929798833
 30
0.0
 11
-2188.151230001817
 21
-4450.892929798787
 31
0.0
  0
LINE
  5
17D
330
1F
100
AcDbEntity
  8
0-C_ハッチ
  6
JWW_DASHED1
 62
     3
370
     9
100
AcDbLine
 10
-2313.151230001822
 20
-4434.471573561458
 30
0.0
 11
-2188.151230001828
 21
-4309.471573561465
 31
0.0
  0
LINE
  5
17E
330
1F
100
AcDbEntity
  8
0-C_ハッチ
  6
JWW_DASHED1
 62
     3
370
     9
100
AcDbLine
 10
-2313.151230001834
 20
-4293.050217324138
 30
0.0
 11
-2188.151230001842
 21
-4168.050217324145
 31
0.0
  0
LINE
  5
17F
330
1F
100
AcDbEntity
  8
0-C_ハッチ
  6
JWW_DASHED1
 62
     3
370
     9
100
AcDbLine
 10
-2313.151230001841
 20
-4151.628861086811
 30
0.0
 11
-2188.151230001853
 21
-4026.628861086823
 31
0.0
  0
LINE
  5
180
330
1F
100
AcDbEntity
  8
0-C_ハッチ
  6
JWW_DASHED1
 62
     3
370
     9
100
AcDbLine
 10
-2313.151230001851
 20
-4010.207504849488
 30
0.0
 11
-2188.151230001864
 21
-3885.207504849501
 31
0.0
  0
LINE
  5
181
330
1F
100
AcDbEntity
  8
0-C_ハッチ
  6
JWW_DASHED1
 62
     3
370
     9
100
AcDbLine
 10
-2313.151230001876
 20
-3868.786148612361
 30
0.0
 11
-2188.151230001882
 21
-3743.786148612367
 31
0.0
  0
LINE
  5
182
330
1F
100
AcDbEntity
  8
0-C_ハッチ
  6
JWW_DASHED1
 62
     3
370
     9
100
AcDbLine
 10
-2313.151230001887
 20
-3727.364792375039
 30
0.0
 11
-2188.151230001892
 21
-3602.364792375044
 31
0.0
  0
LINE
  5
183
330
1F
100
AcDbEntity
  8
0-C_ハッチ
  6
JWW_DASHED1
 62
     3
370
     9
100
AcDbLine
 10
-2313.151230001856
 20
-3585.943436137674
 30
0.0
 11
-2188.151230001809
 21
-3460.943436137628
 31
0.0
  0
LINE
  5
184
330
1F
100
AcDbEntity
  8
0-C_ハッチ
  6
JWW_DASHED1
 62
     3
370
     9
100
AcDbLine
 10
-2313.151230001815
 20
-3444.522079900301
 30
0.0
 11
-2188.151230001822
 21
-3319.522079900307
 31
0.0
  0
LINE
  5
185
330
1F
100
AcDbEntity
  8
0-C_ハッチ
  6
JWW_DASHED1
 62
     3
370
     9
100
AcDbLine
 10
-2313.151230001828
 20
-3303.10072366298
 30
0.0
 11
-2188.151230001833
 21
-3178.100723662985
 31
0.0
  0
LINE
  5
186
330
1F
100
AcDbEntity
  8
0-C_ハッチ
  6
JWW_DASHED1
 62
     3
370
     9
100
AcDbLine
 10
-2313.15123000184
 20
-3161.679367425658
 30
0.0
 11
-2188.151230001845
 21
-3036.679367425664
 31
0.0
  0
LINE
  5
187
330
1F
100
AcDbEntity
  8
0-C_ハッチ
  6
JWW_DASHED1
 62
     3
370
     9
100
AcDbLine
 10
-2313.151230001835
 20
-3020.25801118832
 30
0.0
 11
-2188.151230001857
 21
-2895.258011188342
 31
0.0
  0
LINE
  5
188
330
1F
100
AcDbEntity
  8
0-C_ハッチ
  6
JWW_DASHED1
 62
     3
370
     9
100
AcDbLine
 10
-2313.151230001846
 20
-2878.836654950998
 30
0.0
 11
-2188.15123000185
 21
-2753.836654951001
 31
0.0
  0
LINE
  5
189
330
1F
100
AcDbEntity
  8
0-C_ハッチ
  6
JWW_DASHED1
 62
     3
370
     9
100
AcDbLine
 10
-2313.151230001871
 20
-2737.415298713871
 30
0.0
 11
-2188.151230001875
 21
-2612.415298713875
 31
0.0
  0
LINE
  5
18A
330
1F
100
AcDbEntity
  8
0-C_ハッチ
  6
JWW_DASHED1
 62
     3
370
     9
100
AcDbLine
 10
-2313.15123000185
 20
-2595.993942476517
 30
0.0
 11
-2188.151230001855
 21
-2470.993942476522
 31
0.0
  0
LINE
  5
18B
330
1F
100
AcDbEntity
  8
0-C_ハッチ
  6
JWW_DASHED1
 62
     3
370
     9
100
AcDbLine
 10
-2313.151230001863
 20
-2454.572586239196
 30
0.0
 11
-2188.151230001814
 21
-2329.572586239147
 31
0.0
  0
LINE
  5
18C
330
1F
100
AcDbEntity
  8
0-C_ハッチ
  6
JWW_DASHED1
 62
     3
370
     9
100
AcDbLine
 10
-2313.151230001821
 20
-2313.151230001821
 30
0.0
 11
-2188.151230001825
 21
-2188.151230001825
 31
0.0
  0
LINE
  5
18D
330
1F
100
AcDbEntity
  8
0-C_ハッチ
  6
JWW_DASHED1
 62
     3
370
     9
100
AcDbLine
 10
-2313.151230001833
 20
-2171.7298737645
 30
0.0
 11
-2188.151230001838
 21
-2046.729873764504
 31
0.0
  0
LINE
  5
18E
330
1F
100
AcDbEntity
  8
0-C_ハッチ
  6
JWW_DASHED1
 62
     3
370
     9
100
AcDbLine
 10
-2313.151230001846
 20
-2030.308517527179
 30
0.0
 11
-2188.151230001849
 21
-1905.308517527182
 31
0.0
  0
LINE
  5
18F
330
1F
100
AcDbEntity
  8
0-C_ハッチ
  6
JWW_DASHED1
 62
     3
370
     9
100
AcDbLine
 10
-2313.15123000183
 20
-1888.88716128983
 30
0.0
 11
-2188.151230001861
 21
-1763.887161289861
 31
0.0
  0
LINE
  5
190
330
1F
100
AcDbEntity
  8
0-C_ハッチ
  6
JWW_DASHED1
 62
     3
370
     9
100
AcDbLine
 10
-2313.151230001855
 20
-1747.465805052704
 30
0.0
 11
-2188.151230001858
 21
-1622.465805052706
 31
0.0
  0
LINE
  5
191
330
1F
100
AcDbEntity
  8
0-C_ハッチ
  6
JWW_DASHED1
 62
     3
370
     9
100
AcDbLine
 10
-2313.151230001866
 20
-1606.044448815381
 30
0.0
 11
-2188.151230001869
 21
-1481.044448815384
 31
0.0
  0
LINE
  5
192
330
1F
100
AcDbEntity
  8
0-C_ハッチ
  6
JWW_DASHED1
 62
     3
370
     9
100
AcDbLine
 10
-2313.151230001855
 20
-1464.623092578037
 30
0.0
 11
-2188.151230001806
 21
-1339.623092577988
 31
0.0
  0
LINE
  5
193
330
1F
100
AcDbEntity
  8
0-C_ハッチ
  6
JWW_DASHED1
 62
     3
370
     9
100
AcDbLine
 10
-2313.151230001815
 20
-1323.201736340663
 30
0.0
 11
-2188.151230001818
 21
-1198.201736340666
 31
0.0
  0
LINE
  5
194
330
1F
100
AcDbEntity
  8
0-C_ハッチ
  6
JWW_DASHED1
 62
     3
370
     9
100
AcDbLine
 10
-2313.151230001827
 20
-1181.780380103342
 30
0.0
 11
-2188.15123000183
 21
-1056.780380103344
 31
0.0
  0
LINE
  5
195
330
1F
100
AcDbEntity
  8
0-C_ハッチ
  6
JWW_DASHED1
 62
     3
370
     9
100
AcDbLine
 10
-2313.15123000184
 20
-1040.359023866021
 30
0.0
 11
-2188.151230001841
 21
-915.3590238660231
 31
0.0
  0
LINE
  5
196
330
1F
100
AcDbEntity
  8
0-C_ハッチ
  6
JWW_DASHED1
 62
     3
370
     9
100
AcDbLine
 10
-2313.151230001814
 20
-898.9376676286621
 30
0.0
 11
-2188.151230001853
 21
-773.9376676287015
 31
0.0
  0
LINE
  5
197
330
1F
100
AcDbEntity
  8
0-C_ハッチ
  6
JWW_DASHED1
 62
     3
370
     9
100
AcDbLine
 10
-2313.151230001825
 20
-757.5163113913394
 30
0.0
 11
-2188.151230001827
 21
-632.516311391341
 31
0.0
  0
LINE
  5
198
330
1F
100
AcDbEntity
  8
0-C_ハッチ
  6
JWW_DASHED1
 62
     3
370
     9
100
AcDbLine
 10
-2313.15123000185
 20
-616.0949551542129
 30
0.0
 11
-2188.151230001851
 21
-491.0949551542144
 31
0.0
  0
LINE
  5
199
330
1F
100
AcDbEntity
  8
0-C_ハッチ
  6
JWW_DASHED1
 62
     3
370
     9
100
AcDbLine
 10
-2313.151230001861
 20
-474.6735989168905
 30
0.0
 11
-2188.151230001862
 21
-349.6735989168916
 31
0.0
  0
LINE
  5
19A
330
1F
100
AcDbEntity
  8
0-C_ハッチ
  6
JWW_DASHED1
 62
     3
370
     9
100
AcDbLine
 10
-2313.151230001861
 20
-333.2522426795579
 30
0.0
 11
-2188.15123000181
 21
-208.2522426795066
 31
0.0
  0
LINE
  5
19B
330
1F
100
AcDbEntity
  8
0-C_ハッチ
  6
JWW_DASHED1
 62
     3
370
     9
100
AcDbLine
 10
-2313.151230001821
 20
-191.8308864421839
 30
0.0
 11
-2188.151230001822
 21
-66.83088644218512
 31
0.0
  0
LINE
  5
19C
330
1F
100
AcDbEntity
  8
0-C_ハッチ
  6
JWW_DASHED1
 62
     3
370
     9
100
AcDbLine
 10
-2313.151230001833
 20
-50.40953020486239
 30
0.0
 11
-2188.151230001834
 21
74.59046979513637
 31
0.0
  0
LINE
  5
19D
330
1F
100
AcDbEntity
  8
0-C_ハッチ
  6
JWW_DASHED1
 62
     3
370
     9
100
AcDbLine
 10
-2313.151230001845
 20
91.01182603245874
 30
0.0
 11
-2188.151230001846
 21
216.0118260324579
 31
0.0
  0
LINE
  5
19E
330
1F
100
AcDbEntity
  8
0-C_ハッチ
  6
JWW_DASHED1
 62
     3
370
     9
100
AcDbLine
 10
-2313.151230001809
 20
232.4331822698284
 30
0.0
 11
-2188.151230001858
 21
357.4331822697791
 31
0.0
  0
LINE
  5
19F
330
1F
100
AcDbEntity
  8
0-C_ハッチ
  6
JWW_DASHED1
 62
     3
370
     9
100
AcDbLine
 10
-2313.151230001819
 20
373.8545385071509
 30
0.0
 11
-2188.15123000182
 21
498.8545385071507
 31
0.0
  0
LINE
  5
1A0
330
1F
100
AcDbEntity
  8
0-C_ハッチ
  6
JWW_DASHED1
 62
     3
370
     9
100
AcDbLine
 10
-2313.151230001845
 20
515.2758947442774
 30
0.0
 11
-2188.151230001845
 21
640.2758947442771
 31
0.0
  0
LINE
  5
1A1
330
1F
100
AcDbEntity
  8
0-C_ハッチ
  6
JWW_DASHED1
 62
     3
370
     9
100
AcDbLine
 10
-2313.151230001855
 20
656.6972509816003
 30
0.0
 11
-2188.151230001803
 21
781.6972509816528
 31
0.0
  0
LINE
  5
1A2
330
1F
100
AcDbEntity
  8
0-C_ハッチ
  6
JWW_DASHED1
 62
     3
370
     9
100
AcDbLine
 10
-2430.502966278742
 20
680.7668709420461
 30
0.0
 11
-2305.502966278793
 21
805.7668709419956
 31
0.0
  0
LINE
  5
1A3
330
1F
100
AcDbEntity
  8
0-C_ハッチ
  6
JWW_DASHED1
 62
     3
370
     9
100
AcDbLine
 10
-2571.924322516115
 20
680.7668709420072
 30
0.0
 11
-2446.924322516116
 21
805.7668709420063
 31
0.0
  0
LINE
  5
1A4
330
1F
100
AcDbEntity
  8
0-C_ハッチ
  6
JWW_DASHED1
 62
     3
370
     9
100
AcDbLine
 10
-2713.345678753437
 20
680.7668709420186
 30
0.0
 11
-2588.345678753438
 21
805.7668709420176
 31
0.0
  0
LINE
  5
1A5
330
1F
100
AcDbEntity
  8
0-C_ハッチ
  6
JWW_DASHED1
 62
     3
370
     9
100
AcDbLine
 10
-2854.767034990812
 20
680.7668709419775
 30
0.0
 11
-2729.76703499076
 21
805.7668709420284
 31
0.0
  0
LINE
  5
1A6
330
1F
100
AcDbEntity
  8
0-C_ハッチ
  6
JWW_DASHED1
 62
     3
370
     9
100
AcDbLine
 10
-2996.188391228134
 20
680.7668709419886
 30
0.0
 11
-2871.188391228083
 21
805.7668709420395
 31
0.0
  0
LINE
  5
1A7
330
1F
100
AcDbEntity
  8
0-C_ハッチ
  6
JWW_DASHED1
 62
     3
370
     9
100
AcDbLine
 10
-3137.609747465259
 20
680.7668709420147
 30
0.0
 11
-3012.609747465262
 21
805.7668709420124
 31
0.0
  0
LINE
  5
1A8
330
1F
100
AcDbEntity
  8
0-C_ハッチ
  6
JWW_DASHED1
 62
     3
370
     9
100
AcDbLine
 10
-3279.031103702581
 20
680.7668709420261
 30
0.0
 11
-3154.031103702584
 21
805.7668709420236
 31
0.0
  0
LINE
  5
1A9
330
1F
100
AcDbEntity
  8
0-C_ハッチ
  6
JWW_DASHED1
 62
     3
370
     9
100
AcDbLine
 10
-3420.452459939926
 20
680.7668709420144
 30
0.0
 11
-3295.452459939959
 21
805.7668709419819
 31
0.0
  0
LINE
  5
1AA
330
1F
100
AcDbEntity
  8
0-C_ハッチ
  6
JWW_DASHED1
 62
     3
370
     9
100
AcDbLine
 10
-3561.873816177278
 20
680.7668709419962
 30
0.0
 11
-3436.873816177281
 21
805.7668709419927
 31
0.0
  0
LINE
  5
1AB
330
1F
100
AcDbEntity
  8
0-C_ハッチ
  6
JWW_DASHED1
 62
     3
370
     9
100
AcDbLine
 10
-3703.2951724146
 20
680.7668709420079
 30
0.0
 11
-3578.295172414603
 21
805.7668709420043
 31
0.0
  0
LINE
  5
1AC
330
1F
100
AcDbEntity
  8
0-C_ハッチ
  6
JWW_DASHED1
 62
     3
370
     9
100
AcDbLine
 10
-3844.716528651922
 20
680.7668709420192
 30
0.0
 11
-3719.716528651926
 21
805.7668709420151
 31
0.0
  0
LINE
  5
1AD
330
1F
100
AcDbEntity
  8
0-C_ハッチ
  6
JWW_DASHED1
 62
     3
370
     9
100
AcDbLine
 10
-3986.137884889296
 20
680.7668709419779
 30
0.0
 11
-3861.137884889248
 21
805.7668709420261
 31
0.0
  0
LINE
  5
1AE
330
1F
100
AcDbEntity
  8
0-C_ハッチ
  6
JWW_DASHED1
 62
     3
370
     9
100
AcDbLine
 10
-4127.559241126618
 20
680.7668709419893
 30
0.0
 11
-4002.559241126623
 21
805.7668709419842
 31
0.0
  0
LINE
  5
1AF
330
1F
100
AcDbEntity
  8
0-C_ハッチ
  6
JWW_DASHED1
 62
     3
370
     9
100
AcDbLine
 10
-4268.980597363744
 20
680.7668709420149
 30
0.0
 11
-4143.980597363749
 21
805.7668709420095
 31
0.0
  0
LINE
  5
1B0
330
1F
100
AcDbEntity
  8
0-C_ハッチ
  6
JWW_DASHED1
 62
     3
370
     9
100
AcDbLine
 10
-4410.401953601109
 20
680.7668709419826
 30
0.0
 11
-4285.401953601114
 21
805.7668709419786
 31
0.0
  0
LINE
  5
1B1
330
1F
100
AcDbEntity
  8
0-C_ハッチ
  6
JWW_DASHED1
 62
     3
370
     9
100
AcDbLine
 10
-4551.823309838434
 20
680.7668709419911
 30
0.0
 11
-4426.823309838446
 21
805.7668709419794
 31
0.0
  0
LINE
  5
1B2
330
1F
100
AcDbEntity
  8
0-C_ハッチ
  6
JWW_DASHED1
 62
     3
370
     9
100
AcDbLine
 10
-4693.244666075762
 20
680.7668709419964
 30
0.0
 11
-4568.244666075769
 21
805.7668709419904
 31
0.0
  0
LINE
  5
1B3
330
1F
100
AcDbEntity
  8
0-C_ハッチ
  6
JWW_DASHED1
 62
     3
370
     9
100
AcDbLine
 10
-4814.669257809423
 20
700.7636354456697
 30
0.0
 11
-4709.666022313091
 21
805.7668709420013
 31
0.0
  0
LINE
  5
1B4
330
1F
100
AcDbEntity
  8
0-B_寸法
  6
Continuous
 62
     3
370
     9
100
AcDbLine
 10
-15061.04972375691
 20
11859.07653939485
 30
0.0
 11
-14791.04972375691
 21
11859.07653939485
 31
0.0
  0
LWPOLYLINE
  5
1B5
330
1F
100
AcDbEntity
  8
0-B_寸法
  6
Continuous
 62
     3
370
     9
100
AcDbPolyline
 90
        4
 70
     1
 43
20.0
 10
-15051.04972375691
 20
11859.07653939485
 42
0.4142135623731
 10
-15061.04972375691
 20
11869.07653939485
 42
0.4142135623731
 10
-15071.04972375691
 20
11859.07653939485
 42
0.4142135623731
 10
-15061.04972375691
 20
11849.07653939485
 42
0.4142135623731
  0
LWPOLYLINE
  5
1B6
330
1F
100
AcDbEntity
  8
0-B_寸法
  6
Continuous
 62
     3
370
     9
100
AcDbPolyline
 90
        4
 70
     1
 43
20.0
 10
-14781.04972375691
 20
11859.07653939485
 42
0.4142135623731
 10
-14791.04972375691
 20
11869.07653939485
 42
0.4142135623731
 10
-14801.0497237569
 20
11859.07653939485
 42
0.4142135623731
 10
-14791.04972375691
 20
11849.07653939485
 42
0.4142135623731
  0
LINE
  5
1B7
330
1F
100
AcDbEntity
  8
0-B_寸法
  6
Continuous
 62
     3
370
     9
100
AcDbLine
 10
-15061.04972375691
 20
11859.07653939485
 30
0.0
 11
-15061.04972375691
 21
11077.61942551295
 31
0.0
  0
LINE
  5
1B8
330
1F
100
AcDbEntity
  8
0-B_寸法
  6
Continuous
 62
     3
370
     9
100
AcDbLine
 10
-14791.04972375691
 20
11859.07653939485
 30
0.0
 11
-14791.04972375691
 21
11077.61942551295
 31
0.0
  0
LINE
  5
1B9
330
1F
100
AcDbEntity
  8
0-B_寸法
  6
Continuous
 62
     3
370
     9
100
AcDbLine
 10
-14791.04972375691
 20
11859.07653939485
 30
0.0
 11
-14481.04972375691
 21
11859.07653939485
 31
0.0
  0
LWPOLYLINE
  5
1BA
330
1F
100
AcDbEntity
  8
0-B_寸法
  6
Continuous
 62
     3
370
     9
100
AcDbPolyline
 90
        4
 70
     1
 43
20.0
 10
-14471.04972375691
 20
11859.07653939485
 42
0.4142135623731
 10
-14481.04972375691
 20
11869.07653939485
 42
0.4142135623731
 10
-14491.04972375691
 20
11859.07653939485
 42
0.4142135623731
 10
-14481.04972375691
 20
11849.07653939485
 42
0.4142135623731
  0
LINE
  5
1BB
330
1F
100
AcDbEntity
  8
0-B_寸法
  6
Continuous
 62
     3
370
     9
100
AcDbLine
 10
-14481.04972375691
 20
11859.07653939485
 30
0.0
 11
-14481.04972375691
 21
11077.61942551295
 31
0.0
  0
LINE
  5
1BC
330
1F
100
AcDbEntity
  8
0-B_寸法
  6
Continuous
 62
     3
370
     9
100
AcDbLine
 10
-14481.04972375691
 20
11859.07653939485
 30
0.0
 11
-14211.04972375691
 21
11859.07653939485
 31
0.0
  0
LWPOLYLINE
  5
1BD
330
1F
100
AcDbEntity
  8
0-B_寸法
  6
Continuous
 62
     3
370
     9
100
AcDbPolyline
 90
        4
 70
     1
 43
20.0
 10
-14201.04972375691
 20
11859.07653939485
 42
0.4142135623731
 10
-14211.04972375691
 20
11869.07653939485
 42
0.4142135623731
 10
-14221.04972375691
 20
11859.07653939485
 42
0.4142135623731
 10
-14211.04972375691
 20
11849.07653939485
 42
0.4142135623731
  0
LINE
  5
1BE
330
1F
100
AcDbEntity
  8
0-B_寸法
  6
Continuous
 62
     3
370
     9
100
AcDbLine
 10
-14211.04972375691
 20
11859.07653939485
 30
0.0
 11
-14211.04972375691
 21
11077.61942551295
 31
0.0
  0
LINE
  5
1BF
330
1F
100
AcDbEntity
  8
0-B_寸法
  6
Continuous
 62
     3
370
     9
100
AcDbLine
 10
-14211.04972375691
 20
11859.07653939485
 30
0.0
 11
-13901.0497237569
 21
11859.07653939485
 31
0.0
  0
LWPOLYLINE
  5
1C0
330
1F
100
AcDbEntity
  8
0-B_寸法
  6
Continuous
 62
     3
370
     9
100
AcDbPolyline
 90
        4
 70
     1
 43
20.0
 10
-13891.04972375691
 20
11859.07653939485
 42
0.4142135623731
 10
-13901.0497237569
 20
11869.07653939485
 42
0.4142135623731
 10
-13911.0497237569
 20
11859.07653939485
 42
0.4142135623731
 10
-13901.0497237569
 20
11849.07653939485
 42
0.4142135623731
  0
LINE
  5
1C1
330
1F
100
AcDbEntity
  8
0-B_寸法
  6
Continuous
 62
     3
370
     9
100
AcDbLine
 10
-13901.0497237569
 20
11859.07653939485
 30
0.0
 11
-13901.0497237569
 21
11077.61942551295
 31
0.0
  0
LINE
  5
1C2
330
1F
100
AcDbEntity
  8
0-B_寸法
  6
Continuous
 62
     3
370
     9
100
AcDbLine
 10
-13901.0497237569
 20
11859.07653939485
 30
0.0
 11
-13631.04972375691
 21
11859.07653939485
 31
0.0
  0
LWPOLYLINE
  5
1C3
330
1F
100
AcDbEntity
  8
0-B_寸法
  6
Continuous
 62
     3
370
     9
100
AcDbPolyline
 90
        4
 70
     1
 43
20.0
 10
-13621.04972375691
 20
11859.07653939485
 42
0.4142135623731
 10
-13631.04972375691
 20
11869.07653939485
 42
0.4142135623731
 10
-13641.04972375691
 20
11859.07653939485
 42
0.4142135623731
 10
-13631.04972375691
 20
11849.07653939485
 42
0.4142135623731
  0
LINE
  5
1C4
330
1F
100
AcDbEntity
  8
0-B_寸法
  6
Continuous
 62
     3
370
     9
100
AcDbLine
 10
-13631.04972375691
 20
11859.07653939485
 30
0.0
 11
-13631.04972375691
 21
11077.61942551295
 31
0.0
  0
TEXT
  5
1C5
330
1F
100
AcDbEntity
  8
0-B_寸法
  6
Continuous
 62
     7
370
     0
100
AcDbText
 10
-13928.54972375691
 20
11951.37653939485
 30
0.0
 40
228.6
  1
27
 41
1.083333333333333
  7
ＭＳ ゴシック
100
AcDbText
  0
LINE
  5
1C6
330
1F
100
AcDbEntity
  8
0-B_寸法
  6
Continuous
 62
     3
370
     9
100
AcDbLine
 10
-13631.04972375691
 20
11859.07653939485
 30
0.0
 11
-13321.04972375691
 21
11859.07653939485
 31
0.0
  0
LWPOLYLINE
  5
1C7
330
1F
100
AcDbEntity
  8
0-B_寸法
  6
Continuous
 62
     3
370
     9
100
AcDbPolyline
 90
        4
 70
     1
 43
20.0
 10
-13311.04972375691
 20
11859.07653939485
 42
0.4142135623731
 10
-13321.04972375691
 20
11869.07653939485
 42
0.4142135623731
 10
-13331.04972375691
 20
11859.07653939485
 42
0.4142135623731
 10
-13321.04972375691
 20
11849.07653939485
 42
0.4142135623731
  0
LINE
  5
1C8
330
1F
100
AcDbEntity
  8
0-B_寸法
  6
Continuous
 62
     3
370
     9
100
AcDbLine
 10
-13321.04972375691
 20
11859.07653939485
 30
0.0
 11
-13321.04972375691
 21
11077.61942551295
 31
0.0
  0
LINE
  5
1C9
330
1F
100
AcDbEntity
  8
0-B_寸法
  6
Continuous
 62
     3
370
     9
100
AcDbLine
 10
-13321.04972375691
 20
11859.07653939485
 30
0.0
 11
-13051.0497237569
 21
11859.07653939485
 31
0.0
  0
LWPOLYLINE
  5
1CA
330
1F
100
AcDbEntity
  8
0-B_寸法
  6
Continuous
 62
     3
370
     9
100
AcDbPolyline
 90
        4
 70
     1
 43
20.0
 10
-13041.04972375691
 20
11859.07653939485
 42
0.4142135623731
 10
-13051.0497237569
 20
11869.07653939485
 42
0.4142135623731
 10
-13061.0497237569
 20
11859.07653939485
 42
0.4142135623731
 10
-13051.0497237569
 20
11849.07653939485
 42
0.4142135623731
  0
LINE
  5
1CB
330
1F
100
AcDbEntity
  8
0-B_寸法
  6
Continuous
 62
     3
370
     9
100
AcDbLine
 10
-13051.0497237569
 20
11859.07653939485
 30
0.0
 11
-13051.0497237569
 21
11077.61942551295
 31
0.0
  0
TEXT
  5
1CC
330
1F
100
AcDbEntity
  8
0-B_寸法
  6
Continuous
 62
     7
370
     0
100
AcDbText
 10
-13348.5497237569
 20
11951.37653939485
 30
0.0
 40
228.6
  1
27
 41
1.083333333333333
  7
ＭＳ ゴシック
100
AcDbText
  0
LINE
  5
1CD
330
1F
100
AcDbEntity
  8
0-B_寸法
  6
Continuous
 62
     3
370
     9
100
AcDbLine
 10
-13051.0497237569
 20
11859.07653939485
 30
0.0
 11
-12741.04972375691
 21
11859.07653939485
 31
0.0
  0
LWPOLYLINE
  5
1CE
330
1F
100
AcDbEntity
  8
0-B_寸法
  6
Continuous
 62
     3
370
     9
100
AcDbPolyline
 90
        4
 70
     1
 43
20.0
 10
-12731.04972375691
 20
11859.07653939485
 42
0.4142135623731
 10
-12741.04972375691
 20
11869.07653939485
 42
0.4142135623731
 10
-12751.0497237569
 20
11859.07653939485
 42
0.4142135623731
 10
-12741.04972375691
 20
11849.07653939485
 42
0.4142135623731
  0
LINE
  5
1CF
330
1F
100
AcDbEntity
  8
0-B_寸法
  6
Continuous
 62
     3
370
     9
100
AcDbLine
 10
-12741.04972375691
 20
11859.07653939485
 30
0.0
 11
-12741.04972375691
 21
11077.61942551295
 31
0.0
  0
LINE
  5
1D0
330
1F
100
AcDbEntity
  8
0-B_寸法
  6
Continuous
 62
     3
370
     9
100
AcDbLine
 10
-12741.04972375691
 20
11859.07653939485
 30
0.0
 11
-12471.04972375691
 21
11859.07653939485
 31
0.0
  0
LWPOLYLINE
  5
1D1
330
1F
100
AcDbEntity
  8
0-B_寸法
  6
Continuous
 62
     3
370
     9
100
AcDbPolyline
 90
        4
 70
     1
 43
20.0
 10
-12461.04972375691
 20
11859.07653939485
 42
0.4142135623731
 10
-12471.04972375691
 20
11869.07653939485
 42
0.4142135623731
 10
-12481.0497237569
 20
11859.07653939485
 42
0.4142135623731
 10
-12471.04972375691
 20
11849.07653939485
 42
0.4142135623731
  0
LINE
  5
1D2
330
1F
100
AcDbEntity
  8
0-B_寸法
  6
Continuous
 62
     3
370
     9
100
AcDbLine
 10
-12471.04972375691
 20
11859.07653939485
 30
0.0
 11
-12471.04972375691
 21
11077.61942551295
 31
0.0
  0
TEXT
  5
1D3
330
1F
100
AcDbEntity
  8
0-B_寸法
  6
Continuous
 62
     7
370
     0
100
AcDbText
 10
-12768.5497237569
 20
11951.37653939485
 30
0.0
 40
228.6
  1
27
 41
1.083333333333333
  7
ＭＳ ゴシック
100
AcDbText
  0
LINE
  5
1D4
330
1F
100
AcDbEntity
  8
0-B_寸法
  6
Continuous
 62
     3
370
     9
100
AcDbLine
 10
-12471.04972375691
 20
11859.07653939485
 30
0.0
 11
-12161.0497237569
 21
11859.07653939485
 31
0.0
  0
LWPOLYLINE
  5
1D5
330
1F
100
AcDbEntity
  8
0-B_寸法
  6
Continuous
 62
     3
370
     9
100
AcDbPolyline
 90
        4
 70
     1
 43
20.0
 10
-12151.0497237569
 20
11859.07653939485
 42
0.4142135623731
 10
-12161.0497237569
 20
11869.07653939485
 42
0.4142135623731
 10
-12171.0497237569
 20
11859.07653939485
 42
0.4142135623731
 10
-12161.0497237569
 20
11849.07653939485
 42
0.4142135623731
  0
LINE
  5
1D6
330
1F
100
AcDbEntity
  8
0-B_寸法
  6
Continuous
 62
     3
370
     9
100
AcDbLine
 10
-12161.0497237569
 20
11859.07653939485
 30
0.0
 11
-12161.0497237569
 21
11077.61942551295
 31
0.0
  0
LINE
  5
1D7
330
1F
100
AcDbEntity
  8
0-B_寸法
  6
Continuous
 62
     3
370
     9
100
AcDbLine
 10
-12161.0497237569
 20
11859.07653939485
 30
0.0
 11
-11891.0497237569
 21
11859.07653939485
 31
0.0
  0
LWPOLYLINE
  5
1D8
330
1F
100
AcDbEntity
  8
0-B_寸法
  6
Continuous
 62
     3
370
     9
100
AcDbPolyline
 90
        4
 70
     1
 43
20.0
 10
-11881.0497237569
 20
11859.07653939485
 42
0.4142135623731
 10
-11891.0497237569
 20
11869.07653939485
 42
0.4142135623731
 10
-11901.0497237569
 20
11859.07653939485
 42
0.4142135623731
 10
-11891.0497237569
 20
11849.07653939485
 42
0.4142135623731
  0
LINE
  5
1D9
330
1F
100
AcDbEntity
  8
0-B_寸法
  6
Continuous
 62
     3
370
     9
100
AcDbLine
 10
-11891.0497237569
 20
11859.07653939485
 30
0.0
 11
-11891.0497237569
 21
11077.61942551295
 31
0.0
  0
TEXT
  5
1DA
330
1F
100
AcDbEntity
  8
0-B_寸法
  6
Continuous
 62
     7
370
     0
100
AcDbText
 10
-12188.5497237569
 20
11951.37653939485
 30
0.0
 40
228.6
  1
27
 41
1.083333333333333
  7
ＭＳ ゴシック
100
AcDbText
  0
LINE
  5
1DB
330
1F
100
AcDbEntity
  8
0-B_寸法
  6
Continuous
 62
     3
370
     9
100
AcDbLine
 10
-11891.0497237569
 20
11859.07653939485
 30
0.0
 11
-11581.0497237569
 21
11859.07653939485
 31
0.0
  0
LWPOLYLINE
  5
1DC
330
1F
100
AcDbEntity
  8
0-B_寸法
  6
Continuous
 62
     3
370
     9
100
AcDbPolyline
 90
        4
 70
     1
 43
20.0
 10
-11571.04972375691
 20
11859.07653939485
 42
0.4142135623731
 10
-11581.0497237569
 20
11869.07653939485
 42
0.4142135623731
 10
-11591.0497237569
 20
11859.07653939485
 42
0.4142135623731
 10
-11581.0497237569
 20
11849.07653939485
 42
0.4142135623731
  0
LINE
  5
1DD
330
1F
100
AcDbEntity
  8
0-B_寸法
  6
Continuous
 62
     3
370
     9
100
AcDbLine
 10
-11581.0497237569
 20
11859.07653939485
 30
0.0
 11
-11581.0497237569
 21
11077.61942551295
 31
0.0
  0
LINE
  5
1DE
330
1F
100
AcDbEntity
  8
0-B_寸法
  6
Continuous
 62
     3
370
     9
100
AcDbLine
 10
-11581.0497237569
 20
11859.07653939485
 30
0.0
 11
-11311.0497237569
 21
11859.07653939485
 31
0.0
  0
LWPOLYLINE
  5
1DF
330
1F
100
AcDbEntity
  8
0-B_寸法
  6
Continuous
 62
     3
370
     9
100
AcDbPolyline
 90
        4
 70
     1
 43
20.0
 10
-11301.0497237569
 20
11859.07653939485
 42
0.4142135623731
 10
-11311.0497237569
 20
11869.07653939485
 42
0.4142135623731
 10
-11321.0497237569
 20
11859.07653939485
 42
0.4142135623731
 10
-11311.0497237569
 20
11849.07653939485
 42
0.4142135623731
  0
LINE
  5
1E0
330
1F
100
AcDbEntity
  8
0-B_寸法
  6
Continuous
 62
     3
370
     9
100
AcDbLine
 10
-11311.0497237569
 20
11859.07653939485
 30
0.0
 11
-11311.0497237569
 21
11077.61942551295
 31
0.0
  0
TEXT
  5
1E1
330
1F
100
AcDbEntity
  8
0-B_寸法
  6
Continuous
 62
     7
370
     0
100
AcDbText
 10
-11608.5497237569
 20
11951.37653939485
 30
0.0
 40
228.6
  1
27
 41
1.083333333333333
  7
ＭＳ ゴシック
100
AcDbText
  0
LINE
  5
1E2
330
1F
100
AcDbEntity
  8
0-B_寸法
  6
Continuous
 62
     3
370
     9
100
AcDbLine
 10
-11311.0497237569
 20
11859.07653939485
 30
0.0
 11
-11001.0497237569
 21
11859.07653939485
 31
0.0
  0
LWPOLYLINE
  5
1E3
330
1F
100
AcDbEntity
  8
0-B_寸法
  6
Continuous
 62
     3
370
     9
100
AcDbPolyline
 90
        4
 70
     1
 43
20.0
 10
-10991.0497237569
 20
11859.07653939485
 42
0.4142135623731
 10
-11001.0497237569
 20
11869.07653939485
 42
0.4142135623731
 10
-11011.0497237569
 20
11859.07653939485
 42
0.4142135623731
 10
-11001.0497237569
 20
11849.07653939485
 42
0.4142135623731
  0
LINE
  5
1E4
330
1F
100
AcDbEntity
  8
0-B_寸法
  6
Continuous
 62
     3
370
     9
100
AcDbLine
 10
-11001.0497237569
 20
11859.07653939485
 30
0.0
 11
-11001.0497237569
 21
11077.61942551295
 31
0.0
  0
LINE
  5
1E5
330
1F
100
AcDbEntity
  8
0-B_寸法
  6
Continuous
 62
     3
370
     9
100
AcDbLine
 10
-11001.0497237569
 20
11859.07653939485
 30
0.0
 11
-10731.0497237569
 21
11859.07653939485
 31
0.0
  0
LWPOLYLINE
  5
1E6
330
1F
100
AcDbEntity
  8
0-B_寸法
  6
Continuous
 62
     3
370
     9
100
AcDbPolyline
 90
        4
 70
     1
 43
20.0
 10
-10721.0497237569
 20
11859.07653939485
 42
0.4142135623731
 10
-10731.0497237569
 20
11869.07653939485
 42
0.4142135623731
 10
-10741.0497237569
 20
11859.07653939485
 42
0.4142135623731
 10
-10731.0497237569
 20
11849.07653939485
 42
0.4142135623731
  0
LINE
  5
1E7
330
1F
100
AcDbEntity
  8
0-B_寸法
  6
Continuous
 62
     3
370
     9
100
AcDbLine
 10
-10731.0497237569
 20
11859.07653939485
 30
0.0
 11
-10731.0497237569
 21
11077.61942551295
 31
0.0
  0
TEXT
  5
1E8
330
1F
100
AcDbEntity
  8
0-B_寸法
  6
Continuous
 62
     7
370
     0
100
AcDbText
 10
-11028.5497237569
 20
11951.37653939485
 30
0.0
 40
228.6
  1
27
 41
1.083333333333333
  7
ＭＳ ゴシック
100
AcDbText
  0
TEXT
  5
1E9
330
1F
100
AcDbEntity
  8
0-B_寸法
  6
Continuous
 62
     7
370
     0
100
AcDbText
 10
-15145.20764428196
 20
11952.31566415577
 30
0.0
 40
228.6
  1
27
 41
1.083333333333333
  7
ＭＳ ゴシック
100
AcDbText
  0
TEXT
  5
1EA
330
1F
100
AcDbEntity
  8
0-B_寸法
  6
Continuous
 62
     7
370
     0
100
AcDbText
 10
-14779.05304171747
 20
11598.3662150101
 30
0.0
 40
228.6
  1
31
 41
1.083333333333333
  7
ＭＳ ゴシック
100
AcDbText
  0
TEXT
  5
1EB
330
1F
100
AcDbEntity
  8
0-B_寸法
  6
Continuous
 62
     7
370
     0
100
AcDbText
 10
-14527.02530026827
 20
11938.83793549897
 30
0.0
 40
228.6
  1
27
 41
1.083333333333333
  7
ＭＳ ゴシック
100
AcDbText
  0
TEXT
  5
1EC
330
1F
100
AcDbEntity
  8
0-B_寸法
  6
Continuous
 62
     7
370
     0
100
AcDbText
 10
-14223.57395033884
 20
11590.61507492421
 30
0.0
 40
228.6
  1
31
 41
1.083333333333333
  7
ＭＳ ゴシック
100
AcDbText
  0
TEXT
  5
1ED
330
1F
100
AcDbEntity
  8
0-B_寸法
  6
Continuous
 62
     7
370
     0
100
AcDbText
 10
-13641.5443119496
 20
11590.61507492421
 30
0.0
 40
228.6
  1
31
 41
1.083333333333333
  7
ＭＳ ゴシック
100
AcDbText
  0
TEXT
  5
1EE
330
1F
100
AcDbEntity
  8
0-B_寸法
  6
Continuous
 62
     7
370
     0
100
AcDbText
 10
-13064.4892858543
 20
11590.61507492421
 30
0.0
 40
228.6
  1
31
 41
1.083333333333333
  7
ＭＳ ゴシック
100
AcDbText
  0
TEXT
  5
1EF
330
1F
100
AcDbEntity
  8
0-B_寸法
  6
Continuous
 62
     7
370
     0
100
AcDbText
 10
-12477.48503517114
 20
11595.58968721814
 30
0.0
 40
228.6
  1
31
 41
1.083333333333333
  7
ＭＳ ゴシック
100
AcDbText
  0
TEXT
  5
1F0
330
1F
100
AcDbEntity
  8
0-B_寸法
  6
Continuous
 62
     7
370
     0
100
AcDbText
 10
-11900.43000907583
 20
11600.56429951206
 30
0.0
 40
228.6
  1
31
 41
1.083333333333333
  7
ＭＳ ゴシック
100
AcDbText
  0
TEXT
  5
1F1
330
1F
100
AcDbEntity
  8
0-B_寸法
  6
Continuous
 62
     7
370
     0
100
AcDbText
 10
-11318.40037068659
 20
11585.64046263029
 30
0.0
 40
228.6
  1
31
 41
1.083333333333333
  7
ＭＳ ゴシック
100
AcDbText
  0
LINE
  5
1F2
330
1F
100
AcDbEntity
  8
0-B_寸法
  6
Continuous
 62
     3
370
     9
100
AcDbLine
 10
-16011.04972375691
 20
12714.87394638064
 30
0.0
 11
-15361.04972375691
 21
12714.87394638064
 31
0.0
  0
LWPOLYLINE
  5
1F3
330
1F
100
AcDbEntity
  8
0-B_寸法
  6
Continuous
 62
     3
370
     9
100
AcDbPolyline
 90
        4
 70
     1
 43
20.0
 10
-16001.04972375691
 20
12714.87394638064
 42
0.4142135623731
 10
-16011.04972375691
 20
12724.87394638064
 42
0.4142135623731
 10
-16021.04972375691
 20
12714.87394638064
 42
0.4142135623731
 10
-16011.04972375691
 20
12704.87394638064
 42
0.4142135623731
  0
LWPOLYLINE
  5
1F4
330
1F
100
AcDbEntity
  8
0-B_寸法
  6
Continuous
 62
     3
370
     9
100
AcDbPolyline
 90
        4
 70
     1
 43
20.0
 10
-15351.04972375691
 20
12714.87394638064
 42
0.4142135623731
 10
-15361.04972375691
 20
12724.87394638064
 42
0.4142135623731
 10
-15371.04972375691
 20
12714.87394638064
 42
0.4142135623731
 10
-15361.04972375691
 20
12704.87394638064
 42
0.4142135623731
  0
LINE
  5
1F5
330
1F
100
AcDbEntity
  8
0-B_寸法
  6
Continuous
 62
     3
370
     9
100
AcDbLine
 10
-16011.04972375691
 20
12714.87394638064
 30
0.0
 11
-16011.04972375691
 21
11859.07653939485
 31
0.0
  0
LINE
  5
1F6
330
1F
100
AcDbEntity
  8
0-B_寸法
  6
Continuous
 62
     3
370
     9
100
AcDbLine
 10
-15361.04972375691
 20
12714.87394638064
 30
0.0
 11
-15361.04972375691
 21
11859.07653939485
 31
0.0
  0
LINE
  5
1F7
330
1F
100
AcDbEntity
  8
0-B_寸法
  6
Continuous
 62
     3
370
     9
100
AcDbLine
 10
-15361.04972375691
 20
12714.87394638064
 30
0.0
 11
-15061.04972375691
 21
12714.87394638064
 31
0.0
  0
LWPOLYLINE
  5
1F8
330
1F
100
AcDbEntity
  8
0-B_寸法
  6
Continuous
 62
     3
370
     9
100
AcDbPolyline
 90
        4
 70
     1
 43
20.0
 10
-15051.04972375691
 20
12714.87394638064
 42
0.4142135623731
 10
-15061.04972375691
 20
12724.87394638064
 42
0.4142135623731
 10
-15071.04972375691
 20
12714.87394638064
 42
0.4142135623731
 10
-15061.04972375691
 20
12704.87394638064
 42
0.4142135623731
  0
LINE
  5
1F9
330
1F
100
AcDbEntity
  8
0-B_寸法
  6
Continuous
 62
     3
370
     9
100
AcDbLine
 10
-15061.04972375691
 20
12714.87394638064
 30
0.0
 11
-15061.04972375691
 21
11859.07653939485
 31
0.0
  0
LINE
  5
1FA
330
1F
100
AcDbEntity
  8
0-B_寸法
  6
Continuous
 62
     3
370
     9
100
AcDbLine
 10
-15061.04972375691
 20
12714.87394638064
 30
0.0
 11
-10731.0497237569
 21
12714.87394638064
 31
0.0
  0
LWPOLYLINE
  5
1FB
330
1F
100
AcDbEntity
  8
0-B_寸法
  6
Continuous
 62
     3
370
     9
100
AcDbPolyline
 90
        4
 70
     1
 43
20.0
 10
-10721.0497237569
 20
12714.87394638064
 42
0.4142135623731
 10
-10731.0497237569
 20
12724.87394638064
 42
0.4142135623731
 10
-10741.0497237569
 20
12714.87394638064
 42
0.4142135623731
 10
-10731.0497237569
 20
12704.87394638064
 42
0.4142135623731
  0
LINE
  5
1FC
330
1F
100
AcDbEntity
  8
0-B_寸法
  6
Continuous
 62
     3
370
     9
100
AcDbLine
 10
-10731.0497237569
 20
12714.87394638064
 30
0.0
 11
-10731.0497237569
 21
11859.07653939485
 31
0.0
  0
TEXT
  5
1FD
330
1F
100
AcDbEntity
  8
0-B_寸法
  6
Continuous
 62
     7
370
     0
100
AcDbText
 10
-13146.0497237569
 20
12807.17394638064
 30
0.0
 40
228.6
  1
433
 41
1.111111111111111
  7
ＭＳ ゴシック
100
AcDbText
  0
TEXT
  5
1FE
330
1F
100
AcDbEntity
  8
0-A_文字
  6
Continuous
 62
     7
370
     0
100
AcDbText
 10
-10645.87991935273
 20
11987.18284966664
 30
0.0
 40
228.6
  1
（桟木）
 41
1.125
  7
ＭＳ ゴシック
100
AcDbText
  0
TEXT
  5
1FF
330
1F
100
AcDbEntity
  8
0-A_文字
  6
Continuous
 62
     7
370
     0
100
AcDbText
 10
-10581.21546961326
 20
11534.53170149037
 30
0.0
 40
228.6
  1
（ｸﾘｱﾗﾝｽ）
 41
1.133333333333333
  7
ＭＳ ゴシック
100
AcDbText
  0
LINE
  5
200
330
1F
100
AcDbEntity
  8
0-C_ハッチ
  6
Continuous
 62
     3
370
     9
100
AcDbLine
 10
-1888.151230001844
 20
-158.2522426795409
 30
0.0
 11
-1618.151230001831
 21
111.7477573204725
 31
0.0
  0
LINE
  5
201
330
1F
100
AcDbEntity
  8
0-C_ハッチ
  6
Continuous
 62
     3
370
     9
100
AcDbLine
 10
-1888.151230001855
 20
-16.83088644221815
 30
0.0
 11
-1618.151230001842
 21
253.169113557795
 31
0.0
  0
LINE
  5
202
330
1F
100
AcDbEntity
  8
0-C_ハッチ
  6
Continuous
 62
     3
370
     9
100
AcDbLine
 10
-1888.151230001866
 20
124.5904697951043
 30
0.0
 11
-1618.151230001853
 21
394.5904697951177
 31
0.0
  0
TEXT
  5
203
330
1F
100
AcDbEntity
  8
0-B_寸法
  6
Continuous
 62
     7
370
     0
100
AcDbText
 10
-2330.1196617004
 20
3222.588549658296
 30
0.0
 40
228.6
  1
31（任意）
 41
1.133333333333333
  7
ＭＳ ゴシック
100
AcDbText
  0
TEXT
  5
204
330
1F
100
AcDbEntity
  8
0-B_寸法
  6
Continuous
 62
     7
370
     0
100
AcDbText
 10
-2683.794611295855
 20
2672.427516954256
 30
0.0
 40
228.6
  1
65
 41
1.083333333333333
  7
ＭＳ ゴシック
100
AcDbText
  0
TEXT
  5
205
330
1F
100
AcDbEntity
  8
0-B_寸法
  6
Continuous
 62
     7
370
     0
100
AcDbText
 10
-15849.61875400629
 20
12442.02406214706
 30
0.0
 40
228.6
  1
65
 41
1.083333333333333
  7
ＭＳ ゴシック
100
AcDbText
  0
TEXT
  5
206
330
1F
100
AcDbEntity
  8
0-B_寸法
  6
Continuous
 62
     7
370
     0
100
AcDbText
 10
-15676.08558957297
 20
12810.78203656787
 30
0.0
 40
228.6
  1
31（任意）
 41
1.133333333333333
  7
ＭＳ ゴシック
100
AcDbText
  0
LINE
  5
207
330
1F
100
AcDbEntity
  8
0-B_寸法
  6
Continuous
 62
     3
370
     9
100
AcDbLine
 10
-8956.906077348065
 20
10160.21438431771
 30
0.0
 11
-8956.906077348065
 21
10065.21438431771
 31
0.0
  0
LINE
  5
208
330
1F
100
AcDbEntity
  8
0-B_寸法
  6
Continuous
 62
     3
370
     9
100
AcDbLine
 10
-17930.08824068498
 20
9880.21438431771
 30
0.0
 11
-17930.08824068498
 21
1955.214384317708
 31
0.0
  0
LWPOLYLINE
  5
209
330
1F
100
AcDbEntity
  8
0-B_寸法
  6
Continuous
 62
     3
370
     9
100
AcDbPolyline
 90
        4
 70
     1
 43
20.0
 10
-17920.08824068498
 20
9880.21438431771
 42
0.4142135623731
 10
-17930.08824068498
 20
9890.21438431771
 42
0.4142135623731
 10
-17940.08824068498
 20
9880.21438431771
 42
0.4142135623731
 10
-17930.08824068498
 20
9870.21438431771
 42
0.4142135623731
  0
LINE
  5
20A
330
1F
100
AcDbEntity
  8
0-B_寸法
  6
Continuous
 62
     3
370
     9
100
AcDbLine
 10
-17930.08824068498
 20
9880.21438431771
 30
0.0
 11
-16920.16443664738
 21
9880.21438431771
 31
0.0
  0
LINE
  5
20B
330
1F
100
AcDbEntity
  8
0-A_文字
  6
Continuous
 62
     7
370
     9
100
AcDbLine
 10
-1618.151230001835
 20
35.76687094201667
 30
0.0
 11
-1308.151230001835
 21
35.76687094201667
 31
0.0
  0
LINE
  5
20C
330
1F
100
AcDbEntity
  8
0-A_文字
  6
Continuous
 62
     7
370
     9
100
AcDbLine
 10
-1618.151230001835
 20
275.7668709420167
 30
0.0
 11
-1308.151230001835
 21
275.7668709420167
 31
0.0
  0
LINE
  5
20D
330
1F
100
AcDbEntity
  8
0-A_文字
  6
Continuous
 62
     7
370
     9
100
AcDbLine
 10
-1888.151230001835
 20
500.7668709420167
 30
0.0
 11
-1618.151230001835
 21
500.7668709420167
 31
0.0
  0
LINE
  5
20E
330
1F
100
AcDbEntity
  8
0-3_仕上
  6
Continuous
 62
     7
370
     9
100
AcDbLine
 10
-1618.151230001835
 20
500.7668709420167
 30
0.0
 11
-1618.151230001835
 21
-189.2331290579833
 31
0.0
  0
LINE
  5
20F
330
1F
100
AcDbEntity
  8
0-A_文字
  6
Continuous
 62
     7
370
     9
100
AcDbLine
 10
-1888.151230001835
 20
-189.2331290579833
 30
0.0
 11
-1618.151230001835
 21
-189.2331290579833
 31
0.0
  0
LINE
  5
210
330
1F
100
AcDbEntity
  8
0-3_仕上
  6
Continuous
 62
     7
370
     9
100
AcDbLine
 10
-1888.151230001835
 20
500.7668709420167
 30
0.0
 11
-1888.151230001835
 21
-189.2331290579833
 31
0.0
  0
LINE
  5
211
330
1F
100
AcDbEntity
  8
0-C_ハッチ
  6
Continuous
 62
     3
370
     9
100
AcDbLine
 10
-1888.151230001825
 20
407.4331822698121
 30
0.0
 11
-1794.817541329621
 21
500.7668709420167
 31
0.0
  0
LINE
  5
212
330
1F
100
AcDbEntity
  8
0-C_ハッチ
  6
Continuous
 62
     3
370
     9
100
AcDbLine
 10
-1888.151230001877
 20
266.0118260324269
 30
0.0
 11
-1653.396185092287
 21
500.7668709420167
 31
0.0
  0
LINE
  5
213
330
1F
100
AcDbEntity
  8
0-C_ハッチ
  6
Continuous
 62
     3
370
     9
100
AcDbLine
 10
-1777.710760142954
 20
-189.2331290579833
 30
0.0
 11
-1618.151230001821
 21
-29.67359891685026
 31
0.0
  0
LINE
  5
214
330
1F
100
AcDbEntity
  8
0-C_ハッチ
  6
Continuous
 62
     3
370
     9
100
AcDbLine
 10
-1636.28940390562
 20
-189.2331290579833
 30
0.0
 11
-1618.15123000181
 21
-171.0949551541726
 31
0.0
  0
LINE
  5
215
330
1F
100
AcDbEntity
  8
0-A_文字
  6
Continuous
 62
     7
370
     9
100
AcDbLine
 10
-1618.151230001835
 20
-139.2331290579833
 30
0.0
 11
-1308.151230001835
 21
-139.2331290579833
 31
0.0
  0
LINE
  5
216
330
1F
100
AcDbEntity
  8
0-A_文字
  6
Continuous
 62
     7
370
     9
100
AcDbLine
 10
-1618.151230001835
 20
450.7668709420167
 30
0.0
 11
-1308.151230001835
 21
450.7668709420167
 31
0.0
  0
LINE
  5
217
330
1F
100
AcDbEntity
  8
0-C_ハッチ
  6
Continuous
 62
     3
370
     9
100
AcDbLine
 10
-1308.151230001844
 20
-158.2522426795409
 30
0.0
 11
-1038.151230001831
 21
111.7477573204725
 31
0.0
  0
LINE
  5
218
330
1F
100
AcDbEntity
  8
0-C_ハッチ
  6
Continuous
 62
     3
370
     9
100
AcDbLine
 10
-1308.151230001855
 20
-16.83088644221815
 30
0.0
 11
-1038.151230001842
 21
253.169113557795
 31
0.0
  0
LINE
  5
219
330
1F
100
AcDbEntity
  8
0-C_ハッチ
  6
Continuous
 62
     3
370
     9
100
AcDbLine
 10
-1308.151230001866
 20
124.5904697951043
 30
0.0
 11
-1038.151230001852
 21
394.5904697951177
 31
0.0
  0
LINE
  5
21A
330
1F
100
AcDbEntity
  8
0-A_文字
  6
Continuous
 62
     7
370
     9
100
AcDbLine
 10
-1038.151230001835
 20
35.76687094201667
 30
0.0
 11
-728.1512300018344
 21
35.76687094201667
 31
0.0
  0
LINE
  5
21B
330
1F
100
AcDbEntity
  8
0-A_文字
  6
Continuous
 62
     7
370
     9
100
AcDbLine
 10
-1038.151230001835
 20
275.7668709420167
 30
0.0
 11
-728.1512300018344
 21
275.7668709420167
 31
0.0
  0
LINE
  5
21C
330
1F
100
AcDbEntity
  8
0-A_文字
  6
Continuous
 62
     7
370
     9
100
AcDbLine
 10
-1308.151230001835
 20
500.7668709420167
 30
0.0
 11
-1038.151230001835
 21
500.7668709420167
 31
0.0
  0
LINE
  5
21D
330
1F
100
AcDbEntity
  8
0-3_仕上
  6
Continuous
 62
     7
370
     9
100
AcDbLine
 10
-1038.151230001835
 20
500.7668709420167
 30
0.0
 11
-1038.151230001835
 21
-189.2331290579833
 31
0.0
  0
LINE
  5
21E
330
1F
100
AcDbEntity
  8
0-A_文字
  6
Continuous
 62
     7
370
     9
100
AcDbLine
 10
-1308.151230001835
 20
-189.2331290579833
 30
0.0
 11
-1038.151230001835
 21
-189.2331290579833
 31
0.0
  0
LINE
  5
21F
330
1F
100
AcDbEntity
  8
0-3_仕上
  6
Continuous
 62
     7
370
     9
100
AcDbLine
 10
-1308.151230001835
 20
500.7668709420167
 30
0.0
 11
-1308.151230001835
 21
-189.2331290579833
 31
0.0
  0
LINE
  5
220
330
1F
100
AcDbEntity
  8
0-C_ハッチ
  6
Continuous
 62
     3
370
     9
100
AcDbLine
 10
-1308.151230001825
 20
407.4331822698121
 30
0.0
 11
-1214.81754132962
 21
500.7668709420167
 31
0.0
  0
LINE
  5
221
330
1F
100
AcDbEntity
  8
0-C_ハッチ
  6
Continuous
 62
     3
370
     9
100
AcDbLine
 10
-1308.151230001877
 20
266.0118260324269
 30
0.0
 11
-1073.396185092287
 21
500.7668709420167
 31
0.0
  0
LINE
  5
222
330
1F
100
AcDbEntity
  8
0-C_ハッチ
  6
Continuous
 62
     3
370
     9
100
AcDbLine
 10
-1197.710760142954
 20
-189.2331290579833
 30
0.0
 11
-1038.15123000182
 21
-29.67359891685026
 31
0.0
  0
LINE
  5
223
330
1F
100
AcDbEntity
  8
0-C_ハッチ
  6
Continuous
 62
     3
370
     9
100
AcDbLine
 10
-1056.28940390562
 20
-189.2331290579833
 30
0.0
 11
-1038.151230001809
 21
-171.0949551541726
 31
0.0
  0
LINE
  5
224
330
1F
100
AcDbEntity
  8
0-A_文字
  6
Continuous
 62
     7
370
     9
100
AcDbLine
 10
-1038.151230001835
 20
-139.2331290579833
 30
0.0
 11
-728.1512300018344
 21
-139.2331290579833
 31
0.0
  0
LINE
  5
225
330
1F
100
AcDbEntity
  8
0-A_文字
  6
Continuous
 62
     7
370
     9
100
AcDbLine
 10
-1038.151230001835
 20
450.7668709420167
 30
0.0
 11
-728.1512300018344
 21
450.7668709420167
 31
0.0
  0
LINE
  5
226
330
1F
100
AcDbEntity
  8
0-C_ハッチ
  6
Continuous
 62
     3
370
     9
100
AcDbLine
 10
-728.1512300018438
 20
-158.2522426795409
 30
0.0
 11
-458.1512300018307
 21
111.7477573204725
 31
0.0
  0
LINE
  5
227
330
1F
100
AcDbEntity
  8
0-C_ハッチ
  6
Continuous
 62
     3
370
     9
100
AcDbLine
 10
-728.1512300018544
 20
-16.83088644221815
 30
0.0
 11
-458.1512300018414
 21
253.169113557795
 31
0.0
  0
LINE
  5
228
330
1F
100
AcDbEntity
  8
0-C_ハッチ
  6
Continuous
 62
     3
370
     9
100
AcDbLine
 10
-728.1512300018654
 20
124.5904697951043
 30
0.0
 11
-458.151230001852
 21
394.5904697951177
 31
0.0
  0
LINE
  5
229
330
1F
100
AcDbEntity
  8
0-A_文字
  6
Continuous
 62
     7
370
     9
100
AcDbLine
 10
-458.1512300018343
 20
35.76687094201667
 30
0.0
 11
-148.1512300018341
 21
35.76687094201667
 31
0.0
  0
LINE
  5
22A
330
1F
100
AcDbEntity
  8
0-A_文字
  6
Continuous
 62
     7
370
     9
100
AcDbLine
 10
-458.1512300018343
 20
275.7668709420167
 30
0.0
 11
-148.1512300018341
 21
275.7668709420167
 31
0.0
  0
LINE
  5
22B
330
1F
100
AcDbEntity
  8
0-A_文字
  6
Continuous
 62
     7
370
     9
100
AcDbLine
 10
-728.1512300018345
 20
500.7668709420167
 30
0.0
 11
-458.1512300018343
 21
500.7668709420167
 31
0.0
  0
LINE
  5
22C
330
1F
100
AcDbEntity
  8
0-3_仕上
  6
Continuous
 62
     7
370
     9
100
AcDbLine
 10
-458.1512300018343
 20
500.7668709420167
 30
0.0
 11
-458.1512300018343
 21
-189.2331290579833
 31
0.0
  0
LINE
  5
22D
330
1F
100
AcDbEntity
  8
0-A_文字
  6
Continuous
 62
     7
370
     9
100
AcDbLine
 10
-728.1512300018345
 20
-189.2331290579833
 30
0.0
 11
-458.1512300018343
 21
-189.2331290579833
 31
0.0
  0
LINE
  5
22E
330
1F
100
AcDbEntity
  8
0-3_仕上
  6
Continuous
 62
     7
370
     9
100
AcDbLine
 10
-728.1512300018345
 20
500.7668709420167
 30
0.0
 11
-728.1512300018345
 21
-189.2331290579833
 31
0.0
  0
LINE
  5
22F
330
1F
100
AcDbEntity
  8
0-C_ハッチ
  6
Continuous
 62
     3
370
     9
100
AcDbLine
 10
-728.1512300018246
 20
407.4331822698121
 30
0.0
 11
-634.81754132962
 21
500.7668709420167
 31
0.0
  0
LINE
  5
230
330
1F
100
AcDbEntity
  8
0-C_ハッチ
  6
Continuous
 62
     3
370
     9
100
AcDbLine
 10
-728.1512300018765
 20
266.0118260324269
 30
0.0
 11
-493.3961850922867
 21
500.7668709420167
 31
0.0
  0
LINE
  5
231
330
1F
100
AcDbEntity
  8
0-C_ハッチ
  6
Continuous
 62
     3
370
     9
100
AcDbLine
 10
-617.7107601429533
 20
-189.2331290579833
 30
0.0
 11
-458.1512300018201
 21
-29.67359891685026
 31
0.0
  0
LINE
  5
232
330
1F
100
AcDbEntity
  8
0-C_ハッチ
  6
Continuous
 62
     3
370
     9
100
AcDbLine
 10
-476.2894039056196
 20
-189.2331290579833
 30
0.0
 11
-458.151230001809
 21
-171.0949551541726
 31
0.0
  0
LINE
  5
233
330
1F
100
AcDbEntity
  8
0-A_文字
  6
Continuous
 62
     7
370
     9
100
AcDbLine
 10
-458.1512300018343
 20
-139.2331290579833
 30
0.0
 11
-148.1512300018341
 21
-139.2331290579833
 31
0.0
  0
LINE
  5
234
330
1F
100
AcDbEntity
  8
0-A_文字
  6
Continuous
 62
     7
370
     9
100
AcDbLine
 10
-458.1512300018343
 20
450.7668709420167
 30
0.0
 11
-148.1512300018341
 21
450.7668709420167
 31
0.0
  0
LINE
  5
235
330
1F
100
AcDbEntity
  8
0-C_ハッチ
  6
Continuous
 62
     3
370
     9
100
AcDbLine
 10
-148.1512300018437
 20
-158.2522426795409
 30
0.0
 11
121.8487699981694
 21
111.7477573204725
 31
0.0
  0
LINE
  5
236
330
1F
100
AcDbEntity
  8
0-C_ハッチ
  6
Continuous
 62
     3
370
     9
100
AcDbLine
 10
-148.1512300018544
 20
-16.83088644221815
 30
0.0
 11
121.8487699981587
 21
253.169113557795
 31
0.0
  0
LINE
  5
237
330
1F
100
AcDbEntity
  8
0-C_ハッチ
  6
Continuous
 62
     3
370
     9
100
AcDbLine
 10
-148.1512300018654
 20
124.5904697951043
 30
0.0
 11
121.848769998148
 21
394.5904697951177
 31
0.0
  0
LINE
  5
238
330
1F
100
AcDbEntity
  8
0-A_文字
  6
Continuous
 62
     7
370
     9
100
AcDbLine
 10
121.8487699981658
 20
35.76687094201667
 30
0.0
 11
431.8487699981659
 21
35.76687094201667
 31
0.0
  0
LINE
  5
239
330
1F
100
AcDbEntity
  8
0-A_文字
  6
Continuous
 62
     7
370
     9
100
AcDbLine
 10
121.8487699981658
 20
275.7668709420167
 30
0.0
 11
431.8487699981659
 21
275.7668709420167
 31
0.0
  0
LINE
  5
23A
330
1F
100
AcDbEntity
  8
0-A_文字
  6
Continuous
 62
     7
370
     9
100
AcDbLine
 10
-148.1512300018345
 20
500.7668709420167
 30
0.0
 11
121.8487699981658
 21
500.7668709420167
 31
0.0
  0
LINE
  5
23B
330
1F
100
AcDbEntity
  8
0-3_仕上
  6
Continuous
 62
     7
370
     9
100
AcDbLine
 10
121.8487699981658
 20
500.7668709420167
 30
0.0
 11
121.8487699981658
 21
-189.2331290579833
 31
0.0
  0
LINE
  5
23C
330
1F
100
AcDbEntity
  8
0-A_文字
  6
Continuous
 62
     7
370
     9
100
AcDbLine
 10
-148.1512300018345
 20
-189.2331290579833
 30
0.0
 11
121.8487699981658
 21
-189.2331290579833
 31
0.0
  0
LINE
  5
23D
330
1F
100
AcDbEntity
  8
0-3_仕上
  6
Continuous
 62
     7
370
     9
100
AcDbLine
 10
-148.1512300018345
 20
500.7668709420167
 30
0.0
 11
-148.1512300018345
 21
-189.2331290579833
 31
0.0
  0
LINE
  5
23E
330
1F
100
AcDbEntity
  8
0-C_ハッチ
  6
Continuous
 62
     3
370
     9
100
AcDbLine
 10
-148.1512300018245
 20
407.4331822698121
 30
0.0
 11
-54.81754132961996
 21
500.7668709420167
 31
0.0
  0
LINE
  5
23F
330
1F
100
AcDbEntity
  8
0-C_ハッチ
  6
Continuous
 62
     3
370
     9
100
AcDbLine
 10
-148.1512300018764
 20
266.0118260324269
 30
0.0
 11
86.60381490771343
 21
500.7668709420167
 31
0.0
  0
LINE
  5
240
330
1F
100
AcDbEntity
  8
0-C_ハッチ
  6
Continuous
 62
     3
370
     9
100
AcDbLine
 10
-37.71076014295325
 20
-189.2331290579833
 30
0.0
 11
121.84876999818
 21
-29.67359891685026
 31
0.0
  0
LINE
  5
241
330
1F
100
AcDbEntity
  8
0-C_ハッチ
  6
Continuous
 62
     3
370
     9
100
AcDbLine
 10
103.7105960943805
 20
-189.2331290579833
 30
0.0
 11
121.848769998191
 21
-171.0949551541726
 31
0.0
  0
LINE
  5
242
330
1F
100
AcDbEntity
  8
0-A_文字
  6
Continuous
 62
     7
370
     9
100
AcDbLine
 10
121.8487699981658
 20
-139.2331290579833
 30
0.0
 11
431.8487699981659
 21
-139.2331290579833
 31
0.0
  0
LINE
  5
243
330
1F
100
AcDbEntity
  8
0-A_文字
  6
Continuous
 62
     7
370
     9
100
AcDbLine
 10
121.8487699981658
 20
450.7668709420167
 30
0.0
 11
431.8487699981659
 21
450.7668709420167
 31
0.0
  0
LINE
  5
244
330
1F
100
AcDbEntity
  8
0-C_ハッチ
  6
Continuous
 62
     3
370
     9
100
AcDbLine
 10
431.8487699981567
 20
-158.2522426795409
 30
0.0
 11
701.8487699981698
 21
111.7477573204725
 31
0.0
  0
LINE
  5
245
330
1F
100
AcDbEntity
  8
0-C_ハッチ
  6
Continuous
 62
     3
370
     9
100
AcDbLine
 10
431.8487699981461
 20
-16.83088644221815
 30
0.0
 11
701.8487699981591
 21
253.169113557795
 31
0.0
  0
LINE
  5
246
330
1F
100
AcDbEntity
  8
0-C_ハッチ
  6
Continuous
 62
     3
370
     9
100
AcDbLine
 10
431.848769998135
 20
124.5904697951043
 30
0.0
 11
701.8487699981484
 21
394.5904697951177
 31
0.0
  0
LINE
  5
247
330
1F
100
AcDbEntity
  8
0-A_文字
  6
Continuous
 62
     7
370
     9
100
AcDbLine
 10
701.8487699981663
 20
35.76687094201667
 30
0.0
 11
1011.848769998166
 21
35.76687094201667
 31
0.0
  0
LINE
  5
248
330
1F
100
AcDbEntity
  8
0-A_文字
  6
Continuous
 62
     7
370
     9
100
AcDbLine
 10
701.8487699981663
 20
275.7668709420167
 30
0.0
 11
1011.848769998166
 21
275.7668709420167
 31
0.0
  0
LINE
  5
249
330
1F
100
AcDbEntity
  8
0-A_文字
  6
Continuous
 62
     7
370
     9
100
AcDbLine
 10
431.8487699981659
 20
500.7668709420167
 30
0.0
 11
701.8487699981663
 21
500.7668709420167
 31
0.0
  0
LINE
  5
24A
330
1F
100
AcDbEntity
  8
0-3_仕上
  6
Continuous
 62
     7
370
     9
100
AcDbLine
 10
701.8487699981663
 20
500.7668709420167
 30
0.0
 11
701.8487699981663
 21
-189.2331290579833
 31
0.0
  0
LINE
  5
24B
330
1F
100
AcDbEntity
  8
0-A_文字
  6
Continuous
 62
     7
370
     9
100
AcDbLine
 10
431.8487699981659
 20
-189.2331290579833
 30
0.0
 11
701.8487699981663
 21
-189.2331290579833
 31
0.0
  0
LINE
  5
24C
330
1F
100
AcDbEntity
  8
0-3_仕上
  6
Continuous
 62
     7
370
     9
100
AcDbLine
 10
431.8487699981659
 20
500.7668709420167
 30
0.0
 11
431.8487699981659
 21
-189.2331290579833
 31
0.0
  0
LINE
  5
24D
330
1F
100
AcDbEntity
  8
0-C_ハッチ
  6
Continuous
 62
     3
370
     9
100
AcDbLine
 10
431.8487699981759
 20
407.4331822698121
 30
0.0
 11
525.1824586703805
 21
500.7668709420167
 31
0.0
  0
LINE
  5
24E
330
1F
100
AcDbEntity
  8
0-C_ハッチ
  6
Continuous
 62
     3
370
     9
100
AcDbLine
 10
431.848769998124
 20
266.0118260324269
 30
0.0
 11
666.6038149077139
 21
500.7668709420167
 31
0.0
  0
LINE
  5
24F
330
1F
100
AcDbEntity
  8
0-C_ハッチ
  6
Continuous
 62
     3
370
     9
100
AcDbLine
 10
542.2892398570472
 20
-189.2331290579833
 30
0.0
 11
701.8487699981804
 21
-29.67359891685026
 31
0.0
  0
LINE
  5
250
330
1F
100
AcDbEntity
  8
0-C_ハッチ
  6
Continuous
 62
     3
370
     9
100
AcDbLine
 10
683.7105960943809
 20
-189.2331290579833
 30
0.0
 11
701.8487699981914
 21
-171.0949551541726
 31
0.0
  0
LINE
  5
251
330
1F
100
AcDbEntity
  8
0-A_文字
  6
Continuous
 62
     7
370
     9
100
AcDbLine
 10
701.8487699981663
 20
-139.2331290579833
 30
0.0
 11
1011.848769998166
 21
-139.2331290579833
 31
0.0
  0
LINE
  5
252
330
1F
100
AcDbEntity
  8
0-A_文字
  6
Continuous
 62
     7
370
     9
100
AcDbLine
 10
701.8487699981663
 20
450.7668709420167
 30
0.0
 11
1011.848769998166
 21
450.7668709420167
 31
0.0
  0
LINE
  5
253
330
1F
100
AcDbEntity
  8
0-C_ハッチ
  6
Continuous
 62
     3
370
     9
100
AcDbLine
 10
1011.848769998157
 20
-158.2522426795409
 30
0.0
 11
1281.84876999817
 21
111.7477573204725
 31
0.0
  0
LINE
  5
254
330
1F
100
AcDbEntity
  8
0-C_ハッチ
  6
Continuous
 62
     3
370
     9
100
AcDbLine
 10
1011.848769998147
 20
-16.83088644221815
 30
0.0
 11
1281.848769998159
 21
253.169113557795
 31
0.0
  0
LINE
  5
255
330
1F
100
AcDbEntity
  8
0-C_ハッチ
  6
Continuous
 62
     3
370
     9
100
AcDbLine
 10
1011.848769998135
 20
124.5904697951043
 30
0.0
 11
1281.848769998149
 21
394.5904697951177
 31
0.0
  0
LINE
  5
256
330
1F
100
AcDbEntity
  8
0-A_文字
  6
Continuous
 62
     7
370
     9
100
AcDbLine
 10
1281.848769998167
 20
35.76687094201667
 30
0.0
 11
1591.848769998167
 21
35.76687094201667
 31
0.0
  0
LINE
  5
257
330
1F
100
AcDbEntity
  8
0-A_文字
  6
Continuous
 62
     7
370
     9
100
AcDbLine
 10
1281.848769998167
 20
275.7668709420167
 30
0.0
 11
1591.848769998167
 21
275.7668709420167
 31
0.0
  0
LINE
  5
258
330
1F
100
AcDbEntity
  8
0-A_文字
  6
Continuous
 62
     7
370
     9
100
AcDbLine
 10
1011.848769998166
 20
500.7668709420167
 30
0.0
 11
1281.848769998167
 21
500.7668709420167
 31
0.0
  0
LINE
  5
259
330
1F
100
AcDbEntity
  8
0-3_仕上
  6
Continuous
 62
     7
370
     9
100
AcDbLine
 10
1281.848769998167
 20
500.7668709420167
 30
0.0
 11
1281.848769998167
 21
-189.2331290579833
 31
0.0
  0
LINE
  5
25A
330
1F
100
AcDbEntity
  8
0-A_文字
  6
Continuous
 62
     7
370
     9
100
AcDbLine
 10
1011.848769998166
 20
-189.2331290579833
 30
0.0
 11
1281.848769998167
 21
-189.2331290579833
 31
0.0
  0
LINE
  5
25B
330
1F
100
AcDbEntity
  8
0-3_仕上
  6
Continuous
 62
     7
370
     9
100
AcDbLine
 10
1011.848769998166
 20
500.7668709420167
 30
0.0
 11
1011.848769998166
 21
-189.2331290579833
 31
0.0
  0
LINE
  5
25C
330
1F
100
AcDbEntity
  8
0-C_ハッチ
  6
Continuous
 62
     3
370
     9
100
AcDbLine
 10
1011.848769998176
 20
407.4331822698121
 30
0.0
 11
1105.182458670381
 21
500.7668709420167
 31
0.0
  0
LINE
  5
25D
330
1F
100
AcDbEntity
  8
0-C_ハッチ
  6
Continuous
 62
     3
370
     9
100
AcDbLine
 10
1011.848769998124
 20
266.0118260324269
 30
0.0
 11
1246.603814907714
 21
500.7668709420167
 31
0.0
  0
LINE
  5
25E
330
1F
100
AcDbEntity
  8
0-C_ハッチ
  6
Continuous
 62
     3
370
     9
100
AcDbLine
 10
1122.289239857048
 20
-189.2331290579833
 30
0.0
 11
1281.848769998181
 21
-29.67359891685026
 31
0.0
  0
LINE
  5
25F
330
1F
100
AcDbEntity
  8
0-C_ハッチ
  6
Continuous
 62
     3
370
     9
100
AcDbLine
 10
1263.710596094381
 20
-189.2331290579833
 30
0.0
 11
1281.848769998192
 21
-171.0949551541726
 31
0.0
  0
LINE
  5
260
330
1F
100
AcDbEntity
  8
0-A_文字
  6
Continuous
 62
     7
370
     9
100
AcDbLine
 10
1281.848769998167
 20
-139.2331290579833
 30
0.0
 11
1591.848769998167
 21
-139.2331290579833
 31
0.0
  0
LINE
  5
261
330
1F
100
AcDbEntity
  8
0-A_文字
  6
Continuous
 62
     7
370
     9
100
AcDbLine
 10
1281.848769998167
 20
450.7668709420167
 30
0.0
 11
1591.848769998167
 21
450.7668709420167
 31
0.0
  0
LINE
  5
262
330
1F
100
AcDbEntity
  8
0-C_ハッチ
  6
Continuous
 62
     3
370
     9
100
AcDbLine
 10
1591.848769998157
 20
-158.2522426795409
 30
0.0
 11
1861.84876999817
 21
111.7477573204725
 31
0.0
  0
LINE
  5
263
330
1F
100
AcDbEntity
  8
0-C_ハッチ
  6
Continuous
 62
     3
370
     9
100
AcDbLine
 10
1591.848769998146
 20
-16.83088644221815
 30
0.0
 11
1861.848769998159
 21
253.169113557795
 31
0.0
  0
LINE
  5
264
330
1F
100
AcDbEntity
  8
0-C_ハッチ
  6
Continuous
 62
     3
370
     9
100
AcDbLine
 10
1591.848769998135
 20
124.5904697951043
 30
0.0
 11
1861.848769998149
 21
394.5904697951177
 31
0.0
  0
LINE
  5
265
330
1F
100
AcDbEntity
  8
0-A_文字
  6
Continuous
 62
     7
370
     9
100
AcDbLine
 10
1861.848769998166
 20
35.76687094201667
 30
0.0
 11
2171.848769998167
 21
35.76687094201667
 31
0.0
  0
LINE
  5
266
330
1F
100
AcDbEntity
  8
0-A_文字
  6
Continuous
 62
     7
370
     9
100
AcDbLine
 10
1861.848769998166
 20
275.7668709420167
 30
0.0
 11
2171.848769998167
 21
275.7668709420167
 31
0.0
  0
LINE
  5
267
330
1F
100
AcDbEntity
  8
0-A_文字
  6
Continuous
 62
     7
370
     9
100
AcDbLine
 10
1591.848769998166
 20
500.7668709420167
 30
0.0
 11
1861.848769998166
 21
500.7668709420167
 31
0.0
  0
LINE
  5
268
330
1F
100
AcDbEntity
  8
0-3_仕上
  6
Continuous
 62
     7
370
     9
100
AcDbLine
 10
1861.848769998166
 20
500.7668709420167
 30
0.0
 11
1861.848769998166
 21
-189.2331290579833
 31
0.0
  0
LINE
  5
269
330
1F
100
AcDbEntity
  8
0-A_文字
  6
Continuous
 62
     7
370
     9
100
AcDbLine
 10
1591.848769998166
 20
-189.2331290579833
 30
0.0
 11
1861.848769998166
 21
-189.2331290579833
 31
0.0
  0
LINE
  5
26A
330
1F
100
AcDbEntity
  8
0-3_仕上
  6
Continuous
 62
     7
370
     9
100
AcDbLine
 10
1591.848769998166
 20
500.7668709420167
 30
0.0
 11
1591.848769998166
 21
-189.2331290579833
 31
0.0
  0
LINE
  5
26B
330
1F
100
AcDbEntity
  8
0-C_ハッチ
  6
Continuous
 62
     3
370
     9
100
AcDbLine
 10
1591.848769998176
 20
407.4331822698121
 30
0.0
 11
1685.182458670381
 21
500.7668709420167
 31
0.0
  0
LINE
  5
26C
330
1F
100
AcDbEntity
  8
0-C_ハッチ
  6
Continuous
 62
     3
370
     9
100
AcDbLine
 10
1591.848769998124
 20
266.0118260324269
 30
0.0
 11
1826.603814907714
 21
500.7668709420167
 31
0.0
  0
LINE
  5
26D
330
1F
100
AcDbEntity
  8
0-C_ハッチ
  6
Continuous
 62
     3
370
     9
100
AcDbLine
 10
1702.289239857047
 20
-189.2331290579833
 30
0.0
 11
1861.848769998181
 21
-29.67359891685026
 31
0.0
  0
LINE
  5
26E
330
1F
100
AcDbEntity
  8
0-C_ハッチ
  6
Continuous
 62
     3
370
     9
100
AcDbLine
 10
1843.710596094381
 20
-189.2331290579833
 30
0.0
 11
1861.848769998192
 21
-171.0949551541726
 31
0.0
  0
LINE
  5
26F
330
1F
100
AcDbEntity
  8
0-A_文字
  6
Continuous
 62
     7
370
     9
100
AcDbLine
 10
1861.848769998166
 20
-139.2331290579833
 30
0.0
 11
2171.848769998167
 21
-139.2331290579833
 31
0.0
  0
LINE
  5
270
330
1F
100
AcDbEntity
  8
0-A_文字
  6
Continuous
 62
     7
370
     9
100
AcDbLine
 10
1861.848769998166
 20
450.7668709420167
 30
0.0
 11
2171.848769998167
 21
450.7668709420167
 31
0.0
  0
LINE
  5
271
330
1F
100
AcDbEntity
  8
0-C_ハッチ
  6
Continuous
 62
     3
370
     9
100
AcDbLine
 10
2171.848769998157
 20
-158.2522426795409
 30
0.0
 11
2441.84876999817
 21
111.7477573204725
 31
0.0
  0
LINE
  5
272
330
1F
100
AcDbEntity
  8
0-C_ハッチ
  6
Continuous
 62
     3
370
     9
100
AcDbLine
 10
2171.848769998147
 20
-16.83088644221815
 30
0.0
 11
2441.84876999816
 21
253.169113557795
 31
0.0
  0
LINE
  5
273
330
1F
100
AcDbEntity
  8
0-C_ハッチ
  6
Continuous
 62
     3
370
     9
100
AcDbLine
 10
2171.848769998136
 20
124.5904697951043
 30
0.0
 11
2441.848769998149
 21
394.5904697951177
 31
0.0
  0
LINE
  5
274
330
1F
100
AcDbEntity
  8
0-A_文字
  6
Continuous
 62
     7
370
     9
100
AcDbLine
 10
2171.848769998167
 20
500.7668709420167
 30
0.0
 11
2441.848769998167
 21
500.7668709420167
 31
0.0
  0
LINE
  5
275
330
1F
100
AcDbEntity
  8
0-3_仕上
  6
Continuous
 62
     7
370
     9
100
AcDbLine
 10
2441.848769998167
 20
500.7668709420167
 30
0.0
 11
2441.848769998167
 21
-189.2331290579833
 31
0.0
  0
LINE
  5
276
330
1F
100
AcDbEntity
  8
0-A_文字
  6
Continuous
 62
     7
370
     9
100
AcDbLine
 10
2171.848769998167
 20
-189.2331290579833
 30
0.0
 11
2441.848769998167
 21
-189.2331290579833
 31
0.0
  0
LINE
  5
277
330
1F
100
AcDbEntity
  8
0-3_仕上
  6
Continuous
 62
     7
370
     9
100
AcDbLine
 10
2171.848769998167
 20
500.7668709420167
 30
0.0
 11
2171.848769998167
 21
-189.2331290579833
 31
0.0
  0
LINE
  5
278
330
1F
100
AcDbEntity
  8
0-C_ハッチ
  6
Continuous
 62
     3
370
     9
100
AcDbLine
 10
2171.848769998177
 20
407.4331822698121
 30
0.0
 11
2265.182458670381
 21
500.7668709420167
 31
0.0
  0
LINE
  5
279
330
1F
100
AcDbEntity
  8
0-C_ハッチ
  6
Continuous
 62
     3
370
     9
100
AcDbLine
 10
2171.848769998125
 20
266.0118260324269
 30
0.0
 11
2406.603814907714
 21
500.7668709420167
 31
0.0
  0
LINE
  5
27A
330
1F
100
AcDbEntity
  8
0-C_ハッチ
  6
Continuous
 62
     3
370
     9
100
AcDbLine
 10
2282.289239857048
 20
-189.2331290579833
 30
0.0
 11
2441.848769998181
 21
-29.67359891685026
 31
0.0
  0
LINE
  5
27B
330
1F
100
AcDbEntity
  8
0-C_ハッチ
  6
Continuous
 62
     3
370
     9
100
AcDbLine
 10
2423.710596094381
 20
-189.2331290579833
 30
0.0
 11
2441.848769998192
 21
-171.0949551541726
 31
0.0
  0
LINE
  5
27C
330
1F
100
AcDbEntity
  8
0-3_仕上
  6
Continuous
 62
     7
370
     9
100
AcDbLine
 10
-14791.04972375691
 20
1835.214384317708
 30
0.0
 11
-14481.04972375691
 21
1835.214384317708
 31
0.0
  0
LINE
  5
27D
330
1F
100
AcDbEntity
  8
0-3_仕上
  6
Continuous
 62
     7
370
     9
100
AcDbLine
 10
-14791.04972375691
 20
2075.214384317708
 30
0.0
 11
-14481.04972375691
 21
2075.214384317708
 31
0.0
  0
LINE
  5
27E
330
1F
100
AcDbEntity
  8
0-3_仕上
  6
Continuous
 62
     7
370
     9
100
AcDbLine
 10
-14211.04972375691
 20
1835.214384317708
 30
0.0
 11
-13901.04972375691
 21
1835.214384317708
 31
0.0
  0
LINE
  5
27F
330
1F
100
AcDbEntity
  8
0-3_仕上
  6
Continuous
 62
     7
370
     9
100
AcDbLine
 10
-14211.04972375691
 20
2075.214384317708
 30
0.0
 11
-13901.04972375691
 21
2075.214384317708
 31
0.0
  0
LINE
  5
280
330
1F
100
AcDbEntity
  8
0-3_仕上
  6
Continuous
 62
     7
370
     9
100
AcDbLine
 10
-13631.04972375691
 20
1835.214384317708
 30
0.0
 11
-13321.04972375691
 21
1835.214384317708
 31
0.0
  0
LINE
  5
281
330
1F
100
AcDbEntity
  8
0-3_仕上
  6
Continuous
 62
     7
370
     9
100
AcDbLine
 10
-13631.04972375691
 20
2075.214384317708
 30
0.0
 11
-13321.04972375691
 21
2075.214384317708
 31
0.0
  0
LINE
  5
282
330
1F
100
AcDbEntity
  8
0-3_仕上
  6
Continuous
 62
     7
370
     9
100
AcDbLine
 10
-13051.04972375691
 20
1835.214384317708
 30
0.0
 11
-12741.04972375691
 21
1835.214384317708
 31
0.0
  0
LINE
  5
283
330
1F
100
AcDbEntity
  8
0-3_仕上
  6
Continuous
 62
     7
370
     9
100
AcDbLine
 10
-13051.04972375691
 20
2075.214384317708
 30
0.0
 11
-12741.04972375691
 21
2075.214384317708
 31
0.0
  0
LINE
  5
284
330
1F
100
AcDbEntity
  8
0-3_仕上
  6
Continuous
 62
     7
370
     9
100
AcDbLine
 10
-12471.04972375691
 20
1835.214384317708
 30
0.0
 11
-12161.04972375691
 21
1835.214384317708
 31
0.0
  0
LINE
  5
285
330
1F
100
AcDbEntity
  8
0-3_仕上
  6
Continuous
 62
     7
370
     9
100
AcDbLine
 10
-12471.04972375691
 20
2075.214384317708
 30
0.0
 11
-12161.04972375691
 21
2075.214384317708
 31
0.0
  0
LINE
  5
286
330
1F
100
AcDbEntity
  8
0-3_仕上
  6
Continuous
 62
     7
370
     9
100
AcDbLine
 10
-11891.04972375691
 20
1835.214384317708
 30
0.0
 11
-11581.04972375691
 21
1835.214384317708
 31
0.0
  0
LINE
  5
287
330
1F
100
AcDbEntity
  8
0-3_仕上
  6
Continuous
 62
     7
370
     9
100
AcDbLine
 10
-11891.04972375691
 20
2075.214384317708
 30
0.0
 11
-11581.04972375691
 21
2075.214384317708
 31
0.0
  0
LINE
  5
288
330
1F
100
AcDbEntity
  8
0-3_仕上
  6
Continuous
 62
     7
370
     9
100
AcDbLine
 10
-11311.04972375691
 20
1835.214384317708
 30
0.0
 11
-11001.04972375691
 21
1835.214384317708
 31
0.0
  0
LINE
  5
289
330
1F
100
AcDbEntity
  8
0-3_仕上
  6
Continuous
 62
     7
370
     9
100
AcDbLine
 10
-11311.04972375691
 20
2075.214384317708
 30
0.0
 11
-11001.04972375691
 21
2075.214384317708
 31
0.0
  0
LINE
  5
28A
330
1F
100
AcDbEntity
  8
0-B_寸法
  6
Continuous
 62
     4
370
     5
100
AcDbLine
 10
-17103.67364038648
 20
2075.214384317708
 30
0.0
 11
-17103.67364038648
 21
1835.214384317708
 31
0.0
  0
LWPOLYLINE
  5
28B
330
1F
100
AcDbEntity
  8
0-B_寸法
  6
Continuous
 62
     4
370
     5
100
AcDbPolyline
 90
        4
 70
     1
 43
20.0
 10
-17093.67364038648
 20
2075.214384317708
 42
0.4142135623731
 10
-17103.67364038648
 20
2085.214384317708
 42
0.4142135623731
 10
-17113.67364038648
 20
2075.214384317708
 42
0.4142135623731
 10
-17103.67364038648
 20
2065.214384317708
 42
0.4142135623731
  0
LWPOLYLINE
  5
28C
330
1F
100
AcDbEntity
  8
0-B_寸法
  6
Continuous
 62
     4
370
     5
100
AcDbPolyline
 90
        4
 70
     1
 43
20.0
 10
-17093.67364038648
 20
1835.214384317708
 42
0.4142135623731
 10
-17103.67364038648
 20
1845.214384317708
 42
0.4142135623731
 10
-17113.67364038648
 20
1835.214384317708
 42
0.4142135623731
 10
-17103.67364038648
 20
1825.214384317708
 42
0.4142135623731
  0
LINE
  5
28D
330
1F
100
AcDbEntity
  8
0-B_寸法
  6
Continuous
 62
     4
370
     5
100
AcDbLine
 10
-17103.67364038648
 20
2075.214384317708
 30
0.0
 11
-16662.01984760808
 21
2075.214384317708
 31
0.0
  0
LINE
  5
28E
330
1F
100
AcDbEntity
  8
0-B_寸法
  6
Continuous
 62
     4
370
     5
100
AcDbLine
 10
-17103.67364038648
 20
1835.214384317708
 30
0.0
 11
-16662.01984760808
 21
1835.214384317708
 31
0.0
  0
TEXT
  5
28F
330
1F
100
AcDbEntity
  8
0-B_寸法
  6
Continuous
 62
     7
370
     0
100
AcDbText
 10
-17188.92364038648
 20
1830.214384317708
 30
0.0
 40
190.5
  1
24
 50
90.0
  7
ＭＳ ゴシック
100
AcDbText
  0
LINE
  5
290
330
1F
100
AcDbEntity
  8
0-C_ハッチ
  6
JWW_DASHED1
 62
     3
370
     9
100
AcDbLine
 10
-15486.0497237569
 20
-3556.672228754293
 30
0.0
 11
-15361.04972375691
 21
-3431.672228754302
 31
0.0
  0
LINE
  5
291
330
1F
100
AcDbEntity
  8
0-C_ハッチ
  6
JWW_DASHED1
 62
     3
370
     9
100
AcDbLine
 10
-15486.04972375688
 20
-3415.250872517116
 30
0.0
 11
-15361.04972375688
 21
-3290.250872517123
 31
0.0
  0
LINE
  5
292
330
1F
100
AcDbEntity
  8
0-C_ハッチ
  6
JWW_DASHED1
 62
     3
370
     9
100
AcDbLine
 10
-15486.04972375689
 20
-3273.829516279794
 30
0.0
 11
-15361.04972375689
 21
-3148.829516279801
 31
0.0
  0
LINE
  5
293
330
1F
100
AcDbEntity
  8
0-C_ハッチ
  6
JWW_DASHED1
 62
     3
370
     9
100
AcDbLine
 10
-15486.0497237569
 20
-3132.408160042473
 30
0.0
 11
-15361.04972375691
 21
-3007.408160042481
 31
0.0
  0
LINE
  5
294
330
1F
100
AcDbEntity
  8
0-C_ハッチ
  6
JWW_DASHED1
 62
     3
370
     9
100
AcDbLine
 10
-15486.04972375688
 20
-2990.98680380512
 30
0.0
 11
-15361.04972375689
 21
-2865.986803805127
 31
0.0
  0
LINE
  5
295
330
1F
100
AcDbEntity
  8
0-C_ハッチ
  6
JWW_DASHED1
 62
     3
370
     9
100
AcDbLine
 10
-15486.04972375689
 20
-2849.565447567798
 30
0.0
 11
-15361.0497237569
 21
-2724.565447567805
 31
0.0
  0
LINE
  5
296
330
1F
100
AcDbEntity
  8
0-C_ハッチ
  6
JWW_DASHED1
 62
     3
370
     9
100
AcDbLine
 10
-15486.04972375691
 20
-2708.144091330476
 30
0.0
 11
-15361.04972375691
 21
-2583.144091330483
 31
0.0
  0
LINE
  5
297
330
1F
100
AcDbEntity
  8
0-C_ハッチ
  6
JWW_DASHED1
 62
     3
370
     9
100
AcDbLine
 10
-15486.0497237569
 20
-2566.722735093136
 30
0.0
 11
-15361.04972375691
 21
-2441.722735093143
 31
0.0
  0
LINE
  5
298
330
1F
100
AcDbEntity
  8
0-C_ハッチ
  6
JWW_DASHED1
 62
     3
370
     9
100
AcDbLine
 10
-15486.04972375692
 20
-2425.30137885601
 30
0.0
 11
-15361.04972375688
 21
-2300.301378855964
 31
0.0
  0
LINE
  5
299
330
1F
100
AcDbEntity
  8
0-C_ハッチ
  6
JWW_DASHED1
 62
     3
370
     9
100
AcDbLine
 10
-15486.04972375688
 20
-2283.880022618635
 30
0.0
 11
-15361.04972375689
 21
-2158.880022618644
 31
0.0
  0
LINE
  5
29A
330
1F
100
AcDbEntity
  8
0-3_仕上
  6
Continuous
 62
     7
370
     9
100
AcDbLine
 10
-14791.04972375691
 20
-2923.128156682292
 30
0.0
 11
-14481.04972375691
 21
-2923.128156682292
 31
0.0
  0
LINE
  5
29B
330
1F
100
AcDbEntity
  8
0-3_仕上
  6
Continuous
 62
     7
370
     9
100
AcDbLine
 10
-14791.04972375691
 20
-2683.128156682292
 30
0.0
 11
-14481.04972375691
 21
-2683.128156682292
 31
0.0
  0
LINE
  5
29C
330
1F
100
AcDbEntity
  8
0-3_仕上
  6
Continuous
 62
     7
370
     9
100
AcDbLine
 10
-14211.04972375691
 20
-2923.128156682292
 30
0.0
 11
-13901.04972375691
 21
-2923.128156682292
 31
0.0
  0
LINE
  5
29D
330
1F
100
AcDbEntity
  8
0-3_仕上
  6
Continuous
 62
     7
370
     9
100
AcDbLine
 10
-14211.04972375691
 20
-2683.128156682292
 30
0.0
 11
-13901.04972375691
 21
-2683.128156682292
 31
0.0
  0
LINE
  5
29E
330
1F
100
AcDbEntity
  8
0-3_仕上
  6
Continuous
 62
     7
370
     9
100
AcDbLine
 10
-13631.04972375691
 20
-2923.128156682292
 30
0.0
 11
-13321.04972375691
 21
-2923.128156682292
 31
0.0
  0
LINE
  5
29F
330
1F
100
AcDbEntity
  8
0-3_仕上
  6
Continuous
 62
     7
370
     9
100
AcDbLine
 10
-13631.04972375691
 20
-2683.128156682292
 30
0.0
 11
-13321.04972375691
 21
-2683.128156682292
 31
0.0
  0
LINE
  5
2A0
330
1F
100
AcDbEntity
  8
0-3_仕上
  6
Continuous
 62
     7
370
     9
100
AcDbLine
 10
-13051.04972375691
 20
-2923.128156682292
 30
0.0
 11
-12741.04972375691
 21
-2923.128156682292
 31
0.0
  0
LINE
  5
2A1
330
1F
100
AcDbEntity
  8
0-3_仕上
  6
Continuous
 62
     7
370
     9
100
AcDbLine
 10
-13051.04972375691
 20
-2683.128156682292
 30
0.0
 11
-12741.04972375691
 21
-2683.128156682292
 31
0.0
  0
LINE
  5
2A2
330
1F
100
AcDbEntity
  8
0-3_仕上
  6
Continuous
 62
     7
370
     9
100
AcDbLine
 10
-12471.04972375691
 20
-2923.128156682292
 30
0.0
 11
-12161.04972375691
 21
-2923.128156682292
 31
0.0
  0
LINE
  5
2A3
330
1F
100
AcDbEntity
  8
0-3_仕上
  6
Continuous
 62
     7
370
     9
100
AcDbLine
 10
-12471.04972375691
 20
-2683.128156682292
 30
0.0
 11
-12161.04972375691
 21
-2683.128156682292
 31
0.0
  0
LINE
  5
2A4
330
1F
100
AcDbEntity
  8
0-3_仕上
  6
Continuous
 62
     7
370
     9
100
AcDbLine
 10
-11891.04972375691
 20
-2923.128156682292
 30
0.0
 11
-11581.04972375691
 21
-2923.128156682292
 31
0.0
  0
LINE
  5
2A5
330
1F
100
AcDbEntity
  8
0-3_仕上
  6
Continuous
 62
     7
370
     9
100
AcDbLine
 10
-11891.04972375691
 20
-2683.128156682292
 30
0.0
 11
-11581.04972375691
 21
-2683.128156682292
 31
0.0
  0
LINE
  5
2A6
330
1F
100
AcDbEntity
  8
0-3_仕上
  6
Continuous
 62
     7
370
     9
100
AcDbLine
 10
-11311.04972375691
 20
-2923.128156682292
 30
0.0
 11
-11001.04972375691
 21
-2923.128156682292
 31
0.0
  0
LINE
  5
2A7
330
1F
100
AcDbEntity
  8
0-3_仕上
  6
Continuous
 62
     7
370
     9
100
AcDbLine
 10
-11311.04972375691
 20
-2683.128156682292
 30
0.0
 11
-11001.04972375691
 21
-2683.128156682292
 31
0.0
  0
LINE
  5
2A8
330
1F
100
AcDbEntity
  8
0-B_寸法
  6
Continuous
 62
     4
370
     5
100
AcDbLine
 10
-17103.67364038648
 20
-2683.128156682292
 30
0.0
 11
-17103.67364038648
 21
-2923.128156682292
 31
0.0
  0
LWPOLYLINE
  5
2A9
330
1F
100
AcDbEntity
  8
0-B_寸法
  6
Continuous
 62
     4
370
     5
100
AcDbPolyline
 90
        4
 70
     1
 43
20.0
 10
-17093.67364038648
 20
-2683.128156682292
 42
0.4142135623731
 10
-17103.67364038648
 20
-2673.128156682292
 42
0.4142135623731
 10
-17113.67364038648
 20
-2683.128156682292
 42
0.4142135623731
 10
-17103.67364038648
 20
-2693.128156682293
 42
0.4142135623731
  0
LWPOLYLINE
  5
2AA
330
1F
100
AcDbEntity
  8
0-B_寸法
  6
Continuous
 62
     4
370
     5
100
AcDbPolyline
 90
        4
 70
     1
 43
20.0
 10
-17093.67364038648
 20
-2923.128156682292
 42
0.4142135623731
 10
-17103.67364038648
 20
-2913.128156682292
 42
0.4142135623731
 10
-17113.67364038648
 20
-2923.128156682292
 42
0.4142135623731
 10
-17103.67364038648
 20
-2933.128156682292
 42
0.4142135623731
  0
LINE
  5
2AB
330
1F
100
AcDbEntity
  8
0-B_寸法
  6
Continuous
 62
     4
370
     5
100
AcDbLine
 10
-17103.67364038648
 20
-2683.128156682292
 30
0.0
 11
-16662.01984760808
 21
-2683.128156682292
 31
0.0
  0
LINE
  5
2AC
330
1F
100
AcDbEntity
  8
0-B_寸法
  6
Continuous
 62
     4
370
     5
100
AcDbLine
 10
-17103.67364038648
 20
-2923.128156682292
 30
0.0
 11
-16662.01984760808
 21
-2923.128156682292
 31
0.0
  0
TEXT
  5
2AD
330
1F
100
AcDbEntity
  8
0-B_寸法
  6
Continuous
 62
     7
370
     0
100
AcDbText
 10
-17188.92364038648
 20
-2928.128156682292
 30
0.0
 40
190.5
  1
24
 50
90.0
  7
ＭＳ ゴシック
100
AcDbText
  0
LINE
  5
2AE
330
1F
100
AcDbEntity
  8
0-B_寸法
  6
Continuous
 62
     4
370
     5
100
AcDbLine
 10
3893.470895271817
 20
500.7668709420166
 30
0.0
 11
3893.470895271817
 21
-189.2331290579834
 31
0.0
  0
LWPOLYLINE
  5
2AF
330
1F
100
AcDbEntity
  8
0-B_寸法
  6
Continuous
 62
     4
370
     5
100
AcDbPolyline
 90
        4
 70
     1
 43
20.0
 10
3903.470895271817
 20
500.7668709420166
 42
0.4142135623731
 10
3893.470895271817
 20
510.7668709420166
 42
0.4142135623731
 10
3883.470895271817
 20
500.7668709420166
 42
0.4142135623731
 10
3893.470895271817
 20
490.7668709420166
 42
0.4142135623731
  0
LWPOLYLINE
  5
2B0
330
1F
100
AcDbEntity
  8
0-B_寸法
  6
Continuous
 62
     4
370
     5
100
AcDbPolyline
 90
        4
 70
     1
 43
20.0
 10
3903.470895271817
 20
-189.2331290579834
 42
0.4142135623731
 10
3893.470895271817
 20
-179.2331290579834
 42
0.4142135623731
 10
3883.470895271817
 20
-189.2331290579834
 42
0.4142135623731
 10
3893.470895271817
 20
-199.2331290579835
 42
0.4142135623731
  0
LINE
  5
2B1
330
1F
100
AcDbEntity
  8
0-B_寸法
  6
Continuous
 62
     4
370
     5
100
AcDbLine
 10
3893.470895271817
 20
500.7668709420166
 30
0.0
 11
2708.891669973444
 21
500.7668709420167
 31
0.0
  0
LINE
  5
2B2
330
1F
100
AcDbEntity
  8
0-B_寸法
  6
Continuous
 62
     4
370
     5
100
AcDbLine
 10
3893.470895271817
 20
-189.2331290579834
 30
0.0
 11
2708.891669973444
 21
-189.2331290579834
 31
0.0
  0
TEXT
  5
2B3
330
1F
100
AcDbEntity
  8
0-B_寸法
  6
Continuous
 62
     7
370
   211
100
AcDbText
 10
3808.220895271817
 20
30.76687094201658
 30
0.0
 40
190.5
  1
69
 50
90.0
  7
ＭＳ ゴシック
100
AcDbText
  0
LINE
  5
2B4
330
1F
100
AcDbEntity
  8
0-0_補助線
  6
JWW_HOJO
 62
     3
370
     9
100
AcDbLine
 10
-15486.04972375691
 20
10010.21438431771
 30
0.0
 11
-3387.845303867402
 21
10010.21438431771
 31
0.0
  0
LINE
  5
2B5
330
1F
100
AcDbEntity
  8
0-0_補助線
  6
JWW_HOJO
 62
     3
370
     9
100
AcDbLine
 10
-15486.04972375691
 20
9980.214384317707
 30
0.0
 11
-3387.845303867402
 21
9980.214384317707
 31
0.0
  0
LINE
  5
2B6
330
1F
100
AcDbEntity
  8
0-3_仕上
  6
Continuous
 62
     7
370
     9
100
AcDbLine
 10
-14931.04972375691
 20
10010.21438431771
 30
0.0
 11
-10831.04972375691
 21
10010.21438431771
 31
0.0
  0
LINE
  5
2B7
330
1F
100
AcDbEntity
  8
0-B_寸法
  6
Continuous
 62
     4
370
     5
100
AcDbLine
 10
-8956.906077348065
 20
10160.21438431771
 30
0.0
 11
-8956.906077348065
 21
10010.21438431771
 31
0.0
  0
LWPOLYLINE
  5
2B8
330
1F
100
AcDbEntity
  8
0-B_寸法
  6
Continuous
 62
     4
370
     5
100
AcDbPolyline
 90
        4
 70
     1
 43
20.0
 10
-8946.906077348067
 20
10160.21438431771
 42
0.4142135623731
 10
-8956.906077348065
 20
10170.21438431771
 42
0.4142135623731
 10
-8966.906077348065
 20
10160.21438431771
 42
0.4142135623731
 10
-8956.906077348065
 20
10150.21438431771
 42
0.4142135623731
  0
LWPOLYLINE
  5
2B9
330
1F
100
AcDbEntity
  8
0-B_寸法
  6
Continuous
 62
     4
370
     5
100
AcDbPolyline
 90
        4
 70
     1
 43
20.0
 10
-8946.906077348067
 20
10010.21438431771
 42
0.4142135623731
 10
-8956.906077348065
 20
10020.21438431771
 42
0.4142135623731
 10
-8966.906077348065
 20
10010.21438431771
 42
0.4142135623731
 10
-8956.906077348065
 20
10000.21438431771
 42
0.4142135623731
  0
LINE
  5
2BA
330
1F
100
AcDbEntity
  8
0-B_寸法
  6
Continuous
 62
     4
370
     5
100
AcDbLine
 10
-8956.906077348065
 20
10160.21438431771
 30
0.0
 11
-10117.1270718232
 21
10160.21438431771
 31
0.0
  0
LINE
  5
2BB
330
1F
100
AcDbEntity
  8
0-B_寸法
  6
Continuous
 62
     4
370
     5
100
AcDbLine
 10
-8956.906077348065
 20
10010.21438431771
 30
0.0
 11
-10117.1270718232
 21
10010.21438431771
 31
0.0
  0
LINE
  5
2BC
330
1F
100
AcDbEntity
  8
0-B_寸法
  6
Continuous
 62
     4
370
     5
100
AcDbLine
 10
-8956.906077348067
 20
-10813.12815668229
 30
0.0
 11
-8956.906077348067
 21
-10843.12815668229
 31
0.0
  0
LWPOLYLINE
  5
2BD
330
1F
100
AcDbEntity
  8
0-B_寸法
  6
Continuous
 62
     4
370
     5
100
AcDbPolyline
 90
        4
 70
     1
 43
20.0
 10
-8946.906077348067
 20
-10843.12815668229
 42
0.4142135623731
 10
-8956.906077348067
 20
-10833.12815668229
 42
0.4142135623731
 10
-8966.906077348067
 20
-10843.12815668229
 42
0.4142135623731
 10
-8956.906077348067
 20
-10853.12815668229
 42
0.4142135623731
  0
LINE
  5
2BE
330
1F
100
AcDbEntity
  8
0-B_寸法
  6
Continuous
 62
     4
370
     5
100
AcDbLine
 10
-8956.906077348067
 20
-10843.12815668229
 30
0.0
 11
-10117.1270718232
 21
-10843.12815668229
 31
0.0
  0
TEXT
  5
2BF
330
1F
100
AcDbEntity
  8
0-B_寸法
  6
Continuous
 62
     7
370
     0
100
AcDbText
 10
-18022.38824068498
 20
-848.9568861822931
 30
0.0
 40
228.6
  1
787
 50
90.0
 41
1.111111111111111
  7
ＭＳ ゴシック
100
AcDbText
  0
LINE
  5
2C0
330
1F
100
AcDbEntity
  8
0-3_仕上
  6
Continuous
 62
     7
370
     9
100
AcDbLine
 10
-14931.04972375691
 20
10160.21438431771
 30
0.0
 11
-14931.04972375691
 21
9960.214384317707
 31
0.0
  0
LINE
  5
2C1
330
1F
100
AcDbEntity
  8
0-3_仕上
  6
Continuous
 62
     7
370
     9
100
AcDbLine
 10
-14791.04972375691
 20
9860.214384317707
 30
0.0
 11
-14491.04972375691
 21
9860.214384317707
 31
0.0
  0
LINE
  5
2C2
330
1F
100
AcDbEntity
  8
0-3_仕上
  6
Continuous
 62
     7
370
     9
100
AcDbLine
 10
-14211.04972375691
 20
9860.214384317707
 30
0.0
 11
-13911.04972375691
 21
9860.214384317707
 31
0.0
  0
LINE
  5
2C3
330
1F
100
AcDbEntity
  8
0-3_仕上
  6
Continuous
 62
     7
370
     9
100
AcDbLine
 10
-13631.04972375691
 20
9860.214384317707
 30
0.0
 11
-13331.04972375691
 21
9860.214384317707
 31
0.0
  0
LINE
  5
2C4
330
1F
100
AcDbEntity
  8
0-3_仕上
  6
Continuous
 62
     7
370
     9
100
AcDbLine
 10
-13051.04972375691
 20
9860.214384317707
 30
0.0
 11
-12751.04972375691
 21
9860.214384317707
 31
0.0
  0
LINE
  5
2C5
330
1F
100
AcDbEntity
  8
0-3_仕上
  6
Continuous
 62
     7
370
     9
100
AcDbLine
 10
-12471.04972375691
 20
9860.214384317707
 30
0.0
 11
-12171.04972375691
 21
9860.214384317707
 31
0.0
  0
LINE
  5
2C6
330
1F
100
AcDbEntity
  8
0-3_仕上
  6
Continuous
 62
     7
370
     9
100
AcDbLine
 10
-11891.04972375691
 20
9860.214384317707
 30
0.0
 11
-11591.04972375691
 21
9860.214384317707
 31
0.0
  0
LINE
  5
2C7
330
1F
100
AcDbEntity
  8
0-3_仕上
  6
Continuous
 62
     7
370
     9
100
AcDbLine
 10
-11311.04972375691
 20
9860.214384317707
 30
0.0
 11
-11011.04972375691
 21
9860.214384317707
 31
0.0
  0
LINE
  5
2C8
330
1F
100
AcDbEntity
  8
0-3_仕上
  6
Continuous
 62
     7
370
     9
100
AcDbLine
 10
-15061.04972375691
 20
9960.214384317707
 30
0.0
 11
-14791.04972375691
 21
9960.214384317707
 31
0.0
  0
LINE
  5
2C9
330
1F
100
AcDbEntity
  8
0-3_仕上
  6
Continuous
 62
     7
370
     9
100
AcDbLine
 10
-14481.04972375691
 20
9960.214384317707
 30
0.0
 11
-14211.04972375691
 21
9960.214384317707
 31
0.0
  0
LINE
  5
2CA
330
1F
100
AcDbEntity
  8
0-3_仕上
  6
Continuous
 62
     7
370
     9
100
AcDbLine
 10
-13901.04972375691
 20
9960.214384317707
 30
0.0
 11
-13631.04972375691
 21
9960.214384317707
 31
0.0
  0
LINE
  5
2CB
330
1F
100
AcDbEntity
  8
0-3_仕上
  6
Continuous
 62
     7
370
     9
100
AcDbLine
 10
-13321.04972375691
 20
9960.214384317707
 30
0.0
 11
-13051.04972375691
 21
9960.214384317707
 31
0.0
  0
LINE
  5
2CC
330
1F
100
AcDbEntity
  8
0-3_仕上
  6
Continuous
 62
     7
370
     9
100
AcDbLine
 10
-12741.04972375691
 20
9960.214384317707
 30
0.0
 11
-12471.04972375691
 21
9960.214384317707
 31
0.0
  0
LINE
  5
2CD
330
1F
100
AcDbEntity
  8
0-3_仕上
  6
Continuous
 62
     7
370
     9
100
AcDbLine
 10
-12161.04972375691
 20
9960.214384317707
 30
0.0
 11
-11891.04972375691
 21
9960.214384317707
 31
0.0
  0
LINE
  5
2CE
330
1F
100
AcDbEntity
  8
0-3_仕上
  6
Continuous
 62
     7
370
     9
100
AcDbLine
 10
-11581.04972375691
 20
9960.214384317707
 30
0.0
 11
-11311.04972375691
 21
9960.214384317707
 31
0.0
  0
LINE
  5
2CF
330
1F
100
AcDbEntity
  8
0-3_仕上
  6
Continuous
 62
     7
370
     9
100
AcDbLine
 10
-11001.04972375691
 20
9960.214384317707
 30
0.0
 11
-10731.04972375691
 21
9960.214384317707
 31
0.0
  0
LINE
  5
2D0
330
1F
100
AcDbEntity
  8
0-3_仕上
  6
Continuous
 62
     7
370
     9
100
AcDbLine
 10
-10731.04972375691
 20
9960.214384317707
 30
0.0
 11
-10731.04972375691
 21
-86.98142054026957
 31
0.0
  0
LINE
  5
2D1
330
1F
100
AcDbEntity
  8
0-3_仕上
  6
Continuous
 62
     7
370
     9
100
AcDbLine
 10
-11001.04972375691
 20
9960.214384317707
 30
0.0
 11
-11001.04972375691
 21
-86.98142054026957
 31
0.0
  0
LINE
  5
2D2
330
1F
100
AcDbEntity
  8
0-3_仕上
  6
Continuous
 62
     7
370
     9
100
AcDbLine
 10
-11311.04972375691
 20
9960.214384317707
 30
0.0
 11
-11311.04972375691
 21
-86.98142054026957
 31
0.0
  0
LINE
  5
2D3
330
1F
100
AcDbEntity
  8
0-3_仕上
  6
Continuous
 62
     7
370
     9
100
AcDbLine
 10
-11581.04972375691
 20
9960.214384317707
 30
0.0
 11
-11581.04972375691
 21
-86.98142054026957
 31
0.0
  0
LINE
  5
2D4
330
1F
100
AcDbEntity
  8
0-3_仕上
  6
Continuous
 62
     7
370
     9
100
AcDbLine
 10
-11891.04972375691
 20
9960.214384317707
 30
0.0
 11
-11891.04972375691
 21
-86.98142054026957
 31
0.0
  0
LINE
  5
2D5
330
1F
100
AcDbEntity
  8
0-3_仕上
  6
Continuous
 62
     7
370
     9
100
AcDbLine
 10
-12161.04972375691
 20
9960.214384317707
 30
0.0
 11
-12161.04972375691
 21
-86.98142054026957
 31
0.0
  0
LINE
  5
2D6
330
1F
100
AcDbEntity
  8
0-3_仕上
  6
Continuous
 62
     7
370
     9
100
AcDbLine
 10
-12471.04972375691
 20
9960.214384317707
 30
0.0
 11
-12471.04972375691
 21
-86.98142054026957
 31
0.0
  0
LINE
  5
2D7
330
1F
100
AcDbEntity
  8
0-3_仕上
  6
Continuous
 62
     7
370
     9
100
AcDbLine
 10
-12741.04972375691
 20
9960.214384317707
 30
0.0
 11
-12741.04972375691
 21
-86.98142054026957
 31
0.0
  0
LINE
  5
2D8
330
1F
100
AcDbEntity
  8
0-3_仕上
  6
Continuous
 62
     7
370
     9
100
AcDbLine
 10
-13051.04972375691
 20
9960.214384317707
 30
0.0
 11
-13051.04972375691
 21
-86.98142054026957
 31
0.0
  0
LINE
  5
2D9
330
1F
100
AcDbEntity
  8
0-3_仕上
  6
Continuous
 62
     7
370
     9
100
AcDbLine
 10
-13321.04972375691
 20
9960.214384317707
 30
0.0
 11
-13321.04972375691
 21
-86.98142054026957
 31
0.0
  0
LINE
  5
2DA
330
1F
100
AcDbEntity
  8
0-3_仕上
  6
Continuous
 62
     7
370
     9
100
AcDbLine
 10
-13631.04972375691
 20
9960.214384317707
 30
0.0
 11
-13631.04972375691
 21
-86.98142054026957
 31
0.0
  0
LINE
  5
2DB
330
1F
100
AcDbEntity
  8
0-3_仕上
  6
Continuous
 62
     7
370
     9
100
AcDbLine
 10
-13901.04972375691
 20
9960.214384317707
 30
0.0
 11
-13901.04972375691
 21
-86.98142054026957
 31
0.0
  0
LINE
  5
2DC
330
1F
100
AcDbEntity
  8
0-3_仕上
  6
Continuous
 62
     7
370
     9
100
AcDbLine
 10
-14211.04972375691
 20
9960.214384317707
 30
0.0
 11
-14211.04972375691
 21
-86.98142054026957
 31
0.0
  0
LINE
  5
2DD
330
1F
100
AcDbEntity
  8
0-3_仕上
  6
Continuous
 62
     7
370
     9
100
AcDbLine
 10
-14481.04972375691
 20
9960.214384317707
 30
0.0
 11
-14481.04972375691
 21
-86.98142054026957
 31
0.0
  0
LINE
  5
2DE
330
1F
100
AcDbEntity
  8
0-3_仕上
  6
Continuous
 62
     7
370
     9
100
AcDbLine
 10
-14791.04972375691
 20
9960.214384317707
 30
0.0
 11
-14791.04972375691
 21
-86.98142054026957
 31
0.0
  0
LINE
  5
2DF
330
1F
100
AcDbEntity
  8
0-2_柱
  6
Continuous
 62
     7
370
     9
100
AcDbLine
 10
-15061.04972375691
 20
9960.214384317707
 30
0.0
 11
-15061.04972375691
 21
-86.98142054026957
 31
0.0
  0
LINE
  5
2E0
330
1F
100
AcDbEntity
  8
0-B_寸法
  6
Continuous
 62
     3
370
     9
100
AcDbLine
 10
-8956.906077348065
 20
10065.21438431771
 30
0.0
 11
-8956.906077348065
 21
9960.214384317707
 31
0.0
  0
LWPOLYLINE
  5
2E1
330
1F
100
AcDbEntity
  8
0-B_寸法
  6
Continuous
 62
     3
370
     9
100
AcDbPolyline
 90
        4
 70
     1
 43
20.0
 10
-8946.906077348067
 20
9960.214384317707
 42
0.4142135623731
 10
-8956.906077348065
 20
9970.214384317707
 42
0.4142135623731
 10
-8966.906077348065
 20
9960.214384317707
 42
0.4142135623731
 10
-8956.906077348065
 20
9950.214384317707
 42
0.4142135623731
  0
LINE
  5
2E2
330
1F
100
AcDbEntity
  8
0-B_寸法
  6
Continuous
 62
     3
370
     9
100
AcDbLine
 10
-8956.906077348065
 20
9960.214384317707
 30
0.0
 11
-10117.1270718232
 21
9960.214384317707
 31
0.0
  0
LINE
  5
2E3
330
1F
100
AcDbEntity
  8
0-3_仕上
  6
Continuous
 62
     7
370
     9
100
AcDbLine
 10
-10831.04972375691
 20
10160.21438431771
 30
0.0
 11
-10831.04972375691
 21
9960.214384317707
 31
0.0
  0
LINE
  5
2E4
330
1F
100
AcDbEntity
  8
0-B_寸法
  6
Continuous
 62
     4
370
     5
100
AcDbLine
 10
-8956.906077348065
 20
10010.21438431771
 30
0.0
 11
-8956.906077348065
 21
9960.214384317707
 31
0.0
  0
LWPOLYLINE
  5
2E5
330
1F
100
AcDbEntity
  8
0-B_寸法
  6
Continuous
 62
     4
370
     5
100
AcDbPolyline
 90
        4
 70
     1
 43
20.0
 10
-8946.906077348067
 20
9960.214384317707
 42
0.4142135623731
 10
-8956.906077348065
 20
9970.214384317707
 42
0.4142135623731
 10
-8966.906077348065
 20
9960.214384317707
 42
0.4142135623731
 10
-8956.906077348065
 20
9950.214384317707
 42
0.4142135623731
  0
LINE
  5
2E6
330
1F
100
AcDbEntity
  8
0-B_寸法
  6
Continuous
 62
     4
370
     5
100
AcDbLine
 10
-8956.906077348065
 20
9960.214384317707
 30
0.0
 11
-10117.1270718232
 21
9960.214384317707
 31
0.0
  0
LINE
  5
2E7
330
1F
100
AcDbEntity
  8
0-A_文字
  6
JWW_CENTER1
 62
     3
370
     9
100
AcDbLine
 10
13077.80242934741
 20
11352.71379113307
 30
0.0
 11
13077.80242934741
 21
-11341.20886080063
 31
0.0
  0
LINE
  5
2E8
330
1F
100
AcDbEntity
  8
0-A_文字
  6
Continuous
 62
     7
370
     9
100
AcDbLine
 10
11701.80914213295
 20
-10273.80554588351
 30
0.0
 11
14453.79571656186
 21
-10273.80554588351
 31
0.0
  0
LINE
  5
2E9
330
1F
100
AcDbEntity
  8
0-A_文字
  6
Continuous
 62
     7
370
     9
100
AcDbLine
 10
13347.80242934741
 20
-10173.80554588351
 30
0.0
 11
14453.79571656186
 21
-10173.80554588351
 31
0.0
  0
LINE
  5
2EA
330
1F
100
AcDbEntity
  8
0-A_文字
  6
Continuous
 62
     7
370
     9
100
AcDbLine
 10
13347.80242934741
 20
-10193.80554588351
 30
0.0
 11
14453.79571656186
 21
-10193.80554588351
 31
0.0
  0
LINE
  5
2EB
330
1F
100
AcDbEntity
  8
0-A_文字
  6
Continuous
 62
     7
370
     9
100
AcDbLine
 10
13347.80242934741
 20
-10213.80554588351
 30
0.0
 11
14453.79571656186
 21
-10213.80554588351
 31
0.0
  0
LINE
  5
2EC
330
1F
100
AcDbEntity
  8
0-A_文字
  6
Continuous
 62
     7
370
     9
100
AcDbLine
 10
13347.80242934741
 20
-10233.80554588351
 30
0.0
 11
14453.79571656186
 21
-10233.80554588351
 31
0.0
  0
LINE
  5
2ED
330
1F
100
AcDbEntity
  8
0-A_文字
  6
Continuous
 62
     7
370
     9
100
AcDbLine
 10
13347.80242934741
 20
-10253.80554588351
 30
0.0
 11
14453.79571656186
 21
-10253.80554588351
 31
0.0
  0
LWPOLYLINE
  5
2EE
330
1F
100
AcDbEntity
  8
0-A_文字
  6
Continuous
 62
     7
370
     9
100
AcDbPolyline
 90
        4
 70
     1
 43
20.0
 10
15256.73615915394
 20
-10153.80554588351
 42
0.4142135623731
 10
15246.73615915394
 20
-10143.80554588351
 42
0.4142135623731
 10
15236.73615915394
 20
-10153.80554588351
 42
0.4142135623731
 10
15246.73615915394
 20
-10163.80554588351
 42
0.4142135623731
  0
LINE
  5
2EF
330
1F
100
AcDbEntity
  8
0-A_文字
  6
Continuous
 62
     7
370
     9
100
AcDbLine
 10
15246.73615915394
 20
-10153.80554588351
 30
0.0
 11
14964.33406974969
 21
-10153.80554588351
 31
0.0
  0
LINE
  5
2F0
330
1F
100
AcDbEntity
  8
0-A_文字
  6
Continuous
 62
     7
370
     9
100
AcDbLine
 10
15246.73615915394
 20
-10153.80554588351
 30
0.0
 11
15246.73615915394
 21
-10273.80554588351
 31
0.0
  0
LWPOLYLINE
  5
2F1
330
1F
100
AcDbEntity
  8
0-A_文字
  6
Continuous
 62
     7
370
     9
100
AcDbPolyline
 90
        4
 70
     1
 43
20.0
 10
15256.73615915394
 20
-10273.80554588351
 42
0.4142135623731
 10
15246.73615915394
 20
-10263.80554588351
 42
0.4142135623731
 10
15236.73615915394
 20
-10273.80554588351
 42
0.4142135623731
 10
15246.73615915394
 20
-10283.80554588351
 42
0.4142135623731
  0
LINE
  5
2F2
330
1F
100
AcDbEntity
  8
0-A_文字
  6
Continuous
 62
     7
370
     9
100
AcDbLine
 10
15246.73615915394
 20
-10273.80554588351
 30
0.0
 11
14964.33406974969
 21
-10273.80554588351
 31
0.0
  0
LINE
  5
2F3
330
1F
100
AcDbEntity
  8
0-A_文字
  6
JWW_HOJO
 62
     7
370
     9
100
AcDbLine
 10
12201.12608942217
 20
10629.53699511649
 30
0.0
 11
15243.57840731158
 21
10629.53699511649
 31
0.0
  0
LINE
  5
2F4
330
1F
100
AcDbEntity
  8
0-A_文字
  6
Continuous
 62
     7
370
     9
100
AcDbLine
 10
12552.80242934741
 20
11029.53699511649
 30
0.0
 11
12552.80242934741
 21
10729.53699511649
 31
0.0
  0
LINE
  5
2F5
330
1F
100
AcDbEntity
  8
0-A_文字
  6
Continuous
 62
     7
370
     9
100
AcDbLine
 10
12552.80242934741
 20
11029.53699511649
 30
0.0
 11
13602.80242934741
 21
11029.53699511649
 31
0.0
  0
LINE
  5
2F6
330
1F
100
AcDbEntity
  8
0-A_文字
  6
Continuous
 62
     7
370
     9
100
AcDbLine
 10
13602.80242934741
 20
11029.53699511649
 30
0.0
 11
13602.80242934741
 21
10729.53699511649
 31
0.0
  0
LINE
  5
2F7
330
1F
100
AcDbEntity
  8
0-A_文字
  6
Continuous
 62
     7
370
     9
100
AcDbLine
 10
13217.80242934741
 20
10729.53699511649
 30
0.0
 11
13477.80242934741
 21
10729.53699511649
 31
0.0
  0
LINE
  5
2F8
330
1F
100
AcDbEntity
  8
0-A_文字
  6
Continuous
 62
     7
370
     9
100
AcDbLine
 10
12937.80242934741
 20
10729.53699511649
 30
0.0
 11
12677.80242934741
 21
10729.53699511649
 31
0.0
  0
LINE
  5
2F9
330
1F
100
AcDbEntity
  8
0-A_文字
  6
JWW_HOJO
 62
     7
370
     9
100
AcDbLine
 10
11701.80914213295
 20
10729.53699511649
 30
0.0
 11
15243.57840731158
 21
10729.53699511649
 31
0.0
  0
LINE
  5
2FA
330
1F
100
AcDbEntity
  8
0-A_文字
  6
Continuous
 62
     7
370
     9
100
AcDbLine
 10
11357.69238875451
 20
10729.53699511649
 30
0.0
 11
12677.80242934741
 21
10729.53699511649
 31
0.0
  0
LINE
  5
2FB
330
1F
100
AcDbEntity
  8
0-A_文字
  6
Continuous
 62
     7
370
     9
100
AcDbLine
 10
13477.80242934741
 20
10729.53699511649
 30
0.0
 11
14453.79571656186
 21
10729.53699511649
 31
0.0
  0
LINE
  5
2FC
330
1F
100
AcDbEntity
  8
0-A_文字
  6
JWW_DASHED1
 62
     7
370
     9
100
AcDbLine
 10
14396.76715710139
 20
10604.53699511649
 30
0.0
 11
14453.79571656186
 21
10661.56555457696
 31
0.0
  0
LINE
  5
2FD
330
1F
100
AcDbEntity
  8
0-A_文字
  6
JWW_DASHED1
 62
     7
370
     9
100
AcDbLine
 10
14326.05647898282
 20
10604.5369951165
 30
0.0
 11
14451.05647898281
 21
10729.53699511649
 31
0.0
  0
LINE
  5
2FE
330
1F
100
AcDbEntity
  8
0-A_文字
  6
JWW_DASHED1
 62
     7
370
     9
100
AcDbLine
 10
14255.34580086414
 20
10604.53699511648
 30
0.0
 11
14380.34580086413
 21
10729.53699511648
 31
0.0
  0
LINE
  5
2FF
330
1F
100
AcDbEntity
  8
0-A_文字
  6
JWW_DASHED1
 62
     7
370
     9
100
AcDbLine
 10
14184.63512274547
 20
10604.53699511648
 30
0.0
 11
14309.63512274547
 21
10729.53699511648
 31
0.0
  0
LINE
  5
300
330
1F
100
AcDbEntity
  8
0-A_文字
  6
JWW_DASHED1
 62
     7
370
     9
100
AcDbLine
 10
14113.92444462681
 20
10604.53699511649
 30
0.0
 11
14238.92444462681
 21
10729.53699511648
 31
0.0
  0
LINE
  5
301
330
1F
100
AcDbEntity
  8
0-A_文字
  6
JWW_DASHED1
 62
     7
370
     9
100
AcDbLine
 10
14043.21376650815
 20
10604.5369951165
 30
0.0
 11
14168.21376650815
 21
10729.53699511649
 31
0.0
  0
LINE
  5
302
330
1F
100
AcDbEntity
  8
0-A_文字
  6
JWW_DASHED1
 62
     7
370
     9
100
AcDbLine
 10
13972.50308838949
 20
10604.5369951165
 30
0.0
 11
14097.50308838948
 21
10729.53699511649
 31
0.0
  0
LINE
  5
303
330
1F
100
AcDbEntity
  8
0-A_文字
  6
JWW_DASHED1
 62
     7
370
     9
100
AcDbLine
 10
13901.7924102708
 20
10604.53699511648
 30
0.0
 11
14026.79241027082
 21
10729.5369951165
 31
0.0
  0
LINE
  5
304
330
1F
100
AcDbEntity
  8
0-A_文字
  6
JWW_DASHED1
 62
     7
370
     9
100
AcDbLine
 10
13831.08173215224
 20
10604.53699511649
 30
0.0
 11
13956.08173215226
 21
10729.53699511651
 31
0.0
  0
LINE
  5
305
330
1F
100
AcDbEntity
  8
0-A_文字
  6
JWW_DASHED1
 62
     7
370
     9
100
AcDbLine
 10
13760.37105403358
 20
10604.5369951165
 30
0.0
 11
13885.37105403357
 21
10729.53699511649
 31
0.0
  0
LINE
  5
306
330
1F
100
AcDbEntity
  8
0-A_文字
  6
JWW_DASHED1
 62
     7
370
     9
100
AcDbLine
 10
13689.66037591489
 20
10604.53699511648
 30
0.0
 11
13814.66037591488
 21
10729.53699511647
 31
0.0
  0
LINE
  5
307
330
1F
100
AcDbEntity
  8
0-A_文字
  6
JWW_DASHED1
 62
     7
370
     9
100
AcDbLine
 10
13618.94969779623
 20
10604.53699511648
 30
0.0
 11
13743.94969779622
 21
10729.53699511648
 31
0.0
  0
LINE
  5
308
330
1F
100
AcDbEntity
  8
0-A_文字
  6
JWW_DASHED1
 62
     7
370
     9
100
AcDbLine
 10
13548.23901967757
 20
10604.53699511649
 30
0.0
 11
13673.23901967756
 21
10729.53699511648
 31
0.0
  0
LINE
  5
309
330
1F
100
AcDbEntity
  8
0-A_文字
  6
JWW_DASHED1
 62
     7
370
     9
100
AcDbLine
 10
13477.80242934741
 20
10604.81108290499
 30
0.0
 11
13602.5283415589
 21
10729.53699511648
 31
0.0
  0
LINE
  5
30A
330
1F
100
AcDbEntity
  8
0-A_文字
  6
JWW_DASHED1
 62
     7
370
     9
100
AcDbLine
 10
12558.28952601643
 20
10604.5369951165
 30
0.0
 11
12677.80242934741
 21
10724.04989844748
 31
0.0
  0
LINE
  5
30B
330
1F
100
AcDbEntity
  8
0-A_文字
  6
JWW_DASHED1
 62
     7
370
     9
100
AcDbLine
 10
12487.57884789776
 20
10604.5369951165
 30
0.0
 11
12612.57884789776
 21
10729.5369951165
 31
0.0
  0
LINE
  5
30C
330
1F
100
AcDbEntity
  8
0-A_文字
  6
JWW_DASHED1
 62
     7
370
     9
100
AcDbLine
 10
12416.86816977907
 20
10604.53699511648
 30
0.0
 11
12541.86816977907
 21
10729.53699511648
 31
0.0
  0
LINE
  5
30D
330
1F
100
AcDbEntity
  8
0-A_文字
  6
JWW_DASHED1
 62
     7
370
     9
100
AcDbLine
 10
12346.15749166041
 20
10604.53699511649
 30
0.0
 11
12471.15749166041
 21
10729.53699511648
 31
0.0
  0
LINE
  5
30E
330
1F
100
AcDbEntity
  8
0-A_文字
  6
JWW_DASHED1
 62
     7
370
     9
100
AcDbLine
 10
12275.44681354173
 20
10604.53699511647
 30
0.0
 11
12400.44681354174
 21
10729.53699511648
 31
0.0
  0
LINE
  5
30F
330
1F
100
AcDbEntity
  8
0-A_文字
  6
JWW_DASHED1
 62
     7
370
     9
100
AcDbLine
 10
12204.73613542316
 20
10604.53699511648
 30
0.0
 11
12329.73613542318
 21
10729.5369951165
 31
0.0
  0
LINE
  5
310
330
1F
100
AcDbEntity
  8
0-A_文字
  6
JWW_DASHED1
 62
     7
370
     9
100
AcDbLine
 10
12134.0254573045
 20
10604.53699511648
 30
0.0
 11
12259.0254573045
 21
10729.53699511648
 31
0.0
  0
LINE
  5
311
330
1F
100
AcDbEntity
  8
0-A_文字
  6
JWW_DASHED1
 62
     7
370
     9
100
AcDbLine
 10
12063.31477918584
 20
10604.53699511649
 30
0.0
 11
12188.31477918584
 21
10729.53699511648
 31
0.0
  0
LINE
  5
312
330
1F
100
AcDbEntity
  8
0-A_文字
  6
JWW_DASHED1
 62
     7
370
     9
100
AcDbLine
 10
11992.60410106718
 20
10604.53699511649
 30
0.0
 11
12117.60410106717
 21
10729.53699511649
 31
0.0
  0
LINE
  5
313
330
1F
100
AcDbEntity
  8
0-A_文字
  6
JWW_DASHED1
 62
     7
370
     9
100
AcDbLine
 10
11921.89342294851
 20
10604.53699511649
 30
0.0
 11
12046.8934229485
 21
10729.53699511648
 31
0.0
  0
LINE
  5
314
330
1F
100
AcDbEntity
  8
0-A_文字
  6
JWW_DASHED1
 62
     7
370
     9
100
AcDbLine
 10
11851.18274482983
 20
10604.53699511648
 30
0.0
 11
11976.18274482982
 21
10729.53699511647
 31
0.0
  0
LINE
  5
315
330
1F
100
AcDbEntity
  8
0-A_文字
  6
JWW_DASHED1
 62
     7
370
     9
100
AcDbLine
 10
11780.47206671117
 20
10604.53699511648
 30
0.0
 11
11905.47206671116
 21
10729.53699511648
 31
0.0
  0
LINE
  5
316
330
1F
100
AcDbEntity
  8
0-A_文字
  6
JWW_DASHED1
 62
     7
370
     9
100
AcDbLine
 10
11709.76138859248
 20
10604.53699511646
 30
0.0
 11
11834.7613885925
 21
10729.53699511648
 31
0.0
  0
LINE
  5
317
330
1F
100
AcDbEntity
  8
0-A_文字
  6
JWW_DASHED1
 62
     7
370
     9
100
AcDbLine
 10
11701.80914213297
 20
10667.29542677553
 30
0.0
 11
11764.05071047391
 21
10729.53699511647
 31
0.0
  0
LINE
  5
318
330
1F
100
AcDbEntity
  8
0-A_文字
  6
Continuous
 62
     7
370
     9
100
AcDbLine
 10
13602.80242934741
 20
11029.53699511649
 30
0.0
 11
12552.80242934741
 21
10729.53699511649
 31
0.0
  0
LINE
  5
319
330
1F
100
AcDbEntity
  8
0-A_文字
  6
Continuous
 62
     7
370
     9
100
AcDbLine
 10
13377.80242934741
 20
10604.53699511649
 30
0.0
 11
14453.79571656186
 21
10604.53699511649
 31
0.0
  0
LINE
  5
31A
330
1F
100
AcDbEntity
  8
0-A_文字
  6
JWW_DASHED1
 62
     7
370
     9
100
AcDbLine
 10
13406.81766344024
 20
10604.53699511649
 30
0.0
 11
13531.81766344024
 21
10729.53699511649
 31
0.0
  0
LINE
  5
31B
330
1F
100
AcDbEntity
  8
0-A_文字
  6
JWW_DASHED1
 62
     7
370
     9
100
AcDbLine
 10
12629.00020413509
 20
10604.53699511649
 30
0.0
 11
12754.00020413509
 21
10729.53699511649
 31
0.0
  0
LINE
  5
31C
330
1F
100
AcDbEntity
  8
0-A_文字
  6
JWW_DASHED1
 62
     7
370
     9
100
AcDbLine
 10
12705.19797891755
 20
10604.53699511649
 30
0.0
 11
12777.80242934741
 21
10677.14144554636
 31
0.0
  0
LINE
  5
31D
330
1F
100
AcDbEntity
  8
0-A_文字
  6
JWW_DASHED1
 62
     7
370
     9
100
AcDbLine
 10
13377.80242934741
 20
10651.71953580612
 30
0.0
 11
13455.61988865778
 21
10729.53699511649
 31
0.0
  0
LINE
  5
31E
330
1F
100
AcDbEntity
  8
0-A_文字
  6
Continuous
 62
     7
370
     9
100
AcDbLine
 10
15246.73615915394
 20
10729.53699511649
 30
0.0
 11
15246.73615915394
 21
10604.53699511649
 31
0.0
  0
LWPOLYLINE
  5
31F
330
1F
100
AcDbEntity
  8
0-A_文字
  6
Continuous
 62
     7
370
     9
100
AcDbPolyline
 90
        4
 70
     1
 43
20.0
 10
15256.73615915394
 20
10729.53699511649
 42
0.4142135623731
 10
15246.73615915394
 20
10739.53699511649
 42
0.4142135623731
 10
15236.73615915394
 20
10729.53699511649
 42
0.4142135623731
 10
15246.73615915394
 20
10719.5369951165
 42
0.4142135623731
  0
LWPOLYLINE
  5
320
330
1F
100
AcDbEntity
  8
0-A_文字
  6
Continuous
 62
     7
370
     9
100
AcDbPolyline
 90
        4
 70
     1
 43
20.0
 10
15256.73615915394
 20
10604.53699511649
 42
0.4142135623731
 10
15246.73615915394
 20
10614.53699511649
 42
0.4142135623731
 10
15236.73615915394
 20
10604.53699511649
 42
0.4142135623731
 10
15246.73615915394
 20
10594.5369951165
 42
0.4142135623731
  0
LINE
  5
321
330
1F
100
AcDbEntity
  8
0-A_文字
  6
Continuous
 62
     7
370
     9
100
AcDbLine
 10
15246.73615915394
 20
10729.53699511649
 30
0.0
 11
14964.33406974969
 21
10729.53699511649
 31
0.0
  0
LINE
  5
322
330
1F
100
AcDbEntity
  8
0-A_文字
  6
Continuous
 62
     7
370
     9
100
AcDbLine
 10
15246.73615915394
 20
10604.53699511649
 30
0.0
 11
14964.33406974969
 21
10604.53699511649
 31
0.0
  0
LINE
  5
323
330
1F
100
AcDbEntity
  8
0-A_文字
  6
JWW_CENTER1
 62
     7
370
     9
100
AcDbLine
 10
12791.70399468607
 20
2527.653849083467
 30
0.0
 11
13353.33785240359
 21
2527.653849083467
 31
0.0
  0
LWPOLYLINE
  5
324
330
1F
100
AcDbEntity
  8
0-A_文字
  6
Continuous
 62
     7
370
     9
100
AcDbPolyline
 90
        4
 70
     1
 43
20.0
 10
16049.65921240941
 20
-10153.80554588351
 42
0.4142135623731
 10
16039.65921240941
 20
-10143.80554588351
 42
0.4142135623731
 10
16029.65921240942
 20
-10153.80554588351
 42
0.4142135623731
 10
16039.65921240941
 20
-10163.80554588351
 42
0.4142135623731
  0
LINE
  5
325
330
1F
100
AcDbEntity
  8
0-A_文字
  6
Continuous
 62
     7
370
     9
100
AcDbLine
 10
16039.65921240941
 20
-10153.80554588351
 30
0.0
 11
15246.73615915394
 21
-10153.80554588351
 31
0.0
  0
LINE
  5
326
330
1F
100
AcDbEntity
  8
0-A_文字
  6
Continuous
 62
     7
370
     9
100
AcDbLine
 10
16039.65921240941
 20
-10153.80554588351
 30
0.0
 11
16039.65921240941
 21
10604.53699511649
 31
0.0
  0
LWPOLYLINE
  5
327
330
1F
100
AcDbEntity
  8
0-A_文字
  6
Continuous
 62
     7
370
     9
100
AcDbPolyline
 90
        4
 70
     1
 43
20.0
 10
16049.65921240941
 20
10604.53699511649
 42
0.4142135623731
 10
16039.65921240941
 20
10614.53699511649
 42
0.4142135623731
 10
16029.65921240942
 20
10604.53699511649
 42
0.4142135623731
 10
16039.65921240941
 20
10594.5369951165
 42
0.4142135623731
  0
LINE
  5
328
330
1F
100
AcDbEntity
  8
0-A_文字
  6
Continuous
 62
     7
370
     9
100
AcDbLine
 10
16039.65921240941
 20
10604.53699511649
 30
0.0
 11
15246.73615915394
 21
10604.53699511649
 31
0.0
  0
TEXT
  5
329
330
1F
100
AcDbEntity
  8
0-A_文字
  6
Continuous
 62
     7
370
     0
100
AcDbText
 10
12827.80242934742
 20
12204.58777433131
 30
0.0
 40
228.6
  1
105
 41
1.111111111111061
  7
ＭＳ ゴシック
100
AcDbText
  0
LINE
  5
32A
330
1F
100
AcDbEntity
  8
0-A_文字
  6
Continuous
 62
     7
370
     9
100
AcDbLine
 10
12552.80242934741
 20
12212.28777433131
 30
0.0
 11
13602.80242934741
 21
12212.28777433131
 31
0.0
  0
LWPOLYLINE
  5
32B
330
1F
100
AcDbEntity
  8
0-A_文字
  6
Continuous
 62
     7
370
     9
100
AcDbPolyline
 90
        4
 70
     1
 43
20.0
 10
12562.80242934741
 20
12212.28777433131
 42
0.4142135623731
 10
12552.80242934741
 20
12222.28777433131
 42
0.4142135623731
 10
12542.80242934741
 20
12212.28777433131
 42
0.4142135623731
 10
12552.80242934741
 20
12202.28777433131
 42
0.4142135623731
  0
LWPOLYLINE
  5
32C
330
1F
100
AcDbEntity
  8
0-A_文字
  6
Continuous
 62
     7
370
     9
100
AcDbPolyline
 90
        4
 70
     1
 43
20.0
 10
13612.80242934741
 20
12212.28777433131
 42
0.4142135623731
 10
13602.80242934741
 20
12222.28777433131
 42
0.4142135623731
 10
13592.80242934741
 20
12212.28777433131
 42
0.4142135623731
 10
13602.80242934741
 20
12202.28777433131
 42
0.4142135623731
  0
LINE
  5
32D
330
1F
100
AcDbEntity
  8
0-A_文字
  6
Continuous
 62
     7
370
     9
100
AcDbLine
 10
12552.80242934741
 20
12212.28777433131
 30
0.0
 11
12552.80242934741
 21
11587.39643394261
 31
0.0
  0
LINE
  5
32E
330
1F
100
AcDbEntity
  8
0-A_文字
  6
Continuous
 62
     7
370
     9
100
AcDbLine
 10
13602.80242934741
 20
12212.28777433131
 30
0.0
 11
13602.80242934741
 21
11587.39643394261
 31
0.0
  0
TEXT
  5
32F
330
1F
100
AcDbEntity
  8
0-A_文字
  6
Continuous
 62
     7
370
     0
100
AcDbText
 10
15560.27528159008
 20
10613.94045269871
 30
0.0
 40
228.6
  1
12.5（PB）
 50
90.0
 41
1.133333333333333
  7
ＭＳ ゴシック
100
AcDbText
  0
TEXT
  5
330
330
1F
100
AcDbEntity
  8
0-A_文字
  6
Continuous
 62
     7
370
     0
100
AcDbText
 10
15958.37954699293
 20
-145.9453842785877
 30
0.0
 40
228.6
  1
CH＝2,400
 50
90.0
 41
1.148148148148147
  7
ＭＳ ゴシック
100
AcDbText
  0
LINE
  5
331
330
1F
100
AcDbEntity
  8
0-A_文字
  6
Continuous
 62
     7
370
     9
100
AcDbLine
 10
12552.8024293474
 20
-11603.80554588351
 30
0.0
 11
13602.80242934741
 21
-11603.80554588351
 31
0.0
  0
LINE
  5
332
330
1F
100
AcDbEntity
  8
0-A_文字
  6
Continuous
 62
     7
370
     9
100
AcDbLine
 10
13602.80242934741
 20
-10553.80554588351
 30
0.0
 11
12552.8024293474
 21
-11603.80554588351
 31
0.0
  0
LINE
  5
333
330
1F
100
AcDbEntity
  8
0-A_文字
  6
Continuous
 62
     7
370
     9
100
AcDbLine
 10
12552.8024293474
 20
-10553.80554588351
 30
0.0
 11
13602.80242934741
 21
-11603.80554588351
 31
0.0
  0
LINE
  5
334
330
1F
100
AcDbEntity
  8
0-A_文字
  6
Continuous
 62
     7
370
     9
100
AcDbLine
 10
13602.80242934741
 20
-10553.80554588351
 30
0.0
 11
13602.80242934741
 21
-11603.80554588351
 31
0.0
  0
LINE
  5
335
330
1F
100
AcDbEntity
  8
0-A_文字
  6
Continuous
 62
     7
370
     9
100
AcDbLine
 10
12552.8024293474
 20
-10553.80554588351
 30
0.0
 11
12552.8024293474
 21
-11603.80554588351
 31
0.0
  0
LINE
  5
336
330
1F
100
AcDbEntity
  8
0-A_文字
  6
JWW_CENTER1
 62
     3
370
     9
100
AcDbLine
 10
8841.709082732988
 20
-10273.80554588351
 30
0.0
 11
17579.45988791094
 21
-10273.80554588351
 31
0.0
  0
LINE
  5
337
330
1F
100
AcDbEntity
  8
0-A_文字
  6
Continuous
 62
     7
370
     9
100
AcDbLine
 10
8934.526762291
 20
-10553.80554588351
 30
0.0
 11
17579.45988791094
 21
-10553.80554588351
 31
0.0
  0
LWPOLYLINE
  5
338
330
1F
100
AcDbEntity
  8
0-A_文字
  6
Continuous
 62
     3
370
     9
100
AcDbPolyline
 90
        4
 70
     1
 43
20.0
 10
10464.24833382517
 20
2524.536995116495
 42
0.4142135623731
 10
10454.24833382517
 20
2534.536995116495
 42
0.4142135623731
 10
10444.24833382517
 20
2524.536995116495
 42
0.4142135623731
 10
10454.24833382517
 20
2514.536995116494
 42
0.4142135623731
  0
LINE
  5
339
330
1F
100
AcDbEntity
  8
0-A_文字
  6
Continuous
 62
     3
370
     9
100
AcDbLine
 10
10454.24833382517
 20
2524.536995116495
 30
0.0
 11
11464.17213786277
 21
2524.536995116495
 31
0.0
  0
LINE
  5
33A
330
1F
100
AcDbEntity
  8
0-A_文字
  6
Continuous
 62
     3
370
     9
100
AcDbLine
 10
10454.24833382517
 20
2524.536995116495
 30
0.0
 11
10454.24833382517
 21
-2233.805545883507
 31
0.0
  0
LWPOLYLINE
  5
33B
330
1F
100
AcDbEntity
  8
0-A_文字
  6
Continuous
 62
     3
370
     9
100
AcDbPolyline
 90
        4
 70
     1
 43
20.0
 10
10464.24833382517
 20
-2233.805545883507
 42
0.4142135623731
 10
10454.24833382517
 20
-2223.805545883507
 42
0.4142135623731
 10
10444.24833382517
 20
-2233.805545883507
 42
0.4142135623731
 10
10454.24833382517
 20
-2243.805545883507
 42
0.4142135623731
  0
LINE
  5
33C
330
1F
100
AcDbEntity
  8
0-A_文字
  6
Continuous
 62
     3
370
     9
100
AcDbLine
 10
10454.24833382517
 20
-2233.805545883507
 30
0.0
 11
11464.17213786277
 21
-2233.805545883507
 31
0.0
  0
LINE
  5
33D
330
1F
100
AcDbEntity
  8
0-A_文字
  6
JWW_DASHED1
 62
     7
370
     9
100
AcDbLine
 10
13027.80242934741
 20
2577.653849083467
 30
0.0
 11
13127.80242934741
 21
2577.653849083467
 31
0.0
  0
LINE
  5
33E
330
1F
100
AcDbEntity
  8
0-A_文字
  6
JWW_DASHED1
 62
     7
370
     9
100
AcDbLine
 10
13027.80242934741
 20
2477.653849083467
 30
0.0
 11
13027.80242934741
 21
2577.653849083467
 31
0.0
  0
LINE
  5
33F
330
1F
100
AcDbEntity
  8
0-A_文字
  6
JWW_DASHED1
 62
     7
370
     9
100
AcDbLine
 10
13127.80242934741
 20
2477.653849083467
 30
0.0
 11
13027.80242934741
 21
2477.653849083467
 31
0.0
  0
LINE
  5
340
330
1F
100
AcDbEntity
  8
0-A_文字
  6
JWW_DASHED1
 62
     7
370
     9
100
AcDbLine
 10
13127.80242934741
 20
2577.653849083467
 30
0.0
 11
13127.80242934741
 21
2477.653849083467
 31
0.0
  0
LINE
  5
341
330
1F
100
AcDbEntity
  8
0-A_文字
  6
Continuous
 62
     3
370
     9
100
AcDbLine
 10
12808.41655175683
 20
10604.53699411651
 30
0.0
 11
12957.8024293474
 21
10455.15111652594
 31
0.0
  0
LINE
  5
342
330
1F
100
AcDbEntity
  8
0-A_文字
  6
Continuous
 62
     3
370
     9
100
AcDbLine
 10
12822.55868738059
 20
10604.5369941165
 30
0.0
 11
12957.80242934739
 21
10469.2932521497
 31
0.0
  0
LINE
  5
343
330
1F
100
AcDbEntity
  8
0-A_文字
  6
Continuous
 62
     3
370
     9
100
AcDbLine
 10
12836.70082300433
 20
10604.53699411651
 30
0.0
 11
12957.8024293474
 21
10483.43538777344
 31
0.0
  0
LINE
  5
344
330
1F
100
AcDbEntity
  8
0-A_文字
  6
Continuous
 62
     3
370
     9
100
AcDbLine
 10
12850.84295862808
 20
10604.53699411652
 30
0.0
 11
12957.80242934741
 21
10497.57752339718
 31
0.0
  0
LINE
  5
345
330
1F
100
AcDbEntity
  8
0-A_文字
  6
Continuous
 62
     3
370
     9
100
AcDbLine
 10
12864.98509425176
 20
10604.5369941165
 30
0.0
 11
12957.8024293474
 21
10511.71965902086
 31
0.0
  0
LINE
  5
346
330
1F
100
AcDbEntity
  8
0-A_文字
  6
Continuous
 62
     3
370
     9
100
AcDbLine
 10
12879.12722987551
 20
10604.5369941165
 30
0.0
 11
12957.80242934739
 21
10525.86179464462
 31
0.0
  0
LINE
  5
347
330
1F
100
AcDbEntity
  8
0-A_文字
  6
Continuous
 62
     3
370
     9
100
AcDbLine
 10
12893.26936549925
 20
10604.53699411651
 30
0.0
 11
12957.8024293474
 21
10540.00393026836
 31
0.0
  0
LINE
  5
348
330
1F
100
AcDbEntity
  8
0-A_文字
  6
Continuous
 62
     3
370
     9
100
AcDbLine
 10
12907.41150112299
 20
10604.53699411652
 30
0.0
 11
12957.80242934741
 21
10554.1460658921
 31
0.0
  0
LINE
  5
349
330
1F
100
AcDbEntity
  8
0-A_文字
  6
Continuous
 62
     3
370
     9
100
AcDbLine
 10
12921.55363674676
 20
10604.5369941165
 30
0.0
 11
12957.8024293474
 21
10568.28820151586
 31
0.0
  0
LINE
  5
34A
330
1F
100
AcDbEntity
  8
0-A_文字
  6
Continuous
 62
     3
370
     9
100
AcDbLine
 10
12935.69577237043
 20
10604.5369941165
 30
0.0
 11
12957.8024293474
 21
10582.43033713953
 31
0.0
  0
LINE
  5
34B
330
1F
100
AcDbEntity
  8
0-A_文字
  6
JWW_DASHED1
 62
     3
370
     9
100
AcDbLine
 10
12808.14849453582
 20
10604.53699411648
 30
0.0
 11
12857.80242934743
 21
10654.19092892809
 31
0.0
  0
LINE
  5
34C
330
1F
100
AcDbEntity
  8
0-A_文字
  6
JWW_DASHED1
 62
     3
370
     9
100
AcDbLine
 10
12772.79315547649
 20
10604.53699411649
 30
0.0
 11
12857.80242934742
 21
10689.54626798741
 31
0.0
  0
LINE
  5
34D
330
1F
100
AcDbEntity
  8
0-A_文字
  6
Continuous
 62
     3
370
     9
100
AcDbLine
 10
12552.80242934741
 20
11029.53699511649
 30
0.0
 11
12552.80242934741
 21
11558.68659707828
 31
0.0
  0
LINE
  5
34E
330
1F
100
AcDbEntity
  8
0-A_文字
  6
Continuous
 62
     3
370
     9
100
AcDbLine
 10
13602.80242934741
 20
11029.53699511649
 30
0.0
 11
13602.80242934741
 21
11558.68659707828
 31
0.0
  0
LINE
  5
34F
330
1F
100
AcDbEntity
  8
0-A_文字
  6
Continuous
 62
     3
370
     9
100
AcDbLine
 10
12957.80242934741
 20
2407.653849083466
 30
0.0
 11
13197.80242934741
 21
2407.653849083466
 31
0.0
  0
LINE
  5
350
330
1F
100
AcDbEntity
  8
0-A_文字
  6
Continuous
 62
     3
370
     9
100
AcDbLine
 10
13197.80242934741
 20
2407.653849083466
 30
0.0
 11
13197.80242934741
 21
2647.653849083467
 31
0.0
  0
LINE
  5
351
330
1F
100
AcDbEntity
  8
0-A_文字
  6
Continuous
 62
     3
370
     9
100
AcDbLine
 10
13197.80242934741
 20
2647.653849083467
 30
0.0
 11
12957.80242934741
 21
2647.653849083467
 31
0.0
  0
LINE
  5
352
330
1F
100
AcDbEntity
  8
0-A_文字
  6
Continuous
 62
     3
370
     9
100
AcDbLine
 10
12957.80242934741
 20
2647.653849083467
 30
0.0
 11
12957.80242934741
 21
2407.653849083466
 31
0.0
  0
LINE
  5
353
330
1F
100
AcDbEntity
  8
0-A_文字
  6
Continuous
 62
     7
370
     9
100
AcDbLine
 10
13138.84207125755
 20
2407.653849083466
 30
0.0
 11
13197.80242934741
 21
2466.614207173325
 31
0.0
  0
LINE
  5
354
330
1F
100
AcDbEntity
  8
0-A_文字
  6
Continuous
 62
     7
370
     9
100
AcDbLine
 10
13082.27352876264
 20
2407.653849083466
 30
0.0
 11
13197.80242934741
 21
2523.182749668241
 31
0.0
  0
LINE
  5
355
330
1F
100
AcDbEntity
  8
0-A_文字
  6
Continuous
 62
     7
370
     9
100
AcDbLine
 10
13025.70498626772
 20
2407.653849083466
 30
0.0
 11
13197.80242934741
 21
2579.751292163155
 31
0.0
  0
LINE
  5
356
330
1F
100
AcDbEntity
  8
0-A_文字
  6
Continuous
 62
     7
370
     9
100
AcDbLine
 10
12969.13644377272
 20
2407.653849083466
 30
0.0
 11
13197.80242934741
 21
2636.319834658161
 31
0.0
  0
LINE
  5
357
330
1F
100
AcDbEntity
  8
0-A_文字
  6
Continuous
 62
     7
370
     9
100
AcDbLine
 10
12957.80242934741
 20
2452.888377153076
 30
0.0
 11
13152.5679012778
 21
2647.653849083467
 31
0.0
  0
LINE
  5
358
330
1F
100
AcDbEntity
  8
0-A_文字
  6
Continuous
 62
     7
370
     9
100
AcDbLine
 10
12957.80242934741
 20
2509.456919647991
 30
0.0
 11
13095.99935878288
 21
2647.653849083467
 31
0.0
  0
LINE
  5
359
330
1F
100
AcDbEntity
  8
0-A_文字
  6
Continuous
 62
     7
370
     9
100
AcDbLine
 10
12957.80242934741
 20
2566.025462142906
 30
0.0
 11
13039.43081628797
 21
2647.653849083467
 31
0.0
  0
LINE
  5
35A
330
1F
100
AcDbEntity
  8
0-A_文字
  6
Continuous
 62
     7
370
     9
100
AcDbLine
 10
12957.80242934741
 20
2622.594004637818
 30
0.0
 11
12982.86227379305
 21
2647.653849083467
 31
0.0
  0
LINE
  5
35B
330
1F
100
AcDbEntity
  8
0-A_文字
  6
Continuous
 62
     4
370
     5
100
AcDbLine
 10
10996.12267299243
 20
2647.653849083467
 30
0.0
 11
10996.12267299243
 21
2407.653849083466
 31
0.0
  0
LWPOLYLINE
  5
35C
330
1F
100
AcDbEntity
  8
0-A_文字
  6
Continuous
 62
     4
370
     5
100
AcDbPolyline
 90
        4
 70
     1
 43
20.0
 10
11006.12267299243
 20
2647.653849083467
 42
0.4142135623731
 10
10996.12267299243
 20
2657.653849083467
 42
0.4142135623731
 10
10986.12267299243
 20
2647.653849083467
 42
0.4142135623731
 10
10996.12267299243
 20
2637.653849083467
 42
0.4142135623731
  0
LWPOLYLINE
  5
35D
330
1F
100
AcDbEntity
  8
0-A_文字
  6
Continuous
 62
     4
370
     5
100
AcDbPolyline
 90
        4
 70
     1
 43
20.0
 10
11006.12267299243
 20
2407.653849083466
 42
0.4142135623731
 10
10996.12267299243
 20
2417.653849083466
 42
0.4142135623731
 10
10986.12267299243
 20
2407.653849083466
 42
0.4142135623731
 10
10996.12267299243
 20
2397.653849083466
 42
0.4142135623731
  0
LINE
  5
35E
330
1F
100
AcDbEntity
  8
0-A_文字
  6
Continuous
 62
     4
370
     5
100
AcDbLine
 10
10996.12267299243
 20
2647.653849083467
 30
0.0
 11
12048.39824455618
 21
2647.653849083467
 31
0.0
  0
LINE
  5
35F
330
1F
100
AcDbEntity
  8
0-A_文字
  6
Continuous
 62
     4
370
     5
100
AcDbLine
 10
10996.12267299243
 20
2407.653849083466
 30
0.0
 11
12048.39824455618
 21
2407.653849083466
 31
0.0
  0
TEXT
  5
360
330
1F
100
AcDbEntity
  8
0-A_文字
  6
Continuous
 62
     7
370
     0
100
AcDbText
 10
10910.87267299243
 20
2402.653849083467
 30
0.0
 40
190.5
  1
24
 50
90.0
  7
ＭＳ ゴシック
100
AcDbText
  0
LINE
  5
361
330
1F
100
AcDbEntity
  8
0-A_文字
  6
Continuous
 62
     7
370
     9
100
AcDbLine
 10
11701.80914213295
 20
-10153.80554588351
 30
0.0
 11
14453.79571656186
 21
-10153.80554588351
 31
0.0
  0
LINE
  5
362
330
1F
100
AcDbEntity
  8
0-A_文字
  6
JWW_CENTER1
 62
     7
370
     9
100
AcDbLine
 10
12791.70399468607
 20
-2230.688691916535
 30
0.0
 11
13353.33785240359
 21
-2230.688691916535
 31
0.0
  0
LINE
  5
363
330
1F
100
AcDbEntity
  8
0-A_文字
  6
JWW_DASHED1
 62
     7
370
     9
100
AcDbLine
 10
13027.80242934741
 20
-2180.688691916535
 30
0.0
 11
13127.80242934741
 21
-2180.688691916535
 31
0.0
  0
LINE
  5
364
330
1F
100
AcDbEntity
  8
0-A_文字
  6
JWW_DASHED1
 62
     7
370
     9
100
AcDbLine
 10
13027.80242934741
 20
-2280.688691916535
 30
0.0
 11
13027.80242934741
 21
-2180.688691916535
 31
0.0
  0
LINE
  5
365
330
1F
100
AcDbEntity
  8
0-A_文字
  6
JWW_DASHED1
 62
     7
370
     9
100
AcDbLine
 10
13127.80242934741
 20
-2280.688691916535
 30
0.0
 11
13027.80242934741
 21
-2280.688691916535
 31
0.0
  0
LINE
  5
366
330
1F
100
AcDbEntity
  8
0-A_文字
  6
JWW_DASHED1
 62
     7
370
     9
100
AcDbLine
 10
13127.80242934741
 20
-2180.688691916535
 30
0.0
 11
13127.80242934741
 21
-2280.688691916535
 31
0.0
  0
LINE
  5
367
330
1F
100
AcDbEntity
  8
0-A_文字
  6
Continuous
 62
     3
370
     9
100
AcDbLine
 10
12957.80242934741
 20
-2350.688691916537
 30
0.0
 11
13197.80242934741
 21
-2350.688691916537
 31
0.0
  0
LINE
  5
368
330
1F
100
AcDbEntity
  8
0-A_文字
  6
Continuous
 62
     3
370
     9
100
AcDbLine
 10
13197.80242934741
 20
-2350.688691916537
 30
0.0
 11
13197.80242934741
 21
-2110.688691916536
 31
0.0
  0
LINE
  5
369
330
1F
100
AcDbEntity
  8
0-A_文字
  6
Continuous
 62
     3
370
     9
100
AcDbLine
 10
13197.80242934741
 20
-2110.688691916536
 30
0.0
 11
12957.80242934741
 21
-2110.688691916536
 31
0.0
  0
LINE
  5
36A
330
1F
100
AcDbEntity
  8
0-A_文字
  6
Continuous
 62
     3
370
     9
100
AcDbLine
 10
12957.80242934741
 20
-2110.688691916536
 30
0.0
 11
12957.80242934741
 21
-2350.688691916537
 31
0.0
  0
LINE
  5
36B
330
1F
100
AcDbEntity
  8
0-A_文字
  6
Continuous
 62
     7
370
     9
100
AcDbLine
 10
13138.84207125755
 20
-2350.688691916537
 30
0.0
 11
13197.80242934741
 21
-2291.728333826677
 31
0.0
  0
LINE
  5
36C
330
1F
100
AcDbEntity
  8
0-A_文字
  6
Continuous
 62
     7
370
     9
100
AcDbLine
 10
13082.27352876264
 20
-2350.688691916537
 30
0.0
 11
13197.80242934741
 21
-2235.159791331762
 31
0.0
  0
LINE
  5
36D
330
1F
100
AcDbEntity
  8
0-A_文字
  6
Continuous
 62
     7
370
     9
100
AcDbLine
 10
13025.70498626772
 20
-2350.688691916537
 30
0.0
 11
13197.80242934741
 21
-2178.591248836847
 31
0.0
  0
LINE
  5
36E
330
1F
100
AcDbEntity
  8
0-A_文字
  6
Continuous
 62
     7
370
     9
100
AcDbLine
 10
12969.13644377272
 20
-2350.688691916537
 30
0.0
 11
13197.80242934741
 21
-2122.022706341841
 31
0.0
  0
LINE
  5
36F
330
1F
100
AcDbEntity
  8
0-A_文字
  6
Continuous
 62
     7
370
     9
100
AcDbLine
 10
12957.80242934741
 20
-2305.454163846926
 30
0.0
 11
13152.5679012778
 21
-2110.688691916536
 31
0.0
  0
LINE
  5
370
330
1F
100
AcDbEntity
  8
0-A_文字
  6
Continuous
 62
     7
370
     9
100
AcDbLine
 10
12957.80242934741
 20
-2248.885621352011
 30
0.0
 11
13095.99935878288
 21
-2110.688691916536
 31
0.0
  0
LINE
  5
371
330
1F
100
AcDbEntity
  8
0-A_文字
  6
Continuous
 62
     7
370
     9
100
AcDbLine
 10
12957.80242934741
 20
-2192.317078857096
 30
0.0
 11
13039.43081628797
 21
-2110.688691916536
 31
0.0
  0
LINE
  5
372
330
1F
100
AcDbEntity
  8
0-A_文字
  6
Continuous
 62
     7
370
     9
100
AcDbLine
 10
12957.80242934741
 20
-2135.748536362186
 30
0.0
 11
12982.86227379305
 21
-2110.688691916536
 31
0.0
  0
LINE
  5
373
330
1F
100
AcDbEntity
  8
0-A_文字
  6
Continuous
 62
     4
370
     5
100
AcDbLine
 10
10996.12267299243
 20
-2110.688691916536
 30
0.0
 11
10996.12267299243
 21
-2350.688691916537
 31
0.0
  0
LWPOLYLINE
  5
374
330
1F
100
AcDbEntity
  8
0-A_文字
  6
Continuous
 62
     4
370
     5
100
AcDbPolyline
 90
        4
 70
     1
 43
20.0
 10
11006.12267299243
 20
-2110.688691916536
 42
0.4142135623731
 10
10996.12267299243
 20
-2100.688691916536
 42
0.4142135623731
 10
10986.12267299243
 20
-2110.688691916536
 42
0.4142135623731
 10
10996.12267299243
 20
-2120.688691916536
 42
0.4142135623731
  0
LWPOLYLINE
  5
375
330
1F
100
AcDbEntity
  8
0-A_文字
  6
Continuous
 62
     4
370
     5
100
AcDbPolyline
 90
        4
 70
     1
 43
20.0
 10
11006.12267299243
 20
-2350.688691916537
 42
0.4142135623731
 10
10996.12267299243
 20
-2340.688691916537
 42
0.4142135623731
 10
10986.12267299243
 20
-2350.688691916537
 42
0.4142135623731
 10
10996.12267299243
 20
-2360.688691916537
 42
0.4142135623731
  0
LINE
  5
376
330
1F
100
AcDbEntity
  8
0-A_文字
  6
Continuous
 62
     4
370
     5
100
AcDbLine
 10
10996.12267299243
 20
-2110.688691916536
 30
0.0
 11
12048.39824455618
 21
-2110.688691916536
 31
0.0
  0
LINE
  5
377
330
1F
100
AcDbEntity
  8
0-A_文字
  6
Continuous
 62
     4
370
     5
100
AcDbLine
 10
10996.12267299243
 20
-2350.688691916537
 30
0.0
 11
12048.39824455618
 21
-2350.688691916537
 31
0.0
  0
TEXT
  5
378
330
1F
100
AcDbEntity
  8
0-A_文字
  6
Continuous
 62
     7
370
     0
100
AcDbText
 10
10910.87267299243
 20
-2355.688691916535
 30
0.0
 40
190.5
  1
24
 50
90.0
  7
ＭＳ ゴシック
100
AcDbText
  0
TEXT
  5
379
330
1F
100
AcDbEntity
  8
0-A_文字
  6
Continuous
 62
     7
370
     0
100
AcDbText
 10
15138.28602244663
 20
-11884.66317249374
 30
0.0
 40
228.6
  1
12（床厚）
 50
90.0
 41
1.133333333333364
  7
ＭＳ ゴシック
100
AcDbText
  0
LINE
  5
37A
330
1F
100
AcDbEntity
  8
0-A_文字
  6
Continuous
 62
     7
370
     9
100
AcDbLine
 10
12202.80242934741
 20
11079.5369941165
 30
0.0
 11
12202.80242934741
 21
10729.53699511649
 31
0.0
  0
LINE
  5
37B
330
1F
100
AcDbEntity
  8
0-A_文字
  6
Continuous
 62
     7
370
     9
100
AcDbLine
 10
13952.80242934741
 20
11079.5369941165
 30
0.0
 11
13952.80242934741
 21
10729.53699511649
 31
0.0
  0
LINE
  5
37C
330
1F
100
AcDbEntity
  8
0-A_文字
  6
Continuous
 62
     7
370
     9
100
AcDbLine
 10
11589.01116634418
 20
10729.53699511649
 30
0.0
 11
11589.01116634418
 21
11029.53699511649
 31
0.0
  0
LWPOLYLINE
  5
37D
330
1F
100
AcDbEntity
  8
0-A_文字
  6
Continuous
 62
     7
370
     9
100
AcDbPolyline
 90
        4
 70
     1
 43
20.0
 10
11599.01116634418
 20
10729.53699511649
 42
0.4142135623731
 10
11589.01116634418
 20
10739.53699511649
 42
0.4142135623731
 10
11579.01116634418
 20
10729.53699511649
 42
0.4142135623731
 10
11589.01116634418
 20
10719.5369951165
 42
0.4142135623731
  0
LWPOLYLINE
  5
37E
330
1F
100
AcDbEntity
  8
0-A_文字
  6
Continuous
 62
     7
370
     9
100
AcDbPolyline
 90
        4
 70
     1
 43
20.0
 10
11599.01116634418
 20
11029.53699511649
 42
0.4142135623731
 10
11589.01116634418
 20
11039.53699511649
 42
0.4142135623731
 10
11579.01116634418
 20
11029.53699511649
 42
0.4142135623731
 10
11589.01116634418
 20
11019.5369951165
 42
0.4142135623731
  0
LINE
  5
37F
330
1F
100
AcDbEntity
  8
0-A_文字
  6
Continuous
 62
     7
370
     9
100
AcDbLine
 10
11589.01116634418
 20
11029.53699511649
 30
0.0
 11
11912.2327737571
 21
11029.53699511649
 31
0.0
  0
TEXT
  5
380
330
1F
100
AcDbEntity
  8
0-A_文字
  6
Continuous
 62
     7
370
     0
100
AcDbText
 10
11520.65990909459
 20
10773.61832653176
 30
0.0
 40
228.6
  1
30
 50
90.0
 41
1.083333333333333
  7
ＭＳ ゴシック
100
AcDbText
  0
LINE
  5
381
330
1F
100
AcDbEntity
  8
0-A_文字
  6
Continuous
 62
     7
370
     9
100
AcDbLine
 10
12202.80242934741
 20
10729.53699511649
 30
0.0
 11
12552.80242934741
 21
11079.5369941165
 31
0.0
  0
LINE
  5
382
330
1F
100
AcDbEntity
  8
0-A_文字
  6
Continuous
 62
     7
370
     9
100
AcDbLine
 10
13602.80242934741
 20
10729.53699511649
 30
0.0
 11
13952.80242934741
 21
11079.5369941165
 31
0.0
  0
LINE
  5
383
330
1F
100
AcDbEntity
  8
0-A_文字
  6
Continuous
 62
     7
370
     9
100
AcDbLine
 10
13602.80242934741
 20
11079.5369941165
 30
0.0
 11
17579.45988791094
 21
11079.5369941165
 31
0.0
  0
LINE
  5
384
330
1F
100
AcDbEntity
  8
0-A_文字
  6
Continuous
 62
     4
370
     5
100
AcDbLine
 10
12732.80242934741
 20
1880.500637035334
 30
0.0
 11
12957.80242934741
 21
1880.500637035334
 31
0.0
  0
LWPOLYLINE
  5
385
330
1F
100
AcDbEntity
  8
0-A_文字
  6
Continuous
 62
     4
370
     5
100
AcDbPolyline
 90
        4
 70
     1
 43
20.0
 10
12742.80242934741
 20
1880.500637035334
 42
0.4142135623731
 10
12732.80242934741
 20
1890.500637035334
 42
0.4142135623731
 10
12722.80242934741
 20
1880.500637035334
 42
0.4142135623731
 10
12732.80242934741
 20
1870.500637035334
 42
0.4142135623731
  0
LWPOLYLINE
  5
386
330
1F
100
AcDbEntity
  8
0-A_文字
  6
Continuous
 62
     4
370
     5
100
AcDbPolyline
 90
        4
 70
     1
 43
20.0
 10
12967.80242934741
 20
1880.500637035334
 42
0.4142135623731
 10
12957.80242934741
 20
1890.500637035334
 42
0.4142135623731
 10
12947.80242934741
 20
1880.500637035334
 42
0.4142135623731
 10
12957.80242934741
 20
1870.500637035334
 42
0.4142135623731
  0
LINE
  5
387
330
1F
100
AcDbEntity
  8
0-A_文字
  6
Continuous
 62
     4
370
     5
100
AcDbLine
 10
12732.80242934741
 20
1880.500637035334
 30
0.0
 11
12732.80242934741
 21
2267.607547040308
 31
0.0
  0
LINE
  5
388
330
1F
100
AcDbEntity
  8
0-A_文字
  6
Continuous
 62
     4
370
     5
100
AcDbLine
 10
12957.80242934741
 20
1880.500637035334
 30
0.0
 11
12957.80242934741
 21
2267.607547040308
 31
0.0
  0
LINE
  5
389
330
1F
100
AcDbEntity
  8
0-A_文字
  6
Continuous
 62
     4
370
     5
100
AcDbLine
 10
12957.80242934741
 20
1880.500637035334
 30
0.0
 11
13197.80242934741
 21
1880.500637035334
 31
0.0
  0
LWPOLYLINE
  5
38A
330
1F
100
AcDbEntity
  8
0-A_文字
  6
Continuous
 62
     4
370
     5
100
AcDbPolyline
 90
        4
 70
     1
 43
20.0
 10
13207.80242934741
 20
1880.500637035334
 42
0.4142135623731
 10
13197.80242934741
 20
1890.500637035334
 42
0.4142135623731
 10
13187.80242934741
 20
1880.500637035334
 42
0.4142135623731
 10
13197.80242934741
 20
1870.500637035334
 42
0.4142135623731
  0
LINE
  5
38B
330
1F
100
AcDbEntity
  8
0-A_文字
  6
Continuous
 62
     4
370
     5
100
AcDbLine
 10
13197.80242934741
 20
1880.500637035334
 30
0.0
 11
13197.80242934741
 21
2267.607547040308
 31
0.0
  0
LINE
  5
38C
330
1F
100
AcDbEntity
  8
0-A_文字
  6
Continuous
 62
     4
370
     5
100
AcDbLine
 10
13197.80242934741
 20
1880.500637035334
 30
0.0
 11
13422.80242934741
 21
1880.500637035334
 31
0.0
  0
LWPOLYLINE
  5
38D
330
1F
100
AcDbEntity
  8
0-A_文字
  6
Continuous
 62
     4
370
     5
100
AcDbPolyline
 90
        4
 70
     1
 43
20.0
 10
13432.80242934741
 20
1880.500637035334
 42
0.4142135623731
 10
13422.80242934741
 20
1890.500637035334
 42
0.4142135623731
 10
13412.80242934741
 20
1880.500637035334
 42
0.4142135623731
 10
13422.80242934741
 20
1870.500637035334
 42
0.4142135623731
  0
LINE
  5
38E
330
1F
100
AcDbEntity
  8
0-A_文字
  6
Continuous
 62
     4
370
     5
100
AcDbLine
 10
13422.80242934741
 20
1880.500637035334
 30
0.0
 11
13422.80242934741
 21
2267.607547040308
 31
0.0
  0
TEXT
  5
38F
330
1F
100
AcDbEntity
  8
0-A_文字
  6
Continuous
 62
     7
370
   211
100
AcDbText
 10
12384.38798845899
 20
1930.480855357865
 30
0.0
 40
190.5
  1
22.5
  7
ＭＳ ゴシック
100
AcDbText
  0
TEXT
  5
390
330
1F
100
AcDbEntity
  8
0-A_文字
  6
Continuous
 62
     7
370
   211
100
AcDbText
 10
13247.23344494689
 20
1940.121586715271
 30
0.0
 40
190.5
  1
22.5
  7
ＭＳ ゴシック
100
AcDbText
  0
TEXT
  5
391
330
1F
100
AcDbEntity
  8
0-A_文字
  6
Continuous
 62
     7
370
   211
100
AcDbText
 10
12967.65223558209
 20
1641.258914635664
 30
0.0
 40
190.5
  1
24
  7
ＭＳ ゴシック
100
AcDbText
  0
LINE
  5
392
330
1F
100
AcDbEntity
  8
0-A_文字
  6
Continuous
 62
     7
370
     9
100
AcDbLine
 10
12732.80242934741
 20
10404.53699411651
 30
0.0
 11
12957.80242934741
 21
10404.53699411651
 31
0.0
  0
LINE
  5
393
330
1F
100
AcDbEntity
  8
0-A_文字
  6
Continuous
 62
     7
370
     9
100
AcDbLine
 10
13197.80242934741
 20
10404.53699411651
 30
0.0
 11
13422.80242934741
 21
10404.53699411651
 31
0.0
  0
LINE
  5
394
330
1F
100
AcDbEntity
  8
0-A_文字
  6
Continuous
 62
     7
370
     9
100
AcDbLine
 10
15246.73615915394
 20
10604.53699511649
 30
0.0
 11
15246.73615915394
 21
10384.53699411651
 31
0.0
  0
LWPOLYLINE
  5
395
330
1F
100
AcDbEntity
  8
0-A_文字
  6
Continuous
 62
     7
370
     9
100
AcDbPolyline
 90
        4
 70
     1
 43
20.0
 10
15256.73615915394
 20
10404.53699411651
 42
0.4142135623731
 10
15246.73615915394
 20
10414.53699411651
 42
0.4142135623731
 10
15236.73615915394
 20
10404.53699411651
 42
0.4142135623731
 10
15246.73615915394
 20
10394.53699411651
 42
0.4142135623731
  0
LINE
  5
396
330
1F
100
AcDbEntity
  8
0-A_文字
  6
Continuous
 62
     7
370
     9
100
AcDbLine
 10
15246.73615915394
 20
10404.53699411651
 30
0.0
 11
14964.33406974969
 21
10404.53699411651
 31
0.0
  0
TEXT
  5
397
330
1F
100
AcDbEntity
  8
0-A_文字
  6
Continuous
 62
     7
370
     0
100
AcDbText
 10
15149.83069374187
 20
10044.36392032024
 30
0.0
 40
228.6
  1
20
 50
90.0
 41
1.083333333333333
  7
ＭＳ ゴシック
100
AcDbText
  0
LINE
  5
398
330
1F
100
AcDbEntity
  8
0-A_文字
  6
Continuous
 62
     7
370
     9
100
AcDbLine
 10
11701.80914213295
 20
10604.53699511649
 30
0.0
 11
13377.80242934741
 21
10604.53699511649
 31
0.0
  0
LINE
  5
399
330
1F
100
AcDbEntity
  8
0-A_文字
  6
Continuous
 62
     7
370
     9
100
AcDbLine
 10
13197.80242934741
 20
10604.53699411651
 30
0.0
 11
13197.80242934741
 21
10404.53699411651
 31
0.0
  0
LINE
  5
39A
330
1F
100
AcDbEntity
  8
0-A_文字
  6
Continuous
 62
     7
370
     9
100
AcDbLine
 10
12957.80242934741
 20
10604.53699411651
 30
0.0
 11
12957.80242934741
 21
10404.53699411651
 31
0.0
  0
LINE
  5
39B
330
1F
100
AcDbEntity
  8
0-A_文字
  6
Continuous
 62
     7
370
     9
100
AcDbLine
 10
12957.80242934741
 20
10574.53699411651
 30
0.0
 11
13197.80242934741
 21
10574.53699411651
 31
0.0
  0
LINE
  5
39C
330
1F
100
AcDbEntity
  8
0-A_文字
  6
Continuous
 62
     7
370
     9
100
AcDbLine
 10
12782.80242934741
 20
10604.53699411651
 30
0.0
 11
12782.80242934741
 21
10434.53699411651
 31
0.0
  0
LINE
  5
39D
330
1F
100
AcDbEntity
  8
0-A_文字
  6
Continuous
 62
     7
370
     9
100
AcDbLine
 10
12782.80242934741
 20
10434.53699411651
 30
0.0
 11
12957.80242934741
 21
10434.53699411651
 31
0.0
  0
LINE
  5
39E
330
1F
100
AcDbEntity
  8
0-A_文字
  6
Continuous
 62
     3
370
     9
100
AcDbLine
 10
12782.8024293474
 20
10474.58762466495
 30
0.0
 11
12822.85305989584
 21
10434.53699411651
 31
0.0
  0
LINE
  5
39F
330
1F
100
AcDbEntity
  8
0-A_文字
  6
Continuous
 62
     3
370
     9
100
AcDbLine
 10
12782.80242934739
 20
10460.44548904121
 30
0.0
 11
12808.71092427208
 21
10434.53699411651
 31
0.0
  0
LINE
  5
3A0
330
1F
100
AcDbEntity
  8
0-A_文字
  6
Continuous
 62
     3
370
     9
100
AcDbLine
 10
12782.8024293474
 20
10488.7297602887
 30
0.0
 11
12836.99519551959
 21
10434.53699411651
 31
0.0
  0
LINE
  5
3A1
330
1F
100
AcDbEntity
  8
0-A_文字
  6
Continuous
 62
     3
370
     9
100
AcDbLine
 10
12782.80242934742
 20
10502.87189591234
 30
0.0
 11
12851.13733114325
 21
10434.53699411651
 31
0.0
  0
LINE
  5
3A2
330
1F
100
AcDbEntity
  8
0-A_文字
  6
Continuous
 62
     3
370
     9
100
AcDbLine
 10
12782.80242934739
 20
10517.01403153612
 30
0.0
 11
12865.279466767
 21
10434.53699411651
 31
0.0
  0
LINE
  5
3A3
330
1F
100
AcDbEntity
  8
0-A_文字
  6
Continuous
 62
     3
370
     9
100
AcDbLine
 10
12782.8024293474
 20
10531.15616715986
 30
0.0
 11
12879.42160239075
 21
10434.53699411651
 31
0.0
  0
LINE
  5
3A4
330
1F
100
AcDbEntity
  8
0-A_文字
  6
Continuous
 62
     3
370
     9
100
AcDbLine
 10
12782.80242934741
 20
10545.2983027836
 30
0.0
 11
12893.5637380145
 21
10434.53699411651
 31
0.0
  0
LINE
  5
3A5
330
1F
100
AcDbEntity
  8
0-A_文字
  6
Continuous
 62
     3
370
     9
100
AcDbLine
 10
12782.80242934741
 20
10559.44043840726
 30
0.0
 11
12907.70587363816
 21
10434.53699411651
 31
0.0
  0
LINE
  5
3A6
330
1F
100
AcDbEntity
  8
0-A_文字
  6
Continuous
 62
     3
370
     9
100
AcDbLine
 10
12782.80242934739
 20
10573.58257403104
 30
0.0
 11
12921.84800926192
 21
10434.53699411651
 31
0.0
  0
LINE
  5
3A7
330
1F
100
AcDbEntity
  8
0-A_文字
  6
Continuous
 62
     3
370
     9
100
AcDbLine
 10
12782.8024293474
 20
10587.72470965478
 30
0.0
 11
12935.99014488567
 21
10434.53699411651
 31
0.0
  0
LINE
  5
3A8
330
1F
100
AcDbEntity
  8
0-A_文字
  6
Continuous
 62
     3
370
     9
100
AcDbLine
 10
12782.80242934741
 20
10601.86684527852
 30
0.0
 11
12950.13228050942
 21
10434.53699411651
 31
0.0
  0
LINE
  5
3A9
330
1F
100
AcDbEntity
  8
0-A_文字
  6
Continuous
 62
     3
370
     9
100
AcDbLine
 10
12794.27441613318
 20
10604.5369941165
 30
0.0
 11
12957.80242934741
 21
10441.00898090227
 31
0.0
  0
LINE
  5
3AA
330
1F
100
AcDbEntity
  8
0-A_文字
  6
Continuous
 62
     3
370
     9
100
AcDbLine
 10
10454.24833382517
 20
10404.53699411651
 30
0.0
 11
10454.24833382517
 21
2524.536995116495
 31
0.0
  0
LWPOLYLINE
  5
3AB
330
1F
100
AcDbEntity
  8
0-A_文字
  6
Continuous
 62
     3
370
     9
100
AcDbPolyline
 90
        4
 70
     1
 43
20.0
 10
10464.24833382517
 20
10404.53699411651
 42
0.4142135623731
 10
10454.24833382517
 20
10414.53699411651
 42
0.4142135623731
 10
10444.24833382517
 20
10404.53699411651
 42
0.4142135623731
 10
10454.24833382517
 20
10394.53699411651
 42
0.4142135623731
  0
LINE
  5
3AC
330
1F
100
AcDbEntity
  8
0-A_文字
  6
Continuous
 62
     3
370
     9
100
AcDbLine
 10
10454.24833382517
 20
10404.53699411651
 30
0.0
 11
11464.17213786277
 21
10404.53699411651
 31
0.0
  0
LINE
  5
3AD
330
1F
100
AcDbEntity
  8
0-A_文字
  6
Continuous
 62
     7
370
     9
100
AcDbLine
 10
12782.80242934741
 20
10404.53699411651
 30
0.0
 11
12782.80242934741
 21
10304.53699411651
 31
0.0
  0
LINE
  5
3AE
330
1F
100
AcDbEntity
  8
0-A_文字
  6
Continuous
 62
     7
370
     9
100
AcDbLine
 10
12782.80242934741
 20
10304.53699411651
 30
0.0
 11
13372.80242934741
 21
10304.53699411651
 31
0.0
  0
LINE
  5
3AF
330
1F
100
AcDbEntity
  8
0-A_文字
  6
Continuous
 62
     7
370
     9
100
AcDbLine
 10
13372.80242934741
 20
10404.53699411651
 30
0.0
 11
13372.80242934741
 21
10304.53699411651
 31
0.0
  0
LINE
  5
3B0
330
1F
100
AcDbEntity
  8
0-A_文字
  6
Continuous
 62
     3
370
     9
100
AcDbLine
 10
13223.41655175683
 20
10604.53699411651
 30
0.0
 11
13372.8024293474
 21
10455.15111652594
 31
0.0
  0
LINE
  5
3B1
330
1F
100
AcDbEntity
  8
0-A_文字
  6
Continuous
 62
     3
370
     9
100
AcDbLine
 10
13237.5586873806
 20
10604.5369941165
 30
0.0
 11
13372.80242934739
 21
10469.2932521497
 31
0.0
  0
LINE
  5
3B2
330
1F
100
AcDbEntity
  8
0-A_文字
  6
Continuous
 62
     3
370
     9
100
AcDbLine
 10
13251.70082300434
 20
10604.53699411651
 30
0.0
 11
13372.8024293474
 21
10483.43538777344
 31
0.0
  0
LINE
  5
3B3
330
1F
100
AcDbEntity
  8
0-A_文字
  6
Continuous
 62
     3
370
     9
100
AcDbLine
 10
13265.84295862808
 20
10604.53699411652
 30
0.0
 11
13372.80242934742
 21
10497.57752339718
 31
0.0
  0
LINE
  5
3B4
330
1F
100
AcDbEntity
  8
0-A_文字
  6
Continuous
 62
     3
370
     9
100
AcDbLine
 10
13279.98509425176
 20
10604.5369941165
 30
0.0
 11
13372.8024293474
 21
10511.71965902086
 31
0.0
  0
LINE
  5
3B5
330
1F
100
AcDbEntity
  8
0-A_文字
  6
Continuous
 62
     3
370
     9
100
AcDbLine
 10
13294.12722987551
 20
10604.5369941165
 30
0.0
 11
13372.80242934739
 21
10525.86179464462
 31
0.0
  0
LINE
  5
3B6
330
1F
100
AcDbEntity
  8
0-A_文字
  6
Continuous
 62
     3
370
     9
100
AcDbLine
 10
13308.26936549926
 20
10604.53699411651
 30
0.0
 11
13372.8024293474
 21
10540.00393026836
 31
0.0
  0
LINE
  5
3B7
330
1F
100
AcDbEntity
  8
0-A_文字
  6
Continuous
 62
     3
370
     9
100
AcDbLine
 10
13322.411501123
 20
10604.53699411652
 30
0.0
 11
13372.80242934742
 21
10554.1460658921
 31
0.0
  0
LINE
  5
3B8
330
1F
100
AcDbEntity
  8
0-A_文字
  6
Continuous
 62
     3
370
     9
100
AcDbLine
 10
13336.55363674676
 20
10604.5369941165
 30
0.0
 11
13372.8024293474
 21
10568.28820151586
 31
0.0
  0
LINE
  5
3B9
330
1F
100
AcDbEntity
  8
0-A_文字
  6
Continuous
 62
     3
370
     9
100
AcDbLine
 10
13350.69577237043
 20
10604.5369941165
 30
0.0
 11
13372.8024293474
 21
10582.43033713953
 31
0.0
  0
LINE
  5
3BA
330
1F
100
AcDbEntity
  8
0-A_文字
  6
Continuous
 62
     3
370
     9
100
AcDbLine
 10
13197.8024293474
 20
10474.58762466495
 30
0.0
 11
13237.85305989584
 21
10434.53699411651
 31
0.0
  0
LINE
  5
3BB
330
1F
100
AcDbEntity
  8
0-A_文字
  6
Continuous
 62
     3
370
     9
100
AcDbLine
 10
13197.80242934739
 20
10460.44548904121
 30
0.0
 11
13223.71092427209
 21
10434.53699411651
 31
0.0
  0
LINE
  5
3BC
330
1F
100
AcDbEntity
  8
0-A_文字
  6
Continuous
 62
     3
370
     9
100
AcDbLine
 10
13197.8024293474
 20
10488.7297602887
 30
0.0
 11
13251.99519551959
 21
10434.53699411651
 31
0.0
  0
LINE
  5
3BD
330
1F
100
AcDbEntity
  8
0-A_文字
  6
Continuous
 62
     3
370
     9
100
AcDbLine
 10
13197.80242934742
 20
10502.87189591234
 30
0.0
 11
13266.13733114325
 21
10434.53699411651
 31
0.0
  0
LINE
  5
3BE
330
1F
100
AcDbEntity
  8
0-A_文字
  6
Continuous
 62
     3
370
     9
100
AcDbLine
 10
13197.80242934739
 20
10517.01403153612
 30
0.0
 11
13280.279466767
 21
10434.53699411651
 31
0.0
  0
LINE
  5
3BF
330
1F
100
AcDbEntity
  8
0-A_文字
  6
Continuous
 62
     3
370
     9
100
AcDbLine
 10
13197.8024293474
 20
10531.15616715986
 30
0.0
 11
13294.42160239075
 21
10434.53699411651
 31
0.0
  0
LINE
  5
3C0
330
1F
100
AcDbEntity
  8
0-A_文字
  6
Continuous
 62
     3
370
     9
100
AcDbLine
 10
13197.80242934741
 20
10545.2983027836
 30
0.0
 11
13308.56373801451
 21
10434.53699411651
 31
0.0
  0
LINE
  5
3C1
330
1F
100
AcDbEntity
  8
0-A_文字
  6
Continuous
 62
     3
370
     9
100
AcDbLine
 10
13197.80242934741
 20
10559.44043840726
 30
0.0
 11
13322.70587363817
 21
10434.53699411651
 31
0.0
  0
LINE
  5
3C2
330
1F
100
AcDbEntity
  8
0-A_文字
  6
Continuous
 62
     3
370
     9
100
AcDbLine
 10
13197.80242934739
 20
10573.58257403104
 30
0.0
 11
13336.84800926192
 21
10434.53699411651
 31
0.0
  0
LINE
  5
3C3
330
1F
100
AcDbEntity
  8
0-A_文字
  6
Continuous
 62
     3
370
     9
100
AcDbLine
 10
13197.8024293474
 20
10587.72470965478
 30
0.0
 11
13350.99014488567
 21
10434.53699411651
 31
0.0
  0
LINE
  5
3C4
330
1F
100
AcDbEntity
  8
0-A_文字
  6
Continuous
 62
     3
370
     9
100
AcDbLine
 10
13197.80242934741
 20
10601.86684527852
 30
0.0
 11
13365.13228050942
 21
10434.53699411651
 31
0.0
  0
LINE
  5
3C5
330
1F
100
AcDbEntity
  8
0-A_文字
  6
Continuous
 62
     3
370
     9
100
AcDbLine
 10
13209.27441613318
 20
10604.5369941165
 30
0.0
 11
13372.80242934741
 21
10441.00898090227
 31
0.0
  0
LINE
  5
3C6
330
1F
100
AcDbEntity
  8
0-A_文字
  6
Continuous
 62
     7
370
     9
100
AcDbLine
 10
13197.80242934741
 20
10434.53699411651
 30
0.0
 11
13372.80242934741
 21
10434.53699411651
 31
0.0
  0
LINE
  5
3C7
330
1F
100
AcDbEntity
  8
0-A_文字
  6
Continuous
 62
     7
370
     9
100
AcDbLine
 10
13372.80242934741
 20
10604.53699411651
 30
0.0
 11
13372.80242934741
 21
10434.53699411651
 31
0.0
  0
LINE
  5
3C8
330
1F
100
AcDbEntity
  8
0-A_文字
  6
Continuous
 62
     4
370
     5
100
AcDbLine
 10
12782.80242934741
 20
-9335.206728574369
 30
0.0
 11
12957.80242934741
 21
-9335.206728574369
 31
0.0
  0
LWPOLYLINE
  5
3C9
330
1F
100
AcDbEntity
  8
0-A_文字
  6
Continuous
 62
     4
370
     5
100
AcDbPolyline
 90
        4
 70
     1
 43
20.0
 10
12792.80242934741
 20
-9335.206728574369
 42
0.4142135623731
 10
12782.80242934741
 20
-9325.206728574369
 42
0.4142135623731
 10
12772.80242934741
 20
-9335.206728574369
 42
0.4142135623731
 10
12782.80242934741
 20
-9345.206728574369
 42
0.4142135623731
  0
LWPOLYLINE
  5
3CA
330
1F
100
AcDbEntity
  8
0-A_文字
  6
Continuous
 62
     4
370
     5
100
AcDbPolyline
 90
        4
 70
     1
 43
20.0
 10
12967.80242934741
 20
-9335.206728574369
 42
0.4142135623731
 10
12957.80242934741
 20
-9325.206728574369
 42
0.4142135623731
 10
12947.80242934741
 20
-9335.206728574369
 42
0.4142135623731
 10
12957.80242934741
 20
-9345.206728574369
 42
0.4142135623731
  0
LINE
  5
3CB
330
1F
100
AcDbEntity
  8
0-A_文字
  6
Continuous
 62
     4
370
     5
100
AcDbLine
 10
12782.80242934741
 20
-9335.206728574369
 30
0.0
 11
12782.80242934741
 21
-9553.39425966808
 31
0.0
  0
LINE
  5
3CC
330
1F
100
AcDbEntity
  8
0-A_文字
  6
Continuous
 62
     4
370
     5
100
AcDbLine
 10
12957.80242934741
 20
-9335.206728574369
 30
0.0
 11
12957.80242934741
 21
-9553.39425966808
 31
0.0
  0
LINE
  5
3CD
330
1F
100
AcDbEntity
  8
0-A_文字
  6
Continuous
 62
     4
370
     5
100
AcDbLine
 10
12957.80242934741
 20
-9335.206728574369
 30
0.0
 11
13197.8024293474
 21
-9335.206728574369
 31
0.0
  0
LWPOLYLINE
  5
3CE
330
1F
100
AcDbEntity
  8
0-A_文字
  6
Continuous
 62
     4
370
     5
100
AcDbPolyline
 90
        4
 70
     1
 43
20.0
 10
13207.8024293474
 20
-9335.206728574369
 42
0.4142135623731
 10
13197.8024293474
 20
-9325.206728574369
 42
0.4142135623731
 10
13187.80242934741
 20
-9335.206728574369
 42
0.4142135623731
 10
13197.8024293474
 20
-9345.206728574369
 42
0.4142135623731
  0
LINE
  5
3CF
330
1F
100
AcDbEntity
  8
0-A_文字
  6
Continuous
 62
     4
370
     5
100
AcDbLine
 10
13197.8024293474
 20
-9335.206728574369
 30
0.0
 11
13197.8024293474
 21
-9553.39425966808
 31
0.0
  0
LINE
  5
3D0
330
1F
100
AcDbEntity
  8
0-A_文字
  6
Continuous
 62
     4
370
     5
100
AcDbLine
 10
13197.8024293474
 20
-9335.206728574369
 30
0.0
 11
13372.80242934741
 21
-9335.206728574369
 31
0.0
  0
LWPOLYLINE
  5
3D1
330
1F
100
AcDbEntity
  8
0-A_文字
  6
Continuous
 62
     4
370
     5
100
AcDbPolyline
 90
        4
 70
     1
 43
20.0
 10
13382.80242934741
 20
-9335.206728574369
 42
0.4142135623731
 10
13372.80242934741
 20
-9325.206728574369
 42
0.4142135623731
 10
13362.80242934741
 20
-9335.206728574369
 42
0.4142135623731
 10
13372.80242934741
 20
-9345.206728574369
 42
0.4142135623731
  0
LINE
  5
3D2
330
1F
100
AcDbEntity
  8
0-A_文字
  6
Continuous
 62
     4
370
     5
100
AcDbLine
 10
13372.80242934741
 20
-9335.206728574369
 30
0.0
 11
13372.80242934741
 21
-9553.39425966808
 31
0.0
  0
TEXT
  5
3D3
330
1F
100
AcDbEntity
  8
0-A_文字
  6
Continuous
 62
     7
370
   211
100
AcDbText
 10
12446.73558098282
 20
-9241.230850749746
 30
0.0
 40
190.5
  1
17.5
 41
0.9999999999999772
  7
ＭＳ ゴシック
100
AcDbText
  0
TEXT
  5
3D4
330
1F
100
AcDbEntity
  8
0-A_文字
  6
Continuous
 62
     7
370
   211
100
AcDbText
 10
13210.39193981081
 20
-9241.230850749746
 30
0.0
 40
190.5
  1
17.5
  7
ＭＳ ゴシック
100
AcDbText
  0
TEXT
  5
3D5
330
1F
100
AcDbEntity
  8
0-A_文字
  6
Continuous
 62
     7
370
   211
100
AcDbText
 10
12957.89265987574
 20
-9567.632358958488
 30
0.0
 40
190.5
  1
24
  7
ＭＳ ゴシック
100
AcDbText
  0
LINE
  5
3D6
330
1F
100
AcDbEntity
  8
0-A_文字
  6
Continuous
 62
     4
370
     5
100
AcDbLine
 10
12782.80242934741
 20
-8888.494152312944
 30
0.0
 11
13372.80242934741
 21
-8888.494152312944
 31
0.0
  0
LWPOLYLINE
  5
3D7
330
1F
100
AcDbEntity
  8
0-A_文字
  6
Continuous
 62
     4
370
     5
100
AcDbPolyline
 90
        4
 70
     1
 43
20.0
 10
12792.80242934741
 20
-8888.494152312944
 42
0.4142135623731
 10
12782.80242934741
 20
-8878.494152312946
 42
0.4142135623731
 10
12772.80242934741
 20
-8888.494152312944
 42
0.4142135623731
 10
12782.80242934741
 20
-8898.494152312944
 42
0.4142135623731
  0
LWPOLYLINE
  5
3D8
330
1F
100
AcDbEntity
  8
0-A_文字
  6
Continuous
 62
     4
370
     5
100
AcDbPolyline
 90
        4
 70
     1
 43
20.0
 10
13382.80242934741
 20
-8888.494152312944
 42
0.4142135623731
 10
13372.80242934741
 20
-8878.494152312946
 42
0.4142135623731
 10
13362.80242934741
 20
-8888.494152312944
 42
0.4142135623731
 10
13372.80242934741
 20
-8898.494152312944
 42
0.4142135623731
  0
LINE
  5
3D9
330
1F
100
AcDbEntity
  8
0-A_文字
  6
Continuous
 62
     4
370
     5
100
AcDbLine
 10
12782.80242934741
 20
-8888.494152312944
 30
0.0
 11
12782.80242934741
 21
-9335.206728574369
 31
0.0
  0
LINE
  5
3DA
330
1F
100
AcDbEntity
  8
0-A_文字
  6
Continuous
 62
     4
370
     5
100
AcDbLine
 10
13372.80242934741
 20
-8888.494152312944
 30
0.0
 11
13372.80242934741
 21
-9335.206728574369
 31
0.0
  0
TEXT
  5
3DB
330
1F
100
AcDbEntity
  8
0-A_文字
  6
Continuous
 62
     7
370
   211
100
AcDbText
 10
12952.80242934741
 20
-8803.244152312944
 30
0.0
 40
190.5
  1
59
  7
ＭＳ ゴシック
100
AcDbText
  0
LINE
  5
3DC
330
1F
100
AcDbEntity
  8
0-A_文字
  6
Continuous
 62
     7
370
     9
100
AcDbLine
 10
13347.80242934741
 20
-10173.80554588351
 30
0.0
 11
11701.80914213295
 21
-10173.80554588351
 31
0.0
  0
LINE
  5
3DD
330
1F
100
AcDbEntity
  8
0-A_文字
  6
Continuous
 62
     7
370
     9
100
AcDbLine
 10
13347.80242934741
 20
-10193.80554588351
 30
0.0
 11
11701.80914213295
 21
-10193.80554588351
 31
0.0
  0
LINE
  5
3DE
330
1F
100
AcDbEntity
  8
0-A_文字
  6
Continuous
 62
     7
370
     9
100
AcDbLine
 10
13347.80242934741
 20
-10213.80554588351
 30
0.0
 11
11701.80914213295
 21
-10213.80554588351
 31
0.0
  0
LINE
  5
3DF
330
1F
100
AcDbEntity
  8
0-A_文字
  6
Continuous
 62
     7
370
     9
100
AcDbLine
 10
13347.80242934741
 20
-10233.80554588351
 30
0.0
 11
11701.80914213295
 21
-10233.80554588351
 31
0.0
  0
LINE
  5
3E0
330
1F
100
AcDbEntity
  8
0-A_文字
  6
Continuous
 62
     7
370
     9
100
AcDbLine
 10
13347.80242934741
 20
-10253.80554588351
 30
0.0
 11
11701.80914213295
 21
-10253.80554588351
 31
0.0
  0
LINE
  5
3E1
330
1F
100
AcDbEntity
  8
0-A_文字
  6
Continuous
 62
     3
370
     9
100
AcDbLine
 10
12782.80242934742
 20
-9959.708022743825
 30
0.0
 11
12888.70490620772
 21
-9853.805545883526
 31
0.0
  0
LINE
  5
3E2
330
1F
100
AcDbEntity
  8
0-A_文字
  6
Continuous
 62
     3
370
     9
100
AcDbLine
 10
12782.80242934742
 20
-9924.352683684492
 30
0.0
 11
12853.34956714839
 21
-9853.80554588352
 31
0.0
  0
LINE
  5
3E3
330
1F
100
AcDbEntity
  8
0-A_文字
  6
Continuous
 62
     3
370
     9
100
AcDbLine
 10
12782.80242934742
 20
-9888.997344625164
 30
0.0
 11
12817.99422808907
 21
-9853.805545883517
 31
0.0
  0
LINE
  5
3E4
330
1F
100
AcDbEntity
  8
0-A_文字
  6
Continuous
 62
     3
370
     9
100
AcDbLine
 10
13369.74567021631
 20
-9953.805545883512
 30
0.0
 11
13372.80242934741
 21
-9950.748786752416
 31
0.0
  0
LINE
  5
3E5
330
1F
100
AcDbEntity
  8
0-A_文字
  6
Continuous
 62
     7
370
     9
100
AcDbLine
 10
12962.80242934741
 20
-9953.805545883512
 30
0.0
 11
12962.80242934741
 21
-10023.80554588351
 31
0.0
  0
LINE
  5
3E6
330
1F
100
AcDbEntity
  8
0-A_文字
  6
Continuous
 62
     7
370
     9
100
AcDbLine
 10
12957.80242934741
 20
-9953.805545883512
 30
0.0
 11
12957.80242934741
 21
-10033.80554588351
 31
0.0
  0
LINE
  5
3E7
330
1F
100
AcDbEntity
  8
0-A_文字
  6
Continuous
 62
     7
370
     9
100
AcDbLine
 10
13192.80242934741
 20
-9953.805545883512
 30
0.0
 11
13192.80242934741
 21
-10023.80554588351
 31
0.0
  0
LINE
  5
3E8
330
1F
100
AcDbEntity
  8
0-A_文字
  6
Continuous
 62
     3
370
     9
100
AcDbLine
 10
12962.80242934741
 20
-10023.80554588351
 30
0.0
 11
13192.80242934741
 21
-10023.80554588351
 31
0.0
  0
LINE
  5
3E9
330
1F
100
AcDbEntity
  8
0-A_文字
  6
Continuous
 62
     7
370
     9
100
AcDbLine
 10
13197.80242934741
 20
-9953.805545883512
 30
0.0
 11
13197.80242934741
 21
-10033.80554588351
 31
0.0
  0
LINE
  5
3EA
330
1F
100
AcDbEntity
  8
0-A_文字
  6
Continuous
 62
     7
370
     9
100
AcDbLine
 10
12957.80242934741
 20
-10033.80554588351
 30
0.0
 11
13197.80242934741
 21
-10033.80554588351
 31
0.0
  0
LINE
  5
3EB
330
1F
100
AcDbEntity
  8
0-A_文字
  6
Continuous
 62
     7
370
     9
100
AcDbLine
 10
13197.80242934741
 20
-10025.16817340785
 30
0.0
 11
13269.16505687175
 21
-9953.805545883512
 31
0.0
  0
LINE
  5
3EC
330
1F
100
AcDbEntity
  8
0-A_文字
  6
Continuous
 62
     7
370
     9
100
AcDbLine
 10
12782.80242934741
 20
-9853.805545883506
 30
0.0
 11
12782.80242934741
 21
-10153.80554588351
 31
0.0
  0
LINE
  5
3ED
330
1F
100
AcDbEntity
  8
0-A_文字
  6
Continuous
 62
     7
370
     9
100
AcDbLine
 10
12782.80242934741
 20
-9853.805545883506
 30
0.0
 11
13372.80242934741
 21
-9853.805545883506
 31
0.0
  0
LINE
  5
3EE
330
1F
100
AcDbEntity
  8
0-A_文字
  6
Continuous
 62
     7
370
     9
100
AcDbLine
 10
13372.80242934741
 20
-9853.805545883506
 30
0.0
 11
13372.80242934741
 21
-10153.80554588351
 31
0.0
  0
LINE
  5
3EF
330
1F
100
AcDbEntity
  8
0-A_文字
  6
Continuous
 62
     7
370
     9
100
AcDbLine
 10
13422.80242934741
 20
10404.53699411651
 30
0.0
 11
13422.80242934741
 21
-9953.805545883512
 31
0.0
  0
LINE
  5
3F0
330
1F
100
AcDbEntity
  8
0-A_文字
  6
Continuous
 62
     7
370
     9
100
AcDbLine
 10
13192.80242934741
 20
-9953.805545883512
 30
0.0
 11
13422.80242934741
 21
-9953.805545883512
 31
0.0
  0
LINE
  5
3F1
330
1F
100
AcDbEntity
  8
0-A_文字
  6
Continuous
 62
     7
370
     9
100
AcDbLine
 10
12732.80242934741
 20
-9953.805545883512
 30
0.0
 11
12962.80242934741
 21
-9953.805545883512
 31
0.0
  0
LINE
  5
3F2
330
1F
100
AcDbEntity
  8
0-A_文字
  6
Continuous
 62
     7
370
     9
100
AcDbLine
 10
12732.80242934741
 20
10404.53699411651
 30
0.0
 11
12732.80242934741
 21
-9953.805545883512
 31
0.0
  0
LINE
  5
3F3
330
1F
100
AcDbEntity
  8
0-A_文字
  6
Continuous
 62
     3
370
     9
100
AcDbLine
 10
12962.80242934743
 20
-9991.840057099731
 30
0.0
 11
13100.83694056365
 21
-9853.805545883506
 31
0.0
  0
LINE
  5
3F4
330
1F
100
AcDbEntity
  8
0-A_文字
  6
Continuous
 62
     3
370
     9
100
AcDbLine
 10
12930.12626244507
 20
-9953.805545883512
 30
0.0
 11
13030.12626244507
 21
-9853.805545883506
 31
0.0
  0
LINE
  5
3F5
330
1F
100
AcDbEntity
  8
0-A_文字
  6
Continuous
 62
     3
370
     9
100
AcDbLine
 10
12894.77092338574
 20
-9953.805545883512
 30
0.0
 11
12994.77092338574
 21
-9853.805545883506
 31
0.0
  0
LINE
  5
3F6
330
1F
100
AcDbEntity
  8
0-A_文字
  6
Continuous
 62
     3
370
     9
100
AcDbLine
 10
12859.41558432641
 20
-9953.805545883512
 30
0.0
 11
12959.41558432641
 21
-9853.805545883506
 31
0.0
  0
LINE
  5
3F7
330
1F
100
AcDbEntity
  8
0-A_文字
  6
Continuous
 62
     3
370
     9
100
AcDbLine
 10
12824.06024526707
 20
-9953.805545883512
 30
0.0
 11
12924.06024526705
 21
-9853.80554588353
 31
0.0
  0
LINE
  5
3F8
330
1F
100
AcDbEntity
  8
0-A_文字
  6
Continuous
 62
     3
370
     9
100
AcDbLine
 10
13283.67965303832
 20
-9953.805545883512
 30
0.0
 11
13372.80242934743
 21
-9864.682769574392
 31
0.0
  0
LINE
  5
3F9
330
1F
100
AcDbEntity
  8
0-A_文字
  6
Continuous
 62
     3
370
     9
100
AcDbLine
 10
13319.03499209765
 20
-9953.805545883512
 30
0.0
 11
13372.80242934743
 21
-9900.038108633726
 31
0.0
  0
LINE
  5
3FA
330
1F
100
AcDbEntity
  8
0-A_文字
  6
Continuous
 62
     3
370
     9
100
AcDbLine
 10
13354.39033115698
 20
-9953.805545883512
 30
0.0
 11
13372.80242934743
 21
-9935.393447693055
 31
0.0
  0
LINE
  5
3FB
330
1F
100
AcDbEntity
  8
0-A_文字
  6
Continuous
 62
     3
370
     9
100
AcDbLine
 10
13248.32431397898
 20
-9953.805545883512
 30
0.0
 11
13348.32431397897
 21
-9853.80554588352
 31
0.0
  0
LINE
  5
3FC
330
1F
100
AcDbEntity
  8
0-A_文字
  6
Continuous
 62
     3
370
     9
100
AcDbLine
 10
12962.80242934741
 20
-9956.484718040412
 30
0.0
 11
13065.48160150432
 21
-9853.805545883506
 31
0.0
  0
LINE
  5
3FD
330
1F
100
AcDbEntity
  8
0-A_文字
  6
Continuous
 62
     3
370
     9
100
AcDbLine
 10
12966.19227962298
 20
-10023.80554588351
 30
0.0
 11
13136.19227962299
 21
-9853.805545883506
 31
0.0
  0
LINE
  5
3FE
330
1F
100
AcDbEntity
  8
0-A_文字
  6
Continuous
 62
     3
370
     9
100
AcDbLine
 10
13001.54761868231
 20
-10023.80554588351
 30
0.0
 11
13171.54761868231
 21
-9853.805545883506
 31
0.0
  0
LINE
  5
3FF
330
1F
100
AcDbEntity
  8
0-A_文字
  6
Continuous
 62
     3
370
     9
100
AcDbLine
 10
13036.90295774165
 20
-10023.80554588351
 30
0.0
 11
13206.90295774165
 21
-9853.805545883506
 31
0.0
  0
LINE
  5
400
330
1F
100
AcDbEntity
  8
0-A_文字
  6
Continuous
 62
     3
370
     9
100
AcDbLine
 10
13072.25829680098
 20
-10023.80554588351
 30
0.0
 11
13242.25829680098
 21
-9853.805545883512
 31
0.0
  0
LINE
  5
401
330
1F
100
AcDbEntity
  8
0-A_文字
  6
Continuous
 62
     3
370
     9
100
AcDbLine
 10
13107.61363586031
 20
-10023.80554588351
 30
0.0
 11
13277.61363586031
 21
-9853.805545883512
 31
0.0
  0
LINE
  5
402
330
1F
100
AcDbEntity
  8
0-A_文字
  6
Continuous
 62
     3
370
     9
100
AcDbLine
 10
13142.96897491964
 20
-10023.80554588351
 30
0.0
 11
13192.80242934741
 21
-9973.972091455744
 31
0.0
  0
LINE
  5
403
330
1F
100
AcDbEntity
  8
0-A_文字
  6
Continuous
 62
     3
370
     9
100
AcDbLine
 10
13212.96897491965
 20
-9953.805545883512
 30
0.0
 11
13312.96897491964
 21
-9853.80554588352
 31
0.0
  0
LINE
  5
404
330
1F
100
AcDbEntity
  8
0-A_文字
  6
Continuous
 62
     7
370
     9
100
AcDbLine
 10
12786.32234439708
 20
-10153.80554588351
 30
0.0
 11
12956.32234439707
 21
-9983.805545883513
 31
0.0
  0
LINE
  5
405
330
1F
100
AcDbEntity
  8
0-A_文字
  6
Continuous
 62
     7
370
     9
100
AcDbLine
 10
12842.89088689208
 20
-10153.80554588351
 30
0.0
 11
12962.89088689208
 21
-10033.80554588351
 31
0.0
  0
LINE
  5
406
330
1F
100
AcDbEntity
  8
0-A_文字
  6
Continuous
 62
     7
370
     9
100
AcDbLine
 10
12899.45942938701
 20
-10153.80554588351
 30
0.0
 11
13019.459429387
 21
-10033.80554588351
 31
0.0
  0
LINE
  5
407
330
1F
100
AcDbEntity
  8
0-A_文字
  6
Continuous
 62
     7
370
     9
100
AcDbLine
 10
12956.02797188191
 20
-10153.80554588351
 30
0.0
 11
13076.02797188191
 21
-10033.80554588351
 31
0.0
  0
LINE
  5
408
330
1F
100
AcDbEntity
  8
0-A_文字
  6
Continuous
 62
     7
370
     9
100
AcDbLine
 10
13012.59651437684
 20
-10153.80554588351
 30
0.0
 11
13132.59651437683
 21
-10033.80554588351
 31
0.0
  0
LINE
  5
409
330
1F
100
AcDbEntity
  8
0-A_文字
  6
Continuous
 62
     7
370
     9
100
AcDbLine
 10
13069.16505687174
 20
-10153.80554588351
 30
0.0
 11
13189.16505687175
 21
-10033.80554588351
 31
0.0
  0
LINE
  5
40A
330
1F
100
AcDbEntity
  8
0-A_文字
  6
Continuous
 62
     7
370
     9
100
AcDbLine
 10
13125.73359936666
 20
-10153.80554588351
 30
0.0
 11
13325.73359936664
 21
-9953.80554588353
 31
0.0
  0
LINE
  5
40B
330
1F
100
AcDbEntity
  8
0-A_文字
  6
Continuous
 62
     7
370
     9
100
AcDbLine
 10
12782.80242934741
 20
-10100.75691843826
 30
0.0
 11
12929.75380190216
 21
-9953.805545883512
 31
0.0
  0
LINE
  5
40C
330
1F
100
AcDbEntity
  8
0-A_文字
  6
Continuous
 62
     7
370
     9
100
AcDbLine
 10
12782.80242934741
 20
-10043.59604670078
 30
0.0
 11
12872.59293016467
 21
-9953.805545883512
 31
0.0
  0
LINE
  5
40D
330
1F
100
AcDbEntity
  8
0-A_文字
  6
Continuous
 62
     7
370
     9
100
AcDbLine
 10
12782.80242934741
 20
-9986.43517496329
 30
0.0
 11
12815.43205842719
 21
-9953.805545883512
 31
0.0
  0
LINE
  5
40E
330
1F
100
AcDbEntity
  8
0-A_文字
  6
Continuous
 62
     7
370
     9
100
AcDbLine
 10
13182.30214186158
 20
-10153.80554588351
 30
0.0
 11
13372.80242934741
 21
-9963.305258397679
 31
0.0
  0
LINE
  5
40F
330
1F
100
AcDbEntity
  8
0-A_文字
  6
Continuous
 62
     7
370
     9
100
AcDbLine
 10
13238.87068435649
 20
-10153.80554588351
 30
0.0
 11
13372.80242934741
 21
-10019.87380089259
 31
0.0
  0
LINE
  5
410
330
1F
100
AcDbEntity
  8
0-A_文字
  6
Continuous
 62
     7
370
     9
100
AcDbLine
 10
13295.4392268514
 20
-10153.80554588351
 30
0.0
 11
13372.80242934741
 21
-10076.4423433875
 31
0.0
  0
LINE
  5
411
330
1F
100
AcDbEntity
  8
0-A_文字
  6
Continuous
 62
     7
370
     9
100
AcDbLine
 10
13352.00776934632
 20
-10153.80554588351
 30
0.0
 11
13372.80242934741
 21
-10133.01088588241
 31
0.0
  0
LINE
  5
412
330
1F
100
AcDbEntity
  8
0-A_文字
  6
Continuous
 62
     3
370
     9
100
AcDbLine
 10
10454.24833382517
 20
-2233.805545883507
 30
0.0
 11
10454.24833382517
 21
-9953.805545883512
 31
0.0
  0
LWPOLYLINE
  5
413
330
1F
100
AcDbEntity
  8
0-A_文字
  6
Continuous
 62
     3
370
     9
100
AcDbPolyline
 90
        4
 70
     1
 43
20.0
 10
10464.24833382517
 20
-9953.805545883512
 42
0.4142135623731
 10
10454.24833382517
 20
-9943.805545883512
 42
0.4142135623731
 10
10444.24833382517
 20
-9953.805545883512
 42
0.4142135623731
 10
10454.24833382517
 20
-9963.805545883512
 42
0.4142135623731
  0
LINE
  5
414
330
1F
100
AcDbEntity
  8
0-A_文字
  6
Continuous
 62
     3
370
     9
100
AcDbLine
 10
10454.24833382517
 20
-9953.805545883512
 30
0.0
 11
11464.17213786277
 21
-9953.805545883512
 31
0.0
  0
LINE
  5
415
330
1F
100
AcDbEntity
  8
0-A_文字
  6
Continuous
 62
     7
370
     9
100
AcDbLine
 10
15246.73615915394
 20
-9933.805545883513
 30
0.0
 11
15246.73615915394
 21
-10153.80554588351
 31
0.0
  0
LWPOLYLINE
  5
416
330
1F
100
AcDbEntity
  8
0-A_文字
  6
Continuous
 62
     7
370
     9
100
AcDbPolyline
 90
        4
 70
     1
 43
20.0
 10
15256.73615915394
 20
-9953.805545883512
 42
0.4142135623731
 10
15246.73615915394
 20
-9943.805545883512
 42
0.4142135623731
 10
15236.73615915394
 20
-9953.805545883512
 42
0.4142135623731
 10
15246.73615915394
 20
-9963.805545883512
 42
0.4142135623731
  0
LINE
  5
417
330
1F
100
AcDbEntity
  8
0-A_文字
  6
Continuous
 62
     7
370
     9
100
AcDbLine
 10
15246.73615915394
 20
-9953.805545883512
 30
0.0
 11
14964.33406974969
 21
-9953.805545883512
 31
0.0
  0
LINE
  5
418
330
1F
100
AcDbEntity
  8
0-A_文字
  6
Continuous
 62
     7
370
     9
100
AcDbLine
 10
15246.73615915394
 20
10384.53699411651
 30
0.0
 11
15246.73615915394
 21
-9933.805545883513
 31
0.0
  0
LINE
  5
419
330
1F
100
AcDbEntity
  8
0-A_文字
  6
JWW_CENTER1
 62
     3
370
     9
100
AcDbLine
 10
9175.874054971266
 20
10729.5369941165
 30
0.0
 11
17579.45988791094
 21
10729.5369941165
 31
0.0
  0
LINE
  5
41A
330
1F
100
AcDbEntity
  8
0-A_文字
  6
Continuous
 62
     7
370
     9
100
AcDbLine
 10
8990.238695855243
 20
11079.5369941165
 30
0.0
 11
12552.80242934741
 21
11079.5369941165
 31
0.0
  0
TEXT
  5
41B
330
1F
100
AcDbEntity
  8
0-B_寸法
  6
Continuous
 62
     7
370
   211
100
AcDbText
 10
-8996.898247368646
 20
10249.08026168428
 30
0.0
 40
190.5
  1
17
 50
90.0
  7
ＭＳ ゴシック
100
AcDbText
  0
TEXT
  5
41C
330
1F
100
AcDbEntity
  8
0-B_寸法
  6
Continuous
 62
     7
370
   211
100
AcDbText
 10
-8673.59319913804
 20
9804.16505543834
 30
0.0
 40
190.5
  1
3
 50
90.0
  7
ＭＳ ゴシック
100
AcDbText
  0
LINE
  5
41D
330
1F
100
AcDbEntity
  8
0-B_寸法
  6
Continuous
 62
     3
370
     9
100
AcDbLine
 10
-17930.08824068498
 20
-2803.128156682294
 30
0.0
 11
-17930.08824068498
 21
-10653.12815668229
 31
0.0
  0
LWPOLYLINE
  5
41E
330
1F
100
AcDbEntity
  8
0-B_寸法
  6
Continuous
 62
     3
370
     9
100
AcDbPolyline
 90
        4
 70
     1
 43
20.0
 10
-17920.08824068498
 20
-10653.12815668229
 42
0.4142135623731
 10
-17930.08824068498
 20
-10643.12815668229
 42
0.4142135623731
 10
-17940.08824068498
 20
-10653.12815668229
 42
0.4142135623731
 10
-17930.08824068498
 20
-10663.12815668229
 42
0.4142135623731
  0
LINE
  5
41F
330
1F
100
AcDbEntity
  8
0-B_寸法
  6
Continuous
 62
     3
370
     9
100
AcDbLine
 10
-17930.08824068498
 20
-10653.12815668229
 30
0.0
 11
-16920.16443664738
 21
-10653.12815668229
 31
0.0
  0
LINE
  5
420
330
1F
100
AcDbEntity
  8
0-C_ハッチ
  6
JWW_DASHED1
 62
     3
370
     9
100
AcDbLine
 10
-15486.04972375688
 20
-10819.14496792561
 30
0.0
 11
-15361.04972375689
 21
-10644.14496792562
 31
0.0
  0
LINE
  5
421
330
1F
100
AcDbEntity
  8
0-C_ハッチ
  6
JWW_DASHED1
 62
     3
370
     9
100
AcDbLine
 10
-15486.04972375689
 20
-10627.72361168829
 30
0.0
 11
-15361.0497237569
 21
-10502.7236116883
 31
0.0
  0
LINE
  5
422
330
1F
100
AcDbEntity
  8
0-C_ハッチ
  6
JWW_DASHED1
 62
     3
370
     9
100
AcDbLine
 10
-15486.04972375687
 20
-10486.30225545111
 30
0.0
 11
-15361.04972375688
 21
-10361.30225545112
 31
0.0
  0
LINE
  5
423
330
1F
100
AcDbEntity
  8
0-C_ハッチ
  6
JWW_DASHED1
 62
     3
370
     9
100
AcDbLine
 10
-15486.04972375688
 20
-10344.88089921379
 30
0.0
 11
-15361.04972375689
 21
-10219.8808992138
 31
0.0
  0
LINE
  5
424
330
1F
100
AcDbEntity
  8
0-C_ハッチ
  6
JWW_DASHED1
 62
     3
370
     9
100
AcDbLine
 10
-15486.04972375689
 20
-10203.45954297647
 30
0.0
 11
-15361.0497237569
 21
-10078.45954297648
 31
0.0
  0
LINE
  5
425
330
1F
100
AcDbEntity
  8
0-C_ハッチ
  6
JWW_DASHED1
 62
     3
370
     9
100
AcDbLine
 10
-15486.04972375691
 20
-10062.03818673915
 30
0.0
 11
-15361.04972375691
 21
-9937.03818673915
 31
0.0
  0
LINE
  5
426
330
1F
100
AcDbEntity
  8
0-C_ハッチ
  6
JWW_DASHED1
 62
     3
370
     9
100
AcDbLine
 10
-15486.04972375692
 20
-9920.616830501824
 30
0.0
 11
-15361.04972375692
 21
-9795.61683050183
 31
0.0
  0
LINE
  5
427
330
1F
100
AcDbEntity
  8
0-C_ハッチ
  6
JWW_DASHED1
 62
     3
370
     9
100
AcDbLine
 10
-15486.04972375693
 20
-9779.195474264501
 30
0.0
 11
-15361.04972375693
 21
-9704.195474264507
 31
0.0
  0
LINE
  5
428
330
1F
100
AcDbEntity
  8
0-3_仕上
  6
Continuous
 62
     7
370
     9
100
AcDbLine
 10
-14931.04972375691
 20
-10643.12815668229
 30
0.0
 11
-14931.04972375691
 21
-10845.98746908574
 31
0.0
  0
LINE
  5
429
330
1F
100
AcDbEntity
  8
0-2_柱
  6
Continuous
 62
     7
370
     9
100
AcDbLine
 10
-15061.04972375691
 20
-10643.12815668229
 30
0.0
 11
-14791.04972375691
 21
-10643.12815668229
 31
0.0
  0
LINE
  5
42A
330
1F
100
AcDbEntity
  8
0-2_柱
  6
Continuous
 62
     7
370
     9
100
AcDbLine
 10
-14481.04972375691
 20
-10643.12815668229
 30
0.0
 11
-14211.04972375691
 21
-10643.12815668229
 31
0.0
  0
LINE
  5
42B
330
1F
100
AcDbEntity
  8
0-2_柱
  6
Continuous
 62
     7
370
     9
100
AcDbLine
 10
-14791.04972375691
 20
-10543.12815668229
 30
0.0
 11
-14481.04972375691
 21
-10543.12815668229
 31
0.0
  0
LINE
  5
42C
330
1F
100
AcDbEntity
  8
0-3_仕上
  6
Continuous
 62
     7
370
     9
100
AcDbLine
 10
-10861.04972375691
 20
-10643.12815668229
 30
0.0
 11
-10861.04972375691
 21
-10843.12815668229
 31
0.0
  0
LINE
  5
42D
330
1F
100
AcDbEntity
  8
0-2_柱
  6
Continuous
 62
     7
370
     9
100
AcDbLine
 10
-11001.04972375691
 20
-10643.12815668229
 30
0.0
 11
-10731.04972375691
 21
-10643.12815668229
 31
0.0
  0
LINE
  5
42E
330
1F
100
AcDbEntity
  8
0-2_柱
  6
Continuous
 62
     7
370
     9
100
AcDbLine
 10
-11311.04972375691
 20
-10543.12815668229
 30
0.0
 11
-11001.04972375691
 21
-10543.12815668229
 31
0.0
  0
LINE
  5
42F
330
1F
100
AcDbEntity
  8
0-2_柱
  6
Continuous
 62
     7
370
     9
100
AcDbLine
 10
-11581.04972375691
 20
-10643.12815668229
 30
0.0
 11
-11311.04972375691
 21
-10643.12815668229
 31
0.0
  0
LINE
  5
430
330
1F
100
AcDbEntity
  8
0-2_柱
  6
Continuous
 62
     7
370
     9
100
AcDbLine
 10
-11891.04972375691
 20
-10543.12815668229
 30
0.0
 11
-11581.04972375691
 21
-10543.12815668229
 31
0.0
  0
LINE
  5
431
330
1F
100
AcDbEntity
  8
0-2_柱
  6
Continuous
 62
     7
370
     9
100
AcDbLine
 10
-12471.04972375691
 20
-10543.12815668229
 30
0.0
 11
-12161.04972375691
 21
-10543.12815668229
 31
0.0
  0
LINE
  5
432
330
1F
100
AcDbEntity
  8
0-2_柱
  6
Continuous
 62
     7
370
     9
100
AcDbLine
 10
-12161.04972375691
 20
-10643.12815668229
 30
0.0
 11
-11891.04972375691
 21
-10643.12815668229
 31
0.0
  0
LINE
  5
433
330
1F
100
AcDbEntity
  8
0-2_柱
  6
Continuous
 62
     7
370
     9
100
AcDbLine
 10
-12741.04972375691
 20
-10643.12815668229
 30
0.0
 11
-12471.04972375691
 21
-10643.12815668229
 31
0.0
  0
LINE
  5
434
330
1F
100
AcDbEntity
  8
0-2_柱
  6
Continuous
 62
     7
370
     9
100
AcDbLine
 10
-13051.04972375691
 20
-10543.12815668229
 30
0.0
 11
-12741.04972375691
 21
-10543.12815668229
 31
0.0
  0
LINE
  5
435
330
1F
100
AcDbEntity
  8
0-2_柱
  6
Continuous
 62
     7
370
     9
100
AcDbLine
 10
-13901.04972375691
 20
-10643.12815668229
 30
0.0
 11
-13631.04972375691
 21
-10643.12815668229
 31
0.0
  0
LINE
  5
436
330
1F
100
AcDbEntity
  8
0-2_柱
  6
Continuous
 62
     7
370
     9
100
AcDbLine
 10
-13321.04972375691
 20
-10643.12815668229
 30
0.0
 11
-13051.04972375691
 21
-10643.12815668229
 31
0.0
  0
LINE
  5
437
330
1F
100
AcDbEntity
  8
0-2_柱
  6
Continuous
 62
     7
370
     9
100
AcDbLine
 10
-14211.04972375691
 20
-10543.12815668229
 30
0.0
 11
-13901.04972375691
 21
-10543.12815668229
 31
0.0
  0
LINE
  5
438
330
1F
100
AcDbEntity
  8
0-2_柱
  6
Continuous
 62
     7
370
     9
100
AcDbLine
 10
-13631.04972375691
 20
-10543.12815668229
 30
0.0
 11
-13321.04972375691
 21
-10543.12815668229
 31
0.0
  0
LINE
  5
439
330
1F
100
AcDbEntity
  8
0-0_補助線
  6
JWW_HOJO
 62
     3
370
     9
100
AcDbLine
 10
-15061.04972375691
 20
-10643.12815668229
 30
0.0
 11
-17867.40331491713
 21
-10653.12815668229
 31
0.0
  0
LINE
  5
43A
330
1F
100
AcDbEntity
  8
0-3_仕上
  6
Continuous
 62
     7
370
     9
100
AcDbLine
 10
-10731.04972375691
 20
-525.4093224019648
 30
0.0
 11
-10731.04972375691
 21
-10643.12815668229
 31
0.0
  0
LINE
  5
43B
330
1F
100
AcDbEntity
  8
0-3_仕上
  6
Continuous
 62
     7
370
     9
100
AcDbLine
 10
-11001.04972375691
 20
-525.4093224019648
 30
0.0
 11
-11001.04972375691
 21
-10643.12815668229
 31
0.0
  0
LINE
  5
43C
330
1F
100
AcDbEntity
  8
0-3_仕上
  6
Continuous
 62
     7
370
     9
100
AcDbLine
 10
-11311.04972375691
 20
-525.4093224019648
 30
0.0
 11
-11311.04972375691
 21
-10643.12815668229
 31
0.0
  0
LINE
  5
43D
330
1F
100
AcDbEntity
  8
0-3_仕上
  6
Continuous
 62
     7
370
     9
100
AcDbLine
 10
-11581.04972375691
 20
-525.4093224019648
 30
0.0
 11
-11581.04972375691
 21
-10643.12815668229
 31
0.0
  0
LINE
  5
43E
330
1F
100
AcDbEntity
  8
0-3_仕上
  6
Continuous
 62
     7
370
     9
100
AcDbLine
 10
-11891.04972375691
 20
-525.4093224019648
 30
0.0
 11
-11891.04972375691
 21
-10643.12815668229
 31
0.0
  0
LINE
  5
43F
330
1F
100
AcDbEntity
  8
0-3_仕上
  6
Continuous
 62
     7
370
     9
100
AcDbLine
 10
-12161.04972375691
 20
-525.4093224019648
 30
0.0
 11
-12161.04972375691
 21
-10643.12815668229
 31
0.0
  0
LINE
  5
440
330
1F
100
AcDbEntity
  8
0-3_仕上
  6
Continuous
 62
     7
370
     9
100
AcDbLine
 10
-12471.04972375691
 20
-525.4093224019648
 30
0.0
 11
-12471.04972375691
 21
-10643.12815668229
 31
0.0
  0
LINE
  5
441
330
1F
100
AcDbEntity
  8
0-3_仕上
  6
Continuous
 62
     7
370
     9
100
AcDbLine
 10
-12741.04972375691
 20
-525.4093224019648
 30
0.0
 11
-12741.04972375691
 21
-10643.12815668229
 31
0.0
  0
LINE
  5
442
330
1F
100
AcDbEntity
  8
0-3_仕上
  6
Continuous
 62
     7
370
     9
100
AcDbLine
 10
-13051.04972375691
 20
-525.4093224019648
 30
0.0
 11
-13051.04972375691
 21
-10643.12815668229
 31
0.0
  0
LINE
  5
443
330
1F
100
AcDbEntity
  8
0-3_仕上
  6
Continuous
 62
     7
370
     9
100
AcDbLine
 10
-13321.04972375691
 20
-525.4093224019648
 30
0.0
 11
-13321.04972375691
 21
-10643.12815668229
 31
0.0
  0
LINE
  5
444
330
1F
100
AcDbEntity
  8
0-3_仕上
  6
Continuous
 62
     7
370
     9
100
AcDbLine
 10
-13631.04972375691
 20
-525.4093224019648
 30
0.0
 11
-13631.04972375691
 21
-10643.12815668229
 31
0.0
  0
LINE
  5
445
330
1F
100
AcDbEntity
  8
0-3_仕上
  6
Continuous
 62
     7
370
     9
100
AcDbLine
 10
-13901.04972375691
 20
-525.4093224019648
 30
0.0
 11
-13901.04972375691
 21
-10643.12815668229
 31
0.0
  0
LINE
  5
446
330
1F
100
AcDbEntity
  8
0-3_仕上
  6
Continuous
 62
     7
370
     9
100
AcDbLine
 10
-14211.04972375691
 20
-525.4093224019648
 30
0.0
 11
-14211.04972375691
 21
-10643.12815668229
 31
0.0
  0
LINE
  5
447
330
1F
100
AcDbEntity
  8
0-3_仕上
  6
Continuous
 62
     7
370
     9
100
AcDbLine
 10
-14481.04972375691
 20
-525.4093224019648
 30
0.0
 11
-14481.04972375691
 21
-10643.12815668229
 31
0.0
  0
LINE
  5
448
330
1F
100
AcDbEntity
  8
0-3_仕上
  6
Continuous
 62
     7
370
     9
100
AcDbLine
 10
-14791.04972375691
 20
-525.4093224019648
 30
0.0
 11
-14791.04972375691
 21
-10643.12815668229
 31
0.0
  0
LINE
  5
449
330
1F
100
AcDbEntity
  8
0-2_柱
  6
Continuous
 62
     7
370
     9
100
AcDbLine
 10
-15061.04972375691
 20
-525.4093224019648
 30
0.0
 11
-15061.04972375691
 21
-10643.12815668229
 31
0.0
  0
LWPOLYLINE
  5
44A
330
1F
100
AcDbEntity
  8
0-B_寸法
  6
Continuous
 62
     3
370
     9
100
AcDbPolyline
 90
        4
 70
     1
 43
20.0
 10
-8946.906077348067
 20
-10643.12815668229
 42
0.4142135623731
 10
-8956.906077348067
 20
-10633.12815668229
 42
0.4142135623731
 10
-8966.906077348067
 20
-10643.12815668229
 42
0.4142135623731
 10
-8956.906077348067
 20
-10653.12815668229
 42
0.4142135623731
  0
LINE
  5
44B
330
1F
100
AcDbEntity
  8
0-B_寸法
  6
Continuous
 62
     3
370
     9
100
AcDbLine
 10
-8956.906077348067
 20
-10643.12815668229
 30
0.0
 11
-10117.1270718232
 21
-10643.12815668229
 31
0.0
  0
LINE
  5
44C
330
1F
100
AcDbEntity
  8
0-B_寸法
  6
Continuous
 62
     3
370
     9
100
AcDbLine
 10
-8956.906077348067
 20
-10643.12815668229
 30
0.0
 11
-8956.906077348067
 21
-10773.12815668229
 31
0.0
  0
LINE
  5
44D
330
1F
100
AcDbEntity
  8
0-B_寸法
  6
Continuous
 62
     4
370
     5
100
AcDbLine
 10
-8956.906077348067
 20
-10643.12815668229
 30
0.0
 11
-8956.906077348067
 21
-10813.12815668229
 31
0.0
  0
LWPOLYLINE
  5
44E
330
1F
100
AcDbEntity
  8
0-B_寸法
  6
Continuous
 62
     4
370
     5
100
AcDbPolyline
 90
        4
 70
     1
 43
20.0
 10
-8946.906077348067
 20
-10643.12815668229
 42
0.4142135623731
 10
-8956.906077348067
 20
-10633.12815668229
 42
0.4142135623731
 10
-8966.906077348067
 20
-10643.12815668229
 42
0.4142135623731
 10
-8956.906077348067
 20
-10653.12815668229
 42
0.4142135623731
  0
LINE
  5
44F
330
1F
100
AcDbEntity
  8
0-B_寸法
  6
Continuous
 62
     4
370
     5
100
AcDbLine
 10
-8956.906077348067
 20
-10643.12815668229
 30
0.0
 11
-10117.1270718232
 21
-10643.12815668229
 31
0.0
  0
LINE
  5
450
330
1F
100
AcDbEntity
  8
0-B_寸法
  6
Continuous
 62
     3
370
     9
100
AcDbLine
 10
-8956.906077348065
 20
9960.214384317707
 30
0.0
 11
-8956.906077348067
 21
-10643.12815668229
 31
0.0
  0
TEXT
  5
451
330
1F
100
AcDbEntity
  8
0-B_寸法
  6
Continuous
 62
     7
370
     0
100
AcDbText
 10
-9049.206077348064
 20
-1023.956886182292
 30
0.0
 40
228.6
  1
2,365
 50
90.0
 41
1.133333333333333
  7
ＭＳ ゴシック
100
AcDbText
  0
TEXT
  5
452
330
1F
100
AcDbEntity
  8
0-B_寸法
  6
Continuous
 62
     7
370
   211
100
AcDbText
 10
-9047.772455871176
 20
-10592.08455647557
 30
0.0
 40
190.5
  1
15
 50
90.0
  7
ＭＳ ゴシック
100
AcDbText
  0
TEXT
  5
453
330
1F
100
AcDbEntity
  8
0-A_文字
  6
Continuous
 62
     7
370
     0
100
AcDbText
 10
10361.94833382517
 20
6224.536995116495
 30
0.0
 40
228.6
  1
789
 50
90.0
 41
1.111111111111111
  7
ＭＳ ゴシック
100
AcDbText
  0
TEXT
  5
454
330
1F
100
AcDbEntity
  8
0-A_文字
  6
Continuous
 62
     7
370
     0
100
AcDbText
 10
15089.13071973799
 20
-9931.650739059034
 30
0.0
 40
228.6
  1
15
 50
90.0
 41
1.083333333333333
  7
ＭＳ ゴシック
100
AcDbText
  0
TEXT
  5
455
330
1F
100
AcDbEntity
  8
0-A_文字
  6
Continuous
 62
     7
370
     0
100
AcDbText
 10
15123.6802722947
 20
5.818120211995395
 30
0.0
 40
228.6
  1
2,365
 50
90.0
 41
1.133333333333333
  7
ＭＳ ゴシック
100
AcDbText
  0
TEXT
  5
456
330
1F
100
AcDbEntity
  8
0-A_文字
  6
Continuous
 62
     7
370
     0
100
AcDbText
 10
10361.94833382517
 20
-279.6342753835063
 30
0.0
 40
228.6
  1
787
 50
90.0
 41
1.111111111111111
  7
ＭＳ ゴシック
100
AcDbText
  0
TEXT
  5
457
330
1F
100
AcDbEntity
  8
0-A_文字
  6
Continuous
 62
     7
370
     0
100
AcDbText
 10
10361.94833382517
 20
-6433.805545883513
 30
0.0
 40
228.6
  1
789
 50
90.0
 41
1.111111111111111
  7
ＭＳ ゴシック
100
AcDbText
  0
TEXT
  5
458
330
1F
100
AcDbEntity
  8
0-B_寸法
  6
Continuous
 62
     7
370
     0
100
AcDbText
 10
-18022.38824068498
 20
5655.214384317708
 30
0.0
 40
228.6
  1
789
 50
90.0
 41
1.111111111111111
  7
ＭＳ ゴシック
100
AcDbText
  0
TEXT
  5
459
330
1F
100
AcDbEntity
  8
0-B_寸法
  6
Continuous
 62
     7
370
     0
100
AcDbText
 10
-18022.38824068498
 20
-7003.128156682295
 30
0.0
 40
228.6
  1
789
 50
90.0
 41
1.111111111111111
  7
ＭＳ ゴシック
100
AcDbText
  0
LINE
  5
45A
330
1F
100
AcDbEntity
  8
F-0ﾚｲﾔ
  6
JWW_HOJO
 62
     4
370
     5
100
AcDbLine
 10
-21000.0
 20
-14850.0
 30
0.0
 11
-21000.0
 21
14749.99868032095
 31
0.0
  0
LINE
  5
45B
330
1F
100
AcDbEntity
  8
F-0ﾚｲﾔ
  6
JWW_HOJO
 62
     4
370
     5
100
AcDbLine
 10
-21000.0
 20
14749.99868032095
 30
0.0
 11
19999.99670080236
 21
14749.99868032095
 31
0.0
  0
LINE
  5
45C
330
1F
100
AcDbEntity
  8
F-0ﾚｲﾔ
  6
JWW_HOJO
 62
     4
370
     5
100
AcDbLine
 10
19999.99670080236
 20
14749.99868032095
 30
0.0
 11
19999.99670080236
 21
-14850.0
 31
0.0
  0
LINE
  5
45D
330
1F
100
AcDbEntity
  8
F-0ﾚｲﾔ
  6
JWW_HOJO
 62
     4
370
     5
100
AcDbLine
 10
19999.99670080236
 20
-14850.0
 30
0.0
 11
-21000.0
 21
-14850.0
 31
0.0
  0
LINE
  5
45E
330
1F
100
AcDbEntity
  8
F-0ﾚｲﾔ
  6
Continuous
 62
   200
370
     5
100
AcDbLine
 10
18999.99587600296
 20
13916.66589685388
 30
0.0
 11
18999.99587600296
 21
-14016.66721653294
 31
0.0
  0
LINE
  5
45F
330
1F
100
AcDbEntity
  8
F-0ﾚｲﾔ
  6
Continuous
 62
   200
370
     5
100
AcDbLine
 10
-19999.99994845003
 20
13916.66589685388
 30
0.0
 11
-19999.99994845003
 21
-14016.66721653294
 31
0.0
  0
LINE
  5
460
330
1F
100
AcDbEntity
  8
F-0ﾚｲﾔ
  6
Continuous
 62
   200
370
     5
100
AcDbLine
 10
-19966.66663401835
 20
13916.66589685388
 30
0.0
 11
-19966.66663401835
 21
-14016.66721653294
 31
0.0
  0
LINE
  5
461
330
1F
100
AcDbEntity
  8
F-0ﾚｲﾔ
  6
Continuous
 62
   200
370
     5
100
AcDbLine
 10
-19983.33325257173
 20
13916.66589685388
 30
0.0
 11
-19983.33325257173
 21
-14016.66721653294
 31
0.0
  0
LINE
  5
462
330
1F
100
AcDbEntity
  8
F-0ﾚｲﾔ
  6
Continuous
 62
   200
370
     5
100
AcDbLine
 10
18983.32832955026
 20
13916.66589685388
 30
0.0
 11
18983.32832955026
 21
-14016.66721653294
 31
0.0
  0
LINE
  5
463
330
1F
100
AcDbEntity
  8
F-0ﾚｲﾔ
  6
Continuous
 62
   200
370
     5
100
AcDbLine
 10
18966.66325749578
 20
13916.66589685388
 30
0.0
 11
18966.66325749578
 21
-14016.66721653294
 31
0.0
  0
LINE
  5
464
330
1F
100
AcDbEntity
  8
F-0ﾚｲﾔ
  6
Continuous
 62
   200
370
     5
100
AcDbLine
 10
-19999.9991752006
 20
13916.66589685388
 30
0.0
 11
18999.99587600296
 21
13916.66589685388
 31
0.0
  0
LINE
  5
465
330
1F
100
AcDbEntity
  8
F-0ﾚｲﾔ
  6
Continuous
 62
   200
370
     5
100
AcDbLine
 10
-19999.9991752006
 20
13883.33327834671
 30
0.0
 11
18999.99587600296
 21
13883.33327834671
 31
0.0
  0
LINE
  5
466
330
1F
100
AcDbEntity
  8
F-0ﾚｲﾔ
  6
Continuous
 62
   200
370
     5
100
AcDbLine
 10
-19999.9991752006
 20
13899.99835040118
 30
0.0
 11
18999.99587600296
 21
13899.99835040118
 31
0.0
  0
TEXT
  5
467
330
1F
100
AcDbEntity
  8
F-Aﾚｲﾔ
  6
Continuous
 62
     7
370
     0
100
AcDbText
 10
17300.65316947357
 20
-14309.45147956619
 30
0.0
 40
228.6
  1
,
 41
0.9999999999999998
  7
ＭＳ ゴシック
100
AcDbText
  0
TEXT
  5
468
330
1F
100
AcDbEntity
  8
F-Aﾚｲﾔ
  6
Continuous
 62
     7
370
     0
100
AcDbText
 10
16413.12420638458
 20
-14314.09822429427
 30
0.0
 40
228.6
  1
$y
 41
1.083333333333333
  7
ＭＳ ゴシック
100
AcDbText
  0
TEXT
  5
469
330
1F
100
AcDbEntity
  8
F-Aﾚｲﾔ
  6
Continuous
 62
     7
370
     0
100
AcDbText
 10
16928.91327651398
 20
-14314.09822429427
 30
0.0
 40
228.6
  1
$m
 41
1.083333333333333
  7
ＭＳ ゴシック
100
AcDbText
  0
TEXT
  5
46A
330
1F
100
AcDbEntity
  8
F-Aﾚｲﾔ
  6
Continuous
 62
     7
370
     0
100
AcDbText
 10
17444.70238479034
 20
-14314.09822429427
 30
0.0
 40
228.6
  1
$d
 41
1.083333333333333
  7
ＭＳ ゴシック
100
AcDbText
  0
TEXT
  5
46B
330
1F
100
AcDbEntity
  8
F-Aﾚｲﾔ
  6
Continuous
 62
     7
370
     0
100
AcDbText
 10
17960.49149306671
 20
-14314.09822429427
 30
0.0
 40
228.6
  1
印刷
 41
1.083333333333333
  7
ＭＳ ゴシック
100
AcDbText
  0
TEXT
  5
46C
330
1F
100
AcDbEntity
  8
F-Aﾚｲﾔ
  6
Continuous
 62
     7
370
     0
100
AcDbText
 10
16770.92381270781
 20
-14318.74497855911
 30
0.0
 40
228.6
  1
,
 41
0.9999999999999998
  7
ＭＳ ゴシック
100
AcDbText
  0
TEXT
  5
46D
330
1F
100
AcDbEntity
  8
F-Aﾚｲﾔ
  6
Continuous
 62
     7
370
     0
100
AcDbText
 10
18694.67770369904
 20
-14304.80473006973
 30
0.0
 40
228.6
  1
）
 41
0.9999999999999998
  7
ＭＳ ゴシック
100
AcDbText
  0
TEXT
  5
46E
330
1F
100
AcDbEntity
  8
F-Aﾚｲﾔ
  6
Continuous
 62
     7
370
     0
100
AcDbText
 10
15946.77791417666
 20
-14318.74497855911
 30
0.0
 40
228.6
  1
（
 41
0.9999999999999998
  7
ＭＳ ゴシック
100
AcDbText
  0
LINE
  5
46F
330
1F
100
AcDbEntity
  8
F-0ﾚｲﾔ
  6
JWW_HOJO
 62
     7
370
     9
100
AcDbLine
 10
2833.331958667654
 20
-12650.00055158461
 30
0.0
 11
2833.331958667654
 21
-13983.33390210126
 31
0.0
  0
LINE
  5
470
330
1F
100
AcDbEntity
  8
F-0ﾚｲﾔ
  6
JWW_HOJO
 62
     7
370
     9
100
AcDbLine
 10
1166.666391733531
 20
-12650.00055158461
 30
0.0
 11
1166.666391733531
 21
-13983.33390210126
 31
0.0
  0
LINE
  5
471
330
1F
100
AcDbEntity
  8
F-1ﾚｲﾔ
  6
Continuous
 62
   200
370
     5
100
AcDbLine
 10
18999.99587600296
 20
-14016.66721653294
 30
0.0
 11
-19999.9991752006
 21
-14016.66721653294
 31
0.0
  0
LINE
  5
472
330
1F
100
AcDbEntity
  8
F-1ﾚｲﾔ
  6
Continuous
 62
   200
370
     5
100
AcDbLine
 10
18999.99587600296
 20
-14000.00052065463
 30
0.0
 11
-19999.9991752006
 21
-14000.00052065463
 31
0.0
  0
LINE
  5
473
330
1F
100
AcDbEntity
  8
F-1ﾚｲﾔ
  6
Continuous
 62
   200
370
     5
100
AcDbLine
 10
18999.99587600296
 20
-13983.33390210126
 30
0.0
 11
-19999.9991752006
 21
-13983.33390210126
 31
0.0
  0
LINE
  5
474
330
1F
100
AcDbEntity
  8
F-1ﾚｲﾔ
  6
Continuous
 62
   200
370
     5
100
AcDbLine
 10
13966.66408229519
 20
-12650.00055158461
 30
0.0
 11
13966.66408229519
 21
-13983.33390210126
 31
0.0
  0
LINE
  5
475
330
1F
100
AcDbEntity
  8
F-1ﾚｲﾔ
  6
Continuous
 62
   200
370
     5
100
AcDbLine
 10
8966.662432696372
 20
-12650.00055158461
 30
0.0
 11
8966.662432696372
 21
-13983.33390210126
 31
0.0
  0
LINE
  5
476
330
1F
100
AcDbEntity
  8
F-1ﾚｲﾔ
  6
Continuous
 62
   200
370
     5
100
AcDbLine
 10
-500.000412399703
 20
-12650.00055158461
 30
0.0
 11
-500.000412399703
 21
-13983.33390210126
 31
0.0
  0
LINE
  5
477
330
1F
100
AcDbEntity
  8
F-1ﾚｲﾔ
  6
Continuous
 62
   200
370
     5
100
AcDbLine
 10
-500.000412399703
 20
-13316.6669948681
 30
0.0
 11
18966.66325749578
 21
-13316.68508890513
 31
0.0
  0
LINE
  5
478
330
1F
100
AcDbEntity
  8
F-0ﾚｲﾔ
  6
JWW_HOJO
 62
     7
370
     9
100
AcDbLine
 10
-19966.66663401835
 20
-13316.66699486925
 30
0.0
 11
-500.000412399703
 21
-13316.66699486925
 31
0.0
  0
LINE
  5
479
330
1F
100
AcDbEntity
  8
F-0ﾚｲﾔ
  6
JWW_HOJO
 62
     7
370
     9
100
AcDbLine
 10
-19966.66663401835
 20
-13016.66699486925
 30
0.0
 11
-500.000412399703
 21
-13016.66699486925
 31
0.0
  0
LINE
  5
47A
330
1F
100
AcDbEntity
  8
F-0ﾚｲﾔ
  6
JWW_HOJO
 62
     7
370
     9
100
AcDbLine
 10
-19966.66663401835
 20
-13616.66699486925
 30
0.0
 11
-500.000412399703
 21
-13616.66699486925
 31
0.0
  0
LINE
  5
47B
330
1F
100
AcDbEntity
  8
F-0ﾚｲﾔ
  6
JWW_HOJO
 62
     7
370
     9
100
AcDbLine
 10
-500.000861651796
 20
-13799.99967386789
 30
0.0
 11
18966.66280824368
 21
-13800.01776790492
 31
0.0
  0
LINE
  5
47C
330
1F
100
AcDbEntity
  8
F-0ﾚｲﾔ
  6
JWW_HOJO
 62
     7
370
     9
100
AcDbLine
 10
-500.0005828052906
 20
-13499.99967386802
 30
0.0
 11
18966.66308709019
 21
-13500.01776790505
 31
0.0
  0
LINE
  5
47D
330
1F
100
AcDbEntity
  8
F-0ﾚｲﾔ
  6
JWW_HOJO
 62
     7
370
     9
100
AcDbLine
 10
-500.0002419928904
 20
-13133.33299866818
 30
0.0
 11
18966.66342790259
 21
-13133.35109270521
 31
0.0
  0
LINE
  5
47E
330
1F
100
AcDbEntity
  8
F-0ﾚｲﾔ
  6
JWW_HOJO
 62
     7
370
     9
100
AcDbLine
 10
-499.9999631463851
 20
-12833.33299866831
 30
0.0
 11
18966.6637067491
 21
-12833.35109270534
 31
0.0
  0
LINE
  5
47F
330
1F
100
AcDbEntity
  8
F-0ﾚｲﾔ
  6
JWW_HOJO
 62
     7
370
     9
100
AcDbLine
 10
9266.662432696372
 20
-12650.00055158461
 30
0.0
 11
9266.662432696372
 21
-13983.33390210126
 31
0.0
  0
LINE
  5
480
330
1F
100
AcDbEntity
  8
F-0ﾚｲﾔ
  6
JWW_HOJO
 62
     7
370
     9
100
AcDbLine
 10
-200.000412399703
 20
-12650.00055158461
 30
0.0
 11
-200.000412399703
 21
-13983.33390210126
 31
0.0
  0
LINE
  5
481
330
1F
100
AcDbEntity
  8
F-0ﾚｲﾔ
  6
JWW_HOJO
 62
     7
370
     9
100
AcDbLine
 10
14266.66408229519
 20
-12650.00055158461
 30
0.0
 11
14266.66408229519
 21
-13983.33390210126
 31
0.0
  0
TEXT
  5
482
330
1F
100
AcDbEntity
  8
F-Aﾚｲﾔ
  6
Continuous
 62
     7
370
     0
100
AcDbText
 10
14266.66408229519
 20
-12905.14672411046
 30
0.0
 40
152.4
  1
ＤＡＴＥ
  7
ＭＳ ゴシック
100
AcDbText
  0
TEXT
  5
483
330
1F
100
AcDbEntity
  8
F-Aﾚｲﾔ
  6
Continuous
 62
     7
370
     0
100
AcDbText
 10
14266.66408229519
 20
-13571.81339931074
 30
0.0
 40
152.4
  1
ＮＯ．
  7
ＭＳ ゴシック
100
AcDbText
  0
TEXT
  5
484
330
1F
100
AcDbEntity
  8
F-Aﾚｲﾔ
  6
Continuous
 62
     7
370
     0
100
AcDbText
 10
9266.662432696372
 20
-12905.14207666719
 30
0.0
 40
152.4
  1
ＳＣＡＬＥ
 41
0.9999999999999999
  7
ＭＳ ゴシック
100
AcDbText
  0
TEXT
  5
485
330
1F
100
AcDbEntity
  8
F-Aﾚｲﾔ
  6
Continuous
 62
     7
370
     0
100
AcDbText
 10
9266.662432696372
 20
-13571.80875186748
 30
0.0
 40
152.4
  1
ＦＩＬＥ
  7
ＭＳ ゴシック
100
AcDbText
  0
TEXT
  5
486
330
1F
100
AcDbEntity
  8
F-Aﾚｲﾔ
  6
Continuous
 62
     7
370
     0
100
AcDbText
 10
-200.000412399703
 20
-12905.1332775144
 30
0.0
 40
152.4
  1
図面名
  7
ＭＳ ゴシック
100
AcDbText
  0
TEXT
  5
487
330
1F
100
AcDbEntity
  8
F-Aﾚｲﾔ
  6
Continuous
 62
     7
370
     0
100
AcDbText
 10
4816.66243269637
 20
-13793.60847302104
 30
0.0
 40
304.8
  1
ウッドワン・・・
 41
1.109375
  7
ＭＳ ゴシック
100
AcDbText
  0
TEXT
  5
488
330
1F
100
AcDbEntity
  8
F-Aﾚｲﾔ
  6
Continuous
 62
     7
370
     0
100
AcDbText
 10
4116.66243269637
 20
-13601.80277216177
 30
0.0
 40
152.4
  1
株式
  7
ＭＳ ゴシック
100
AcDbText
  0
TEXT
  5
489
330
1F
100
AcDbEntity
  8
F-Aﾚｲﾔ
  6
Continuous
 62
     7
370
     0
100
AcDbText
 10
4116.66243269637
 20
-13841.8027721619
 30
0.0
 40
152.4
  1
会社
  7
ＭＳ ゴシック
100
AcDbText
  0
LINE
  5
48A
330
1F
100
AcDbEntity
  8
F-1ﾚｲﾔ
  6
Continuous
 62
   200
370
     5
100
AcDbLine
 10
18999.99587600296
 20
-12650.00055158461
 30
0.0
 11
-19999.9991752006
 21
-12650.00055158461
 31
0.0
  0
LINE
  5
48B
330
1F
100
AcDbEntity
  8
F-1ﾚｲﾔ
  6
Continuous
 62
   200
370
     5
100
AcDbLine
 10
18999.99587600296
 20
-12633.33393303124
 30
0.0
 11
-19999.9991752006
 21
-12633.33393303124
 31
0.0
  0
LINE
  5
48C
330
1F
100
AcDbEntity
  8
F-0ﾚｲﾔ
  6
JWW_HOJO
 62
     7
370
     9
100
AcDbLine
 10
-17491.82458917613
 20
-12650.00055158461
 30
0.0
 11
-17491.82458917613
 21
-14016.66775780755
 31
0.0
  0
LINE
  5
48D
330
1F
100
AcDbEntity
  8
F-0ﾚｲﾔ
  6
JWW_HOJO
 62
     7
370
     9
100
AcDbLine
 10
-700.000412399703
 20
-12650.00055158461
 30
0.0
 11
-700.000412399703
 21
-13983.33390210126
 31
0.0
  0
TEXT
  5
48E
330
1F
100
AcDbEntity
  8
F-Aﾚｲﾔ
  6
Continuous
 62
     7
370
     9
100
AcDbText
 10
16454.16344526943
 20
-13757.7155836079
 30
0.0
 40
228.6
  1
01
 41
1.083333333333333
  7
ＭＳ ゴシック
100
AcDbText
  0
TEXT
  5
48F
330
1F
100
AcDbEntity
  8
F-Aﾚｲﾔ
  6
Continuous
 62
     7
370
     0
100
AcDbText
 10
1166.666391733531
 20
-13091.0345478154
 30
0.0
 40
220.2
  1
ＪＵＰＩＮＯ・Ｊ
 41
0.8333333333333334
  7
HG明朝B
100
AcDbText
  0
TEXT
  5
490
330
1F
100
AcDbEntity
  8
F-Aﾚｲﾔ
  6
Continuous
 62
     7
370
     0
100
AcDbText
 10
15929.16375509889
 20
-13066.04890840783
 30
0.0
 40
228.6
  1
06.06.13
 41
1.145833333333333
  7
ＭＳ ゴシック
100
AcDbText
  0
TEXT
  5
491
330
1F
100
AcDbEntity
  8
F-Aﾚｲﾔ
  6
Continuous
 62
     7
370
     0
100
AcDbText
 10
11279.16325749578
 20
-13091.0442609657
 30
0.0
 40
228.6
  1
1/10
 41
1.125
  7
ＭＳ ゴシック
100
AcDbText
  0
TEXT
  5
492
330
1F
100
AcDbEntity
  8
F-Aﾚｲﾔ
  6
Continuous
 62
     7
370
     0
100
AcDbText
 10
3934.725673012397
 20
-13091.03441327408
 30
0.0
 40
228.6
  1
格子ｽｸﾘｰﾝ納まり図
 41
1.147058823529411
  7
ＭＳ ゴシック
100
AcDbText
  0
TEXT
  5
493
330
1F
100
AcDbEntity
  8
F-Aﾚｲﾔ
  6
Continuous
 62
     7
370
     0
100
AcDbText
 10
-17466.66663401835
 20
-13424.36699486925
 30
0.0
 40
228.6
  1
ジュピーノ・Ｊ　たて格子スクリーンパネル　１セットの場合
 41
1.160714285714285
  7
ＭＳ ゴシック
100
AcDbText
  0
TEXT
  5
494
330
1F
100
AcDbEntity
  8
F-Aﾚｲﾔ
  6
Continuous
 62
     7
370
     9
100
AcDbText
 10
10491.66325749578
 20
-13757.71093616599
 30
0.0
 40
228.6
  1
SJSP-0433_S02
 41
1.153846153846154
  7
ＭＳ ゴシック
100
AcDbText
  0
ENDSEC
  0
SECTION
  2
OBJECTS
  0
DICTIONARY
  5
C
330
0
100
AcDbDictionary
281
     1
  3
ACAD_DETAILVIEWSTYLE
350
4CC
  3
ACAD_GROUP
350
D
  3
ACAD_LAYOUT
350
1A
  3
ACAD_MATERIAL
350
43
  3
ACAD_MLEADERSTYLE
350
6B
  3
ACAD_MLINESTYLE
350
17
  3
ACAD_PLOTSETTINGS
350
19
  3
ACAD_PLOTSTYLENAME
350
E
  3
ACAD_SCALELIST
350
47
  3
ACAD_SECTIONVIEWSTYLE
350
4CD
  3
ACAD_TABLESTYLE
350
69
  3
ACAD_VISUALSTYLE
350
2A
  3
ACDB_RECOMPOSE_DATA
350
4C9
  3
AcDbVariableDictionary
350
495
  0
SUN
  5
6D
330
29
100
AcDbSun
 90
        1
290
     0
 63
     7
421
 16777215
 40
1.0
291
     1
 91
  2455826
 92
 54000000
292
     0
 70
     2
 71
   256
280
     1
  0
DICTIONARY
  5
4CC
102
{ACAD_REACTORS
330
C
102
}
330
C
100
AcDbDictionary
281
     1
  0
DICTIONARY
  5
D
102
{ACAD_REACTORS
330
C
102
}
330
C
100
AcDbDictionary
281
     1
  0
DICTIONARY
  5
1A
102
{ACAD_REACTORS
330
C
102
}
330
C
100
AcDbDictionary
281
     1
  3
Layout1
350
1E
  3
Layout2
350
26
  3
Model
350
22
  0
DICTIONARY
  5
43
102
{ACAD_REACTORS
330
C
102
}
330
C
100
AcDbDictionary
281
     1
  3
ByBlock
350
45
  3
ByLayer
350
44
  3
Global
350
46
  0
DICTIONARY
  5
6B
102
{ACAD_REACTORS
330
C
102
}
330
C
100
AcDbDictionary
281
     1
  3
Standard
350
6C
  0
DICTIONARY
  5
17
102
{ACAD_REACTORS
330
C
102
}
330
C
100
AcDbDictionary
281
     1
  3
Standard
350
18
  0
DICTIONARY
  5
19
102
{ACAD_REACTORS
330
C
102
}
330
C
100
AcDbDictionary
281
     1
  0
ACDBDICTIONARYWDFLT
  5
E
102
{ACAD_REACTORS
330
C
102
}
330
C
100
AcDbDictionary
281
     1
  3
Normal
350
F
100
AcDbDictionaryWithDefault
340
F
  0
DICTIONARY
  5
47
102
{ACAD_REACTORS
330
C
102
}
330
C
100
AcDbDictionary
281
     1
  3
A0
350
48
  3
A1
350
49
  3
A2
350
4A
  3
A3
350
4B
  3
A4
350
4C
  3
A5
350
4D
  3
A6
350
4E
  3
A7
350
4F
  3
A8
350
50
  3
A9
350
51
  3
B0
350
52
  3
B1
350
53
  3
B2
350
54
  3
B3
350
55
  3
B4
350
56
  3
B5
350
57
  3
B6
350
58
  3
B7
350
59
  3
B8
350
5A
  3
B9
350
5B
  3
C0
350
5C
  3
C1
350
5D
  3
C2
350
5E
  3
C3
350
5F
  3
C4
350
60
  3
C5
350
61
  3
C6
350
62
  3
C7
350
63
  3
C8
350
64
  3
C9
350
65
  3
D0
350
66
  3
D1
350
67
  3
D2
350
68
  0
DICTIONARY
  5
4CD
102
{ACAD_REACTORS
330
C
102
}
330
C
100
AcDbDictionary
281
     1
  0
DICTIONARY
  5
69
102
{ACAD_REACTORS
330
C
102
}
330
C
100
AcDbDictionary
281
     1
  3
Standard
350
6A
  0
DICTIONARY
  5
2A
102
{ACAD_REACTORS
330
C
102
}
330
C
100
AcDbDictionary
281
     1
  3
2dWireframe
350
2F
  3
Basic
350
32
  3
Brighten
350
36
  3
ColorChange
350
3A
  3
Conceptual
350
34
  3
Dim
350
35
  3
EdgeColorOff
350
3D
  3
Facepattern
350
39
  3
Flat
350
2B
  3
FlatWithEdges
350
2C
  3
Gouraud
350
2D
  3
GouraudWithEdges
350
2E
  3
Hidden
350
31
  3
JitterOff
350
3B
  3
Linepattern
350
38
  3
OverhangOff
350
3C
  3
Realistic
350
33
  3
Shaded
350
42
  3
Shaded with edges
350
41
  3
Shades of Gray
350
3E
  3
Sketchy
350
3F
  3
Thicken
350
37
  3
Wireframe
350
30
  3
X-Ray
350
40
  0
XRECORD
  5
4C9
102
{ACAD_REACTORS
330
C
102
}
330
C
100
AcDbXrecord
280
     1
 90
        1
330
6A
  0
DICTIONARY
  5
495
102
{ACAD_REACTORS
330
C
102
}
330
C
100
AcDbDictionary
281
     1
  3
CANNOSCALE
350
496
  3
CENTEREXE
350
4CE
  3
CENTERLTYPEFILE
350
4CF
  3
CMLEADERSTYLE
350
4CB
  3
CTABLESTYLE
350
4CA
  0
LAYOUT
  5
1E
102
{ACAD_REACTORS
330
1A
102
}
330
1A
100
AcDbPlotSettings
  1

  2
none_device
  4

  6

 40
0.0
 41
0.0
 42
0.0
 43
0.0
 44
0.0
 45
0.0
 46
0.0
 47
0.0
 48
0.0
 49
0.0
140
0.0
141
0.0
142
1.0
143
1.0
 70
   688
 72
     1
 73
     0
 74
     5
  7

 75
    16
 76
     0
 77
     5
 78
   300
147
1.0
148
0.0
149
0.0
100
AcDbLayout
  1
Layout1
 70
     1
 71
     1
 10
0.0
 20
0.0
 11
420.0
 21
297.0
 12
0.0
 22
0.0
 32
0.0
 14
1.000000000000000E+20
 24
1.000000000000000E+20
 34
1.000000000000000E+20
 15
-1.000000000000000E+20
 25
-1.000000000000000E+20
 35
-1.000000000000000E+20
146
0.0
 13
0.0
 23
0.0
 33
0.0
 16
1.0
 26
0.0
 36
0.0
 17
0.0
 27
1.0
 37
0.0
 76
     0
330
1B
  0
LAYOUT
  5
26
102
{ACAD_REACTORS
330
1A
102
}
330
1A
100
AcDbPlotSettings
  1

  2
none_device
  4

  6

 40
0.0
 41
0.0
 42
0.0
 43
0.0
 44
0.0
 45
0.0
 46
0.0
 47
0.0
 48
0.0
 49
0.0
140
0.0
141
0.0
142
1.0
143
1.0
 70
   688
 72
     1
 73
     0
 74
     5
  7

 75
    16
 76
     0
 77
     5
 78
   300
147
1.0
148
0.0
149
0.0
100
AcDbLayout
  1
Layout2
 70
     1
 71
     2
 10
0.0
 20
0.0
 11
0.0
 21
0.0
 12
0.0
 22
0.0
 32
0.0
 14
0.0
 24
0.0
 34
0.0
 15
0.0
 25
0.0
 35
0.0
146
0.0
 13
0.0
 23
0.0
 33
0.0
 16
1.0
 26
0.0
 36
0.0
 17
0.0
 27
1.0
 37
0.0
 76
     0
330
23
  0
LAYOUT
  5
22
102
{ACAD_REACTORS
330
1A
102
}
330
1A
100
AcDbPlotSettings
  1

  2
none_device
  4
Letter_(8.50_x_11.00_Inches)
  6

 40
6.35
 41
6.35
 42
6.35000508
 43
6.35000508
 44
215.9
 45
279.4
 46
0.0
 47
0.0
 48
0.0
 49
0.0
140
0.0
141
0.0
142
1.0
143
1.0
 70
  1712
 72
     1
 73
     0
 74
     0
  7

 75
     0
 76
     0
 77
     5
 78
   300
147
1.0
148
0.0
149
0.0
100
AcDbLayout
  1
Model
 70
     1
 71
     0
 10
-21000.0
 20
-14850.0
 11
21000.0
 21
14850.0
 12
0.0
 22
0.0
 32
0.0
 14
-21000.0
 24
-14850.0
 34
0.0
 15
21000.0
 25
14850.0
 35
0.0
146
0.0
 13
0.0
 23
0.0
 33
0.0
 16
1.0
 26
0.0
 36
0.0
 17
0.0
 27
1.0
 37
0.0
 76
     0
330
1F
331
29
  0
MATERIAL
  5
45
102
{ACAD_REACTORS
330
43
102
}
330
43
100
AcDbMaterial
  1
ByBlock
 72
     1
 94
      127
  0
MATERIAL
  5
44
102
{ACAD_REACTORS
330
43
102
}
330
43
100
AcDbMaterial
  1
ByLayer
 72
     1
 94
      127
  0
MATERIAL
  5
46
102
{ACAD_REACTORS
330
43
102
}
330
43
100
AcDbMaterial
  1
Global
 72
     1
 94
      127
  0
MLEADERSTYLE
  5
6C
102
{ACAD_REACTORS
330
6B
102
}
330
6B
100
AcDbMLeaderStyle
179
     2
170
     2
171
     1
172
     0
 90
        2
 40
0.0
 41
0.0
173
     1
 91
-1056964608
340
14
 92
       -2
290
     1
 42
2.0
291
     1
 43
8.0
  3
Standard
341
0
 44
4.0
300

342
11
174
     1
178
     6
175
     1
176
     0
 93
-1056964608
 45
4.0
292
     0
297
     0
 46
4.0
343
0
 94
-1056964608
 47
1.0
 49
1.0
140
1.0
293
     1
141
0.0
294
     1
177
     0
142
1.0
295
     0
296
     0
143
3.75
271
     0
272
     9
273
     9
  0
MLINESTYLE
  5
18
102
{ACAD_REACTORS
330
17
102
}
330
17
100
AcDbMlineStyle
  2
Standard
 70
     0
  3

 62
   256
 51
90.0
 52
90.0
 71
     2
 49
0.5
 62
   256
  6
BYLAYER
 49
-0.5
 62
   256
  6
BYLAYER
  0
ACDBPLACEHOLDER
  5
F
102
{ACAD_REACTORS
330
E
102
}
330
E
  0
SCALE
  5
48
102
{ACAD_REACTORS
330
47
102
}
330
47
100
AcDbScale
 70
     0
300
1:1
140
1.0
141
1.0
290
     1
  0
SCALE
  5
49
102
{ACAD_REACTORS
330
47
102
}
330
47
100
AcDbScale
 70
     0
300
1:2
140
1.0
141
2.0
290
     0
  0
SCALE
  5
4A
102
{ACAD_REACTORS
330
47
102
}
330
47
100
AcDbScale
 70
     0
300
1:4
140
1.0
141
4.0
290
     0
  0
SCALE
  5
4B
102
{ACAD_REACTORS
330
47
102
}
330
47
100
AcDbScale
 70
     0
300
1:5
140
1.0
141
5.0
290
     0
  0
SCALE
  5
4C
102
{ACAD_REACTORS
330
47
102
}
330
47
100
AcDbScale
 70
     0
300
1:8
140
1.0
141
8.0
290
     0
  0
SCALE
  5
4D
102
{ACAD_REACTORS
330
47
102
}
330
47
100
AcDbScale
 70
     0
300
1:10
140
1.0
141
10.0
290
     0
  0
SCALE
  5
4E
102
{ACAD_REACTORS
330
47
102
}
330
47
100
AcDbScale
 70
     0
300
1:16
140
1.0
141
16.0
290
     0
  0
SCALE
  5
4F
102
{ACAD_REACTORS
330
47
102
}
330
47
100
AcDbScale
 70
     0
300
1:20
140
1.0
141
20.0
290
     0
  0
SCALE
  5
50
102
{ACAD_REACTORS
330
47
102
}
330
47
100
AcDbScale
 70
     0
300
1:30
140
1.0
141
30.0
290
     0
  0
SCALE
  5
51
102
{ACAD_REACTORS
330
47
102
}
330
47
100
AcDbScale
 70
     0
300
1:40
140
1.0
141
40.0
290
     0
  0
SCALE
  5
52
102
{ACAD_REACTORS
330
47
102
}
330
47
100
AcDbScale
 70
     0
300
1:50
140
1.0
141
50.0
290
     0
  0
SCALE
  5
53
102
{ACAD_REACTORS
330
47
102
}
330
47
100
AcDbScale
 70
     0
300
1:100
140
1.0
141
100.0
290
     0
  0
SCALE
  5
54
102
{ACAD_REACTORS
330
47
102
}
330
47
100
AcDbScale
 70
     0
300
2:1
140
2.0
141
1.0
290
     0
  0
SCALE
  5
55
102
{ACAD_REACTORS
330
47
102
}
330
47
100
AcDbScale
 70
     0
300
4:1
140
4.0
141
1.0
290
     0
  0
SCALE
  5
56
102
{ACAD_REACTORS
330
47
102
}
330
47
100
AcDbScale
 70
     0
300
8:1
140
8.0
141
1.0
290
     0
  0
SCALE
  5
57
102
{ACAD_REACTORS
330
47
102
}
330
47
100
AcDbScale
 70
     0
300
10:1
140
10.0
141
1.0
290
     0
  0
SCALE
  5
58
102
{ACAD_REACTORS
330
47
102
}
330
47
100
AcDbScale
 70
     0
300
100:1
140
100.0
141
1.0
290
     0
  0
SCALE
  5
59
102
{ACAD_REACTORS
330
47
102
}
330
47
100
AcDbScale
 70
     0
300
1/128" = 1'-0"
140
0.0078125
141
12.0
290
     0
  0
SCALE
  5
5A
102
{ACAD_REACTORS
330
47
102
}
330
47
100
AcDbScale
 70
     0
300
1/64" = 1'-0"
140
0.015625
141
12.0
290
     0
  0
SCALE
  5
5B
102
{ACAD_REACTORS
330
47
102
}
330
47
100
AcDbScale
 70
     0
300
1/32" = 1'-0"
140
0.03125
141
12.0
290
     0
  0
SCALE
  5
5C
102
{ACAD_REACTORS
330
47
102
}
330
47
100
AcDbScale
 70
     0
300
1/16" = 1'-0"
140
0.0625
141
12.0
290
     0
  0
SCALE
  5
5D
102
{ACAD_REACTORS
330
47
102
}
330
47
100
AcDbScale
 70
     0
300
3/32" = 1'-0"
140
0.09375
141
12.0
290
     0
  0
SCALE
  5
5E
102
{ACAD_REACTORS
330
47
102
}
330
47
100
AcDbScale
 70
     0
300
1/8" = 1'-0"
140
0.125
141
12.0
290
     0
  0
SCALE
  5
5F
102
{ACAD_REACTORS
330
47
102
}
330
47
100
AcDbScale
 70
     0
300
3/16" = 1'-0"
140
0.1875
141
12.0
290
     0
  0
SCALE
  5
60
102
{ACAD_REACTORS
330
47
102
}
330
47
100
AcDbScale
 70
     0
300
1/4" = 1'-0"
140
0.25
141
12.0
290
     0
  0
SCALE
  5
61
102
{ACAD_REACTORS
330
47
102
}
330
47
100
AcDbScale
 70
     0
300
3/8" = 1'-0"
140
0.375
141
12.0
290
     0
  0
SCALE
  5
62
102
{ACAD_REACTORS
330
47
102
}
330
47
100
AcDbScale
 70
     0
300
1/2" = 1'-0"
140
0.5
141
12.0
290
     0
  0
SCALE
  5
63
102
{ACAD_REACTORS
330
47
102
}
330
47
100
AcDbScale
 70
     0
300
3/4" = 1'-0"
140
0.75
141
12.0
290
     0
  0
SCALE
  5
64
102
{ACAD_REACTORS
330
47
102
}
330
47
100
AcDbScale
 70
     0
300
1" = 1'-0"
140
1.0
141
12.0
290
     0
  0
SCALE
  5
65
102
{ACAD_REACTORS
330
47
102
}
330
47
100
AcDbScale
 70
     0
300
1-1/2" = 1'-0"
140
1.5
141
12.0
290
     0
  0
SCALE
  5
66
102
{ACAD_REACTORS
330
47
102
}
330
47
100
AcDbScale
 70
     0
300
3" = 1'-0"
140
3.0
141
12.0
290
     0
  0
SCALE
  5
67
102
{ACAD_REACTORS
330
47
102
}
330
47
100
AcDbScale
 70
     0
300
6" = 1'-0"
140
6.0
141
12.0
290
     0
  0
SCALE
  5
68
102
{ACAD_REACTORS
330
47
102
}
330
47
100
AcDbScale
 70
     0
300
1'-0" = 1'-0"
140
12.0
141
12.0
290
     0
  0
TABLESTYLE
  5
6A
102
{ACAD_REACTORS
330
69
102
}
102
{ACAD_XDICTIONARY
360
4C7
102
}
330
69
100
AcDbTableStyle
  3
Standard
 70
     0
 71
     0
 40
0.06
 41
0.06
280
     0
281
     0
  7
Standard
140
4.5
170
     2
 62
     0
 63
   257
283
     0
 90
        4
 91
        0
  1

274
    -2
284
     1
 64
     0
275
    -2
285
     1
 65
     0
276
    -2
286
     1
 66
     0
277
    -2
287
     1
 67
     0
278
    -2
288
     1
 68
     0
279
    -2
289
     1
 69
     0
  7
Standard
140
6.0
170
     5
 62
     0
 63
   257
283
     0
 90
        4
 91
        0
  1

274
    -2
284
     1
 64
     0
275
    -2
285
     1
 65
     0
276
    -2
286
     1
 66
     0
277
    -2
287
     1
 67
     0
278
    -2
288
     1
 68
     0
279
    -2
289
     1
 69
     0
  7
Standard
140
4.5
170
     5
 62
     0
 63
   257
283
     0
 90
        4
 91
        0
  1

274
    -2
284
     1
 64
     0
275
    -2
285
     1
 65
     0
276
    -2
286
     1
 66
     0
277
    -2
287
     1
 67
     0
278
    -2
288
     1
 68
     0
279
    -2
289
     1
 69
     0
  0
VISUALSTYLE
  5
2F
102
{ACAD_REACTORS
330
2A
102
}
102
{ACAD_XDICTIONARY
360
49F
102
}
330
2A
100
AcDbVisualStyle
  2
2dWireframe
 70
     4
177
     2
291
     0
 71
     0
176
     1
 72
     2
176
     1
 73
     0
176
     1
 90
        0
176
     1
 40
0.6
176
     1
 41
30.0
176
     1
 62
     5
 63
     7
421
 16777215
176
     1
 74
     1
176
     1
 91
        4
176
     1
 64
     7
176
     1
 65
   257
176
     1
 75
     1
176
     1
175
     1
176
     1
 42
1.0
176
     1
 92
        0
176
     1
 66
   257
176
     1
 43
1.0
176
     1
 76
     1
176
     1
 77
     6
176
     1
 78
     2
176
     1
 67
     7
176
     1
 79
     5
176
     1
170
     0
176
     1
171
     0
176
     1
290
     0
176
     1
 93
        1
176
     1
 44
0.0
176
     1
173
     0
176
     1
  0
VISUALSTYLE
  5
32
102
{ACAD_REACTORS
330
2A
102
}
102
{ACAD_XDICTIONARY
360
4A5
102
}
330
2A
100
AcDbVisualStyle
  2
Basic
 70
     7
177
     2
291
     1
 71
     1
176
     1
 72
     0
176
     1
 73
     1
176
     1
 90
        0
176
     1
 40
0.6
176
     1
 41
30.0
176
     1
 62
     5
 63
     7
421
 16777215
176
     1
 74
     0
176
     1
 91
        4
176
     1
 64
     7
176
     1
 65
   257
176
     1
 75
     1
176
     1
175
     1
176
     1
 42
1.0
176
     1
 92
        8
176
     1
 66
     7
176
     1
 43
1.0
176
     1
 76
     1
176
     1
 77
     6
176
     1
 78
     2
176
     1
 67
     7
176
     1
 79
     5
176
     1
170
     0
176
     1
171
     0
176
     1
290
     0
176
     1
 93
        1
176
     1
 44
0.0
176
     1
173
     0
176
     1
  0
VISUALSTYLE
  5
36
102
{ACAD_REACTORS
330
2A
102
}
102
{ACAD_XDICTIONARY
360
4AD
102
}
330
2A
100
AcDbVisualStyle
  2
Brighten
 70
    12
177
     2
291
     1
 71
     2
176
     1
 72
     2
176
     1
 73
     0
176
     1
 90
        0
176
     1
 40
0.6
176
     1
 41
30.0
176
     1
 62
     5
 63
     7
421
 16777215
176
     1
 74
     1
176
     1
 91
        4
176
     1
 64
     7
176
     1
 65
   257
176
     1
 75
     1
176
     1
175
     1
176
     1
 42
1.0
176
     1
 92
        8
176
     1
 66
     7
176
     1
 43
1.0
176
     1
 76
     1
176
     1
 77
     6
176
     1
 78
     2
176
     1
 67
     7
176
     1
 79
     5
176
     1
170
     0
176
     1
171
     0
176
     1
290
     0
176
     1
 93
        1
176
     1
 44
50.0
176
     1
173
     0
176
     1
  0
VISUALSTYLE
  5
3A
102
{ACAD_REACTORS
330
2A
102
}
102
{ACAD_XDICTIONARY
360
4B5
102
}
330
2A
100
AcDbVisualStyle
  2
ColorChange
 70
    16
177
     2
291
     1
 71
     2
176
     1
 72
     2
176
     1
 73
     3
176
     1
 90
        0
176
     1
 40
0.6
176
     1
 41
30.0
176
     1
 62
     5
 63
     8
421
  8421504
176
     1
 74
     1
176
     1
 91
        4
176
     1
 64
     7
176
     1
 65
   257
176
     1
 75
     1
176
     1
175
     1
176
     1
 42
1.0
176
     1
 92
        8
176
     1
 66
     8
424
  8421504
176
     1
 43
1.0
176
     1
 76
     1
176
     1
 77
     6
176
     1
 78
     2
176
     1
 67
     7
176
     1
 79
     5
176
     1
170
     0
176
     1
171
     0
176
     1
290
     0
176
     1
 93
        1
176
     1
 44
0.0
176
     1
173
     0
176
     1
  0
VISUALSTYLE
  5
34
102
{ACAD_REACTORS
330
2A
102
}
102
{ACAD_XDICTIONARY
360
4A9
102
}
330
2A
100
AcDbVisualStyle
  2
Conceptual
 70
     9
177
     2
291
     0
 71
     3
176
     1
 72
     2
176
     1
 73
     0
176
     1
 90
        0
176
     1
 40
0.6
176
     1
 41
30.0
176
     1
 62
     5
 63
     7
421
 16777215
176
     1
 74
     2
176
     1
 91
        2
176
     1
 64
     7
176
     1
 65
   257
176
     1
 75
     1
176
     1
175
     1
176
     1
 42
179.0
176
     1
 92
        8
176
     1
 66
     7
176
     1
 43
1.0
176
     1
 76
     1
176
     1
 77
     6
176
     1
 78
     2
176
     1
 67
     7
176
     1
 79
     3
176
     1
170
     0
176
     1
171
     0
176
     1
290
     0
176
     1
 93
        1
176
     1
 44
0.0
176
     1
173
     0
176
     1
  0
VISUALSTYLE
  5
35
102
{ACAD_REACTORS
330
2A
102
}
102
{ACAD_XDICTIONARY
360
4AB
102
}
330
2A
100
AcDbVisualStyle
  2
Dim
 70
    11
177
     2
291
     1
 71
     2
176
     1
 72
     2
176
     1
 73
     0
176
     1
 90
        0
176
     1
 40
0.6
176
     1
 41
30.0
176
     1
 62
     5
 63
     7
421
 16777215
176
     1
 74
     1
176
     1
 91
        4
176
     1
 64
     7
176
     1
 65
   257
176
     1
 75
     1
176
     1
175
     1
176
     1
 42
1.0
176
     1
 92
        8
176
     1
 66
     7
176
     1
 43
1.0
176
     1
 76
     1
176
     1
 77
     6
176
     1
 78
     2
176
     1
 67
     7
176
     1
 79
     5
176
     1
170
     0
176
     1
171
     0
176
     1
290
     0
176
     1
 93
        1
176
     1
 44
-50.0
176
     1
173
     0
176
     1
  0
VISUALSTYLE
  5
3D
102
{ACAD_REACTORS
330
2A
102
}
102
{ACAD_XDICTIONARY
360
4BB
102
}
330
2A
100
AcDbVisualStyle
  2
EdgeColorOff
 70
    22
177
     2
291
     1
 71
     2
176
     0
 72
     2
176
     0
 73
     0
176
     0
 90
        0
176
     0
 40
0.6
176
     0
 41
30.0
176
     0
 62
     5
 63
     7
421
 16777215
176
     0
 74
     1
176
     0
 91
        4
176
     0
 64
     7
176
     0
 65
   257
176
     0
 75
     1
176
     0
175
     1
176
     0
 42
1.0
176
     0
 92
        8
176
     2
 66
     7
176
     0
 43
1.0
176
     0
 76
     1
176
     0
 77
     6
176
     0
 78
     2
176
     0
 67
     7
176
     0
 79
     5
176
     0
170
     0
176
     0
171
     0
176
     0
290
     0
176
     0
 93
        1
176
     0
 44
0.0
176
     0
173
     0
176
     0
  0
VISUALSTYLE
  5
39
102
{ACAD_REACTORS
330
2A
102
}
102
{ACAD_XDICTIONARY
360
4B3
102
}
330
2A
100
AcDbVisualStyle
  2
Facepattern
 70
    15
177
     2
291
     1
 71
     2
176
     1
 72
     2
176
     1
 73
     0
176
     1
 90
        0
176
     1
 40
0.6
176
     1
 41
30.0
176
     1
 62
     5
 63
     7
421
 16777215
176
     1
 74
     1
176
     1
 91
        4
176
     1
 64
     7
176
     1
 65
   257
176
     1
 75
     1
176
     1
175
     1
176
     1
 42
1.0
176
     1
 92
        8
176
     1
 66
     7
176
     1
 43
1.0
176
     1
 76
     1
176
     1
 77
     6
176
     1
 78
     2
176
     1
 67
     7
176
     1
 79
     5
176
     1
170
     0
176
     1
171
     0
176
     1
290
     0
176
     1
 93
        1
176
     1
 44
0.0
176
     1
173
     0
176
     1
  0
VISUALSTYLE
  5
2B
102
{ACAD_REACTORS
330
2A
102
}
102
{ACAD_XDICTIONARY
360
497
102
}
330
2A
100
AcDbVisualStyle
  2
Flat
 70
     0
177
     2
291
     1
 71
     2
176
     1
 72
     1
176
     1
 73
     1
176
     1
 90
        2
176
     1
 40
0.6
176
     1
 41
30.0
176
     1
 62
     5
 63
     7
421
 16777215
176
     1
 74
     0
176
     1
 91
        0
176
     1
 64
     7
176
     1
 65
   257
176
     1
 75
     1
176
     1
175
     1
176
     1
 42
1.0
176
     1
 92
        8
176
     1
 66
     7
176
     1
 43
1.0
176
     1
 76
     1
176
     1
 77
     6
176
     1
 78
     2
176
     1
 67
     7
176
     1
 79
     5
176
     1
170
     0
176
     1
171
     0
176
     1
290
     0
176
     1
 93
       13
176
     1
 44
0.0
176
     1
173
     0
176
     1
  0
VISUALSTYLE
  5
2C
102
{ACAD_REACTORS
330
2A
102
}
102
{ACAD_XDICTIONARY
360
499
102
}
330
2A
100
AcDbVisualStyle
  2
FlatWithEdges
 70
     1
177
     2
291
     1
 71
     2
176
     1
 72
     1
176
     1
 73
     1
176
     1
 90
        2
176
     1
 40
0.6
176
     1
 41
30.0
176
     1
 62
     5
 63
     7
421
 16777215
176
     1
 74
     1
176
     1
 91
        0
176
     1
 64
     7
176
     1
 65
   257
176
     1
 75
     1
176
     1
175
     1
176
     1
 42
1.0
176
     1
 92
        0
176
     1
 66
   257
176
     1
 43
1.0
176
     1
 76
     1
176
     1
 77
     6
176
     1
 78
     2
176
     1
 67
     7
176
     1
 79
     5
176
     1
170
     0
176
     1
171
     0
176
     1
290
     0
176
     1
 93
       13
176
     1
 44
0.0
176
     1
173
     0
176
     1
  0
VISUALSTYLE
  5
2D
102
{ACAD_REACTORS
330
2A
102
}
102
{ACAD_XDICTIONARY
360
49B
102
}
330
2A
100
AcDbVisualStyle
  2
Gouraud
 70
     2
177
     2
291
     1
 71
     2
176
     1
 72
     2
176
     1
 73
     1
176
     1
 90
        2
176
     1
 40
0.6
176
     1
 41
30.0
176
     1
 62
     5
 63
     7
421
 16777215
176
     1
 74
     0
176
     1
 91
        0
176
     1
 64
     7
176
     1
 65
   257
176
     1
 75
     1
176
     1
175
     1
176
     1
 42
1.0
176
     1
 92
        0
176
     1
 66
     7
176
     1
 43
1.0
176
     1
 76
     1
176
     1
 77
     6
176
     1
 78
     2
176
     1
 67
     7
176
     1
 79
     5
176
     1
170
     0
176
     1
171
     0
176
     1
290
     0
176
     1
 93
       13
176
     1
 44
0.0
176
     1
173
     0
176
     1
  0
VISUALSTYLE
  5
2E
102
{ACAD_REACTORS
330
2A
102
}
102
{ACAD_XDICTIONARY
360
49D
102
}
330
2A
100
AcDbVisualStyle
  2
GouraudWithEdges
 70
     3
177
     2
291
     1
 71
     2
176
     1
 72
     2
176
     1
 73
     1
176
     1
 90
        2
176
     1
 40
0.6
176
     1
 41
30.0
176
     1
 62
     5
 63
     7
421
 16777215
176
     1
 74
     1
176
     1
 91
        0
176
     1
 64
     7
176
     1
 65
   257
176
     1
 75
     1
176
     1
175
     1
176
     1
 42
1.0
176
     1
 92
        0
176
     1
 66
   257
176
     1
 43
1.0
176
     1
 76
     1
176
     1
 77
     6
176
     1
 78
     2
176
     1
 67
     7
176
     1
 79
     5
176
     1
170
     0
176
     1
171
     0
176
     1
290
     0
176
     1
 93
       13
176
     1
 44
0.0
176
     1
173
     0
176
     1
  0
VISUALSTYLE
  5
31
102
{ACAD_REACTORS
330
2A
102
}
102
{ACAD_XDICTIONARY
360
4A3
102
}
330
2A
100
AcDbVisualStyle
  2
Hidden
 70
     6
177
     2
291
     0
 71
     1
176
     1
 72
     2
176
     1
 73
     2
176
     1
 90
        0
176
     1
 40
0.6
176
     1
 41
30.0
176
     1
 62
     5
 63
     7
421
 16777215
176
     1
 74
     2
176
     1
 91
        2
176
     1
 64
     7
176
     1
 65
   257
176
     1
 75
     2
176
     1
175
     1
176
     1
 42
40.0
176
     1
 92
        0
176
     1
 66
   257
176
     1
 43
1.0
176
     1
 76
     1
176
     1
 77
     6
176
     1
 78
     2
176
     1
 67
     7
176
     1
 79
     3
176
     1
170
     0
176
     1
171
     0
176
     1
290
     0
176
     1
 93
        1
176
     1
 44
0.0
176
     1
173
     0
176
     1
  0
VISUALSTYLE
  5
3B
102
{ACAD_REACTORS
330
2A
102
}
102
{ACAD_XDICTIONARY
360
4B7
102
}
330
2A
100
AcDbVisualStyle
  2
JitterOff
 70
    20
177
     2
291
     1
 71
     2
176
     0
 72
     2
176
     0
 73
     0
176
     0
 90
        0
176
     0
 40
0.6
176
     0
 41
30.0
176
     0
 62
     5
 63
     7
421
 16777215
176
     0
 74
     1
176
     0
 91
        4
176
     0
 64
     7
176
     0
 65
   257
176
     0
 75
     1
176
     0
175
     1
176
     0
 42
1.0
176
     0
 92
       10
176
     2
 66
     7
176
     0
 43
1.0
176
     0
 76
     1
176
     0
 77
     6
176
     0
 78
     2
176
     0
 67
     7
176
     0
 79
     5
176
     0
170
     0
176
     0
171
     0
176
     0
290
     0
176
     0
 93
        1
176
     0
 44
0.0
176
     0
173
     0
176
     0
  0
VISUALSTYLE
  5
38
102
{ACAD_REACTORS
330
2A
102
}
102
{ACAD_XDICTIONARY
360
4B1
102
}
330
2A
100
AcDbVisualStyle
  2
Linepattern
 70
    14
177
     2
291
     1
 71
     2
176
     1
 72
     2
176
     1
 73
     0
176
     1
 90
        0
176
     1
 40
0.6
176
     1
 41
30.0
176
     1
 62
     5
 63
     7
421
 16777215
176
     1
 74
     1
176
     1
 91
        4
176
     1
 64
     7
176
     1
 65
   257
176
     1
 75
     7
176
     1
175
     7
176
     1
 42
1.0
176
     1
 92
        8
176
     1
 66
     7
176
     1
 43
1.0
176
     1
 76
     1
176
     1
 77
     6
176
     1
 78
     2
176
     1
 67
     7
176
     1
 79
     5
176
     1
170
     0
176
     1
171
     0
176
     1
290
     0
176
     1
 93
        1
176
     1
 44
0.0
176
     1
173
     0
176
     1
  0
VISUALSTYLE
  5
3C
102
{ACAD_REACTORS
330
2A
102
}
102
{ACAD_XDICTIONARY
360
4B9
102
}
330
2A
100
AcDbVisualStyle
  2
OverhangOff
 70
    21
177
     2
291
     1
 71
     2
176
     0
 72
     2
176
     0
 73
     0
176
     0
 90
        0
176
     0
 40
0.6
176
     0
 41
30.0
176
     0
 62
     5
 63
     7
421
 16777215
176
     0
 74
     1
176
     0
 91
        4
176
     0
 64
     7
176
     0
 65
   257
176
     0
 75
     1
176
     0
175
     1
176
     0
 42
1.0
176
     0
 92
        9
176
     2
 66
     7
176
     0
 43
1.0
176
     0
 76
     1
176
     0
 77
     6
176
     0
 78
     2
176
     0
 67
     7
176
     0
 79
     5
176
     0
170
     0
176
     0
171
     0
176
     0
290
     0
176
     0
 93
        1
176
     0
 44
0.0
176
     0
173
     0
176
     0
  0
VISUALSTYLE
  5
33
102
{ACAD_REACTORS
330
2A
102
}
102
{ACAD_XDICTIONARY
360
4A7
102
}
330
2A
100
AcDbVisualStyle
  2
Realistic
 70
     8
177
     2
291
     0
 71
     2
176
     1
 72
     3
176
     1
 73
     0
176
     1
 90
        2
176
     1
 40
0.6
176
     1
 41
30.0
176
     1
 62
     5
 63
     7
421
 16777215
176
     1
 74
     0
176
     1
 91
        0
176
     1
 64
     7
176
     1
 65
   257
176
     1
 75
     1
176
     1
175
     1
176
     1
 42
1.0
176
     1
 92
        8
176
     1
 66
   257
176
     1
 43
1.0
176
     1
 76
     1
176
     1
 77
     6
176
     1
 78
     2
176
     1
 67
     7
176
     1
 79
     3
176
     1
170
     0
176
     1
171
     0
176
     1
290
     0
176
     1
 93
       13
176
     1
 44
0.0
176
     1
173
     0
176
     1
  0
VISUALSTYLE
  5
42
102
{ACAD_REACTORS
330
2A
102
}
102
{ACAD_XDICTIONARY
360
4C5
102
}
330
2A
100
AcDbVisualStyle
  2
Shaded
 70
    27
177
     2
291
     0
 71
     2
176
     1
 72
     2
176
     1
 73
     1
176
     1
 90
        2
176
     1
 40
0.6
176
     1
 41
30.0
176
     1
 62
     5
 63
     7
421
 16777215
176
     1
 74
     0
176
     1
 91
        4
176
     1
 64
     7
176
     1
 65
   257
176
     1
 75
     1
176
     1
175
     1
176
     1
 42
1.0
176
     1
 92
        8
176
     1
 66
   257
176
     1
 43
1.0
176
     1
 76
     1
176
     1
 77
     6
176
     1
 78
     2
176
     1
 67
     8
425
  7895160
176
     1
 79
     3
176
     1
170
     0
176
     1
171
     0
176
     1
290
     0
176
     1
 93
        5
176
     1
 44
0.0
176
     1
173
     0
176
     1
  0
VISUALSTYLE
  5
41
102
{ACAD_REACTORS
330
2A
102
}
102
{ACAD_XDICTIONARY
360
4C3
102
}
330
2A
100
AcDbVisualStyle
  2
Shaded with edges
 70
    26
177
     2
291
     0
 71
     2
176
     1
 72
     2
176
     1
 73
     1
176
     1
 90
        2
176
     1
 40
0.6
176
     1
 41
30.0
176
     1
 62
     5
 63
     7
421
 16777215
176
     1
 74
     1
176
     1
 91
       10
176
     1
 64
     7
176
     1
 65
   257
176
     1
 75
     2
176
     1
175
     1
176
     1
 42
1.0
176
     1
 92
        8
176
     1
 66
   257
176
     1
 43
1.0
176
     1
 76
     1
176
     1
 77
     6
176
     1
 78
     2
176
     1
 67
     7
176
     1
 79
     3
176
     1
170
     0
176
     1
171
     0
176
     1
290
     0
176
     1
 93
        5
176
     1
 44
0.0
176
     1
173
     0
176
     1
  0
VISUALSTYLE
  5
3E
102
{ACAD_REACTORS
330
2A
102
}
102
{ACAD_XDICTIONARY
360
4BD
102
}
330
2A
100
AcDbVisualStyle
  2
Shades of Gray
 70
    23
177
     2
291
     0
 71
     2
176
     1
 72
     2
176
     1
 73
     3
176
     1
 90
        0
176
     1
 40
0.6
176
     1
 41
30.0
176
     1
 62
     5
 63
     7
421
 16777215
176
     1
 74
     2
176
     1
 91
        2
176
     1
 64
     7
176
     1
 65
     7
176
     1
 75
     1
176
     1
175
     1
176
     1
 42
40.0
176
     1
 92
        8
176
     1
 66
     7
176
     1
 43
1.0
176
     1
 76
     1
176
     1
 77
     6
176
     1
 78
     2
176
     1
 67
     7
176
     1
 79
     3
176
     1
170
     0
176
     1
171
     0
176
     1
290
     0
176
     1
 93
        1
176
     1
 44
0.0
176
     1
173
     0
176
     1
  0
VISUALSTYLE
  5
3F
102
{ACAD_REACTORS
330
2A
102
}
102
{ACAD_XDICTIONARY
360
4BF
102
}
330
2A
100
AcDbVisualStyle
  2
Sketchy
 70
    24
177
     2
291
     0
 71
     1
176
     1
 72
     2
176
     1
 73
     2
176
     1
 90
        0
176
     1
 40
0.6
176
     1
 41
30.0
176
     1
 62
     5
 63
     7
421
 16777215
176
     1
 74
     2
176
     1
 91
        2
176
     1
 64
     7
176
     1
 65
     7
176
     1
 75
     1
176
     1
175
     1
176
     1
 42
40.0
176
     1
 92
       11
176
     1
 66
     7
176
     1
 43
1.0
176
     1
 76
     1
176
     1
 77
     6
176
     1
 78
     2
176
     1
 67
     7
176
     1
 79
     6
176
     1
170
     0
176
     1
171
     0
176
     1
290
     0
176
     1
 93
        1
176
     1
 44
0.0
176
     1
173
     0
176
     1
  0
VISUALSTYLE
  5
37
102
{ACAD_REACTORS
330
2A
102
}
102
{ACAD_XDICTIONARY
360
4AF
102
}
330
2A
100
AcDbVisualStyle
  2
Thicken
 70
    13
177
     2
291
     1
 71
     2
176
     1
 72
     2
176
     1
 73
     0
176
     1
 90
        0
176
     1
 40
0.6
176
     1
 41
30.0
176
     1
 62
     5
 63
     7
421
 16777215
176
     1
 74
     1
176
     1
 91
        4
176
     1
 64
     7
176
     1
 65
   257
176
     1
 75
     1
176
     1
175
     1
176
     1
 42
1.0
176
     1
 92
       12
176
     1
 66
     7
176
     1
 43
1.0
176
     1
 76
     1
176
     1
 77
     6
176
     1
 78
     2
176
     1
 67
     7
176
     1
 79
     5
176
     1
170
     0
176
     1
171
     0
176
     1
290
     0
176
     1
 93
        1
176
     1
 44
0.0
176
     1
173
     0
176
     1
  0
VISUALSTYLE
  5
30
102
{ACAD_REACTORS
330
2A
102
}
102
{ACAD_XDICTIONARY
360
4A1
102
}
330
2A
100
AcDbVisualStyle
  2
Wireframe
 70
     5
177
     2
291
     0
 71
     0
176
     1
 72
     2
176
     1
 73
     0
176
     1
 90
        0
176
     1
 40
0.6
176
     1
 41
30.0
176
     1
 62
     5
 63
     7
421
 16777215
176
     1
 74
     1
176
     1
 91
        4
176
     1
 64
     7
176
     1
 65
   257
176
     1
 75
     1
176
     1
175
     1
176
     1
 42
1.0
176
     1
 92
        0
176
     1
 66
   257
176
     1
 43
1.0
176
     1
 76
     1
176
     1
 77
     6
176
     1
 78
     2
176
     1
 67
     7
176
     1
 79
     3
176
     1
170
     0
176
     1
171
     0
176
     1
290
     0
176
     1
 93
        1
176
     1
 44
0.0
176
     1
173
     0
176
     1
  0
VISUALSTYLE
  5
40
102
{ACAD_REACTORS
330
2A
102
}
102
{ACAD_XDICTIONARY
360
4C1
102
}
330
2A
100
AcDbVisualStyle
  2
X-Ray
 70
    25
177
     2
291
     0
 71
     2
176
     1
 72
     2
176
     1
 73
     1
176
     1
 90
        1
176
     1
 40
0.5
176
     1
 41
30.0
176
     1
 62
     5
 63
     7
421
 16777215
176
     1
 74
     1
176
     1
 91
        0
176
     1
 64
     7
176
     1
 65
   257
176
     1
 75
     1
176
     1
175
     1
176
     1
 42
1.0
176
     1
 92
        8
176
     1
 66
     7
176
     1
 43
1.0
176
     1
 76
     1
176
     1
 77
     6
176
     1
 78
     2
176
     1
 67
     7
176
     1
 79
     3
176
     1
170
     0
176
     1
171
     0
176
     1
290
     0
176
     1
 93
       13
176
     1
 44
0.0
176
     1
173
     0
176
     1
  0
DICTIONARYVAR
  5
496
102
{ACAD_REACTORS
330
495
102
}
330
495
100
DictionaryVariables
280
     0
  1
1:1
  0
DICTIONARYVAR
  5
4CE
102
{ACAD_REACTORS
330
495
102
}
330
495
100
DictionaryVariables
280
     0
  1
3.500000
  0
DICTIONARYVAR
  5
4CF
102
{ACAD_REACTORS
330
495
102
}
330
495
100
DictionaryVariables
280
     0
  1
acadiso.lin
  0
DICTIONARYVAR
  5
4CB
102
{ACAD_REACTORS
330
495
102
}
330
495
100
DictionaryVariables
280
     0
  1
Standard
  0
DICTIONARYVAR
  5
4CA
102
{ACAD_REACTORS
330
495
102
}
330
495
100
DictionaryVariables
280
     0
  1
Standard
  0
DICTIONARY
  5
4C7
330
6A
100
AcDbDictionary
280
     1
281
     1
  3
ACAD_ROUNDTRIP_2008_TABLESTYLE_CELLSTYLEMAP
360
4C8
  0
DICTIONARY
  5
49F
330
2F
100
AcDbDictionary
280
     1
281
     1
  3
ACAD_XREC_ROUNDTRIP
360
4A0
  0
DICTIONARY
  5
4A5
330
32
100
AcDbDictionary
280
     1
281
     1
  3
ACAD_XREC_ROUNDTRIP
360
4A6
  0
DICTIONARY
  5
4AD
330
36
100
AcDbDictionary
280
     1
281
     1
  3
ACAD_XREC_ROUNDTRIP
360
4AE
  0
DICTIONARY
  5
4B5
330
3A
100
AcDbDictionary
280
     1
281
     1
  3
ACAD_XREC_ROUNDTRIP
360
4B6
  0
DICTIONARY
  5
4A9
330
34
100
AcDbDictionary
280
     1
281
     1
  3
ACAD_XREC_ROUNDTRIP
360
4AA
  0
DICTIONARY
  5
4AB
330
35
100
AcDbDictionary
280
     1
281
     1
  3
ACAD_XREC_ROUNDTRIP
360
4AC
  0
DICTIONARY
  5
4BB
330
3D
100
AcDbDictionary
280
     1
281
     1
  3
ACAD_XREC_ROUNDTRIP
360
4BC
  0
DICTIONARY
  5
4B3
330
39
100
AcDbDictionary
280
     1
281
     1
  3
ACAD_XREC_ROUNDTRIP
360
4B4
  0
DICTIONARY
  5
497
330
2B
100
AcDbDictionary
280
     1
281
     1
  3
ACAD_XREC_ROUNDTRIP
360
498
  0
DICTIONARY
  5
499
330
2C
100
AcDbDictionary
280
     1
281
     1
  3
ACAD_XREC_ROUNDTRIP
360
49A
  0
DICTIONARY
  5
49B
330
2D
100
AcDbDictionary
280
     1
281
     1
  3
ACAD_XREC_ROUNDTRIP
360
49C
  0
DICTIONARY
  5
49D
330
2E
100
AcDbDictionary
280
     1
281
     1
  3
ACAD_XREC_ROUNDTRIP
360
49E
  0
DICTIONARY
  5
4A3
330
31
100
AcDbDictionary
280
     1
281
     1
  3
ACAD_XREC_ROUNDTRIP
360
4A4
  0
DICTIONARY
  5
4B7
330
3B
100
AcDbDictionary
280
     1
281
     1
  3
ACAD_XREC_ROUNDTRIP
360
4B8
  0
DICTIONARY
  5
4B1
330
38
100
AcDbDictionary
280
     1
281
     1
  3
ACAD_XREC_ROUNDTRIP
360
4B2
  0
DICTIONARY
  5
4B9
330
3C
100
AcDbDictionary
280
     1
281
     1
  3
ACAD_XREC_ROUNDTRIP
360
4BA
  0
DICTIONARY
  5
4A7
330
33
100
AcDbDictionary
280
     1
281
     1
  3
ACAD_XREC_ROUNDTRIP
360
4A8
  0
DICTIONARY
  5
4C5
330
42
100
AcDbDictionary
280
     1
281
     1
  3
ACAD_XREC_ROUNDTRIP
360
4C6
  0
DICTIONARY
  5
4C3
330
41
100
AcDbDictionary
280
     1
281
     1
  3
ACAD_XREC_ROUNDTRIP
360
4C4
  0
DICTIONARY
  5
4BD
330
3E
100
AcDbDictionary
280
     1
281
     1
  3
ACAD_XREC_ROUNDTRIP
360
4BE
  0
DICTIONARY
  5
4BF
330
3F
100
AcDbDictionary
280
     1
281
     1
  3
ACAD_XREC_ROUNDTRIP
360
4C0
  0
DICTIONARY
  5
4AF
330
37
100
AcDbDictionary
280
     1
281
     1
  3
ACAD_XREC_ROUNDTRIP
360
4B0
  0
DICTIONARY
  5
4A1
330
30
100
AcDbDictionary
280
     1
281
     1
  3
ACAD_XREC_ROUNDTRIP
360
4A2
  0
DICTIONARY
  5
4C1
330
40
100
AcDbDictionary
280
     1
281
     1
  3
ACAD_XREC_ROUNDTRIP
360
4C2
  0
CELLSTYLEMAP
  5
4C8
102
{ACAD_REACTORS
330
4C7
102
}
330
4C7
100
AcDbCellStyleMap
 90
        3
300
CELLSTYLE
  1
TABLEFORMAT_BEGIN
 90
        5
170
     1
 91
        0
 92
    32768
 62
   257
 93
        1
300
CONTENTFORMAT
  1
CONTENTFORMAT_BEGIN
 90
        0
 91
        0
 92
        4
 93
        0
300

 40
0.0
140
1.0
 94
        5
 62
     0
340
11
144
6.0
309
CONTENTFORMAT_END
171
     1
301
MARGIN
  1
CELLMARGIN_BEGIN
 40
1.5
 40
1.5
 40
1.5
 40
1.5
 40
1.5
 40
1.5
309
CELLMARGIN_END
 94
        6
 95
        1
302
GRIDFORMAT
  1
GRIDFORMAT_BEGIN
 90
        0
 91
        1
 62
     0
 92
       -2
340
14
 93
        0
 40
0.045
309
GRIDFORMAT_END
 95
        2
302
GRIDFORMAT
  1
GRIDFORMAT_BEGIN
 90
        0
 91
        1
 62
     0
 92
       -2
340
14
 93
        0
 40
0.045
309
GRIDFORMAT_END
 95
        4
302
GRIDFORMAT
  1
GRIDFORMAT_BEGIN
 90
        0
 91
        1
 62
     0
 92
       -2
340
14
 93
        0
 40
0.045
309
GRIDFORMAT_END
 95
        8
302
GRIDFORMAT
  1
GRIDFORMAT_BEGIN
 90
        0
 91
        1
 62
     0
 92
       -2
340
14
 93
        0
 40
0.045
309
GRIDFORMAT_END
 95
       16
302
GRIDFORMAT
  1
GRIDFORMAT_BEGIN
 90
        0
 91
        1
 62
     0
 92
       -2
340
14
 93
        0
 40
0.045
309
GRIDFORMAT_END
 95
       32
302
GRIDFORMAT
  1
GRIDFORMAT_BEGIN
 90
        0
 91
        1
 62
     0
 92
       -2
340
14
 93
        0
 40
0.045
309
GRIDFORMAT_END
309
TABLEFORMAT_END
  1
CELLSTYLE_BEGIN
 90
        1
 91
        1
300
_TITLE
309
CELLSTYLE_END
300
CELLSTYLE
  1
TABLEFORMAT_BEGIN
 90
        5
170
     1
 91
        0
 92
        0
 62
   257
 93
        1
300
CONTENTFORMAT
  1
CONTENTFORMAT_BEGIN
 90
        0
 91
        0
 92
        4
 93
        0
300

 40
0.0
140
1.0
 94
        5
 62
     0
340
11
144
4.5
309
CONTENTFORMAT_END
171
     1
301
MARGIN
  1
CELLMARGIN_BEGIN
 40
1.5
 40
1.5
 40
1.5
 40
1.5
 40
1.5
 40
1.5
309
CELLMARGIN_END
 94
        6
 95
        1
302
GRIDFORMAT
  1
GRIDFORMAT_BEGIN
 90
        0
 91
        1
 62
     0
 92
       -2
340
14
 93
        0
 40
0.045
309
GRIDFORMAT_END
 95
        2
302
GRIDFORMAT
  1
GRIDFORMAT_BEGIN
 90
        0
 91
        1
 62
     0
 92
       -2
340
14
 93
        0
 40
0.045
309
GRIDFORMAT_END
 95
        4
302
GRIDFORMAT
  1
GRIDFORMAT_BEGIN
 90
        0
 91
        1
 62
     0
 92
       -2
340
14
 93
        0
 40
0.045
309
GRIDFORMAT_END
 95
        8
302
GRIDFORMAT
  1
GRIDFORMAT_BEGIN
 90
        0
 91
        1
 62
     0
 92
       -2
340
14
 93
        0
 40
0.045
309
GRIDFORMAT_END
 95
       16
302
GRIDFORMAT
  1
GRIDFORMAT_BEGIN
 90
        0
 91
        1
 62
     0
 92
       -2
340
14
 93
        0
 40
0.045
309
GRIDFORMAT_END
 95
       32
302
GRIDFORMAT
  1
GRIDFORMAT_BEGIN
 90
        0
 91
        1
 62
     0
 92
       -2
340
14
 93
        0
 40
0.045
309
GRIDFORMAT_END
309
TABLEFORMAT_END
  1
CELLSTYLE_BEGIN
 90
        2
 91
        1
300
_HEADER
309
CELLSTYLE_END
300
CELLSTYLE
  1
TABLEFORMAT_BEGIN
 90
        5
170
     1
 91
        0
 92
        0
 62
   257
 93
        1
300
CONTENTFORMAT
  1
CONTENTFORMAT_BEGIN
 90
        0
 91
        0
 92
        4
 93
        0
300

 40
0.0
140
1.0
 94
        2
 62
     0
340
11
144
4.5
309
CONTENTFORMAT_END
171
     1
301
MARGIN
  1
CELLMARGIN_BEGIN
 40
1.5
 40
1.5
 40
1.5
 40
1.5
 40
1.5
 40
1.5
309
CELLMARGIN_END
 94
        6
 95
        1
302
GRIDFORMAT
  1
GRIDFORMAT_BEGIN
 90
        0
 91
        1
 62
     0
 92
       -2
340
14
 93
        0
 40
0.045
309
GRIDFORMAT_END
 95
        2
302
GRIDFORMAT
  1
GRIDFORMAT_BEGIN
 90
        0
 91
        1
 62
     0
 92
       -2
340
14
 93
        0
 40
0.045
309
GRIDFORMAT_END
 95
        4
302
GRIDFORMAT
  1
GRIDFORMAT_BEGIN
 90
        0
 91
        1
 62
     0
 92
       -2
340
14
 93
        0
 40
0.045
309
GRIDFORMAT_END
 95
        8
302
GRIDFORMAT
  1
GRIDFORMAT_BEGIN
 90
        0
 91
        1
 62
     0
 92
       -2
340
14
 93
        0
 40
0.045
309
GRIDFORMAT_END
 95
       16
302
GRIDFORMAT
  1
GRIDFORMAT_BEGIN
 90
        0
 91
        1
 62
     0
 92
       -2
340
14
 93
        0
 40
0.045
309
GRIDFORMAT_END
 95
       32
302
GRIDFORMAT
  1
GRIDFORMAT_BEGIN
 90
        0
 91
        1
 62
     0
 92
       -2
340
14
 93
        0
 40
0.045
309
GRIDFORMAT_END
309
TABLEFORMAT_END
  1
CELLSTYLE_BEGIN
 90
        3
 91
        2
300
_DATA
309
CELLSTYLE_END
  0
XRECORD
  5
4A0
102
{ACAD_REACTORS
330
49F
102
}
330
49F
100
AcDbXrecord
280
     1
102
RTVSPost2010Prop28
280
     1
102
RTVSPost2010PropOp28
 70
     1
102
RTVSPost2010Prop29
280
     1
102
RTVSPost2010PropOp29
 70
     1
102
RTVSPost2010Prop30
280
     0
102
RTVSPost2010PropOp30
 70
     1
102
RTVSPost2010Prop31
280
     0
102
RTVSPost2010PropOp31
 70
     1
102
RTVSPost2010Prop32
280
     0
102
RTVSPost2010PropOp32
 70
     1
102
RTVSPost2010Prop33
280
     0
102
RTVSPost2010PropOp33
 70
     1
102
RTVSPost2010Prop34
280
     0
102
RTVSPost2010PropOp34
 70
     1
102
RTVSPost2010Prop35
280
     0
102
RTVSPost2010PropOp35
 70
     1
102
RTVSPost2010Prop36
280
     0
102
RTVSPost2010PropOp36
 70
     1
102
RTVSPost2010Prop37
 90
       50
102
RTVSPost2010PropOp37
 70
     1
102
RTVSPost2010Prop38
140
0.0
102
RTVSPost2010PropOp38
 70
     1
102
RTVSPost2010Prop39
140
1.0
102
RTVSPost2010PropOp39
 70
     1
102
RTVSPost2010Prop40
 90
        0
102
RTVSPost2010PropOp40
 70
     1
102
RTVSPost2010Prop41ColorIndex
 90
       18
102
RTVSPost2010Prop41ColorRGB
 90
        0
102
RTVSPost2010PropOp41
 70
     1
102
RTVSPost2010Prop42
 90
       50
102
RTVSPost2010PropOp42
 70
     1
102
RTVSPost2010Prop43
 90
        3
102
RTVSPost2010PropOp43
 70
     1
102
RTVSPost2010Prop44ColorIndex
 90
        5
102
RTVSPost2010Prop44ColorRGB
 90
      255
102
RTVSPost2010PropOp44
 70
     1
102
RTVSPost2010Prop45
280
     0
102
RTVSPost2010PropOp45
 70
     1
102
RTVSPost2010Prop46
 90
       50
102
RTVSPost2010PropOp46
 70
     1
102
RTVSPost2010Prop47
 90
       50
102
RTVSPost2010PropOp47
 70
     1
102
RTVSPost2010Prop48
 90
       50
102
RTVSPost2010PropOp48
 70
     1
102
RTVSPost2010Prop49
280
     0
102
RTVSPost2010PropOp49
 70
     1
102
RTVSPost2010Prop50
 90
       50
102
RTVSPost2010PropOp50
 70
     1
102
RTVSPost2010Prop51ColorIndex
 90
      256
102
RTVSPost2010Prop51ColorRGB
 90
-16777216
102
RTVSPost2010PropOp51
 70
     0
102
RTVSPost2010Prop52
140
1.0
102
RTVSPost2010PropOp52
 70
     0
102
RTVSPost2010Prop53
 90
        2
102
RTVSPost2010PropOp53
 70
     1
102
RTVSPost2010Prop54
  1
strokes_ogs.tif
102
RTVSPost2010PropOp54
 70
     1
102
RTVSPost2010Prop55
280
     0
102
RTVSPost2010PropOp55
 70
     1
102
RTVSPost2010Prop56
140
1.0
102
RTVSPost2010PropOp56
 70
     1
102
RTVSPost2010Prop57
140
1.0
102
RTVSPost2010PropOp57
 70
     1
  0
XRECORD
  5
4A6
102
{ACAD_REACTORS
330
4A5
102
}
330
4A5
100
AcDbXrecord
280
     1
102
RTVSPost2010Prop28
280
     0
102
RTVSPost2010PropOp28
 70
     1
102
RTVSPost2010Prop29
280
     1
102
RTVSPost2010PropOp29
 70
     1
102
RTVSPost2010Prop30
280
     1
102
RTVSPost2010PropOp30
 70
     1
102
RTVSPost2010Prop31
280
     0
102
RTVSPost2010PropOp31
 70
     1
102
RTVSPost2010Prop32
280
     0
102
RTVSPost2010PropOp32
 70
     1
102
RTVSPost2010Prop33
280
     0
102
RTVSPost2010PropOp33
 70
     1
102
RTVSPost2010Prop34
280
     0
102
RTVSPost2010PropOp34
 70
     1
102
RTVSPost2010Prop35
280
     0
102
RTVSPost2010PropOp35
 70
     1
102
RTVSPost2010Prop36
280
     0
102
RTVSPost2010PropOp36
 70
     1
102
RTVSPost2010Prop37
 90
       50
102
RTVSPost2010PropOp37
 70
     1
102
RTVSPost2010Prop38
140
0.0
102
RTVSPost2010PropOp38
 70
     1
102
RTVSPost2010Prop39
140
1.0
102
RTVSPost2010PropOp39
 70
     1
102
RTVSPost2010Prop40
 90
        0
102
RTVSPost2010PropOp40
 70
     1
102
RTVSPost2010Prop41ColorIndex
 90
       18
102
RTVSPost2010Prop41ColorRGB
 90
        0
102
RTVSPost2010PropOp41
 70
     1
102
RTVSPost2010Prop42
 90
       50
102
RTVSPost2010PropOp42
 70
     1
102
RTVSPost2010Prop43
 90
        3
102
RTVSPost2010PropOp43
 70
     1
102
RTVSPost2010Prop44ColorIndex
 90
        5
102
RTVSPost2010Prop44ColorRGB
 90
      255
102
RTVSPost2010PropOp44
 70
     1
102
RTVSPost2010Prop45
280
     0
102
RTVSPost2010PropOp45
 70
     1
102
RTVSPost2010Prop46
 90
       50
102
RTVSPost2010PropOp46
 70
     1
102
RTVSPost2010Prop47
 90
       50
102
RTVSPost2010PropOp47
 70
     1
102
RTVSPost2010Prop48
 90
       50
102
RTVSPost2010PropOp48
 70
     1
102
RTVSPost2010Prop49
280
     0
102
RTVSPost2010PropOp49
 70
     1
102
RTVSPost2010Prop50
 90
       50
102
RTVSPost2010PropOp50
 70
     1
102
RTVSPost2010Prop51ColorIndex
 90
      256
102
RTVSPost2010Prop51ColorRGB
 90
-16777216
102
RTVSPost2010PropOp51
 70
     0
102
RTVSPost2010Prop52
140
1.0
102
RTVSPost2010PropOp52
 70
     0
102
RTVSPost2010Prop53
 90
        2
102
RTVSPost2010PropOp53
 70
     1
102
RTVSPost2010Prop54
  1
strokes_ogs.tif
102
RTVSPost2010PropOp54
 70
     1
102
RTVSPost2010Prop55
280
     0
102
RTVSPost2010PropOp55
 70
     1
102
RTVSPost2010Prop56
140
1.0
102
RTVSPost2010PropOp56
 70
     1
102
RTVSPost2010Prop57
140
1.0
102
RTVSPost2010PropOp57
 70
     1
  0
XRECORD
  5
4AE
102
{ACAD_REACTORS
330
4AD
102
}
330
4AD
100
AcDbXrecord
280
     1
102
RTVSPost2010Prop28
280
     0
102
RTVSPost2010PropOp28
 70
     1
102
RTVSPost2010Prop29
280
     1
102
RTVSPost2010PropOp29
 70
     1
102
RTVSPost2010Prop30
280
     1
102
RTVSPost2010PropOp30
 70
     1
102
RTVSPost2010Prop31
280
     0
102
RTVSPost2010PropOp31
 70
     1
102
RTVSPost2010Prop32
280
     0
102
RTVSPost2010PropOp32
 70
     1
102
RTVSPost2010Prop33
280
     0
102
RTVSPost2010PropOp33
 70
     1
102
RTVSPost2010Prop34
280
     0
102
RTVSPost2010PropOp34
 70
     1
102
RTVSPost2010Prop35
280
     0
102
RTVSPost2010PropOp35
 70
     1
102
RTVSPost2010Prop36
280
     0
102
RTVSPost2010PropOp36
 70
     1
102
RTVSPost2010Prop37
 90
       50
102
RTVSPost2010PropOp37
 70
     1
102
RTVSPost2010Prop38
140
0.0
102
RTVSPost2010PropOp38
 70
     1
102
RTVSPost2010Prop39
140
1.0
102
RTVSPost2010PropOp39
 70
     1
102
RTVSPost2010Prop40
 90
        0
102
RTVSPost2010PropOp40
 70
     1
102
RTVSPost2010Prop41ColorIndex
 90
       18
102
RTVSPost2010Prop41ColorRGB
 90
        0
102
RTVSPost2010PropOp41
 70
     1
102
RTVSPost2010Prop42
 90
       50
102
RTVSPost2010PropOp42
 70
     1
102
RTVSPost2010Prop43
 90
        3
102
RTVSPost2010PropOp43
 70
     1
102
RTVSPost2010Prop44ColorIndex
 90
        5
102
RTVSPost2010Prop44ColorRGB
 90
      255
102
RTVSPost2010PropOp44
 70
     1
102
RTVSPost2010Prop45
280
     0
102
RTVSPost2010PropOp45
 70
     1
102
RTVSPost2010Prop46
 90
       50
102
RTVSPost2010PropOp46
 70
     1
102
RTVSPost2010Prop47
 90
       50
102
RTVSPost2010PropOp47
 70
     1
102
RTVSPost2010Prop48
 90
       50
102
RTVSPost2010PropOp48
 70
     1
102
RTVSPost2010Prop49
280
     0
102
RTVSPost2010PropOp49
 70
     1
102
RTVSPost2010Prop50
 90
       50
102
RTVSPost2010PropOp50
 70
     1
102
RTVSPost2010Prop51ColorIndex
 90
      256
102
RTVSPost2010Prop51ColorRGB
 90
-16777216
102
RTVSPost2010PropOp51
 70
     0
102
RTVSPost2010Prop52
140
1.0
102
RTVSPost2010PropOp52
 70
     0
102
RTVSPost2010Prop53
 90
        2
102
RTVSPost2010PropOp53
 70
     1
102
RTVSPost2010Prop54
  1
strokes_ogs.tif
102
RTVSPost2010PropOp54
 70
     1
102
RTVSPost2010Prop55
280
     0
102
RTVSPost2010PropOp55
 70
     1
102
RTVSPost2010Prop56
140
1.0
102
RTVSPost2010PropOp56
 70
     1
102
RTVSPost2010Prop57
140
1.0
102
RTVSPost2010PropOp57
 70
     1
  0
XRECORD
  5
4B6
102
{ACAD_REACTORS
330
4B5
102
}
330
4B5
100
AcDbXrecord
280
     1
102
RTVSPost2010Prop28
280
     0
102
RTVSPost2010PropOp28
 70
     1
102
RTVSPost2010Prop29
280
     1
102
RTVSPost2010PropOp29
 70
     1
102
RTVSPost2010Prop30
280
     1
102
RTVSPost2010PropOp30
 70
     1
102
RTVSPost2010Prop31
280
     0
102
RTVSPost2010PropOp31
 70
     1
102
RTVSPost2010Prop32
280
     0
102
RTVSPost2010PropOp32
 70
     1
102
RTVSPost2010Prop33
280
     0
102
RTVSPost2010PropOp33
 70
     1
102
RTVSPost2010Prop34
280
     0
102
RTVSPost2010PropOp34
 70
     1
102
RTVSPost2010Prop35
280
     0
102
RTVSPost2010PropOp35
 70
     1
102
RTVSPost2010Prop36
280
     0
102
RTVSPost2010PropOp36
 70
     1
102
RTVSPost2010Prop37
 90
       50
102
RTVSPost2010PropOp37
 70
     1
102
RTVSPost2010Prop38
140
0.0
102
RTVSPost2010PropOp38
 70
     1
102
RTVSPost2010Prop39
140
1.0
102
RTVSPost2010PropOp39
 70
     1
102
RTVSPost2010Prop40
 90
        0
102
RTVSPost2010PropOp40
 70
     1
102
RTVSPost2010Prop41ColorIndex
 90
       18
102
RTVSPost2010Prop41ColorRGB
 90
        0
102
RTVSPost2010PropOp41
 70
     1
102
RTVSPost2010Prop42
 90
       50
102
RTVSPost2010PropOp42
 70
     1
102
RTVSPost2010Prop43
 90
        3
102
RTVSPost2010PropOp43
 70
     1
102
RTVSPost2010Prop44ColorIndex
 90
        5
102
RTVSPost2010Prop44ColorRGB
 90
      255
102
RTVSPost2010PropOp44
 70
     1
102
RTVSPost2010Prop45
280
     0
102
RTVSPost2010PropOp45
 70
     1
102
RTVSPost2010Prop46
 90
       50
102
RTVSPost2010PropOp46
 70
     1
102
RTVSPost2010Prop47
 90
       50
102
RTVSPost2010PropOp47
 70
     1
102
RTVSPost2010Prop48
 90
       50
102
RTVSPost2010PropOp48
 70
     1
102
RTVSPost2010Prop49
280
     0
102
RTVSPost2010PropOp49
 70
     1
102
RTVSPost2010Prop50
 90
       50
102
RTVSPost2010PropOp50
 70
     1
102
RTVSPost2010Prop51ColorIndex
 90
      256
102
RTVSPost2010Prop51ColorRGB
 90
-16777216
102
RTVSPost2010PropOp51
 70
     0
102
RTVSPost2010Prop52
140
1.0
102
RTVSPost2010PropOp52
 70
     0
102
RTVSPost2010Prop53
 90
        2
102
RTVSPost2010PropOp53
 70
     1
102
RTVSPost2010Prop54
  1
strokes_ogs.tif
102
RTVSPost2010PropOp54
 70
     1
102
RTVSPost2010Prop55
280
     0
102
RTVSPost2010PropOp55
 70
     1
102
RTVSPost2010Prop56
140
1.0
102
RTVSPost2010PropOp56
 70
     1
102
RTVSPost2010Prop57
140
1.0
102
RTVSPost2010PropOp57
 70
     1
  0
XRECORD
  5
4AA
102
{ACAD_REACTORS
330
4A9
102
}
330
4A9
100
AcDbXrecord
280
     1
102
RTVSPost2010Prop28
280
     0
102
RTVSPost2010PropOp28
 70
     1
102
RTVSPost2010Prop29
280
     1
102
RTVSPost2010PropOp29
 70
     1
102
RTVSPost2010Prop30
280
     1
102
RTVSPost2010PropOp30
 70
     1
102
RTVSPost2010Prop31
280
     0
102
RTVSPost2010PropOp31
 70
     1
102
RTVSPost2010Prop32
280
     0
102
RTVSPost2010PropOp32
 70
     1
102
RTVSPost2010Prop33
280
     0
102
RTVSPost2010PropOp33
 70
     1
102
RTVSPost2010Prop34
280
     0
102
RTVSPost2010PropOp34
 70
     1
102
RTVSPost2010Prop35
280
     0
102
RTVSPost2010PropOp35
 70
     1
102
RTVSPost2010Prop36
280
     0
102
RTVSPost2010PropOp36
 70
     1
102
RTVSPost2010Prop37
 90
       50
102
RTVSPost2010PropOp37
 70
     1
102
RTVSPost2010Prop38
140
0.0
102
RTVSPost2010PropOp38
 70
     1
102
RTVSPost2010Prop39
140
1.0
102
RTVSPost2010PropOp39
 70
     1
102
RTVSPost2010Prop40
 90
        0
102
RTVSPost2010PropOp40
 70
     1
102
RTVSPost2010Prop41ColorIndex
 90
       18
102
RTVSPost2010Prop41ColorRGB
 90
        0
102
RTVSPost2010PropOp41
 70
     1
102
RTVSPost2010Prop42
 90
       50
102
RTVSPost2010PropOp42
 70
     1
102
RTVSPost2010Prop43
 90
        3
102
RTVSPost2010PropOp43
 70
     1
102
RTVSPost2010Prop44ColorIndex
 90
        5
102
RTVSPost2010Prop44ColorRGB
 90
      255
102
RTVSPost2010PropOp44
 70
     1
102
RTVSPost2010Prop45
280
     0
102
RTVSPost2010PropOp45
 70
     1
102
RTVSPost2010Prop46
 90
       50
102
RTVSPost2010PropOp46
 70
     1
102
RTVSPost2010Prop47
 90
       50
102
RTVSPost2010PropOp47
 70
     1
102
RTVSPost2010Prop48
 90
       50
102
RTVSPost2010PropOp48
 70
     1
102
RTVSPost2010Prop49
280
     0
102
RTVSPost2010PropOp49
 70
     1
102
RTVSPost2010Prop50
 90
       50
102
RTVSPost2010PropOp50
 70
     1
102
RTVSPost2010Prop51ColorIndex
 90
      256
102
RTVSPost2010Prop51ColorRGB
 90
-16777216
102
RTVSPost2010PropOp51
 70
     0
102
RTVSPost2010Prop52
140
1.0
102
RTVSPost2010PropOp52
 70
     0
102
RTVSPost2010Prop53
 90
        2
102
RTVSPost2010PropOp53
 70
     1
102
RTVSPost2010Prop54
  1
strokes_ogs.tif
102
RTVSPost2010PropOp54
 70
     1
102
RTVSPost2010Prop55
280
     0
102
RTVSPost2010PropOp55
 70
     1
102
RTVSPost2010Prop56
140
1.0
102
RTVSPost2010PropOp56
 70
     1
102
RTVSPost2010Prop57
140
1.0
102
RTVSPost2010PropOp57
 70
     1
  0
XRECORD
  5
4AC
102
{ACAD_REACTORS
330
4AB
102
}
330
4AB
100
AcDbXrecord
280
     1
102
RTVSPost2010Prop28
280
     0
102
RTVSPost2010PropOp28
 70
     1
102
RTVSPost2010Prop29
280
     1
102
RTVSPost2010PropOp29
 70
     1
102
RTVSPost2010Prop30
280
     1
102
RTVSPost2010PropOp30
 70
     1
102
RTVSPost2010Prop31
280
     0
102
RTVSPost2010PropOp31
 70
     1
102
RTVSPost2010Prop32
280
     0
102
RTVSPost2010PropOp32
 70
     1
102
RTVSPost2010Prop33
280
     0
102
RTVSPost2010PropOp33
 70
     1
102
RTVSPost2010Prop34
280
     0
102
RTVSPost2010PropOp34
 70
     1
102
RTVSPost2010Prop35
280
     0
102
RTVSPost2010PropOp35
 70
     1
102
RTVSPost2010Prop36
280
     0
102
RTVSPost2010PropOp36
 70
     1
102
RTVSPost2010Prop37
 90
       50
102
RTVSPost2010PropOp37
 70
     1
102
RTVSPost2010Prop38
140
0.0
102
RTVSPost2010PropOp38
 70
     1
102
RTVSPost2010Prop39
140
1.0
102
RTVSPost2010PropOp39
 70
     1
102
RTVSPost2010Prop40
 90
        0
102
RTVSPost2010PropOp40
 70
     1
102
RTVSPost2010Prop41ColorIndex
 90
       18
102
RTVSPost2010Prop41ColorRGB
 90
        0
102
RTVSPost2010PropOp41
 70
     1
102
RTVSPost2010Prop42
 90
       50
102
RTVSPost2010PropOp42
 70
     1
102
RTVSPost2010Prop43
 90
        3
102
RTVSPost2010PropOp43
 70
     1
102
RTVSPost2010Prop44ColorIndex
 90
        5
102
RTVSPost2010Prop44ColorRGB
 90
      255
102
RTVSPost2010PropOp44
 70
     1
102
RTVSPost2010Prop45
280
     0
102
RTVSPost2010PropOp45
 70
     1
102
RTVSPost2010Prop46
 90
       50
102
RTVSPost2010PropOp46
 70
     1
102
RTVSPost2010Prop47
 90
       50
102
RTVSPost2010PropOp47
 70
     1
102
RTVSPost2010Prop48
 90
       50
102
RTVSPost2010PropOp48
 70
     1
102
RTVSPost2010Prop49
280
     0
102
RTVSPost2010PropOp49
 70
     1
102
RTVSPost2010Prop50
 90
       50
102
RTVSPost2010PropOp50
 70
     1
102
RTVSPost2010Prop51ColorIndex
 90
      256
102
RTVSPost2010Prop51ColorRGB
 90
-16777216
102
RTVSPost2010PropOp51
 70
     0
102
RTVSPost2010Prop52
140
1.0
102
RTVSPost2010PropOp52
 70
     0
102
RTVSPost2010Prop53
 90
        2
102
RTVSPost2010PropOp53
 70
     1
102
RTVSPost2010Prop54
  1
strokes_ogs.tif
102
RTVSPost2010PropOp54
 70
     1
102
RTVSPost2010Prop55
280
     0
102
RTVSPost2010PropOp55
 70
     1
102
RTVSPost2010Prop56
140
1.0
102
RTVSPost2010PropOp56
 70
     1
102
RTVSPost2010Prop57
140
1.0
102
RTVSPost2010PropOp57
 70
     1
  0
XRECORD
  5
4BC
102
{ACAD_REACTORS
330
4BB
102
}
330
4BB
100
AcDbXrecord
280
     1
102
RTVSPost2010Prop28
280
     0
102
RTVSPost2010PropOp28
 70
     0
102
RTVSPost2010Prop29
280
     1
102
RTVSPost2010PropOp29
 70
     0
102
RTVSPost2010Prop30
280
     1
102
RTVSPost2010PropOp30
 70
     0
102
RTVSPost2010Prop31
280
     0
102
RTVSPost2010PropOp31
 70
     0
102
RTVSPost2010Prop32
280
     0
102
RTVSPost2010PropOp32
 70
     0
102
RTVSPost2010Prop33
280
     0
102
RTVSPost2010PropOp33
 70
     0
102
RTVSPost2010Prop34
280
     0
102
RTVSPost2010PropOp34
 70
     0
102
RTVSPost2010Prop35
280
     0
102
RTVSPost2010PropOp35
 70
     0
102
RTVSPost2010Prop36
280
     0
102
RTVSPost2010PropOp36
 70
     0
102
RTVSPost2010Prop37
 90
       50
102
RTVSPost2010PropOp37
 70
     0
102
RTVSPost2010Prop38
140
0.0
102
RTVSPost2010PropOp38
 70
     0
102
RTVSPost2010Prop39
140
1.0
102
RTVSPost2010PropOp39
 70
     0
102
RTVSPost2010Prop40
 90
        0
102
RTVSPost2010PropOp40
 70
     0
102
RTVSPost2010Prop41ColorIndex
 90
       18
102
RTVSPost2010Prop41ColorRGB
 90
        0
102
RTVSPost2010PropOp41
 70
     0
102
RTVSPost2010Prop42
 90
       50
102
RTVSPost2010PropOp42
 70
     0
102
RTVSPost2010Prop43
 90
        3
102
RTVSPost2010PropOp43
 70
     0
102
RTVSPost2010Prop44ColorIndex
 90
        5
102
RTVSPost2010Prop44ColorRGB
 90
      255
102
RTVSPost2010PropOp44
 70
     0
102
RTVSPost2010Prop45
280
     0
102
RTVSPost2010PropOp45
 70
     0
102
RTVSPost2010Prop46
 90
       50
102
RTVSPost2010PropOp46
 70
     0
102
RTVSPost2010Prop47
 90
       50
102
RTVSPost2010PropOp47
 70
     0
102
RTVSPost2010Prop48
 90
       50
102
RTVSPost2010PropOp48
 70
     0
102
RTVSPost2010Prop49
280
     0
102
RTVSPost2010PropOp49
 70
     0
102
RTVSPost2010Prop50
 90
       50
102
RTVSPost2010PropOp50
 70
     0
102
RTVSPost2010Prop51ColorIndex
 90
      256
102
RTVSPost2010Prop51ColorRGB
 90
-16777216
102
RTVSPost2010PropOp51
 70
     0
102
RTVSPost2010Prop52
140
1.0
102
RTVSPost2010PropOp52
 70
     0
102
RTVSPost2010Prop53
 90
        2
102
RTVSPost2010PropOp53
 70
     0
102
RTVSPost2010Prop54
  1
strokes_ogs.tif
102
RTVSPost2010PropOp54
 70
     0
102
RTVSPost2010Prop55
280
     0
102
RTVSPost2010PropOp55
 70
     0
102
RTVSPost2010Prop56
140
1.0
102
RTVSPost2010PropOp56
 70
     0
102
RTVSPost2010Prop57
140
1.0
102
RTVSPost2010PropOp57
 70
     0
  0
XRECORD
  5
4B4
102
{ACAD_REACTORS
330
4B3
102
}
330
4B3
100
AcDbXrecord
280
     1
102
RTVSPost2010Prop28
280
     0
102
RTVSPost2010PropOp28
 70
     1
102
RTVSPost2010Prop29
280
     1
102
RTVSPost2010PropOp29
 70
     1
102
RTVSPost2010Prop30
280
     1
102
RTVSPost2010PropOp30
 70
     1
102
RTVSPost2010Prop31
280
     0
102
RTVSPost2010PropOp31
 70
     1
102
RTVSPost2010Prop32
280
     0
102
RTVSPost2010PropOp32
 70
     1
102
RTVSPost2010Prop33
280
     0
102
RTVSPost2010PropOp33
 70
     1
102
RTVSPost2010Prop34
280
     0
102
RTVSPost2010PropOp34
 70
     1
102
RTVSPost2010Prop35
280
     0
102
RTVSPost2010PropOp35
 70
     1
102
RTVSPost2010Prop36
280
     0
102
RTVSPost2010PropOp36
 70
     1
102
RTVSPost2010Prop37
 90
       50
102
RTVSPost2010PropOp37
 70
     1
102
RTVSPost2010Prop38
140
0.0
102
RTVSPost2010PropOp38
 70
     1
102
RTVSPost2010Prop39
140
1.0
102
RTVSPost2010PropOp39
 70
     1
102
RTVSPost2010Prop40
 90
        0
102
RTVSPost2010PropOp40
 70
     1
102
RTVSPost2010Prop41ColorIndex
 90
       18
102
RTVSPost2010Prop41ColorRGB
 90
        0
102
RTVSPost2010PropOp41
 70
     1
102
RTVSPost2010Prop42
 90
       50
102
RTVSPost2010PropOp42
 70
     1
102
RTVSPost2010Prop43
 90
        3
102
RTVSPost2010PropOp43
 70
     1
102
RTVSPost2010Prop44ColorIndex
 90
        5
102
RTVSPost2010Prop44ColorRGB
 90
      255
102
RTVSPost2010PropOp44
 70
     1
102
RTVSPost2010Prop45
280
     0
102
RTVSPost2010PropOp45
 70
     1
102
RTVSPost2010Prop46
 90
       50
102
RTVSPost2010PropOp46
 70
     1
102
RTVSPost2010Prop47
 90
       50
102
RTVSPost2010PropOp47
 70
     1
102
RTVSPost2010Prop48
 90
       50
102
RTVSPost2010PropOp48
 70
     1
102
RTVSPost2010Prop49
280
     0
102
RTVSPost2010PropOp49
 70
     1
102
RTVSPost2010Prop50
 90
       50
102
RTVSPost2010PropOp50
 70
     1
102
RTVSPost2010Prop51ColorIndex
 90
      256
102
RTVSPost2010Prop51ColorRGB
 90
-16777216
102
RTVSPost2010PropOp51
 70
     0
102
RTVSPost2010Prop52
140
1.0
102
RTVSPost2010PropOp52
 70
     0
102
RTVSPost2010Prop53
 90
        2
102
RTVSPost2010PropOp53
 70
     1
102
RTVSPost2010Prop54
  1
strokes_ogs.tif
102
RTVSPost2010PropOp54
 70
     1
102
RTVSPost2010Prop55
280
     0
102
RTVSPost2010PropOp55
 70
     1
102
RTVSPost2010Prop56
140
1.0
102
RTVSPost2010PropOp56
 70
     1
102
RTVSPost2010Prop57
140
1.0
102
RTVSPost2010PropOp57
 70
     1
  0
XRECORD
  5
498
102
{ACAD_REACTORS
330
497
102
}
330
497
100
AcDbXrecord
280
     1
102
RTVSPost2010Prop28
280
     0
102
RTVSPost2010PropOp28
 70
     1
102
RTVSPost2010Prop29
280
     1
102
RTVSPost2010PropOp29
 70
     1
102
RTVSPost2010Prop30
280
     1
102
RTVSPost2010PropOp30
 70
     1
102
RTVSPost2010Prop31
280
     0
102
RTVSPost2010PropOp31
 70
     1
102
RTVSPost2010Prop32
280
     0
102
RTVSPost2010PropOp32
 70
     1
102
RTVSPost2010Prop33
280
     0
102
RTVSPost2010PropOp33
 70
     1
102
RTVSPost2010Prop34
280
     0
102
RTVSPost2010PropOp34
 70
     1
102
RTVSPost2010Prop35
280
     0
102
RTVSPost2010PropOp35
 70
     1
102
RTVSPost2010Prop36
280
     0
102
RTVSPost2010PropOp36
 70
     1
102
RTVSPost2010Prop37
 90
       50
102
RTVSPost2010PropOp37
 70
     1
102
RTVSPost2010Prop38
140
0.0
102
RTVSPost2010PropOp38
 70
     1
102
RTVSPost2010Prop39
140
1.0
102
RTVSPost2010PropOp39
 70
     1
102
RTVSPost2010Prop40
 90
        0
102
RTVSPost2010PropOp40
 70
     1
102
RTVSPost2010Prop41ColorIndex
 90
       18
102
RTVSPost2010Prop41ColorRGB
 90
        0
102
RTVSPost2010PropOp41
 70
     1
102
RTVSPost2010Prop42
 90
       50
102
RTVSPost2010PropOp42
 70
     1
102
RTVSPost2010Prop43
 90
        3
102
RTVSPost2010PropOp43
 70
     1
102
RTVSPost2010Prop44ColorIndex
 90
        5
102
RTVSPost2010Prop44ColorRGB
 90
      255
102
RTVSPost2010PropOp44
 70
     1
102
RTVSPost2010Prop45
280
     0
102
RTVSPost2010PropOp45
 70
     1
102
RTVSPost2010Prop46
 90
       50
102
RTVSPost2010PropOp46
 70
     1
102
RTVSPost2010Prop47
 90
       50
102
RTVSPost2010PropOp47
 70
     1
102
RTVSPost2010Prop48
 90
       50
102
RTVSPost2010PropOp48
 70
     1
102
RTVSPost2010Prop49
280
     0
102
RTVSPost2010PropOp49
 70
     1
102
RTVSPost2010Prop50
 90
       50
102
RTVSPost2010PropOp50
 70
     1
102
RTVSPost2010Prop51ColorIndex
 90
      256
102
RTVSPost2010Prop51ColorRGB
 90
-16777216
102
RTVSPost2010PropOp51
 70
     0
102
RTVSPost2010Prop52
140
1.0
102
RTVSPost2010PropOp52
 70
     0
102
RTVSPost2010Prop53
 90
        2
102
RTVSPost2010PropOp53
 70
     1
102
RTVSPost2010Prop54
  1
strokes_ogs.tif
102
RTVSPost2010PropOp54
 70
     1
102
RTVSPost2010Prop55
280
     0
102
RTVSPost2010PropOp55
 70
     1
102
RTVSPost2010Prop56
140
1.0
102
RTVSPost2010PropOp56
 70
     1
102
RTVSPost2010Prop57
140
1.0
102
RTVSPost2010PropOp57
 70
     1
  0
XRECORD
  5
49A
102
{ACAD_REACTORS
330
499
102
}
330
499
100
AcDbXrecord
280
     1
102
RTVSPost2010Prop28
280
     0
102
RTVSPost2010PropOp28
 70
     1
102
RTVSPost2010Prop29
280
     1
102
RTVSPost2010PropOp29
 70
     1
102
RTVSPost2010Prop30
280
     1
102
RTVSPost2010PropOp30
 70
     1
102
RTVSPost2010Prop31
280
     0
102
RTVSPost2010PropOp31
 70
     1
102
RTVSPost2010Prop32
280
     0
102
RTVSPost2010PropOp32
 70
     1
102
RTVSPost2010Prop33
280
     0
102
RTVSPost2010PropOp33
 70
     1
102
RTVSPost2010Prop34
280
     0
102
RTVSPost2010PropOp34
 70
     1
102
RTVSPost2010Prop35
280
     0
102
RTVSPost2010PropOp35
 70
     1
102
RTVSPost2010Prop36
280
     0
102
RTVSPost2010PropOp36
 70
     1
102
RTVSPost2010Prop37
 90
       50
102
RTVSPost2010PropOp37
 70
     1
102
RTVSPost2010Prop38
140
0.0
102
RTVSPost2010PropOp38
 70
     1
102
RTVSPost2010Prop39
140
1.0
102
RTVSPost2010PropOp39
 70
     1
102
RTVSPost2010Prop40
 90
        0
102
RTVSPost2010PropOp40
 70
     1
102
RTVSPost2010Prop41ColorIndex
 90
       18
102
RTVSPost2010Prop41ColorRGB
 90
        0
102
RTVSPost2010PropOp41
 70
     1
102
RTVSPost2010Prop42
 90
       50
102
RTVSPost2010PropOp42
 70
     1
102
RTVSPost2010Prop43
 90
        3
102
RTVSPost2010PropOp43
 70
     1
102
RTVSPost2010Prop44ColorIndex
 90
        5
102
RTVSPost2010Prop44ColorRGB
 90
      255
102
RTVSPost2010PropOp44
 70
     1
102
RTVSPost2010Prop45
280
     0
102
RTVSPost2010PropOp45
 70
     1
102
RTVSPost2010Prop46
 90
       50
102
RTVSPost2010PropOp46
 70
     1
102
RTVSPost2010Prop47
 90
       50
102
RTVSPost2010PropOp47
 70
     1
102
RTVSPost2010Prop48
 90
       50
102
RTVSPost2010PropOp48
 70
     1
102
RTVSPost2010Prop49
280
     0
102
RTVSPost2010PropOp49
 70
     1
102
RTVSPost2010Prop50
 90
       50
102
RTVSPost2010PropOp50
 70
     1
102
RTVSPost2010Prop51ColorIndex
 90
      256
102
RTVSPost2010Prop51ColorRGB
 90
-16777216
102
RTVSPost2010PropOp51
 70
     0
102
RTVSPost2010Prop52
140
1.0
102
RTVSPost2010PropOp52
 70
     0
102
RTVSPost2010Prop53
 90
        2
102
RTVSPost2010PropOp53
 70
     1
102
RTVSPost2010Prop54
  1
strokes_ogs.tif
102
RTVSPost2010PropOp54
 70
     1
102
RTVSPost2010Prop55
280
     0
102
RTVSPost2010PropOp55
 70
     1
102
RTVSPost2010Prop56
140
1.0
102
RTVSPost2010PropOp56
 70
     1
102
RTVSPost2010Prop57
140
1.0
102
RTVSPost2010PropOp57
 70
     1
  0
XRECORD
  5
49C
102
{ACAD_REACTORS
330
49B
102
}
330
49B
100
AcDbXrecord
280
     1
102
RTVSPost2010Prop28
280
     0
102
RTVSPost2010PropOp28
 70
     1
102
RTVSPost2010Prop29
280
     1
102
RTVSPost2010PropOp29
 70
     1
102
RTVSPost2010Prop30
280
     1
102
RTVSPost2010PropOp30
 70
     1
102
RTVSPost2010Prop31
280
     0
102
RTVSPost2010PropOp31
 70
     1
102
RTVSPost2010Prop32
280
     0
102
RTVSPost2010PropOp32
 70
     1
102
RTVSPost2010Prop33
280
     0
102
RTVSPost2010PropOp33
 70
     1
102
RTVSPost2010Prop34
280
     0
102
RTVSPost2010PropOp34
 70
     1
102
RTVSPost2010Prop35
280
     0
102
RTVSPost2010PropOp35
 70
     1
102
RTVSPost2010Prop36
280
     0
102
RTVSPost2010PropOp36
 70
     1
102
RTVSPost2010Prop37
 90
       50
102
RTVSPost2010PropOp37
 70
     1
102
RTVSPost2010Prop38
140
0.0
102
RTVSPost2010PropOp38
 70
     1
102
RTVSPost2010Prop39
140
1.0
102
RTVSPost2010PropOp39
 70
     1
102
RTVSPost2010Prop40
 90
        0
102
RTVSPost2010PropOp40
 70
     1
102
RTVSPost2010Prop41ColorIndex
 90
       18
102
RTVSPost2010Prop41ColorRGB
 90
        0
102
RTVSPost2010PropOp41
 70
     1
102
RTVSPost2010Prop42
 90
       50
102
RTVSPost2010PropOp42
 70
     1
102
RTVSPost2010Prop43
 90
        3
102
RTVSPost2010PropOp43
 70
     1
102
RTVSPost2010Prop44ColorIndex
 90
        5
102
RTVSPost2010Prop44ColorRGB
 90
      255
102
RTVSPost2010PropOp44
 70
     1
102
RTVSPost2010Prop45
280
     0
102
RTVSPost2010PropOp45
 70
     1
102
RTVSPost2010Prop46
 90
       50
102
RTVSPost2010PropOp46
 70
     1
102
RTVSPost2010Prop47
 90
       50
102
RTVSPost2010PropOp47
 70
     1
102
RTVSPost2010Prop48
 90
       50
102
RTVSPost2010PropOp48
 70
     1
102
RTVSPost2010Prop49
280
     0
102
RTVSPost2010PropOp49
 70
     1
102
RTVSPost2010Prop50
 90
       50
102
RTVSPost2010PropOp50
 70
     1
102
RTVSPost2010Prop51ColorIndex
 90
      256
102
RTVSPost2010Prop51ColorRGB
 90
-16777216
102
RTVSPost2010PropOp51
 70
     0
102
RTVSPost2010Prop52
140
1.0
102
RTVSPost2010PropOp52
 70
     0
102
RTVSPost2010Prop53
 90
        2
102
RTVSPost2010PropOp53
 70
     1
102
RTVSPost2010Prop54
  1
strokes_ogs.tif
102
RTVSPost2010PropOp54
 70
     1
102
RTVSPost2010Prop55
280
     0
102
RTVSPost2010PropOp55
 70
     1
102
RTVSPost2010Prop56
140
1.0
102
RTVSPost2010PropOp56
 70
     1
102
RTVSPost2010Prop57
140
1.0
102
RTVSPost2010PropOp57
 70
     1
  0
XRECORD
  5
49E
102
{ACAD_REACTORS
330
49D
102
}
330
49D
100
AcDbXrecord
280
     1
102
RTVSPost2010Prop28
280
     0
102
RTVSPost2010PropOp28
 70
     1
102
RTVSPost2010Prop29
280
     1
102
RTVSPost2010PropOp29
 70
     1
102
RTVSPost2010Prop30
280
     1
102
RTVSPost2010PropOp30
 70
     1
102
RTVSPost2010Prop31
280
     0
102
RTVSPost2010PropOp31
 70
     1
102
RTVSPost2010Prop32
280
     0
102
RTVSPost2010PropOp32
 70
     1
102
RTVSPost2010Prop33
280
     0
102
RTVSPost2010PropOp33
 70
     1
102
RTVSPost2010Prop34
280
     0
102
RTVSPost2010PropOp34
 70
     1
102
RTVSPost2010Prop35
280
     0
102
RTVSPost2010PropOp35
 70
     1
102
RTVSPost2010Prop36
280
     0
102
RTVSPost2010PropOp36
 70
     1
102
RTVSPost2010Prop37
 90
       50
102
RTVSPost2010PropOp37
 70
     1
102
RTVSPost2010Prop38
140
0.0
102
RTVSPost2010PropOp38
 70
     1
102
RTVSPost2010Prop39
140
1.0
102
RTVSPost2010PropOp39
 70
     1
102
RTVSPost2010Prop40
 90
        0
102
RTVSPost2010PropOp40
 70
     1
102
RTVSPost2010Prop41ColorIndex
 90
       18
102
RTVSPost2010Prop41ColorRGB
 90
        0
102
RTVSPost2010PropOp41
 70
     1
102
RTVSPost2010Prop42
 90
       50
102
RTVSPost2010PropOp42
 70
     1
102
RTVSPost2010Prop43
 90
        3
102
RTVSPost2010PropOp43
 70
     1
102
RTVSPost2010Prop44ColorIndex
 90
        5
102
RTVSPost2010Prop44ColorRGB
 90
      255
102
RTVSPost2010PropOp44
 70
     1
102
RTVSPost2010Prop45
280
     0
102
RTVSPost2010PropOp45
 70
     1
102
RTVSPost2010Prop46
 90
       50
102
RTVSPost2010PropOp46
 70
     1
102
RTVSPost2010Prop47
 90
       50
102
RTVSPost2010PropOp47
 70
     1
102
RTVSPost2010Prop48
 90
       50
102
RTVSPost2010PropOp48
 70
     1
102
RTVSPost2010Prop49
280
     0
102
RTVSPost2010PropOp49
 70
     1
102
RTVSPost2010Prop50
 90
       50
102
RTVSPost2010PropOp50
 70
     1
102
RTVSPost2010Prop51ColorIndex
 90
      256
102
RTVSPost2010Prop51ColorRGB
 90
-16777216
102
RTVSPost2010PropOp51
 70
     0
102
RTVSPost2010Prop52
140
1.0
102
RTVSPost2010PropOp52
 70
     0
102
RTVSPost2010Prop53
 90
        2
102
RTVSPost2010PropOp53
 70
     1
102
RTVSPost2010Prop54
  1
strokes_ogs.tif
102
RTVSPost2010PropOp54
 70
     1
102
RTVSPost2010Prop55
280
     0
102
RTVSPost2010PropOp55
 70
     1
102
RTVSPost2010Prop56
140
1.0
102
RTVSPost2010PropOp56
 70
     1
102
RTVSPost2010Prop57
140
1.0
102
RTVSPost2010PropOp57
 70
     1
  0
XRECORD
  5
4A4
102
{ACAD_REACTORS
330
4A3
102
}
330
4A3
100
AcDbXrecord
280
     1
102
RTVSPost2010Prop28
280
     0
102
RTVSPost2010PropOp28
 70
     1
102
RTVSPost2010Prop29
280
     1
102
RTVSPost2010PropOp29
 70
     1
102
RTVSPost2010Prop30
280
     1
102
RTVSPost2010PropOp30
 70
     1
102
RTVSPost2010Prop31
280
     0
102
RTVSPost2010PropOp31
 70
     1
102
RTVSPost2010Prop32
280
     0
102
RTVSPost2010PropOp32
 70
     1
102
RTVSPost2010Prop33
280
     0
102
RTVSPost2010PropOp33
 70
     1
102
RTVSPost2010Prop34
280
     0
102
RTVSPost2010PropOp34
 70
     1
102
RTVSPost2010Prop35
280
     0
102
RTVSPost2010PropOp35
 70
     1
102
RTVSPost2010Prop36
280
     0
102
RTVSPost2010PropOp36
 70
     1
102
RTVSPost2010Prop37
 90
       50
102
RTVSPost2010PropOp37
 70
     1
102
RTVSPost2010Prop38
140
0.0
102
RTVSPost2010PropOp38
 70
     1
102
RTVSPost2010Prop39
140
1.0
102
RTVSPost2010PropOp39
 70
     1
102
RTVSPost2010Prop40
 90
        0
102
RTVSPost2010PropOp40
 70
     1
102
RTVSPost2010Prop41ColorIndex
 90
       18
102
RTVSPost2010Prop41ColorRGB
 90
        0
102
RTVSPost2010PropOp41
 70
     1
102
RTVSPost2010Prop42
 90
       50
102
RTVSPost2010PropOp42
 70
     1
102
RTVSPost2010Prop43
 90
        3
102
RTVSPost2010PropOp43
 70
     1
102
RTVSPost2010Prop44ColorIndex
 90
        5
102
RTVSPost2010Prop44ColorRGB
 90
      255
102
RTVSPost2010PropOp44
 70
     1
102
RTVSPost2010Prop45
280
     0
102
RTVSPost2010PropOp45
 70
     1
102
RTVSPost2010Prop46
 90
       50
102
RTVSPost2010PropOp46
 70
     1
102
RTVSPost2010Prop47
 90
       50
102
RTVSPost2010PropOp47
 70
     1
102
RTVSPost2010Prop48
 90
       50
102
RTVSPost2010PropOp48
 70
     1
102
RTVSPost2010Prop49
280
     0
102
RTVSPost2010PropOp49
 70
     1
102
RTVSPost2010Prop50
 90
       50
102
RTVSPost2010PropOp50
 70
     1
102
RTVSPost2010Prop51ColorIndex
 90
      256
102
RTVSPost2010Prop51ColorRGB
 90
-16777216
102
RTVSPost2010PropOp51
 70
     0
102
RTVSPost2010Prop52
140
1.0
102
RTVSPost2010PropOp52
 70
     0
102
RTVSPost2010Prop53
 90
        2
102
RTVSPost2010PropOp53
 70
     1
102
RTVSPost2010Prop54
  1
strokes_ogs.tif
102
RTVSPost2010PropOp54
 70
     1
102
RTVSPost2010Prop55
280
     0
102
RTVSPost2010PropOp55
 70
     1
102
RTVSPost2010Prop56
140
1.0
102
RTVSPost2010PropOp56
 70
     1
102
RTVSPost2010Prop57
140
1.0
102
RTVSPost2010PropOp57
 70
     1
  0
XRECORD
  5
4B8
102
{ACAD_REACTORS
330
4B7
102
}
330
4B7
100
AcDbXrecord
280
     1
102
RTVSPost2010Prop28
280
     0
102
RTVSPost2010PropOp28
 70
     0
102
RTVSPost2010Prop29
280
     1
102
RTVSPost2010PropOp29
 70
     0
102
RTVSPost2010Prop30
280
     1
102
RTVSPost2010PropOp30
 70
     0
102
RTVSPost2010Prop31
280
     0
102
RTVSPost2010PropOp31
 70
     0
102
RTVSPost2010Prop32
280
     0
102
RTVSPost2010PropOp32
 70
     0
102
RTVSPost2010Prop33
280
     0
102
RTVSPost2010PropOp33
 70
     0
102
RTVSPost2010Prop34
280
     0
102
RTVSPost2010PropOp34
 70
     0
102
RTVSPost2010Prop35
280
     0
102
RTVSPost2010PropOp35
 70
     0
102
RTVSPost2010Prop36
280
     0
102
RTVSPost2010PropOp36
 70
     0
102
RTVSPost2010Prop37
 90
       50
102
RTVSPost2010PropOp37
 70
     0
102
RTVSPost2010Prop38
140
0.0
102
RTVSPost2010PropOp38
 70
     0
102
RTVSPost2010Prop39
140
1.0
102
RTVSPost2010PropOp39
 70
     0
102
RTVSPost2010Prop40
 90
        0
102
RTVSPost2010PropOp40
 70
     0
102
RTVSPost2010Prop41ColorIndex
 90
       18
102
RTVSPost2010Prop41ColorRGB
 90
        0
102
RTVSPost2010PropOp41
 70
     0
102
RTVSPost2010Prop42
 90
       50
102
RTVSPost2010PropOp42
 70
     0
102
RTVSPost2010Prop43
 90
        3
102
RTVSPost2010PropOp43
 70
     0
102
RTVSPost2010Prop44ColorIndex
 90
        5
102
RTVSPost2010Prop44ColorRGB
 90
      255
102
RTVSPost2010PropOp44
 70
     0
102
RTVSPost2010Prop45
280
     0
102
RTVSPost2010PropOp45
 70
     0
102
RTVSPost2010Prop46
 90
       50
102
RTVSPost2010PropOp46
 70
     0
102
RTVSPost2010Prop47
 90
       50
102
RTVSPost2010PropOp47
 70
     0
102
RTVSPost2010Prop48
 90
       50
102
RTVSPost2010PropOp48
 70
     0
102
RTVSPost2010Prop49
280
     0
102
RTVSPost2010PropOp49
 70
     0
102
RTVSPost2010Prop50
 90
       50
102
RTVSPost2010PropOp50
 70
     0
102
RTVSPost2010Prop51ColorIndex
 90
      256
102
RTVSPost2010Prop51ColorRGB
 90
-16777216
102
RTVSPost2010PropOp51
 70
     0
102
RTVSPost2010Prop52
140
1.0
102
RTVSPost2010PropOp52
 70
     0
102
RTVSPost2010Prop53
 90
        2
102
RTVSPost2010PropOp53
 70
     0
102
RTVSPost2010Prop54
  1
strokes_ogs.tif
102
RTVSPost2010PropOp54
 70
     0
102
RTVSPost2010Prop55
280
     0
102
RTVSPost2010PropOp55
 70
     0
102
RTVSPost2010Prop56
140
1.0
102
RTVSPost2010PropOp56
 70
     0
102
RTVSPost2010Prop57
140
1.0
102
RTVSPost2010PropOp57
 70
     0
  0
XRECORD
  5
4B2
102
{ACAD_REACTORS
330
4B1
102
}
330
4B1
100
AcDbXrecord
280
     1
102
RTVSPost2010Prop28
280
     0
102
RTVSPost2010PropOp28
 70
     1
102
RTVSPost2010Prop29
280
     1
102
RTVSPost2010PropOp29
 70
     1
102
RTVSPost2010Prop30
280
     1
102
RTVSPost2010PropOp30
 70
     1
102
RTVSPost2010Prop31
280
     0
102
RTVSPost2010PropOp31
 70
     1
102
RTVSPost2010Prop32
280
     0
102
RTVSPost2010PropOp32
 70
     1
102
RTVSPost2010Prop33
280
     0
102
RTVSPost2010PropOp33
 70
     1
102
RTVSPost2010Prop34
280
     0
102
RTVSPost2010PropOp34
 70
     1
102
RTVSPost2010Prop35
280
     0
102
RTVSPost2010PropOp35
 70
     1
102
RTVSPost2010Prop36
280
     0
102
RTVSPost2010PropOp36
 70
     1
102
RTVSPost2010Prop37
 90
       50
102
RTVSPost2010PropOp37
 70
     1
102
RTVSPost2010Prop38
140
0.0
102
RTVSPost2010PropOp38
 70
     1
102
RTVSPost2010Prop39
140
1.0
102
RTVSPost2010PropOp39
 70
     1
102
RTVSPost2010Prop40
 90
        0
102
RTVSPost2010PropOp40
 70
     1
102
RTVSPost2010Prop41ColorIndex
 90
       18
102
RTVSPost2010Prop41ColorRGB
 90
        0
102
RTVSPost2010PropOp41
 70
     1
102
RTVSPost2010Prop42
 90
       50
102
RTVSPost2010PropOp42
 70
     1
102
RTVSPost2010Prop43
 90
        3
102
RTVSPost2010PropOp43
 70
     1
102
RTVSPost2010Prop44ColorIndex
 90
        5
102
RTVSPost2010Prop44ColorRGB
 90
      255
102
RTVSPost2010PropOp44
 70
     1
102
RTVSPost2010Prop45
280
     0
102
RTVSPost2010PropOp45
 70
     1
102
RTVSPost2010Prop46
 90
       50
102
RTVSPost2010PropOp46
 70
     1
102
RTVSPost2010Prop47
 90
       50
102
RTVSPost2010PropOp47
 70
     1
102
RTVSPost2010Prop48
 90
       50
102
RTVSPost2010PropOp48
 70
     1
102
RTVSPost2010Prop49
280
     0
102
RTVSPost2010PropOp49
 70
     1
102
RTVSPost2010Prop50
 90
       50
102
RTVSPost2010PropOp50
 70
     1
102
RTVSPost2010Prop51ColorIndex
 90
      256
102
RTVSPost2010Prop51ColorRGB
 90
-16777216
102
RTVSPost2010PropOp51
 70
     0
102
RTVSPost2010Prop52
140
1.0
102
RTVSPost2010PropOp52
 70
     0
102
RTVSPost2010Prop53
 90
        2
102
RTVSPost2010PropOp53
 70
     1
102
RTVSPost2010Prop54
  1
strokes_ogs.tif
102
RTVSPost2010PropOp54
 70
     1
102
RTVSPost2010Prop55
280
     0
102
RTVSPost2010PropOp55
 70
     1
102
RTVSPost2010Prop56
140
1.0
102
RTVSPost2010PropOp56
 70
     1
102
RTVSPost2010Prop57
140
1.0
102
RTVSPost2010PropOp57
 70
     1
  0
XRECORD
  5
4BA
102
{ACAD_REACTORS
330
4B9
102
}
330
4B9
100
AcDbXrecord
280
     1
102
RTVSPost2010Prop28
280
     0
102
RTVSPost2010PropOp28
 70
     0
102
RTVSPost2010Prop29
280
     1
102
RTVSPost2010PropOp29
 70
     0
102
RTVSPost2010Prop30
280
     1
102
RTVSPost2010PropOp30
 70
     0
102
RTVSPost2010Prop31
280
     0
102
RTVSPost2010PropOp31
 70
     0
102
RTVSPost2010Prop32
280
     0
102
RTVSPost2010PropOp32
 70
     0
102
RTVSPost2010Prop33
280
     0
102
RTVSPost2010PropOp33
 70
     0
102
RTVSPost2010Prop34
280
     0
102
RTVSPost2010PropOp34
 70
     0
102
RTVSPost2010Prop35
280
     0
102
RTVSPost2010PropOp35
 70
     0
102
RTVSPost2010Prop36
280
     0
102
RTVSPost2010PropOp36
 70
     0
102
RTVSPost2010Prop37
 90
       50
102
RTVSPost2010PropOp37
 70
     0
102
RTVSPost2010Prop38
140
0.0
102
RTVSPost2010PropOp38
 70
     0
102
RTVSPost2010Prop39
140
1.0
102
RTVSPost2010PropOp39
 70
     0
102
RTVSPost2010Prop40
 90
        0
102
RTVSPost2010PropOp40
 70
     0
102
RTVSPost2010Prop41ColorIndex
 90
       18
102
RTVSPost2010Prop41ColorRGB
 90
        0
102
RTVSPost2010PropOp41
 70
     0
102
RTVSPost2010Prop42
 90
       50
102
RTVSPost2010PropOp42
 70
     0
102
RTVSPost2010Prop43
 90
        3
102
RTVSPost2010PropOp43
 70
     0
102
RTVSPost2010Prop44ColorIndex
 90
        5
102
RTVSPost2010Prop44ColorRGB
 90
      255
102
RTVSPost2010PropOp44
 70
     0
102
RTVSPost2010Prop45
280
     0
102
RTVSPost2010PropOp45
 70
     0
102
RTVSPost2010Prop46
 90
       50
102
RTVSPost2010PropOp46
 70
     0
102
RTVSPost2010Prop47
 90
       50
102
RTVSPost2010PropOp47
 70
     0
102
RTVSPost2010Prop48
 90
       50
102
RTVSPost2010PropOp48
 70
     0
102
RTVSPost2010Prop49
280
     0
102
RTVSPost2010PropOp49
 70
     0
102
RTVSPost2010Prop50
 90
       50
102
RTVSPost2010PropOp50
 70
     0
102
RTVSPost2010Prop51ColorIndex
 90
      256
102
RTVSPost2010Prop51ColorRGB
 90
-16777216
102
RTVSPost2010PropOp51
 70
     0
102
RTVSPost2010Prop52
140
1.0
102
RTVSPost2010PropOp52
 70
     0
102
RTVSPost2010Prop53
 90
        2
102
RTVSPost2010PropOp53
 70
     0
102
RTVSPost2010Prop54
  1
strokes_ogs.tif
102
RTVSPost2010PropOp54
 70
     0
102
RTVSPost2010Prop55
280
     0
102
RTVSPost2010PropOp55
 70
     0
102
RTVSPost2010Prop56
140
1.0
102
RTVSPost2010PropOp56
 70
     0
102
RTVSPost2010Prop57
140
1.0
102
RTVSPost2010PropOp57
 70
     0
  0
XRECORD
  5
4A8
102
{ACAD_REACTORS
330
4A7
102
}
330
4A7
100
AcDbXrecord
280
     1
102
RTVSPost2010Prop28
280
     0
102
RTVSPost2010PropOp28
 70
     1
102
RTVSPost2010Prop29
280
     1
102
RTVSPost2010PropOp29
 70
     1
102
RTVSPost2010Prop30
280
     1
102
RTVSPost2010PropOp30
 70
     1
102
RTVSPost2010Prop31
280
     0
102
RTVSPost2010PropOp31
 70
     1
102
RTVSPost2010Prop32
280
     0
102
RTVSPost2010PropOp32
 70
     1
102
RTVSPost2010Prop33
280
     0
102
RTVSPost2010PropOp33
 70
     1
102
RTVSPost2010Prop34
280
     0
102
RTVSPost2010PropOp34
 70
     1
102
RTVSPost2010Prop35
280
     0
102
RTVSPost2010PropOp35
 70
     1
102
RTVSPost2010Prop36
280
     0
102
RTVSPost2010PropOp36
 70
     1
102
RTVSPost2010Prop37
 90
       50
102
RTVSPost2010PropOp37
 70
     1
102
RTVSPost2010Prop38
140
0.0
102
RTVSPost2010PropOp38
 70
     1
102
RTVSPost2010Prop39
140
1.0
102
RTVSPost2010PropOp39
 70
     1
102
RTVSPost2010Prop40
 90
        0
102
RTVSPost2010PropOp40
 70
     1
102
RTVSPost2010Prop41ColorIndex
 90
       18
102
RTVSPost2010Prop41ColorRGB
 90
        0
102
RTVSPost2010PropOp41
 70
     1
102
RTVSPost2010Prop42
 90
       50
102
RTVSPost2010PropOp42
 70
     1
102
RTVSPost2010Prop43
 90
        3
102
RTVSPost2010PropOp43
 70
     1
102
RTVSPost2010Prop44ColorIndex
 90
        5
102
RTVSPost2010Prop44ColorRGB
 90
      255
102
RTVSPost2010PropOp44
 70
     1
102
RTVSPost2010Prop45
280
     0
102
RTVSPost2010PropOp45
 70
     1
102
RTVSPost2010Prop46
 90
       50
102
RTVSPost2010PropOp46
 70
     1
102
RTVSPost2010Prop47
 90
       50
102
RTVSPost2010PropOp47
 70
     1
102
RTVSPost2010Prop48
 90
       50
102
RTVSPost2010PropOp48
 70
     1
102
RTVSPost2010Prop49
280
     0
102
RTVSPost2010PropOp49
 70
     1
102
RTVSPost2010Prop50
 90
       50
102
RTVSPost2010PropOp50
 70
     1
102
RTVSPost2010Prop51ColorIndex
 90
      256
102
RTVSPost2010Prop51ColorRGB
 90
-16777216
102
RTVSPost2010PropOp51
 70
     0
102
RTVSPost2010Prop52
140
1.0
102
RTVSPost2010PropOp52
 70
     0
102
RTVSPost2010Prop53
 90
        2
102
RTVSPost2010PropOp53
 70
     1
102
RTVSPost2010Prop54
  1
strokes_ogs.tif
102
RTVSPost2010PropOp54
 70
     1
102
RTVSPost2010Prop55
280
     0
102
RTVSPost2010PropOp55
 70
     1
102
RTVSPost2010Prop56
140
1.0
102
RTVSPost2010PropOp56
 70
     1
102
RTVSPost2010Prop57
140
1.0
102
RTVSPost2010PropOp57
 70
     1
  0
XRECORD
  5
4C6
102
{ACAD_REACTORS
330
4C5
102
}
330
4C5
100
AcDbXrecord
280
     1
102
RTVSPost2010Prop28
280
     0
102
RTVSPost2010PropOp28
 70
     1
102
RTVSPost2010Prop29
280
     1
102
RTVSPost2010PropOp29
 70
     1
102
RTVSPost2010Prop30
280
     1
102
RTVSPost2010PropOp30
 70
     1
102
RTVSPost2010Prop31
280
     0
102
RTVSPost2010PropOp31
 70
     1
102
RTVSPost2010Prop32
280
     0
102
RTVSPost2010PropOp32
 70
     1
102
RTVSPost2010Prop33
280
     0
102
RTVSPost2010PropOp33
 70
     1
102
RTVSPost2010Prop34
280
     0
102
RTVSPost2010PropOp34
 70
     1
102
RTVSPost2010Prop35
280
     0
102
RTVSPost2010PropOp35
 70
     1
102
RTVSPost2010Prop36
280
     0
102
RTVSPost2010PropOp36
 70
     1
102
RTVSPost2010Prop37
 90
       50
102
RTVSPost2010PropOp37
 70
     1
102
RTVSPost2010Prop38
140
0.0
102
RTVSPost2010PropOp38
 70
     1
102
RTVSPost2010Prop39
140
1.0
102
RTVSPost2010PropOp39
 70
     1
102
RTVSPost2010Prop40
 90
        0
102
RTVSPost2010PropOp40
 70
     1
102
RTVSPost2010Prop41ColorIndex
 90
       18
102
RTVSPost2010Prop41ColorRGB
 90
        0
102
RTVSPost2010PropOp41
 70
     1
102
RTVSPost2010Prop42
 90
       50
102
RTVSPost2010PropOp42
 70
     1
102
RTVSPost2010Prop43
 90
        3
102
RTVSPost2010PropOp43
 70
     1
102
RTVSPost2010Prop44ColorIndex
 90
        5
102
RTVSPost2010Prop44ColorRGB
 90
      255
102
RTVSPost2010PropOp44
 70
     1
102
RTVSPost2010Prop45
280
     0
102
RTVSPost2010PropOp45
 70
     1
102
RTVSPost2010Prop46
 90
       50
102
RTVSPost2010PropOp46
 70
     1
102
RTVSPost2010Prop47
 90
       50
102
RTVSPost2010PropOp47
 70
     1
102
RTVSPost2010Prop48
 90
       50
102
RTVSPost2010PropOp48
 70
     1
102
RTVSPost2010Prop49
280
     0
102
RTVSPost2010PropOp49
 70
     1
102
RTVSPost2010Prop50
 90
       50
102
RTVSPost2010PropOp50
 70
     1
102
RTVSPost2010Prop51ColorIndex
 90
      256
102
RTVSPost2010Prop51ColorRGB
 90
-16777216
102
RTVSPost2010PropOp51
 70
     0
102
RTVSPost2010Prop52
140
1.0
102
RTVSPost2010PropOp52
 70
     0
102
RTVSPost2010Prop53
 90
        2
102
RTVSPost2010PropOp53
 70
     1
102
RTVSPost2010Prop54
  1
strokes_ogs.tif
102
RTVSPost2010PropOp54
 70
     1
102
RTVSPost2010Prop55
280
     0
102
RTVSPost2010PropOp55
 70
     1
102
RTVSPost2010Prop56
140
1.0
102
RTVSPost2010PropOp56
 70
     1
102
RTVSPost2010Prop57
140
1.0
102
RTVSPost2010PropOp57
 70
     1
  0
XRECORD
  5
4C4
102
{ACAD_REACTORS
330
4C3
102
}
330
4C3
100
AcDbXrecord
280
     1
102
RTVSPost2010Prop28
280
     0
102
RTVSPost2010PropOp28
 70
     1
102
RTVSPost2010Prop29
280
     1
102
RTVSPost2010PropOp29
 70
     1
102
RTVSPost2010Prop30
280
     1
102
RTVSPost2010PropOp30
 70
     1
102
RTVSPost2010Prop31
280
     0
102
RTVSPost2010PropOp31
 70
     1
102
RTVSPost2010Prop32
280
     0
102
RTVSPost2010PropOp32
 70
     1
102
RTVSPost2010Prop33
280
     0
102
RTVSPost2010PropOp33
 70
     1
102
RTVSPost2010Prop34
280
     0
102
RTVSPost2010PropOp34
 70
     1
102
RTVSPost2010Prop35
280
     0
102
RTVSPost2010PropOp35
 70
     1
102
RTVSPost2010Prop36
280
     0
102
RTVSPost2010PropOp36
 70
     1
102
RTVSPost2010Prop37
 90
       50
102
RTVSPost2010PropOp37
 70
     1
102
RTVSPost2010Prop38
140
0.0
102
RTVSPost2010PropOp38
 70
     1
102
RTVSPost2010Prop39
140
1.0
102
RTVSPost2010PropOp39
 70
     1
102
RTVSPost2010Prop40
 90
        0
102
RTVSPost2010PropOp40
 70
     1
102
RTVSPost2010Prop41ColorIndex
 90
       18
102
RTVSPost2010Prop41ColorRGB
 90
        0
102
RTVSPost2010PropOp41
 70
     1
102
RTVSPost2010Prop42
 90
       50
102
RTVSPost2010PropOp42
 70
     1
102
RTVSPost2010Prop43
 90
        3
102
RTVSPost2010PropOp43
 70
     1
102
RTVSPost2010Prop44ColorIndex
 90
        5
102
RTVSPost2010Prop44ColorRGB
 90
      255
102
RTVSPost2010PropOp44
 70
     1
102
RTVSPost2010Prop45
280
     0
102
RTVSPost2010PropOp45
 70
     1
102
RTVSPost2010Prop46
 90
       50
102
RTVSPost2010PropOp46
 70
     1
102
RTVSPost2010Prop47
 90
       50
102
RTVSPost2010PropOp47
 70
     1
102
RTVSPost2010Prop48
 90
       50
102
RTVSPost2010PropOp48
 70
     1
102
RTVSPost2010Prop49
280
     0
102
RTVSPost2010PropOp49
 70
     1
102
RTVSPost2010Prop50
 90
       50
102
RTVSPost2010PropOp50
 70
     1
102
RTVSPost2010Prop51ColorIndex
 90
      256
102
RTVSPost2010Prop51ColorRGB
 90
-16777216
102
RTVSPost2010PropOp51
 70
     0
102
RTVSPost2010Prop52
140
1.0
102
RTVSPost2010PropOp52
 70
     0
102
RTVSPost2010Prop53
 90
        2
102
RTVSPost2010PropOp53
 70
     1
102
RTVSPost2010Prop54
  1
strokes_ogs.tif
102
RTVSPost2010PropOp54
 70
     1
102
RTVSPost2010Prop55
280
     0
102
RTVSPost2010PropOp55
 70
     1
102
RTVSPost2010Prop56
140
1.0
102
RTVSPost2010PropOp56
 70
     1
102
RTVSPost2010Prop57
140
1.0
102
RTVSPost2010PropOp57
 70
     1
  0
XRECORD
  5
4BE
102
{ACAD_REACTORS
330
4BD
102
}
330
4BD
100
AcDbXrecord
280
     1
102
RTVSPost2010Prop28
280
     0
102
RTVSPost2010PropOp28
 70
     1
102
RTVSPost2010Prop29
280
     1
102
RTVSPost2010PropOp29
 70
     1
102
RTVSPost2010Prop30
280
     1
102
RTVSPost2010PropOp30
 70
     1
102
RTVSPost2010Prop31
280
     0
102
RTVSPost2010PropOp31
 70
     1
102
RTVSPost2010Prop32
280
     0
102
RTVSPost2010PropOp32
 70
     1
102
RTVSPost2010Prop33
280
     0
102
RTVSPost2010PropOp33
 70
     1
102
RTVSPost2010Prop34
280
     0
102
RTVSPost2010PropOp34
 70
     1
102
RTVSPost2010Prop35
280
     0
102
RTVSPost2010PropOp35
 70
     1
102
RTVSPost2010Prop36
280
     0
102
RTVSPost2010PropOp36
 70
     1
102
RTVSPost2010Prop37
 90
       50
102
RTVSPost2010PropOp37
 70
     1
102
RTVSPost2010Prop38
140
0.0
102
RTVSPost2010PropOp38
 70
     1
102
RTVSPost2010Prop39
140
1.0
102
RTVSPost2010PropOp39
 70
     1
102
RTVSPost2010Prop40
 90
        0
102
RTVSPost2010PropOp40
 70
     1
102
RTVSPost2010Prop41ColorIndex
 90
       18
102
RTVSPost2010Prop41ColorRGB
 90
        0
102
RTVSPost2010PropOp41
 70
     1
102
RTVSPost2010Prop42
 90
       50
102
RTVSPost2010PropOp42
 70
     1
102
RTVSPost2010Prop43
 90
        3
102
RTVSPost2010PropOp43
 70
     1
102
RTVSPost2010Prop44ColorIndex
 90
        5
102
RTVSPost2010Prop44ColorRGB
 90
      255
102
RTVSPost2010PropOp44
 70
     1
102
RTVSPost2010Prop45
280
     0
102
RTVSPost2010PropOp45
 70
     1
102
RTVSPost2010Prop46
 90
       50
102
RTVSPost2010PropOp46
 70
     1
102
RTVSPost2010Prop47
 90
       50
102
RTVSPost2010PropOp47
 70
     1
102
RTVSPost2010Prop48
 90
       50
102
RTVSPost2010PropOp48
 70
     1
102
RTVSPost2010Prop49
280
     0
102
RTVSPost2010PropOp49
 70
     1
102
RTVSPost2010Prop50
 90
       50
102
RTVSPost2010PropOp50
 70
     1
102
RTVSPost2010Prop51ColorIndex
 90
      256
102
RTVSPost2010Prop51ColorRGB
 90
-16777216
102
RTVSPost2010PropOp51
 70
     0
102
RTVSPost2010Prop52
140
1.0
102
RTVSPost2010PropOp52
 70
     0
102
RTVSPost2010Prop53
 90
        2
102
RTVSPost2010PropOp53
 70
     1
102
RTVSPost2010Prop54
  1
strokes_ogs.tif
102
RTVSPost2010PropOp54
 70
     1
102
RTVSPost2010Prop55
280
     0
102
RTVSPost2010PropOp55
 70
     1
102
RTVSPost2010Prop56
140
1.0
102
RTVSPost2010PropOp56
 70
     1
102
RTVSPost2010Prop57
140
1.0
102
RTVSPost2010PropOp57
 70
     1
  0
XRECORD
  5
4C0
102
{ACAD_REACTORS
330
4BF
102
}
330
4BF
100
AcDbXrecord
280
     1
102
RTVSPost2010Prop28
280
     0
102
RTVSPost2010PropOp28
 70
     1
102
RTVSPost2010Prop29
280
     1
102
RTVSPost2010PropOp29
 70
     1
102
RTVSPost2010Prop30
280
     1
102
RTVSPost2010PropOp30
 70
     1
102
RTVSPost2010Prop31
280
     0
102
RTVSPost2010PropOp31
 70
     1
102
RTVSPost2010Prop32
280
     0
102
RTVSPost2010PropOp32
 70
     1
102
RTVSPost2010Prop33
280
     0
102
RTVSPost2010PropOp33
 70
     1
102
RTVSPost2010Prop34
280
     0
102
RTVSPost2010PropOp34
 70
     1
102
RTVSPost2010Prop35
280
     0
102
RTVSPost2010PropOp35
 70
     1
102
RTVSPost2010Prop36
280
     0
102
RTVSPost2010PropOp36
 70
     1
102
RTVSPost2010Prop37
 90
       50
102
RTVSPost2010PropOp37
 70
     1
102
RTVSPost2010Prop38
140
0.0
102
RTVSPost2010PropOp38
 70
     1
102
RTVSPost2010Prop39
140
1.0
102
RTVSPost2010PropOp39
 70
     1
102
RTVSPost2010Prop40
 90
        0
102
RTVSPost2010PropOp40
 70
     1
102
RTVSPost2010Prop41ColorIndex
 90
       18
102
RTVSPost2010Prop41ColorRGB
 90
        0
102
RTVSPost2010PropOp41
 70
     1
102
RTVSPost2010Prop42
 90
       50
102
RTVSPost2010PropOp42
 70
     1
102
RTVSPost2010Prop43
 90
        3
102
RTVSPost2010PropOp43
 70
     1
102
RTVSPost2010Prop44ColorIndex
 90
        5
102
RTVSPost2010Prop44ColorRGB
 90
      255
102
RTVSPost2010PropOp44
 70
     1
102
RTVSPost2010Prop45
280
     0
102
RTVSPost2010PropOp45
 70
     1
102
RTVSPost2010Prop46
 90
       50
102
RTVSPost2010PropOp46
 70
     1
102
RTVSPost2010Prop47
 90
       50
102
RTVSPost2010PropOp47
 70
     1
102
RTVSPost2010Prop48
 90
       50
102
RTVSPost2010PropOp48
 70
     1
102
RTVSPost2010Prop49
280
     0
102
RTVSPost2010PropOp49
 70
     1
102
RTVSPost2010Prop50
 90
       50
102
RTVSPost2010PropOp50
 70
     1
102
RTVSPost2010Prop51ColorIndex
 90
      256
102
RTVSPost2010Prop51ColorRGB
 90
-16777216
102
RTVSPost2010PropOp51
 70
     0
102
RTVSPost2010Prop52
140
1.0
102
RTVSPost2010PropOp52
 70
     0
102
RTVSPost2010Prop53
 90
        2
102
RTVSPost2010PropOp53
 70
     1
102
RTVSPost2010Prop54
  1
strokes_ogs.tif
102
RTVSPost2010PropOp54
 70
     1
102
RTVSPost2010Prop55
280
     0
102
RTVSPost2010PropOp55
 70
     1
102
RTVSPost2010Prop56
140
1.0
102
RTVSPost2010PropOp56
 70
     1
102
RTVSPost2010Prop57
140
1.0
102
RTVSPost2010PropOp57
 70
     1
  0
XRECORD
  5
4B0
102
{ACAD_REACTORS
330
4AF
102
}
330
4AF
100
AcDbXrecord
280
     1
102
RTVSPost2010Prop28
280
     0
102
RTVSPost2010PropOp28
 70
     1
102
RTVSPost2010Prop29
280
     1
102
RTVSPost2010PropOp29
 70
     1
102
RTVSPost2010Prop30
280
     1
102
RTVSPost2010PropOp30
 70
     1
102
RTVSPost2010Prop31
280
     0
102
RTVSPost2010PropOp31
 70
     1
102
RTVSPost2010Prop32
280
     0
102
RTVSPost2010PropOp32
 70
     1
102
RTVSPost2010Prop33
280
     0
102
RTVSPost2010PropOp33
 70
     1
102
RTVSPost2010Prop34
280
     0
102
RTVSPost2010PropOp34
 70
     1
102
RTVSPost2010Prop35
280
     0
102
RTVSPost2010PropOp35
 70
     1
102
RTVSPost2010Prop36
280
     0
102
RTVSPost2010PropOp36
 70
     1
102
RTVSPost2010Prop37
 90
       50
102
RTVSPost2010PropOp37
 70
     1
102
RTVSPost2010Prop38
140
0.0
102
RTVSPost2010PropOp38
 70
     1
102
RTVSPost2010Prop39
140
1.0
102
RTVSPost2010PropOp39
 70
     1
102
RTVSPost2010Prop40
 90
        0
102
RTVSPost2010PropOp40
 70
     1
102
RTVSPost2010Prop41ColorIndex
 90
       18
102
RTVSPost2010Prop41ColorRGB
 90
        0
102
RTVSPost2010PropOp41
 70
     1
102
RTVSPost2010Prop42
 90
       50
102
RTVSPost2010PropOp42
 70
     1
102
RTVSPost2010Prop43
 90
        3
102
RTVSPost2010PropOp43
 70
     1
102
RTVSPost2010Prop44ColorIndex
 90
        5
102
RTVSPost2010Prop44ColorRGB
 90
      255
102
RTVSPost2010PropOp44
 70
     1
102
RTVSPost2010Prop45
280
     0
102
RTVSPost2010PropOp45
 70
     1
102
RTVSPost2010Prop46
 90
       50
102
RTVSPost2010PropOp46
 70
     1
102
RTVSPost2010Prop47
 90
       50
102
RTVSPost2010PropOp47
 70
     1
102
RTVSPost2010Prop48
 90
       50
102
RTVSPost2010PropOp48
 70
     1
102
RTVSPost2010Prop49
280
     0
102
RTVSPost2010PropOp49
 70
     1
102
RTVSPost2010Prop50
 90
       50
102
RTVSPost2010PropOp50
 70
     1
102
RTVSPost2010Prop51ColorIndex
 90
      256
102
RTVSPost2010Prop51ColorRGB
 90
-16777216
102
RTVSPost2010PropOp51
 70
     0
102
RTVSPost2010Prop52
140
1.0
102
RTVSPost2010PropOp52
 70
     0
102
RTVSPost2010Prop53
 90
        2
102
RTVSPost2010PropOp53
 70
     1
102
RTVSPost2010Prop54
  1
strokes_ogs.tif
102
RTVSPost2010PropOp54
 70
     1
102
RTVSPost2010Prop55
280
     0
102
RTVSPost2010PropOp55
 70
     1
102
RTVSPost2010Prop56
140
1.0
102
RTVSPost2010PropOp56
 70
     1
102
RTVSPost2010Prop57
140
1.0
102
RTVSPost2010PropOp57
 70
     1
  0
XRECORD
  5
4A2
102
{ACAD_REACTORS
330
4A1
102
}
330
4A1
100
AcDbXrecord
280
     1
102
RTVSPost2010Prop28
280
     0
102
RTVSPost2010PropOp28
 70
     1
102
RTVSPost2010Prop29
280
     1
102
RTVSPost2010PropOp29
 70
     1
102
RTVSPost2010Prop30
280
     1
102
RTVSPost2010PropOp30
 70
     1
102
RTVSPost2010Prop31
280
     0
102
RTVSPost2010PropOp31
 70
     1
102
RTVSPost2010Prop32
280
     0
102
RTVSPost2010PropOp32
 70
     1
102
RTVSPost2010Prop33
280
     0
102
RTVSPost2010PropOp33
 70
     1
102
RTVSPost2010Prop34
280
     0
102
RTVSPost2010PropOp34
 70
     1
102
RTVSPost2010Prop35
280
     0
102
RTVSPost2010PropOp35
 70
     1
102
RTVSPost2010Prop36
280
     0
102
RTVSPost2010PropOp36
 70
     1
102
RTVSPost2010Prop37
 90
       50
102
RTVSPost2010PropOp37
 70
     1
102
RTVSPost2010Prop38
140
0.0
102
RTVSPost2010PropOp38
 70
     1
102
RTVSPost2010Prop39
140
1.0
102
RTVSPost2010PropOp39
 70
     1
102
RTVSPost2010Prop40
 90
        0
102
RTVSPost2010PropOp40
 70
     1
102
RTVSPost2010Prop41ColorIndex
 90
       18
102
RTVSPost2010Prop41ColorRGB
 90
        0
102
RTVSPost2010PropOp41
 70
     1
102
RTVSPost2010Prop42
 90
       50
102
RTVSPost2010PropOp42
 70
     1
102
RTVSPost2010Prop43
 90
        3
102
RTVSPost2010PropOp43
 70
     1
102
RTVSPost2010Prop44ColorIndex
 90
        5
102
RTVSPost2010Prop44ColorRGB
 90
      255
102
RTVSPost2010PropOp44
 70
     1
102
RTVSPost2010Prop45
280
     0
102
RTVSPost2010PropOp45
 70
     1
102
RTVSPost2010Prop46
 90
       50
102
RTVSPost2010PropOp46
 70
     1
102
RTVSPost2010Prop47
 90
       50
102
RTVSPost2010PropOp47
 70
     1
102
RTVSPost2010Prop48
 90
       50
102
RTVSPost2010PropOp48
 70
     1
102
RTVSPost2010Prop49
280
     0
102
RTVSPost2010PropOp49
 70
     1
102
RTVSPost2010Prop50
 90
       50
102
RTVSPost2010PropOp50
 70
     1
102
RTVSPost2010Prop51ColorIndex
 90
      256
102
RTVSPost2010Prop51ColorRGB
 90
-16777216
102
RTVSPost2010PropOp51
 70
     0
102
RTVSPost2010Prop52
140
1.0
102
RTVSPost2010PropOp52
 70
     0
102
RTVSPost2010Prop53
 90
        2
102
RTVSPost2010PropOp53
 70
     1
102
RTVSPost2010Prop54
  1
strokes_ogs.tif
102
RTVSPost2010PropOp54
 70
     1
102
RTVSPost2010Prop55
280
     0
102
RTVSPost2010PropOp55
 70
     1
102
RTVSPost2010Prop56
140
1.0
102
RTVSPost2010PropOp56
 70
     1
102
RTVSPost2010Prop57
140
1.0
102
RTVSPost2010PropOp57
 70
     1
  0
XRECORD
  5
4C2
102
{ACAD_REACTORS
330
4C1
102
}
330
4C1
100
AcDbXrecord
280
     1
102
RTVSPost2010Prop28
280
     0
102
RTVSPost2010PropOp28
 70
     1
102
RTVSPost2010Prop29
280
     1
102
RTVSPost2010PropOp29
 70
     1
102
RTVSPost2010Prop30
280
     1
102
RTVSPost2010PropOp30
 70
     1
102
RTVSPost2010Prop31
280
     0
102
RTVSPost2010PropOp31
 70
     1
102
RTVSPost2010Prop32
280
     0
102
RTVSPost2010PropOp32
 70
     1
102
RTVSPost2010Prop33
280
     0
102
RTVSPost2010PropOp33
 70
     1
102
RTVSPost2010Prop34
280
     0
102
RTVSPost2010PropOp34
 70
     1
102
RTVSPost2010Prop35
280
     0
102
RTVSPost2010PropOp35
 70
     1
102
RTVSPost2010Prop36
280
     0
102
RTVSPost2010PropOp36
 70
     1
102
RTVSPost2010Prop37
 90
       50
102
RTVSPost2010PropOp37
 70
     1
102
RTVSPost2010Prop38
140
0.0
102
RTVSPost2010PropOp38
 70
     1
102
RTVSPost2010Prop39
140
1.0
102
RTVSPost2010PropOp39
 70
     1
102
RTVSPost2010Prop40
 90
        0
102
RTVSPost2010PropOp40
 70
     1
102
RTVSPost2010Prop41ColorIndex
 90
       18
102
RTVSPost2010Prop41ColorRGB
 90
        0
102
RTVSPost2010PropOp41
 70
     1
102
RTVSPost2010Prop42
 90
       50
102
RTVSPost2010PropOp42
 70
     1
102
RTVSPost2010Prop43
 90
        3
102
RTVSPost2010PropOp43
 70
     1
102
RTVSPost2010Prop44ColorIndex
 90
        5
102
RTVSPost2010Prop44ColorRGB
 90
      255
102
RTVSPost2010PropOp44
 70
     1
102
RTVSPost2010Prop45
280
     0
102
RTVSPost2010PropOp45
 70
     1
102
RTVSPost2010Prop46
 90
       50
102
RTVSPost2010PropOp46
 70
     1
102
RTVSPost2010Prop47
 90
       50
102
RTVSPost2010PropOp47
 70
     1
102
RTVSPost2010Prop48
 90
       50
102
RTVSPost2010PropOp48
 70
     1
102
RTVSPost2010Prop49
280
     0
102
RTVSPost2010PropOp49
 70
     1
102
RTVSPost2010Prop50
 90
       50
102
RTVSPost2010PropOp50
 70
     1
102
RTVSPost2010Prop51ColorIndex
 90
      256
102
RTVSPost2010Prop51ColorRGB
 90
-16777216
102
RTVSPost2010PropOp51
 70
     0
102
RTVSPost2010Prop52
140
1.0
102
RTVSPost2010PropOp52
 70
     0
102
RTVSPost2010Prop53
 90
        2
102
RTVSPost2010PropOp53
 70
     1
102
RTVSPost2010Prop54
  1
strokes_ogs.tif
102
RTVSPost2010PropOp54
 70
     1
102
RTVSPost2010Prop55
280
     0
102
RTVSPost2010PropOp55
 70
     1
102
RTVSPost2010Prop56
140
1.0
102
RTVSPost2010PropOp56
 70
     1
102
RTVSPost2010Prop57
140
1.0
102
RTVSPost2010PropOp57
 70
     1
  0
ENDSEC
  0
EOF
