  0
SECTION
  2
HEADER
  9
$ACADVER
  1
AC1024
  9
$ACADMAINTVER
 70
     6
  9
$DWGCODEPAGE
  3
ANSI_932
  9
$INSBASE
 10
0.0
 20
0.0
 30
0.0
  9
$EXTMIN
 10
-21000.0
 20
-14850.0
 30
0.0
  9
$EXTMAX
 10
21000.0
 20
14850.0
 30
0.0
  9
$LIMMIN
 10
-21000.0
 20
-14850.0
  9
$LIMMAX
 10
21000.0
 20
14850.0
  9
$ORTHOMODE
 70
     0
  9
$REGENMODE
 70
     1
  9
$FILLMODE
 70
     1
  9
$QTEXTMODE
 70
     0
  9
$MIRRTEXT
 70
     1
  9
$LTSCALE
 40
100.0
  9
$ATTMODE
 70
     1
  9
$TEXTSIZE
 40
2.5
  9
$TRACEWID
 40
1.0
  9
$TEXTSTYLE
  7
Standard
  9
$CLAYER
  8
0
  9
$CELTYPE
  6
ByLayer
  9
$CECOLOR
 62
   256
  9
$CELTSCALE
 40
1.0
  9
$DISPSILH
 70
     0
  9
$DIMSCALE
 40
1.0
  9
$DIMASZ
 40
2.5
  9
$DIMEXO
 40
0.625
  9
$DIMDLI
 40
3.75
  9
$DIMRND
 40
0.0
  9
$DIMDLE
 40
0.0
  9
$DIMEXE
 40
1.25
  9
$DIMTP
 40
0.0
  9
$DIMTM
 40
0.0
  9
$DIMTXT
 40
2.5
  9
$DIMCEN
 40
2.5
  9
$DIMTSZ
 40
0.0
  9
$DIMTOL
 70
     0
  9
$DIMLIM
 70
     0
  9
$DIMTIH
 70
     0
  9
$DIMTOH
 70
     0
  9
$DIMSE1
 70
     0
  9
$DIMSE2
 70
     0
  9
$DIMTAD
 70
     1
  9
$DIMZIN
 70
     8
  9
$DIMBLK
  1

  9
$DIMASO
 70
     1
  9
$DIMSHO
 70
     1
  9
$DIMPOST
  1

  9
$DIMAPOST
  1

  9
$DIMALT
 70
     0
  9
$DIMALTD
 70
     3
  9
$DIMALTF
 40
0.03937007874016
  9
$DIMLFAC
 40
1.0
  9
$DIMTOFL
 70
     1
  9
$DIMTVP
 40
0.0
  9
$DIMTIX
 70
     0
  9
$DIMSOXD
 70
     0
  9
$DIMSAH
 70
     0
  9
$DIMBLK1
  1

  9
$DIMBLK2
  1

  9
$DIMSTYLE
  2
ISO-25
  9
$DIMCLRD
 70
     0
  9
$DIMCLRE
 70
     0
  9
$DIMCLRT
 70
     0
  9
$DIMTFAC
 40
1.0
  9
$DIMGAP
 40
0.625
  9
$DIMJUST
 70
     0
  9
$DIMSD1
 70
     0
  9
$DIMSD2
 70
     0
  9
$DIMTOLJ
 70
     0
  9
$DIMTZIN
 70
     8
  9
$DIMALTZ
 70
     0
  9
$DIMALTTZ
 70
     0
  9
$DIMUPT
 70
     0
  9
$DIMDEC
 70
     2
  9
$DIMTDEC
 70
     2
  9
$DIMALTU
 70
     2
  9
$DIMALTTD
 70
     3
  9
$DIMTXSTY
  7
Standard
  9
$DIMAUNIT
 70
     0
  9
$DIMADEC
 70
     0
  9
$DIMALTRND
 40
0.0
  9
$DIMAZIN
 70
     0
  9
$DIMDSEP
 70
    44
  9
$DIMATFIT
 70
     3
  9
$DIMFRAC
 70
     0
  9
$DIMLDRBLK
  1

  9
$DIMLUNIT
 70
     2
  9
$DIMLWD
 70
    -2
  9
$DIMLWE
 70
    -2
  9
$DIMTMOVE
 70
     0
  9
$DIMFXL
 40
1.0
  9
$DIMFXLON
 70
     0
  9
$DIMJOGANG
 40
0.7853981633974483
  9
$DIMTFILL
 70
     0
  9
$DIMTFILLCLR
 70
     0
  9
$DIMARCSYM
 70
     0
  9
$DIMLTYPE
  6

  9
$DIMLTEX1
  6

  9
$DIMLTEX2
  6

  9
$DIMTXTDIRECTION
 70
     0
  9
$LUNITS
 70
     2
  9
$LUPREC
 70
     4
  9
$SKETCHINC
 40
1.0
  9
$FILLETRAD
 40
10.0
  9
$AUNITS
 70
     0
  9
$AUPREC
 70
     0
  9
$MENU
  1
.
  9
$ELEVATION
 40
0.0
  9
$PELEVATION
 40
0.0
  9
$THICKNESS
 40
0.0
  9
$LIMCHECK
 70
     0
  9
$CHAMFERA
 40
10.0
  9
$CHAMFERB
 40
10.0
  9
$CHAMFERC
 40
20.0
  9
$CHAMFERD
 40
0.0
  9
$SKPOLY
 70
     0
  9
$TDCREATE
 40
2456720.726375972
  9
$TDUCREATE
 40
2456720.351375972
  9
$TDUPDATE
 40
2456720.726375984
  9
$TDUUPDATE
 40
2456720.351375984
  9
$TDINDWG
 40
0.0000000116
  9
$TDUSRTIMER
 40
0.0000000116
  9
$USRTIMER
 70
     1
  9
$ANGBASE
 50
0.0
  9
$ANGDIR
 70
     0
  9
$PDMODE
 70
     0
  9
$PDSIZE
 40
0.0
  9
$PLINEWID
 40
0.0
  9
$SPLFRAME
 70
     0
  9
$SPLINETYPE
 70
     6
  9
$SPLINESEGS
 70
     8
  9
$HANDSEED
  5
478
  9
$SURFTAB1
 70
     6
  9
$SURFTAB2
 70
     6
  9
$SURFTYPE
 70
     6
  9
$SURFU
 70
     6
  9
$SURFV
 70
     6
  9
$UCSBASE
  2

  9
$UCSNAME
  2

  9
$UCSORG
 10
0.0
 20
0.0
 30
0.0
  9
$UCSXDIR
 10
1.0
 20
0.0
 30
0.0
  9
$UCSYDIR
 10
0.0
 20
1.0
 30
0.0
  9
$UCSORTHOREF
  2

  9
$UCSORTHOVIEW
 70
     0
  9
$UCSORGTOP
 10
0.0
 20
0.0
 30
0.0
  9
$UCSORGBOTTOM
 10
0.0
 20
0.0
 30
0.0
  9
$UCSORGLEFT
 10
0.0
 20
0.0
 30
0.0
  9
$UCSORGRIGHT
 10
0.0
 20
0.0
 30
0.0
  9
$UCSORGFRONT
 10
0.0
 20
0.0
 30
0.0
  9
$UCSORGBACK
 10
0.0
 20
0.0
 30
0.0
  9
$PUCSBASE
  2

  9
$PUCSNAME
  2

  9
$PUCSORG
 10
0.0
 20
0.0
 30
0.0
  9
$PUCSXDIR
 10
1.0
 20
0.0
 30
0.0
  9
$PUCSYDIR
 10
0.0
 20
1.0
 30
0.0
  9
$PUCSORTHOREF
  2

  9
$PUCSORTHOVIEW
 70
     0
  9
$PUCSORGTOP
 10
0.0
 20
0.0
 30
0.0
  9
$PUCSORGBOTTOM
 10
0.0
 20
0.0
 30
0.0
  9
$PUCSORGLEFT
 10
0.0
 20
0.0
 30
0.0
  9
$PUCSORGRIGHT
 10
0.0
 20
0.0
 30
0.0
  9
$PUCSORGFRONT
 10
0.0
 20
0.0
 30
0.0
  9
$PUCSORGBACK
 10
0.0
 20
0.0
 30
0.0
  9
$USERI1
 70
     0
  9
$USERI2
 70
     0
  9
$USERI3
 70
     0
  9
$USERI4
 70
     0
  9
$USERI5
 70
     0
  9
$USERR1
 40
0.0
  9
$USERR2
 40
0.0
  9
$USERR3
 40
0.0
  9
$USERR4
 40
0.0
  9
$USERR5
 40
0.0
  9
$WORLDVIEW
 70
     1
  9
$SHADEDGE
 70
     3
  9
$SHADEDIF
 70
    70
  9
$TILEMODE
 70
     1
  9
$MAXACTVP
 70
    64
  9
$PINSBASE
 10
0.0
 20
0.0
 30
0.0
  9
$PLIMCHECK
 70
     0
  9
$PEXTMIN
 10
1.000000000000000E+20
 20
1.000000000000000E+20
 30
1.000000000000000E+20
  9
$PEXTMAX
 10
-1.000000000000000E+20
 20
-1.000000000000000E+20
 30
-1.000000000000000E+20
  9
$PLIMMIN
 10
0.0
 20
0.0
  9
$PLIMMAX
 10
420.0
 20
297.0
  9
$UNITMODE
 70
     0
  9
$VISRETAIN
 70
     1
  9
$PLINEGEN
 70
     0
  9
$PSLTSCALE
 70
     1
  9
$TREEDEPTH
 70
  3020
  9
$CMLSTYLE
  2
Standard
  9
$CMLJUST
 70
     0
  9
$CMLSCALE
 40
20.0
  9
$PROXYGRAPHICS
 70
     1
  9
$MEASUREMENT
 70
     1
  9
$CELWEIGHT
370
    -1
  9
$ENDCAPS
280
     0
  9
$JOINSTYLE
280
     0
  9
$LWDISPLAY
290
     0
  9
$INSUNITS
 70
     4
  9
$HYPERLINKBASE
  1

  9
$STYLESHEET
  1

  9
$XEDIT
290
     1
  9
$CEPSNTYPE
380
     0
  9
$PSTYLEMODE
290
     1
  9
$FINGERPRINTGUID
  2
{33BB7F28-CB4F-479B-8AB5-19D0849D62A2}
  9
$VERSIONGUID
  2
{FAEB1C32-E019-11D5-929B-00C0DF256EC4}
  9
$EXTNAMES
290
     1
  9
$PSVPSCALE
 40
0.0
  9
$OLESTARTUP
290
     0
  9
$SORTENTS
280
   127
  9
$INDEXCTL
280
     0
  9
$HIDETEXT
280
     1
  9
$XCLIPFRAME
280
     2
  9
$HALOGAP
280
     0
  9
$OBSCOLOR
 70
   257
  9
$OBSLTYPE
280
     0
  9
$INTERSECTIONDISPLAY
280
     0
  9
$INTERSECTIONCOLOR
 70
   257
  9
$DIMASSOC
280
     2
  9
$PROJECTNAME
  1

  9
$CAMERADISPLAY
290
     0
  9
$LENSLENGTH
 40
50.0
  9
$CAMERAHEIGHT
 40
0.0
  9
$STEPSPERSEC
 40
2.0
  9
$STEPSIZE
 40
6.0
  9
$3DDWFPREC
 40
2.0
  9
$PSOLWIDTH
 40
5.0
  9
$PSOLHEIGHT
 40
80.0
  9
$LOFTANG1
 40
1.570796326794897
  9
$LOFTANG2
 40
1.570796326794897
  9
$LOFTMAG1
 40
0.0
  9
$LOFTMAG2
 40
0.0
  9
$LOFTPARAM
 70
     7
  9
$LOFTNORMALS
280
     1
  9
$LATITUDE
 40
37.795
  9
$LONGITUDE
 40
-122.394
  9
$NORTHDIRECTION
 40
0.0
  9
$TIMEZONE
 70
 -8000
  9
$LIGHTGLYPHDISPLAY
280
     1
  9
$TILEMODELIGHTSYNCH
280
     1
  9
$SOLIDHIST
280
     1
  9
$SHOWHIST
280
     1
  9
$DWFFRAME
280
     2
  9
$DGNFRAME
280
     2
  9
$REALWORLDSCALE
290
     1
  9
$INTERFERECOLOR
 62
   256
  9
$CSHADOW
280
     0
  9
$SHADOWPLANELOCATION
 40
0.0
  0
ENDSEC
  0
SECTION
  2
CLASSES
  0
CLASS
  1
ACDBDICTIONARYWDFLT
  2
AcDbDictionaryWithDefault
  3
ObjectDBX Classes
 90
        0
 91
        4
280
     0
281
     0
  0
CLASS
  1
VISUALSTYLE
  2
AcDbVisualStyle
  3
ObjectDBX Classes
 90
     4095
 91
        4
280
     0
281
     0
  0
CLASS
  1
MATERIAL
  2
AcDbMaterial
  3
ObjectDBX Classes
 90
     1153
 91
        4
280
     0
281
     0
  0
ENDSEC
  0
SECTION
  2
TABLES
  0
TABLE
  2
VPORT
  5
8
330
0
100
AcDbSymbolTable
 70
     1
  0
VPORT
  5
29
330
8
100
AcDbSymbolTableRecord
100
AcDbViewportTableRecord
  2
*Active
 70
     0
 10
0.0
 20
0.0
 11
1.0
 21
1.0
 12
0.0
 22
0.0
 13
0.0
 23
0.0
 14
10.0
 24
10.0
 15
10.0
 25
10.0
 16
0.0
 26
0.0
 36
1.0
 17
0.0
 27
0.0
 37
0.0
 40
32670.0
 41
1.414141414141414
 42
50.0
 43
0.0
 44
0.0
 50
0.0
 51
0.0
 71
     0
 72
 10000
 73
     1
 74
     3
 75
     0
 76
     0
 77
     0
 78
     0
281
     0
 65
     1
110
0.0
120
0.0
130
0.0
111
1.0
121
0.0
131
0.0
112
0.0
122
1.0
132
0.0
 79
     0
146
0.0
 60
     3
 61
     5
292
     1
282
     1
141
0.0
142
0.0
 63
   250
  0
ENDTAB
  0
TABLE
  2
LTYPE
  5
5
330
0
100
AcDbSymbolTable
 70
     4
  0
LTYPE
  5
14
330
5
100
AcDbSymbolTableRecord
100
AcDbLinetypeTableRecord
  2
ByBlock
 70
     0
  3

 72
    65
 73
     0
 40
0.0
  0
LTYPE
  5
15
330
5
100
AcDbSymbolTableRecord
100
AcDbLinetypeTableRecord
  2
ByLayer
 70
     0
  3

 72
    65
 73
     0
 40
0.0
  0
LTYPE
  5
16
330
5
100
AcDbSymbolTableRecord
100
AcDbLinetypeTableRecord
  2
Continuous
 70
     0
  3
Solid line
 72
    65
 73
     0
 40
0.0
  0
LTYPE
  5
41
330
5
100
AcDbSymbolTableRecord
100
AcDbLinetypeTableRecord
  2
JWW_HOJO
 70
     0
  3
  -   -   -   -   -   -   -   - 
 72
    65
 73
     2
 40
1.693333333333333
 49
-1.27
 74
     0
 49
0.4233333333333333
 74
     0
  0
LTYPE
  5
42
330
5
100
AcDbSymbolTableRecord
100
AcDbLinetypeTableRecord
  2
JWW_CENTER1
 70
     0
  3
-----  --  ----------  --  -----
 72
    65
 73
     4
 40
6.773333333333333
 49
4.233333333333333
 74
     0
 49
-0.8466666666666667
 74
     0
 49
0.8466666666666667
 74
     0
 49
-0.8466666666666667
 74
     0
  0
LTYPE
  5
43
330
5
100
AcDbSymbolTableRecord
100
AcDbLinetypeTableRecord
  2
JWW_DASHED1
 70
     0
  3
-  --  --  --  --  --  --  --  -
 72
    65
 73
     2
 40
1.693333333333333
 49
0.8466666666666667
 74
     0
 49
-0.8466666666666667
 74
     0
  0
ENDTAB
  0
TABLE
  2
LAYER
  5
2
330
0
100
AcDbSymbolTable
 70
    10
  0
LAYER
  5
10
330
2
100
AcDbSymbolTableRecord
100
AcDbLayerTableRecord
  2
0
 70
     0
 62
     7
  6
Continuous
370
    -3
390
F
347
3E
  0
LAYER
  5
44
330
2
100
AcDbSymbolTableRecord
100
AcDbLayerTableRecord
  2
0-3_仕上
 70
     0
 62
     7
  6
Continuous
370
    -3
390
F
347
3E
  0
LAYER
  5
45
330
2
100
AcDbSymbolTableRecord
100
AcDbLayerTableRecord
  2
0-A_文字
 70
     0
 62
     7
  6
Continuous
370
    -3
390
F
347
3E
  0
LAYER
  5
46
330
2
100
AcDbSymbolTableRecord
100
AcDbLayerTableRecord
  2
0-1_通り芯
 70
     0
 62
     7
  6
Continuous
370
    -3
390
F
347
3E
  0
LAYER
  5
47
330
2
100
AcDbSymbolTableRecord
100
AcDbLayerTableRecord
  2
0-B_寸法
 70
     0
 62
     7
  6
Continuous
370
    -3
390
F
347
3E
  0
LAYER
  5
48
330
2
100
AcDbSymbolTableRecord
100
AcDbLayerTableRecord
  2
0-0_補助線
 70
     0
 62
     7
  6
Continuous
370
    -3
390
F
347
3E
  0
LAYER
  5
49
330
2
100
AcDbSymbolTableRecord
100
AcDbLayerTableRecord
  2
0-E
 70
     0
 62
     7
  6
Continuous
370
    -3
390
F
347
3E
  0
LAYER
  5
4A
330
2
100
AcDbSymbolTableRecord
100
AcDbLayerTableRecord
  2
F-Aﾚｲﾔ
 70
     0
 62
     7
  6
Continuous
370
    -3
390
F
347
3E
  0
LAYER
  5
4B
330
2
100
AcDbSymbolTableRecord
100
AcDbLayerTableRecord
  2
F-0ﾚｲﾔ
 70
     0
 62
     7
  6
Continuous
370
    -3
390
F
347
3E
  0
LAYER
  5
4C
330
2
100
AcDbSymbolTableRecord
100
AcDbLayerTableRecord
  2
F-1ﾚｲﾔ
 70
     0
 62
     7
  6
Continuous
370
    -3
390
F
347
3E
  0
ENDTAB
  0
TABLE
  2
STYLE
  5
3
330
0
100
AcDbSymbolTable
 70
     3
  0
STYLE
  5
11
330
3
100
AcDbSymbolTableRecord
100
AcDbTextStyleTableRecord
  2
Standard
 70
     0
 40
0.0
 41
1.0
 50
0.0
 71
     0
 42
2.5
  3
txt
  4

  0
STYLE
  5
3F
330
3
100
AcDbSymbolTableRecord
100
AcDbTextStyleTableRecord
  2
ＭＳ ゴシック
 70
     0
 40
1.0
 41
1.0
 50
0.0
 71
     0
 42
10.0
  3

  4

1001
ACAD
1000
MS Gothic
1071
    32817
  0
STYLE
  5
40
330
3
100
AcDbSymbolTableRecord
100
AcDbTextStyleTableRecord
  2
HG明朝B
 70
     0
 40
1.0
 41
1.0
 50
0.0
 71
     0
 42
10.0
  3

  4

1001
ACAD
1000
HGMinchoB
1071
    32785
  0
ENDTAB
  0
TABLE
  2
VIEW
  5
6
330
0
100
AcDbSymbolTable
 70
     0
  0
ENDTAB
  0
TABLE
  2
UCS
  5
7
330
0
100
AcDbSymbolTable
 70
     0
  0
ENDTAB
  0
TABLE
  2
APPID
  5
9
330
0
100
AcDbSymbolTable
 70
     1
  0
APPID
  5
12
330
9
100
AcDbSymbolTableRecord
100
AcDbRegAppTableRecord
  2
ACAD
 70
     0
  0
ENDTAB
  0
TABLE
  2
DIMSTYLE
  5
A
330
0
100
AcDbSymbolTable
 70
     1
100
AcDbDimStyleTable
  0
DIMSTYLE
105
27
330
A
100
AcDbSymbolTableRecord
100
AcDbDimStyleTableRecord
  2
ISO-25
 70
     0
 41
2.5
 42
0.625
 43
3.75
 44
1.25
 73
     0
 74
     0
 77
     1
 78
     8
140
2.5
141
2.5
143
0.03937007874016
147
0.625
171
     3
172
     1
178
     0
271
     2
272
     2
274
     3
278
    44
283
     0
284
     8
340
11
  0
ENDTAB
  0
TABLE
  2
BLOCK_RECORD
  5
1
330
0
100
AcDbSymbolTable
 70
     1
  0
BLOCK_RECORD
  5
1F
330
1
100
AcDbSymbolTableRecord
100
AcDbBlockTableRecord
  2
*Model_Space
340
22
 70
     0
280
     1
281
     0
  0
BLOCK_RECORD
  5
1B
330
1
100
AcDbSymbolTableRecord
100
AcDbBlockTableRecord
  2
*Paper_Space
340
1E
 70
     0
280
     1
281
     0
  0
BLOCK_RECORD
  5
23
330
1
100
AcDbSymbolTableRecord
100
AcDbBlockTableRecord
  2
*Paper_Space0
340
26
 70
     0
280
     1
281
     0
  0
ENDTAB
  0
ENDSEC
  0
SECTION
  2
BLOCKS
  0
BLOCK
  5
20
330
1F
100
AcDbEntity
  8
0
100
AcDbBlockBegin
  2
*Model_Space
 70
     0
 10
0.0
 20
0.0
 30
0.0
  3
*Model_Space
  1

  0
ENDBLK
  5
21
330
1F
100
AcDbEntity
  8
0
100
AcDbBlockEnd
  0
BLOCK
  5
1C
330
1B
100
AcDbEntity
 67
     1
  8
0
100
AcDbBlockBegin
  2
*Paper_Space
 70
     0
 10
0.0
 20
0.0
 30
0.0
  3
*Paper_Space
  1

  0
ENDBLK
  5
1D
330
1B
100
AcDbEntity
 67
     1
  8
0
100
AcDbBlockEnd
  0
BLOCK
  5
24
330
23
100
AcDbEntity
  8
0
100
AcDbBlockBegin
  2
*Paper_Space0
 70
     0
 10
0.0
 20
0.0
 30
0.0
  3
*Paper_Space0
  1

  0
ENDBLK
  5
25
330
23
100
AcDbEntity
  8
0
100
AcDbBlockEnd
  0
ENDSEC
  0
SECTION
  2
ENTITIES
  0
LINE
  5
4D
330
1F
100
AcDbEntity
  8
0-3_仕上
  6
Continuous
 62
     7
370
     5
100
AcDbLine
 10
-15121.76824490885
 20
-77.93422110583208
 30
0.0
 11
-13071.76955575088
 21
-2127.932910263802
 31
0.0
  0
LINE
  5
4E
330
1F
100
AcDbEntity
  8
0-3_仕上
  6
Continuous
 62
     7
370
     5
100
AcDbLine
 10
7657.45856598165
 20
13916.66589685388
 30
0.0
 11
7657.45856598165
 21
-12633.33339175662
 31
0.0
  0
LINE
  5
4F
330
1F
100
AcDbEntity
  8
0-3_仕上
  6
Continuous
 62
     7
370
     5
100
AcDbLine
 10
-19999.99917520059
 20
13008.33327834671
 30
0.0
 11
18999.99587600296
 21
13008.33327834671
 31
0.0
  0
TEXT
  5
50
330
1F
100
AcDbEntity
  8
0-A_文字
  6
Continuous
 62
     7
370
     0
100
AcDbText
 10
8491.945911296967
 20
13261.43281340618
 30
0.0
 40
304.8
  1
断面詳細図
 41
1.1
  7
ＭＳ ゴシック
100
AcDbText
  0
TEXT
  5
51
330
1F
100
AcDbEntity
  8
0-A_文字
  6
Continuous
 62
     3
370
     0
100
AcDbText
 10
205.6629834254135
 20
13250.61049723757
 30
0.0
 40
381.0
  1
６尺モジュール（DW=846）
 41
1.091666666666667
  7
ＭＳ ゴシック
100
AcDbText
  0
LINE
  5
52
330
1F
100
AcDbEntity
  8
0-A_文字
  6
Continuous
 62
     7
370
     5
100
AcDbLine
 10
14851.2839353466
 20
-7029.581868824084
 30
0.0
 11
14851.2839353466
 21
-7260.904064902144
 31
0.0
  0
TEXT
  5
53
330
1F
100
AcDbEntity
  8
0-A_文字
  6
Continuous
 62
     7
370
     0
100
AcDbText
 10
12770.37105002127
 20
1881.29921282961
 30
0.0
 40
228.6
  1
3
 41
0.9999999999999998
  7
ＭＳ ゴシック
100
AcDbText
  0
ARC
  5
54
330
1F
100
AcDbEntity
  8
0-A_文字
  6
Continuous
 62
     7
370
     5
100
AcDbCircle
 10
12139.16278942233
 20
2742.400456547053
 30
0.0
 40
25.0
100
AcDbArc
 50
180.0
 51
270.0
  0
LINE
  5
55
330
1F
100
AcDbEntity
  8
0-A_文字
  6
Continuous
 62
     7
370
     5
100
AcDbLine
 10
13258.94747837192
 20
-7293.735870115736
 30
0.0
 11
12883.94617005003
 21
-6918.734606497267
 31
0.0
  0
LINE
  5
56
330
1F
100
AcDbEntity
  8
0-A_文字
  6
Continuous
 62
     7
370
     5
100
AcDbLine
 10
13435.7246743024
 20
-7293.735870115736
 30
0.0
 11
13060.72341068393
 21
-6918.734606497267
 31
0.0
  0
LINE
  5
57
330
1F
100
AcDbEntity
  8
0-A_文字
  6
Continuous
 62
     7
370
     5
100
AcDbLine
 10
14142.83195598727
 20
-7293.735870115736
 30
0.0
 11
13767.8306923688
 21
-6918.734606497267
 31
0.0
  0
LINE
  5
58
330
1F
100
AcDbEntity
  8
0-A_文字
  6
Continuous
 62
     7
370
     5
100
AcDbLine
 10
14319.60760219699
 20
-7293.735870115736
 30
0.0
 11
13944.60629387511
 21
-6918.734606497267
 31
0.0
  0
LINE
  5
59
330
1F
100
AcDbEntity
  8
0-A_文字
  6
Continuous
 62
     7
370
     5
100
AcDbLine
 10
11733.44381365256
 20
-7293.735870115736
 30
0.0
 11
11733.44381365256
 21
-6918.734606497267
 31
0.0
  0
LWPOLYLINE
  5
5A
330
1F
100
AcDbEntity
  8
0-A_文字
  6
Continuous
 62
     7
370
     5
100
AcDbPolyline
 90
        4
 70
     1
 43
10.0
 10
11738.44381365256
 20
-7293.735870115736
 42
0.4142135623731
 10
11733.44381365256
 20
-7288.735870115736
 42
0.4142135623731
 10
11728.44381365256
 20
-7293.735870115736
 42
0.4142135623731
 10
11733.44381365256
 20
-7298.735870115736
 42
0.4142135623731
  0
LWPOLYLINE
  5
5B
330
1F
100
AcDbEntity
  8
0-A_文字
  6
Continuous
 62
     7
370
     5
100
AcDbPolyline
 90
        4
 70
     1
 43
10.0
 10
11738.44381365256
 20
-6918.734606497267
 42
0.4142135623731
 10
11733.44381365256
 20
-6913.734606497267
 42
0.4142135623731
 10
11728.44381365256
 20
-6918.734606497267
 42
0.4142135623731
 10
11733.44381365256
 20
-6923.734606497267
 42
0.4142135623731
  0
LINE
  5
5C
330
1F
100
AcDbEntity
  8
0-A_文字
  6
Continuous
 62
     7
370
     5
100
AcDbLine
 10
11733.44381365256
 20
-7293.735870115736
 30
0.0
 11
12242.54805287122
 21
-7293.735870115736
 31
0.0
  0
LINE
  5
5D
330
1F
100
AcDbEntity
  8
0-A_文字
  6
Continuous
 62
     7
370
     5
100
AcDbLine
 10
11733.44381365256
 20
-6918.734606497267
 30
0.0
 11
12242.54805287122
 21
-6918.734606497267
 31
0.0
  0
LINE
  5
5E
330
1F
100
AcDbEntity
  8
0-A_文字
  6
Continuous
 62
     7
370
     5
100
AcDbLine
 10
14439.16278942233
 20
-7293.735870115736
 30
0.0
 11
12489.16278942233
 21
-7293.735870115736
 31
0.0
  0
LINE
  5
5F
330
1F
100
AcDbEntity
  8
0-A_文字
  6
JWW_HOJO
 62
     7
370
     5
100
AcDbLine
 10
13614.16278942233
 20
-4544.186475443493
 30
0.0
 11
13614.16278942233
 21
-7707.612413491723
 31
0.0
  0
ARC
  5
60
330
1F
100
AcDbEntity
  8
0-A_文字
  6
Continuous
 62
     7
370
     5
100
AcDbCircle
 10
15146.33952502251
 20
-7026.40869873436
 30
0.0
 40
32.29408025741577
100
AcDbArc
 50
354.3609924316406
 51
185.6387786865234
  0
ARC
  5
61
330
1F
100
AcDbEntity
  8
0-A_文字
  6
Continuous
 62
     7
370
     5
100
AcDbCircle
 10
14883.42252139092
 20
-7026.40869873436
 30
0.0
 40
32.29408025741577
100
AcDbArc
 50
354.3609924316406
 51
185.6387786865234
  0
ARC
  5
62
330
1F
100
AcDbEntity
  8
0-A_文字
  6
Continuous
 62
     7
370
     5
100
AcDbCircle
 10
15011.97425250054
 20
-7026.40869873436
 30
0.0
 40
32.29408025741577
100
AcDbArc
 50
354.3609924316406
 51
185.6387786865234
  0
LINE
  5
63
330
1F
100
AcDbEntity
  8
0-A_文字
  6
Continuous
 62
     7
370
     5
100
AcDbLine
 10
15178.47678545952
 20
-7029.581868824084
 30
0.0
 11
15178.47678545952
 21
-7260.904064902144
 31
0.0
  0
LINE
  5
64
330
1F
100
AcDbEntity
  8
0-A_文字
  6
Continuous
 62
     7
370
     5
100
AcDbLine
 10
15114.20092944145
 20
-7029.581868824084
 30
0.0
 11
15114.20092944145
 21
-7260.904064902144
 31
0.0
  0
LINE
  5
65
330
1F
100
AcDbEntity
  8
0-A_文字
  6
Continuous
 62
     7
370
     5
100
AcDbLine
 10
14915.55980090141
 20
-7029.581868824084
 30
0.0
 11
14915.55980090141
 21
-7260.904064902144
 31
0.0
  0
LINE
  5
66
330
1F
100
AcDbEntity
  8
0-A_文字
  6
Continuous
 62
     7
370
     5
100
AcDbLine
 10
15044.11151293754
 20
-7029.581868824084
 30
0.0
 11
15044.11151293754
 21
-7260.904064902144
 31
0.0
  0
LINE
  5
67
330
1F
100
AcDbEntity
  8
0-A_文字
  6
Continuous
 62
     7
370
     5
100
AcDbLine
 10
14979.83565691948
 20
-7029.581868824084
 30
0.0
 11
14979.83565691948
 21
-7260.904064902144
 31
0.0
  0
ARC
  5
68
330
1F
100
AcDbEntity
  8
0-A_文字
  6
Continuous
 62
     7
370
     5
100
AcDbCircle
 10
15210.6140840435
 20
-7260.680971869306
 30
0.0
 40
32.13871240615845
100
AcDbArc
 50
180.3977355957032
 51
359.6022796630859
  0
ARC
  5
69
330
1F
100
AcDbEntity
  8
0-A_文字
  6
Continuous
 62
     7
370
     5
100
AcDbCircle
 10
14947.69708041191
 20
-7260.680971869306
 30
0.0
 40
32.13871240615845
100
AcDbArc
 50
180.3977355957032
 51
359.6022796630859
  0
ARC
  5
6A
330
1F
100
AcDbEntity
  8
0-A_文字
  6
Continuous
 62
     7
370
     5
100
AcDbCircle
 10
15076.24879244804
 20
-7260.680971869306
 30
0.0
 40
32.13871240615845
100
AcDbArc
 50
180.3977355957032
 51
359.6022796630859
  0
LINE
  5
6B
330
1F
100
AcDbEntity
  8
0-A_文字
  6
Continuous
 62
     7
370
     5
100
AcDbLine
 10
17469.91902396951
 20
-6993.735870115736
 30
0.0
 11
14839.16278942233
 21
-6993.735870115736
 31
0.0
  0
LINE
  5
6C
330
1F
100
AcDbEntity
  8
0-A_文字
  6
Continuous
 62
     7
370
     5
100
AcDbLine
 10
18477.97419277312
 20
-7293.735870115736
 30
0.0
 11
14904.4366759401
 21
-7293.735870115736
 31
0.0
  0
LINE
  5
6D
330
1F
100
AcDbEntity
  8
0-A_文字
  6
JWW_CENTER1
 62
     7
370
     5
100
AcDbLine
 10
11164.16278942233
 20
5794.886644392356
 30
0.0
 11
11164.16278942233
 21
-8221.912665695845
 31
0.0
  0
LINE
  5
6E
330
1F
100
AcDbEntity
  8
0-A_文字
  6
Continuous
 62
     7
370
     5
100
AcDbLine
 10
9539.162789422331
 20
3242.400456547053
 30
0.0
 11
12789.16278942233
 21
3242.400456547053
 31
0.0
  0
LINE
  5
6F
330
1F
100
AcDbEntity
  8
0-A_文字
  6
Continuous
 62
     7
370
     5
100
AcDbLine
 10
9851.662789422331
 20
3992.400456547053
 30
0.0
 11
12476.66278942233
 21
3992.400456547053
 31
0.0
  0
LINE
  5
70
330
1F
100
AcDbEntity
  8
0-A_文字
  6
Continuous
 62
     7
370
     5
100
AcDbLine
 10
9851.662789422331
 20
3242.400456547053
 30
0.0
 11
12476.66278942233
 21
3992.400456547053
 31
0.0
  0
LINE
  5
71
330
1F
100
AcDbEntity
  8
0-A_文字
  6
Continuous
 62
     7
370
     5
100
AcDbLine
 10
12789.16278942233
 20
2942.400456547053
 30
0.0
 11
12789.16278942233
 21
5691.658135057698
 31
0.0
  0
LINE
  5
72
330
1F
100
AcDbEntity
  8
0-A_文字
  6
Continuous
 62
     7
370
     5
100
AcDbLine
 10
12964.16278942233
 20
2942.400456547053
 30
0.0
 11
9539.162789422331
 21
2942.400456547053
 31
0.0
  0
LWPOLYLINE
  5
73
330
1F
100
AcDbEntity
  8
0-A_文字
  6
Continuous
 62
     7
370
     5
100
AcDbPolyline
 90
        4
 70
     1
 43
10.0
 10
11671.23033925292
 20
2942.400456547053
 42
0.4142135623731
 10
11666.23033925292
 20
2947.400456547053
 42
0.4142135623731
 10
11661.23033925292
 20
2942.400456547053
 42
0.4142135623731
 10
11666.23033925292
 20
2937.400456547052
 42
0.4142135623731
  0
LINE
  5
74
330
1F
100
AcDbEntity
  8
0-A_文字
  6
JWW_HOJO
 62
     7
370
     5
100
AcDbLine
 10
12837.37375535671
 20
5691.658135057698
 30
0.0
 11
9073.198949774247
 21
5691.658135057698
 31
0.0
  0
LINE
  5
75
330
1F
100
AcDbEntity
  8
0-A_文字
  6
Continuous
 62
     7
370
     5
100
AcDbLine
 10
9851.662789422331
 20
5691.658135057698
 30
0.0
 11
9851.662789422331
 21
3242.400456547053
 31
0.0
  0
LINE
  5
76
330
1F
100
AcDbEntity
  8
0-A_文字
  6
Continuous
 62
     7
370
     5
100
AcDbLine
 10
9539.162789422331
 20
5691.658135057698
 30
0.0
 11
9539.162789422331
 21
2942.400456547053
 31
0.0
  0
LINE
  5
77
330
1F
100
AcDbEntity
  8
0-A_文字
  6
Continuous
 62
     7
370
     5
100
AcDbLine
 10
12476.66278942233
 20
5691.658135057698
 30
0.0
 11
12476.66278942233
 21
3242.400456547053
 31
0.0
  0
LINE
  5
78
330
1F
100
AcDbEntity
  8
0-A_文字
  6
Continuous
 62
     7
370
     5
100
AcDbLine
 10
9539.162789422331
 20
2979.900456547053
 30
0.0
 11
12789.16278942233
 21
2979.900456547053
 31
0.0
  0
LINE
  5
79
330
1F
100
AcDbEntity
  8
0-A_文字
  6
Continuous
 62
     7
370
     5
100
AcDbLine
 10
9539.162789422331
 20
3017.400456547053
 30
0.0
 11
12789.16278942233
 21
3017.400456547053
 31
0.0
  0
LINE
  5
7A
330
1F
100
AcDbEntity
  8
0-A_文字
  6
Continuous
 62
     7
370
     5
100
AcDbLine
 10
9539.162789422331
 20
3054.900456547053
 30
0.0
 11
12789.16278942233
 21
3054.900456547053
 31
0.0
  0
LINE
  5
7B
330
1F
100
AcDbEntity
  8
0-A_文字
  6
Continuous
 62
     7
370
     5
100
AcDbLine
 10
9539.162789422331
 20
3092.400456547053
 30
0.0
 11
12789.16278942233
 21
3092.400456547053
 31
0.0
  0
LINE
  5
7C
330
1F
100
AcDbEntity
  8
0-A_文字
  6
Continuous
 62
     7
370
     5
100
AcDbLine
 10
9539.162789422331
 20
3129.900456547053
 30
0.0
 11
12789.16278942233
 21
3129.900456547053
 31
0.0
  0
LINE
  5
7D
330
1F
100
AcDbEntity
  8
0-A_文字
  6
Continuous
 62
     7
370
     5
100
AcDbLine
 10
9539.162789422331
 20
3167.400456547053
 30
0.0
 11
12789.16278942233
 21
3167.400456547053
 31
0.0
  0
LINE
  5
7E
330
1F
100
AcDbEntity
  8
0-A_文字
  6
Continuous
 62
     7
370
     5
100
AcDbLine
 10
9539.162789422331
 20
3204.900456547053
 30
0.0
 11
12789.16278942233
 21
3204.900456547053
 31
0.0
  0
LINE
  5
7F
330
1F
100
AcDbEntity
  8
0-A_文字
  6
JWW_DASHED1
 62
     7
370
     5
100
AcDbLine
 10
9756.851002623
 20
3242.400456547027
 30
0.0
 11
9851.66278942236
 21
3337.212243346384
 31
0.0
  0
LINE
  5
80
330
1F
100
AcDbEntity
  8
0-A_文字
  6
JWW_DASHED1
 62
     7
370
     5
100
AcDbLine
 10
9615.429646385684
 20
3242.400456547043
 30
0.0
 11
9851.662789422346
 21
3478.633599583706
 31
0.0
  0
LINE
  5
81
330
1F
100
AcDbEntity
  8
0-A_文字
  6
JWW_DASHED1
 62
     7
370
     5
100
AcDbLine
 10
9539.162789422326
 20
3307.55495582102
 30
0.0
 11
9851.662789422335
 21
3620.054955821027
 31
0.0
  0
LINE
  5
82
330
1F
100
AcDbEntity
  8
0-A_文字
  6
JWW_DASHED1
 62
     7
370
     5
100
AcDbLine
 10
9539.16278942232
 20
3448.976312058346
 30
0.0
 11
9851.662789422331
 21
3761.476312058359
 31
0.0
  0
LINE
  5
83
330
1F
100
AcDbEntity
  8
0-A_文字
  6
JWW_DASHED1
 62
     7
370
     5
100
AcDbLine
 10
9539.162789422355
 20
3590.397668295715
 30
0.0
 11
9851.662789422364
 21
3902.897668295722
 31
0.0
  0
LINE
  5
84
330
1F
100
AcDbEntity
  8
0-A_文字
  6
JWW_DASHED1
 62
     7
370
     5
100
AcDbLine
 10
9539.162789422395
 20
3731.81902453309
 30
0.0
 11
9851.66278942235
 21
4044.319024533043
 31
0.0
  0
LINE
  5
85
330
1F
100
AcDbEntity
  8
0-A_文字
  6
JWW_DASHED1
 62
     7
370
     5
100
AcDbLine
 10
9539.162789422384
 20
3873.24038077041
 30
0.0
 11
9851.662789422338
 21
4185.740380770365
 31
0.0
  0
LINE
  5
86
330
1F
100
AcDbEntity
  8
0-A_文字
  6
JWW_DASHED1
 62
     7
370
     5
100
AcDbLine
 10
9539.162789422357
 20
4014.661737007535
 30
0.0
 11
9851.662789422364
 21
4327.161737007542
 31
0.0
  0
LINE
  5
87
330
1F
100
AcDbEntity
  8
0-A_文字
  6
JWW_DASHED1
 62
     7
370
     5
100
AcDbLine
 10
9539.162789422344
 20
4156.083093244855
 30
0.0
 11
9851.662789422351
 21
4468.583093244863
 31
0.0
  0
LINE
  5
88
330
1F
100
AcDbEntity
  8
0-A_文字
  6
JWW_DASHED1
 62
     7
370
     5
100
AcDbLine
 10
9539.162789422331
 20
4297.504449482178
 30
0.0
 11
9851.662789422338
 21
4610.004449482183
 31
0.0
  0
LINE
  5
89
330
1F
100
AcDbEntity
  8
0-A_文字
  6
JWW_DASHED1
 62
     7
370
     5
100
AcDbLine
 10
9539.16278942232
 20
4438.925805719499
 30
0.0
 11
9851.662789422326
 21
4751.425805719505
 31
0.0
  0
LINE
  5
8A
330
1F
100
AcDbEntity
  8
0-A_文字
  6
JWW_DASHED1
 62
     7
370
     5
100
AcDbLine
 10
9539.162789422338
 20
4580.347161956847
 30
0.0
 11
9851.66278942235
 21
4892.847161956861
 31
0.0
  0
LINE
  5
8B
330
1F
100
AcDbEntity
  8
0-A_文字
  6
JWW_DASHED1
 62
     7
370
     5
100
AcDbLine
 10
9539.16278942235
 20
4721.768518194192
 30
0.0
 11
9851.662789422355
 21
5034.268518194201
 31
0.0
  0
LINE
  5
8C
330
1F
100
AcDbEntity
  8
0-A_文字
  6
JWW_DASHED1
 62
     7
370
     5
100
AcDbLine
 10
9539.16278942239
 20
4863.189874431568
 30
0.0
 11
9851.662789422344
 21
5175.689874431519
 31
0.0
  0
LINE
  5
8D
330
1F
100
AcDbEntity
  8
0-A_文字
  6
JWW_DASHED1
 62
     7
370
     5
100
AcDbLine
 10
9539.16278942236
 20
5004.611230668691
 30
0.0
 11
9851.66278942237
 21
5317.111230668699
 31
0.0
  0
LINE
  5
8E
330
1F
100
AcDbEntity
  8
0-A_文字
  6
JWW_DASHED1
 62
     7
370
     5
100
AcDbLine
 10
9539.16278942235
 20
5146.032586906013
 30
0.0
 11
9851.662789422355
 21
5458.532586906019
 31
0.0
  0
LINE
  5
8F
330
1F
100
AcDbEntity
  8
0-A_文字
  6
JWW_DASHED1
 62
     7
370
     5
100
AcDbLine
 10
9539.162789422338
 20
5287.453943143335
 30
0.0
 11
9851.662789422344
 21
5599.95394314334
 31
0.0
  0
LINE
  5
90
330
1F
100
AcDbEntity
  8
0-A_文字
  6
JWW_DASHED1
 62
     7
370
     5
100
AcDbLine
 10
9539.162789422326
 20
5428.875299380654
 30
0.0
 11
9801.945625099366
 21
5691.658135057698
 31
0.0
  0
LINE
  5
91
330
1F
100
AcDbEntity
  8
0-A_文字
  6
JWW_DASHED1
 62
     7
370
     5
100
AcDbLine
 10
9539.162789422364
 20
5570.296655618027
 30
0.0
 11
9660.524268861996
 21
5691.658135057661
 31
0.0
  0
LINE
  5
92
330
1F
100
AcDbEntity
  8
0-A_文字
  6
JWW_DASHED1
 62
     7
370
     5
100
AcDbLine
 10
12726.69948360648
 20
3242.400456547043
 30
0.0
 11
12789.16278942234
 21
3304.863762362913
 31
0.0
  0
LINE
  5
93
330
1F
100
AcDbEntity
  8
0-A_文字
  6
JWW_DASHED1
 62
     7
370
     5
100
AcDbLine
 10
12585.27812736915
 20
3242.400456547058
 30
0.0
 11
12789.16278942233
 21
3446.285118600238
 31
0.0
  0
LINE
  5
94
330
1F
100
AcDbEntity
  8
0-A_文字
  6
JWW_DASHED1
 62
     7
370
     5
100
AcDbLine
 10
12476.66278942231
 20
3275.206474837549
 30
0.0
 11
12789.16278942233
 21
3587.706474837563
 31
0.0
  0
LINE
  5
95
330
1F
100
AcDbEntity
  8
0-A_文字
  6
JWW_DASHED1
 62
     7
370
     5
100
AcDbLine
 10
12476.66278942235
 20
3416.627831074922
 30
0.0
 11
12789.16278942235
 21
3729.127831074929
 31
0.0
  0
LINE
  5
96
330
1F
100
AcDbEntity
  8
0-A_文字
  6
JWW_DASHED1
 62
     7
370
     5
100
AcDbLine
 10
12476.66278942234
 20
3558.049187312243
 30
0.0
 11
12789.16278942234
 21
3870.54918731225
 31
0.0
  0
LINE
  5
97
330
1F
100
AcDbEntity
  8
0-A_文字
  6
JWW_DASHED1
 62
     7
370
     5
100
AcDbLine
 10
12476.66278942237
 20
3699.470543549421
 30
0.0
 11
12789.16278942237
 21
4011.970543549427
 31
0.0
  0
LINE
  5
98
330
1F
100
AcDbEntity
  8
0-A_文字
  6
JWW_DASHED1
 62
     7
370
     5
100
AcDbLine
 10
12476.66278942235
 20
3840.891899786742
 30
0.0
 11
12789.16278942236
 21
4153.391899786749
 31
0.0
  0
LINE
  5
99
330
1F
100
AcDbEntity
  8
0-A_文字
  6
JWW_DASHED1
 62
     7
370
     5
100
AcDbLine
 10
12476.66278942234
 20
3982.313256024062
 30
0.0
 11
12789.16278942234
 21
4294.813256024069
 31
0.0
  0
LINE
  5
9A
330
1F
100
AcDbEntity
  8
0-A_文字
  6
JWW_DASHED1
 62
     7
370
     5
100
AcDbLine
 10
12476.66278942233
 20
4123.734612261384
 30
0.0
 11
12789.16278942233
 21
4436.234612261392
 31
0.0
  0
LINE
  5
9B
330
1F
100
AcDbEntity
  8
0-A_文字
  6
JWW_DASHED1
 62
     7
370
     5
100
AcDbLine
 10
12476.66278942234
 20
4265.155968498728
 30
0.0
 11
12789.16278942235
 21
4577.655968498739
 31
0.0
  0
LINE
  5
9C
330
1F
100
AcDbEntity
  8
0-A_文字
  6
JWW_DASHED1
 62
     7
370
     5
100
AcDbLine
 10
12476.66278942235
 20
4406.577324736078
 30
0.0
 11
12789.16278942237
 21
4719.077324736087
 31
0.0
  0
LINE
  5
9D
330
1F
100
AcDbEntity
  8
0-A_文字
  6
JWW_DASHED1
 62
     7
370
     5
100
AcDbLine
 10
12476.66278942234
 20
4547.9986809734
 30
0.0
 11
12789.16278942235
 21
4860.498680973405
 31
0.0
  0
LINE
  5
9E
330
1F
100
AcDbEntity
  8
0-A_文字
  6
JWW_DASHED1
 62
     7
370
     5
100
AcDbLine
 10
12476.66278942238
 20
4689.420037210773
 30
0.0
 11
12789.16278942234
 21
5001.920037210728
 31
0.0
  0
LINE
  5
9F
330
1F
100
AcDbEntity
  8
0-A_文字
  6
JWW_DASHED1
 62
     7
370
     5
100
AcDbLine
 10
12476.66278942235
 20
4830.841393447899
 30
0.0
 11
12789.16278942237
 21
5143.341393447905
 31
0.0
  0
LINE
  5
A0
330
1F
100
AcDbEntity
  8
0-A_文字
  6
JWW_DASHED1
 62
     7
370
     5
100
AcDbLine
 10
12476.66278942234
 20
4972.262749685218
 30
0.0
 11
12789.16278942235
 21
5284.762749685226
 31
0.0
  0
LINE
  5
A1
330
1F
100
AcDbEntity
  8
0-A_文字
  6
JWW_DASHED1
 62
     7
370
     5
100
AcDbLine
 10
12476.66278942233
 20
5113.684105922541
 30
0.0
 11
12789.16278942234
 21
5426.184105922549
 31
0.0
  0
LINE
  5
A2
330
1F
100
AcDbEntity
  8
0-A_文字
  6
JWW_DASHED1
 62
     7
370
     5
100
AcDbLine
 10
12476.66278942237
 20
5255.105462159905
 30
0.0
 11
12789.16278942238
 21
5567.60546215992
 31
0.0
  0
LINE
  5
A3
330
1F
100
AcDbEntity
  8
0-A_文字
  6
JWW_DASHED1
 62
     7
370
     5
100
AcDbLine
 10
12476.66278942235
 20
5396.52681839723
 30
0.0
 11
12771.79410608279
 21
5691.658135057661
 31
0.0
  0
LINE
  5
A4
330
1F
100
AcDbEntity
  8
0-A_文字
  6
JWW_DASHED1
 62
     7
370
     5
100
AcDbLine
 10
12476.66278942235
 20
5537.948174634557
 30
0.0
 11
12630.37274984547
 21
5691.658135057675
 31
0.0
  0
LINE
  5
A5
330
1F
100
AcDbEntity
  8
0-A_文字
  6
JWW_DASHED1
 62
     7
370
     5
100
AcDbLine
 10
12476.66278942234
 20
5679.369530871877
 30
0.0
 11
12488.95139360815
 21
5691.658135057689
 31
0.0
  0
LINE
  5
A6
330
1F
100
AcDbEntity
  8
0-A_文字
  6
Continuous
 62
     7
370
     5
100
AcDbLine
 10
9539.162789422331
 20
2942.400456547053
 30
0.0
 11
9539.162789422331
 21
-6993.735870115736
 31
0.0
  0
TEXT
  5
A7
330
1F
100
AcDbEntity
  8
0-A_文字
  6
Continuous
 62
     7
370
     0
100
AcDbText
 10
11657.81243472859
 20
-6958.675907991599
 30
0.0
 40
228.6
  1
15
 50
90.0
 41
1.083333333333333
  7
ＭＳ ゴシック
100
AcDbText
  0
LINE
  5
A8
330
1F
100
AcDbEntity
  8
0-A_文字
  6
JWW_HOJO
 62
     7
370
     5
100
AcDbLine
 10
9539.162789422331
 20
2717.400456547053
 30
0.0
 11
12789.16278942233
 21
2717.400456547053
 31
0.0
  0
LINE
  5
A9
330
1F
100
AcDbEntity
  8
0-A_文字
  6
Continuous
 62
     7
370
     5
100
AcDbLine
 10
12556.09329351176
 20
2717.400456547053
 30
0.0
 11
12781.09329351176
 21
2942.400456547053
 31
0.0
  0
LWPOLYLINE
  5
AA
330
1F
100
AcDbEntity
  8
0-A_文字
  6
Continuous
 62
     7
370
     5
100
AcDbPolyline
 90
        4
 70
     1
 43
10.0
 10
11671.23033925292
 20
2717.400456547053
 42
0.4142135623731
 10
11666.23033925292
 20
2722.400456547053
 42
0.4142135623731
 10
11661.23033925292
 20
2717.400456547053
 42
0.4142135623731
 10
11666.23033925292
 20
2712.400456547052
 42
0.4142135623731
  0
LINE
  5
AB
330
1F
100
AcDbEntity
  8
0-A_文字
  6
Continuous
 62
     7
370
     5
100
AcDbLine
 10
11666.23033925292
 20
2717.400456547053
 30
0.0
 11
12814.16278942233
 21
2717.400456547053
 31
0.0
  0
LINE
  5
AC
330
1F
100
AcDbEntity
  8
0-A_文字
  6
Continuous
 62
     7
370
     5
100
AcDbLine
 10
11666.23033925292
 20
2942.400456547053
 30
0.0
 11
11666.23033925292
 21
2717.400456547053
 31
0.0
  0
TEXT
  5
AD
330
1F
100
AcDbEntity
  8
0-A_文字
  6
Continuous
 62
     7
370
     0
100
AcDbText
 10
11582.94782739461
 20
2738.50333473064
 30
0.0
 40
228.6
  1
9
 50
90.0
 41
0.9999999999999998
  7
ＭＳ ゴシック
100
AcDbText
  0
ARC
  5
AE
330
1F
100
AcDbEntity
  8
0-A_文字
  6
Continuous
 62
     7
370
     5
100
AcDbCircle
 10
13389.16278942233
 20
-6992.206842936139
 30
0.0
 40
25.0
100
AcDbArc
 50
219.7928363658217
 51
320.2071636341782
  0
LINE
  5
AF
330
1F
100
AcDbEntity
  8
0-A_文字
  6
Continuous
 62
     7
370
     5
100
AcDbLine
 10
13408.37187816897
 20
-7008.20718385512
 30
0.0
 11
13464.16278942233
 21
-6941.227825668409
 31
0.0
  0
LINE
  5
B0
330
1F
100
AcDbEntity
  8
0-A_文字
  6
Continuous
 62
     7
370
     5
100
AcDbLine
 10
13369.95370067569
 20
-7008.20718385512
 30
0.0
 11
13314.16278942233
 21
-6941.227825668409
 31
0.0
  0
ARC
  5
B1
330
1F
100
AcDbEntity
  8
0-A_文字
  6
Continuous
 62
     7
370
     5
100
AcDbCircle
 10
13235.36077602511
 20
-6964.375256888846
 30
0.0
 40
54.00353670120239
100
AcDbArc
 50
4.951354980468766
 51
30.2751922607422
  0
ARC
  5
B2
330
1F
100
AcDbEntity
  8
0-A_文字
  6
Continuous
 62
     7
370
     5
100
AcDbCircle
 10
13281.71207769519
 20
-6923.165641866902
 30
0.0
 40
4.439356923103333
100
AcDbArc
 50
86.49131774902341
 51
171.549560546875
  0
ARC
  5
B3
330
1F
100
AcDbEntity
  8
0-A_文字
  6
Continuous
 62
     7
370
     5
100
AcDbCircle
 10
13542.96480281955
 20
-6964.375256888846
 30
0.0
 40
54.00353670120239
100
AcDbArc
 50
149.7248382568359
 51
175.0486602783203
  0
ARC
  5
B4
330
1F
100
AcDbEntity
  8
0-A_文字
  6
Continuous
 62
     7
370
     5
100
AcDbCircle
 10
13496.61350114947
 20
-6923.165641866902
 30
0.0
 40
4.439356923103333
100
AcDbArc
 50
8.450454711914048
 51
93.50869750976561
  0
LINE
  5
B5
330
1F
100
AcDbEntity
  8
0-A_文字
  6
Continuous
 62
     7
370
     5
100
AcDbLine
 10
13278.09049947864
 20
-7031.234606497267
 30
0.0
 11
13289.16278942233
 21
-7031.234606497267
 31
0.0
  0
LINE
  5
B6
330
1F
100
AcDbEntity
  8
0-A_文字
  6
Continuous
 62
     7
370
     5
100
AcDbLine
 10
13289.16278942233
 20
-6959.714215390662
 30
0.0
 11
13289.16278942233
 21
-7031.234606497267
 31
0.0
  0
LINE
  5
B7
330
1F
100
AcDbEntity
  8
0-A_文字
  6
Continuous
 62
     7
370
     5
100
AcDbLine
 10
13278.09049947864
 20
-7031.234606497267
 30
0.0
 11
13283.12166793948
 21
-7068.968340151289
 31
0.0
  0
LINE
  5
B8
330
1F
100
AcDbEntity
  8
0-A_文字
  6
Continuous
 62
     7
370
     5
100
AcDbLine
 10
13500.23507936603
 20
-7031.234606497267
 30
0.0
 11
13495.20391090518
 21
-7068.968340151289
 31
0.0
  0
LINE
  5
B9
330
1F
100
AcDbEntity
  8
0-A_文字
  6
Continuous
 62
     7
370
     5
100
AcDbLine
 10
13500.23507936603
 20
-7031.234606497267
 30
0.0
 11
13489.16278942233
 21
-7031.234606497267
 31
0.0
  0
LINE
  5
BA
330
1F
100
AcDbEntity
  8
0-A_文字
  6
Continuous
 62
     7
370
     5
100
AcDbLine
 10
13489.16278942233
 20
-6959.714215390662
 30
0.0
 11
13489.16278942233
 21
-7031.234606497267
 31
0.0
  0
LINE
  5
BB
330
1F
100
AcDbEntity
  8
0-A_文字
  6
Continuous
 62
     7
370
     5
100
AcDbLine
 10
13451.66278942233
 20
-7031.234606497267
 30
0.0
 11
13326.66278942233
 21
-7031.234606497267
 31
0.0
  0
LINE
  5
BC
330
1F
100
AcDbEntity
  8
0-A_文字
  6
Continuous
 62
     7
370
     5
100
AcDbLine
 10
13326.66278942233
 20
-6956.234606497267
 30
0.0
 11
13326.66278942233
 21
-7031.234606497267
 31
0.0
  0
LINE
  5
BD
330
1F
100
AcDbEntity
  8
0-A_文字
  6
Continuous
 62
     7
370
     5
100
AcDbLine
 10
13451.66278942233
 20
-6956.234606497267
 30
0.0
 11
13451.66278942233
 21
-7031.234606497267
 31
0.0
  0
LINE
  5
BE
330
1F
100
AcDbEntity
  8
0-A_文字
  6
Continuous
 62
     7
370
     5
100
AcDbLine
 10
13320.39866908198
 20
-6956.234606497267
 30
0.0
 11
13326.66278942233
 21
-6956.234606497267
 31
0.0
  0
LINE
  5
BF
330
1F
100
AcDbEntity
  8
0-A_文字
  6
Continuous
 62
     7
370
     5
100
AcDbLine
 10
13281.99899061328
 20
-6937.149181358794
 30
0.0
 11
13277.32092006808
 21
-6931.532956056574
 31
0.0
  0
LINE
  5
C0
330
1F
100
AcDbEntity
  8
0-A_文字
  6
Continuous
 62
     7
370
     5
100
AcDbLine
 10
13277.32092006808
 20
-6931.532956056574
 30
0.0
 11
13277.32092006808
 21
-6922.513260461667
 31
0.0
  0
LINE
  5
C1
330
1F
100
AcDbEntity
  8
0-A_文字
  6
Continuous
 62
     7
370
     5
100
AcDbLine
 10
13289.16278942233
 20
-6918.734606497267
 30
0.0
 11
13281.983767587
 21
-6918.734606497267
 31
0.0
  0
LINE
  5
C2
330
1F
100
AcDbEntity
  8
0-A_文字
  6
Continuous
 62
     7
370
     5
100
AcDbLine
 10
13320.39866908198
 20
-6956.234606497267
 30
0.0
 11
13289.16278942233
 21
-6918.734606497267
 31
0.0
  0
LINE
  5
C3
330
1F
100
AcDbEntity
  8
0-A_文字
  6
Continuous
 62
     7
370
     5
100
AcDbLine
 10
13457.92690976268
 20
-6956.234606497267
 30
0.0
 11
13451.66278942233
 21
-6956.234606497267
 31
0.0
  0
LINE
  5
C4
330
1F
100
AcDbEntity
  8
0-A_文字
  6
Continuous
 62
     7
370
     5
100
AcDbLine
 10
13496.32658823138
 20
-6937.149181358794
 30
0.0
 11
13501.00465877658
 21
-6931.532956056574
 31
0.0
  0
LINE
  5
C5
330
1F
100
AcDbEntity
  8
0-A_文字
  6
Continuous
 62
     7
370
     5
100
AcDbLine
 10
13501.00465877658
 20
-6931.532956056574
 30
0.0
 11
13501.00465877658
 21
-6922.513260461667
 31
0.0
  0
LINE
  5
C6
330
1F
100
AcDbEntity
  8
0-A_文字
  6
Continuous
 62
     7
370
     5
100
AcDbLine
 10
13489.16278942233
 20
-6918.734606497267
 30
0.0
 11
13496.34181125766
 21
-6918.734606497267
 31
0.0
  0
LINE
  5
C7
330
1F
100
AcDbEntity
  8
0-A_文字
  6
Continuous
 62
     7
370
     5
100
AcDbLine
 10
13457.92690976268
 20
-6956.234606497267
 30
0.0
 11
13489.16278942233
 21
-6918.734606497267
 31
0.0
  0
LINE
  5
C8
330
1F
100
AcDbEntity
  8
0-A_文字
  6
Continuous
 62
     7
370
     5
100
AcDbLine
 10
13276.66278942233
 20
-6918.734606497267
 30
0.0
 11
13276.66278942233
 21
-7068.734606497267
 31
0.0
  0
LINE
  5
C9
330
1F
100
AcDbEntity
  8
0-A_文字
  6
Continuous
 62
     7
370
     5
100
AcDbLine
 10
13501.66278942233
 20
-7068.734606497267
 30
0.0
 11
13276.66278942233
 21
-7068.734606497267
 31
0.0
  0
LINE
  5
CA
330
1F
100
AcDbEntity
  8
0-A_文字
  6
Continuous
 62
     7
370
     5
100
AcDbLine
 10
13501.66278942233
 20
-6918.734606497267
 30
0.0
 11
13501.66278942233
 21
-7068.734606497267
 31
0.0
  0
ARC
  5
CB
330
1F
100
AcDbEntity
  8
0-A_文字
  6
Continuous
 62
     7
370
     5
100
AcDbCircle
 10
12814.16278942233
 20
2767.400456547053
 30
0.0
 40
50.0
100
AcDbArc
 50
270.0
 51
0.0
  0
LINE
  5
CC
330
1F
100
AcDbEntity
  8
0-A_文字
  6
Continuous
 62
     7
370
     5
100
AcDbLine
 10
12697.5146497491
 20
2717.400456547053
 30
0.0
 11
12864.16278942233
 21
2884.048596220291
 31
0.0
  0
LINE
  5
CD
330
1F
100
AcDbEntity
  8
0-A_文字
  6
Continuous
 62
     7
370
     5
100
AcDbLine
 10
12114.16278942233
 20
-6993.735870115736
 30
0.0
 11
12114.16278942233
 21
2942.400456547053
 31
0.0
  0
LINE
  5
CE
330
1F
100
AcDbEntity
  8
0-A_文字
  6
Continuous
 62
     7
370
     5
100
AcDbLine
 10
12414.67193727443
 20
2717.400456547053
 30
0.0
 11
12639.67193727443
 21
2942.400456547053
 31
0.0
  0
LINE
  5
CF
330
1F
100
AcDbEntity
  8
0-A_文字
  6
Continuous
 62
     7
370
     5
100
AcDbLine
 10
12273.25058103712
 20
2717.400456547053
 30
0.0
 11
12498.25058103712
 21
2942.400456547053
 31
0.0
  0
LINE
  5
D0
330
1F
100
AcDbEntity
  8
0-A_文字
  6
Continuous
 62
     7
370
     5
100
AcDbLine
 10
12131.82922479981
 20
2717.400456547053
 30
0.0
 11
12356.82922479981
 21
2942.400456547053
 31
0.0
  0
LINE
  5
D1
330
1F
100
AcDbEntity
  8
0-A_文字
  6
Continuous
 62
     7
370
     5
100
AcDbLine
 10
12114.16278942233
 20
2841.155377406886
 30
0.0
 11
12215.4078685625
 21
2942.400456547053
 31
0.0
  0
LINE
  5
D2
330
1F
100
AcDbEntity
  8
0-A_文字
  6
Continuous
 62
     7
370
     5
100
AcDbLine
 10
12864.16278942233
 20
-6918.734606497267
 30
0.0
 11
12864.16278942233
 21
2942.400456547053
 31
0.0
  0
LINE
  5
D3
330
1F
100
AcDbEntity
  8
0-A_文字
  6
Continuous
 62
     3
370
     5
100
AcDbLine
 10
12864.16278942233
 20
1700.691723616075
 30
0.0
 11
12789.16278942233
 21
1700.691723616075
 31
0.0
  0
LWPOLYLINE
  5
D4
330
1F
100
AcDbEntity
  8
0-A_文字
  6
Continuous
 62
     3
370
     5
100
AcDbPolyline
 90
        4
 70
     1
 43
10.0
 10
12869.16278942233
 20
1700.691723616075
 42
0.4142135623731
 10
12864.16278942233
 20
1705.691723616075
 42
0.4142135623731
 10
12859.16278942233
 20
1700.691723616075
 42
0.4142135623731
 10
12864.16278942233
 20
1695.691723616075
 42
0.4142135623731
  0
LWPOLYLINE
  5
D5
330
1F
100
AcDbEntity
  8
0-A_文字
  6
Continuous
 62
     3
370
     5
100
AcDbPolyline
 90
        4
 70
     1
 43
10.0
 10
12794.16278942233
 20
1700.691723616075
 42
0.4142135623731
 10
12789.16278942233
 20
1705.691723616075
 42
0.4142135623731
 10
12784.16278942233
 20
1700.691723616075
 42
0.4142135623731
 10
12789.16278942233
 20
1695.691723616075
 42
0.4142135623731
  0
LINE
  5
D6
330
1F
100
AcDbEntity
  8
0-A_文字
  6
Continuous
 62
     3
370
     5
100
AcDbLine
 10
12864.16278942233
 20
1700.691723616075
 30
0.0
 11
12864.16278942233
 21
1845.285916884771
 31
0.0
  0
LINE
  5
D7
330
1F
100
AcDbEntity
  8
0-A_文字
  6
Continuous
 62
     3
370
     5
100
AcDbLine
 10
12789.16278942233
 20
1700.691723616075
 30
0.0
 11
12789.16278942233
 21
1845.285916884771
 31
0.0
  0
LINE
  5
D8
330
1F
100
AcDbEntity
  8
0-A_文字
  6
Continuous
 62
     3
370
     5
100
AcDbLine
 10
12864.16278942233
 20
-14.04057897971711
 30
0.0
 11
12114.16278942233
 21
-14.04057897971711
 31
0.0
  0
LWPOLYLINE
  5
D9
330
1F
100
AcDbEntity
  8
0-A_文字
  6
Continuous
 62
     3
370
     5
100
AcDbPolyline
 90
        4
 70
     1
 43
10.0
 10
12869.16278942233
 20
-14.04057897971711
 42
0.4142135623731
 10
12864.16278942233
 20
-9.040578979717111
 42
0.4142135623731
 10
12859.16278942233
 20
-14.04057897971711
 42
0.4142135623731
 10
12864.16278942233
 20
-19.04057897971711
 42
0.4142135623731
  0
LWPOLYLINE
  5
DA
330
1F
100
AcDbEntity
  8
0-A_文字
  6
Continuous
 62
     3
370
     5
100
AcDbPolyline
 90
        4
 70
     1
 43
10.0
 10
12119.16278942233
 20
-14.04057897971711
 42
0.4142135623731
 10
12114.16278942233
 20
-9.040578979717111
 42
0.4142135623731
 10
12109.16278942233
 20
-14.04057897971711
 42
0.4142135623731
 10
12114.16278942233
 20
-19.04057897971711
 42
0.4142135623731
  0
LINE
  5
DB
330
1F
100
AcDbEntity
  8
0-A_文字
  6
Continuous
 62
     3
370
     5
100
AcDbLine
 10
12864.16278942233
 20
-14.04057897971711
 30
0.0
 11
12864.16278942233
 21
324.8803126948644
 31
0.0
  0
LINE
  5
DC
330
1F
100
AcDbEntity
  8
0-A_文字
  6
Continuous
 62
     3
370
     5
100
AcDbLine
 10
12114.16278942233
 20
-14.04057897971711
 30
0.0
 11
12114.16278942233
 21
324.8803126948644
 31
0.0
  0
TEXT
  5
DD
330
1F
100
AcDbEntity
  8
0-A_文字
  6
Continuous
 62
     7
370
     0
100
AcDbText
 10
12326.66278942233
 20
78.2594210202829
 30
0.0
 40
228.6
  1
30
 41
1.083333333333333
  7
ＭＳ ゴシック
100
AcDbText
  0
LINE
  5
DE
330
1F
100
AcDbEntity
  8
0-A_文字
  6
Continuous
 62
     7
370
     5
100
AcDbLine
 10
13789.27909000522
 20
-7293.735870115736
 30
0.0
 11
13501.66278942233
 21
-7006.119569532851
 31
0.0
  0
LINE
  5
DF
330
1F
100
AcDbEntity
  8
0-A_文字
  6
Continuous
 62
     7
370
     5
100
AcDbLine
 10
13966.05473621493
 20
-7293.735870115736
 30
0.0
 11
13591.05193777686
 21
-6918.734606497267
 31
0.0
  0
LINE
  5
E0
330
1F
100
AcDbEntity
  8
0-A_文字
  6
Continuous
 62
     7
370
     5
100
AcDbLine
 10
13612.50187917357
 20
-7293.735870115736
 30
0.0
 11
13387.5006272847
 21
-7068.734606497267
 31
0.0
  0
LINE
  5
E1
330
1F
100
AcDbEntity
  8
0-A_文字
  6
Continuous
 62
     7
370
     5
100
AcDbLine
 10
13276.66278942233
 20
-6957.896762856788
 30
0.0
 11
13237.50063510438
 21
-6918.734606497267
 31
0.0
  0
LINE
  5
E2
330
1F
100
AcDbEntity
  8
0-A_文字
  6
JWW_HOJO
 62
     7
370
     5
100
AcDbLine
 10
12789.16278942233
 20
-6918.734606497267
 30
0.0
 11
12789.16278942233
 21
2942.400456547053
 31
0.0
  0
ARC
  5
E3
330
1F
100
AcDbEntity
  8
0-A_文字
  6
Continuous
 62
     7
370
     5
100
AcDbCircle
 10
14789.16278942233
 20
-6968.734606497267
 30
0.0
 40
50.0
100
AcDbArc
 50
0.0
 51
90.0
  0
LINE
  5
E4
330
1F
100
AcDbEntity
  8
0-A_文字
  6
Continuous
 62
     7
370
     5
100
AcDbLine
 10
14839.16278942233
 20
-6968.734606497267
 30
0.0
 11
14839.16278942233
 21
-7293.735870115736
 31
0.0
  0
ARC
  5
E5
330
1F
100
AcDbEntity
  8
0-A_文字
  6
Continuous
 62
     7
370
     5
100
AcDbCircle
 10
14819.14534930229
 20
-7260.680971869306
 30
0.0
 40
32.13871240615845
100
AcDbArc
 50
308.5241990416374
 51
359.6022796630859
  0
LINE
  5
E6
330
1F
100
AcDbEntity
  8
0-A_文字
  6
Continuous
 62
     7
370
     5
100
AcDbLine
 10
12789.16278942233
 20
-6968.734606497267
 30
0.0
 11
12789.16278942233
 21
-7293.735870115736
 31
0.0
  0
ARC
  5
E7
330
1F
100
AcDbEntity
  8
0-A_文字
  6
Continuous
 62
     7
370
     5
100
AcDbCircle
 10
12839.16278942233
 20
-6968.734606497267
 30
0.0
 40
50.0
100
AcDbArc
 50
90.0
 51
180.0
  0
LINE
  5
E8
330
1F
100
AcDbEntity
  8
0-A_文字
  6
Continuous
 62
     7
370
     5
100
AcDbLine
 10
13082.17025859958
 20
-7293.735870115736
 30
0.0
 11
12789.16278942233
 21
-7000.728374872569
 31
0.0
  0
LINE
  5
E9
330
1F
100
AcDbEntity
  8
0-A_文字
  6
Continuous
 62
     7
370
     5
100
AcDbLine
 10
12905.39303882724
 20
-7293.735870115736
 30
0.0
 11
12789.16278942233
 21
-7177.505610370994
 31
0.0
  0
LINE
  5
EA
330
1F
100
AcDbEntity
  8
0-A_文字
  6
Continuous
 62
     7
370
     5
100
AcDbLine
 10
14839.16278942233
 20
-7282.959546849179
 30
0.0
 11
14474.93791065675
 21
-6918.734606497267
 31
0.0
  0
LINE
  5
EB
330
1F
100
AcDbEntity
  8
0-A_文字
  6
Continuous
 62
     7
370
     5
100
AcDbLine
 10
14839.16278942233
 20
-7106.182360582739
 30
0.0
 11
14651.71506703216
 21
-6918.734606497267
 31
0.0
  0
LINE
  5
EC
330
1F
100
AcDbEntity
  8
0-A_文字
  6
Continuous
 62
     7
370
     5
100
AcDbLine
 10
13764.16278942233
 20
-6768.734606497267
 30
0.0
 11
13014.16278942233
 21
-6768.734606497267
 31
0.0
  0
LINE
  5
ED
330
1F
100
AcDbEntity
  8
0-A_文字
  6
Continuous
 62
     7
370
     5
100
AcDbLine
 10
13314.16278942233
 20
-6768.734606497267
 30
0.0
 11
13314.16278942233
 21
-6941.227825668409
 31
0.0
  0
LINE
  5
EE
330
1F
100
AcDbEntity
  8
0-A_文字
  6
Continuous
 62
     7
370
     5
100
AcDbLine
 10
13464.16278942233
 20
-6768.734606497267
 30
0.0
 11
13464.16278942233
 21
-6941.227825668409
 31
0.0
  0
LINE
  5
EF
330
1F
100
AcDbEntity
  8
0-A_文字
  6
JWW_HOJO
 62
     4
370
     5
100
AcDbLine
 10
13389.16278942233
 20
6054.655056710246
 30
0.0
 11
13389.16278942233
 21
-7941.312579643869
 31
0.0
  0
LINE
  5
F0
330
1F
100
AcDbEntity
  8
0-A_文字
  6
Continuous
 62
     7
370
     5
100
AcDbLine
 10
12839.16278942233
 20
-6918.734606497267
 30
0.0
 11
13276.66278942233
 21
-6918.734606497267
 31
0.0
  0
LINE
  5
F1
330
1F
100
AcDbEntity
  8
0-A_文字
  6
Continuous
 62
     7
370
     5
100
AcDbLine
 10
12801.41258935863
 20
2942.400456547038
 30
0.0
 11
12789.16278942231
 21
2954.650256483357
 31
0.0
  0
LINE
  5
F2
330
1F
100
AcDbEntity
  8
0-A_文字
  6
Continuous
 62
     7
370
     5
100
AcDbLine
 10
12942.83394559596
 20
2942.40045654705
 30
0.0
 11
12817.83394559597
 21
3067.400456547035
 31
0.0
  0
LINE
  5
F3
330
1F
100
AcDbEntity
  8
0-A_文字
  6
Continuous
 62
     7
370
     5
100
AcDbLine
 10
13084.25530183311
 20
2942.40045654705
 30
0.0
 11
12839.16278942234
 21
3187.492968957819
 31
0.0
  0
LINE
  5
F4
330
1F
100
AcDbEntity
  8
0-A_文字
  6
Continuous
 62
     7
370
     5
100
AcDbLine
 10
12789.16278942233
 20
3067.400456547053
 30
0.0
 11
12839.16278942233
 21
3067.400456547053
 31
0.0
  0
LINE
  5
F5
330
1F
100
AcDbEntity
  8
0-A_文字
  6
Continuous
 62
     7
370
     5
100
AcDbLine
 10
14839.16278942233
 20
3692.400456547053
 30
0.0
 11
12789.16278942233
 21
3692.400456547053
 31
0.0
  0
LINE
  5
F6
330
1F
100
AcDbEntity
  8
0-A_文字
  6
Continuous
 62
     7
370
     5
100
AcDbLine
 10
12839.16278942233
 20
3642.400456547053
 30
0.0
 11
12839.16278942233
 21
3067.400456547053
 31
0.0
  0
LINE
  5
F7
330
1F
100
AcDbEntity
  8
0-A_文字
  6
Continuous
 62
     7
370
     5
100
AcDbLine
 10
13626.66278942233
 20
3117.400456547053
 30
0.0
 11
13151.66278942233
 21
3117.400456547053
 31
0.0
  0
LINE
  5
F8
330
1F
100
AcDbEntity
  8
0-A_文字
  6
Continuous
 62
     7
370
     5
100
AcDbLine
 10
13151.66278942233
 20
2992.400456547053
 30
0.0
 11
13151.66278942233
 21
3117.400456547053
 31
0.0
  0
LINE
  5
F9
330
1F
100
AcDbEntity
  8
0-A_文字
  6
Continuous
 62
     7
370
     5
100
AcDbLine
 10
13626.66278942233
 20
2992.400456547053
 30
0.0
 11
13151.66278942233
 21
2992.400456547053
 31
0.0
  0
LINE
  5
FA
330
1F
100
AcDbEntity
  8
0-A_文字
  6
Continuous
 62
     7
370
     5
100
AcDbLine
 10
13626.66278942233
 20
2992.400456547053
 30
0.0
 11
13626.66278942233
 21
3117.400456547053
 31
0.0
  0
LINE
  5
FB
330
1F
100
AcDbEntity
  8
0-A_文字
  6
Continuous
 62
     7
370
     5
100
AcDbLine
 10
13126.66278942233
 20
2942.400456547053
 30
0.0
 11
13126.66278942233
 21
3317.400456547053
 31
0.0
  0
LINE
  5
FC
330
1F
100
AcDbEntity
  8
0-A_文字
  6
Continuous
 62
     7
370
     5
100
AcDbLine
 10
13126.66278942233
 20
3317.400456547053
 30
0.0
 11
13651.66278942233
 21
3317.400456547053
 31
0.0
  0
LINE
  5
FD
330
1F
100
AcDbEntity
  8
0-A_文字
  6
Continuous
 62
     7
370
     5
100
AcDbLine
 10
13651.66278942233
 20
2942.400456547053
 30
0.0
 11
13651.66278942233
 21
3317.400456547053
 31
0.0
  0
LINE
  5
FE
330
1F
100
AcDbEntity
  8
0-A_文字
  6
Continuous
 62
     7
370
     5
100
AcDbLine
 10
13707.78343925714
 20
2942.400456547024
 30
0.0
 11
13651.66278942231
 21
2998.521106381851
 31
0.0
  0
LINE
  5
FF
330
1F
100
AcDbEntity
  8
0-A_文字
  6
Continuous
 62
     7
370
     5
100
AcDbLine
 10
13589.16278942233
 20
2992.400456547053
 30
0.0
 11
13589.16278942233
 21
2817.400456547053
 31
0.0
  0
LINE
  5
100
330
1F
100
AcDbEntity
  8
0-A_文字
  6
Continuous
 62
     7
370
     5
100
AcDbLine
 10
13189.16278942233
 20
2992.400456547053
 30
0.0
 11
13189.16278942233
 21
2817.400456547053
 31
0.0
  0
LINE
  5
101
330
1F
100
AcDbEntity
  8
0-A_文字
  6
Continuous
 62
     7
370
     5
100
AcDbLine
 10
13764.16278942233
 20
2817.400456547053
 30
0.0
 11
13014.16278942233
 21
2817.400456547053
 31
0.0
  0
LINE
  5
102
330
1F
100
AcDbEntity
  8
0-A_文字
  6
Continuous
 62
     7
370
     5
100
AcDbLine
 10
13189.16278942233
 20
2942.400456547053
 30
0.0
 11
12964.16278942233
 21
2942.400456547053
 31
0.0
  0
LINE
  5
103
330
1F
100
AcDbEntity
  8
0-A_文字
  6
Continuous
 62
     7
370
     5
100
AcDbLine
 10
13126.66278942233
 20
3041.414325195157
 30
0.0
 11
12839.16278942235
 21
3328.914325195139
 31
0.0
  0
LINE
  5
104
330
1F
100
AcDbEntity
  8
0-A_文字
  6
Continuous
 62
     7
370
     5
100
AcDbLine
 10
13126.66278942233
 20
3182.835681432491
 30
0.0
 11
12839.16278942231
 21
3470.335681432509
 31
0.0
  0
LINE
  5
105
330
1F
100
AcDbEntity
  8
0-A_文字
  6
Continuous
 62
     7
370
     5
100
AcDbLine
 10
13133.51937054511
 20
3317.400456547053
 30
0.0
 11
12839.16278942229
 21
3611.757037669874
 31
0.0
  0
LINE
  5
106
330
1F
100
AcDbEntity
  8
0-A_文字
  6
Continuous
 62
     7
370
     5
100
AcDbLine
 10
13274.94072678244
 20
3317.400456547053
 30
0.0
 11
12949.94072678244
 21
3642.400456547053
 31
0.0
  0
LINE
  5
107
330
1F
100
AcDbEntity
  8
0-A_文字
  6
Continuous
 62
     7
370
     5
100
AcDbLine
 10
13791.36208301978
 20
2942.400456547053
 30
0.0
 11
13651.66278942233
 21
3082.099750144496
 31
0.0
  0
LINE
  5
108
330
1F
100
AcDbEntity
  8
0-A_文字
  6
Continuous
 62
     7
370
     5
100
AcDbLine
 10
13416.36208301977
 20
3317.400456547053
 30
0.0
 11
13091.36208301977
 21
3642.400456547053
 31
0.0
  0
LINE
  5
109
330
1F
100
AcDbEntity
  8
0-A_文字
  6
Continuous
 62
     7
370
     5
100
AcDbLine
 10
13932.78343925711
 20
2942.400456547053
 30
0.0
 11
13651.66278942233
 21
3223.521106381827
 31
0.0
  0
LINE
  5
10A
330
1F
100
AcDbEntity
  8
0-A_文字
  6
Continuous
 62
     7
370
     5
100
AcDbLine
 10
13557.7834392571
 20
3317.400456547053
 30
0.0
 11
13232.7834392571
 21
3642.400456547053
 31
0.0
  0
LINE
  5
10B
330
1F
100
AcDbEntity
  8
0-A_文字
  6
Continuous
 62
     7
370
     5
100
AcDbLine
 10
14839.16278942233
 20
2942.400456547053
 30
0.0
 11
14839.16278942233
 21
3692.400456547053
 31
0.0
  0
LINE
  5
10C
330
1F
100
AcDbEntity
  8
0-A_文字
  6
Continuous
 62
     7
370
     5
100
AcDbLine
 10
13014.16278942233
 20
2817.400456547053
 30
0.0
 11
13014.16278942233
 21
-6768.734606497267
 31
0.0
  0
LINE
  5
10D
330
1F
100
AcDbEntity
  8
0-A_文字
  6
Continuous
 62
     7
370
     5
100
AcDbLine
 10
13764.16278942233
 20
2817.400456547053
 30
0.0
 11
13764.16278942233
 21
-6768.734606497267
 31
0.0
  0
LINE
  5
10E
330
1F
100
AcDbEntity
  8
0-A_文字
  6
Continuous
 62
     7
370
     5
100
AcDbLine
 10
14789.16278942233
 20
-6918.734606497267
 30
0.0
 11
14351.66278942233
 21
-6918.734606497267
 31
0.0
  0
LINE
  5
10F
330
1F
100
AcDbEntity
  8
0-A_文字
  6
JWW_CENTER1
 62
     7
370
     5
100
AcDbLine
 10
8204.503046304057
 20
-7293.735870115736
 30
0.0
 11
17583.96682470819
 21
-7293.735870115736
 31
0.0
  0
LINE
  5
110
330
1F
100
AcDbEntity
  8
0-A_文字
  6
Continuous
 62
     7
370
     5
100
AcDbLine
 10
8204.503046304057
 20
-7668.735870115736
 30
0.0
 11
17583.96682470819
 21
-7668.735870115736
 31
0.0
  0
LINE
  5
111
330
1F
100
AcDbEntity
  8
0-A_文字
  6
Continuous
 62
     7
370
     5
100
AcDbLine
 10
8204.503046304057
 20
-7256.235870115736
 30
0.0
 11
12789.16278942233
 21
-7256.235870115736
 31
0.0
  0
LINE
  5
112
330
1F
100
AcDbEntity
  8
0-A_文字
  6
Continuous
 62
     7
370
     5
100
AcDbLine
 10
8204.503046304057
 20
-7218.735870115736
 30
0.0
 11
12789.16278942233
 21
-7218.735870115736
 31
0.0
  0
LINE
  5
113
330
1F
100
AcDbEntity
  8
0-A_文字
  6
Continuous
 62
     7
370
     5
100
AcDbLine
 10
8204.503046304057
 20
-7181.235870115736
 30
0.0
 11
12789.16278942233
 21
-7181.235870115736
 31
0.0
  0
LINE
  5
114
330
1F
100
AcDbEntity
  8
0-A_文字
  6
Continuous
 62
     7
370
     5
100
AcDbLine
 10
8204.503046304057
 20
-7106.235870115736
 30
0.0
 11
12789.16278942233
 21
-7106.235870115736
 31
0.0
  0
LINE
  5
115
330
1F
100
AcDbEntity
  8
0-A_文字
  6
Continuous
 62
     7
370
     5
100
AcDbLine
 10
8204.503046304057
 20
-7143.735870115736
 30
0.0
 11
12789.16278942233
 21
-7143.735870115736
 31
0.0
  0
LINE
  5
116
330
1F
100
AcDbEntity
  8
0-A_文字
  6
Continuous
 62
     7
370
     5
100
AcDbLine
 10
8204.503046304057
 20
-7068.735870115736
 30
0.0
 11
12789.16278942233
 21
-7068.735870115736
 31
0.0
  0
LINE
  5
117
330
1F
100
AcDbEntity
  8
0-A_文字
  6
Continuous
 62
     7
370
     5
100
AcDbLine
 10
8204.503046304057
 20
-7031.235870115736
 30
0.0
 11
12789.16278942233
 21
-7031.235870115736
 31
0.0
  0
LINE
  5
118
330
1F
100
AcDbEntity
  8
0-A_文字
  6
Continuous
 62
     7
370
     5
100
AcDbLine
 10
8204.503046304057
 20
-6993.735870115736
 30
0.0
 11
12789.16278942233
 21
-6993.735870115736
 31
0.0
  0
ARC
  5
119
330
1F
100
AcDbEntity
  8
0-A_文字
  6
Continuous
 62
     7
370
     5
100
AcDbCircle
 10
15434.49060956407
 20
-7026.40869873436
 30
0.0
 40
32.29408025741577
100
AcDbArc
 50
354.3609924316406
 51
185.6387786865234
  0
LINE
  5
11A
330
1F
100
AcDbEntity
  8
0-A_文字
  6
Continuous
 62
     7
370
     5
100
AcDbLine
 10
15466.62787000108
 20
-7029.581868824084
 30
0.0
 11
15466.62787000108
 21
-7260.904064902144
 31
0.0
  0
LINE
  5
11B
330
1F
100
AcDbEntity
  8
0-A_文字
  6
Continuous
 62
     7
370
     5
100
AcDbLine
 10
15402.35201398302
 20
-7029.581868824084
 30
0.0
 11
15402.35201398302
 21
-7260.904064902144
 31
0.0
  0
ARC
  5
11C
330
1F
100
AcDbEntity
  8
0-A_文字
  6
Continuous
 62
     7
370
     5
100
AcDbCircle
 10
15498.76516858507
 20
-7260.680971869306
 30
0.0
 40
32.13871240615845
100
AcDbArc
 50
180.3977355957032
 51
359.6022796630859
  0
ARC
  5
11D
330
1F
100
AcDbEntity
  8
0-A_文字
  6
Continuous
 62
     7
370
     5
100
AcDbCircle
 10
15300.1253370421
 20
-7026.40869873436
 30
0.0
 40
32.29408025741577
100
AcDbArc
 50
354.3609924316406
 51
185.6387786865234
  0
LINE
  5
11E
330
1F
100
AcDbEntity
  8
0-A_文字
  6
Continuous
 62
     7
370
     5
100
AcDbLine
 10
15332.26259747911
 20
-7029.581868824084
 30
0.0
 11
15332.26259747911
 21
-7260.904064902144
 31
0.0
  0
LINE
  5
11F
330
1F
100
AcDbEntity
  8
0-A_文字
  6
Continuous
 62
     7
370
     5
100
AcDbLine
 10
15267.98674146104
 20
-7029.581868824084
 30
0.0
 11
15267.98674146104
 21
-7260.904064902144
 31
0.0
  0
ARC
  5
120
330
1F
100
AcDbEntity
  8
0-A_文字
  6
Continuous
 62
     7
370
     5
100
AcDbCircle
 10
15364.39989606309
 20
-7260.680971869306
 30
0.0
 40
32.13871240615845
100
AcDbArc
 50
180.3977355957032
 51
359.6022796630859
  0
ARC
  5
121
330
1F
100
AcDbEntity
  8
0-A_文字
  6
Continuous
 62
     7
370
     5
100
AcDbCircle
 10
15568.85588208605
 20
-7026.40869873436
 30
0.0
 40
32.29408025741577
100
AcDbArc
 50
354.3609924316406
 51
185.6387786865234
  0
LINE
  5
122
330
1F
100
AcDbEntity
  8
0-A_文字
  6
Continuous
 62
     7
370
     5
100
AcDbLine
 10
15600.99314252306
 20
-7029.581868824084
 30
0.0
 11
15600.99314252306
 21
-7260.904064902144
 31
0.0
  0
LINE
  5
123
330
1F
100
AcDbEntity
  8
0-A_文字
  6
Continuous
 62
     7
370
     5
100
AcDbLine
 10
15536.71728650499
 20
-7029.581868824084
 30
0.0
 11
15536.71728650499
 21
-7260.904064902144
 31
0.0
  0
ARC
  5
124
330
1F
100
AcDbEntity
  8
0-A_文字
  6
Continuous
 62
     7
370
     5
100
AcDbCircle
 10
15633.13044110704
 20
-7260.680971869306
 30
0.0
 40
32.13871240615845
100
AcDbArc
 50
180.3977355957032
 51
359.6022796630859
  0
ARC
  5
125
330
1F
100
AcDbEntity
  8
0-A_文字
  6
Continuous
 62
     7
370
     5
100
AcDbCircle
 10
15703.22115460802
 20
-7026.40869873436
 30
0.0
 40
32.29408025741577
100
AcDbArc
 50
354.3609924316406
 51
185.6387786865234
  0
LINE
  5
126
330
1F
100
AcDbEntity
  8
0-A_文字
  6
Continuous
 62
     7
370
     5
100
AcDbLine
 10
15735.35841504503
 20
-7029.581868824084
 30
0.0
 11
15735.35841504503
 21
-7260.904064902144
 31
0.0
  0
LINE
  5
127
330
1F
100
AcDbEntity
  8
0-A_文字
  6
Continuous
 62
     7
370
     5
100
AcDbLine
 10
15671.08255902696
 20
-7029.581868824084
 30
0.0
 11
15671.08255902696
 21
-7260.904064902144
 31
0.0
  0
ARC
  5
128
330
1F
100
AcDbEntity
  8
0-A_文字
  6
Continuous
 62
     7
370
     5
100
AcDbCircle
 10
15767.49571362901
 20
-7260.680971869306
 30
0.0
 40
32.13871240615845
100
AcDbArc
 50
180.3977355957032
 51
359.6022796630859
  0
ARC
  5
129
330
1F
100
AcDbEntity
  8
0-A_文字
  6
Continuous
 62
     7
370
     5
100
AcDbCircle
 10
15837.5858869581
 20
-7026.40869873436
 30
0.0
 40
32.29408025741577
100
AcDbArc
 50
354.3609924316406
 51
185.6387786865234
  0
LINE
  5
12A
330
1F
100
AcDbEntity
  8
0-A_文字
  6
Continuous
 62
     7
370
     5
100
AcDbLine
 10
15869.72314739511
 20
-7029.581868824084
 30
0.0
 11
15869.72314739511
 21
-7260.904064902144
 31
0.0
  0
LINE
  5
12B
330
1F
100
AcDbEntity
  8
0-A_文字
  6
Continuous
 62
     7
370
     5
100
AcDbLine
 10
15805.44729137704
 20
-7029.581868824084
 30
0.0
 11
15805.44729137704
 21
-7260.904064902144
 31
0.0
  0
ARC
  5
12C
330
1F
100
AcDbEntity
  8
0-A_文字
  6
Continuous
 62
     7
370
     5
100
AcDbCircle
 10
15901.86044597909
 20
-7260.680971869306
 30
0.0
 40
32.13871240615845
100
AcDbArc
 50
180.3977355957032
 51
359.6022796630859
  0
ARC
  5
12D
330
1F
100
AcDbEntity
  8
0-A_文字
  6
Continuous
 62
     7
370
     5
100
AcDbCircle
 10
15971.95115948007
 20
-7026.40869873436
 30
0.0
 40
32.29408025741577
100
AcDbArc
 50
354.3609924316406
 51
185.6387786865234
  0
LINE
  5
12E
330
1F
100
AcDbEntity
  8
0-A_文字
  6
Continuous
 62
     7
370
     5
100
AcDbLine
 10
16004.08841991708
 20
-7029.581868824084
 30
0.0
 11
16004.08841991708
 21
-7260.904064902144
 31
0.0
  0
LINE
  5
12F
330
1F
100
AcDbEntity
  8
0-A_文字
  6
Continuous
 62
     7
370
     5
100
AcDbLine
 10
15939.81256389901
 20
-7029.581868824084
 30
0.0
 11
15939.81256389901
 21
-7260.904064902144
 31
0.0
  0
ARC
  5
130
330
1F
100
AcDbEntity
  8
0-A_文字
  6
Continuous
 62
     7
370
     5
100
AcDbCircle
 10
16036.22571850107
 20
-7260.680971869306
 30
0.0
 40
32.13871240615845
100
AcDbArc
 50
180.3977355957032
 51
359.6022796630859
  0
ARC
  5
131
330
1F
100
AcDbEntity
  8
0-A_文字
  6
Continuous
 62
     7
370
     5
100
AcDbCircle
 10
16106.31589183015
 20
-7026.40869873436
 30
0.0
 40
32.29408025741577
100
AcDbArc
 50
354.3609924316406
 51
185.6387786865234
  0
LINE
  5
132
330
1F
100
AcDbEntity
  8
0-A_文字
  6
Continuous
 62
     7
370
     5
100
AcDbLine
 10
16138.45315226716
 20
-7029.581868824084
 30
0.0
 11
16138.45315226716
 21
-7260.904064902144
 31
0.0
  0
LINE
  5
133
330
1F
100
AcDbEntity
  8
0-A_文字
  6
Continuous
 62
     7
370
     5
100
AcDbLine
 10
16074.17729624909
 20
-7029.581868824084
 30
0.0
 11
16074.17729624909
 21
-7260.904064902144
 31
0.0
  0
ARC
  5
134
330
1F
100
AcDbEntity
  8
0-A_文字
  6
Continuous
 62
     7
370
     5
100
AcDbCircle
 10
16170.59045085114
 20
-7260.680971869306
 30
0.0
 40
32.13871240615845
100
AcDbArc
 50
180.3977355957032
 51
359.6022796630859
  0
ARC
  5
135
330
1F
100
AcDbEntity
  8
0-A_文字
  6
Continuous
 62
     7
370
     5
100
AcDbCircle
 10
16240.68062418022
 20
-7026.40869873436
 30
0.0
 40
32.29408025741577
100
AcDbArc
 50
354.3609924316406
 51
185.6387786865234
  0
LINE
  5
136
330
1F
100
AcDbEntity
  8
0-A_文字
  6
Continuous
 62
     7
370
     5
100
AcDbLine
 10
16272.81788461723
 20
-7029.581868824084
 30
0.0
 11
16272.81788461723
 21
-7260.904064902144
 31
0.0
  0
LINE
  5
137
330
1F
100
AcDbEntity
  8
0-A_文字
  6
Continuous
 62
     7
370
     5
100
AcDbLine
 10
16208.54202859917
 20
-7029.581868824084
 30
0.0
 11
16208.54202859917
 21
-7260.904064902144
 31
0.0
  0
ARC
  5
138
330
1F
100
AcDbEntity
  8
0-A_文字
  6
Continuous
 62
     7
370
     5
100
AcDbCircle
 10
16304.95518320122
 20
-7260.680971869306
 30
0.0
 40
32.13871240615845
100
AcDbArc
 50
180.3977355957032
 51
359.6022796630859
  0
ARC
  5
139
330
1F
100
AcDbEntity
  8
0-A_文字
  6
Continuous
 62
     7
370
     5
100
AcDbCircle
 10
16375.04589670219
 20
-7026.40869873436
 30
0.0
 40
32.29408025741577
100
AcDbArc
 50
354.3609924316406
 51
185.6387786865234
  0
LINE
  5
13A
330
1F
100
AcDbEntity
  8
0-A_文字
  6
Continuous
 62
     7
370
     5
100
AcDbLine
 10
16407.18315713921
 20
-7029.581868824084
 30
0.0
 11
16407.18315713921
 21
-7260.904064902144
 31
0.0
  0
LINE
  5
13B
330
1F
100
AcDbEntity
  8
0-A_文字
  6
Continuous
 62
     7
370
     5
100
AcDbLine
 10
16342.90730112114
 20
-7029.581868824084
 30
0.0
 11
16342.90730112114
 21
-7260.904064902144
 31
0.0
  0
ARC
  5
13C
330
1F
100
AcDbEntity
  8
0-A_文字
  6
Continuous
 62
     7
370
     5
100
AcDbCircle
 10
16439.32045572319
 20
-7260.680971869306
 30
0.0
 40
32.13871240615845
100
AcDbArc
 50
180.3977355957032
 51
359.6022796630859
  0
LINE
  5
13D
330
1F
100
AcDbEntity
  8
0-A_文字
  6
Continuous
 62
     7
370
     5
100
AcDbLine
 10
16386.36601354337
 20
-6918.734606497267
 30
0.0
 11
15450.25995993808
 21
-6918.734606497267
 31
0.0
  0
LWPOLYLINE
  5
13E
330
1F
100
AcDbEntity
  8
0-A_文字
  6
Continuous
 62
     7
370
     5
100
AcDbPolyline
 90
        4
 70
     1
 43
10.0
 10
17082.97419277312
 20
-6918.734606497267
 42
0.4142135623731
 10
17077.97419277312
 20
-6913.734606497267
 42
0.4142135623731
 10
17072.97419277312
 20
-6918.734606497267
 42
0.4142135623731
 10
17077.97419277312
 20
-6923.734606497267
 42
0.4142135623731
  0
LINE
  5
13F
330
1F
100
AcDbEntity
  8
0-A_文字
  6
Continuous
 62
     7
370
     5
100
AcDbLine
 10
17077.97419277312
 20
-6918.734606497267
 30
0.0
 11
17077.97419277312
 21
-6993.735870115736
 31
0.0
  0
LWPOLYLINE
  5
140
330
1F
100
AcDbEntity
  8
0-A_文字
  6
Continuous
 62
     7
370
     5
100
AcDbPolyline
 90
        4
 70
     1
 43
10.0
 10
17082.97419277312
 20
-7293.735870115736
 42
0.4142135623731
 10
17077.97419277312
 20
-7288.735870115736
 42
0.4142135623731
 10
17072.97419277312
 20
-7293.735870115736
 42
0.4142135623731
 10
17077.97419277312
 20
-7298.735870115736
 42
0.4142135623731
  0
LWPOLYLINE
  5
141
330
1F
100
AcDbEntity
  8
0-A_文字
  6
Continuous
 62
     7
370
     5
100
AcDbPolyline
 90
        4
 70
     1
 43
10.0
 10
17782.97419277312
 20
-6918.734606497267
 42
0.4142135623731
 10
17777.97419277312
 20
-6913.734606497267
 42
0.4142135623731
 10
17772.97419277312
 20
-6918.734606497267
 42
0.4142135623731
 10
17777.97419277312
 20
-6923.734606497267
 42
0.4142135623731
  0
LWPOLYLINE
  5
142
330
1F
100
AcDbEntity
  8
0-A_文字
  6
Continuous
 62
     7
370
     5
100
AcDbPolyline
 90
        4
 70
     1
 43
10.0
 10
17782.97419277312
 20
-7293.735870115736
 42
0.4142135623731
 10
17777.97419277312
 20
-7288.735870115736
 42
0.4142135623731
 10
17772.97419277312
 20
-7293.735870115736
 42
0.4142135623731
 10
17777.97419277312
 20
-7298.735870115736
 42
0.4142135623731
  0
LINE
  5
143
330
1F
100
AcDbEntity
  8
0-A_文字
  6
Continuous
 62
     7
370
     5
100
AcDbLine
 10
17777.97419277312
 20
-6918.734606497267
 30
0.0
 11
17077.97419277312
 21
-6918.734606497267
 31
0.0
  0
LWPOLYLINE
  5
144
330
1F
100
AcDbEntity
  8
0-A_文字
  6
Continuous
 62
     7
370
     5
100
AcDbPolyline
 90
        4
 70
     1
 43
10.0
 10
18482.97419277312
 20
-7293.735870115736
 42
0.4142135623731
 10
18477.97419277312
 20
-7288.735870115736
 42
0.4142135623731
 10
18472.97419277312
 20
-7293.735870115736
 42
0.4142135623731
 10
18477.97419277312
 20
-7298.735870115736
 42
0.4142135623731
  0
TEXT
  5
145
330
1F
100
AcDbEntity
  8
0-A_文字
  6
Continuous
 62
     7
370
     0
100
AcDbText
 10
16984.01337736946
 20
-7664.756918949752
 30
0.0
 40
228.6
  1
12
 50
90.0
 41
1.083333333333333
  7
ＭＳ ゴシック
100
AcDbText
  0
TEXT
  5
146
330
1F
100
AcDbEntity
  8
0-A_文字
  6
Continuous
 62
     7
370
     0
100
AcDbText
 10
18122.3888848326
 20
-6944.266091441432
 30
0.0
 40
228.6
  1
15
 50
90.0
 41
1.083333333333333
  7
ＭＳ ゴシック
100
AcDbText
  0
LINE
  5
147
330
1F
100
AcDbEntity
  8
0-A_文字
  6
JWW_HOJO
 62
     3
370
     5
100
AcDbLine
 10
14239.16278942233
 20
6063.721819276793
 30
0.0
 11
14239.16278942233
 21
1819.622424131339
 31
0.0
  0
LINE
  5
148
330
1F
100
AcDbEntity
  8
0-A_文字
  6
Continuous
 62
     7
370
     5
100
AcDbLine
 10
14776.66278942233
 20
3642.400456547053
 30
0.0
 11
12839.16278942233
 21
3642.400456547053
 31
0.0
  0
LINE
  5
149
330
1F
100
AcDbEntity
  8
0-A_文字
  6
Continuous
 62
     7
370
     5
100
AcDbLine
 10
14776.66278942233
 20
3642.400456547053
 30
0.0
 11
14776.66278942233
 21
3692.400456547053
 31
0.0
  0
LINE
  5
14A
330
1F
100
AcDbEntity
  8
0-A_文字
  6
Continuous
 62
     7
370
     5
100
AcDbLine
 10
14839.16278942233
 20
3167.391956280289
 30
0.0
 11
14364.15428915559
 21
3642.400456547053
 31
0.0
  0
LINE
  5
14B
330
1F
100
AcDbEntity
  8
0-A_文字
  6
Continuous
 62
     7
370
     5
100
AcDbLine
 10
14839.16278942233
 20
3025.970600042973
 30
0.0
 11
14222.73293291826
 21
3642.400456547053
 31
0.0
  0
LINE
  5
14C
330
1F
100
AcDbEntity
  8
0-A_文字
  6
Continuous
 62
     7
370
     5
100
AcDbLine
 10
14839.16278942233
 20
3308.813312517603
 30
0.0
 11
14505.5756453929
 21
3642.400456547053
 31
0.0
  0
LINE
  5
14D
330
1F
100
AcDbEntity
  8
0-A_文字
  6
Continuous
 62
     7
370
     5
100
AcDbLine
 10
14839.16278942233
 20
3450.234668754915
 30
0.0
 11
14646.9970016302
 21
3642.400456547053
 31
0.0
  0
LINE
  5
14E
330
1F
100
AcDbEntity
  8
0-A_文字
  6
Continuous
 62
     7
370
     5
100
AcDbLine
 10
14839.16278942233
 20
3591.656024992227
 30
0.0
 11
14776.66278942233
 21
3654.156024992233
 31
0.0
  0
LINE
  5
14F
330
1F
100
AcDbEntity
  8
0-A_文字
  6
Continuous
 62
     7
370
     5
100
AcDbLine
 10
13976.66278942233
 20
2942.400456547053
 30
0.0
 11
13976.66278942233
 21
3317.400456547053
 31
0.0
  0
LINE
  5
150
330
1F
100
AcDbEntity
  8
0-A_文字
  6
Continuous
 62
     7
370
     5
100
AcDbLine
 10
14501.66278942233
 20
2942.400456547053
 30
0.0
 11
14501.66278942233
 21
3317.400456547053
 31
0.0
  0
LINE
  5
151
330
1F
100
AcDbEntity
  8
0-A_文字
  6
Continuous
 62
     7
370
     5
100
AcDbLine
 10
13976.66278942233
 20
3317.400456547053
 30
0.0
 11
14501.66278942233
 21
3317.400456547053
 31
0.0
  0
LINE
  5
152
330
1F
100
AcDbEntity
  8
0-A_文字
  6
Continuous
 62
     7
370
     5
100
AcDbLine
 10
13651.66278942233
 20
2942.400456547053
 30
0.0
 11
13976.66278942233
 21
2942.400456547053
 31
0.0
  0
LINE
  5
153
330
1F
100
AcDbEntity
  8
0-A_文字
  6
Continuous
 62
     7
370
     5
100
AcDbLine
 10
14498.46886420626
 20
2942.400456547053
 30
0.0
 11
14839.16278942233
 21
2942.400456547053
 31
0.0
  0
LINE
  5
154
330
1F
100
AcDbEntity
  8
0-A_文字
  6
Continuous
 62
     7
370
     5
100
AcDbLine
 10
14781.31157668093
 20
2942.400456547053
 30
0.0
 11
14501.66278942233
 21
3222.049243805648
 31
0.0
  0
LINE
  5
155
330
1F
100
AcDbEntity
  8
0-A_文字
  6
Continuous
 62
     7
370
     5
100
AcDbLine
 10
14406.31157668093
 20
3317.400456547053
 30
0.0
 11
14081.31157668092
 21
3642.400456547053
 31
0.0
  0
LINE
  5
156
330
1F
100
AcDbEntity
  8
0-A_文字
  6
Continuous
 62
     7
370
     5
100
AcDbLine
 10
14639.89022044359
 20
2942.400456547053
 30
0.0
 11
14501.66278942233
 21
3080.627887568308
 31
0.0
  0
LINE
  5
157
330
1F
100
AcDbEntity
  8
0-A_文字
  6
Continuous
 62
     7
370
     5
100
AcDbLine
 10
14264.89022044359
 20
3317.400456547053
 30
0.0
 11
13939.89022044359
 21
3642.400456547053
 31
0.0
  0
LINE
  5
158
330
1F
100
AcDbEntity
  8
0-A_文字
  6
Continuous
 62
     7
370
     5
100
AcDbLine
 10
14123.46886420626
 20
3317.400456547053
 30
0.0
 11
13798.46886420625
 21
3642.400456547053
 31
0.0
  0
LINE
  5
159
330
1F
100
AcDbEntity
  8
0-A_文字
  6
Continuous
 62
     7
370
     5
100
AcDbLine
 10
13982.04750796893
 20
3317.400456547053
 30
0.0
 11
13657.04750796893
 21
3642.400456547053
 31
0.0
  0
LINE
  5
15A
330
1F
100
AcDbEntity
  8
0-A_文字
  6
Continuous
 62
     7
370
     5
100
AcDbLine
 10
13976.66278942233
 20
3181.363818856315
 30
0.0
 11
13515.62615173159
 21
3642.400456547053
 31
0.0
  0
LINE
  5
15B
330
1F
100
AcDbEntity
  8
0-A_文字
  6
Continuous
 62
     7
370
     5
100
AcDbLine
 10
13976.66278942233
 20
3039.942462618974
 30
0.0
 11
13374.20479549425
 21
3642.400456547053
 31
0.0
  0
ARC
  5
15C
330
1F
100
AcDbEntity
  8
0-A_文字
  6
Continuous
 62
     7
370
     5
100
AcDbCircle
 10
14239.16278942233
 20
-6992.206842936139
 30
0.0
 40
25.0
100
AcDbArc
 50
219.7928363658217
 51
320.2071636341782
  0
LINE
  5
15D
330
1F
100
AcDbEntity
  8
0-A_文字
  6
Continuous
 62
     7
370
     5
100
AcDbLine
 10
14258.37187816897
 20
-7008.20718385512
 30
0.0
 11
14314.16278942233
 21
-6941.227825668409
 31
0.0
  0
LINE
  5
15E
330
1F
100
AcDbEntity
  8
0-A_文字
  6
Continuous
 62
     7
370
     5
100
AcDbLine
 10
14219.95370067569
 20
-7008.20718385512
 30
0.0
 11
14164.16278942233
 21
-6941.227825668409
 31
0.0
  0
ARC
  5
15F
330
1F
100
AcDbEntity
  8
0-A_文字
  6
Continuous
 62
     7
370
     5
100
AcDbCircle
 10
14085.36077602511
 20
-6964.375256888846
 30
0.0
 40
54.00353670120239
100
AcDbArc
 50
4.951354980468766
 51
30.2751922607422
  0
ARC
  5
160
330
1F
100
AcDbEntity
  8
0-A_文字
  6
Continuous
 62
     7
370
     5
100
AcDbCircle
 10
14131.71207769519
 20
-6923.165641866902
 30
0.0
 40
4.439356923103333
100
AcDbArc
 50
86.49131774902341
 51
171.549560546875
  0
ARC
  5
161
330
1F
100
AcDbEntity
  8
0-A_文字
  6
Continuous
 62
     7
370
     5
100
AcDbCircle
 10
14392.96480281955
 20
-6964.375256888846
 30
0.0
 40
54.00353670120239
100
AcDbArc
 50
149.7248382568359
 51
175.0486602783203
  0
ARC
  5
162
330
1F
100
AcDbEntity
  8
0-A_文字
  6
Continuous
 62
     7
370
     5
100
AcDbCircle
 10
14346.61350114947
 20
-6923.165641866902
 30
0.0
 40
4.439356923103333
100
AcDbArc
 50
8.450454711914048
 51
93.50869750976561
  0
LINE
  5
163
330
1F
100
AcDbEntity
  8
0-A_文字
  6
Continuous
 62
     7
370
     5
100
AcDbLine
 10
14128.09049947864
 20
-7031.234606497267
 30
0.0
 11
14139.16278942233
 21
-7031.234606497267
 31
0.0
  0
LINE
  5
164
330
1F
100
AcDbEntity
  8
0-A_文字
  6
Continuous
 62
     7
370
     5
100
AcDbLine
 10
14139.16278942233
 20
-6959.714215390662
 30
0.0
 11
14139.16278942233
 21
-7031.234606497267
 31
0.0
  0
LINE
  5
165
330
1F
100
AcDbEntity
  8
0-A_文字
  6
Continuous
 62
     7
370
     5
100
AcDbLine
 10
14128.09049947864
 20
-7031.234606497267
 30
0.0
 11
14133.12166793948
 21
-7068.968340151289
 31
0.0
  0
LINE
  5
166
330
1F
100
AcDbEntity
  8
0-A_文字
  6
Continuous
 62
     7
370
     5
100
AcDbLine
 10
14350.23507936603
 20
-7031.234606497267
 30
0.0
 11
14345.20391090518
 21
-7068.968340151289
 31
0.0
  0
LINE
  5
167
330
1F
100
AcDbEntity
  8
0-A_文字
  6
Continuous
 62
     7
370
     5
100
AcDbLine
 10
14350.23507936603
 20
-7031.234606497267
 30
0.0
 11
14339.16278942233
 21
-7031.234606497267
 31
0.0
  0
LINE
  5
168
330
1F
100
AcDbEntity
  8
0-A_文字
  6
Continuous
 62
     7
370
     5
100
AcDbLine
 10
14339.16278942233
 20
-6959.714215390662
 30
0.0
 11
14339.16278942233
 21
-7031.234606497267
 31
0.0
  0
LINE
  5
169
330
1F
100
AcDbEntity
  8
0-A_文字
  6
Continuous
 62
     7
370
     5
100
AcDbLine
 10
14301.66278942233
 20
-7031.234606497267
 30
0.0
 11
14176.66278942233
 21
-7031.234606497267
 31
0.0
  0
LINE
  5
16A
330
1F
100
AcDbEntity
  8
0-A_文字
  6
Continuous
 62
     7
370
     5
100
AcDbLine
 10
14176.66278942233
 20
-6956.234606497267
 30
0.0
 11
14176.66278942233
 21
-7031.234606497267
 31
0.0
  0
LINE
  5
16B
330
1F
100
AcDbEntity
  8
0-A_文字
  6
Continuous
 62
     7
370
     5
100
AcDbLine
 10
14301.66278942233
 20
-6956.234606497267
 30
0.0
 11
14301.66278942233
 21
-7031.234606497267
 31
0.0
  0
LINE
  5
16C
330
1F
100
AcDbEntity
  8
0-A_文字
  6
Continuous
 62
     7
370
     5
100
AcDbLine
 10
14170.39866908198
 20
-6956.234606497267
 30
0.0
 11
14176.66278942233
 21
-6956.234606497267
 31
0.0
  0
LINE
  5
16D
330
1F
100
AcDbEntity
  8
0-A_文字
  6
Continuous
 62
     7
370
     5
100
AcDbLine
 10
14131.99899061328
 20
-6937.149181358794
 30
0.0
 11
14127.32092006808
 21
-6931.532956056574
 31
0.0
  0
LINE
  5
16E
330
1F
100
AcDbEntity
  8
0-A_文字
  6
Continuous
 62
     7
370
     5
100
AcDbLine
 10
14127.32092006808
 20
-6931.532956056574
 30
0.0
 11
14127.32092006808
 21
-6922.513260461667
 31
0.0
  0
LINE
  5
16F
330
1F
100
AcDbEntity
  8
0-A_文字
  6
Continuous
 62
     7
370
     5
100
AcDbLine
 10
14139.16278942233
 20
-6918.734606497267
 30
0.0
 11
14131.983767587
 21
-6918.734606497267
 31
0.0
  0
LINE
  5
170
330
1F
100
AcDbEntity
  8
0-A_文字
  6
Continuous
 62
     7
370
     5
100
AcDbLine
 10
14170.39866908198
 20
-6956.234606497267
 30
0.0
 11
14139.16278942233
 21
-6918.734606497267
 31
0.0
  0
LINE
  5
171
330
1F
100
AcDbEntity
  8
0-A_文字
  6
Continuous
 62
     7
370
     5
100
AcDbLine
 10
14307.92690976268
 20
-6956.234606497267
 30
0.0
 11
14301.66278942233
 21
-6956.234606497267
 31
0.0
  0
LINE
  5
172
330
1F
100
AcDbEntity
  8
0-A_文字
  6
Continuous
 62
     7
370
     5
100
AcDbLine
 10
14346.32658823138
 20
-6937.149181358794
 30
0.0
 11
14351.00465877658
 21
-6931.532956056574
 31
0.0
  0
LINE
  5
173
330
1F
100
AcDbEntity
  8
0-A_文字
  6
Continuous
 62
     7
370
     5
100
AcDbLine
 10
14351.00465877658
 20
-6931.532956056574
 30
0.0
 11
14351.00465877658
 21
-6922.513260461667
 31
0.0
  0
LINE
  5
174
330
1F
100
AcDbEntity
  8
0-A_文字
  6
Continuous
 62
     7
370
     5
100
AcDbLine
 10
14339.16278942233
 20
-6918.734606497267
 30
0.0
 11
14346.34181125766
 21
-6918.734606497267
 31
0.0
  0
LINE
  5
175
330
1F
100
AcDbEntity
  8
0-A_文字
  6
Continuous
 62
     7
370
     5
100
AcDbLine
 10
14307.92690976268
 20
-6956.234606497267
 30
0.0
 11
14339.16278942233
 21
-6918.734606497267
 31
0.0
  0
LINE
  5
176
330
1F
100
AcDbEntity
  8
0-A_文字
  6
Continuous
 62
     7
370
     5
100
AcDbLine
 10
14126.66278942233
 20
-6918.734606497267
 30
0.0
 11
14126.66278942233
 21
-7068.734606497267
 31
0.0
  0
LINE
  5
177
330
1F
100
AcDbEntity
  8
0-A_文字
  6
Continuous
 62
     7
370
     5
100
AcDbLine
 10
14351.66278942233
 20
-7068.734606497267
 30
0.0
 11
14126.66278942233
 21
-7068.734606497267
 31
0.0
  0
LINE
  5
178
330
1F
100
AcDbEntity
  8
0-A_文字
  6
Continuous
 62
     7
370
     5
100
AcDbLine
 10
14351.66278942233
 20
-6918.734606497267
 30
0.0
 11
14351.66278942233
 21
-7068.734606497267
 31
0.0
  0
LINE
  5
179
330
1F
100
AcDbEntity
  8
0-A_文字
  6
Continuous
 62
     7
370
     5
100
AcDbLine
 10
14164.16278942233
 20
-6768.734606497267
 30
0.0
 11
14164.16278942233
 21
-6941.227825668409
 31
0.0
  0
LINE
  5
17A
330
1F
100
AcDbEntity
  8
0-A_文字
  6
Continuous
 62
     7
370
     5
100
AcDbLine
 10
14314.16278942233
 20
-6768.734606497267
 30
0.0
 11
14314.16278942233
 21
-6941.227825668409
 31
0.0
  0
LINE
  5
17B
330
1F
100
AcDbEntity
  8
0-A_文字
  6
Continuous
 62
     7
370
     5
100
AcDbLine
 10
14119.51324359357
 20
-6918.734606497267
 30
0.0
 11
13501.66278942233
 21
-6918.734606497267
 31
0.0
  0
LINE
  5
17C
330
1F
100
AcDbEntity
  8
0-A_文字
  6
Continuous
 62
     7
370
     5
100
AcDbLine
 10
14496.38479812747
 20
-7293.735870115736
 30
0.0
 11
14271.383534509
 21
-7068.734606497267
 31
0.0
  0
LINE
  5
17D
330
1F
100
AcDbEntity
  8
0-A_文字
  6
Continuous
 62
     7
370
     5
100
AcDbLine
 10
14130.27316196567
 20
-6927.624233953932
 30
0.0
 11
14121.383534509
 21
-6918.734606497267
 31
0.0
  0
LINE
  5
17E
330
1F
100
AcDbEntity
  8
0-A_文字
  6
Continuous
 62
     7
370
     5
100
AcDbLine
 10
14673.16195449133
 20
-7293.735870115736
 30
0.0
 11
14351.66278942233
 21
-6972.236650684852
 31
0.0
  0
LINE
  5
17F
330
1F
100
AcDbEntity
  8
0-A_文字
  6
Continuous
 62
     7
370
     5
100
AcDbLine
 10
14476.66278942233
 20
3117.400456547053
 30
0.0
 11
14001.66278942233
 21
3117.400456547053
 31
0.0
  0
LINE
  5
180
330
1F
100
AcDbEntity
  8
0-A_文字
  6
Continuous
 62
     7
370
     5
100
AcDbLine
 10
14001.66278942233
 20
2992.400456547053
 30
0.0
 11
14001.66278942233
 21
3117.400456547053
 31
0.0
  0
LINE
  5
181
330
1F
100
AcDbEntity
  8
0-A_文字
  6
Continuous
 62
     7
370
     5
100
AcDbLine
 10
14476.66278942233
 20
2992.400456547053
 30
0.0
 11
14001.66278942233
 21
2992.400456547053
 31
0.0
  0
LINE
  5
182
330
1F
100
AcDbEntity
  8
0-A_文字
  6
Continuous
 62
     7
370
     5
100
AcDbLine
 10
14476.66278942233
 20
2992.400456547053
 30
0.0
 11
14476.66278942233
 21
3117.400456547053
 31
0.0
  0
LINE
  5
183
330
1F
100
AcDbEntity
  8
0-A_文字
  6
Continuous
 62
     7
370
     5
100
AcDbLine
 10
14614.16278942233
 20
-6768.734606497267
 30
0.0
 11
13864.16278942233
 21
-6768.734606497267
 31
0.0
  0
LINE
  5
184
330
1F
100
AcDbEntity
  8
0-A_文字
  6
Continuous
 62
     3
370
     5
100
AcDbLine
 10
-4833.107092301162
 20
-2531.160989146863
 30
0.0
 11
-4833.107092301162
 21
-1152.934394902736
 31
0.0
  0
LINE
  5
185
330
1F
100
AcDbEntity
  8
0-A_文字
  6
Continuous
 62
     7
370
     5
100
AcDbLine
 10
-4758.107587180808
 20
3172.065440137381
 30
0.0
 11
-4758.107587180808
 21
-77.9329102638016
 31
0.0
  0
LINE
  5
186
330
1F
100
AcDbEntity
  8
0-A_文字
  6
Continuous
 62
     7
370
     5
100
AcDbLine
 10
-4795.607092301162
 20
3172.065440137381
 30
0.0
 11
-4795.607092301162
 21
-77.9329102638016
 31
0.0
  0
LINE
  5
187
330
1F
100
AcDbEntity
  8
0-A_文字
  6
Continuous
 62
     7
370
     5
100
AcDbLine
 10
-4833.109071819743
 20
3172.065440137381
 30
0.0
 11
-4833.109071819743
 21
-77.9329102638016
 31
0.0
  0
LINE
  5
188
330
1F
100
AcDbEntity
  8
0-A_文字
  6
Continuous
 62
     7
370
     5
100
AcDbLine
 10
-4870.6085769401
 20
3172.065440137381
 30
0.0
 11
-4870.6085769401
 21
-77.9329102638016
 31
0.0
  0
LINE
  5
189
330
1F
100
AcDbEntity
  8
0-A_文字
  6
Continuous
 62
     7
370
     5
100
AcDbLine
 10
-4908.108082060454
 20
3172.065440137381
 30
0.0
 11
-4908.108082060454
 21
-77.9329102638016
 31
0.0
  0
LINE
  5
18A
330
1F
100
AcDbEntity
  8
0-A_文字
  6
Continuous
 62
     7
370
     5
100
AcDbLine
 10
-4945.607587180808
 20
3172.065440137381
 30
0.0
 11
-4945.607587180808
 21
-77.9329102638016
 31
0.0
  0
LINE
  5
18B
330
1F
100
AcDbEntity
  8
0-A_文字
  6
Continuous
 62
     7
370
     5
100
AcDbLine
 10
-4983.107092301162
 20
3172.065440137381
 30
0.0
 11
-4983.107092301162
 21
-77.9329102638016
 31
0.0
  0
LINE
  5
18C
330
1F
100
AcDbEntity
  8
0-A_文字
  6
Continuous
 62
     7
370
     5
100
AcDbLine
 10
-5020.609071819743
 20
3172.065440137381
 30
0.0
 11
-5020.609071819743
 21
-77.9329102638016
 31
0.0
  0
LINE
  5
18D
330
1F
100
AcDbEntity
  8
0-A_文字
  6
Continuous
 62
     7
370
     5
100
AcDbLine
 10
-5058.1085769401
 20
-77.9329102638016
 30
0.0
 11
-4758.107587180808
 21
-77.9329102638016
 31
0.0
  0
LINE
  5
18E
330
1F
100
AcDbEntity
  8
0-A_文字
  6
JWW_DASHED1
 62
     3
370
     5
100
AcDbLine
 10
-1620.484032229373
 20
2859.56626493679
 30
0.0
 11
-1307.984857028782
 21
3172.065440137381
 31
0.0
  0
LINE
  5
18F
330
1F
100
AcDbEntity
  8
0-A_文字
  6
JWW_DASHED1
 62
     3
370
     5
100
AcDbLine
 10
-1761.905788458256
 20
2859.56626493679
 30
0.0
 11
-1449.406613257665
 21
3172.065440137381
 31
0.0
  0
LINE
  5
190
330
1F
100
AcDbEntity
  8
0-A_文字
  6
JWW_DASHED1
 62
     3
370
     5
100
AcDbLine
 10
-1903.327544687141
 20
2859.56626493679
 30
0.0
 11
-1590.825895088324
 21
3172.065440137381
 31
0.0
  0
LINE
  5
191
330
1F
100
AcDbEntity
  8
0-A_文字
  6
JWW_DASHED1
 62
     3
370
     5
100
AcDbLine
 10
-2044.749300916027
 20
2859.56626493679
 30
0.0
 11
-1732.247651317209
 21
3172.065440137381
 31
0.0
  0
LINE
  5
192
330
1F
100
AcDbEntity
  8
0-A_文字
  6
JWW_DASHED1
 62
     3
370
     5
100
AcDbLine
 10
-2186.168582746686
 20
2859.56626493679
 30
0.0
 11
-1873.669407546095
 21
3172.065440137381
 31
0.0
  0
LINE
  5
193
330
1F
100
AcDbEntity
  8
0-A_文字
  6
JWW_DASHED1
 62
     3
370
     5
100
AcDbLine
 10
-2327.590338975571
 20
2859.56626493679
 30
0.0
 11
-2015.09116377498
 21
3172.065440137381
 31
0.0
  0
LINE
  5
194
330
1F
100
AcDbEntity
  8
0-A_文字
  6
JWW_DASHED1
 62
     3
370
     5
100
AcDbLine
 10
-2469.012095204457
 20
2859.56626493679
 30
0.0
 11
-2156.512920003865
 21
3172.065440137381
 31
0.0
  0
LINE
  5
195
330
1F
100
AcDbEntity
  8
0-A_文字
  6
JWW_DASHED1
 62
     3
370
     5
100
AcDbLine
 10
-2610.433851433342
 20
2859.56626493679
 30
0.0
 11
-2297.934676232751
 21
3172.065440137381
 31
0.0
  0
LINE
  5
196
330
1F
100
AcDbEntity
  8
0-A_文字
  6
JWW_DASHED1
 62
     3
370
     5
100
AcDbLine
 10
-2751.855607662228
 20
2859.56626493679
 30
0.0
 11
-2439.35395806341
 21
3172.065440137381
 31
0.0
  0
LINE
  5
197
330
1F
100
AcDbEntity
  8
0-A_文字
  6
JWW_DASHED1
 62
     3
370
     5
100
AcDbLine
 10
-2893.277363891113
 20
2859.56626493679
 30
0.0
 11
-2580.775714292295
 21
3172.065440137381
 31
0.0
  0
LINE
  5
198
330
1F
100
AcDbEntity
  8
0-A_文字
  6
JWW_DASHED1
 62
     3
370
     5
100
AcDbLine
 10
-3034.696645721772
 20
2859.56626493679
 30
0.0
 11
-2722.197470521181
 21
3172.065440137381
 31
0.0
  0
LINE
  5
199
330
1F
100
AcDbEntity
  8
0-A_文字
  6
JWW_DASHED1
 62
     3
370
     5
100
AcDbLine
 10
-3176.118401950657
 20
2859.56626493679
 30
0.0
 11
-2863.619226750066
 21
3172.065440137381
 31
0.0
  0
LINE
  5
19A
330
1F
100
AcDbEntity
  8
0-A_文字
  6
JWW_DASHED1
 62
     3
370
     5
100
AcDbLine
 10
-3317.54015817954
 20
2859.56626493679
 30
0.0
 11
-3005.040982978949
 21
3172.065440137381
 31
0.0
  0
LINE
  5
19B
330
1F
100
AcDbEntity
  8
0-A_文字
  6
JWW_DASHED1
 62
     3
370
     5
100
AcDbLine
 10
-3458.961914408425
 20
2859.56626493679
 30
0.0
 11
-3146.462739207834
 21
3172.065440137381
 31
0.0
  0
LINE
  5
19C
330
1F
100
AcDbEntity
  8
0-A_文字
  6
JWW_DASHED1
 62
     3
370
     5
100
AcDbLine
 10
-3600.383670637311
 20
2859.56626493679
 30
0.0
 11
-3287.882021038493
 21
3172.065440137381
 31
0.0
  0
LINE
  5
19D
330
1F
100
AcDbEntity
  8
0-A_文字
  6
JWW_DASHED1
 62
     3
370
     5
100
AcDbLine
 10
-3741.805426866196
 20
2859.56626493679
 30
0.0
 11
-3429.303777267378
 21
3172.065440137381
 31
0.0
  0
LINE
  5
19E
330
1F
100
AcDbEntity
  8
0-A_文字
  6
JWW_DASHED1
 62
     3
370
     5
100
AcDbLine
 10
-3883.224708696855
 20
2859.56626493679
 30
0.0
 11
-3570.725533496264
 21
3172.065440137381
 31
0.0
  0
LINE
  5
19F
330
1F
100
AcDbEntity
  8
0-A_文字
  6
JWW_DASHED1
 62
     3
370
     5
100
AcDbLine
 10
-4024.64646492574
 20
2859.56626493679
 30
0.0
 11
-3712.147289725149
 21
3172.065440137381
 31
0.0
  0
LINE
  5
1A0
330
1F
100
AcDbEntity
  8
0-A_文字
  6
JWW_DASHED1
 62
     3
370
     5
100
AcDbLine
 10
-4166.068221154626
 20
2859.56626493679
 30
0.0
 11
-3853.569045954035
 21
3172.065440137381
 31
0.0
  0
LINE
  5
1A1
330
1F
100
AcDbEntity
  8
0-A_文字
  6
JWW_DASHED1
 62
     3
370
     5
100
AcDbLine
 10
-4307.489977383511
 20
2859.56626493679
 30
0.0
 11
-3994.99080218292
 21
3172.065440137381
 31
0.0
  0
LINE
  5
1A2
330
1F
100
AcDbEntity
  8
0-A_文字
  6
JWW_DASHED1
 62
     3
370
     5
100
AcDbLine
 10
-4448.911733612396
 20
2859.56626493679
 30
0.0
 11
-4136.412558411806
 21
3172.065440137381
 31
0.0
  0
LINE
  5
1A3
330
1F
100
AcDbEntity
  8
0-A_文字
  6
JWW_DASHED1
 62
     3
370
     5
100
AcDbLine
 10
-4590.333489841282
 20
2859.56626493679
 30
0.0
 11
-4277.831840242465
 21
3172.065440137381
 31
0.0
  0
LINE
  5
1A4
330
1F
100
AcDbEntity
  8
0-A_文字
  6
JWW_DASHED1
 62
     3
370
     5
100
AcDbLine
 10
-4731.755246070165
 20
2859.56626493679
 30
0.0
 11
-4419.25359647135
 21
3172.065440137381
 31
0.0
  0
LINE
  5
1A5
330
1F
100
AcDbEntity
  8
0-A_文字
  6
JWW_DASHED1
 62
     3
370
     5
100
AcDbLine
 10
-4758.107587180808
 20
2974.633205656808
 30
0.0
 11
-4560.675352700233
 21
3172.065440137381
 31
0.0
  0
LINE
  5
1A6
330
1F
100
AcDbEntity
  8
0-A_文字
  6
JWW_DASHED1
 62
     3
370
     5
100
AcDbLine
 10
-4758.107587180808
 20
3116.05496188569
 30
0.0
 11
-4702.097108929118
 21
3172.065440137381
 31
0.0
  0
LINE
  5
1A7
330
1F
100
AcDbEntity
  8
0-A_文字
  6
JWW_DASHED1
 62
     3
370
     5
100
AcDbLine
 10
-1729.557980445165
 20
-77.9329102638016
 30
0.0
 11
-1417.056330846347
 21
234.5662649367895
 31
0.0
  0
LINE
  5
1A8
330
1F
100
AcDbEntity
  8
0-A_文字
  6
JWW_DASHED1
 62
     3
370
     5
100
AcDbLine
 10
-1870.977262275824
 20
-77.9329102638016
 30
0.0
 11
-1558.478087075232
 21
234.5662649367895
 31
0.0
  0
LINE
  5
1A9
330
1F
100
AcDbEntity
  8
0-A_文字
  6
JWW_DASHED1
 62
     3
370
     5
100
AcDbLine
 10
-2012.399018504709
 20
-77.9329102638016
 30
0.0
 11
-1699.899843304118
 21
234.5662649367895
 31
0.0
  0
LINE
  5
1AA
330
1F
100
AcDbEntity
  8
0-A_文字
  6
JWW_DASHED1
 62
     3
370
     5
100
AcDbLine
 10
-2153.820774733595
 20
-77.9329102638016
 30
0.0
 11
-1841.321599533003
 21
234.5662649367895
 31
0.0
  0
LINE
  5
1AB
330
1F
100
AcDbEntity
  8
0-A_文字
  6
JWW_DASHED1
 62
     3
370
     5
100
AcDbLine
 10
-2295.24253096248
 20
-77.9329102638016
 30
0.0
 11
-1982.743355761889
 21
234.5662649367895
 31
0.0
  0
LINE
  5
1AC
330
1F
100
AcDbEntity
  8
0-A_文字
  6
JWW_DASHED1
 62
     3
370
     5
100
AcDbLine
 10
-2436.664287191365
 20
-77.9329102638016
 30
0.0
 11
-2124.162637592548
 21
234.5662649367895
 31
0.0
  0
LINE
  5
1AD
330
1F
100
AcDbEntity
  8
0-A_文字
  6
JWW_DASHED1
 62
     3
370
     5
100
AcDbLine
 10
-2578.086043420251
 20
-77.9329102638016
 30
0.0
 11
-2265.584393821433
 21
234.5662649367895
 31
0.0
  0
LINE
  5
1AE
330
1F
100
AcDbEntity
  8
0-A_文字
  6
JWW_DASHED1
 62
     3
370
     5
100
AcDbLine
 10
-2719.507799649136
 20
-77.9329102638016
 30
0.0
 11
-2407.006150050319
 21
234.5662649367895
 31
0.0
  0
LINE
  5
1AF
330
1F
100
AcDbEntity
  8
0-A_文字
  6
JWW_DASHED1
 62
     3
370
     5
100
AcDbLine
 10
-2860.927081479795
 20
-77.9329102638016
 30
0.0
 11
-2548.427906279204
 21
234.5662649367895
 31
0.0
  0
LINE
  5
1B0
330
1F
100
AcDbEntity
  8
0-A_文字
  6
JWW_DASHED1
 62
     3
370
     5
100
AcDbLine
 10
-3002.348837708681
 20
-77.9329102638016
 30
0.0
 11
-2689.84966250809
 21
234.5662649367895
 31
0.0
  0
LINE
  5
1B1
330
1F
100
AcDbEntity
  8
0-A_文字
  6
JWW_DASHED1
 62
     3
370
     5
100
AcDbLine
 10
-3143.770593937566
 20
-77.9329102638016
 30
0.0
 11
-2831.271418736972
 21
234.5662649367895
 31
0.0
  0
LINE
  5
1B2
330
1F
100
AcDbEntity
  8
0-A_文字
  6
JWW_DASHED1
 62
     3
370
     5
100
AcDbLine
 10
-3285.192350166449
 20
-77.9329102638016
 30
0.0
 11
-2972.693174965857
 21
234.5662649367895
 31
0.0
  0
LINE
  5
1B3
330
1F
100
AcDbEntity
  8
0-A_文字
  6
JWW_DASHED1
 62
     3
370
     5
100
AcDbLine
 10
-3426.614106395334
 20
-77.9329102638016
 30
0.0
 11
-3114.112456796516
 21
234.5662649367895
 31
0.0
  0
LINE
  5
1B4
330
1F
100
AcDbEntity
  8
0-A_文字
  6
JWW_DASHED1
 62
     3
370
     5
100
AcDbLine
 10
-3568.03586262422
 20
-77.9329102638016
 30
0.0
 11
-3255.534213025402
 21
234.5662649367895
 31
0.0
  0
LINE
  5
1B5
330
1F
100
AcDbEntity
  8
0-A_文字
  6
JWW_DASHED1
 62
     3
370
     5
100
AcDbLine
 10
-3709.455144454878
 20
-77.9329102638016
 30
0.0
 11
-3396.955969254287
 21
234.5662649367895
 31
0.0
  0
LINE
  5
1B6
330
1F
100
AcDbEntity
  8
0-A_文字
  6
JWW_DASHED1
 62
     3
370
     5
100
AcDbLine
 10
-3850.876900683764
 20
-77.9329102638016
 30
0.0
 11
-3538.377725483173
 21
234.5662649367895
 31
0.0
  0
LINE
  5
1B7
330
1F
100
AcDbEntity
  8
0-A_文字
  6
JWW_DASHED1
 62
     3
370
     5
100
AcDbLine
 10
-3992.298656912649
 20
-77.9329102638016
 30
0.0
 11
-3679.799481712058
 21
234.5662649367895
 31
0.0
  0
LINE
  5
1B8
330
1F
100
AcDbEntity
  8
0-A_文字
  6
JWW_DASHED1
 62
     3
370
     5
100
AcDbLine
 10
-4133.720413141535
 20
-77.9329102638016
 30
0.0
 11
-3821.221237940944
 21
234.5662649367895
 31
0.0
  0
LINE
  5
1B9
330
1F
100
AcDbEntity
  8
0-A_文字
  6
JWW_DASHED1
 62
     3
370
     5
100
AcDbLine
 10
-4275.142169370421
 20
-77.9329102638016
 30
0.0
 11
-3962.640519771603
 21
234.5662649367895
 31
0.0
  0
LINE
  5
1BA
330
1F
100
AcDbEntity
  8
0-A_文字
  6
JWW_DASHED1
 62
     3
370
     5
100
AcDbLine
 10
-4416.563925599306
 20
-77.9329102638016
 30
0.0
 11
-4104.062276000488
 21
234.5662649367895
 31
0.0
  0
LINE
  5
1BB
330
1F
100
AcDbEntity
  8
0-A_文字
  6
JWW_DASHED1
 62
     3
370
     5
100
AcDbLine
 10
-4557.983207429965
 20
-77.9329102638016
 30
0.0
 11
-4245.484032229373
 21
234.5662649367895
 31
0.0
  0
LINE
  5
1BC
330
1F
100
AcDbEntity
  8
0-A_文字
  6
JWW_DASHED1
 62
     3
370
     5
100
AcDbLine
 10
-4699.40496365885
 20
-77.9329102638016
 30
0.0
 11
-4386.905788458256
 21
234.5662649367895
 31
0.0
  0
LINE
  5
1BD
330
1F
100
AcDbEntity
  8
0-A_文字
  6
JWW_DASHED1
 62
     3
370
     5
100
AcDbLine
 10
-4758.107587180808
 20
4.786222443122767
 30
0.0
 11
-4528.327544687141
 21
234.5662649367895
 31
0.0
  0
LINE
  5
1BE
330
1F
100
AcDbEntity
  8
0-A_文字
  6
JWW_DASHED1
 62
     3
370
     5
100
AcDbLine
 10
-4758.107587180808
 20
146.2055042737816
 30
0.0
 11
-4669.749300916027
 21
234.5662649367895
 31
0.0
  0
LINE
  5
1BF
330
1F
100
AcDbEntity
  8
0-A_文字
  6
Continuous
 62
     3
370
     5
100
AcDbLine
 10
-5058.1085769401
 20
3844.636570838396
 30
0.0
 11
-5058.1085769401
 21
2987.777209035185
 31
0.0
  0
LINE
  5
1C0
330
1F
100
AcDbEntity
  8
0-A_文字
  6
Continuous
 62
     3
370
     5
100
AcDbLine
 10
-5058.1085769401
 20
4887.590474449037
 30
0.0
 11
-5058.1085769401
 21
3844.636570838396
 31
0.0
  0
LINE
  5
1C1
330
1F
100
AcDbEntity
  8
0-A_文字
  6
JWW_HOJO
 62
     3
370
     5
100
AcDbLine
 10
-9646.188493404414
 20
2361.717341794899
 30
0.0
 11
-9646.188493404414
 21
1331.132954917787
 31
0.0
  0
LINE
  5
1C2
330
1F
100
AcDbEntity
  8
0-A_文字
  6
Continuous
 62
     7
370
     5
100
AcDbLine
 10
-18059.268038709
 20
234.5662649367895
 30
0.0
 11
-15434.26865730855
 21
2859.56626493679
 31
0.0
  0
LINE
  5
1C3
330
1F
100
AcDbEntity
  8
0-A_文字
  6
Continuous
 62
     7
370
     5
100
AcDbLine
 10
-18059.268038709
 20
2859.56626493679
 30
0.0
 11
-15434.26865730855
 21
234.5662649367895
 31
0.0
  0
LINE
  5
1C4
330
1F
100
AcDbEntity
  8
0-A_文字
  6
Continuous
 62
     3
370
     5
100
AcDbLine
 10
-15434.26865730855
 20
3844.636570838396
 30
0.0
 11
-15434.26865730855
 21
2987.777209035185
 31
0.0
  0
LINE
  5
1C5
330
1F
100
AcDbEntity
  8
0-A_文字
  6
JWW_DASHED1
 62
     3
370
     5
100
AcDbLine
 10
-18371.7684511087
 20
-160.9464963596636
 30
0.0
 11
-18059.268038709
 21
151.5526788409275
 31
0.0
  0
LINE
  5
1C6
330
1F
100
AcDbEntity
  8
0-A_文字
  6
Continuous
 62
     3
370
     5
100
AcDbLine
 10
-16746.768038709
 20
5900.740251423278
 30
0.0
 11
-16746.768038709
 21
4242.524754432146
 31
0.0
  0
LINE
  5
1C7
330
1F
100
AcDbEntity
  8
0-A_文字
  6
JWW_HOJO
 62
     7
370
     5
100
AcDbLine
 10
-5283.108082060454
 20
3844.636570838396
 30
0.0
 11
-5283.108082060454
 21
2987.777209035185
 31
0.0
  0
LINE
  5
1C8
330
1F
100
AcDbEntity
  8
0-A_文字
  6
Continuous
 62
     3
370
     5
100
AcDbLine
 10
-5283.108082060454
 20
3844.636570838396
 30
0.0
 11
-5283.108082060454
 21
2224.507011347263
 31
0.0
  0
LINE
  5
1C9
330
1F
100
AcDbEntity
  8
0-A_文字
  6
Continuous
 62
     3
370
     5
100
AcDbLine
 10
-5283.108082060454
 20
3844.636570838396
 30
0.0
 11
-5058.1085769401
 21
3844.636570838396
 31
0.0
  0
TEXT
  5
1CA
330
1F
100
AcDbEntity
  8
0-A_文字
  6
Continuous
 62
     7
370
     0
100
AcDbText
 10
-5267.229621202134
 20
3932.344252690167
 30
0.0
 40
228.6
  1
9
 41
0.9999999999999998
  7
ＭＳ ゴシック
100
AcDbText
  0
LWPOLYLINE
  5
1CB
330
1F
100
AcDbEntity
  8
0-A_文字
  6
Continuous
 62
     3
370
     5
100
AcDbPolyline
 90
        4
 70
     1
 43
10.0
 10
-5053.108576940101
 20
3844.636570838396
 42
0.4142135623731
 10
-5058.1085769401
 20
3849.636570838396
 42
0.4142135623731
 10
-5063.1085769401
 20
3844.636570838396
 42
0.4142135623731
 10
-5058.1085769401
 20
3839.636570838397
 42
0.4142135623731
  0
LWPOLYLINE
  5
1CC
330
1F
100
AcDbEntity
  8
0-A_文字
  6
Continuous
 62
     3
370
     5
100
AcDbPolyline
 90
        4
 70
     1
 43
10.0
 10
-5053.108576940101
 20
4887.590474449037
 42
0.4142135623731
 10
-5058.1085769401
 20
4892.590474449036
 42
0.4142135623731
 10
-5063.1085769401
 20
4887.590474449037
 42
0.4142135623731
 10
-5058.1085769401
 20
4882.590474449037
 42
0.4142135623731
  0
LWPOLYLINE
  5
1CD
330
1F
100
AcDbEntity
  8
0-A_文字
  6
Continuous
 62
     3
370
     5
100
AcDbPolyline
 90
        4
 70
     1
 43
10.0
 10
-16741.768038709
 20
5900.740251423278
 42
0.4142135623731
 10
-16746.768038709
 20
5905.740251423278
 42
0.4142135623731
 10
-16751.768038709
 20
5900.740251423278
 42
0.4142135623731
 10
-16746.768038709
 20
5895.740251423278
 42
0.4142135623731
  0
LWPOLYLINE
  5
1CE
330
1F
100
AcDbEntity
  8
0-A_文字
  6
Continuous
 62
     3
370
     5
100
AcDbPolyline
 90
        4
 70
     1
 43
10.0
 10
-5278.108082060455
 20
3844.636570838396
 42
0.4142135623731
 10
-5283.108082060454
 20
3849.636570838396
 42
0.4142135623731
 10
-5288.108082060454
 20
3844.636570838396
 42
0.4142135623731
 10
-5283.108082060454
 20
3839.636570838397
 42
0.4142135623731
  0
LWPOLYLINE
  5
1CF
330
1F
100
AcDbEntity
  8
0-A_文字
  6
Continuous
 62
     3
370
     5
100
AcDbPolyline
 90
        4
 70
     1
 43
10.0
 10
-5353.107092301163
 20
-2531.160989146863
 42
0.4142135623731
 10
-5358.107092301162
 20
-2526.160989146863
 42
0.4142135623731
 10
-5363.107092301162
 20
-2531.160989146863
 42
0.4142135623731
 10
-5358.107092301162
 20
-2536.160989146863
 42
0.4142135623731
  0
LINE
  5
1D0
330
1F
100
AcDbEntity
  8
0-A_文字
  6
Continuous
 62
     7
370
     5
100
AcDbLine
 10
-5058.1085769401
 20
3172.065440137381
 30
0.0
 11
-5058.1085769401
 21
-152.9339000230934
 31
0.0
  0
LINE
  5
1D1
330
1F
100
AcDbEntity
  8
0-A_文字
  6
Continuous
 62
     3
370
     5
100
AcDbLine
 10
-5058.1085769401
 20
1217.689714313902
 30
0.0
 11
-5058.1085769401
 21
708.1690547383105
 31
0.0
  0
LINE
  5
1D2
330
1F
100
AcDbEntity
  8
0-A_文字
  6
Continuous
 62
     3
370
     5
100
AcDbLine
 10
-6255.875679980639
 20
-152.9339000230934
 30
0.0
 11
-5535.89755366096
 21
-152.9339000230934
 31
0.0
  0
LINE
  5
1D3
330
1F
100
AcDbEntity
  8
0-A_文字
  6
Continuous
 62
     3
370
     5
100
AcDbLine
 10
-5058.1085769401
 20
1217.689714313902
 30
0.0
 11
-5283.108082060454
 21
1217.689714313902
 31
0.0
  0
LINE
  5
1D4
330
1F
100
AcDbEntity
  8
0-A_文字
  6
Continuous
 62
     3
370
     5
100
AcDbLine
 10
-5283.108082060454
 20
1217.689714313902
 30
0.0
 11
-5283.108082060454
 21
708.1690547383105
 31
0.0
  0
LINE
  5
1D5
330
1F
100
AcDbEntity
  8
0-A_文字
  6
JWW_HOJO
 62
     7
370
     5
100
AcDbLine
 10
-6255.875679980639
 20
597.0660999769066
 30
0.0
 11
-5535.89755366096
 21
597.0660999769066
 31
0.0
  0
LINE
  5
1D6
330
1F
100
AcDbEntity
  8
0-A_文字
  6
Continuous
 62
     3
370
     5
100
AcDbLine
 10
-6255.875679980639
 20
597.0660999769066
 30
0.0
 11
-6255.875679980639
 21
-152.9339000230934
 31
0.0
  0
LINE
  5
1D7
330
1F
100
AcDbEntity
  8
0-A_文字
  6
Continuous
 62
     3
370
     5
100
AcDbLine
 10
-6255.875679980639
 20
597.0660999769066
 30
0.0
 11
-5535.89755366096
 21
597.0660999769066
 31
0.0
  0
LINE
  5
1D8
330
1F
100
AcDbEntity
  8
0-A_文字
  6
Continuous
 62
     3
370
     5
100
AcDbLine
 10
-5058.1085769401
 20
479.3985667209952
 30
0.0
 11
-5175.773635797785
 21
597.0660999769066
 31
0.0
  0
TEXT
  5
1D9
330
1F
100
AcDbEntity
  8
0-A_文字
  6
Continuous
 62
     7
370
     0
100
AcDbText
 10
-5244.932818784483
 20
1318.105905456217
 30
0.0
 40
228.6
  1
9
 41
0.9999999999999998
  7
ＭＳ ゴシック
100
AcDbText
  0
TEXT
  5
1DA
330
1F
100
AcDbEntity
  8
0-A_文字
  6
Continuous
 62
     7
370
     0
100
AcDbText
 10
-5948.175762460579
 20
22.06535765743923
 30
0.0
 40
228.6
  1
30
 50
90.0
 41
1.083333333333333
  7
ＭＳ ゴシック
100
AcDbText
  0
LWPOLYLINE
  5
1DB
330
1F
100
AcDbEntity
  8
0-A_文字
  6
Continuous
 62
     3
370
     5
100
AcDbPolyline
 90
        4
 70
     1
 43
10.0
 10
-5053.108576940101
 20
1217.689714313902
 42
0.4142135623731
 10
-5058.1085769401
 20
1222.689714313902
 42
0.4142135623731
 10
-5063.1085769401
 20
1217.689714313902
 42
0.4142135623731
 10
-5058.1085769401
 20
1212.689714313902
 42
0.4142135623731
  0
LWPOLYLINE
  5
1DC
330
1F
100
AcDbEntity
  8
0-A_文字
  6
Continuous
 62
     3
370
     5
100
AcDbPolyline
 90
        4
 70
     1
 43
10.0
 10
-6250.875679980639
 20
-152.9339000230934
 42
0.4142135623731
 10
-6255.875679980639
 20
-147.9339000230934
 42
0.4142135623731
 10
-6260.875679980639
 20
-152.9339000230934
 42
0.4142135623731
 10
-6255.875679980639
 20
-157.9339000230934
 42
0.4142135623731
  0
LWPOLYLINE
  5
1DD
330
1F
100
AcDbEntity
  8
0-A_文字
  6
Continuous
 62
     3
370
     5
100
AcDbPolyline
 90
        4
 70
     1
 43
10.0
 10
-5278.108082060455
 20
1217.689714313902
 42
0.4142135623731
 10
-5283.108082060454
 20
1222.689714313902
 42
0.4142135623731
 10
-5288.108082060454
 20
1217.689714313902
 42
0.4142135623731
 10
-5283.108082060454
 20
1212.689714313902
 42
0.4142135623731
  0
LWPOLYLINE
  5
1DE
330
1F
100
AcDbEntity
  8
0-A_文字
  6
Continuous
 62
     3
370
     5
100
AcDbPolyline
 90
        4
 70
     1
 43
10.0
 10
-6250.875679980639
 20
597.0660999769066
 42
0.4142135623731
 10
-6255.875679980639
 20
602.0660999769066
 42
0.4142135623731
 10
-6260.875679980639
 20
597.0660999769066
 42
0.4142135623731
 10
-6255.875679980639
 20
592.0660999769067
 42
0.4142135623731
  0
LINE
  5
1DF
330
1F
100
AcDbEntity
  8
0-A_文字
  6
Continuous
 62
     3
370
     5
100
AcDbLine
 10
-5358.107092301162
 20
-2531.160989146863
 30
0.0
 11
-5358.107092301162
 21
-1190.063070208903
 31
0.0
  0
LWPOLYLINE
  5
1E0
330
1F
100
AcDbEntity
  8
0-A_文字
  6
Continuous
 62
     3
370
     5
100
AcDbPolyline
 90
        4
 70
     1
 43
10.0
 10
-16741.768038709
 20
4887.590474449037
 42
0.4142135623731
 10
-16746.768038709
 20
4892.590474449036
 42
0.4142135623731
 10
-16751.768038709
 20
4887.590474449037
 42
0.4142135623731
 10
-16746.768038709
 20
4882.590474449037
 42
0.4142135623731
  0
LINE
  5
1E1
330
1F
100
AcDbEntity
  8
0-A_文字
  6
Continuous
 62
     3
370
     5
100
AcDbLine
 10
-14134.26824490885
 20
4887.590474449037
 30
0.0
 11
-5058.1085769401
 21
4887.590474449037
 31
0.0
  0
LINE
  5
1E2
330
1F
100
AcDbEntity
  8
0-A_文字
  6
Continuous
 62
     3
370
     5
100
AcDbLine
 10
-14346.76865730855
 20
3844.636570838396
 30
0.0
 11
-5283.108082060454
 21
3844.636570838396
 31
0.0
  0
LINE
  5
1E3
330
1F
100
AcDbEntity
  8
0-A_文字
  6
Continuous
 62
     3
370
     5
100
AcDbLine
 10
-16746.768038709
 20
4887.590474449037
 30
0.0
 11
-14134.26824490885
 21
4887.590474449037
 31
0.0
  0
LINE
  5
1E4
330
1F
100
AcDbEntity
  8
0-A_文字
  6
JWW_DASHED1
 62
     3
370
     5
100
AcDbLine
 10
-1337.640519771603
 20
2859.56626493679
 30
0.0
 11
-1299.447513812154
 21
2897.759270896236
 31
0.0
  0
LINE
  5
1E5
330
1F
100
AcDbEntity
  8
0-A_文字
  6
JWW_DASHED1
 62
     3
370
     5
100
AcDbLine
 10
-1479.062276000488
 20
2859.56626493679
 30
0.0
 11
-1299.447513812154
 21
3039.181027125122
 31
0.0
  0
LINE
  5
1E6
330
1F
100
AcDbEntity
  8
0-A_文字
  6
JWW_DASHED1
 62
     3
370
     5
100
AcDbLine
 10
-1305.292711758511
 20
-77.9329102638016
 30
0.0
 11
-1299.447513812154
 21
-72.08771231744606
 31
0.0
  0
LINE
  5
1E7
330
1F
100
AcDbEntity
  8
0-A_文字
  6
JWW_DASHED1
 62
     3
370
     5
100
AcDbLine
 10
-1446.714467987397
 20
-77.9329102638016
 30
0.0
 11
-1299.447513812154
 21
69.33404391143938
 31
0.0
  0
LINE
  5
1E8
330
1F
100
AcDbEntity
  8
0-A_文字
  6
JWW_DASHED1
 62
     3
370
     5
100
AcDbLine
 10
-1588.136224216282
 20
-77.9329102638016
 30
0.0
 11
-1299.447513812154
 21
210.7535142937252
 31
0.0
  0
LINE
  5
1E9
330
1F
100
AcDbEntity
  8
0-A_文字
  6
Continuous
 62
     7
370
     5
100
AcDbLine
 10
-5058.1085769401
 20
3172.065440137381
 30
0.0
 11
-1299.447513812154
 21
3172.065440137381
 31
0.0
  0
LINE
  5
1EA
330
1F
100
AcDbEntity
  8
0-A_文字
  6
Continuous
 62
     7
370
     5
100
AcDbLine
 10
-4758.107587180808
 20
2859.56626493679
 30
0.0
 11
-1299.447513812154
 21
2859.56626493679
 31
0.0
  0
LINE
  5
1EB
330
1F
100
AcDbEntity
  8
0-A_文字
  6
Continuous
 62
     7
370
     5
100
AcDbLine
 10
-4758.107587180808
 20
234.5662649367895
 30
0.0
 11
-1299.447513812154
 21
234.5662649367895
 31
0.0
  0
LINE
  5
1EC
330
1F
100
AcDbEntity
  8
0-A_文字
  6
Continuous
 62
     7
370
     5
100
AcDbLine
 10
-4758.107587180808
 20
-77.9329102638016
 30
0.0
 11
-1299.447513812154
 21
-77.9329102638016
 31
0.0
  0
TEXT
  5
1ED
330
1F
100
AcDbEntity
  8
0-A_文字
  6
Continuous
 62
     7
370
     0
100
AcDbText
 10
-10770.00688577139
 20
-843.9861487562
 30
0.0
 40
228.6
  1
ＤＷ＝846
 41
1.148148148148148
  7
ＭＳ ゴシック
100
AcDbText
  0
LINE
  5
1EE
330
1F
100
AcDbEntity
  8
0-A_文字
  6
Continuous
 62
     3
370
     5
100
AcDbLine
 10
-5358.107092301162
 20
-2531.160989146863
 30
0.0
 11
-4833.107092301162
 21
-2531.160989146863
 31
0.0
  0
LWPOLYLINE
  5
1EF
330
1F
100
AcDbEntity
  8
0-A_文字
  6
Continuous
 62
     3
370
     5
100
AcDbPolyline
 90
        4
 70
     1
 43
10.0
 10
-4828.107092301163
 20
-2531.160989146863
 42
0.4142135623731
 10
-4833.107092301162
 20
-2526.160989146863
 42
0.4142135623731
 10
-4838.107092301162
 20
-2531.160989146863
 42
0.4142135623731
 10
-4833.107092301162
 20
-2536.160989146863
 42
0.4142135623731
  0
LINE
  5
1F0
330
1F
100
AcDbEntity
  8
0-A_文字
  6
Continuous
 62
     3
370
     5
100
AcDbLine
 10
-3918.639536382082
 20
-77.9329102638016
 30
0.0
 11
-4472.469244996947
 21
-77.9329102638016
 31
0.0
  0
LWPOLYLINE
  5
1F1
330
1F
100
AcDbEntity
  8
0-A_文字
  6
Continuous
 62
     3
370
     5
100
AcDbPolyline
 90
        4
 70
     1
 43
10.0
 10
-3913.639536382082
 20
-77.9329102638016
 42
0.4142135623731
 10
-3918.639536382082
 20
-72.9329102638016
 42
0.4142135623731
 10
-3923.639536382082
 20
-77.9329102638016
 42
0.4142135623731
 10
-3918.639536382082
 20
-82.9329102638016
 42
0.4142135623731
  0
LINE
  5
1F2
330
1F
100
AcDbEntity
  8
0-A_文字
  6
Continuous
 62
     3
370
     5
100
AcDbLine
 10
-3918.639536382082
 20
-77.9329102638016
 30
0.0
 11
-3918.639536382082
 21
-152.9339000230934
 31
0.0
  0
LINE
  5
1F3
330
1F
100
AcDbEntity
  8
0-A_文字
  6
Continuous
 62
     3
370
     5
100
AcDbLine
 10
-3918.639536382082
 20
-152.9339000230934
 30
0.0
 11
-4472.469244996947
 21
-152.9339000230934
 31
0.0
  0
LINE
  5
1F4
330
1F
100
AcDbEntity
  8
0-A_文字
  6
Continuous
 62
     3
370
     5
100
AcDbLine
 10
-3918.639536382082
 20
-152.9339000230934
 30
0.0
 11
-3918.639536382082
 21
-302.9343949027364
 31
0.0
  0
LINE
  5
1F5
330
1F
100
AcDbEntity
  8
0-A_文字
  6
Continuous
 62
     3
370
     5
100
AcDbLine
 10
-3918.639536382082
 20
-302.9343949027364
 30
0.0
 11
-4472.469244996947
 21
-302.9343949027364
 31
0.0
  0
LINE
  5
1F6
330
1F
100
AcDbEntity
  8
0-A_文字
  6
Continuous
 62
     3
370
     5
100
AcDbLine
 10
-3918.639536382082
 20
-302.9343949027364
 30
0.0
 11
-3918.639536382082
 21
-1052.934394902736
 31
0.0
  0
LINE
  5
1F7
330
1F
100
AcDbEntity
  8
0-A_文字
  6
Continuous
 62
     3
370
     5
100
AcDbLine
 10
-3918.639536382082
 20
-1052.934394902736
 30
0.0
 11
-4472.469244996947
 21
-1052.934394902736
 31
0.0
  0
TEXT
  5
1F8
330
1F
100
AcDbEntity
  8
0-A_文字
  6
Continuous
 62
     7
370
     0
100
AcDbText
 10
-3668.240495788754
 20
-934.9514583529058
 30
0.0
 40
228.6
  1
30
 50
90.0
 41
1.083333333333333
  7
ＭＳ ゴシック
100
AcDbText
  0
LWPOLYLINE
  5
1F9
330
1F
100
AcDbEntity
  8
0-A_文字
  6
Continuous
 62
     3
370
     5
100
AcDbPolyline
 90
        4
 70
     1
 43
10.0
 10
-3913.639536382082
 20
-152.9339000230934
 42
0.4142135623731
 10
-3918.639536382082
 20
-147.9339000230934
 42
0.4142135623731
 10
-3923.639536382082
 20
-152.9339000230934
 42
0.4142135623731
 10
-3918.639536382082
 20
-157.9339000230934
 42
0.4142135623731
  0
LWPOLYLINE
  5
1FA
330
1F
100
AcDbEntity
  8
0-A_文字
  6
Continuous
 62
     3
370
     5
100
AcDbPolyline
 90
        4
 70
     1
 43
10.0
 10
-3913.639536382082
 20
-302.9343949027364
 42
0.4142135623731
 10
-3918.639536382082
 20
-297.9343949027364
 42
0.4142135623731
 10
-3923.639536382082
 20
-302.9343949027364
 42
0.4142135623731
 10
-3918.639536382082
 20
-307.9343949027364
 42
0.4142135623731
  0
LWPOLYLINE
  5
1FB
330
1F
100
AcDbEntity
  8
0-A_文字
  6
Continuous
 62
     3
370
     5
100
AcDbPolyline
 90
        4
 70
     1
 43
10.0
 10
-3913.639536382082
 20
-1052.934394902736
 42
0.4142135623731
 10
-3918.639536382082
 20
-1047.934394902736
 42
0.4142135623731
 10
-3923.639536382082
 20
-1052.934394902736
 42
0.4142135623731
 10
-3918.639536382082
 20
-1057.934394902737
 42
0.4142135623731
  0
TEXT
  5
1FC
330
1F
100
AcDbEntity
  8
0-A_文字
  6
Continuous
 62
     7
370
     0
100
AcDbText
 10
-3627.628489348186
 20
-11.07590843188575
 30
0.0
 40
228.6
  1
3
 50
90.0
 41
0.9999999999999998
  7
ＭＳ ゴシック
100
AcDbText
  0
TEXT
  5
1FD
330
1F
100
AcDbEntity
  8
0-A_文字
  6
Continuous
 62
     7
370
     0
100
AcDbText
 10
-4023.973177887373
 20
-302.5058264754037
 30
0.0
 40
228.6
  1
6
 50
90.0
 41
0.9999999999999998
  7
ＭＳ ゴシック
100
AcDbText
  0
TEXT
  5
1FE
330
1F
100
AcDbEntity
  8
0-A_文字
  6
Continuous
 62
     7
370
     0
100
AcDbText
 10
-5253.440319094008
 20
-2432.428668683424
 30
0.0
 40
228.6
  1
21
 41
1.083333333333333
  7
ＭＳ ゴシック
100
AcDbText
  0
LINE
  5
1FF
330
1F
100
AcDbEntity
  8
0-A_文字
  6
JWW_CENTER1
 62
     3
370
     5
100
AcDbLine
 10
-16746.768038709
 20
4424.415293653005
 30
0.0
 11
-16746.768038709
 21
-5049.537646904747
 31
0.0
  0
LINE
  5
200
330
1F
100
AcDbEntity
  8
0-A_文字
  6
Continuous
 62
     7
370
     5
100
AcDbLine
 10
-14846.76741127242
 20
-77.93428591170368
 30
0.0
 11
-15434.26873095146
 21
-77.93414746290352
 31
0.0
  0
LINE
  5
201
330
1F
100
AcDbEntity
  8
0-A_文字
  6
JWW_DASHED1
 62
     3
370
     5
100
AcDbLine
 10
-14308.21456366416
 20
234.5659995742594
 30
0.0
 11
-14620.71628690588
 21
-77.93433918223229
 31
0.0
  0
LINE
  5
202
330
1F
100
AcDbEntity
  8
0-A_文字
  6
JWW_DASHED1
 62
     3
370
     5
100
AcDbLine
 10
-14449.63631989304
 20
234.5660329012873
 30
0.0
 11
-14762.13556873653
 21
-77.93430585578847
 31
0.0
  0
LINE
  5
203
330
1F
100
AcDbEntity
  8
0-A_文字
  6
JWW_DASHED1
 62
     3
370
     5
100
AcDbLine
 10
-14591.05807612192
 20
234.5660662283137
 30
0.0
 11
-14903.55732496541
 21
-77.934272528762
 31
0.0
  0
LINE
  5
204
330
1F
100
AcDbEntity
  8
0-A_文字
  6
JWW_DASHED1
 62
     3
370
     5
100
AcDbLine
 10
-14732.4798323508
 20
234.5660995553402
 30
0.0
 11
-15044.97908119429
 21
-77.93423920173552
 31
0.0
  0
LINE
  5
205
330
1F
100
AcDbEntity
  8
0-A_文字
  6
Continuous
 62
     7
370
     5
100
AcDbLine
 10
-15121.76824490885
 20
-4943.44982516664
 30
0.0
 11
-15121.76824490885
 21
-77.9329102638016
 31
0.0
  0
LWPOLYLINE
  5
206
330
1F
100
AcDbEntity
  8
0-A_文字
  6
Continuous
 62
     3
370
     5
100
AcDbPolyline
 90
        4
 70
     1
 43
10.0
 10
-13291.76865730855
 20
3844.636570838396
 42
0.4142135623731
 10
-13296.76865730855
 20
3849.636570838396
 42
0.4142135623731
 10
-13301.76865730855
 20
3844.636570838396
 42
0.4142135623731
 10
-13296.76865730855
 20
3839.636570838397
 42
0.4142135623731
  0
LWPOLYLINE
  5
207
330
1F
100
AcDbEntity
  8
0-A_文字
  6
Continuous
 62
     3
370
     5
100
AcDbPolyline
 90
        4
 70
     1
 43
10.0
 10
-13291.76865730855
 20
4887.590474449037
 42
0.4142135623731
 10
-13296.76865730855
 20
4892.590474449036
 42
0.4142135623731
 10
-13301.76865730855
 20
4887.590474449037
 42
0.4142135623731
 10
-13296.76865730855
 20
4882.590474449037
 42
0.4142135623731
  0
LINE
  5
208
330
1F
100
AcDbEntity
  8
0-A_文字
  6
Continuous
 62
     3
370
     5
100
AcDbLine
 10
-13296.76865730855
 20
4887.590474449037
 30
0.0
 11
-13296.76865730855
 21
3293.020899458445
 31
0.0
  0
TEXT
  5
209
330
1F
100
AcDbEntity
  8
0-A_文字
  6
Continuous
 62
     7
370
     0
100
AcDbText
 10
-13662.14643471333
 20
3871.542943455536
 30
0.0
 40
228.6
  1
12
 41
1.083333333333333
  7
ＭＳ ゴシック
100
AcDbText
  0
LWPOLYLINE
  5
20A
330
1F
100
AcDbEntity
  8
0-A_文字
  6
Continuous
 62
     3
370
     5
100
AcDbPolyline
 90
        4
 70
     1
 43
10.0
 10
-13604.26906970825
 20
3844.636570838396
 42
0.4142135623731
 10
-13609.26906970826
 20
3849.636570838396
 42
0.4142135623731
 10
-13614.26906970826
 20
3844.636570838396
 42
0.4142135623731
 10
-13609.26906970826
 20
3839.636570838397
 42
0.4142135623731
  0
LINE
  5
20B
330
1F
100
AcDbEntity
  8
0-A_文字
  6
Continuous
 62
     3
370
     5
100
AcDbLine
 10
-13609.26906970826
 20
3844.636570838396
 30
0.0
 11
-13609.26906970826
 21
3388.035123996114
 31
0.0
  0
LINE
  5
20C
330
1F
100
AcDbEntity
  8
0-A_文字
  6
Continuous
 62
     7
370
     5
100
AcDbLine
 10
-13296.76865730855
 20
-77.9329102638016
 30
0.0
 11
-15121.76824490885
 21
-77.9329102638016
 31
0.0
  0
LINE
  5
20D
330
1F
100
AcDbEntity
  8
0-A_文字
  6
Continuous
 62
     7
370
     5
100
AcDbLine
 10
-13596.76865730855
 20
3172.065440137381
 30
0.0
 11
-13596.76865730855
 21
-77.9329102638016
 31
0.0
  0
LINE
  5
20E
330
1F
100
AcDbEntity
  8
0-A_文字
  6
Continuous
 62
     7
370
     5
100
AcDbLine
 10
-13596.76865730855
 20
234.5662649367895
 30
0.0
 11
-15434.26865730855
 21
234.5662649367895
 31
0.0
  0
LINE
  5
20F
330
1F
100
AcDbEntity
  8
0-A_文字
  6
Continuous
 62
     7
370
     5
100
AcDbLine
 10
-13596.76865730855
 20
2859.56626493679
 30
0.0
 11
-15434.26865730855
 21
2859.56626493679
 31
0.0
  0
LINE
  5
210
330
1F
100
AcDbEntity
  8
0-A_文字
  6
Continuous
 62
     7
370
     5
100
AcDbLine
 10
-14346.76865730855
 20
2859.56626493679
 30
0.0
 11
-14346.76865730855
 21
234.5662649367895
 31
0.0
  0
LINE
  5
211
330
1F
100
AcDbEntity
  8
0-A_文字
  6
Continuous
 62
     7
370
     5
100
AcDbLine
 10
-14346.76865730855
 20
234.5662649367895
 30
0.0
 11
-13596.76865730855
 21
2859.56626493679
 31
0.0
  0
LINE
  5
212
330
1F
100
AcDbEntity
  8
0-A_文字
  6
JWW_DASHED1
 62
     3
370
     5
100
AcDbLine
 10
-15434.26865730855
 20
-184.381521961437
 30
0.0
 11
-15015.32252903143
 21
234.5662649367895
 31
0.0
  0
LINE
  5
213
330
1F
100
AcDbEntity
  8
0-A_文字
  6
JWW_DASHED1
 62
     3
370
     5
100
AcDbLine
 10
-15156.74256123824
 20
234.5662649367895
 30
0.0
 11
-15434.2687227095
 21
-42.95976573254308
 31
0.0
  0
LINE
  5
214
330
1F
100
AcDbEntity
  8
0-A_文字
  6
Continuous
 62
     7
370
     5
100
AcDbLine
 10
-13559.26865730855
 20
3172.065440137381
 30
0.0
 11
-13559.26865730855
 21
-77.9329102638016
 31
0.0
  0
LINE
  5
215
330
1F
100
AcDbEntity
  8
0-A_文字
  6
Continuous
 62
     7
370
     5
100
AcDbLine
 10
-13521.76865730855
 20
3172.065440137381
 30
0.0
 11
-13521.76865730855
 21
-77.9329102638016
 31
0.0
  0
LINE
  5
216
330
1F
100
AcDbEntity
  8
0-A_文字
  6
Continuous
 62
     7
370
     5
100
AcDbLine
 10
-13484.26865730855
 20
3172.065440137381
 30
0.0
 11
-13484.26865730855
 21
-77.9329102638016
 31
0.0
  0
LINE
  5
217
330
1F
100
AcDbEntity
  8
0-A_文字
  6
Continuous
 62
     7
370
     5
100
AcDbLine
 10
-13446.76865730855
 20
3172.065440137381
 30
0.0
 11
-13446.76865730855
 21
-77.9329102638016
 31
0.0
  0
LINE
  5
218
330
1F
100
AcDbEntity
  8
0-A_文字
  6
Continuous
 62
     7
370
     5
100
AcDbLine
 10
-13409.26865730855
 20
3172.065440137381
 30
0.0
 11
-13409.26865730855
 21
-77.9329102638016
 31
0.0
  0
LINE
  5
219
330
1F
100
AcDbEntity
  8
0-A_文字
  6
Continuous
 62
     7
370
     5
100
AcDbLine
 10
-13371.76865730855
 20
3172.065440137381
 30
0.0
 11
-13371.76865730855
 21
-77.9329102638016
 31
0.0
  0
LINE
  5
21A
330
1F
100
AcDbEntity
  8
0-A_文字
  6
Continuous
 62
     7
370
     5
100
AcDbLine
 10
-13334.26865730855
 20
3172.065440137381
 30
0.0
 11
-13334.26865730855
 21
-77.9329102638016
 31
0.0
  0
LINE
  5
21B
330
1F
100
AcDbEntity
  8
0-A_文字
  6
JWW_DASHED1
 62
     3
370
     5
100
AcDbLine
 10
-14935.90505933558
 20
2859.56626493679
 30
0.0
 11
-14623.40588413499
 21
3172.065440137381
 31
0.0
  0
LINE
  5
21C
330
1F
100
AcDbEntity
  8
0-A_文字
  6
JWW_DASHED1
 62
     3
370
     5
100
AcDbLine
 10
-14794.4833031067
 20
2859.56626493679
 30
0.0
 11
-14481.98412790611
 21
3172.065440137381
 31
0.0
  0
LINE
  5
21D
330
1F
100
AcDbEntity
  8
0-A_文字
  6
JWW_DASHED1
 62
     3
370
     5
100
AcDbLine
 10
-14653.06154687781
 20
2859.56626493679
 30
0.0
 11
-14340.56237167722
 21
3172.065440137381
 31
0.0
  0
LINE
  5
21E
330
1F
100
AcDbEntity
  8
0-A_文字
  6
JWW_DASHED1
 62
     3
370
     5
100
AcDbLine
 10
-14511.63979064893
 20
2859.56626493679
 30
0.0
 11
-14199.14061544833
 21
3172.065440137381
 31
0.0
  0
LINE
  5
21F
330
1F
100
AcDbEntity
  8
0-A_文字
  6
JWW_DASHED1
 62
     3
370
     5
100
AcDbLine
 10
-14370.21803442004
 20
2859.56626493679
 30
0.0
 11
-14057.71885921945
 21
3172.065440137381
 31
0.0
  0
LINE
  5
220
330
1F
100
AcDbEntity
  8
0-A_文字
  6
JWW_DASHED1
 62
     3
370
     5
100
AcDbLine
 10
-14228.79627819115
 20
2859.56626493679
 30
0.0
 11
-13916.29710299056
 21
3172.065440137381
 31
0.0
  0
LINE
  5
221
330
1F
100
AcDbEntity
  8
0-A_文字
  6
JWW_DASHED1
 62
     3
370
     5
100
AcDbLine
 10
-14087.37452196227
 20
2859.56626493679
 30
0.0
 11
-13774.87534676168
 21
3172.065440137381
 31
0.0
  0
LINE
  5
222
330
1F
100
AcDbEntity
  8
0-A_文字
  6
JWW_DASHED1
 62
     3
370
     5
100
AcDbLine
 10
-13945.95276573338
 20
2859.56626493679
 30
0.0
 11
-13633.45359053279
 21
3172.065440137381
 31
0.0
  0
LINE
  5
223
330
1F
100
AcDbEntity
  8
0-A_文字
  6
JWW_DASHED1
 62
     3
370
     5
100
AcDbLine
 10
-13663.10925327561
 20
2859.56626493679
 30
0.0
 11
-13596.76865730855
 21
2925.90686090385
 31
0.0
  0
LINE
  5
224
330
1F
100
AcDbEntity
  8
0-A_文字
  6
JWW_DASHED1
 62
     3
370
     5
100
AcDbLine
 10
-13804.5310095045
 20
2859.56626493679
 30
0.0
 11
-13596.76865730855
 21
3067.328617132735
 31
0.0
  0
LINE
  5
225
330
1F
100
AcDbEntity
  8
0-A_文字
  6
JWW_DASHED1
 62
     3
370
     5
100
AcDbLine
 10
-13883.94929497752
 20
234.5659995742594
 30
0.0
 11
-14196.45101821924
 21
-77.93433918223229
 31
0.0
  0
LINE
  5
226
330
1F
100
AcDbEntity
  8
0-A_文字
  6
JWW_DASHED1
 62
     3
370
     5
100
AcDbLine
 10
-14025.3710512064
 20
234.5660329012873
 30
0.0
 11
-14337.87030004989
 21
-77.93430585578847
 31
0.0
  0
LINE
  5
227
330
1F
100
AcDbEntity
  8
0-A_文字
  6
JWW_DASHED1
 62
     3
370
     5
100
AcDbLine
 10
-14166.79280743528
 20
234.5660662283137
 30
0.0
 11
-14479.29205627877
 21
-77.934272528762
 31
0.0
  0
LINE
  5
228
330
1F
100
AcDbEntity
  8
0-A_文字
  6
JWW_DASHED1
 62
     3
370
     5
100
AcDbLine
 10
-13601.10578251975
 20
234.5660329012873
 30
0.0
 11
-13913.60503136325
 21
-77.93430585578847
 31
0.0
  0
LINE
  5
229
330
1F
100
AcDbEntity
  8
0-A_文字
  6
JWW_DASHED1
 62
     3
370
     5
100
AcDbLine
 10
-13742.52753874863
 20
234.5660662283137
 30
0.0
 11
-14055.02678759213
 21
-77.934272528762
 31
0.0
  0
LINE
  5
22A
330
1F
100
AcDbEntity
  8
0-A_文字
  6
JWW_DASHED1
 62
     3
370
     5
100
AcDbLine
 10
-13596.76865730855
 20
97.48197588650243
 30
0.0
 11
-13772.1857495326
 21
-77.93433918223229
 31
0.0
  0
LINE
  5
22B
330
1F
100
AcDbEntity
  8
0-A_文字
  6
Continuous
 62
     7
370
     5
100
AcDbLine
 10
-15121.76978846217
 20
-215.4339176970097
 30
0.0
 11
-15121.76955575088
 21
-77.93422110552228
 31
0.0
  0
LINE
  5
22C
330
1F
100
AcDbEntity
  8
0-A_文字
  6
JWW_DASHED1
 62
     3
370
     5
100
AcDbLine
 10
-18059.26890805946
 20
20.51656405641893
 30
0.0
 11
-18371.76815690266
 21
-291.9825375015449
 31
0.0
  0
LINE
  5
22D
330
1F
100
AcDbEntity
  8
0-A_文字
  6
JWW_DASHED1
 62
     3
370
     5
100
AcDbLine
 10
-18059.26894138649
 20
-120.9051921724637
 30
0.0
 11
-18371.76819022969
 21
-433.4042937304275
 31
0.0
  0
LINE
  5
22E
330
1F
100
AcDbEntity
  8
0-A_文字
  6
JWW_DASHED1
 62
     3
370
     5
100
AcDbLine
 10
-15434.26875728964
 20
-465.75279398578
 30
0.0
 11
-15121.76834488993
 21
-153.2511443869609
 31
0.0
  0
LINE
  5
22F
330
1F
100
AcDbEntity
  8
0-A_文字
  6
JWW_DASHED1
 62
     3
370
     5
100
AcDbLine
 10
-15434.26875728964
 20
-324.3310377568974
 30
0.0
 11
-14875.36924189492
 21
234.5662649367895
 31
0.0
  0
LINE
  5
230
330
1F
100
AcDbEntity
  8
0-A_文字
  6
Continuous
 62
     3
370
     5
100
AcDbLine
 10
-19075.13288471106
 20
1547.06626493679
 30
0.0
 11
-19075.13288471106
 21
234.5662649367895
 31
0.0
  0
LWPOLYLINE
  5
231
330
1F
100
AcDbEntity
  8
0-A_文字
  6
Continuous
 62
     3
370
     5
100
AcDbPolyline
 90
        4
 70
     1
 43
10.0
 10
-19070.13288471106
 20
1547.06626493679
 42
0.4142135623731
 10
-19075.13288471106
 20
1552.06626493679
 42
0.4142135623731
 10
-19080.13288471106
 20
1547.06626493679
 42
0.4142135623731
 10
-19075.13288471106
 20
1542.066264936789
 42
0.4142135623731
  0
LWPOLYLINE
  5
232
330
1F
100
AcDbEntity
  8
0-A_文字
  6
Continuous
 62
     3
370
     5
100
AcDbPolyline
 90
        4
 70
     1
 43
10.0
 10
-19070.13288471106
 20
234.5662649367895
 42
0.4142135623731
 10
-19075.13288471106
 20
239.5662649367895
 42
0.4142135623731
 10
-19080.13288471106
 20
234.5662649367895
 42
0.4142135623731
 10
-19075.13288471106
 20
229.5662649367896
 42
0.4142135623731
  0
LINE
  5
233
330
1F
100
AcDbEntity
  8
0-A_文字
  6
Continuous
 62
     3
370
     5
100
AcDbLine
 10
-19075.13288471106
 20
1547.06626493679
 30
0.0
 11
-18728.71618967819
 21
1547.06626493679
 31
0.0
  0
LINE
  5
234
330
1F
100
AcDbEntity
  8
0-A_文字
  6
Continuous
 62
     3
370
     5
100
AcDbLine
 10
-19075.13288471106
 20
234.5662649367895
 30
0.0
 11
-18728.71618967819
 21
234.5662649367895
 31
0.0
  0
TEXT
  5
235
330
1F
100
AcDbEntity
  8
0-A_文字
  6
Continuous
 62
     7
370
     0
100
AcDbText
 10
-19167.43288471106
 20
553.3162649367896
 30
0.0
 40
228.6
  1
52.5
 50
90.0
 41
1.125
  7
ＭＳ ゴシック
100
AcDbText
  0
LINE
  5
236
330
1F
100
AcDbEntity
  8
0-A_文字
  6
Continuous
 62
     7
370
     5
100
AcDbLine
 10
-18059.26889001977
 20
-1602.933729171649
 30
0.0
 11
-18059.26865730848
 21
234.5668835364194
 31
0.0
  0
LINE
  5
237
330
1F
100
AcDbEntity
  8
0-A_文字
  6
JWW_DASHED1
 62
     3
370
     5
100
AcDbLine
 10
-18059.26890805946
 20
-251.9413069569723
 30
0.0
 11
-18371.76815690266
 21
-564.440408514936
 31
0.0
  0
LINE
  5
238
330
1F
100
AcDbEntity
  8
0-A_文字
  6
JWW_DASHED1
 62
     3
370
     5
100
AcDbLine
 10
-18059.26894138649
 20
-393.3630631858549
 30
0.0
 11
-18371.76819022969
 21
-705.8621647438188
 31
0.0
  0
LINE
  5
239
330
1F
100
AcDbEntity
  8
0-A_文字
  6
JWW_DASHED1
 62
     3
370
     5
100
AcDbLine
 10
-18059.26890805946
 20
-524.3991779703634
 30
0.0
 11
-18371.76815690266
 21
-836.8982795283273
 31
0.0
  0
LINE
  5
23A
330
1F
100
AcDbEntity
  8
0-A_文字
  6
JWW_DASHED1
 62
     3
370
     5
100
AcDbLine
 10
-18059.26894138649
 20
-665.820934199246
 30
0.0
 11
-18371.76819022969
 21
-978.3200357572099
 31
0.0
  0
LINE
  5
23B
330
1F
100
AcDbEntity
  8
0-A_文字
  6
JWW_DASHED1
 62
     3
370
     5
100
AcDbLine
 10
-18059.26890805946
 20
-796.8570489837546
 30
0.0
 11
-18371.76815690266
 21
-1109.356150541719
 31
0.0
  0
LINE
  5
23C
330
1F
100
AcDbEntity
  8
0-A_文字
  6
JWW_DASHED1
 62
     3
370
     5
100
AcDbLine
 10
-18059.26894138649
 20
-938.2788052126373
 30
0.0
 11
-18371.76819022969
 21
-1250.777906770601
 31
0.0
  0
LINE
  5
23D
330
1F
100
AcDbEntity
  8
0-A_文字
  6
JWW_DASHED1
 62
     3
370
     5
100
AcDbLine
 10
-18059.26890805946
 20
-1069.314919997146
 30
0.0
 11
-18371.76815690266
 21
-1381.81402155511
 31
0.0
  0
LINE
  5
23E
330
1F
100
AcDbEntity
  8
0-A_文字
  6
JWW_DASHED1
 62
     3
370
     5
100
AcDbLine
 10
-18059.26894138649
 20
-1210.736676226029
 30
0.0
 11
-18371.76819022969
 21
-1523.235777783992
 31
0.0
  0
LINE
  5
23F
330
1F
100
AcDbEntity
  8
0-A_文字
  6
JWW_DASHED1
 62
     3
370
     5
100
AcDbLine
 10
-15121.7705525737
 20
-284.28859751007
 30
0.0
 11
-15434.2698014169
 21
-596.7876990680338
 31
0.0
  0
LINE
  5
240
330
1F
100
AcDbEntity
  8
0-A_文字
  6
JWW_DASHED1
 62
     3
370
     5
100
AcDbLine
 10
-15121.77058590072
 20
-425.7103537389526
 30
0.0
 11
-15434.26983474392
 21
-738.2094552969164
 31
0.0
  0
LINE
  5
241
330
1F
100
AcDbEntity
  8
0-A_文字
  6
JWW_DASHED1
 62
     3
370
     5
100
AcDbLine
 10
-15121.77145525118
 20
-556.7464685234611
 30
0.0
 11
-15434.27070409438
 21
-869.2455700814251
 31
0.0
  0
LINE
  5
242
330
1F
100
AcDbEntity
  8
0-A_文字
  6
JWW_DASHED1
 62
     3
370
     5
100
AcDbLine
 10
-15121.77148857821
 20
-698.1682247523438
 30
0.0
 11
-15434.27073742141
 21
-1010.667326310308
 31
0.0
  0
LINE
  5
243
330
1F
100
AcDbEntity
  8
0-A_文字
  6
JWW_DASHED1
 62
     3
370
     5
100
AcDbLine
 10
-15121.77235792867
 20
-829.2043395368523
 30
0.0
 11
-15434.27160677187
 21
-1141.703441094816
 31
0.0
  0
LINE
  5
244
330
1F
100
AcDbEntity
  8
0-A_文字
  6
JWW_DASHED1
 62
     3
370
     5
100
AcDbLine
 10
-15121.7723912557
 20
-970.6260957657349
 30
0.0
 11
-15434.2716400989
 21
-1283.125197323699
 31
0.0
  0
LINE
  5
245
330
1F
100
AcDbEntity
  8
0-A_文字
  6
JWW_DASHED1
 62
     3
370
     5
100
AcDbLine
 10
-15121.77326060616
 20
-1101.662210550244
 30
0.0
 11
-15434.27250944936
 21
-1414.161312108207
 31
0.0
  0
LINE
  5
246
330
1F
100
AcDbEntity
  8
0-A_文字
  6
JWW_DASHED1
 62
     3
370
     5
100
AcDbLine
 10
-15121.77329393319
 20
-1243.083966779126
 30
0.0
 11
-15434.27254277639
 21
-1555.58306833709
 31
0.0
  0
LINE
  5
247
330
1F
100
AcDbEntity
  8
0-A_文字
  6
Continuous
 62
     7
370
     5
100
AcDbLine
 10
-14073.68481474602
 20
1121.00050340124
 30
0.0
 11
-14273.68547458555
 21
1121.00050340124
 31
0.0
  0
TEXT
  5
248
330
1F
100
AcDbEntity
  8
0-A_文字
  6
Continuous
 62
     7
370
     0
100
AcDbText
 10
-15653.68514054179
 20
1013.300008521594
 30
0.0
 40
228.6
  1
12mm合板
 41
1.125
  7
ＭＳ ゴシック
100
AcDbText
  0
LINE
  5
249
330
1F
100
AcDbEntity
  8
0-A_文字
  6
Continuous
 62
     7
370
     5
100
AcDbLine
 10
-13460.18515786257
 20
1771.999830364922
 30
0.0
 11
-14073.68481474602
 21
1121.00050340124
 31
0.0
  0
LINE
  5
24A
330
1F
100
AcDbEntity
  8
0-A_文字
  6
Continuous
 62
     3
370
     5
100
AcDbLine
 10
-15434.26865730855
 20
3844.636570838396
 30
0.0
 11
-14346.76865730855
 21
3844.636570838396
 31
0.0
  0
LWPOLYLINE
  5
24B
330
1F
100
AcDbEntity
  8
0-A_文字
  6
Continuous
 62
     3
370
     5
100
AcDbPolyline
 90
        4
 70
     1
 43
10.0
 10
-15429.26865730855
 20
3844.636570838396
 42
0.4142135623731
 10
-15434.26865730855
 20
3849.636570838396
 42
0.4142135623731
 10
-15439.26865730855
 20
3844.636570838396
 42
0.4142135623731
 10
-15434.26865730855
 20
3839.636570838397
 42
0.4142135623731
  0
LWPOLYLINE
  5
24C
330
1F
100
AcDbEntity
  8
0-A_文字
  6
Continuous
 62
     3
370
     5
100
AcDbPolyline
 90
        4
 70
     1
 43
10.0
 10
-14341.76865730855
 20
3844.636570838396
 42
0.4142135623731
 10
-14346.76865730855
 20
3849.636570838396
 42
0.4142135623731
 10
-14351.76865730855
 20
3844.636570838396
 42
0.4142135623731
 10
-14346.76865730855
 20
3839.636570838397
 42
0.4142135623731
  0
LINE
  5
24D
330
1F
100
AcDbEntity
  8
0-A_文字
  6
Continuous
 62
     3
370
     5
100
AcDbLine
 10
-14346.76865730855
 20
3844.636570838396
 30
0.0
 11
-14346.76865730855
 21
3401.636713546669
 31
0.0
  0
TEXT
  5
24E
330
1F
100
AcDbEntity
  8
0-A_文字
  6
Continuous
 62
     7
370
     0
100
AcDbText
 10
-14315.51886350841
 20
3936.936570838397
 30
0.0
 40
228.6
  1
30
 41
1.083333333333333
  7
ＭＳ ゴシック
100
AcDbText
  0
TEXT
  5
24F
330
1F
100
AcDbEntity
  8
0-A_文字
  6
Continuous
 62
     7
370
     0
100
AcDbText
 10
-15184.41517635045
 20
4938.623943522319
 30
0.0
 40
228.6
  1
138
 41
1.111111111111111
  7
ＭＳ ゴシック
100
AcDbText
  0
TEXT
  5
250
330
1F
100
AcDbEntity
  8
0-A_文字
  6
Continuous
 62
     7
370
     0
100
AcDbText
 10
-15112.56578775104
 20
3914.77015598075
 30
0.0
 40
228.6
  1
43.5
 41
1.125
  7
ＭＳ ゴシック
100
AcDbText
  0
LINE
  5
251
330
1F
100
AcDbEntity
  8
0-3_仕上
  6
Continuous
 62
     7
370
     5
100
AcDbLine
 10
-4570.6085769401
 20
2859.56626493679
 30
0.0
 11
-4570.6085769401
 21
234.5662649367895
 31
0.0
  0
LINE
  5
252
330
1F
100
AcDbEntity
  8
0-A_文字
  6
Continuous
 62
     7
370
     5
100
AcDbLine
 10
-4570.6085769401
 20
2859.56626493679
 30
0.0
 11
-4570.6085769401
 21
234.5662649367895
 31
0.0
  0
LINE
  5
253
330
1F
100
AcDbEntity
  8
0-A_文字
  6
Continuous
 62
     7
370
     5
100
AcDbLine
 10
-4570.6085769401
 20
234.5662649367895
 30
0.0
 11
-1945.6085769401
 21
2859.56626493679
 31
0.0
  0
LINE
  5
254
330
1F
100
AcDbEntity
  8
0-A_文字
  6
Continuous
 62
     7
370
     5
100
AcDbLine
 10
-4570.6085769401
 20
2859.56626493679
 30
0.0
 11
-1945.6085769401
 21
234.5662649367895
 31
0.0
  0
LINE
  5
255
330
1F
100
AcDbEntity
  8
0-A_文字
  6
Continuous
 62
     7
370
     5
100
AcDbLine
 10
-1945.6085769401
 20
2859.56626493679
 30
0.0
 11
-1945.6085769401
 21
234.5662649367895
 31
0.0
  0
LINE
  5
256
330
1F
100
AcDbEntity
  8
0-1_通り芯
  6
JWW_CENTER1
 62
     3
370
     5
100
AcDbLine
 10
-3258.108577160736
 20
4285.188328650896
 30
0.0
 11
-3258.108577160736
 21
-1151.69133971376
 31
0.0
  0
LINE
  5
257
330
1F
100
AcDbEntity
  8
0-A_文字
  6
JWW_DASHED1
 62
     3
370
     5
100
AcDbLine
 10
4875.38171762797
 20
2859.56626493679
 30
0.0
 11
5187.880892828558
 21
3172.065440137381
 31
0.0
  0
LINE
  5
258
330
1F
100
AcDbEntity
  8
0-A_文字
  6
JWW_DASHED1
 62
     3
370
     5
100
AcDbLine
 10
4733.959961399084
 20
2859.56626493679
 30
0.0
 11
5046.459136599672
 21
3172.065440137381
 31
0.0
  0
LINE
  5
259
330
1F
100
AcDbEntity
  8
0-A_文字
  6
JWW_DASHED1
 62
     3
370
     5
100
AcDbLine
 10
4592.538205170199
 20
2859.56626493679
 30
0.0
 11
4905.039854769017
 21
3172.065440137381
 31
0.0
  0
LINE
  5
25A
330
1F
100
AcDbEntity
  8
0-A_文字
  6
JWW_DASHED1
 62
     3
370
     5
100
AcDbLine
 10
4451.116448941313
 20
2859.56626493679
 30
0.0
 11
4763.618098540131
 21
3172.065440137381
 31
0.0
  0
LINE
  5
25B
330
1F
100
AcDbEntity
  8
0-A_文字
  6
JWW_DASHED1
 62
     3
370
     5
100
AcDbLine
 10
4309.697167110658
 20
2859.56626493679
 30
0.0
 11
4622.196342311246
 21
3172.065440137381
 31
0.0
  0
LINE
  5
25C
330
1F
100
AcDbEntity
  8
0-A_文字
  6
JWW_DASHED1
 62
     3
370
     5
100
AcDbLine
 10
4168.275410881772
 20
2859.56626493679
 30
0.0
 11
4480.77458608236
 21
3172.065440137381
 31
0.0
  0
LINE
  5
25D
330
1F
100
AcDbEntity
  8
0-A_文字
  6
JWW_DASHED1
 62
     3
370
     5
100
AcDbLine
 10
4026.853654652886
 20
2859.56626493679
 30
0.0
 11
4339.352829853475
 21
3172.065440137381
 31
0.0
  0
LINE
  5
25E
330
1F
100
AcDbEntity
  8
0-A_文字
  6
JWW_DASHED1
 62
     3
370
     5
100
AcDbLine
 10
3885.431898424001
 20
2859.56626493679
 30
0.0
 11
4197.931073624589
 21
3172.065440137381
 31
0.0
  0
LINE
  5
25F
330
1F
100
AcDbEntity
  8
0-A_文字
  6
JWW_DASHED1
 62
     3
370
     5
100
AcDbLine
 10
3744.010142195115
 20
2859.56626493679
 30
0.0
 11
4056.511791793933
 21
3172.065440137381
 31
0.0
  0
LINE
  5
260
330
1F
100
AcDbEntity
  8
0-A_文字
  6
JWW_DASHED1
 62
     3
370
     5
100
AcDbLine
 10
3602.58838596623
 20
2859.56626493679
 30
0.0
 11
3915.090035565048
 21
3172.065440137381
 31
0.0
  0
LINE
  5
261
330
1F
100
AcDbEntity
  8
0-A_文字
  6
JWW_DASHED1
 62
     3
370
     5
100
AcDbLine
 10
3461.169104135568
 20
2859.56626493679
 30
0.0
 11
3773.668279336162
 21
3172.065440137381
 31
0.0
  0
LINE
  5
262
330
1F
100
AcDbEntity
  8
0-A_文字
  6
JWW_DASHED1
 62
     3
370
     5
100
AcDbLine
 10
3319.747347906683
 20
2859.56626493679
 30
0.0
 11
3632.246523107277
 21
3172.065440137381
 31
0.0
  0
LINE
  5
263
330
1F
100
AcDbEntity
  8
0-A_文字
  6
JWW_DASHED1
 62
     3
370
     5
100
AcDbLine
 10
3178.325591677798
 20
2859.56626493679
 30
0.0
 11
3490.824766878392
 21
3172.065440137381
 31
0.0
  0
LINE
  5
264
330
1F
100
AcDbEntity
  8
0-A_文字
  6
JWW_DASHED1
 62
     3
370
     5
100
AcDbLine
 10
3036.903835448912
 20
2859.56626493679
 30
0.0
 11
3349.403010649506
 21
3172.065440137381
 31
0.0
  0
LINE
  5
265
330
1F
100
AcDbEntity
  8
0-A_文字
  6
JWW_DASHED1
 62
     3
370
     5
100
AcDbLine
 10
2895.482079220032
 20
2859.56626493679
 30
0.0
 11
3207.983728818844
 21
3172.065440137381
 31
0.0
  0
LINE
  5
266
330
1F
100
AcDbEntity
  8
0-A_文字
  6
JWW_DASHED1
 62
     3
370
     5
100
AcDbLine
 10
2754.060322991147
 20
2859.56626493679
 30
0.0
 11
3066.561972589965
 21
3172.065440137381
 31
0.0
  0
LINE
  5
267
330
1F
100
AcDbEntity
  8
0-A_文字
  6
JWW_DASHED1
 62
     3
370
     5
100
AcDbLine
 10
2612.638566762261
 20
2859.56626493679
 30
0.0
 11
2925.140216361079
 21
3172.065440137381
 31
0.0
  0
LINE
  5
268
330
1F
100
AcDbEntity
  8
0-A_文字
  6
JWW_DASHED1
 62
     3
370
     5
100
AcDbLine
 10
2471.2192849316
 20
2859.56626493679
 30
0.0
 11
2783.718460132194
 21
3172.065440137381
 31
0.0
  0
LINE
  5
269
330
1F
100
AcDbEntity
  8
0-A_文字
  6
JWW_DASHED1
 62
     3
370
     5
100
AcDbLine
 10
2329.797528702714
 20
2859.56626493679
 30
0.0
 11
2642.296703903308
 21
3172.065440137381
 31
0.0
  0
LINE
  5
26A
330
1F
100
AcDbEntity
  8
0-A_文字
  6
JWW_DASHED1
 62
     3
370
     5
100
AcDbLine
 10
2188.375772473829
 20
2859.56626493679
 30
0.0
 11
2500.874947674423
 21
3172.065440137381
 31
0.0
  0
LINE
  5
26B
330
1F
100
AcDbEntity
  8
0-A_文字
  6
JWW_DASHED1
 62
     3
370
     5
100
AcDbLine
 10
2046.954016244943
 20
2859.56626493679
 30
0.0
 11
2359.453191445537
 21
3172.065440137381
 31
0.0
  0
LINE
  5
26C
330
1F
100
AcDbEntity
  8
0-A_文字
  6
JWW_DASHED1
 62
     3
370
     5
100
AcDbLine
 10
1905.532260016058
 20
2859.56626493679
 30
0.0
 11
2218.033909614875
 21
3172.065440137381
 31
0.0
  0
LINE
  5
26D
330
1F
100
AcDbEntity
  8
0-A_文字
  6
JWW_DASHED1
 62
     3
370
     5
100
AcDbLine
 10
1764.110503787173
 20
2859.56626493679
 30
0.0
 11
2076.61215338599
 21
3172.065440137381
 31
0.0
  0
LINE
  5
26E
330
1F
100
AcDbEntity
  8
0-A_文字
  6
JWW_DASHED1
 62
     3
370
     5
100
AcDbLine
 10
1622.691221956517
 20
2859.56626493679
 30
0.0
 11
1935.190397157105
 21
3172.065440137381
 31
0.0
  0
LINE
  5
26F
330
1F
100
AcDbEntity
  8
0-A_文字
  6
JWW_DASHED1
 62
     3
370
     5
100
AcDbLine
 10
1481.269465727631
 20
2859.56626493679
 30
0.0
 11
1793.768640928219
 21
3172.065440137381
 31
0.0
  0
LINE
  5
270
330
1F
100
AcDbEntity
  8
0-A_文字
  6
JWW_DASHED1
 62
     3
370
     5
100
AcDbLine
 10
1339.847709498746
 20
2859.56626493679
 30
0.0
 11
1652.34688469934
 21
3172.065440137381
 31
0.0
  0
LINE
  5
271
330
1F
100
AcDbEntity
  8
0-A_文字
  6
JWW_DASHED1
 62
     3
370
     5
100
AcDbLine
 10
1198.42595326986
 20
2859.56626493679
 30
0.0
 11
1510.925128470454
 21
3172.065440137381
 31
0.0
  0
LINE
  5
272
330
1F
100
AcDbEntity
  8
0-A_文字
  6
JWW_DASHED1
 62
     3
370
     5
100
AcDbLine
 10
2362.145336715808
 20
-77.9329102638016
 30
0.0
 11
2674.644511916396
 21
234.5662649367895
 31
0.0
  0
LINE
  5
273
330
1F
100
AcDbEntity
  8
0-A_文字
  6
JWW_DASHED1
 62
     3
370
     5
100
AcDbLine
 10
2220.723580486923
 20
-77.9329102638016
 30
0.0
 11
2533.22523008574
 21
234.5662649367895
 31
0.0
  0
LINE
  5
274
330
1F
100
AcDbEntity
  8
0-A_文字
  6
JWW_DASHED1
 62
     3
370
     5
100
AcDbLine
 10
2079.301824258037
 20
-77.9329102638016
 30
0.0
 11
2391.803473856855
 21
234.5662649367895
 31
0.0
  0
LINE
  5
275
330
1F
100
AcDbEntity
  8
0-A_文字
  6
JWW_DASHED1
 62
     3
370
     5
100
AcDbLine
 10
1937.882542427376
 20
-77.9329102638016
 30
0.0
 11
2250.381717627969
 21
234.5662649367895
 31
0.0
  0
LINE
  5
276
330
1F
100
AcDbEntity
  8
0-A_文字
  6
JWW_DASHED1
 62
     3
370
     5
100
AcDbLine
 10
1796.46078619849
 20
-77.9329102638016
 30
0.0
 11
2108.959961399084
 21
234.5662649367895
 31
0.0
  0
LINE
  5
277
330
1F
100
AcDbEntity
  8
0-A_文字
  6
JWW_DASHED1
 62
     3
370
     5
100
AcDbLine
 10
1655.039029969605
 20
-77.9329102638016
 30
0.0
 11
1967.538205170199
 21
234.5662649367895
 31
0.0
  0
LINE
  5
278
330
1F
100
AcDbEntity
  8
0-A_文字
  6
JWW_DASHED1
 62
     3
370
     5
100
AcDbLine
 10
1513.617273740719
 20
-77.9329102638016
 30
0.0
 11
1826.116448941313
 21
234.5662649367895
 31
0.0
  0
LINE
  5
279
330
1F
100
AcDbEntity
  8
0-A_文字
  6
JWW_DASHED1
 62
     3
370
     5
100
AcDbLine
 10
1372.19551751184
 20
-77.9329102638016
 30
0.0
 11
1684.697167110657
 21
234.5662649367895
 31
0.0
  0
LINE
  5
27A
330
1F
100
AcDbEntity
  8
0-A_文字
  6
JWW_DASHED1
 62
     3
370
     5
100
AcDbLine
 10
1230.773761282954
 20
-77.9329102638016
 30
0.0
 11
1543.275410881772
 21
234.5662649367895
 31
0.0
  0
LINE
  5
27B
330
1F
100
AcDbEntity
  8
0-A_文字
  6
JWW_DASHED1
 62
     3
370
     5
100
AcDbLine
 10
5158.225230085741
 20
2859.56626493679
 30
0.0
 11
5271.035320989002
 21
2972.376355840052
 31
0.0
  0
LINE
  5
27C
330
1F
100
AcDbEntity
  8
0-A_文字
  6
JWW_DASHED1
 62
     3
370
     5
100
AcDbLine
 10
5016.803473856855
 20
2859.56626493679
 30
0.0
 11
5271.035320989002
 21
3113.798112068937
 31
0.0
  0
LINE
  5
27D
330
1F
100
AcDbEntity
  8
0-A_文字
  6
Continuous
 62
     3
370
     5
100
AcDbLine
 10
4043.470776601489
 20
5900.740251423278
 30
0.0
 11
4043.470776601489
 21
4242.524754432146
 31
0.0
  0
LWPOLYLINE
  5
27E
330
1F
100
AcDbEntity
  8
0-A_文字
  6
Continuous
 62
     3
370
     5
100
AcDbPolyline
 90
        4
 70
     1
 43
10.0
 10
4048.470776601489
 20
5900.740251423278
 42
0.4142135623731
 10
4043.470776601489
 20
5905.740251423278
 42
0.4142135623731
 10
4038.470776601489
 20
5900.740251423278
 42
0.4142135623731
 10
4043.470776601489
 20
5895.740251423278
 42
0.4142135623731
  0
LINE
  5
27F
330
1F
100
AcDbEntity
  8
0-A_文字
  6
JWW_CENTER1
 62
     3
370
     5
100
AcDbLine
 10
4043.470776601489
 20
4285.188328650896
 30
0.0
 11
4043.470776601489
 21
-1151.69133971376
 31
0.0
  0
LINE
  5
280
330
1F
100
AcDbEntity
  8
0-A_文字
  6
Continuous
 62
     3
370
     5
100
AcDbLine
 10
-16746.768038709
 20
5900.740251423278
 30
0.0
 11
4043.470776601489
 21
5900.740251423278
 31
0.0
  0
LINE
  5
281
330
1F
100
AcDbEntity
  8
0-A_文字
  6
Continuous
 62
     7
370
     5
100
AcDbLine
 10
2730.970776822125
 20
2859.56626493679
 30
0.0
 11
2730.970776822125
 21
234.5662649367895
 31
0.0
  0
LINE
  5
282
330
1F
100
AcDbEntity
  8
0-A_文字
  6
Continuous
 62
     7
370
     5
100
AcDbLine
 10
2730.970776822125
 20
234.5662649367895
 30
0.0
 11
5355.970776822125
 21
2859.56626493679
 31
0.0
  0
LINE
  5
283
330
1F
100
AcDbEntity
  8
0-A_文字
  6
Continuous
 62
     7
370
     5
100
AcDbLine
 10
2730.970776822125
 20
2859.56626493679
 30
0.0
 11
5355.970776822125
 21
234.5662649367895
 31
0.0
  0
LINE
  5
284
330
1F
100
AcDbEntity
  8
0-3_仕上
  6
Continuous
 62
     7
370
     5
100
AcDbLine
 10
2730.970776822125
 20
2859.56626493679
 30
0.0
 11
2730.970776822125
 21
-3487.9578344425
 31
0.0
  0
LINE
  5
285
330
1F
100
AcDbEntity
  8
0-A_文字
  6
Continuous
 62
     7
370
     5
100
AcDbLine
 10
5355.970776822125
 20
2859.56626493679
 30
0.0
 11
5355.970776822125
 21
-3423.146753297728
 31
0.0
  0
LINE
  5
286
330
1F
100
AcDbEntity
  8
0-3_仕上
  6
Continuous
 62
     7
370
     5
100
AcDbLine
 10
2418.470776822125
 20
-77.9329102638016
 30
0.0
 11
2418.470776822125
 21
-3487.9578344425
 31
0.0
  0
LINE
  5
287
330
1F
100
AcDbEntity
  8
0-A_文字
  6
JWW_DASHED1
 62
     3
370
     5
100
AcDbLine
 10
2418.470776822125
 20
-163.0292263863709
 30
0.0
 11
2730.970776822125
 21
149.470773613632
 31
0.0
  0
LINE
  5
288
330
1F
100
AcDbEntity
  8
0-A_文字
  6
JWW_DASHED1
 62
     3
370
     5
100
AcDbLine
 10
2418.470776822125
 20
-304.4509826152577
 30
0.0
 11
2730.970776822125
 21
8.049017384745127
 31
0.0
  0
LINE
  5
289
330
1F
100
AcDbEntity
  8
0-A_文字
  6
JWW_DASHED1
 62
     3
370
     5
100
AcDbLine
 10
2418.470776822125
 20
-445.8727388441446
 30
0.0
 11
2730.970776822125
 21
-133.3727388441417
 31
0.0
  0
LINE
  5
28A
330
1F
100
AcDbEntity
  8
0-A_文字
  6
JWW_DASHED1
 62
     3
370
     5
100
AcDbLine
 10
2418.470776822125
 20
-587.2879875527929
 30
0.0
 11
2730.970776822125
 21
-274.7904619379575
 31
0.0
  0
LINE
  5
28B
330
1F
100
AcDbEntity
  8
0-A_文字
  6
JWW_DASHED1
 62
     3
370
     5
100
AcDbLine
 10
2418.470776822125
 20
-728.7086239996114
 30
0.0
 11
2730.970776822125
 21
-416.2110983847768
 31
0.0
  0
LINE
  5
28C
330
1F
100
AcDbEntity
  8
0-A_文字
  6
JWW_DASHED1
 62
     3
370
     5
100
AcDbLine
 10
2418.470776822125
 20
-870.135533132575
 30
0.0
 11
2730.970776822125
 21
-557.6355331325722
 31
0.0
  0
LINE
  5
28D
330
1F
100
AcDbEntity
  8
0-A_文字
  6
JWW_DASHED1
 62
     3
370
     5
100
AcDbLine
 10
2418.470776822125
 20
-1011.557289361461
 30
0.0
 11
2730.970776822125
 21
-699.0572893614583
 31
0.0
  0
LINE
  5
28E
330
1F
100
AcDbEntity
  8
0-A_文字
  6
JWW_DASHED1
 62
     3
370
     5
100
AcDbLine
 10
2418.470776822125
 20
-1152.979045590349
 30
0.0
 11
2730.970776822125
 21
-840.4790455903459
 31
0.0
  0
LINE
  5
28F
330
1F
100
AcDbEntity
  8
0-A_文字
  6
JWW_DASHED1
 62
     3
370
     5
100
AcDbLine
 10
2418.470776822125
 20
-1294.400801819235
 30
0.0
 11
2730.970776822125
 21
-981.9008018192321
 31
0.0
  0
LINE
  5
290
330
1F
100
AcDbEntity
  8
0-A_文字
  6
JWW_DASHED1
 62
     3
370
     5
100
AcDbLine
 10
2418.470776822125
 20
-1435.809331855072
 30
0.0
 11
2730.970776822125
 21
-1123.311806240237
 31
0.0
  0
LINE
  5
291
330
1F
100
AcDbEntity
  8
0-A_文字
  6
JWW_DASHED1
 62
     3
370
     5
100
AcDbLine
 10
2418.470776822125
 20
-1577.229968301891
 30
0.0
 11
2730.970776822125
 21
-1264.732442687056
 31
0.0
  0
LINE
  5
292
330
1F
100
AcDbEntity
  8
0-A_文字
  6
JWW_DASHED1
 62
     3
370
     5
100
AcDbLine
 10
2418.470776822125
 20
-1718.663596107636
 30
0.0
 11
2730.970776822125
 21
-1406.163596107639
 31
0.0
  0
LINE
  5
293
330
1F
100
AcDbEntity
  8
0-A_文字
  6
JWW_DASHED1
 62
     3
370
     5
100
AcDbLine
 10
2418.470776822125
 20
-1860.08535233652
 30
0.0
 11
2730.970776822125
 21
-1547.585352336523
 31
0.0
  0
LINE
  5
294
330
1F
100
AcDbEntity
  8
0-A_文字
  6
JWW_DASHED1
 62
     3
370
     5
100
AcDbLine
 10
2418.470776822125
 20
-2001.507108565404
 30
0.0
 11
2730.970776822125
 21
-1689.007108565407
 31
0.0
  0
LINE
  5
295
330
1F
100
AcDbEntity
  8
0-A_文字
  6
JWW_DASHED1
 62
     3
370
     5
100
AcDbLine
 10
2418.470776822125
 20
-2142.928864794289
 30
0.0
 11
2730.970776822125
 21
-1830.428864794292
 31
0.0
  0
LINE
  5
296
330
1F
100
AcDbEntity
  8
0-A_文字
  6
JWW_DASHED1
 62
     3
370
     5
100
AcDbLine
 10
2418.470776822125
 20
-2284.350621023214
 30
0.0
 11
2730.970776822125
 21
-1971.850621023211
 31
0.0
  0
LINE
  5
297
330
1F
100
AcDbEntity
  8
0-A_文字
  6
JWW_DASHED1
 62
     3
370
     5
100
AcDbLine
 10
2418.470776822125
 20
-2425.751312604173
 30
0.0
 11
2730.970776822125
 21
-2113.253786989338
 31
0.0
  0
LINE
  5
298
330
1F
100
AcDbEntity
  8
0-A_文字
  6
JWW_DASHED1
 62
     3
370
     5
100
AcDbLine
 10
2418.470776822125
 20
-2567.171949050989
 30
0.0
 11
2730.970776822125
 21
-2254.674423436155
 31
0.0
  0
LINE
  5
299
330
1F
100
AcDbEntity
  8
0-A_文字
  6
JWW_DASHED1
 62
     3
370
     5
100
AcDbLine
 10
2418.470776822125
 20
-2708.613415311604
 30
0.0
 11
2730.970776822125
 21
-2396.113415311605
 31
0.0
  0
LINE
  5
29A
330
1F
100
AcDbEntity
  8
0-A_文字
  6
JWW_DASHED1
 62
     3
370
     5
100
AcDbLine
 10
2418.470776822125
 20
-2850.035171540462
 30
0.0
 11
2730.970776822125
 21
-2537.535171540467
 31
0.0
  0
LINE
  5
29B
330
1F
100
AcDbEntity
  8
0-3_仕上
  6
Continuous
 62
     7
370
     5
100
AcDbLine
 10
368.4707768221251
 20
-2127.932910263802
 30
0.0
 11
368.4707768221251
 21
-3487.9578344425
 31
0.0
  0
LINE
  5
29C
330
1F
100
AcDbEntity
  8
0-3_仕上
  6
Continuous
 62
     7
370
     5
100
AcDbLine
 10
368.4707768221251
 20
-2127.932910263802
 30
0.0
 11
2418.470776822125
 21
-77.9329102638016
 31
0.0
  0
LINE
  5
29D
330
1F
100
AcDbEntity
  8
0-A_文字
  6
Continuous
 62
     3
370
     5
100
AcDbLine
 10
6244.629807311137
 20
3172.065440137381
 30
0.0
 11
6244.629807311137
 21
2859.56626493679
 31
0.0
  0
LINE
  5
29E
330
1F
100
AcDbEntity
  8
0-A_文字
  6
Continuous
 62
     3
370
     5
100
AcDbLine
 10
6244.629807311137
 20
3172.065440137381
 30
0.0
 11
5805.949233302595
 21
3172.065440137381
 31
0.0
  0
LINE
  5
29F
330
1F
100
AcDbEntity
  8
0-A_文字
  6
Continuous
 62
     3
370
     5
100
AcDbLine
 10
6244.629807311137
 20
2859.56626493679
 30
0.0
 11
5805.949233302595
 21
2859.56626493679
 31
0.0
  0
LINE
  5
2A0
330
1F
100
AcDbEntity
  8
0-A_文字
  6
Continuous
 62
     3
370
     5
100
AcDbLine
 10
6244.629807311137
 20
2859.56626493679
 30
0.0
 11
6244.629807311137
 21
234.5662649367895
 31
0.0
  0
LINE
  5
2A1
330
1F
100
AcDbEntity
  8
0-A_文字
  6
Continuous
 62
     3
370
     5
100
AcDbLine
 10
6244.629807311137
 20
234.5662649367895
 30
0.0
 11
5805.949233302595
 21
234.5662649367895
 31
0.0
  0
LINE
  5
2A2
330
1F
100
AcDbEntity
  8
0-A_文字
  6
Continuous
 62
     3
370
     5
100
AcDbLine
 10
6244.629807311137
 20
234.5662649367895
 30
0.0
 11
6244.629807311137
 21
-77.9329102638016
 31
0.0
  0
LINE
  5
2A3
330
1F
100
AcDbEntity
  8
0-A_文字
  6
Continuous
 62
     3
370
     5
100
AcDbLine
 10
6244.629807311137
 20
-77.9329102638016
 30
0.0
 11
5805.949233302595
 21
-77.9329102638016
 31
0.0
  0
LINE
  5
2A4
330
1F
100
AcDbEntity
  8
0-A_文字
  6
Continuous
 62
     3
370
     5
100
AcDbLine
 10
7174.716510224986
 20
-77.9329102638016
 30
0.0
 11
7174.716510224986
 21
3172.065440137381
 31
0.0
  0
LINE
  5
2A5
330
1F
100
AcDbEntity
  8
0-A_文字
  6
Continuous
 62
     3
370
     5
100
AcDbLine
 10
7174.716510224986
 20
-77.9329102638016
 30
0.0
 11
6244.629807311137
 21
-77.9329102638016
 31
0.0
  0
LINE
  5
2A6
330
1F
100
AcDbEntity
  8
0-A_文字
  6
Continuous
 62
     3
370
     5
100
AcDbLine
 10
7174.716510224986
 20
3172.065440137381
 30
0.0
 11
6244.629807311137
 21
3172.065440137381
 31
0.0
  0
TEXT
  5
2A7
330
1F
100
AcDbEntity
  8
0-A_文字
  6
Continuous
 62
     7
370
     0
100
AcDbText
 10
6552.328487632086
 20
2765.816759816435
 30
0.0
 40
228.6
  1
12.5
 50
90.0
 41
1.125
  7
ＭＳ ゴシック
100
AcDbText
  0
TEXT
  5
2A8
330
1F
100
AcDbEntity
  8
0-A_文字
  6
Continuous
 62
     7
370
     0
100
AcDbText
 10
6552.328487632086
 20
-171.683652583269
 30
0.0
 40
228.6
  1
12.5
 50
90.0
 41
1.125
  7
ＭＳ ゴシック
100
AcDbText
  0
TEXT
  5
2A9
330
1F
100
AcDbEntity
  8
0-A_文字
  6
Continuous
 62
     7
370
     0
100
AcDbText
 10
6167.673385752862
 20
1341.788538479865
 30
0.0
 40
228.6
  1
105
 50
90.0
 41
1.111111111111111
  7
ＭＳ ゴシック
100
AcDbText
  0
TEXT
  5
2AA
330
1F
100
AcDbEntity
  8
0-A_文字
  6
Continuous
 62
     7
370
     0
100
AcDbText
 10
7083.020098432336
 20
1325.145736009425
 30
0.0
 40
228.6
  1
130
 50
90.0
 41
1.111111111111111
  7
ＭＳ ゴシック
100
AcDbText
  0
LWPOLYLINE
  5
2AB
330
1F
100
AcDbEntity
  8
0-A_文字
  6
Continuous
 62
     3
370
     5
100
AcDbPolyline
 90
        4
 70
     1
 43
10.0
 10
6249.629807311137
 20
3172.065440137381
 42
0.4142135623731
 10
6244.629807311137
 20
3177.065440137381
 42
0.4142135623731
 10
6239.629807311138
 20
3172.065440137381
 42
0.4142135623731
 10
6244.629807311137
 20
3167.06544013738
 42
0.4142135623731
  0
LWPOLYLINE
  5
2AC
330
1F
100
AcDbEntity
  8
0-A_文字
  6
Continuous
 62
     3
370
     5
100
AcDbPolyline
 90
        4
 70
     1
 43
10.0
 10
6249.629807311137
 20
2859.56626493679
 42
0.4142135623731
 10
6244.629807311137
 20
2864.56626493679
 42
0.4142135623731
 10
6239.629807311138
 20
2859.56626493679
 42
0.4142135623731
 10
6244.629807311137
 20
2854.56626493679
 42
0.4142135623731
  0
LWPOLYLINE
  5
2AD
330
1F
100
AcDbEntity
  8
0-A_文字
  6
Continuous
 62
     3
370
     5
100
AcDbPolyline
 90
        4
 70
     1
 43
10.0
 10
6249.629807311137
 20
234.5662649367895
 42
0.4142135623731
 10
6244.629807311137
 20
239.5662649367895
 42
0.4142135623731
 10
6239.629807311138
 20
234.5662649367895
 42
0.4142135623731
 10
6244.629807311137
 20
229.5662649367896
 42
0.4142135623731
  0
LWPOLYLINE
  5
2AE
330
1F
100
AcDbEntity
  8
0-A_文字
  6
Continuous
 62
     3
370
     5
100
AcDbPolyline
 90
        4
 70
     1
 43
10.0
 10
6249.629807311137
 20
-77.9329102638016
 42
0.4142135623731
 10
6244.629807311137
 20
-72.9329102638016
 42
0.4142135623731
 10
6239.629807311138
 20
-77.9329102638016
 42
0.4142135623731
 10
6244.629807311137
 20
-82.9329102638016
 42
0.4142135623731
  0
LWPOLYLINE
  5
2AF
330
1F
100
AcDbEntity
  8
0-A_文字
  6
Continuous
 62
     3
370
     5
100
AcDbPolyline
 90
        4
 70
     1
 43
10.0
 10
7179.716510224986
 20
-77.9329102638016
 42
0.4142135623731
 10
7174.716510224986
 20
-72.9329102638016
 42
0.4142135623731
 10
7169.716510224987
 20
-77.9329102638016
 42
0.4142135623731
 10
7174.716510224986
 20
-82.9329102638016
 42
0.4142135623731
  0
LWPOLYLINE
  5
2B0
330
1F
100
AcDbEntity
  8
0-A_文字
  6
Continuous
 62
     3
370
     5
100
AcDbPolyline
 90
        4
 70
     1
 43
10.0
 10
7179.716510224986
 20
3172.065440137381
 42
0.4142135623731
 10
7174.716510224986
 20
3177.065440137381
 42
0.4142135623731
 10
7169.716510224987
 20
3172.065440137381
 42
0.4142135623731
 10
7174.716510224986
 20
3167.06544013738
 42
0.4142135623731
  0
LINE
  5
2B1
330
1F
100
AcDbEntity
  8
0-A_文字
  6
JWW_CENTER1
 62
     3
370
     5
100
AcDbLine
 10
-19027.62430939227
 20
1547.06626493679
 30
0.0
 11
5271.035320989003
 21
1547.06626493679
 31
0.0
  0
LINE
  5
2B2
330
1F
100
AcDbEntity
  8
0-A_文字
  6
Continuous
 62
     3
370
     5
100
AcDbLine
 10
-3258.108577160735
 20
5900.740251423278
 30
0.0
 11
-3258.108577160735
 21
4242.524754432146
 31
0.0
  0
LWPOLYLINE
  5
2B3
330
1F
100
AcDbEntity
  8
0-A_文字
  6
Continuous
 62
     3
370
     5
100
AcDbPolyline
 90
        4
 70
     1
 43
10.0
 10
-3253.108577160736
 20
5900.740251423278
 42
0.4142135623731
 10
-3258.108577160735
 20
5905.740251423278
 42
0.4142135623731
 10
-3263.108577160735
 20
5900.740251423278
 42
0.4142135623731
 10
-3258.108577160735
 20
5895.740251423278
 42
0.4142135623731
  0
TEXT
  5
2B4
330
1F
100
AcDbEntity
  8
0-A_文字
  6
Continuous
 62
     7
370
     0
100
AcDbText
 10
92.15783823413943
 20
5939.851840611833
 30
0.0
 40
228.6
  1
910
 41
1.111111111111111
  7
ＭＳ ゴシック
100
AcDbText
  0
LINE
  5
2B5
330
1F
100
AcDbEntity
  8
0-A_文字
  6
Continuous
 62
     7
370
     5
100
AcDbLine
 10
-12796.76865730855
 20
522.0660999769066
 30
0.0
 11
-13296.76865730855
 21
522.0660999769066
 31
0.0
  0
ARC
  5
2B6
330
1F
100
AcDbEntity
  8
0-A_文字
  6
Continuous
 62
     7
370
     5
100
AcDbCircle
 10
-12796.76865730855
 20
497.0660999769066
 30
0.0
 40
25.0
100
AcDbArc
 50
0.0
 51
90.00000000000001
  0
ARC
  5
2B7
330
1F
100
AcDbEntity
  8
0-A_文字
  6
Continuous
 62
     7
370
     5
100
AcDbCircle
 10
-12796.76865730855
 20
-990.4339000230934
 30
0.0
 40
25.0
100
AcDbArc
 50
270.0
 51
0.0
  0
LINE
  5
2B8
330
1F
100
AcDbEntity
  8
0-A_文字
  6
Continuous
 62
     3
370
     5
100
AcDbLine
 10
-13296.76865730855
 20
346.5580235410968
 30
0.0
 11
-13121.26058087274
 21
522.0660999769066
 31
0.0
  0
LINE
  5
2B9
330
1F
100
AcDbEntity
  8
0-A_文字
  6
Continuous
 62
     3
370
     5
100
AcDbLine
 10
-13296.76865730855
 20
487.9773053717557
 30
0.0
 11
-13262.68024931164
 21
522.0660999769066
 31
0.0
  0
LINE
  5
2BA
330
1F
100
AcDbEntity
  8
0-A_文字
  6
Continuous
 62
     3
370
     5
100
AcDbLine
 10
-13296.76865730855
 20
205.1362673122114
 30
0.0
 11
-12979.83882464386
 21
522.0660999769066
 31
0.0
  0
LINE
  5
2BB
330
1F
100
AcDbEntity
  8
0-A_文字
  6
Continuous
 62
     3
370
     5
100
AcDbLine
 10
-13296.76865730855
 20
63.71451108332593
 30
0.0
 11
-12838.41706841498
 21
522.0660999769066
 31
0.0
  0
LINE
  5
2BC
330
1F
100
AcDbEntity
  8
0-A_文字
  6
Continuous
 62
     7
370
     5
100
AcDbLine
 10
-5358.107092301162
 20
447.0656050972636
 30
0.0
 11
-12771.76865730855
 21
447.0656050972636
 31
0.0
  0
LINE
  5
2BD
330
1F
100
AcDbEntity
  8
0-A_文字
  6
Continuous
 62
     7
370
     5
100
AcDbLine
 10
-13296.76865730855
 20
3172.065440137381
 30
0.0
 11
-13296.76865730855
 21
-1015.433900023093
 31
0.0
  0
LINE
  5
2BE
330
1F
100
AcDbEntity
  8
0-A_文字
  6
Continuous
 62
     7
370
     5
100
AcDbLine
 10
-12796.76865730855
 20
-1015.433900023093
 30
0.0
 11
-13296.76865730855
 21
-1015.433900023093
 31
0.0
  0
LINE
  5
2BF
330
1F
100
AcDbEntity
  8
0-A_文字
  6
Continuous
 62
     3
370
     5
100
AcDbLine
 10
-13296.76865730855
 20
-77.70724514555951
 30
0.0
 11
-12771.76865730855
 21
447.2927548544476
 31
0.0
  0
LINE
  5
2C0
330
1F
100
AcDbEntity
  8
0-A_文字
  6
Continuous
 62
     3
370
     5
100
AcDbLine
 10
-13296.76865730855
 20
-360.5507576033304
 30
0.0
 11
-12771.76865730855
 21
164.4492423966767
 31
0.0
  0
LINE
  5
2C1
330
1F
100
AcDbEntity
  8
0-A_文字
  6
Continuous
 62
     3
370
     5
100
AcDbLine
 10
-13296.76865730855
 20
-643.3942700611012
 30
0.0
 11
-12771.76865730855
 21
-118.3942700610949
 31
0.0
  0
LINE
  5
2C2
330
1F
100
AcDbEntity
  8
0-A_文字
  6
Continuous
 62
     3
370
     5
100
AcDbLine
 10
-13296.76865730855
 20
-926.2377825188721
 30
0.0
 11
-12771.76865730855
 21
-401.2377825188657
 31
0.0
  0
LINE
  5
2C3
330
1F
100
AcDbEntity
  8
0-A_文字
  6
Continuous
 62
     3
370
     5
100
AcDbLine
 10
-12961.69950612612
 20
-1015.433900023093
 30
0.0
 11
-12771.76865730855
 21
-825.50305120552
 31
0.0
  0
LINE
  5
2C4
330
1F
100
AcDbEntity
  8
0-A_文字
  6
Continuous
 62
     3
370
     5
100
AcDbLine
 10
-13103.12126235501
 20
-1015.433900023093
 30
0.0
 11
-12771.76865730855
 21
-684.0812949766366
 31
0.0
  0
LINE
  5
2C5
330
1F
100
AcDbEntity
  8
0-A_文字
  6
Continuous
 62
     3
370
     5
100
AcDbLine
 10
-13244.54301858389
 20
-1015.433900023093
 30
0.0
 11
-12771.76865730855
 21
-542.6595387477491
 31
0.0
  0
LINE
  5
2C6
330
1F
100
AcDbEntity
  8
0-A_文字
  6
Continuous
 62
     3
370
     5
100
AcDbLine
 10
-13296.76865730855
 20
-784.8160262899881
 30
0.0
 11
-12771.76865730855
 21
-259.8160262899782
 31
0.0
  0
LINE
  5
2C7
330
1F
100
AcDbEntity
  8
0-A_文字
  6
Continuous
 62
     3
370
     5
100
AcDbLine
 10
-13296.76865730855
 20
-501.9725138322173
 30
0.0
 11
-12771.76865730855
 21
23.02748616779269
 31
0.0
  0
LINE
  5
2C8
330
1F
100
AcDbEntity
  8
0-A_文字
  6
Continuous
 62
     3
370
     5
100
AcDbLine
 10
-13296.76865730855
 20
-219.1290013744464
 30
0.0
 11
-12771.76865730855
 21
305.8709986255636
 31
0.0
  0
TEXT
  5
2C9
330
1F
100
AcDbEntity
  8
0-A_文字
  6
Continuous
 62
     7
370
     0
100
AcDbText
 10
-10061.99366342856
 20
6009.501758131667
 30
0.0
 40
228.6
  1
1,820
 41
1.133333333333333
  7
ＭＳ ゴシック
100
AcDbText
  0
LWPOLYLINE
  5
2CA
330
1F
100
AcDbEntity
  8
0-A_文字
  6
Continuous
 62
     3
370
     5
100
AcDbPolyline
 90
        4
 70
     1
 43
10.0
 10
-12766.76865730855
 20
3844.636570838396
 42
0.4142135623731
 10
-12771.76865730855
 20
3849.636570838396
 42
0.4142135623731
 10
-12776.76865730855
 20
3844.636570838396
 42
0.4142135623731
 10
-12771.76865730855
 20
3839.636570838397
 42
0.4142135623731
  0
LINE
  5
2CB
330
1F
100
AcDbEntity
  8
0-A_文字
  6
Continuous
 62
     3
370
     5
100
AcDbLine
 10
-12771.76865730855
 20
3844.636570838396
 30
0.0
 11
-12771.76865730855
 21
3305.125686519582
 31
0.0
  0
TEXT
  5
2CC
330
1F
100
AcDbEntity
  8
0-A_文字
  6
Continuous
 62
     7
370
     0
100
AcDbText
 10
-13149.17127071823
 20
3553.792297787606
 30
0.0
 40
228.6
  1
21
 41
1.083333333333333
  7
ＭＳ ゴシック
100
AcDbText
  0
TEXT
  5
2CD
330
1F
100
AcDbEntity
  8
0-A_文字
  6
Continuous
 62
     7
370
     0
100
AcDbText
 10
-10903.80510354483
 20
3934.78400934135
 30
0.0
 40
228.6
  1
枠内寸法＝1,580
 41
1.155555555555555
  7
ＭＳ ゴシック
100
AcDbText
  0
TEXT
  5
2CE
330
1F
100
AcDbEntity
  8
0-A_文字
  6
Continuous
 62
     7
370
     0
100
AcDbText
 10
-10046.1883696845
 20
4979.890639408917
 30
0.0
 40
228.6
  1
1,610
 41
1.133333333333333
  7
ＭＳ ゴシック
100
AcDbText
  0
LINE
  5
2CF
330
1F
100
AcDbEntity
  8
0-B_寸法
  6
Continuous
 62
     3
370
     5
100
AcDbLine
 10
-5058.108576940097
 20
4887.590474449037
 30
0.0
 11
-3258.108577160735
 21
4887.590474449037
 31
0.0
  0
LWPOLYLINE
  5
2D0
330
1F
100
AcDbEntity
  8
0-B_寸法
  6
Continuous
 62
     3
370
     5
100
AcDbPolyline
 90
        4
 70
     1
 43
10.0
 10
-5053.108576940097
 20
4887.590474449037
 42
0.4142135623731
 10
-5058.108576940097
 20
4892.590474449036
 42
0.4142135623731
 10
-5063.108576940097
 20
4887.590474449037
 42
0.4142135623731
 10
-5058.108576940097
 20
4882.590474449037
 42
0.4142135623731
  0
LWPOLYLINE
  5
2D1
330
1F
100
AcDbEntity
  8
0-B_寸法
  6
Continuous
 62
     3
370
     5
100
AcDbPolyline
 90
        4
 70
     1
 43
10.0
 10
-3253.108577160736
 20
4887.590474449037
 42
0.4142135623731
 10
-3258.108577160735
 20
4892.590474449036
 42
0.4142135623731
 10
-3263.108577160735
 20
4887.590474449037
 42
0.4142135623731
 10
-3258.108577160735
 20
4882.590474449037
 42
0.4142135623731
  0
LINE
  5
2D2
330
1F
100
AcDbEntity
  8
0-B_寸法
  6
Continuous
 62
     3
370
     5
100
AcDbLine
 10
-5058.108576940097
 20
4887.590474449037
 30
0.0
 11
-5058.108576940097
 21
3651.81855266441
 31
0.0
  0
LINE
  5
2D3
330
1F
100
AcDbEntity
  8
0-B_寸法
  6
Continuous
 62
     3
370
     5
100
AcDbLine
 10
-3258.108577160735
 20
4887.590474449037
 30
0.0
 11
-3258.108577160735
 21
3651.81855266441
 31
0.0
  0
TEXT
  5
2D4
330
1F
100
AcDbEntity
  8
0-B_寸法
  6
Continuous
 62
     7
370
     0
100
AcDbText
 10
-4320.608577050416
 20
4979.890474449037
 30
0.0
 40
228.6
  1
72
 41
1.083333333333333
  7
ＭＳ ゴシック
100
AcDbText
  0
LINE
  5
2D5
330
1F
100
AcDbEntity
  8
0-3_仕上
  6
Continuous
 62
     7
370
     5
100
AcDbLine
 10
-9177.438617124326
 20
1024.183769600337
 30
0.0
 11
-9177.438617124326
 21
-1778.822174208414
 31
0.0
  0
LINE
  5
2D6
330
1F
100
AcDbEntity
  8
0-3_仕上
  6
Continuous
 62
     7
370
     5
100
AcDbLine
 10
-13296.76865730855
 20
-1152.934394902736
 30
0.0
 11
-13296.76865730855
 21
-1902.934394902736
 31
0.0
  0
LINE
  5
2D7
330
1F
100
AcDbEntity
  8
0-0_補助線
  6
JWW_HOJO
 62
     3
370
     5
100
AcDbLine
 10
-10052.43861712433
 20
1024.183769600337
 30
0.0
 11
-10052.43861712433
 21
-1778.822174208414
 31
0.0
  0
LINE
  5
2D8
330
1F
100
AcDbEntity
  8
0-A_文字
  6
Continuous
 62
     7
370
     5
100
AcDbLine
 10
-8302.438617124326
 20
-1902.934394902736
 30
0.0
 11
-8302.438617124326
 21
-1152.934394902736
 31
0.0
  0
LINE
  5
2D9
330
1F
100
AcDbEntity
  8
0-3_仕上
  6
Continuous
 62
     7
370
     5
100
AcDbLine
 10
-10052.43861712433
 20
-1052.934394902736
 30
0.0
 11
-10052.43861712433
 21
-302.9343949027364
 31
0.0
  0
LINE
  5
2DA
330
1F
100
AcDbEntity
  8
0-3_仕上
  6
Continuous
 62
     7
370
     5
100
AcDbLine
 10
-8302.438617124326
 20
-1152.934394902736
 30
0.0
 11
-13296.76865730855
 21
-1152.934394902736
 31
0.0
  0
LINE
  5
2DB
330
1F
100
AcDbEntity
  8
0-3_仕上
  6
Continuous
 62
     7
370
     5
100
AcDbLine
 10
-8302.438617124326
 20
-1902.934394902736
 30
0.0
 11
-13296.76865730855
 21
-1902.934394902736
 31
0.0
  0
LINE
  5
2DC
330
1F
100
AcDbEntity
  8
0-3_仕上
  6
Continuous
 62
     7
370
     5
100
AcDbLine
 10
-4833.107092301162
 20
-302.9343949027364
 30
0.0
 11
-4833.107092301162
 21
-1052.934394902736
 31
0.0
  0
LINE
  5
2DD
330
1F
100
AcDbEntity
  8
0-A_文字
  6
Continuous
 62
     7
370
     5
100
AcDbLine
 10
-4833.107092301162
 20
-302.9343949027364
 30
0.0
 11
-10052.43861712433
 21
-302.9343949027364
 31
0.0
  0
LINE
  5
2DE
330
1F
100
AcDbEntity
  8
0-A_文字
  6
Continuous
 62
     7
370
     5
100
AcDbLine
 10
-4833.107092301162
 20
-1052.934394902736
 30
0.0
 11
-10052.43861712433
 21
-1052.934394902736
 31
0.0
  0
LINE
  5
2DF
330
1F
100
AcDbEntity
  8
0-A_文字
  6
JWW_DASHED1
 62
     7
370
     5
100
AcDbLine
 10
-4833.107092301162
 20
-302.9343949027364
 30
0.0
 11
593.4707768221251
 21
-302.9343949027364
 31
0.0
  0
LINE
  5
2E0
330
1F
100
AcDbEntity
  8
0-E
  6
JWW_DASHED1
 62
     7
370
     5
100
AcDbLine
 10
-8302.438617124326
 20
-1902.934394902736
 30
0.0
 11
593.4707768221251
 21
-1902.934394902736
 31
0.0
  0
LINE
  5
2E1
330
1F
100
AcDbEntity
  8
0-A_文字
  6
JWW_DASHED1
 62
     7
370
     5
100
AcDbLine
 10
-4833.107092301162
 20
-1052.934394902736
 30
0.0
 11
593.4707768221251
 21
-1052.934394902736
 31
0.0
  0
LINE
  5
2E2
330
1F
100
AcDbEntity
  8
0-E
  6
JWW_DASHED1
 62
     7
370
     5
100
AcDbLine
 10
-8302.438617124326
 20
-1152.934394902736
 30
0.0
 11
593.4707768221251
 21
-1152.934394902736
 31
0.0
  0
LINE
  5
2E3
330
1F
100
AcDbEntity
  8
0-E
  6
JWW_DASHED1
 62
     7
370
     5
100
AcDbLine
 10
593.4707768221251
 20
-302.9343949027364
 30
0.0
 11
593.4707768221251
 21
-1052.934394902736
 31
0.0
  0
LINE
  5
2E4
330
1F
100
AcDbEntity
  8
0-E
  6
JWW_DASHED1
 62
     7
370
     5
100
AcDbLine
 10
593.4707768221251
 20
-1152.934394902736
 30
0.0
 11
593.4707768221251
 21
-1902.934394902736
 31
0.0
  0
LINE
  5
2E5
330
1F
100
AcDbEntity
  8
0-A_文字
  6
Continuous
 62
     7
370
     5
100
AcDbLine
 10
-879.0146210721092
 20
3172.065440137381
 30
0.0
 11
5516.417758022676
 21
3172.065440137381
 31
0.0
  0
LINE
  5
2E6
330
1F
100
AcDbEntity
  8
0-A_文字
  6
Continuous
 62
     7
370
     5
100
AcDbLine
 10
-879.0146210721092
 20
2859.56626493679
 30
0.0
 11
5521.240379234435
 21
2859.56626493679
 31
0.0
  0
LINE
  5
2E7
330
1F
100
AcDbEntity
  8
0-A_文字
  6
Continuous
 62
     7
370
     5
100
AcDbLine
 10
-879.0146210721092
 20
234.5662649367895
 30
0.0
 11
5463.368924693335
 21
234.5662649367895
 31
0.0
  0
LINE
  5
2E8
330
1F
100
AcDbEntity
  8
0-A_文字
  6
Continuous
 62
     7
370
     5
100
AcDbLine
 10
-879.0146210721092
 20
-77.9329102638016
 30
0.0
 11
2730.970776822125
 21
-77.9329102638016
 31
0.0
  0
LINE
  5
2E9
330
1F
100
AcDbEntity
  8
0-A_文字
  6
JWW_DASHED1
 62
     3
370
     5
100
AcDbLine
 10
774.1631589814333
 20
2859.56626493679
 30
0.0
 11
1086.662334182022
 21
3172.065440137381
 31
0.0
  0
LINE
  5
2EA
330
1F
100
AcDbEntity
  8
0-A_文字
  6
JWW_DASHED1
 62
     3
370
     5
100
AcDbLine
 10
632.7414027525479
 20
2859.56626493679
 30
0.0
 11
945.2405779531362
 21
3172.065440137381
 31
0.0
  0
LINE
  5
2EB
330
1F
100
AcDbEntity
  8
0-A_文字
  6
JWW_DASHED1
 62
     3
370
     5
100
AcDbLine
 10
491.3196465236624
 20
2859.56626493679
 30
0.0
 11
803.8188217242564
 21
3172.065440137381
 31
0.0
  0
LINE
  5
2EC
330
1F
100
AcDbEntity
  8
0-A_文字
  6
JWW_DASHED1
 62
     3
370
     5
100
AcDbLine
 10
349.8978902947769
 20
2859.56626493679
 30
0.0
 11
662.397065495371
 21
3172.065440137381
 31
0.0
  0
LINE
  5
2ED
330
1F
100
AcDbEntity
  8
0-A_文字
  6
JWW_DASHED1
 62
     3
370
     5
100
AcDbLine
 10
-74.36490399364999
 20
2859.56626493679
 30
0.0
 11
238.1342712069383
 21
3172.065440137381
 31
0.0
  0
LINE
  5
2EE
330
1F
100
AcDbEntity
  8
0-A_文字
  6
JWW_DASHED1
 62
     3
370
     5
100
AcDbLine
 10
-215.7866602225354
 20
2859.56626493679
 30
0.0
 11
96.71251497805287
 21
3172.065440137381
 31
0.0
  0
LINE
  5
2EF
330
1F
100
AcDbEntity
  8
0-A_文字
  6
JWW_DASHED1
 62
     3
370
     5
100
AcDbLine
 10
-357.2084164514209
 20
2859.56626493679
 30
0.0
 11
-44.70924125082689
 21
3172.065440137381
 31
0.0
  0
LINE
  5
2F0
330
1F
100
AcDbEntity
  8
0-A_文字
  6
JWW_DASHED1
 62
     3
370
     5
100
AcDbLine
 10
-498.6301726803063
 20
2859.56626493679
 30
0.0
 11
-186.1309974797123
 21
3172.065440137381
 31
0.0
  0
LINE
  5
2F1
330
1F
100
AcDbEntity
  8
0-A_文字
  6
JWW_DASHED1
 62
     3
370
     5
100
AcDbLine
 10
806.5109669945273
 20
-77.9329102638016
 30
0.0
 11
1119.010142195116
 21
234.5662649367895
 31
0.0
  0
LINE
  5
2F2
330
1F
100
AcDbEntity
  8
0-A_文字
  6
JWW_DASHED1
 62
     3
370
     5
100
AcDbLine
 10
665.0892107656418
 20
-77.9329102638016
 30
0.0
 11
977.5883859662301
 21
234.5662649367895
 31
0.0
  0
LINE
  5
2F3
330
1F
100
AcDbEntity
  8
0-A_文字
  6
JWW_DASHED1
 62
     3
370
     5
100
AcDbLine
 10
523.6674545367564
 20
-77.9329102638016
 30
0.0
 11
836.1666297373504
 21
234.5662649367895
 31
0.0
  0
LINE
  5
2F4
330
1F
100
AcDbEntity
  8
0-A_文字
  6
JWW_DASHED1
 62
     3
370
     5
100
AcDbLine
 10
382.2456983078709
 20
-77.9329102638016
 30
0.0
 11
694.7448735084649
 21
234.5662649367895
 31
0.0
  0
LINE
  5
2F5
330
1F
100
AcDbEntity
  8
0-A_文字
  6
JWW_DASHED1
 62
     3
370
     5
100
AcDbLine
 10
-42.01709598055601
 20
-77.9329102638016
 30
0.0
 11
270.4820792200323
 21
234.5662649367895
 31
0.0
  0
LINE
  5
2F6
330
1F
100
AcDbEntity
  8
0-A_文字
  6
JWW_DASHED1
 62
     3
370
     5
100
AcDbLine
 10
-183.4388522094414
 20
-77.9329102638016
 30
0.0
 11
129.0603229911468
 21
234.5662649367895
 31
0.0
  0
LINE
  5
2F7
330
1F
100
AcDbEntity
  8
0-A_文字
  6
JWW_DASHED1
 62
     3
370
     5
100
AcDbLine
 10
-324.8606084383269
 20
-77.9329102638016
 30
0.0
 11
-12.36143323773291
 21
234.5662649367895
 31
0.0
  0
LINE
  5
2F8
330
1F
100
AcDbEntity
  8
0-A_文字
  6
JWW_DASHED1
 62
     3
370
     5
100
AcDbLine
 10
-466.2823646672123
 20
-77.9329102638016
 30
0.0
 11
-153.7831894666184
 21
234.5662649367895
 31
0.0
  0
LINE
  5
2F9
330
1F
100
AcDbEntity
  8
0-A_文字
  6
JWW_DASHED1
 62
     3
370
     5
100
AcDbLine
 10
208.4761340658929
 20
2859.56626493679
 30
0.0
 11
520.9777836647092
 21
3172.065440137381
 31
0.0
  0
LINE
  5
2FA
330
1F
100
AcDbEntity
  8
0-A_文字
  6
JWW_DASHED1
 62
     3
370
     5
100
AcDbLine
 10
67.05437783700843
 20
2859.56626493679
 30
0.0
 11
379.5560274358238
 21
3172.065440137381
 31
0.0
  0
LINE
  5
2FB
330
1F
100
AcDbEntity
  8
0-A_文字
  6
JWW_DASHED1
 62
     3
370
     5
100
AcDbLine
 10
915.5824408120917
 20
2859.56626493679
 30
0.0
 11
1228.084090410907
 21
3172.065440137381
 31
0.0
  0
LINE
  5
2FC
330
1F
100
AcDbEntity
  8
0-A_文字
  6
JWW_DASHED1
 62
     3
370
     5
100
AcDbLine
 10
1057.004197040976
 20
2859.56626493679
 30
0.0
 11
1369.505846639792
 21
3172.065440137381
 31
0.0
  0
LINE
  5
2FD
330
1F
100
AcDbEntity
  8
0-A_文字
  6
JWW_DASHED1
 62
     3
370
     5
100
AcDbLine
 10
-640.0519289091903
 20
2859.56626493679
 30
0.0
 11
-327.550279310374
 21
3172.065440137381
 31
0.0
  0
LINE
  5
2FE
330
1F
100
AcDbEntity
  8
0-A_文字
  6
JWW_DASHED1
 62
     3
370
     5
100
AcDbLine
 10
-781.4736851380748
 20
2859.56626493679
 30
0.0
 11
-468.9720355392595
 21
3172.065440137381
 31
0.0
  0
LINE
  5
2FF
330
1F
100
AcDbEntity
  8
0-A_文字
  6
JWW_DASHED1
 62
     3
370
     5
100
AcDbLine
 10
240.8239420789869
 20
-77.9329102638016
 30
0.0
 11
553.3255916778032
 21
234.5662649367895
 31
0.0
  0
LINE
  5
300
330
1F
100
AcDbEntity
  8
0-A_文字
  6
JWW_DASHED1
 62
     3
370
     5
100
AcDbLine
 10
99.40218585010227
 20
-77.9329102638016
 30
0.0
 11
411.9038354489177
 21
234.5662649367895
 31
0.0
  0
LINE
  5
301
330
1F
100
AcDbEntity
  8
0-A_文字
  6
JWW_DASHED1
 62
     3
370
     5
100
AcDbLine
 10
947.9327232234091
 20
-77.9329102638016
 30
0.0
 11
1260.431898424001
 21
234.5662649367895
 31
0.0
  0
LINE
  5
302
330
1F
100
AcDbEntity
  8
0-A_文字
  6
JWW_DASHED1
 62
     3
370
     5
100
AcDbLine
 10
1089.354479452293
 20
-77.9329102638016
 30
0.0
 11
1401.853654652886
 21
234.5662649367895
 31
0.0
  0
LINE
  5
303
330
1F
100
AcDbEntity
  8
0-A_文字
  6
JWW_DASHED1
 62
     3
370
     5
100
AcDbLine
 10
-607.7041208960964
 20
-77.9329102638016
 30
0.0
 11
-295.2024712972801
 21
234.5662649367895
 31
0.0
  0
LINE
  5
304
330
1F
100
AcDbEntity
  8
0-A_文字
  6
JWW_DASHED1
 62
     3
370
     5
100
AcDbLine
 10
-749.1258771249809
 20
-77.9329102638016
 30
0.0
 11
-436.6242275261655
 21
234.5662649367895
 31
0.0
  0
LINE
  5
305
330
1F
100
AcDbEntity
  8
0-A_文字
  6
Continuous
 62
     7
370
     5
100
AcDbLine
 10
-12771.76865730855
 20
-982.3897638157597
 30
0.0
 11
-12771.76865730855
 21
497.0660999769066
 31
0.0
  0
LINE
  5
306
330
1F
100
AcDbEntity
  8
0-B_寸法
  6
Continuous
 62
     3
370
     5
100
AcDbLine
 10
-11849.28386269016
 20
-1015.433900023093
 30
0.0
 11
-11849.28386269016
 21
522.0660999769066
 31
0.0
  0
LWPOLYLINE
  5
307
330
1F
100
AcDbEntity
  8
0-B_寸法
  6
Continuous
 62
     3
370
     5
100
AcDbPolyline
 90
        4
 70
     1
 43
10.0
 10
-11844.28386269016
 20
-1015.433900023093
 42
0.4142135623731
 10
-11849.28386269016
 20
-1010.433900023093
 42
0.4142135623731
 10
-11854.28386269016
 20
-1015.433900023093
 42
0.4142135623731
 10
-11849.28386269016
 20
-1020.433900023093
 42
0.4142135623731
  0
LWPOLYLINE
  5
308
330
1F
100
AcDbEntity
  8
0-B_寸法
  6
Continuous
 62
     3
370
     5
100
AcDbPolyline
 90
        4
 70
     1
 43
10.0
 10
-11844.28386269016
 20
522.0660999769066
 42
0.4142135623731
 10
-11849.28386269016
 20
527.0660999769066
 42
0.4142135623731
 10
-11854.28386269016
 20
522.0660999769066
 42
0.4142135623731
 10
-11849.28386269016
 20
517.0660999769067
 42
0.4142135623731
  0
LINE
  5
309
330
1F
100
AcDbEntity
  8
0-B_寸法
  6
Continuous
 62
     3
370
     5
100
AcDbLine
 10
-11849.28386269016
 20
-1015.433900023093
 30
0.0
 11
-12470.78107407504
 21
-1015.433900023093
 31
0.0
  0
LINE
  5
30A
330
1F
100
AcDbEntity
  8
0-B_寸法
  6
Continuous
 62
     3
370
     5
100
AcDbLine
 10
-11849.28386269016
 20
522.0660999769066
 30
0.0
 11
-12470.78107407504
 21
522.0660999769066
 31
0.0
  0
TEXT
  5
30B
330
1F
100
AcDbEntity
  8
0-B_寸法
  6
Continuous
 62
     7
370
     0
100
AcDbText
 10
-11941.58386269016
 20
-584.1839000230934
 30
0.0
 40
228.6
  1
61.5
 50
90.0
 41
1.125
  7
ＭＳ ゴシック
100
AcDbText
  0
LINE
  5
30C
330
1F
100
AcDbEntity
  8
0-B_寸法
  6
Continuous
 62
     3
370
     5
100
AcDbLine
 10
593.4707768221251
 20
-3469.555593076733
 30
0.0
 11
2730.970776822125
 21
-3469.555593076733
 31
0.0
  0
LWPOLYLINE
  5
30D
330
1F
100
AcDbEntity
  8
0-B_寸法
  6
Continuous
 62
     3
370
     5
100
AcDbPolyline
 90
        4
 70
     1
 43
10.0
 10
598.4707768221251
 20
-3469.555593076733
 42
0.4142135623731
 10
593.4707768221251
 20
-3464.555593076734
 42
0.4142135623731
 10
588.4707768221251
 20
-3469.555593076733
 42
0.4142135623731
 10
593.4707768221251
 20
-3474.555593076733
 42
0.4142135623731
  0
LWPOLYLINE
  5
30E
330
1F
100
AcDbEntity
  8
0-B_寸法
  6
Continuous
 62
     3
370
     5
100
AcDbPolyline
 90
        4
 70
     1
 43
10.0
 10
2735.970776822125
 20
-3469.555593076733
 42
0.4142135623731
 10
2730.970776822125
 20
-3464.555593076734
 42
0.4142135623731
 10
2725.970776822125
 20
-3469.555593076733
 42
0.4142135623731
 10
2730.970776822125
 20
-3474.555593076733
 42
0.4142135623731
  0
LINE
  5
30F
330
1F
100
AcDbEntity
  8
0-B_寸法
  6
Continuous
 62
     3
370
     5
100
AcDbLine
 10
593.4707768221251
 20
-3469.555593076733
 30
0.0
 11
593.4707768221251
 21
-2369.893368992525
 31
0.0
  0
LINE
  5
310
330
1F
100
AcDbEntity
  8
0-B_寸法
  6
Continuous
 62
     3
370
     5
100
AcDbLine
 10
2730.970776822125
 20
-3469.555593076733
 30
0.0
 11
2730.970776822125
 21
-2369.893368992525
 31
0.0
  0
TEXT
  5
311
330
1F
100
AcDbEntity
  8
0-B_寸法
  6
Continuous
 62
     7
370
     0
100
AcDbText
 10
1324.720776822125
 20
-3377.255593076733
 30
0.0
 40
228.6
  1
85.5
 41
1.125
  7
ＭＳ ゴシック
100
AcDbText
  0
LINE
  5
312
330
1F
100
AcDbEntity
  8
0-A_文字
  6
Continuous
 62
     7
370
     5
100
AcDbLine
 10
-15434.26987754408
 20
-4943.449751523453
 30
0.0
 11
-15434.26865730855
 21
234.566264936791
 31
0.0
  0
LINE
  5
313
330
1F
100
AcDbEntity
  8
0-A_文字
  6
JWW_DASHED1
 62
     3
370
     5
100
AcDbLine
 10
-18059.26892334679
 20
-1744.355485400531
 30
0.0
 11
-18371.76817219
 21
-2056.854586958495
 31
0.0
  0
LINE
  5
314
330
1F
100
AcDbEntity
  8
0-A_文字
  6
JWW_DASHED1
 62
     3
370
     5
100
AcDbLine
 10
-18059.26889001977
 20
-1875.39160018504
 30
0.0
 11
-18371.76813886297
 21
-2187.890701743004
 31
0.0
  0
LINE
  5
315
330
1F
100
AcDbEntity
  8
0-A_文字
  6
JWW_DASHED1
 62
     3
370
     5
100
AcDbLine
 10
-18059.26892334679
 20
-2016.813356413923
 30
0.0
 11
-18371.76817219
 21
-2329.312457971886
 31
0.0
  0
LINE
  5
316
330
1F
100
AcDbEntity
  8
0-A_文字
  6
JWW_DASHED1
 62
     3
370
     5
100
AcDbLine
 10
-18059.26889001977
 20
-2147.849471198431
 30
0.0
 11
-18371.76813886297
 21
-2460.348572756395
 31
0.0
  0
LINE
  5
317
330
1F
100
AcDbEntity
  8
0-A_文字
  6
JWW_DASHED1
 62
     3
370
     5
100
AcDbLine
 10
-18059.26892334679
 20
-2289.271227427314
 30
0.0
 11
-18371.76817219
 21
-2601.770328985278
 31
0.0
  0
LINE
  5
318
330
1F
100
AcDbEntity
  8
0-A_文字
  6
JWW_DASHED1
 62
     3
370
     5
100
AcDbLine
 10
-18059.26908998193
 20
-2756.54913722625
 30
0.0
 11
-18371.76833882513
 21
-3069.048238784214
 31
0.0
  0
LINE
  5
319
330
1F
100
AcDbEntity
  8
0-A_文字
  6
JWW_DASHED1
 62
     3
370
     5
100
AcDbLine
 10
-18059.2690566549
 20
-2887.585252010759
 30
0.0
 11
-18371.76830549811
 21
-3200.084353568722
 31
0.0
  0
LINE
  5
31A
330
1F
100
AcDbEntity
  8
0-A_文字
  6
JWW_DASHED1
 62
     3
370
     5
100
AcDbLine
 10
-18059.26908998193
 20
-3029.007008239641
 30
0.0
 11
-18371.76833882513
 21
-3341.506109797605
 31
0.0
  0
LINE
  5
31B
330
1F
100
AcDbEntity
  8
0-A_文字
  6
JWW_DASHED1
 62
     3
370
     5
100
AcDbLine
 10
-18059.2690566549
 20
-3160.04312302415
 30
0.0
 11
-18371.76830549811
 21
-3472.542224582114
 31
0.0
  0
LINE
  5
31C
330
1F
100
AcDbEntity
  8
0-A_文字
  6
JWW_DASHED1
 62
     3
370
     5
100
AcDbLine
 10
-18059.26908998193
 20
-3301.464879253032
 30
0.0
 11
-18371.76833882513
 21
-3613.963980810996
 31
0.0
  0
LINE
  5
31D
330
1F
100
AcDbEntity
  8
0-A_文字
  6
JWW_DASHED1
 62
     3
370
     5
100
AcDbLine
 10
-18059.26938992518
 20
-4639.514684648804
 30
0.0
 11
-18125.61000152586
 21
-4705.855264982236
 31
0.0
  0
LINE
  5
31E
330
1F
100
AcDbEntity
  8
0-A_文字
  6
JWW_DASHED1
 62
     3
370
     5
100
AcDbLine
 10
-18059.26925661707
 20
-3768.742789051968
 30
0.0
 11
-18371.76850546027
 21
-4081.241890609932
 31
0.0
  0
LINE
  5
31F
330
1F
100
AcDbEntity
  8
0-A_文字
  6
JWW_DASHED1
 62
     3
370
     5
100
AcDbLine
 10
-18059.26922329004
 20
-3899.778903836477
 30
0.0
 11
-18371.76847213324
 21
-4212.278005394441
 31
0.0
  0
LINE
  5
320
330
1F
100
AcDbEntity
  8
0-A_文字
  6
JWW_DASHED1
 62
     3
370
     5
100
AcDbLine
 10
-18059.26925661707
 20
-4041.20066006536
 30
0.0
 11
-18371.76850546027
 21
-4353.699761623324
 31
0.0
  0
LINE
  5
321
330
1F
100
AcDbEntity
  8
0-A_文字
  6
JWW_DASHED1
 62
     3
370
     5
100
AcDbLine
 10
-18059.26922329004
 20
-4172.236774849868
 30
0.0
 11
-18371.76847213324
 21
-4484.735876407833
 31
0.0
  0
LINE
  5
322
330
1F
100
AcDbEntity
  8
0-A_文字
  6
JWW_DASHED1
 62
     3
370
     5
100
AcDbLine
 10
-18059.26925661707
 20
-4313.658531078751
 30
0.0
 11
-18371.76850546027
 21
-4626.157632636715
 31
0.0
  0
LINE
  5
323
330
1F
100
AcDbEntity
  8
0-A_文字
  6
JWW_DASHED1
 62
     3
370
     5
100
AcDbLine
 10
-15121.76847819804
 20
-1568.938782010566
 30
0.0
 11
-15434.26772704124
 21
-1881.43788356853
 31
0.0
  0
LINE
  5
324
330
1F
100
AcDbEntity
  8
0-A_文字
  6
JWW_DASHED1
 62
     3
370
     5
100
AcDbLine
 10
-15121.76844487102
 20
-1699.974896795075
 30
0.0
 11
-15434.26769371422
 21
-2012.473998353039
 31
0.0
  0
LINE
  5
325
330
1F
100
AcDbEntity
  8
0-A_文字
  6
JWW_DASHED1
 62
     3
370
     5
100
AcDbLine
 10
-15121.76847819804
 20
-1841.396653023958
 30
0.0
 11
-15434.26772704124
 21
-2153.895754581922
 31
0.0
  0
LINE
  5
326
330
1F
100
AcDbEntity
  8
0-A_文字
  6
JWW_DASHED1
 62
     3
370
     5
100
AcDbLine
 10
-15121.76844487102
 20
-1972.432767808466
 30
0.0
 11
-15434.26769371422
 21
-2284.93186936643
 31
0.0
  0
LINE
  5
327
330
1F
100
AcDbEntity
  8
0-A_文字
  6
JWW_DASHED1
 62
     3
370
     5
100
AcDbLine
 10
-15121.76847819804
 20
-2113.854524037349
 30
0.0
 11
-15434.26772704124
 21
-2426.353625595313
 31
0.0
  0
LINE
  5
328
330
1F
100
AcDbEntity
  8
0-A_文字
  6
JWW_DASHED1
 62
     3
370
     5
100
AcDbLine
 10
-15121.76864483318
 20
-2581.132433836285
 30
0.0
 11
-15434.26789367638
 21
-2893.631535394249
 31
0.0
  0
LINE
  5
329
330
1F
100
AcDbEntity
  8
0-A_文字
  6
JWW_DASHED1
 62
     3
370
     5
100
AcDbLine
 10
-15121.76861150615
 20
-2712.168548620794
 30
0.0
 11
-15434.26786034935
 21
-3024.667650178757
 31
0.0
  0
LINE
  5
32A
330
1F
100
AcDbEntity
  8
0-A_文字
  6
JWW_DASHED1
 62
     3
370
     5
100
AcDbLine
 10
-15121.76864483318
 20
-2853.590304849676
 30
0.0
 11
-15434.26789367638
 21
-3166.08940640764
 31
0.0
  0
LINE
  5
32B
330
1F
100
AcDbEntity
  8
0-A_文字
  6
JWW_DASHED1
 62
     3
370
     5
100
AcDbLine
 10
-15121.76861150615
 20
-2984.626419634185
 30
0.0
 11
-15434.26786034935
 21
-3297.125521192149
 31
0.0
  0
LINE
  5
32C
330
1F
100
AcDbEntity
  8
0-A_文字
  6
JWW_DASHED1
 62
     3
370
     5
100
AcDbLine
 10
-15121.76864483318
 20
-3126.048175863068
 30
0.0
 11
-15434.26789367638
 21
-3438.547277421031
 31
0.0
  0
LINE
  5
32D
330
1F
100
AcDbEntity
  8
0-A_文字
  6
JWW_DASHED1
 62
     3
370
     5
100
AcDbLine
 10
-15121.76881146831
 20
-3593.326085662004
 30
0.0
 11
-15434.26806031151
 21
-3905.825187219968
 31
0.0
  0
LINE
  5
32E
330
1F
100
AcDbEntity
  8
0-A_文字
  6
JWW_DASHED1
 62
     3
370
     5
100
AcDbLine
 10
-15121.76877814128
 20
-3724.362200446512
 30
0.0
 11
-15434.26802698449
 21
-4036.861302004476
 31
0.0
  0
LINE
  5
32F
330
1F
100
AcDbEntity
  8
0-A_文字
  6
JWW_DASHED1
 62
     3
370
     5
100
AcDbLine
 10
-15121.76881146831
 20
-3865.783956675395
 30
0.0
 11
-15434.26806031151
 21
-4178.283058233359
 31
0.0
  0
LINE
  5
330
330
1F
100
AcDbEntity
  8
0-A_文字
  6
JWW_DASHED1
 62
     3
370
     5
100
AcDbLine
 10
-15121.76877814128
 20
-3996.820071459903
 30
0.0
 11
-15434.26802698449
 21
-4309.319173017868
 31
0.0
  0
LINE
  5
331
330
1F
100
AcDbEntity
  8
0-A_文字
  6
JWW_DASHED1
 62
     3
370
     5
100
AcDbLine
 10
-15121.76881146831
 20
-4138.241827688787
 30
0.0
 11
-15434.26806031151
 21
-4450.74092924675
 31
0.0
  0
LINE
  5
332
330
1F
100
AcDbEntity
  8
0-A_文字
  6
JWW_DASHED1
 62
     3
370
     5
100
AcDbLine
 10
-18059.26904136757
 20
-1395.171073567201
 30
0.0
 11
-18371.7684511087
 21
-1707.67033602302
 31
0.0
  0
LINE
  5
333
330
1F
100
AcDbEntity
  8
0-A_文字
  6
JWW_DASHED1
 62
     3
370
     5
100
AcDbLine
 10
-18059.2690746946
 20
-1536.592829796082
 30
0.0
 11
-18371.7684511087
 21
-1849.092058924894
 31
0.0
  0
LINE
  5
334
330
1F
100
AcDbEntity
  8
0-A_文字
  6
JWW_DASHED1
 62
     3
370
     5
100
AcDbLine
 10
-18059.26902332787
 20
-2473.705624768486
 30
0.0
 11
-18371.7684511087
 21
-2786.204905263988
 31
0.0
  0
LINE
  5
335
330
1F
100
AcDbEntity
  8
0-A_文字
  6
JWW_DASHED1
 62
     3
370
     5
100
AcDbLine
 10
-18059.2690566549
 20
-2615.127380997367
 30
0.0
 11
-18371.7684511087
 21
-2927.626628165862
 31
0.0
  0
LINE
  5
336
330
1F
100
AcDbEntity
  8
0-A_文字
  6
JWW_DASHED1
 62
     3
370
     5
100
AcDbLine
 10
-18059.26918996301
 20
-3485.899276594205
 30
0.0
 11
-18371.7684511087
 21
-3798.39839045465
 31
0.0
  0
LINE
  5
337
330
1F
100
AcDbEntity
  8
0-A_文字
  6
JWW_DASHED1
 62
     3
370
     5
100
AcDbLine
 10
-18059.26922329004
 20
-3627.321032823086
 30
0.0
 11
-18371.7684511087
 21
-3939.820113356524
 31
0.0
  0
LINE
  5
338
330
1F
100
AcDbEntity
  8
0-A_文字
  6
JWW_DASHED1
 62
     3
370
     5
100
AcDbLine
 10
-18059.26935659815
 20
-4498.092928419924
 30
0.0
 11
-18371.7684511087
 21
-4810.591875645312
 31
0.0
  0
LINE
  5
339
330
1F
100
AcDbEntity
  8
0-A_文字
  6
JWW_DASHED1
 62
     3
370
     5
100
AcDbLine
 10
-15434.2691226333
 20
-1740.018940744146
 30
0.0
 11
-15121.76844487102
 21
-1427.517025781684
 31
0.0
  0
LINE
  5
33A
330
1F
100
AcDbEntity
  8
0-A_文字
  6
JWW_DASHED1
 62
     3
370
     5
100
AcDbLine
 10
-15121.76857817912
 20
-2298.288921378522
 30
0.0
 11
-15434.26932783645
 21
-2610.789523749908
 31
0.0
  0
LINE
  5
33B
330
1F
100
AcDbEntity
  8
0-A_文字
  6
JWW_DASHED1
 62
     3
370
     5
100
AcDbLine
 10
-15121.76861150615
 20
-2439.710677607402
 30
0.0
 11
-15434.26936116347
 21
-2752.211279978788
 31
0.0
  0
LINE
  5
33C
330
1F
100
AcDbEntity
  8
0-A_文字
  6
JWW_DASHED1
 62
     3
370
     5
100
AcDbLine
 10
-15121.76874481426
 20
-3310.48257320424
 30
0.0
 11
-15434.26956636695
 21
-3622.983247470956
 31
0.0
  0
LINE
  5
33D
330
1F
100
AcDbEntity
  8
0-A_文字
  6
JWW_DASHED1
 62
     3
370
     5
100
AcDbLine
 10
-15121.76877814128
 20
-3451.904329433121
 30
0.0
 11
-15434.26959969398
 21
-3764.405003699836
 31
0.0
  0
LINE
  5
33E
330
1F
100
AcDbEntity
  8
0-A_文字
  6
JWW_DASHED1
 62
     3
370
     5
100
AcDbLine
 10
-15121.76891144939
 20
-4322.676225029959
 30
0.0
 11
-15434.26980489745
 21
-4635.176971192004
 31
0.0
  0
LINE
  5
33F
330
1F
100
AcDbEntity
  8
0-A_文字
  6
JWW_DASHED1
 62
     3
370
     5
100
AcDbLine
 10
-15121.76894477642
 20
-4464.097981258839
 30
0.0
 11
-15434.26983822447
 21
-4776.598727420884
 31
0.0
  0
LINE
  5
340
330
1F
100
AcDbEntity
  8
0-B_寸法
  6
Continuous
 62
     3
370
     5
100
AcDbLine
 10
2730.970776822125
 20
234.5662649367895
 30
0.0
 11
3855.970776822125
 21
234.5662649367895
 31
0.0
  0
LINE
  5
341
330
1F
100
AcDbEntity
  8
0-B_寸法
  6
Continuous
 62
     3
370
     5
100
AcDbLine
 10
3855.970776822125
 20
234.5662649367895
 30
0.0
 11
3855.970776822125
 21
-515.4337350632104
 31
0.0
  0
LINE
  5
342
330
1F
100
AcDbEntity
  8
0-B_寸法
  6
Continuous
 62
     3
370
     5
100
AcDbLine
 10
3855.970776822125
 20
-515.4337350632104
 30
0.0
 11
2730.970776822125
 21
-515.4337350632104
 31
0.0
  0
LINE
  5
343
330
1F
100
AcDbEntity
  8
0-B_寸法
  6
Continuous
 62
     3
370
     5
100
AcDbLine
 10
2730.970776822125
 20
-515.4337350632104
 30
0.0
 11
2730.970776822125
 21
234.5662649367895
 31
0.0
  0
LINE
  5
344
330
1F
100
AcDbEntity
  8
0-B_寸法
  6
Continuous
 62
     3
370
     5
100
AcDbLine
 10
2730.970776822125
 20
234.5662649367895
 30
0.0
 11
2730.970776822125
 21
1359.56626493679
 31
0.0
  0
LINE
  5
345
330
1F
100
AcDbEntity
  8
0-B_寸法
  6
Continuous
 62
     3
370
     5
100
AcDbLine
 10
2730.970776822125
 20
1359.56626493679
 30
0.0
 11
1980.970776822125
 21
1359.56626493679
 31
0.0
  0
LINE
  5
346
330
1F
100
AcDbEntity
  8
0-B_寸法
  6
Continuous
 62
     3
370
     5
100
AcDbLine
 10
1980.970776822125
 20
1359.56626493679
 30
0.0
 11
1980.970776822125
 21
234.5662649367895
 31
0.0
  0
LINE
  5
347
330
1F
100
AcDbEntity
  8
0-B_寸法
  6
Continuous
 62
     3
370
     5
100
AcDbLine
 10
1980.970776822125
 20
234.5662649367895
 30
0.0
 11
2730.970776822125
 21
234.5662649367895
 31
0.0
  0
LINE
  5
348
330
1F
100
AcDbEntity
  8
0-B_寸法
  6
Continuous
 62
     3
370
     5
100
AcDbLine
 10
-15434.26865730855
 20
2859.56626493679
 30
0.0
 11
-16559.26865730855
 21
2859.56626493679
 31
0.0
  0
LINE
  5
349
330
1F
100
AcDbEntity
  8
0-B_寸法
  6
Continuous
 62
     3
370
     5
100
AcDbLine
 10
-15434.26865730855
 20
3609.56626493679
 30
0.0
 11
-15434.26865730855
 21
2859.56626493679
 31
0.0
  0
LINE
  5
34A
330
1F
100
AcDbEntity
  8
0-B_寸法
  6
Continuous
 62
     3
370
     5
100
AcDbLine
 10
-15434.26865730855
 20
234.566264936791
 30
0.0
 11
-16559.26865730855
 21
234.566264936791
 31
0.0
  0
LINE
  5
34B
330
1F
100
AcDbEntity
  8
0-B_寸法
  6
Continuous
 62
     3
370
     5
100
AcDbLine
 10
-16559.26865730855
 20
234.566264936791
 30
0.0
 11
-16559.26865730855
 21
-515.433735063209
 31
0.0
  0
LINE
  5
34C
330
1F
100
AcDbEntity
  8
0-B_寸法
  6
Continuous
 62
     3
370
     5
100
AcDbLine
 10
-16559.26865730855
 20
-515.433735063209
 30
0.0
 11
-15434.26865730855
 21
-515.433735063209
 31
0.0
  0
LINE
  5
34D
330
1F
100
AcDbEntity
  8
0-B_寸法
  6
Continuous
 62
     3
370
     5
100
AcDbLine
 10
-15434.26865730855
 20
-515.433735063209
 30
0.0
 11
-15434.26865730855
 21
234.566264936791
 31
0.0
  0
LINE
  5
34E
330
1F
100
AcDbEntity
  8
0-B_寸法
  6
Continuous
 62
     3
370
     5
100
AcDbLine
 10
-15434.26865730855
 20
234.5662649367895
 30
0.0
 11
-15434.26865730855
 21
1359.56626493679
 31
0.0
  0
LINE
  5
34F
330
1F
100
AcDbEntity
  8
0-B_寸法
  6
Continuous
 62
     3
370
     5
100
AcDbLine
 10
-15434.26865730855
 20
1359.56626493679
 30
0.0
 11
-14684.26865730855
 21
1359.56626493679
 31
0.0
  0
LINE
  5
350
330
1F
100
AcDbEntity
  8
0-B_寸法
  6
Continuous
 62
     3
370
     5
100
AcDbLine
 10
-14684.26865730855
 20
1359.56626493679
 30
0.0
 11
-14684.26865730855
 21
234.5662649367895
 31
0.0
  0
LINE
  5
351
330
1F
100
AcDbEntity
  8
0-B_寸法
  6
Continuous
 62
     3
370
     5
100
AcDbLine
 10
-14684.26865730855
 20
234.5662649367895
 30
0.0
 11
-15434.26865730855
 21
234.5662649367895
 31
0.0
  0
LINE
  5
352
330
1F
100
AcDbEntity
  8
0-B_寸法
  6
Continuous
 62
     3
370
     5
100
AcDbLine
 10
-15434.26865730855
 20
1734.56626493679
 30
0.0
 11
-14684.26865730855
 21
1734.56626493679
 31
0.0
  0
LINE
  5
353
330
1F
100
AcDbEntity
  8
0-B_寸法
  6
Continuous
 62
     3
370
     5
100
AcDbLine
 10
-14684.26865730855
 20
1734.56626493679
 30
0.0
 11
-14684.26865730855
 21
2859.56626493679
 31
0.0
  0
LINE
  5
354
330
1F
100
AcDbEntity
  8
0-B_寸法
  6
Continuous
 62
     3
370
     5
100
AcDbLine
 10
-14684.26865730855
 20
2859.56626493679
 30
0.0
 11
-15434.26865730855
 21
2859.56626493679
 31
0.0
  0
LINE
  5
355
330
1F
100
AcDbEntity
  8
0-B_寸法
  6
Continuous
 62
     3
370
     5
100
AcDbLine
 10
-14684.26865730855
 20
2859.56626493679
 30
0.0
 11
-15434.26865730855
 21
1734.56626493679
 31
0.0
  0
LINE
  5
356
330
1F
100
AcDbEntity
  8
0-B_寸法
  6
Continuous
 62
     3
370
     5
100
AcDbLine
 10
-14684.26865730855
 20
1359.56626493679
 30
0.0
 11
-15434.26865730855
 21
234.566264936791
 31
0.0
  0
LINE
  5
357
330
1F
100
AcDbEntity
  8
0-B_寸法
  6
Continuous
 62
     3
370
     5
100
AcDbLine
 10
-15434.26865730855
 20
234.566264936791
 30
0.0
 11
-16559.26865730855
 21
-515.433735063209
 31
0.0
  0
LINE
  5
358
330
1F
100
AcDbEntity
  8
0-B_寸法
  6
Continuous
 62
     3
370
     5
100
AcDbLine
 10
3855.970776822125
 20
234.5662649367895
 30
0.0
 11
2730.970776822125
 21
-515.4337350632104
 31
0.0
  0
LINE
  5
359
330
1F
100
AcDbEntity
  8
0-B_寸法
  6
Continuous
 62
     3
370
     5
100
AcDbLine
 10
2730.970776822125
 20
1359.56626493679
 30
0.0
 11
1967.538205170199
 21
234.5662649367895
 31
0.0
  0
LINE
  5
35A
330
1F
100
AcDbEntity
  8
0-3_仕上
  6
Continuous
 62
     7
370
     5
100
AcDbLine
 10
-8302.438617124326
 20
-1640.432910263802
 30
0.0
 11
855.9707768221244
 21
-1640.432910263802
 31
0.0
  0
LINE
  5
35B
330
1F
100
AcDbEntity
  8
0-3_仕上
  6
Continuous
 62
     7
370
     5
100
AcDbLine
 10
-8302.438617124326
 20
-1415.432910263802
 30
0.0
 11
1080.970776822124
 21
-1415.432910263802
 31
0.0
  0
LINE
  5
35C
330
1F
100
AcDbEntity
  8
0-B_寸法
  6
Continuous
 62
     3
370
     5
100
AcDbLine
 10
-15434.26987754408
 20
-3471.230147871677
 30
0.0
 11
-13296.76865730855
 21
-3471.230147871677
 31
0.0
  0
LWPOLYLINE
  5
35D
330
1F
100
AcDbEntity
  8
0-B_寸法
  6
Continuous
 62
     3
370
     5
100
AcDbPolyline
 90
        4
 70
     1
 43
10.0
 10
-15429.26987754408
 20
-3471.230147871677
 42
0.4142135623731
 10
-15434.26987754408
 20
-3466.230147871677
 42
0.4142135623731
 10
-15439.26987754408
 20
-3471.230147871677
 42
0.4142135623731
 10
-15434.26987754408
 20
-3476.230147871676
 42
0.4142135623731
  0
LWPOLYLINE
  5
35E
330
1F
100
AcDbEntity
  8
0-B_寸法
  6
Continuous
 62
     3
370
     5
100
AcDbPolyline
 90
        4
 70
     1
 43
10.0
 10
-13291.76865730855
 20
-3471.230147871677
 42
0.4142135623731
 10
-13296.76865730855
 20
-3466.230147871677
 42
0.4142135623731
 10
-13301.76865730855
 20
-3471.230147871677
 42
0.4142135623731
 10
-13296.76865730855
 20
-3476.230147871676
 42
0.4142135623731
  0
LINE
  5
35F
330
1F
100
AcDbEntity
  8
0-B_寸法
  6
Continuous
 62
     3
370
     5
100
AcDbLine
 10
-15434.26987754408
 20
-3471.230147871677
 30
0.0
 11
-15434.26987754408
 21
-2561.01485283977
 31
0.0
  0
LINE
  5
360
330
1F
100
AcDbEntity
  8
0-B_寸法
  6
Continuous
 62
     3
370
     5
100
AcDbLine
 10
-13296.76865730855
 20
-3471.230147871677
 30
0.0
 11
-13296.76865730855
 21
-2561.01485283977
 31
0.0
  0
TEXT
  5
361
330
1F
100
AcDbEntity
  8
0-B_寸法
  6
Continuous
 62
     7
370
     0
100
AcDbText
 10
-14703.01926742632
 20
-3378.930147871677
 30
0.0
 40
228.6
  1
85.5
 41
1.125
  7
ＭＳ ゴシック
100
AcDbText
  0
LINE
  5
362
330
1F
100
AcDbEntity
  8
0-A_文字
  6
Continuous
 62
     7
370
     5
100
AcDbLine
 10
-19913.48795464247
 20
2859.56626493679
 30
0.0
 11
-15434.26865730855
 21
2859.56626493679
 31
0.0
  0
LINE
  5
363
330
1F
100
AcDbEntity
  8
0-A_文字
  6
Continuous
 62
     7
370
     5
100
AcDbLine
 10
-19569.62884318597
 20
234.5662649367895
 30
0.0
 11
-15434.26865730855
 21
234.5662649367895
 31
0.0
  0
LINE
  5
364
330
1F
100
AcDbEntity
  8
0-A_文字
  6
Continuous
 62
     7
370
     5
100
AcDbLine
 10
-13296.76865730855
 20
3172.065440137381
 30
0.0
 11
-19913.48795464247
 21
3172.065440137381
 31
0.0
  0
LINE
  5
365
330
1F
100
AcDbEntity
  8
0-A_文字
  6
Continuous
 62
     7
370
     5
100
AcDbLine
 10
-15434.26865730855
 20
2859.56626493679
 30
0.0
 11
-15434.26865730855
 21
-1602.93434777133
 31
0.0
  0
LINE
  5
366
330
1F
100
AcDbEntity
  8
0-B_寸法
  6
Continuous
 62
     3
370
     5
100
AcDbLine
 10
-15434.26865730855
 20
2859.56626493679
 30
0.0
 11
-15434.26865730855
 21
1734.56626493679
 31
0.0
  0
LINE
  5
367
330
1F
100
AcDbEntity
  8
0-A_文字
  6
JWW_DASHED1
 62
     3
370
     5
100
AcDbLine
 10
-18371.7684511087
 20
-19.52721452900477
 30
0.0
 11
-18117.67597760312
 21
234.5662649367895
 31
0.0
  0
LINE
  5
368
330
1F
100
AcDbEntity
  8
0-A_文字
  6
JWW_DASHED1
 62
     3
370
     5
100
AcDbLine
 10
-18371.7684511087
 20
121.8945416998807
 30
0.0
 11
-18259.09717394098
 21
234.5662649367895
 31
0.0
  0
LINE
  5
369
330
1F
100
AcDbEntity
  8
0-A_文字
  6
Continuous
 62
     7
370
     5
100
AcDbLine
 10
-18371.7684511087
 20
234.5662649367895
 30
0.0
 11
-18371.7684511087
 21
-4861.307576528331
 31
0.0
  0
LINE
  5
36A
330
1F
100
AcDbEntity
  8
0-A_文字
  6
Continuous
 62
     7
370
     5
100
AcDbLine
 10
-18059.268038709
 20
2859.56626493679
 30
0.0
 11
-18059.268038709
 21
-4861.307576528331
 31
0.0
  0
LINE
  5
36B
330
1F
100
AcDbEntity
  8
0-A_文字
  6
JWW_DASHED1
 62
     3
370
     5
100
AcDbLine
 10
-19744.23845137865
 20
2859.56626493679
 30
0.0
 11
-19431.73803897895
 21
3172.065440137381
 31
0.0
  0
LINE
  5
36C
330
1F
100
AcDbEntity
  8
0-A_文字
  6
JWW_DASHED1
 62
     3
370
     5
100
AcDbLine
 10
-19602.8161352543
 20
2859.56626493679
 30
0.0
 11
-19290.31572285459
 21
3172.065440137381
 31
0.0
  0
LINE
  5
36D
330
1F
100
AcDbEntity
  8
0-A_文字
  6
JWW_DASHED1
 62
     3
370
     5
100
AcDbLine
 10
-19461.39381912995
 20
2859.56626493679
 30
0.0
 11
-19148.89340673025
 21
3172.065440137381
 31
0.0
  0
LINE
  5
36E
330
1F
100
AcDbEntity
  8
0-A_文字
  6
JWW_DASHED1
 62
     3
370
     5
100
AcDbLine
 10
-19319.963995103
 20
2859.56626493679
 30
0.0
 11
-19007.46605709173
 21
3172.065440137381
 31
0.0
  0
LINE
  5
36F
330
1F
100
AcDbEntity
  8
0-A_文字
  6
JWW_DASHED1
 62
     3
370
     5
100
AcDbLine
 10
-19178.54279876515
 20
2859.56626493679
 30
0.0
 11
-18866.04486075387
 21
3172.065440137381
 31
0.0
  0
LINE
  5
370
330
1F
100
AcDbEntity
  8
0-A_文字
  6
JWW_DASHED1
 62
     3
370
     5
100
AcDbLine
 10
-19037.12934516493
 20
2859.56626493679
 30
0.0
 11
-18724.62893276523
 21
3172.065440137381
 31
0.0
  0
LINE
  5
371
330
1F
100
AcDbEntity
  8
0-A_文字
  6
JWW_DASHED1
 62
     3
370
     5
100
AcDbLine
 10
-18895.70702904058
 20
2859.56626493679
 30
0.0
 11
-18583.20661664088
 21
3172.065440137381
 31
0.0
  0
LINE
  5
372
330
1F
100
AcDbEntity
  8
0-A_文字
  6
JWW_DASHED1
 62
     3
370
     5
100
AcDbLine
 10
-18754.28471291623
 20
2859.56626493679
 30
0.0
 11
-18441.78430051653
 21
3172.065440137381
 31
0.0
  0
LINE
  5
373
330
1F
100
AcDbEntity
  8
0-A_文字
  6
JWW_DASHED1
 62
     3
370
     5
100
AcDbLine
 10
-18612.86239679188
 20
2859.56626493679
 30
0.0
 11
-18300.36198439217
 21
3172.065440137381
 31
0.0
  0
LINE
  5
374
330
1F
100
AcDbEntity
  8
0-A_文字
  6
JWW_DASHED1
 62
     3
370
     5
100
AcDbLine
 10
-18471.43929146432
 20
2859.56626493679
 30
0.0
 11
-18158.94135345305
 21
3172.065440137381
 31
0.0
  0
LINE
  5
375
330
1F
100
AcDbEntity
  8
0-A_文字
  6
JWW_DASHED1
 62
     3
370
     5
100
AcDbLine
 10
-18330.01809512647
 20
2859.56626493679
 30
0.0
 11
-18017.5201571152
 21
3172.065440137381
 31
0.0
  0
LINE
  5
376
330
1F
100
AcDbEntity
  8
0-A_文字
  6
JWW_DASHED1
 62
     3
370
     5
100
AcDbLine
 10
-15925.85487853955
 20
2859.56626493679
 30
0.0
 11
-15613.35570333896
 21
3172.065440137381
 31
0.0
  0
LINE
  5
377
330
1F
100
AcDbEntity
  8
0-A_文字
  6
JWW_DASHED1
 62
     3
370
     5
100
AcDbLine
 10
-16067.27663476843
 20
2859.56626493679
 30
0.0
 11
-15754.77745956784
 21
3172.065440137381
 31
0.0
  0
LINE
  5
378
330
1F
100
AcDbEntity
  8
0-A_文字
  6
JWW_DASHED1
 62
     3
370
     5
100
AcDbLine
 10
-15784.43848489803
 20
2859.56626493679
 30
0.0
 11
-15471.93673219333
 21
3172.065440137381
 31
0.0
  0
LINE
  5
379
330
1F
100
AcDbEntity
  8
0-A_文字
  6
JWW_DASHED1
 62
     3
370
     5
100
AcDbLine
 10
-15643.01556221756
 20
2859.56626493679
 30
0.0
 11
-15330.51380951287
 21
3172.065440137381
 31
0.0
  0
LINE
  5
37A
330
1F
100
AcDbEntity
  8
0-A_文字
  6
JWW_DASHED1
 62
     3
370
     5
100
AcDbLine
 10
-15501.59208425112
 20
2859.56626493679
 30
0.0
 11
-15189.09290905053
 21
3172.065440137381
 31
0.0
  0
LINE
  5
37B
330
1F
100
AcDbEntity
  8
0-A_文字
  6
JWW_DASHED1
 62
     3
370
     5
100
AcDbLine
 10
-15360.17032802224
 20
2859.56626493679
 30
0.0
 11
-15047.67115282165
 21
3172.065440137381
 31
0.0
  0
LINE
  5
37C
330
1F
100
AcDbEntity
  8
0-A_文字
  6
JWW_DASHED1
 62
     3
370
     5
100
AcDbLine
 10
-15218.74857179335
 20
2859.56626493679
 30
0.0
 11
-14906.24939659276
 21
3172.065440137381
 31
0.0
  0
LINE
  5
37D
330
1F
100
AcDbEntity
  8
0-A_文字
  6
JWW_DASHED1
 62
     3
370
     5
100
AcDbLine
 10
-15077.32681556447
 20
2859.56626493679
 30
0.0
 11
-14764.82764036388
 21
3172.065440137381
 31
0.0
  0
LINE
  5
37E
330
1F
100
AcDbEntity
  8
0-A_文字
  6
JWW_DASHED1
 62
     3
370
     5
100
AcDbLine
 10
-18188.59792282684
 20
2859.56626493679
 30
0.0
 11
-17876.09751042714
 21
3172.065440137381
 31
0.0
  0
LINE
  5
37F
330
1F
100
AcDbEntity
  8
0-A_文字
  6
JWW_DASHED1
 62
     3
370
     5
100
AcDbLine
 10
-18047.17560670249
 20
2859.56626493679
 30
0.0
 11
-17734.67519430279
 21
3172.065440137381
 31
0.0
  0
LINE
  5
380
330
1F
100
AcDbEntity
  8
0-A_文字
  6
JWW_DASHED1
 62
     3
370
     5
100
AcDbLine
 10
-17905.75329057814
 20
2859.56626493679
 30
0.0
 11
-17593.25287817844
 21
3172.065440137381
 31
0.0
  0
LINE
  5
381
330
1F
100
AcDbEntity
  8
0-A_文字
  6
JWW_DASHED1
 62
     3
370
     5
100
AcDbLine
 10
-17764.33097445379
 20
2859.56626493679
 30
0.0
 11
-17451.83056205409
 21
3172.065440137381
 31
0.0
  0
LINE
  5
382
330
1F
100
AcDbEntity
  8
0-A_文字
  6
JWW_DASHED1
 62
     3
370
     5
100
AcDbLine
 10
-17622.91458782564
 20
2859.56626493679
 30
0.0
 11
-17310.41664981437
 21
3172.065440137381
 31
0.0
  0
LINE
  5
383
330
1F
100
AcDbEntity
  8
0-A_文字
  6
JWW_DASHED1
 62
     3
370
     5
100
AcDbLine
 10
-17481.49339148779
 20
2859.56626493679
 30
0.0
 11
-17168.99545347652
 21
3172.065440137381
 31
0.0
  0
LINE
  5
384
330
1F
100
AcDbEntity
  8
0-A_文字
  6
JWW_DASHED1
 62
     3
370
     5
100
AcDbLine
 10
-17340.06650048877
 20
2859.56626493679
 30
0.0
 11
-17027.56608808906
 21
3172.065440137381
 31
0.0
  0
LINE
  5
385
330
1F
100
AcDbEntity
  8
0-A_文字
  6
JWW_DASHED1
 62
     3
370
     5
100
AcDbLine
 10
-17198.64418436441
 20
2859.56626493679
 30
0.0
 11
-16886.14377196471
 21
3172.065440137381
 31
0.0
  0
LINE
  5
386
330
1F
100
AcDbEntity
  8
0-A_文字
  6
JWW_DASHED1
 62
     3
370
     5
100
AcDbLine
 10
-17057.22186824006
 20
2859.56626493679
 30
0.0
 11
-16744.72145584036
 21
3172.065440137381
 31
0.0
  0
LINE
  5
387
330
1F
100
AcDbEntity
  8
0-A_文字
  6
JWW_DASHED1
 62
     3
370
     5
100
AcDbLine
 10
-16915.79955211571
 20
2859.56626493679
 30
0.0
 11
-16603.29913971601
 21
3172.065440137381
 31
0.0
  0
LINE
  5
388
330
1F
100
AcDbEntity
  8
0-A_文字
  6
JWW_DASHED1
 62
     3
370
     5
100
AcDbLine
 10
-16774.37723599136
 20
2859.56626493679
 30
0.0
 11
-16461.87682359166
 21
3172.065440137381
 31
0.0
  0
LINE
  5
389
330
1F
100
AcDbEntity
  8
0-A_文字
  6
JWW_DASHED1
 62
     3
370
     5
100
AcDbLine
 10
-16632.96868784911
 20
2859.56626493679
 30
0.0
 11
-16320.47074983784
 21
3172.065440137381
 31
0.0
  0
LINE
  5
38A
330
1F
100
AcDbEntity
  8
0-A_文字
  6
JWW_DASHED1
 62
     3
370
     5
100
AcDbLine
 10
-16491.54749151126
 20
2859.56626493679
 30
0.0
 11
-16179.04955349999
 21
3172.065440137381
 31
0.0
  0
LINE
  5
38B
330
1F
100
AcDbEntity
  8
0-A_文字
  6
JWW_DASHED1
 62
     3
370
     5
100
AcDbLine
 10
-16350.11276202633
 20
2859.56626493679
 30
0.0
 11
-16037.61234962663
 21
3172.065440137381
 31
0.0
  0
LINE
  5
38C
330
1F
100
AcDbEntity
  8
0-A_文字
  6
JWW_DASHED1
 62
     3
370
     5
100
AcDbLine
 10
-16208.690445902
 20
2859.56626493679
 30
0.0
 11
-15896.1900335023
 21
3172.065440137381
 31
0.0
  0
LINE
  5
38D
330
1F
100
AcDbEntity
  8
0-B_寸法
  6
Continuous
 62
     3
370
     5
100
AcDbLine
 10
-16934.26865730848
 20
234.566264936791
 30
0.0
 11
-18059.26865730848
 21
234.566264936791
 31
0.0
  0
LINE
  5
38E
330
1F
100
AcDbEntity
  8
0-B_寸法
  6
Continuous
 62
     3
370
     5
100
AcDbLine
 10
-18059.26865730848
 20
234.566264936791
 30
0.0
 11
-18059.26865730848
 21
-515.433735063209
 31
0.0
  0
LINE
  5
38F
330
1F
100
AcDbEntity
  8
0-B_寸法
  6
Continuous
 62
     3
370
     5
100
AcDbLine
 10
-18059.26865730848
 20
-515.433735063209
 30
0.0
 11
-16934.26865730848
 21
-515.433735063209
 31
0.0
  0
LINE
  5
390
330
1F
100
AcDbEntity
  8
0-B_寸法
  6
Continuous
 62
     3
370
     5
100
AcDbLine
 10
-16934.26865730848
 20
-515.433735063209
 30
0.0
 11
-16934.26865730848
 21
234.566264936791
 31
0.0
  0
LINE
  5
391
330
1F
100
AcDbEntity
  8
0-B_寸法
  6
Continuous
 62
     3
370
     5
100
AcDbLine
 10
-16934.26865730848
 20
234.566264936791
 30
0.0
 11
-18059.26865730848
 21
-515.433735063209
 31
0.0
  0
LINE
  5
392
330
1F
100
AcDbEntity
  8
0-A_文字
  6
Continuous
 62
     7
370
     5
100
AcDbLine
 10
14439.16278942233
 20
2992.400456547053
 30
0.0
 11
14439.16278942233
 21
2867.400456547053
 31
0.0
  0
LINE
  5
393
330
1F
100
AcDbEntity
  8
0-A_文字
  6
Continuous
 62
     7
370
     5
100
AcDbLine
 10
14039.16278942233
 20
2992.400456547053
 30
0.0
 11
14039.16278942233
 21
2867.400456547053
 31
0.0
  0
LINE
  5
394
330
1F
100
AcDbEntity
  8
0-A_文字
  6
Continuous
 62
     7
370
     5
100
AcDbLine
 10
14614.16278942233
 20
2867.400456547053
 30
0.0
 11
13864.16278942233
 21
2867.400456547053
 31
0.0
  0
LINE
  5
395
330
1F
100
AcDbEntity
  8
0-A_文字
  6
Continuous
 62
     7
370
     5
100
AcDbLine
 10
13864.16278942233
 20
2867.400456547053
 30
0.0
 11
13864.16278942233
 21
-6768.734606497267
 31
0.0
  0
LINE
  5
396
330
1F
100
AcDbEntity
  8
0-A_文字
  6
Continuous
 62
     7
370
     5
100
AcDbLine
 10
14614.16278942233
 20
2867.400456547053
 30
0.0
 11
14614.16278942233
 21
-6768.734606497267
 31
0.0
  0
LINE
  5
397
330
1F
100
AcDbEntity
  8
0-A_文字
  6
JWW_DASHED1
 62
     3
370
     5
100
AcDbLine
 10
-14393.44297717735
 20
2690.447242280488
 30
0.0
 11
-14308.96207293326
 21
2774.928146524577
 31
0.0
  0
LINE
  5
398
330
1F
100
AcDbEntity
  8
0-B_寸法
  6
Continuous
 62
     3
370
     5
100
AcDbLine
 10
-13757.32784648356
 20
2005.184982171001
 30
0.0
 11
-13717.32784648356
 21
2155.184982171002
 31
0.0
  0
LINE
  5
399
330
1F
100
AcDbEntity
  8
0-B_寸法
  6
Continuous
 62
     3
370
     5
100
AcDbLine
 10
-13757.32784648356
 20
2005.184982171001
 30
0.0
 11
-13381.32784648356
 21
2656.184982171002
 31
0.0
  0
LINE
  5
39A
330
1F
100
AcDbEntity
  8
0-B_寸法
  6
Continuous
 62
     3
370
     5
100
AcDbLine
 10
-13381.32784648356
 20
2656.184982171002
 30
0.0
 11
-13181.32784648356
 21
2656.184982171002
 31
0.0
  0
LWPOLYLINE
  5
39B
330
1F
100
AcDbEntity
  8
0-B_寸法
  6
Continuous
 62
     3
370
     5
100
AcDbPolyline
 90
        4
 70
     1
 43
10.0
 10
-13291.76865730855
 20
2005.184982171001
 42
0.4142135623731
 10
-13296.76865730855
 20
2010.184982171002
 42
0.4142135623731
 10
-13301.76865730855
 20
2005.184982171001
 42
0.4142135623731
 10
-13296.76865730855
 20
2000.184982171001
 42
0.4142135623731
  0
LINE
  5
39C
330
1F
100
AcDbEntity
  8
0-B_寸法
  6
Continuous
 62
     3
370
     5
100
AcDbLine
 10
-13409.26865730855
 20
2070.136887454834
 30
0.0
 11
-13409.26865730855
 21
1940.233076887169
 31
0.0
  0
LINE
  5
39D
330
1F
100
AcDbEntity
  8
0-B_寸法
  6
Continuous
 62
     3
370
     5
100
AcDbLine
 10
-13409.26865730855
 20
1940.233076887169
 30
0.0
 11
-13296.76865730855
 21
2005.184982171001
 31
0.0
  0
LINE
  5
39E
330
1F
100
AcDbEntity
  8
0-B_寸法
  6
Continuous
 62
     3
370
     5
100
AcDbLine
 10
-13296.76865730855
 20
2005.184982171001
 30
0.0
 11
-13409.26865730855
 21
2070.136887454834
 31
0.0
  0
LINE
  5
39F
330
1F
100
AcDbEntity
  8
0-B_寸法
  6
Continuous
 62
     3
370
     5
100
AcDbLine
 10
-15434.26865730855
 20
2005.184982171001
 30
0.0
 11
-13296.76865730855
 21
2005.184982171001
 31
0.0
  0
LWPOLYLINE
  5
3A0
330
1F
100
AcDbEntity
  8
0-B_寸法
  6
Continuous
 62
     3
370
     5
100
AcDbPolyline
 90
        4
 70
     1
 43
10.0
 10
-15429.26865730855
 20
2005.184982171001
 42
0.4142135623731
 10
-15434.26865730855
 20
2010.184982171002
 42
0.4142135623731
 10
-15439.26865730855
 20
2005.184982171001
 42
0.4142135623731
 10
-15434.26865730855
 20
2000.184982171001
 42
0.4142135623731
  0
LINE
  5
3A1
330
1F
100
AcDbEntity
  8
0-B_寸法
  6
Continuous
 62
     3
370
     5
100
AcDbLine
 10
-15321.76865730855
 20
1940.233076887169
 30
0.0
 11
-15321.76865730855
 21
2070.136887454834
 31
0.0
  0
LINE
  5
3A2
330
1F
100
AcDbEntity
  8
0-B_寸法
  6
Continuous
 62
     3
370
     5
100
AcDbLine
 10
-15321.76865730855
 20
2070.136887454834
 30
0.0
 11
-15434.26865730855
 21
2005.184982171001
 31
0.0
  0
LINE
  5
3A3
330
1F
100
AcDbEntity
  8
0-B_寸法
  6
Continuous
 62
     3
370
     5
100
AcDbLine
 10
-15434.26865730855
 20
2005.184982171001
 30
0.0
 11
-15321.76865730855
 21
1940.233076887169
 31
0.0
  0
TEXT
  5
3A4
330
1F
100
AcDbEntity
  8
0-B_寸法
  6
Continuous
 62
     7
370
     0
100
AcDbText
 10
-13151.32784648356
 20
2548.484982171002
 30
0.0
 40
228.6
  1
※85.5mmふかす
 41
1.142857142857143
  7
ＭＳ ゴシック
100
AcDbText
  0
LINE
  5
3A5
330
1F
100
AcDbEntity
  8
0-B_寸法
  6
Continuous
 62
     3
370
     5
100
AcDbLine
 10
-10052.43861712433
 20
-4022.685973135031
 30
0.0
 11
-8302.438617124326
 21
-4022.685973135031
 31
0.0
  0
LWPOLYLINE
  5
3A6
330
1F
100
AcDbEntity
  8
0-B_寸法
  6
Continuous
 62
     3
370
     5
100
AcDbPolyline
 90
        4
 70
     1
 43
10.0
 10
-10047.43861712433
 20
-4022.685973135031
 42
0.4142135623731
 10
-10052.43861712433
 20
-4017.685973135032
 42
0.4142135623731
 10
-10057.43861712433
 20
-4022.685973135031
 42
0.4142135623731
 10
-10052.43861712433
 20
-4027.685973135031
 42
0.4142135623731
  0
LWPOLYLINE
  5
3A7
330
1F
100
AcDbEntity
  8
0-B_寸法
  6
Continuous
 62
     3
370
     5
100
AcDbPolyline
 90
        4
 70
     1
 43
10.0
 10
-8297.438617124326
 20
-4022.685973135031
 42
0.4142135623731
 10
-8302.438617124326
 20
-4017.685973135032
 42
0.4142135623731
 10
-8307.438617124326
 20
-4022.685973135031
 42
0.4142135623731
 10
-8302.438617124326
 20
-4027.685973135031
 42
0.4142135623731
  0
LINE
  5
3A8
330
1F
100
AcDbEntity
  8
0-B_寸法
  6
Continuous
 62
     3
370
     5
100
AcDbLine
 10
-10052.43861712433
 20
-4022.685973135031
 30
0.0
 11
-10052.43861712433
 21
-2854.326935665471
 31
0.0
  0
LINE
  5
3A9
330
1F
100
AcDbEntity
  8
0-B_寸法
  6
Continuous
 62
     3
370
     5
100
AcDbLine
 10
-8302.438617124326
 20
-4022.685973135031
 30
0.0
 11
-8302.438617124326
 21
-2854.326935665471
 31
0.0
  0
TEXT
  5
3AA
330
1F
100
AcDbEntity
  8
0-B_寸法
  6
Continuous
 62
     7
370
   211
100
AcDbText
 10
-9339.938617124326
 20
-3930.385973135031
 30
0.0
 40
228.6
  1
70
 41
1.083333333333333
  7
ＭＳ ゴシック
100
AcDbText
  0
LINE
  5
3AB
330
1F
100
AcDbEntity
  8
0-A_文字
  6
Continuous
 62
     7
370
     5
100
AcDbLine
 10
-13071.76955575088
 20
-2127.932910263802
 30
0.0
 11
368.4707768221251
 21
-2127.932910263802
 31
0.0
  0
LINE
  5
3AC
330
1F
100
AcDbEntity
  8
0-3_仕上
  6
Continuous
 62
     7
370
     5
100
AcDbLine
 10
-13784.26955575088
 20
-1415.432910263802
 30
0.0
 11
-13296.76865730855
 21
-1415.432910263802
 31
0.0
  0
LINE
  5
3AD
330
1F
100
AcDbEntity
  8
0-3_仕上
  6
Continuous
 62
     7
370
     5
100
AcDbLine
 10
-13559.26955575088
 20
-1640.432910263802
 30
0.0
 11
-13296.76865730855
 21
-1640.432910263802
 31
0.0
  0
LINE
  5
3AE
330
1F
100
AcDbEntity
  8
0-3_仕上
  6
Continuous
 62
     7
370
     5
100
AcDbLine
 10
-13071.76955575088
 20
-2127.932910263802
 30
0.0
 11
-13071.76955575088
 21
-4985.761043177712
 31
0.0
  0
TEXT
  5
3AF
330
1F
100
AcDbEntity
  8
0-A_文字
  6
Continuous
 62
     7
370
     0
100
AcDbText
 10
-17960.22099447514
 20
13282.91933701657
 30
0.0
 40
304.8
  1
２本引戸
 41
1.09375
  7
ＭＳ ゴシック
100
AcDbText
  0
LINE
  5
3B0
330
1F
100
AcDbEntity
  8
0-A_文字
  6
Continuous
 62
     7
370
     5
100
AcDbLine
 10
-4833.107092301162
 20
-565.4334051434475
 30
0.0
 11
1930.970281942479
 21
-565.4334051434475
 31
0.0
  0
LINE
  5
3B1
330
1F
100
AcDbEntity
  8
0-A_文字
  6
Continuous
 62
     7
370
     5
100
AcDbLine
 10
-4833.107092301162
 20
-790.4329102638017
 30
0.0
 11
1705.970776822124
 21
-790.4329102638017
 31
0.0
  0
LINE
  5
3B2
330
1F
100
AcDbEntity
  8
0-A_文字
  6
Continuous
 62
     7
370
     5
100
AcDbLine
 10
-14409.26955575088
 20
-790.4329102638017
 30
0.0
 11
-13296.76865730855
 21
-790.4329102638017
 31
0.0
  0
LINE
  5
3B3
330
1F
100
AcDbEntity
  8
0-A_文字
  6
Continuous
 62
     7
370
     5
100
AcDbLine
 10
-12771.76865730855
 20
-790.4329102638017
 30
0.0
 11
-10052.43861712433
 21
-790.4329102638017
 31
0.0
  0
LINE
  5
3B4
330
1F
100
AcDbEntity
  8
0-A_文字
  6
Continuous
 62
     7
370
     5
100
AcDbLine
 10
-14634.26906087124
 20
-565.4334051434475
 30
0.0
 11
-13296.76865730855
 21
-565.4334051434475
 31
0.0
  0
LINE
  5
3B5
330
1F
100
AcDbEntity
  8
0-A_文字
  6
Continuous
 62
     7
370
     5
100
AcDbLine
 10
-12771.76865730855
 20
-565.4334051434475
 30
0.0
 11
-10052.43861712433
 21
-565.4334051434475
 31
0.0
  0
LINE
  5
3B6
330
1F
100
AcDbEntity
  8
0-A_文字
  6
Continuous
 62
     3
370
     5
100
AcDbLine
 10
-5199.30268853216
 20
-152.9339000230934
 30
0.0
 11
-5283.108082060454
 21
-69.12850649479907
 31
0.0
  0
LINE
  5
3B7
330
1F
100
AcDbEntity
  8
0-A_文字
  6
Continuous
 62
     7
370
     5
100
AcDbLine
 10
-5283.108082060454
 20
572.0672546960814
 30
0.0
 11
-5283.108082060454
 21
-102.9337350632105
 31
0.0
  0
ARC
  5
3B8
330
1F
100
AcDbEntity
  8
0-A_文字
  6
Continuous
 62
     7
370
     5
100
AcDbCircle
 10
-5233.107917100574
 20
-102.9337350632105
 30
0.0
 40
50.00000064437454
100
AcDbArc
 50
180.0
 51
270.0
  0
ARC
  5
3B9
330
1F
100
AcDbEntity
  8
0-A_文字
  6
Continuous
 62
     7
370
     5
100
AcDbCircle
 10
-5258.109236779626
 20
572.0672546960814
 30
0.0
 40
25.00000032218727
100
AcDbArc
 50
90.0
 51
180.0
  0
LINE
  5
3BA
330
1F
100
AcDbEntity
  8
0-A_文字
  6
Continuous
 62
     7
370
     5
100
AcDbLine
 10
-5058.1085769401
 20
597.0660999769066
 30
0.0
 11
-5259.639320993345
 21
597.0660999769066
 31
0.0
  0
LINE
  5
3BB
330
1F
100
AcDbEntity
  8
0-A_文字
  6
Continuous
 62
     7
370
     5
100
AcDbLine
 10
-5058.1085769401
 20
-152.9339000230934
 30
0.0
 11
-5247.2694678444
 21
-152.9339000230934
 31
0.0
  0
LINE
  5
3BC
330
1F
100
AcDbEntity
  8
0-A_文字
  6
Continuous
 62
     3
370
     5
100
AcDbLine
 10
-5058.1085769401
 20
337.9792848903364
 30
0.0
 11
-5283.108082060454
 21
562.9787900106905
 31
0.0
  0
LINE
  5
3BD
330
1F
100
AcDbEntity
  8
0-A_文字
  6
Continuous
 62
     3
370
     5
100
AcDbLine
 10
-5058.1085769401
 20
196.5575286614509
 30
0.0
 11
-5283.108082060454
 21
421.5570337818071
 31
0.0
  0
LINE
  5
3BE
330
1F
100
AcDbEntity
  8
0-A_文字
  6
Continuous
 62
     3
370
     5
100
AcDbLine
 10
-5058.1085769401
 20
55.13577243256549
 30
0.0
 11
-5283.108082060454
 21
280.1371333566939
 31
0.0
  0
LINE
  5
3BF
330
1F
100
AcDbEntity
  8
0-A_文字
  6
Continuous
 62
     3
370
     5
100
AcDbLine
 10
-5058.1085769401
 20
-86.28598379631711
 30
0.0
 11
-5283.108082060454
 21
138.7153771278092
 31
0.0
  0
LINE
  5
3C0
330
1F
100
AcDbEntity
  8
0-A_文字
  6
Continuous
 62
     3
370
     5
100
AcDbLine
 10
-5132.88241694221
 20
-152.9339000230934
 30
0.0
 11
-5283.108082060454
 21
-2.706584472369133
 31
0.0
  0
LINE
  5
3C1
330
1F
100
AcDbEntity
  8
0-A_文字
  6
Continuous
 62
     3
370
     5
100
AcDbLine
 10
9539.162789422331
 20
7063.101668874565
 30
0.0
 11
9851.662789422331
 21
7063.101668874565
 31
0.0
  0
LWPOLYLINE
  5
3C2
330
1F
100
AcDbEntity
  8
0-A_文字
  6
Continuous
 62
     3
370
     5
100
AcDbPolyline
 90
        4
 70
     1
 43
10.0
 10
9544.162789422331
 20
7063.101668874565
 42
0.4142135623731
 10
9539.162789422331
 20
7068.101668874564
 42
0.4142135623731
 10
9534.162789422333
 20
7063.101668874565
 42
0.4142135623731
 10
9539.162789422331
 20
7058.101668874565
 42
0.4142135623731
  0
LWPOLYLINE
  5
3C3
330
1F
100
AcDbEntity
  8
0-A_文字
  6
Continuous
 62
     3
370
     5
100
AcDbPolyline
 90
        4
 70
     1
 43
10.0
 10
9856.662789422331
 20
7063.101668874565
 42
0.4142135623731
 10
9851.662789422331
 20
7068.101668874564
 42
0.4142135623731
 10
9846.662789422333
 20
7063.101668874565
 42
0.4142135623731
 10
9851.662789422331
 20
7058.101668874565
 42
0.4142135623731
  0
LINE
  5
3C4
330
1F
100
AcDbEntity
  8
0-A_文字
  6
Continuous
 62
     3
370
     5
100
AcDbLine
 10
9539.162789422331
 20
7063.101668874565
 30
0.0
 11
9539.162789422331
 21
5954.2749819588
 31
0.0
  0
LINE
  5
3C5
330
1F
100
AcDbEntity
  8
0-A_文字
  6
Continuous
 62
     3
370
     5
100
AcDbLine
 10
9851.662789422331
 20
7063.101668874565
 30
0.0
 11
9851.662789422331
 21
5954.2749819588
 31
0.0
  0
LINE
  5
3C6
330
1F
100
AcDbEntity
  8
0-A_文字
  6
Continuous
 62
     3
370
     5
100
AcDbLine
 10
9851.662789422331
 20
7063.101668874565
 30
0.0
 11
12476.66278942233
 21
7063.101668874565
 31
0.0
  0
LWPOLYLINE
  5
3C7
330
1F
100
AcDbEntity
  8
0-A_文字
  6
Continuous
 62
     3
370
     5
100
AcDbPolyline
 90
        4
 70
     1
 43
10.0
 10
12481.66278942233
 20
7063.101668874565
 42
0.4142135623731
 10
12476.66278942233
 20
7068.101668874564
 42
0.4142135623731
 10
12471.66278942233
 20
7063.101668874565
 42
0.4142135623731
 10
12476.66278942233
 20
7058.101668874565
 42
0.4142135623731
  0
LINE
  5
3C8
330
1F
100
AcDbEntity
  8
0-A_文字
  6
Continuous
 62
     3
370
     5
100
AcDbLine
 10
12476.66278942233
 20
7063.101668874565
 30
0.0
 11
12476.66278942233
 21
5954.2749819588
 31
0.0
  0
TEXT
  5
3C9
330
1F
100
AcDbEntity
  8
0-A_文字
  6
Continuous
 62
     7
370
     0
100
AcDbText
 10
10976.66278942233
 20
7155.401668874565
 30
0.0
 40
228.6
  1
105
 41
1.111111111111111
  7
ＭＳ ゴシック
100
AcDbText
  0
LINE
  5
3CA
330
1F
100
AcDbEntity
  8
0-A_文字
  6
Continuous
 62
     3
370
     5
100
AcDbLine
 10
12476.66278942233
 20
7063.101668874565
 30
0.0
 11
12789.16278942233
 21
7063.101668874565
 31
0.0
  0
LWPOLYLINE
  5
3CB
330
1F
100
AcDbEntity
  8
0-A_文字
  6
Continuous
 62
     3
370
     5
100
AcDbPolyline
 90
        4
 70
     1
 43
10.0
 10
12794.16278942233
 20
7063.101668874565
 42
0.4142135623731
 10
12789.16278942233
 20
7068.101668874564
 42
0.4142135623731
 10
12784.16278942233
 20
7063.101668874565
 42
0.4142135623731
 10
12789.16278942233
 20
7058.101668874565
 42
0.4142135623731
  0
LINE
  5
3CC
330
1F
100
AcDbEntity
  8
0-A_文字
  6
Continuous
 62
     3
370
     5
100
AcDbLine
 10
12789.16278942233
 20
7063.101668874565
 30
0.0
 11
12789.16278942233
 21
5954.2749819588
 31
0.0
  0
LINE
  5
3CD
330
1F
100
AcDbEntity
  8
0-A_文字
  6
JWW_HOJO
 62
     3
370
     5
100
AcDbLine
 10
9851.662789422331
 20
7763.101668874565
 30
0.0
 11
12476.66278942233
 21
7763.101668874565
 31
0.0
  0
LINE
  5
3CE
330
1F
100
AcDbEntity
  8
0-A_文字
  6
Continuous
 62
     3
370
     5
100
AcDbLine
 10
9539.162789422331
 20
7763.101668874565
 30
0.0
 11
12789.16278942233
 21
7763.101668874565
 31
0.0
  0
LWPOLYLINE
  5
3CF
330
1F
100
AcDbEntity
  8
0-A_文字
  6
Continuous
 62
     3
370
     5
100
AcDbPolyline
 90
        4
 70
     1
 43
10.0
 10
9544.162789422331
 20
7763.101668874565
 42
0.4142135623731
 10
9539.162789422331
 20
7768.101668874564
 42
0.4142135623731
 10
9534.162789422333
 20
7763.101668874565
 42
0.4142135623731
 10
9539.162789422331
 20
7758.101668874565
 42
0.4142135623731
  0
LWPOLYLINE
  5
3D0
330
1F
100
AcDbEntity
  8
0-A_文字
  6
Continuous
 62
     3
370
     5
100
AcDbPolyline
 90
        4
 70
     1
 43
10.0
 10
12794.16278942233
 20
7763.101668874565
 42
0.4142135623731
 10
12789.16278942233
 20
7768.101668874564
 42
0.4142135623731
 10
12784.16278942233
 20
7763.101668874565
 42
0.4142135623731
 10
12789.16278942233
 20
7758.101668874565
 42
0.4142135623731
  0
LINE
  5
3D1
330
1F
100
AcDbEntity
  8
0-A_文字
  6
Continuous
 62
     3
370
     5
100
AcDbLine
 10
9539.162789422331
 20
7763.101668874565
 30
0.0
 11
9539.162789422331
 21
7063.101668874565
 31
0.0
  0
LINE
  5
3D2
330
1F
100
AcDbEntity
  8
0-A_文字
  6
Continuous
 62
     3
370
     5
100
AcDbLine
 10
12789.16278942233
 20
7763.101668874565
 30
0.0
 11
12789.16278942233
 21
7063.101668874565
 31
0.0
  0
TEXT
  5
3D3
330
1F
100
AcDbEntity
  8
0-A_文字
  6
Continuous
 62
     7
370
     0
100
AcDbText
 10
10976.66278942233
 20
7855.401668874565
 30
0.0
 40
228.6
  1
130
 41
1.111111111111111
  7
ＭＳ ゴシック
100
AcDbText
  0
TEXT
  5
3D4
330
1F
100
AcDbEntity
  8
0-A_文字
  6
Continuous
 62
     7
370
     0
100
AcDbText
 10
9627.612293232127
 20
7178.350793013758
 30
0.0
 40
228.6
  1
12.5
 41
1.125
  7
ＭＳ ゴシック
100
AcDbText
  0
LINE
  5
3D5
330
1F
100
AcDbEntity
  8
0-A_文字
  6
JWW_HOJO
 62
     3
370
     5
100
AcDbLine
 10
14839.16278942233
 20
7763.101668874565
 30
0.0
 11
14839.16278942233
 21
7063.101668874565
 31
0.0
  0
LWPOLYLINE
  5
3D6
330
1F
100
AcDbEntity
  8
0-A_文字
  6
Continuous
 62
     3
370
     5
100
AcDbPolyline
 90
        4
 70
     1
 43
10.0
 10
14844.16278942233
 20
7063.101668874565
 42
0.4142135623731
 10
14839.16278942233
 20
7068.101668874564
 42
0.4142135623731
 10
14834.16278942233
 20
7063.101668874565
 42
0.4142135623731
 10
14839.16278942233
 20
7058.101668874565
 42
0.4142135623731
  0
LINE
  5
3D7
330
1F
100
AcDbEntity
  8
0-A_文字
  6
Continuous
 62
     3
370
     5
100
AcDbLine
 10
14839.16278942233
 20
7063.101668874565
 30
0.0
 11
14839.16278942233
 21
5949.327201023309
 31
0.0
  0
LINE
  5
3D8
330
1F
100
AcDbEntity
  8
0-A_文字
  6
Continuous
 62
     3
370
     5
100
AcDbLine
 10
12789.16278942233
 20
7763.101668874565
 30
0.0
 11
14839.16278942233
 21
7763.101668874565
 31
0.0
  0
LWPOLYLINE
  5
3D9
330
1F
100
AcDbEntity
  8
0-A_文字
  6
Continuous
 62
     3
370
     5
100
AcDbPolyline
 90
        4
 70
     1
 43
10.0
 10
14844.16278942233
 20
7763.101668874565
 42
0.4142135623731
 10
14839.16278942233
 20
7768.101668874564
 42
0.4142135623731
 10
14834.16278942233
 20
7763.101668874565
 42
0.4142135623731
 10
14839.16278942233
 20
7758.101668874565
 42
0.4142135623731
  0
LINE
  5
3DA
330
1F
100
AcDbEntity
  8
0-A_文字
  6
Continuous
 62
     3
370
     5
100
AcDbLine
 10
14839.16278942233
 20
7763.101668874565
 30
0.0
 11
14839.16278942233
 21
7063.101668874565
 31
0.0
  0
TEXT
  5
3DB
330
1F
100
AcDbEntity
  8
0-A_文字
  6
Continuous
 62
     7
370
     0
100
AcDbText
 10
13464.16278942234
 20
7855.401668874565
 30
0.0
 40
228.6
  1
82
 41
1.083333333333333
  7
ＭＳ ゴシック
100
AcDbText
  0
LINE
  5
3DC
330
1F
100
AcDbEntity
  8
0-A_文字
  6
JWW_HOJO
 62
     3
370
     5
100
AcDbLine
 10
13126.66278942233
 20
7063.101668874565
 30
0.0
 11
13126.66278942233
 21
5954.2749819588
 31
0.0
  0
LINE
  5
3DD
330
1F
100
AcDbEntity
  8
0-A_文字
  6
JWW_HOJO
 62
     3
370
     5
100
AcDbLine
 10
13651.66278942233
 20
7063.101668874565
 30
0.0
 11
13651.66278942233
 21
5954.2749819588
 31
0.0
  0
LINE
  5
3DE
330
1F
100
AcDbEntity
  8
0-A_文字
  6
Continuous
 62
     3
370
     5
100
AcDbLine
 10
12789.16278942233
 20
7063.101668874565
 30
0.0
 11
13126.66278942233
 21
7063.101668874565
 31
0.0
  0
LWPOLYLINE
  5
3DF
330
1F
100
AcDbEntity
  8
0-A_文字
  6
Continuous
 62
     3
370
     5
100
AcDbPolyline
 90
        4
 70
     1
 43
10.0
 10
13131.66278942233
 20
7063.101668874565
 42
0.4142135623731
 10
13126.66278942233
 20
7068.101668874564
 42
0.4142135623731
 10
13121.66278942233
 20
7063.101668874565
 42
0.4142135623731
 10
13126.66278942233
 20
7058.101668874565
 42
0.4142135623731
  0
LINE
  5
3E0
330
1F
100
AcDbEntity
  8
0-A_文字
  6
Continuous
 62
     3
370
     5
100
AcDbLine
 10
13126.66278942233
 20
7063.101668874565
 30
0.0
 11
13126.66278942233
 21
5954.2749819588
 31
0.0
  0
LWPOLYLINE
  5
3E1
330
1F
100
AcDbEntity
  8
0-A_文字
  6
Continuous
 62
     3
370
     5
100
AcDbPolyline
 90
        4
 70
     1
 43
10.0
 10
13656.66278942233
 20
7063.101668874565
 42
0.4142135623731
 10
13651.66278942233
 20
7068.101668874564
 42
0.4142135623731
 10
13646.66278942233
 20
7063.101668874565
 42
0.4142135623731
 10
13651.66278942233
 20
7058.101668874565
 42
0.4142135623731
  0
LINE
  5
3E2
330
1F
100
AcDbEntity
  8
0-A_文字
  6
Continuous
 62
     3
370
     5
100
AcDbLine
 10
13651.66278942233
 20
7063.101668874565
 30
0.0
 11
13651.66278942233
 21
5949.327201023309
 31
0.0
  0
LINE
  5
3E3
330
1F
100
AcDbEntity
  8
0-A_文字
  6
Continuous
 62
     3
370
     5
100
AcDbLine
 10
13126.66278942233
 20
7063.101668874565
 30
0.0
 11
13651.66278942233
 21
7063.101668874565
 31
0.0
  0
TEXT
  5
3E4
330
1F
100
AcDbEntity
  8
0-A_文字
  6
Continuous
 62
     7
370
     0
100
AcDbText
 10
13269.90599988012
 20
7150.746029958155
 30
0.0
 40
228.6
  1
21
 41
1.083333333333333
  7
ＭＳ ゴシック
100
AcDbText
  0
TEXT
  5
3E5
330
1F
100
AcDbEntity
  8
0-A_文字
  6
Continuous
 62
     7
370
     0
100
AcDbText
 10
12096.55700428506
 20
7128.16974079812
 30
0.0
 40
228.6
  1
12.5
 41
1.125
  7
ＭＳ ゴシック
100
AcDbText
  0
TEXT
  5
3E6
330
1F
100
AcDbEntity
  8
0-A_文字
  6
Continuous
 62
     7
370
     0
100
AcDbText
 10
12625.86301173577
 20
6662.732272261858
 30
0.0
 40
228.6
  1
13.5
 41
1.125
  7
ＭＳ ゴシック
100
AcDbText
  0
LINE
  5
3E7
330
1F
100
AcDbEntity
  8
0-A_文字
  6
Continuous
 62
     3
370
     5
100
AcDbLine
 10
13651.66278942233
 20
7063.101668874565
 30
0.0
 11
13976.66278942233
 21
7063.101668874565
 31
0.0
  0
LWPOLYLINE
  5
3E8
330
1F
100
AcDbEntity
  8
0-A_文字
  6
Continuous
 62
     3
370
     5
100
AcDbPolyline
 90
        4
 70
     1
 43
10.0
 10
13981.66278942233
 20
7063.101668874565
 42
0.4142135623731
 10
13976.66278942233
 20
7068.101668874564
 42
0.4142135623731
 10
13971.66278942233
 20
7063.101668874565
 42
0.4142135623731
 10
13976.66278942233
 20
7058.101668874565
 42
0.4142135623731
  0
LINE
  5
3E9
330
1F
100
AcDbEntity
  8
0-A_文字
  6
Continuous
 62
     3
370
     5
100
AcDbLine
 10
13976.66278942233
 20
7063.101668874565
 30
0.0
 11
13976.66278942233
 21
5949.327201023309
 31
0.0
  0
LINE
  5
3EA
330
1F
100
AcDbEntity
  8
0-A_文字
  6
Continuous
 62
     3
370
     5
100
AcDbLine
 10
13976.66278942233
 20
7063.101668874565
 30
0.0
 11
14501.66278942233
 21
7063.101668874565
 31
0.0
  0
LWPOLYLINE
  5
3EB
330
1F
100
AcDbEntity
  8
0-A_文字
  6
Continuous
 62
     3
370
     5
100
AcDbPolyline
 90
        4
 70
     1
 43
10.0
 10
14506.66278942233
 20
7063.101668874565
 42
0.4142135623731
 10
14501.66278942233
 20
7068.101668874564
 42
0.4142135623731
 10
14496.66278942233
 20
7063.101668874565
 42
0.4142135623731
 10
14501.66278942233
 20
7058.101668874565
 42
0.4142135623731
  0
LINE
  5
3EC
330
1F
100
AcDbEntity
  8
0-A_文字
  6
Continuous
 62
     3
370
     5
100
AcDbLine
 10
14501.66278942233
 20
7063.101668874565
 30
0.0
 11
14501.66278942233
 21
5949.327201023309
 31
0.0
  0
TEXT
  5
3ED
330
1F
100
AcDbEntity
  8
0-A_文字
  6
Continuous
 62
     7
370
     0
100
AcDbText
 10
14076.66278942233
 20
7155.401668874565
 30
0.0
 40
228.6
  1
21
 41
1.083333333333333
  7
ＭＳ ゴシック
100
AcDbText
  0
LINE
  5
3EE
330
1F
100
AcDbEntity
  8
0-A_文字
  6
Continuous
 62
     3
370
     5
100
AcDbLine
 10
14501.66278942233
 20
7063.101668874565
 30
0.0
 11
14839.16278942233
 21
7063.101668874565
 31
0.0
  0
TEXT
  5
3EF
330
1F
100
AcDbEntity
  8
0-A_文字
  6
Continuous
 62
     7
370
     0
100
AcDbText
 10
13584.58454207655
 20
6779.148458088953
 30
0.0
 40
228.6
  1
13
 41
1.083333333333333
  7
ＭＳ ゴシック
100
AcDbText
  0
TEXT
  5
3F0
330
1F
100
AcDbEntity
  8
0-A_文字
  6
Continuous
 62
     7
370
     0
100
AcDbText
 10
14543.30607241733
 20
6765.452436226941
 30
0.0
 40
228.6
  1
13.5
 41
1.125
  7
ＭＳ ゴシック
100
AcDbText
  0
LINE
  5
3F1
330
1F
100
AcDbEntity
  8
0-A_文字
  6
Continuous
 62
     3
370
     5
100
AcDbLine
 10
8679.952375621584
 20
2942.400456547053
 30
0.0
 11
8679.952375621584
 21
-6993.735870115736
 31
0.0
  0
LWPOLYLINE
  5
3F2
330
1F
100
AcDbEntity
  8
0-A_文字
  6
Continuous
 62
     3
370
     5
100
AcDbPolyline
 90
        4
 70
     1
 43
10.0
 10
8684.952375621584
 20
2942.400456547053
 42
0.4142135623731
 10
8679.952375621584
 20
2947.400456547053
 42
0.4142135623731
 10
8674.952375621586
 20
2942.400456547053
 42
0.4142135623731
 10
8679.952375621584
 20
2937.400456547052
 42
0.4142135623731
  0
LWPOLYLINE
  5
3F3
330
1F
100
AcDbEntity
  8
0-A_文字
  6
Continuous
 62
     3
370
     5
100
AcDbPolyline
 90
        4
 70
     1
 43
10.0
 10
8684.952375621584
 20
-6993.735870115736
 42
0.4142135623731
 10
8679.952375621584
 20
-6988.735870115736
 42
0.4142135623731
 10
8674.952375621586
 20
-6993.735870115736
 42
0.4142135623731
 10
8679.952375621584
 20
-6998.735870115736
 42
0.4142135623731
  0
LINE
  5
3F4
330
1F
100
AcDbEntity
  8
0-A_文字
  6
Continuous
 62
     3
370
     5
100
AcDbLine
 10
8679.952375621584
 20
2942.400456547053
 30
0.0
 11
9010.132693243142
 21
2942.400456547053
 31
0.0
  0
LINE
  5
3F5
330
1F
100
AcDbEntity
  8
0-A_文字
  6
Continuous
 62
     3
370
     5
100
AcDbLine
 10
8679.952375621584
 20
-6993.735870115736
 30
0.0
 11
9010.132693243142
 21
-6993.735870115736
 31
0.0
  0
TEXT
  5
3F6
330
1F
100
AcDbEntity
  8
0-A_文字
  6
Continuous
 62
     7
370
     0
100
AcDbText
 10
8587.652375621585
 20
-2338.167706784341
 30
0.0
 40
228.6
  1
2,006
 50
90.0
 41
1.133333333333333
  7
ＭＳ ゴシック
100
AcDbText
  0
LINE
  5
3F7
330
1F
100
AcDbEntity
  8
0-A_文字
  6
Continuous
 62
     3
370
     5
100
AcDbLine
 10
8615.000470337753
 20
2829.900456547053
 30
0.0
 11
8744.904280905417
 21
2829.900456547053
 31
0.0
  0
LINE
  5
3F8
330
1F
100
AcDbEntity
  8
0-A_文字
  6
Continuous
 62
     3
370
     5
100
AcDbLine
 10
8744.904280905417
 20
2829.900456547053
 30
0.0
 11
8679.952375621584
 21
2942.400456547053
 31
0.0
  0
LINE
  5
3F9
330
1F
100
AcDbEntity
  8
0-A_文字
  6
Continuous
 62
     3
370
     5
100
AcDbLine
 10
8679.952375621584
 20
2942.400456547053
 30
0.0
 11
8615.000470337753
 21
2829.900456547053
 31
0.0
  0
LINE
  5
3FA
330
1F
100
AcDbEntity
  8
0-A_文字
  6
Continuous
 62
     3
370
     5
100
AcDbLine
 10
8744.904280905417
 20
-6881.235870115736
 30
0.0
 11
8615.000470337753
 21
-6881.235870115736
 31
0.0
  0
LINE
  5
3FB
330
1F
100
AcDbEntity
  8
0-A_文字
  6
Continuous
 62
     3
370
     5
100
AcDbLine
 10
8615.000470337753
 20
-6881.235870115736
 30
0.0
 11
8679.952375621584
 21
-6993.735870115736
 31
0.0
  0
LINE
  5
3FC
330
1F
100
AcDbEntity
  8
0-A_文字
  6
Continuous
 62
     3
370
     5
100
AcDbLine
 10
8679.952375621584
 20
-6993.735870115736
 30
0.0
 11
8744.904280905417
 21
-6881.235870115736
 31
0.0
  0
TEXT
  5
3FD
330
1F
100
AcDbEntity
  8
0-A_文字
  6
Continuous
 62
     7
370
     0
100
AcDbText
 10
16964.03558681883
 20
-1882.597120148466
 30
0.0
 40
228.6
  1
DH=1,995
 50
90.0
 41
1.145833333333333
  7
ＭＳ ゴシック
100
AcDbText
  0
LINE
  5
3FE
330
1F
100
AcDbEntity
  8
0-A_文字
  6
Continuous
 62
     3
370
     5
100
AcDbLine
 10
17077.97419277312
 20
3692.400456547053
 30
0.0
 11
17077.97419277312
 21
-6793.734606497267
 31
0.0
  0
LINE
  5
3FF
330
1F
100
AcDbEntity
  8
0-A_文字
  6
JWW_HOJO
 62
     3
370
     5
100
AcDbLine
 10
17077.97419277312
 20
-6768.734606497267
 30
0.0
 11
15778.00430457956
 21
-6768.734606497267
 31
0.0
  0
LWPOLYLINE
  5
400
330
1F
100
AcDbEntity
  8
0-A_文字
  6
Continuous
 62
     3
370
     5
100
AcDbPolyline
 90
        4
 70
     1
 43
10.0
 10
17082.97419277312
 20
-6768.734606497267
 42
0.4142135623731
 10
17077.97419277312
 20
-6763.734606497267
 42
0.4142135623731
 10
17072.97419277312
 20
-6768.734606497267
 42
0.4142135623731
 10
17077.97419277312
 20
-6773.734606497267
 42
0.4142135623731
  0
LINE
  5
401
330
1F
100
AcDbEntity
  8
0-A_文字
  6
Continuous
 62
     3
370
     5
100
AcDbLine
 10
17077.97419277312
 20
-6768.734606497267
 30
0.0
 11
15778.00430457956
 21
-6768.734606497267
 31
0.0
  0
TEXT
  5
402
330
1F
100
AcDbEntity
  8
0-A_文字
  6
Continuous
 62
     7
370
     0
100
AcDbText
 10
17385.7939385245
 20
-6905.246258403827
 30
0.0
 40
228.6
  1
3
 50
90.0
 41
0.9999999999999998
  7
ＭＳ ゴシック
100
AcDbText
  0
TEXT
  5
403
330
1F
100
AcDbEntity
  8
0-A_文字
  6
Continuous
 62
     7
370
     0
100
AcDbText
 10
16981.34465460273
 20
-6752.910397220052
 30
0.0
 40
228.6
  1
5
 50
90.0
 41
0.9999999999999998
  7
ＭＳ ゴシック
100
AcDbText
  0
TEXT
  5
404
330
1F
100
AcDbEntity
  8
0-A_文字
  6
Continuous
 62
     7
370
     0
100
AcDbText
 10
15761.10486641417
 20
-6907.487856541567
 30
0.0
 40
228.6
  1
6
 50
90.0
 41
0.9999999999999998
  7
ＭＳ ゴシック
100
AcDbText
  0
TEXT
  5
405
330
1F
100
AcDbEntity
  8
0-A_文字
  6
Continuous
 62
     7
370
     0
100
AcDbText
 10
17385.67419277312
 20
3192.400456547053
 30
0.0
 40
228.6
  1
30
 50
90.0
 41
1.083333333333333
  7
ＭＳ ゴシック
100
AcDbText
  0
LINE
  5
406
330
1F
100
AcDbEntity
  8
0-A_文字
  6
Continuous
 62
     3
370
     5
100
AcDbLine
 10
17077.97419277312
 20
2942.400456547053
 30
0.0
 11
15778.00430457956
 21
2942.400456547053
 31
0.0
  0
LWPOLYLINE
  5
407
330
1F
100
AcDbEntity
  8
0-A_文字
  6
Continuous
 62
     3
370
     5
100
AcDbPolyline
 90
        4
 70
     1
 43
10.0
 10
17082.97419277312
 20
3692.400456547053
 42
0.4142135623731
 10
17077.97419277312
 20
3697.400456547052
 42
0.4142135623731
 10
17072.97419277312
 20
3692.400456547053
 42
0.4142135623731
 10
17077.97419277312
 20
3687.400456547053
 42
0.4142135623731
  0
LWPOLYLINE
  5
408
330
1F
100
AcDbEntity
  8
0-A_文字
  6
Continuous
 62
     3
370
     5
100
AcDbPolyline
 90
        4
 70
     1
 43
10.0
 10
17082.97419277312
 20
2942.400456547053
 42
0.4142135623731
 10
17077.97419277312
 20
2947.400456547053
 42
0.4142135623731
 10
17072.97419277312
 20
2942.400456547053
 42
0.4142135623731
 10
17077.97419277312
 20
2937.400456547052
 42
0.4142135623731
  0
LWPOLYLINE
  5
409
330
1F
100
AcDbEntity
  8
0-A_文字
  6
Continuous
 62
     3
370
     5
100
AcDbPolyline
 90
        4
 70
     1
 43
10.0
 10
17782.97419277312
 20
2942.400456547053
 42
0.4142135623731
 10
17777.97419277312
 20
2947.400456547053
 42
0.4142135623731
 10
17772.97419277312
 20
2942.400456547053
 42
0.4142135623731
 10
17777.97419277312
 20
2937.400456547052
 42
0.4142135623731
  0
LINE
  5
40A
330
1F
100
AcDbEntity
  8
0-A_文字
  6
Continuous
 62
     3
370
     5
100
AcDbLine
 10
17777.97419277312
 20
2942.400456547053
 30
0.0
 11
17077.97419277312
 21
2942.400456547053
 31
0.0
  0
LWPOLYLINE
  5
40B
330
1F
100
AcDbEntity
  8
0-A_文字
  6
Continuous
 62
     3
370
     5
100
AcDbPolyline
 90
        4
 70
     1
 43
10.0
 10
18482.97419277312
 20
3692.400456547053
 42
0.4142135623731
 10
18477.97419277312
 20
3697.400456547052
 42
0.4142135623731
 10
18472.97419277312
 20
3692.400456547053
 42
0.4142135623731
 10
18477.97419277312
 20
3687.400456547053
 42
0.4142135623731
  0
LINE
  5
40C
330
1F
100
AcDbEntity
  8
0-A_文字
  6
Continuous
 62
     3
370
     5
100
AcDbLine
 10
18477.97419277312
 20
3692.400456547053
 30
0.0
 11
17077.97419277312
 21
3692.400456547053
 31
0.0
  0
LINE
  5
40D
330
1F
100
AcDbEntity
  8
0-A_文字
  6
Continuous
 62
     3
370
     5
100
AcDbLine
 10
17077.97419277312
 20
3692.400456547053
 30
0.0
 11
15778.00430457956
 21
3692.400456547053
 31
0.0
  0
LWPOLYLINE
  5
40E
330
1F
100
AcDbEntity
  8
0-A_文字
  6
Continuous
 62
     3
370
     5
100
AcDbPolyline
 90
        4
 70
     1
 43
10.0
 10
17082.97419277312
 20
2867.400456547053
 42
0.4142135623731
 10
17077.97419277312
 20
2872.400456547053
 42
0.4142135623731
 10
17072.97419277312
 20
2867.400456547053
 42
0.4142135623731
 10
17077.97419277312
 20
2862.400456547052
 42
0.4142135623731
  0
LINE
  5
40F
330
1F
100
AcDbEntity
  8
0-A_文字
  6
Continuous
 62
     3
370
     5
100
AcDbLine
 10
17077.97419277312
 20
2867.400456547053
 30
0.0
 11
15778.00430457956
 21
2867.400456547053
 31
0.0
  0
TEXT
  5
410
330
1F
100
AcDbEntity
  8
0-A_文字
  6
Continuous
 62
     7
370
     0
100
AcDbText
 10
16956.76893988264
 20
2641.186428322919
 30
0.0
 40
228.6
  1
3
 50
90.0
 41
0.9999999999999998
  7
ＭＳ ゴシック
100
AcDbText
  0
TEXT
  5
411
330
1F
100
AcDbEntity
  8
0-A_文字
  6
Continuous
 62
     7
370
     0
100
AcDbText
 10
17704.37755220335
 20
-2263.985405346551
 30
0.0
 40
228.6
  1
枠内寸法＝2,003
 50
90.0
 41
1.155555555555555
  7
ＭＳ ゴシック
100
AcDbText
  0
TEXT
  5
412
330
1F
100
AcDbEntity
  8
0-A_文字
  6
Continuous
 62
     7
370
     0
100
AcDbText
 10
18419.42560017277
 20
-2261.346040051063
 30
0.0
 40
228.6
  1
枠外寸法＝2,048
 50
90.0
 41
1.155555555555555
  7
ＭＳ ゴシック
100
AcDbText
  0
LINE
  5
413
330
1F
100
AcDbEntity
  8
0-B_寸法
  6
Continuous
 62
     3
370
     5
100
AcDbLine
 10
17077.97419277312
 20
-6918.734606497267
 30
0.0
 11
15328.45835039782
 21
-6918.734606497267
 31
0.0
  0
LINE
  5
414
330
1F
100
AcDbEntity
  8
0-B_寸法
  6
Continuous
 62
     3
370
     5
100
AcDbLine
 10
17777.97419277312
 20
-6918.734606497267
 30
0.0
 11
17077.97419277312
 21
-6918.734606497267
 31
0.0
  0
LINE
  5
415
330
1F
100
AcDbEntity
  8
0-B_寸法
  6
Continuous
 62
     3
370
     5
100
AcDbLine
 10
17077.97419277312
 20
-6993.735870115736
 30
0.0
 11
17077.97419277312
 21
-7293.735870115736
 31
0.0
  0
LINE
  5
416
330
1F
100
AcDbEntity
  8
0-B_寸法
  6
Continuous
 62
     3
370
     5
100
AcDbLine
 10
17077.97419277312
 20
-6793.734606497267
 30
0.0
 11
17077.97419277312
 21
-6918.734606497267
 31
0.0
  0
LWPOLYLINE
  5
417
330
1F
100
AcDbEntity
  8
0-B_寸法
  6
Continuous
 62
     3
370
     5
100
AcDbPolyline
 90
        4
 70
     1
 43
10.0
 10
17082.97419277312
 20
-6993.735870115736
 42
0.4142135623731
 10
17077.97419277312
 20
-6988.735870115736
 42
0.4142135623731
 10
17072.97419277312
 20
-6993.735870115736
 42
0.4142135623731
 10
17077.97419277312
 20
-6998.735870115736
 42
0.4142135623731
  0
LINE
  5
418
330
1F
100
AcDbEntity
  8
0-B_寸法
  6
Continuous
 62
     3
370
     5
100
AcDbLine
 10
17777.97419277312
 20
2942.400456547053
 30
0.0
 11
17777.97419277312
 21
-6918.734606497267
 31
0.0
  0
LINE
  5
419
330
1F
100
AcDbEntity
  8
0-B_寸法
  6
Continuous
 62
     3
370
     5
100
AcDbLine
 10
17777.97419277312
 20
-6918.734606497267
 30
0.0
 11
17777.97419277312
 21
-7293.735870115736
 31
0.0
  0
LINE
  5
41A
330
1F
100
AcDbEntity
  8
0-B_寸法
  6
Continuous
 62
     3
370
     5
100
AcDbLine
 10
15832.08813935208
 20
-7068.734606497267
 30
0.0
 11
15450.25995993808
 21
-7068.734606497267
 31
0.0
  0
LWPOLYLINE
  5
41B
330
1F
100
AcDbEntity
  8
0-B_寸法
  6
Continuous
 62
     3
370
     5
100
AcDbPolyline
 90
        4
 70
     1
 43
10.0
 10
15837.08813935208
 20
-6918.734606497267
 42
0.4142135623731
 10
15832.08813935208
 20
-6913.734606497267
 42
0.4142135623731
 10
15827.08813935208
 20
-6918.734606497267
 42
0.4142135623731
 10
15832.08813935208
 20
-6923.734606497267
 42
0.4142135623731
  0
LWPOLYLINE
  5
41C
330
1F
100
AcDbEntity
  8
0-B_寸法
  6
Continuous
 62
     3
370
     5
100
AcDbPolyline
 90
        4
 70
     1
 43
10.0
 10
15837.08813935208
 20
-7068.734606497267
 42
0.4142135623731
 10
15832.08813935208
 20
-7063.734606497267
 42
0.4142135623731
 10
15827.08813935208
 20
-7068.734606497267
 42
0.4142135623731
 10
15832.08813935208
 20
-7073.734606497267
 42
0.4142135623731
  0
LINE
  5
41D
330
1F
100
AcDbEntity
  8
0-B_寸法
  6
Continuous
 62
     3
370
     5
100
AcDbLine
 10
15832.08813935208
 20
-6918.734606497267
 30
0.0
 11
15832.08813935208
 21
-7068.734606497267
 31
0.0
  0
LINE
  5
41E
330
1F
100
AcDbEntity
  8
0-B_寸法
  6
Continuous
 62
     3
370
     5
100
AcDbLine
 10
18477.97419277312
 20
3692.400456547053
 30
0.0
 11
18477.97419277312
 21
-7293.735870115736
 31
0.0
  0
LWPOLYLINE
  5
41F
330
1F
100
AcDbEntity
  8
0-A_文字
  6
Continuous
 62
     3
370
     5
100
AcDbPolyline
 90
        4
 70
     1
 43
10.0
 10
13506.66278942233
 20
-5825.885430343547
 42
0.4142135623731
 10
13501.66278942233
 20
-5820.885430343547
 42
0.4142135623731
 10
13496.66278942233
 20
-5825.885430343547
 42
0.4142135623731
 10
13501.66278942233
 20
-5830.885430343546
 42
0.4142135623731
  0
LINE
  5
420
330
1F
100
AcDbEntity
  8
0-A_文字
  6
Continuous
 62
     3
370
     5
100
AcDbLine
 10
12789.16278942233
 20
-5825.885430343547
 30
0.0
 11
13501.66278942233
 21
-5825.885430343547
 31
0.0
  0
TEXT
  5
421
330
1F
100
AcDbEntity
  8
0-A_文字
  6
Continuous
 62
     7
370
     0
100
AcDbText
 10
13301.66278942233
 20
-5733.585430343547
 30
0.0
 40
228.6
  1
9
 41
0.9999999999999998
  7
ＭＳ ゴシック
100
AcDbText
  0
LINE
  5
422
330
1F
100
AcDbEntity
  8
0-A_文字
  6
Continuous
 62
     3
370
     5
100
AcDbLine
 10
13276.66278942233
 20
-5825.885430343547
 30
0.0
 11
13276.66278942233
 21
-6553.177200655927
 31
0.0
  0
LWPOLYLINE
  5
423
330
1F
100
AcDbEntity
  8
0-A_文字
  6
Continuous
 62
     3
370
     5
100
AcDbPolyline
 90
        4
 70
     1
 43
10.0
 10
13281.66278942233
 20
-5825.885430343547
 42
0.4142135623731
 10
13276.66278942233
 20
-5820.885430343547
 42
0.4142135623731
 10
13271.66278942233
 20
-5825.885430343547
 42
0.4142135623731
 10
13276.66278942233
 20
-5830.885430343546
 42
0.4142135623731
  0
LWPOLYLINE
  5
424
330
1F
100
AcDbEntity
  8
0-A_文字
  6
Continuous
 62
     3
370
     5
100
AcDbPolyline
 90
        4
 70
     1
 43
10.0
 10
12794.16278942233
 20
-5825.885430343547
 42
0.4142135623731
 10
12789.16278942233
 20
-5820.885430343547
 42
0.4142135623731
 10
12784.16278942233
 20
-5825.885430343547
 42
0.4142135623731
 10
12789.16278942233
 20
-5830.885430343546
 42
0.4142135623731
  0
LINE
  5
425
330
1F
100
AcDbEntity
  8
0-A_文字
  6
Continuous
 62
     3
370
     5
100
AcDbLine
 10
12789.16278942233
 20
-5825.885430343547
 30
0.0
 11
12789.16278942233
 21
-6553.177200655927
 31
0.0
  0
LWPOLYLINE
  5
426
330
1F
100
AcDbEntity
  8
0-A_文字
  6
Continuous
 62
     3
370
     5
100
AcDbPolyline
 90
        4
 70
     1
 43
10.0
 10
12794.16278942233
 20
-5171.322837062408
 42
0.4142135623731
 10
12789.16278942233
 20
-5166.322837062408
 42
0.4142135623731
 10
12784.16278942233
 20
-5171.322837062408
 42
0.4142135623731
 10
12789.16278942233
 20
-5176.322837062407
 42
0.4142135623731
  0
LINE
  5
427
330
1F
100
AcDbEntity
  8
0-A_文字
  6
Continuous
 62
     3
370
     5
100
AcDbLine
 10
12789.16278942233
 20
-5171.322837062408
 30
0.0
 11
12789.16278942233
 21
-5825.885430343547
 31
0.0
  0
LINE
  5
428
330
1F
100
AcDbEntity
  8
0-A_文字
  6
JWW_HOJO
 62
     3
370
     5
100
AcDbLine
 10
14839.16278942233
 20
-5825.885430343547
 30
0.0
 11
14839.16278942233
 21
-6553.177200655927
 31
0.0
  0
LINE
  5
429
330
1F
100
AcDbEntity
  8
0-A_文字
  6
JWW_HOJO
 62
     3
370
     5
100
AcDbLine
 10
14839.16278942233
 20
-5171.322837062408
 30
0.0
 11
14839.16278942233
 21
-5825.885430343547
 31
0.0
  0
LWPOLYLINE
  5
42A
330
1F
100
AcDbEntity
  8
0-A_文字
  6
Continuous
 62
     3
370
     5
100
AcDbPolyline
 90
        4
 70
     1
 43
10.0
 10
14844.16278942233
 20
-5825.885430343547
 42
0.4142135623731
 10
14839.16278942233
 20
-5820.885430343547
 42
0.4142135623731
 10
14834.16278942233
 20
-5825.885430343547
 42
0.4142135623731
 10
14839.16278942233
 20
-5830.885430343546
 42
0.4142135623731
  0
LINE
  5
42B
330
1F
100
AcDbEntity
  8
0-A_文字
  6
Continuous
 62
     3
370
     5
100
AcDbLine
 10
14839.16278942233
 20
-5825.885430343547
 30
0.0
 11
14839.16278942233
 21
-6553.177200655927
 31
0.0
  0
LWPOLYLINE
  5
42C
330
1F
100
AcDbEntity
  8
0-A_文字
  6
Continuous
 62
     3
370
     5
100
AcDbPolyline
 90
        4
 70
     1
 43
10.0
 10
14844.16278942233
 20
-5171.322837062408
 42
0.4142135623731
 10
14839.16278942233
 20
-5166.322837062408
 42
0.4142135623731
 10
14834.16278942233
 20
-5171.322837062408
 42
0.4142135623731
 10
14839.16278942233
 20
-5176.322837062407
 42
0.4142135623731
  0
LINE
  5
42D
330
1F
100
AcDbEntity
  8
0-A_文字
  6
Continuous
 62
     3
370
     5
100
AcDbLine
 10
14839.16278942233
 20
-5171.322837062408
 30
0.0
 11
14839.16278942233
 21
-5825.885430343547
 31
0.0
  0
LINE
  5
42E
330
1F
100
AcDbEntity
  8
0-A_文字
  6
Continuous
 62
     3
370
     5
100
AcDbLine
 10
12789.16278942233
 20
-5171.322837062408
 30
0.0
 11
14839.16278942233
 21
-5171.322837062408
 31
0.0
  0
LINE
  5
42F
330
1F
100
AcDbEntity
  8
0-A_文字
  6
Continuous
 62
     3
370
     5
100
AcDbLine
 10
13501.66278942233
 20
-5825.885430343547
 30
0.0
 11
13501.66278942233
 21
-6553.177200655927
 31
0.0
  0
LINE
  5
430
330
1F
100
AcDbEntity
  8
0-A_文字
  6
Continuous
 62
     3
370
     5
100
AcDbLine
 10
13501.66278942233
 20
-5825.885430343547
 30
0.0
 11
14839.16278942233
 21
-5825.885430343547
 31
0.0
  0
TEXT
  5
431
330
1F
100
AcDbEntity
  8
0-A_文字
  6
Continuous
 62
     7
370
     0
100
AcDbText
 10
13534.128832808
 20
-5099.103914601904
 30
0.0
 40
228.6
  1
82
 41
1.083333333333333
  7
ＭＳ ゴシック
100
AcDbText
  0
TEXT
  5
432
330
1F
100
AcDbEntity
  8
0-A_文字
  6
Continuous
 62
     7
370
     0
100
AcDbText
 10
12485.86111703848
 20
-6142.295028388338
 30
0.0
 40
228.6
  1
19.5
 41
1.125
  7
ＭＳ ゴシック
100
AcDbText
  0
LINE
  5
433
330
1F
100
AcDbEntity
  8
0-A_文字
  6
JWW_HOJO
 62
     3
370
     5
100
AcDbLine
 10
14126.66278942233
 20
-5825.885430343547
 30
0.0
 11
14126.66278942233
 21
-6553.177200655927
 31
0.0
  0
LWPOLYLINE
  5
434
330
1F
100
AcDbEntity
  8
0-A_文字
  6
Continuous
 62
     3
370
     5
100
AcDbPolyline
 90
        4
 70
     1
 43
10.0
 10
14356.66278942233
 20
-5825.885430343547
 42
0.4142135623731
 10
14351.66278942233
 20
-5820.885430343547
 42
0.4142135623731
 10
14346.66278942233
 20
-5825.885430343547
 42
0.4142135623731
 10
14351.66278942233
 20
-5830.885430343546
 42
0.4142135623731
  0
TEXT
  5
435
330
1F
100
AcDbEntity
  8
0-A_文字
  6
Continuous
 62
     7
370
     0
100
AcDbText
 10
14151.66278942233
 20
-5733.585430343547
 30
0.0
 40
228.6
  1
9
 41
0.9999999999999998
  7
ＭＳ ゴシック
100
AcDbText
  0
LINE
  5
436
330
1F
100
AcDbEntity
  8
0-A_文字
  6
Continuous
 62
     3
370
     5
100
AcDbLine
 10
14126.66278942233
 20
-5825.885430343547
 30
0.0
 11
14126.66278942233
 21
-6553.177200655927
 31
0.0
  0
LWPOLYLINE
  5
437
330
1F
100
AcDbEntity
  8
0-A_文字
  6
Continuous
 62
     3
370
     5
100
AcDbPolyline
 90
        4
 70
     1
 43
10.0
 10
14131.66278942233
 20
-5825.885430343547
 42
0.4142135623731
 10
14126.66278942233
 20
-5820.885430343547
 42
0.4142135623731
 10
14121.66278942233
 20
-5825.885430343547
 42
0.4142135623731
 10
14126.66278942233
 20
-5830.885430343546
 42
0.4142135623731
  0
LINE
  5
438
330
1F
100
AcDbEntity
  8
0-A_文字
  6
Continuous
 62
     3
370
     5
100
AcDbLine
 10
14351.66278942233
 20
-5825.885430343547
 30
0.0
 11
14351.66278942233
 21
-6553.177200655927
 31
0.0
  0
TEXT
  5
439
330
1F
100
AcDbEntity
  8
0-A_文字
  6
Continuous
 62
     7
370
     0
100
AcDbText
 10
14422.32636052356
 20
-6109.834649723311
 30
0.0
 40
228.6
  1
19.5
 41
1.125
  7
ＭＳ ゴシック
100
AcDbText
  0
TEXT
  5
43A
330
1F
100
AcDbEntity
  8
0-A_文字
  6
Continuous
 62
     7
370
     0
100
AcDbText
 10
13671.16135274669
 20
-6109.834649723311
 30
0.0
 40
228.6
  1
25
 41
1.083333333333333
  7
ＭＳ ゴシック
100
AcDbText
  0
TEXT
  5
43B
330
1F
100
AcDbEntity
  8
F-Aﾚｲﾔ
  6
Continuous
 62
     7
370
     0
100
AcDbText
 10
-200.000412399703
 20
-12905.1332775144
 30
0.0
 40
152.4
  1
図面名
  7
ＭＳ ゴシック
100
AcDbText
  0
TEXT
  5
43C
330
1F
100
AcDbEntity
  8
F-Aﾚｲﾔ
  6
Continuous
 62
     7
370
     0
100
AcDbText
 10
9266.662432696372
 20
-12905.14207666719
 30
0.0
 40
152.4
  1
ＳＣＡＬＥ
 41
0.9999999999999999
  7
ＭＳ ゴシック
100
AcDbText
  0
TEXT
  5
43D
330
1F
100
AcDbEntity
  8
F-Aﾚｲﾔ
  6
Continuous
 62
     7
370
     0
100
AcDbText
 10
14266.66408229519
 20
-12905.14672411046
 30
0.0
 40
152.4
  1
ＤＡＴＥ
  7
ＭＳ ゴシック
100
AcDbText
  0
TEXT
  5
43E
330
1F
100
AcDbEntity
  8
F-Aﾚｲﾔ
  6
Continuous
 62
     7
370
     0
100
AcDbText
 10
3934.725673012397
 20
-13091.03441327408
 30
0.0
 40
228.6
  1
建具納まり図
 41
1.138888888888889
  7
ＭＳ ゴシック
100
AcDbText
  0
TEXT
  5
43F
330
1F
100
AcDbEntity
  8
F-Aﾚｲﾔ
  6
Continuous
 62
     7
370
     0
100
AcDbText
 10
1166.666391733531
 20
-13091.0345478154
 30
0.0
 40
220.2
  1
ＪＵＰＩＮＯ・Ｊ
 41
0.8333333333333334
  7
HG明朝B
100
AcDbText
  0
TEXT
  5
440
330
1F
100
AcDbEntity
  8
F-Aﾚｲﾔ
  6
Continuous
 62
     7
370
     0
100
AcDbText
 10
11366.66325749578
 20
-13091.0442609657
 30
0.0
 40
228.6
  1
1/4
 41
1.111111111111111
  7
ＭＳ ゴシック
100
AcDbText
  0
LINE
  5
441
330
1F
100
AcDbEntity
  8
F-0ﾚｲﾔ
  6
JWW_HOJO
 62
     7
370
     5
100
AcDbLine
 10
-700.000412399703
 20
-12650.00055158461
 30
0.0
 11
-700.000412399703
 21
-13983.33390210126
 31
0.0
  0
LINE
  5
442
330
1F
100
AcDbEntity
  8
F-0ﾚｲﾔ
  6
JWW_HOJO
 62
     7
370
     5
100
AcDbLine
 10
-17491.82458917613
 20
-12650.00055158461
 30
0.0
 11
-17491.82458917613
 21
-14016.66775780755
 31
0.0
  0
LINE
  5
443
330
1F
100
AcDbEntity
  8
F-1ﾚｲﾔ
  6
Continuous
 62
   200
370
     5
100
AcDbLine
 10
18999.99587600296
 20
-12633.33393303124
 30
0.0
 11
-19999.9991752006
 21
-12633.33393303124
 31
0.0
  0
LINE
  5
444
330
1F
100
AcDbEntity
  8
F-1ﾚｲﾔ
  6
Continuous
 62
   200
370
     5
100
AcDbLine
 10
18999.99587600296
 20
-12650.00055158461
 30
0.0
 11
-19999.9991752006
 21
-12650.00055158461
 31
0.0
  0
TEXT
  5
445
330
1F
100
AcDbEntity
  8
F-Aﾚｲﾔ
  6
Continuous
 62
     7
370
     0
100
AcDbText
 10
9266.662432696372
 20
-13571.80875186748
 30
0.0
 40
152.4
  1
ＦＩＬＥ
  7
ＭＳ ゴシック
100
AcDbText
  0
TEXT
  5
446
330
1F
100
AcDbEntity
  8
F-Aﾚｲﾔ
  6
Continuous
 62
     7
370
     0
100
AcDbText
 10
14266.66408229519
 20
-13571.81339931074
 30
0.0
 40
152.4
  1
ＮＯ．
  7
ＭＳ ゴシック
100
AcDbText
  0
TEXT
  5
447
330
1F
100
AcDbEntity
  8
F-Aﾚｲﾔ
  6
Continuous
 62
     7
370
     0
100
AcDbText
 10
4116.66243269637
 20
-13601.80277216177
 30
0.0
 40
152.4
  1
株式
  7
ＭＳ ゴシック
100
AcDbText
  0
TEXT
  5
448
330
1F
100
AcDbEntity
  8
F-Aﾚｲﾔ
  6
Continuous
 62
     7
370
     5
100
AcDbText
 10
16454.16344526943
 20
-13757.7155836079
 30
0.0
 40
228.6
  1
01
 41
1.083333333333333
  7
ＭＳ ゴシック
100
AcDbText
  0
TEXT
  5
449
330
1F
100
AcDbEntity
  8
F-Aﾚｲﾔ
  6
Continuous
 62
     7
370
     0
100
AcDbText
 10
4816.66243269637
 20
-13793.60847302104
 30
0.0
 40
304.8
  1
ウッドワン・・・
 41
1.109375
  7
ＭＳ ゴシック
100
AcDbText
  0
TEXT
  5
44A
330
1F
100
AcDbEntity
  8
F-Aﾚｲﾔ
  6
Continuous
 62
     7
370
     0
100
AcDbText
 10
4116.66243269637
 20
-13841.8027721619
 30
0.0
 40
152.4
  1
会社
  7
ＭＳ ゴシック
100
AcDbText
  0
LINE
  5
44B
330
1F
100
AcDbEntity
  8
F-0ﾚｲﾔ
  6
JWW_HOJO
 62
     7
370
     5
100
AcDbLine
 10
14266.66408229519
 20
-12650.00055158461
 30
0.0
 11
14266.66408229519
 21
-13983.33390210126
 31
0.0
  0
LINE
  5
44C
330
1F
100
AcDbEntity
  8
F-0ﾚｲﾔ
  6
JWW_HOJO
 62
     7
370
     5
100
AcDbLine
 10
-200.000412399703
 20
-12650.00055158461
 30
0.0
 11
-200.000412399703
 21
-13983.33390210126
 31
0.0
  0
LINE
  5
44D
330
1F
100
AcDbEntity
  8
F-0ﾚｲﾔ
  6
JWW_HOJO
 62
     7
370
     5
100
AcDbLine
 10
9266.662432696372
 20
-12650.00055158461
 30
0.0
 11
9266.662432696372
 21
-13983.33390210126
 31
0.0
  0
LINE
  5
44E
330
1F
100
AcDbEntity
  8
F-0ﾚｲﾔ
  6
JWW_HOJO
 62
     7
370
     5
100
AcDbLine
 10
-499.9999631463851
 20
-12833.33299866831
 30
0.0
 11
18966.6637067491
 21
-12833.35109270534
 31
0.0
  0
LINE
  5
44F
330
1F
100
AcDbEntity
  8
F-0ﾚｲﾔ
  6
JWW_HOJO
 62
     7
370
     5
100
AcDbLine
 10
-500.0002419928904
 20
-13133.33299866818
 30
0.0
 11
18966.66342790259
 21
-13133.35109270521
 31
0.0
  0
LINE
  5
450
330
1F
100
AcDbEntity
  8
F-0ﾚｲﾔ
  6
JWW_HOJO
 62
     7
370
     5
100
AcDbLine
 10
-500.0005828052906
 20
-13499.99967386802
 30
0.0
 11
18966.66308709019
 21
-13500.01776790505
 31
0.0
  0
LINE
  5
451
330
1F
100
AcDbEntity
  8
F-0ﾚｲﾔ
  6
JWW_HOJO
 62
     7
370
     5
100
AcDbLine
 10
-500.000861651796
 20
-13799.99967386789
 30
0.0
 11
18966.66280824368
 21
-13800.01776790492
 31
0.0
  0
LINE
  5
452
330
1F
100
AcDbEntity
  8
F-0ﾚｲﾔ
  6
JWW_HOJO
 62
     7
370
     5
100
AcDbLine
 10
-19966.66663401835
 20
-13616.66699486925
 30
0.0
 11
-500.000412399703
 21
-13616.66699486925
 31
0.0
  0
LINE
  5
453
330
1F
100
AcDbEntity
  8
F-0ﾚｲﾔ
  6
JWW_HOJO
 62
     7
370
     5
100
AcDbLine
 10
-19966.66663401835
 20
-13016.66699486925
 30
0.0
 11
-500.000412399703
 21
-13016.66699486925
 31
0.0
  0
LINE
  5
454
330
1F
100
AcDbEntity
  8
F-0ﾚｲﾔ
  6
JWW_HOJO
 62
     7
370
     5
100
AcDbLine
 10
-19966.66663401835
 20
-13316.66699486925
 30
0.0
 11
-500.000412399703
 21
-13316.66699486925
 31
0.0
  0
LINE
  5
455
330
1F
100
AcDbEntity
  8
F-1ﾚｲﾔ
  6
Continuous
 62
   200
370
     5
100
AcDbLine
 10
-500.000412399703
 20
-13316.6669948681
 30
0.0
 11
18966.66325749578
 21
-13316.68508890513
 31
0.0
  0
LINE
  5
456
330
1F
100
AcDbEntity
  8
F-1ﾚｲﾔ
  6
Continuous
 62
   200
370
     5
100
AcDbLine
 10
-500.000412399703
 20
-12650.00055158461
 30
0.0
 11
-500.000412399703
 21
-13983.33390210126
 31
0.0
  0
LINE
  5
457
330
1F
100
AcDbEntity
  8
F-1ﾚｲﾔ
  6
Continuous
 62
   200
370
     5
100
AcDbLine
 10
8966.662432696372
 20
-12650.00055158461
 30
0.0
 11
8966.662432696372
 21
-13983.33390210126
 31
0.0
  0
LINE
  5
458
330
1F
100
AcDbEntity
  8
F-1ﾚｲﾔ
  6
Continuous
 62
   200
370
     5
100
AcDbLine
 10
13966.66408229519
 20
-12650.00055158461
 30
0.0
 11
13966.66408229519
 21
-13983.33390210126
 31
0.0
  0
LINE
  5
459
330
1F
100
AcDbEntity
  8
F-1ﾚｲﾔ
  6
Continuous
 62
   200
370
     5
100
AcDbLine
 10
18999.99587600296
 20
-13983.33390210126
 30
0.0
 11
-19999.9991752006
 21
-13983.33390210126
 31
0.0
  0
LINE
  5
45A
330
1F
100
AcDbEntity
  8
F-1ﾚｲﾔ
  6
Continuous
 62
   200
370
     5
100
AcDbLine
 10
18999.99587600296
 20
-14000.00052065463
 30
0.0
 11
-19999.9991752006
 21
-14000.00052065463
 31
0.0
  0
LINE
  5
45B
330
1F
100
AcDbEntity
  8
F-1ﾚｲﾔ
  6
Continuous
 62
   200
370
     5
100
AcDbLine
 10
18999.99587600296
 20
-14016.66721653294
 30
0.0
 11
-19999.9991752006
 21
-14016.66721653294
 31
0.0
  0
LINE
  5
45C
330
1F
100
AcDbEntity
  8
F-0ﾚｲﾔ
  6
JWW_HOJO
 62
     7
370
     5
100
AcDbLine
 10
1166.666391733531
 20
-12650.00055158461
 30
0.0
 11
1166.666391733531
 21
-13983.33390210126
 31
0.0
  0
LINE
  5
45D
330
1F
100
AcDbEntity
  8
F-0ﾚｲﾔ
  6
JWW_HOJO
 62
     7
370
     5
100
AcDbLine
 10
2833.331958667654
 20
-12650.00055158461
 30
0.0
 11
2833.331958667654
 21
-13983.33390210126
 31
0.0
  0
TEXT
  5
45E
330
1F
100
AcDbEntity
  8
F-Aﾚｲﾔ
  6
Continuous
 62
     7
370
     0
100
AcDbText
 10
18694.67770369904
 20
-14304.80473006973
 30
0.0
 40
228.6
  1
）
 41
0.9999999999999998
  7
ＭＳ ゴシック
100
AcDbText
  0
TEXT
  5
45F
330
1F
100
AcDbEntity
  8
F-Aﾚｲﾔ
  6
Continuous
 62
     7
370
     0
100
AcDbText
 10
17300.65316947357
 20
-14309.45147956619
 30
0.0
 40
228.6
  1
,
 41
0.9999999999999998
  7
ＭＳ ゴシック
100
AcDbText
  0
TEXT
  5
460
330
1F
100
AcDbEntity
  8
F-Aﾚｲﾔ
  6
Continuous
 62
     7
370
     0
100
AcDbText
 10
16413.12420638458
 20
-14314.09822429427
 30
0.0
 40
228.6
  1
$y
 41
1.083333333333333
  7
ＭＳ ゴシック
100
AcDbText
  0
TEXT
  5
461
330
1F
100
AcDbEntity
  8
F-Aﾚｲﾔ
  6
Continuous
 62
     7
370
     0
100
AcDbText
 10
16928.91327651398
 20
-14314.09822429427
 30
0.0
 40
228.6
  1
$m
 41
1.083333333333333
  7
ＭＳ ゴシック
100
AcDbText
  0
LINE
  5
462
330
1F
100
AcDbEntity
  8
F-0ﾚｲﾔ
  6
Continuous
 62
   200
370
     5
100
AcDbLine
 10
-19999.9991752006
 20
13899.99835040118
 30
0.0
 11
18999.99587600296
 21
13899.99835040118
 31
0.0
  0
LINE
  5
463
330
1F
100
AcDbEntity
  8
F-0ﾚｲﾔ
  6
Continuous
 62
   200
370
     5
100
AcDbLine
 10
-19999.9991752006
 20
13883.33327834671
 30
0.0
 11
18999.99587600296
 21
13883.33327834671
 31
0.0
  0
LINE
  5
464
330
1F
100
AcDbEntity
  8
F-0ﾚｲﾔ
  6
Continuous
 62
   200
370
     5
100
AcDbLine
 10
-19999.9991752006
 20
13916.66589685388
 30
0.0
 11
18999.99587600296
 21
13916.66589685388
 31
0.0
  0
LINE
  5
465
330
1F
100
AcDbEntity
  8
F-0ﾚｲﾔ
  6
Continuous
 62
   200
370
     5
100
AcDbLine
 10
18966.66325749578
 20
13916.66589685388
 30
0.0
 11
18966.66325749578
 21
-14016.66721653294
 31
0.0
  0
LINE
  5
466
330
1F
100
AcDbEntity
  8
F-0ﾚｲﾔ
  6
Continuous
 62
   200
370
     5
100
AcDbLine
 10
18983.32832955026
 20
13916.66589685388
 30
0.0
 11
18983.32832955026
 21
-14016.66721653294
 31
0.0
  0
LINE
  5
467
330
1F
100
AcDbEntity
  8
F-0ﾚｲﾔ
  6
Continuous
 62
   200
370
     5
100
AcDbLine
 10
-19983.33325257173
 20
13916.66589685388
 30
0.0
 11
-19983.33325257173
 21
-14016.66721653294
 31
0.0
  0
LINE
  5
468
330
1F
100
AcDbEntity
  8
F-0ﾚｲﾔ
  6
Continuous
 62
   200
370
     5
100
AcDbLine
 10
-19966.66663401835
 20
13916.66589685388
 30
0.0
 11
-19966.66663401835
 21
-14016.66721653294
 31
0.0
  0
LINE
  5
469
330
1F
100
AcDbEntity
  8
F-0ﾚｲﾔ
  6
Continuous
 62
   200
370
     5
100
AcDbLine
 10
-19999.99994845003
 20
13916.66589685388
 30
0.0
 11
-19999.99994845003
 21
-14016.66721653294
 31
0.0
  0
LINE
  5
46A
330
1F
100
AcDbEntity
  8
F-0ﾚｲﾔ
  6
Continuous
 62
   200
370
     5
100
AcDbLine
 10
18999.99587600296
 20
13916.66589685388
 30
0.0
 11
18999.99587600296
 21
-14016.66721653294
 31
0.0
  0
LINE
  5
46B
330
1F
100
AcDbEntity
  8
F-0ﾚｲﾔ
  6
JWW_HOJO
 62
     4
370
     5
100
AcDbLine
 10
19999.99670080236
 20
-14850.0
 30
0.0
 11
-21000.0
 21
-14850.0
 31
0.0
  0
LINE
  5
46C
330
1F
100
AcDbEntity
  8
F-0ﾚｲﾔ
  6
JWW_HOJO
 62
     4
370
     5
100
AcDbLine
 10
19999.99670080236
 20
14749.99868032095
 30
0.0
 11
19999.99670080236
 21
-14850.0
 31
0.0
  0
LINE
  5
46D
330
1F
100
AcDbEntity
  8
F-0ﾚｲﾔ
  6
JWW_HOJO
 62
     4
370
     5
100
AcDbLine
 10
-21000.0
 20
14749.99868032095
 30
0.0
 11
19999.99670080236
 21
14749.99868032095
 31
0.0
  0
LINE
  5
46E
330
1F
100
AcDbEntity
  8
F-0ﾚｲﾔ
  6
JWW_HOJO
 62
     4
370
     5
100
AcDbLine
 10
-21000.0
 20
-14850.0
 30
0.0
 11
-21000.0
 21
14749.99868032095
 31
0.0
  0
TEXT
  5
46F
330
1F
100
AcDbEntity
  8
F-Aﾚｲﾔ
  6
Continuous
 62
     7
370
     0
100
AcDbText
 10
17444.70238479034
 20
-14314.09822429427
 30
0.0
 40
228.6
  1
$d
 41
1.083333333333333
  7
ＭＳ ゴシック
100
AcDbText
  0
TEXT
  5
470
330
1F
100
AcDbEntity
  8
F-Aﾚｲﾔ
  6
Continuous
 62
     7
370
     0
100
AcDbText
 10
17960.49149306671
 20
-14314.09822429427
 30
0.0
 40
228.6
  1
印刷
 41
1.083333333333333
  7
ＭＳ ゴシック
100
AcDbText
  0
TEXT
  5
471
330
1F
100
AcDbEntity
  8
F-Aﾚｲﾔ
  6
Continuous
 62
     7
370
     0
100
AcDbText
 10
15946.77791417666
 20
-14318.74497855911
 30
0.0
 40
228.6
  1
（
 41
0.9999999999999998
  7
ＭＳ ゴシック
100
AcDbText
  0
TEXT
  5
472
330
1F
100
AcDbEntity
  8
F-Aﾚｲﾔ
  6
Continuous
 62
     7
370
     0
100
AcDbText
 10
16770.92381270781
 20
-14318.74497855911
 30
0.0
 40
228.6
  1
,
 41
0.9999999999999998
  7
ＭＳ ゴシック
100
AcDbText
  0
TEXT
  5
473
330
1F
100
AcDbEntity
  8
F-Aﾚｲﾔ
  6
Continuous
 62
     7
370
     0
100
AcDbText
 10
15929.16375509889
 20
-13066.04890840783
 30
0.0
 40
228.6
  1
06.08.15
 41
1.145833333333333
  7
ＭＳ ゴシック
100
AcDbText
  0
TEXT
  5
474
330
1F
100
AcDbEntity
  8
F-Aﾚｲﾔ
  6
Continuous
 62
     7
370
     5
100
AcDbText
 10
10404.16325749578
 20
-13757.71093616599
 30
0.0
 40
228.6
  1
SJ37-846-Z_S01
 41
1.154761904761904
  7
ＭＳ ゴシック
100
AcDbText
  0
TEXT
  5
475
330
1F
100
AcDbEntity
  8
F-Aﾚｲﾔ
  6
Continuous
 62
     7
370
     0
100
AcDbText
 10
-17466.66663401835
 20
-13424.36699486925
 30
0.0
 40
228.6
  1
ジュピーノ・Ｊ　２本引き戸　在来工法　ＤＷ846
 41
1.162962962962963
  7
ＭＳ ゴシック
100
AcDbText
  0
ENDSEC
  0
SECTION
  2
OBJECTS
  0
DICTIONARY
  5
C
330
0
100
AcDbDictionary
281
     1
  3
ACAD_GROUP
350
D
  3
ACAD_LAYOUT
350
1A
  3
ACAD_MATERIAL
350
3B
  3
ACAD_MLEADERSTYLE
350
477
  3
ACAD_MLINESTYLE
350
17
  3
ACAD_PLOTSETTINGS
350
19
  3
ACAD_PLOTSTYLENAME
350
E
  3
ACAD_TABLESTYLE
350
476
  3
ACAD_VISUALSTYLE
350
2A
  0
DICTIONARY
  5
D
102
{ACAD_REACTORS
330
C
102
}
330
C
100
AcDbDictionary
281
     1
  0
DICTIONARY
  5
1A
102
{ACAD_REACTORS
330
C
102
}
330
C
100
AcDbDictionary
281
     1
  3
Layout1
350
1E
  3
Layout2
350
26
  3
Model
350
22
  0
DICTIONARY
  5
3B
102
{ACAD_REACTORS
330
C
102
}
330
C
100
AcDbDictionary
281
     1
  3
ByBlock
350
3D
  3
ByLayer
350
3C
  3
Global
350
3E
  0
DICTIONARY
  5
477
102
{ACAD_REACTORS
330
C
102
}
330
C
100
AcDbDictionary
281
     1
  0
DICTIONARY
  5
17
102
{ACAD_REACTORS
330
C
102
}
330
C
100
AcDbDictionary
281
     1
  3
Standard
350
18
  0
DICTIONARY
  5
19
102
{ACAD_REACTORS
330
C
102
}
330
C
100
AcDbDictionary
281
     1
  0
ACDBDICTIONARYWDFLT
  5
E
102
{ACAD_REACTORS
330
C
102
}
330
C
100
AcDbDictionary
281
     1
  3
Normal
350
F
100
AcDbDictionaryWithDefault
340
F
  0
DICTIONARY
  5
476
102
{ACAD_REACTORS
330
C
102
}
330
C
100
AcDbDictionary
281
     1
  0
DICTIONARY
  5
2A
102
{ACAD_REACTORS
330
C
102
}
330
C
100
AcDbDictionary
281
     1
  3
2dWireframe
350
2F
  3
3D Hidden
350
31
  3
3dWireframe
350
30
  3
Basic
350
32
  3
Brighten
350
36
  3
ColorChange
350
3A
  3
Conceptual
350
34
  3
Dim
350
35
  3
Facepattern
350
39
  3
Flat
350
2B
  3
FlatWithEdges
350
2C
  3
Gouraud
350
2D
  3
GouraudWithEdges
350
2E
  3
Linepattern
350
38
  3
Realistic
350
33
  3
Thicken
350
37
  0
LAYOUT
  5
1E
102
{ACAD_REACTORS
330
1A
102
}
330
1A
100
AcDbPlotSettings
  1

  2
none_device
  4

  6

 40
0.0
 41
0.0
 42
0.0
 43
0.0
 44
0.0
 45
0.0
 46
0.0
 47
0.0
 48
0.0
 49
0.0
140
0.0
141
0.0
142
1.0
143
1.0
 70
   688
 72
     0
 73
     0
 74
     5
  7

 75
    16
 76
     0
 77
     5
 78
   300
147
1.0
148
0.0
149
0.0
100
AcDbLayout
  1
Layout1
 70
     1
 71
     1
 10
0.0
 20
0.0
 11
420.0
 21
297.0
 12
0.0
 22
0.0
 32
0.0
 14
1.000000000000000E+20
 24
1.000000000000000E+20
 34
1.000000000000000E+20
 15
-1.000000000000000E+20
 25
-1.000000000000000E+20
 35
-1.000000000000000E+20
146
0.0
 13
0.0
 23
0.0
 33
0.0
 16
1.0
 26
0.0
 36
0.0
 17
0.0
 27
1.0
 37
0.0
 76
     0
330
1B
  0
LAYOUT
  5
26
102
{ACAD_REACTORS
330
1A
102
}
330
1A
100
AcDbPlotSettings
  1

  2
none_device
  4

  6

 40
0.0
 41
0.0
 42
0.0
 43
0.0
 44
0.0
 45
0.0
 46
0.0
 47
0.0
 48
0.0
 49
0.0
140
0.0
141
0.0
142
1.0
143
1.0
 70
   688
 72
     0
 73
     0
 74
     5
  7

 75
    16
 76
     0
 77
     5
 78
   300
147
1.0
148
0.0
149
0.0
100
AcDbLayout
  1
Layout2
 70
     1
 71
     2
 10
0.0
 20
0.0
 11
0.0
 21
0.0
 12
0.0
 22
0.0
 32
0.0
 14
0.0
 24
0.0
 34
0.0
 15
0.0
 25
0.0
 35
0.0
146
0.0
 13
0.0
 23
0.0
 33
0.0
 16
1.0
 26
0.0
 36
0.0
 17
0.0
 27
1.0
 37
0.0
 76
     0
330
23
  0
LAYOUT
  5
22
102
{ACAD_REACTORS
330
1A
102
}
330
1A
100
AcDbPlotSettings
  1

  2
none_device
  4

  6

 40
0.0
 41
0.0
 42
0.0
 43
0.0
 44
0.0
 45
0.0
 46
0.0
 47
0.0
 48
0.0
 49
0.0
140
0.0
141
0.0
142
1.0
143
1.0
 70
  1712
 72
     0
 73
     0
 74
     0
  7

 75
     0
 76
     0
 77
     5
 78
   300
147
1.0
148
0.0
149
0.0
100
AcDbLayout
  1
Model
 70
     1
 71
     0
 10
-21000.0
 20
-14850.0
 11
21000.0
 21
14850.0
 12
0.0
 22
0.0
 32
0.0
 14
-21000.0
 24
-14850.0
 34
0.0
 15
21000.0
 25
14850.0
 35
0.0
146
0.0
 13
0.0
 23
0.0
 33
0.0
 16
1.0
 26
0.0
 36
0.0
 17
0.0
 27
1.0
 37
0.0
 76
     0
330
1F
331
29
  0
MATERIAL
  5
3D
102
{ACAD_REACTORS
330
3B
102
}
330
3B
100
AcDbMaterial
  1
ByBlock
 72
     1
 94
      127
  0
MATERIAL
  5
3C
102
{ACAD_REACTORS
330
3B
102
}
330
3B
100
AcDbMaterial
  1
ByLayer
 72
     1
 94
      127
  0
MATERIAL
  5
3E
102
{ACAD_REACTORS
330
3B
102
}
330
3B
100
AcDbMaterial
  1
Global
 72
     1
 94
      127
  0
MLINESTYLE
  5
18
102
{ACAD_REACTORS
330
17
102
}
330
17
100
AcDbMlineStyle
  2
Standard
 70
     0
  3

 62
   256
 51
90.0
 52
90.0
 71
     2
 49
0.5
 62
   256
  6
BYLAYER
 49
-0.5
 62
   256
  6
BYLAYER
  0
ACDBPLACEHOLDER
  5
F
102
{ACAD_REACTORS
330
E
102
}
330
E
  0
VISUALSTYLE
  5
2F
102
{ACAD_REACTORS
330
2A
102
}
330
2A
100
AcDbVisualStyle
  2
2dWireframe
 70
     4
177
     2
291
     0
 71
     0
176
     1
 72
     2
176
     1
 73
     0
176
     1
 90
        0
176
     1
 40
-0.6
176
     1
 41
-30.0
176
     1
 62
     5
 63
     7
421
 16777215
176
     1
 74
     1
176
     1
 91
        4
176
     1
 64
     7
176
     1
 65
   257
176
     1
 75
     1
176
     1
175
     1
176
     1
 42
1.0
176
     1
 92
        0
176
     1
 66
   257
176
     1
 43
1.0
176
     1
 76
     1
176
     1
 77
     6
176
     1
 78
     2
176
     1
 67
     7
176
     1
 79
     5
176
     1
170
     0
176
     1
171
     0
176
     1
290
     0
176
     1
 93
        1
176
     1
 44
0.0
176
     1
173
     0
176
     1
  0
VISUALSTYLE
  5
31
102
{ACAD_REACTORS
330
2A
102
}
330
2A
100
AcDbVisualStyle
  2
3D Hidden
 70
     6
177
     2
291
     0
 71
     1
176
     1
 72
     2
176
     1
 73
     2
176
     1
 90
        0
176
     1
 40
-0.6
176
     1
 41
-30.0
176
     1
 62
     5
 63
     7
421
 16777215
176
     1
 74
     2
176
     1
 91
        2
176
     1
 64
     7
176
     1
 65
   257
176
     1
 75
     2
176
     1
175
     1
176
     1
 42
40.0
176
     1
 92
        0
176
     1
 66
   257
176
     1
 43
1.0
176
     1
 76
     1
176
     1
 77
     6
176
     1
 78
     2
176
     1
 67
     7
176
     1
 79
     3
176
     1
170
     0
176
     1
171
     0
176
     1
290
     0
176
     1
 93
        1
176
     1
 44
0.0
176
     1
173
     0
176
     1
  0
VISUALSTYLE
  5
30
102
{ACAD_REACTORS
330
2A
102
}
330
2A
100
AcDbVisualStyle
  2
3dWireframe
 70
     5
177
     2
291
     0
 71
     0
176
     1
 72
     2
176
     1
 73
     0
176
     1
 90
        0
176
     1
 40
-0.6
176
     1
 41
-30.0
176
     1
 62
     5
 63
     7
421
 16777215
176
     1
 74
     1
176
     1
 91
        4
176
     1
 64
     7
176
     1
 65
   257
176
     1
 75
     1
176
     1
175
     1
176
     1
 42
1.0
176
     1
 92
        0
176
     1
 66
   257
176
     1
 43
1.0
176
     1
 76
     1
176
     1
 77
     6
176
     1
 78
     2
176
     1
 67
     7
176
     1
 79
     5
176
     1
170
     0
176
     1
171
     0
176
     1
290
     0
176
     1
 93
        1
176
     1
 44
0.0
176
     1
173
     0
176
     1
  0
VISUALSTYLE
  5
32
102
{ACAD_REACTORS
330
2A
102
}
330
2A
100
AcDbVisualStyle
  2
Basic
 70
     7
177
     2
291
     1
 71
     1
176
     1
 72
     0
176
     1
 73
     1
176
     1
 90
        0
176
     1
 40
-0.6
176
     1
 41
-30.0
176
     1
 62
     5
 63
     7
421
 16777215
176
     1
 74
     0
176
     1
 91
        4
176
     1
 64
     7
176
     1
 65
   257
176
     1
 75
     1
176
     1
175
     1
176
     1
 42
1.0
176
     1
 92
        8
176
     1
 66
     7
176
     1
 43
1.0
176
     1
 76
     1
176
     1
 77
     6
176
     1
 78
     2
176
     1
 67
     7
176
     1
 79
     5
176
     1
170
     0
176
     1
171
     0
176
     1
290
     0
176
     1
 93
        1
176
     1
 44
0.0
176
     1
173
     0
176
     1
  0
VISUALSTYLE
  5
36
102
{ACAD_REACTORS
330
2A
102
}
330
2A
100
AcDbVisualStyle
  2
Brighten
 70
    12
177
     2
291
     1
 71
     2
176
     1
 72
     2
176
     1
 73
     0
176
     1
 90
        0
176
     1
 40
-0.6
176
     1
 41
-30.0
176
     1
 62
     5
 63
     7
421
 16777215
176
     1
 74
     1
176
     1
 91
        4
176
     1
 64
     7
176
     1
 65
   257
176
     1
 75
     1
176
     1
175
     1
176
     1
 42
1.0
176
     1
 92
        8
176
     1
 66
     7
176
     1
 43
1.0
176
     1
 76
     1
176
     1
 77
     6
176
     1
 78
     2
176
     1
 67
     7
176
     1
 79
     5
176
     1
170
     0
176
     1
171
     0
176
     1
290
     0
176
     1
 93
        1
176
     1
 44
50.0
176
     1
173
     0
176
     1
  0
VISUALSTYLE
  5
3A
102
{ACAD_REACTORS
330
2A
102
}
330
2A
100
AcDbVisualStyle
  2
ColorChange
 70
    16
177
     2
291
     1
 71
     2
176
     1
 72
     2
176
     1
 73
     3
176
     1
 90
        0
176
     1
 40
-0.6
176
     1
 41
-30.0
176
     1
 62
     5
 63
     8
421
  8421504
176
     1
 74
     1
176
     1
 91
        4
176
     1
 64
     7
176
     1
 65
   257
176
     1
 75
     1
176
     1
175
     1
176
     1
 42
1.0
176
     1
 92
        8
176
     1
 66
     8
424
  8421504
176
     1
 43
1.0
176
     1
 76
     1
176
     1
 77
     6
176
     1
 78
     2
176
     1
 67
     7
176
     1
 79
     5
176
     1
170
     0
176
     1
171
     0
176
     1
290
     0
176
     1
 93
        1
176
     1
 44
0.0
176
     1
173
     0
176
     1
  0
VISUALSTYLE
  5
34
102
{ACAD_REACTORS
330
2A
102
}
330
2A
100
AcDbVisualStyle
  2
Conceptual
 70
     9
177
     2
291
     0
 71
     3
176
     1
 72
     2
176
     1
 73
     0
176
     1
 90
        0
176
     1
 40
-0.6
176
     1
 41
-30.0
176
     1
 62
     5
 63
     7
421
 16777215
176
     1
 74
     2
176
     1
 91
        2
176
     1
 64
     7
176
     1
 65
   257
176
     1
 75
     1
176
     1
175
     1
176
     1
 42
40.0
176
     1
 92
        8
176
     1
 66
     7
176
     1
 43
1.0
176
     1
 76
     1
176
     1
 77
     6
176
     1
 78
     2
176
     1
 67
     7
176
     1
 79
     3
176
     1
170
     0
176
     1
171
     0
176
     1
290
     0
176
     1
 93
        1
176
     1
 44
0.0
176
     1
173
     0
176
     1
  0
VISUALSTYLE
  5
35
102
{ACAD_REACTORS
330
2A
102
}
330
2A
100
AcDbVisualStyle
  2
Dim
 70
    11
177
     2
291
     1
 71
     2
176
     1
 72
     2
176
     1
 73
     0
176
     1
 90
        0
176
     1
 40
-0.6
176
     1
 41
-30.0
176
     1
 62
     5
 63
     7
421
 16777215
176
     1
 74
     1
176
     1
 91
        4
176
     1
 64
     7
176
     1
 65
   257
176
     1
 75
     1
176
     1
175
     1
176
     1
 42
1.0
176
     1
 92
        8
176
     1
 66
     7
176
     1
 43
1.0
176
     1
 76
     1
176
     1
 77
     6
176
     1
 78
     2
176
     1
 67
     7
176
     1
 79
     5
176
     1
170
     0
176
     1
171
     0
176
     1
290
     0
176
     1
 93
        1
176
     1
 44
-50.0
176
     1
173
     0
176
     1
  0
VISUALSTYLE
  5
39
102
{ACAD_REACTORS
330
2A
102
}
330
2A
100
AcDbVisualStyle
  2
Facepattern
 70
    15
177
     2
291
     1
 71
     2
176
     1
 72
     2
176
     1
 73
     0
176
     1
 90
        0
176
     1
 40
-0.6
176
     1
 41
-30.0
176
     1
 62
     5
 63
     7
421
 16777215
176
     1
 74
     1
176
     1
 91
        4
176
     1
 64
     7
176
     1
 65
   257
176
     1
 75
     1
176
     1
175
     1
176
     1
 42
1.0
176
     1
 92
        8
176
     1
 66
     7
176
     1
 43
1.0
176
     1
 76
     1
176
     1
 77
     6
176
     1
 78
     2
176
     1
 67
     7
176
     1
 79
     5
176
     1
170
     0
176
     1
171
     0
176
     1
290
     0
176
     1
 93
        1
176
     1
 44
0.0
176
     1
173
     0
176
     1
  0
VISUALSTYLE
  5
2B
102
{ACAD_REACTORS
330
2A
102
}
330
2A
100
AcDbVisualStyle
  2
Flat
 70
     0
177
     2
291
     1
 71
     2
176
     1
 72
     1
176
     1
 73
     1
176
     1
 90
        2
176
     1
 40
-0.6
176
     1
 41
30.0
176
     1
 62
     5
 63
     7
421
 16777215
176
     1
 74
     0
176
     1
 91
        4
176
     1
 64
     7
176
     1
 65
   257
176
     1
 75
     1
176
     1
175
     1
176
     1
 42
1.0
176
     1
 92
        8
176
     1
 66
     7
176
     1
 43
1.0
176
     1
 76
     1
176
     1
 77
     6
176
     1
 78
     2
176
     1
 67
     7
176
     1
 79
     5
176
     1
170
     0
176
     1
171
     0
176
     1
290
     0
176
     1
 93
       13
176
     1
 44
0.0
176
     1
173
     0
176
     1
  0
VISUALSTYLE
  5
2C
102
{ACAD_REACTORS
330
2A
102
}
330
2A
100
AcDbVisualStyle
  2
FlatWithEdges
 70
     1
177
     2
291
     1
 71
     2
176
     1
 72
     1
176
     1
 73
     1
176
     1
 90
        2
176
     1
 40
-0.6
176
     1
 41
30.0
176
     1
 62
     5
 63
     7
421
 16777215
176
     1
 74
     1
176
     1
 91
        4
176
     1
 64
     7
176
     1
 65
   257
176
     1
 75
     1
176
     1
175
     1
176
     1
 42
1.0
176
     1
 92
        0
176
     1
 66
   257
176
     1
 43
1.0
176
     1
 76
     1
176
     1
 77
     6
176
     1
 78
     2
176
     1
 67
     7
176
     1
 79
     5
176
     1
170
     0
176
     1
171
     0
176
     1
290
     0
176
     1
 93
       13
176
     1
 44
0.0
176
     1
173
     0
176
     1
  0
VISUALSTYLE
  5
2D
102
{ACAD_REACTORS
330
2A
102
}
330
2A
100
AcDbVisualStyle
  2
Gouraud
 70
     2
177
     2
291
     1
 71
     2
176
     1
 72
     2
176
     1
 73
     1
176
     1
 90
        2
176
     1
 40
-0.6
176
     1
 41
30.0
176
     1
 62
     5
 63
     7
421
 16777215
176
     1
 74
     0
176
     1
 91
        4
176
     1
 64
     7
176
     1
 65
   257
176
     1
 75
     1
176
     1
175
     1
176
     1
 42
1.0
176
     1
 92
        0
176
     1
 66
     7
176
     1
 43
1.0
176
     1
 76
     1
176
     1
 77
     6
176
     1
 78
     2
176
     1
 67
     7
176
     1
 79
     5
176
     1
170
     0
176
     1
171
     0
176
     1
290
     0
176
     1
 93
       13
176
     1
 44
0.0
176
     1
173
     0
176
     1
  0
VISUALSTYLE
  5
2E
102
{ACAD_REACTORS
330
2A
102
}
330
2A
100
AcDbVisualStyle
  2
GouraudWithEdges
 70
     3
177
     2
291
     1
 71
     2
176
     1
 72
     2
176
     1
 73
     1
176
     1
 90
        2
176
     1
 40
-0.6
176
     1
 41
30.0
176
     1
 62
     5
 63
     7
421
 16777215
176
     1
 74
     1
176
     1
 91
        4
176
     1
 64
     7
176
     1
 65
   257
176
     1
 75
     1
176
     1
175
     1
176
     1
 42
1.0
176
     1
 92
        0
176
     1
 66
   257
176
     1
 43
1.0
176
     1
 76
     1
176
     1
 77
     6
176
     1
 78
     2
176
     1
 67
     7
176
     1
 79
     5
176
     1
170
     0
176
     1
171
     0
176
     1
290
     0
176
     1
 93
       13
176
     1
 44
0.0
176
     1
173
     0
176
     1
  0
VISUALSTYLE
  5
38
102
{ACAD_REACTORS
330
2A
102
}
330
2A
100
AcDbVisualStyle
  2
Linepattern
 70
    14
177
     2
291
     1
 71
     2
176
     1
 72
     2
176
     1
 73
     0
176
     1
 90
        0
176
     1
 40
-0.6
176
     1
 41
-30.0
176
     1
 62
     5
 63
     7
421
 16777215
176
     1
 74
     1
176
     1
 91
        4
176
     1
 64
     7
176
     1
 65
   257
176
     1
 75
     7
176
     1
175
     7
176
     1
 42
1.0
176
     1
 92
        8
176
     1
 66
     7
176
     1
 43
1.0
176
     1
 76
     1
176
     1
 77
     6
176
     1
 78
     2
176
     1
 67
     7
176
     1
 79
     5
176
     1
170
     0
176
     1
171
     0
176
     1
290
     0
176
     1
 93
        1
176
     1
 44
0.0
176
     1
173
     0
176
     1
  0
VISUALSTYLE
  5
33
102
{ACAD_REACTORS
330
2A
102
}
330
2A
100
AcDbVisualStyle
  2
Realistic
 70
     8
177
     2
291
     0
 71
     2
176
     1
 72
     2
176
     1
 73
     0
176
     1
 90
        0
176
     1
 40
-0.6
176
     1
 41
-30.0
176
     1
 62
     5
 63
     7
421
 16777215
176
     1
 74
     1
176
     1
 91
        0
176
     1
 64
     7
176
     1
 65
   257
176
     1
 75
     1
176
     1
175
     1
176
     1
 42
1.0
176
     1
 92
        8
176
     1
 66
     8
424
  7895160
176
     1
 43
1.0
176
     1
 76
     1
176
     1
 77
     6
176
     1
 78
     2
176
     1
 67
     7
176
     1
 79
     5
176
     1
170
     0
176
     1
171
     0
176
     1
290
     0
176
     1
 93
       13
176
     1
 44
0.0
176
     1
173
     0
176
     1
  0
VISUALSTYLE
  5
37
102
{ACAD_REACTORS
330
2A
102
}
330
2A
100
AcDbVisualStyle
  2
Thicken
 70
    13
177
     2
291
     1
 71
     2
176
     1
 72
     2
176
     1
 73
     0
176
     1
 90
        0
176
     1
 40
-0.6
176
     1
 41
-30.0
176
     1
 62
     5
 63
     7
421
 16777215
176
     1
 74
     1
176
     1
 91
        4
176
     1
 64
     7
176
     1
 65
   257
176
     1
 75
     1
176
     1
175
     1
176
     1
 42
1.0
176
     1
 92
       12
176
     1
 66
     7
176
     1
 43
1.0
176
     1
 76
     1
176
     1
 77
     6
176
     1
 78
     2
176
     1
 67
     7
176
     1
 79
     5
176
     1
170
     0
176
     1
171
     0
176
     1
290
     0
176
     1
 93
        1
176
     1
 44
0.0
176
     1
173
     0
176
     1
  0
ENDSEC
  0
EOF
