  0
SECTION
  2
HEADER
  9
$ACADVER
  1
AC1024
  9
$ACADMAINTVER
 70
     6
  9
$DWGCODEPAGE
  3
ANSI_932
  9
$INSBASE
 10
0.0
 20
0.0
 30
0.0
  9
$EXTMIN
 10
-21000.0
 20
-14850.0
 30
0.0
  9
$EXTMAX
 10
21000.0
 20
14850.0
 30
0.0
  9
$LIMMIN
 10
-21000.0
 20
-14850.0
  9
$LIMMAX
 10
21000.0
 20
14850.0
  9
$ORTHOMODE
 70
     0
  9
$REGENMODE
 70
     1
  9
$FILLMODE
 70
     1
  9
$QTEXTMODE
 70
     0
  9
$MIRRTEXT
 70
     1
  9
$LTSCALE
 40
100.0
  9
$ATTMODE
 70
     1
  9
$TEXTSIZE
 40
2.5
  9
$TRACEWID
 40
1.0
  9
$TEXTSTYLE
  7
Standard
  9
$CLAYER
  8
0
  9
$CELTYPE
  6
ByLayer
  9
$CECOLOR
 62
   256
  9
$CELTSCALE
 40
1.0
  9
$DISPSILH
 70
     0
  9
$DIMSCALE
 40
1.0
  9
$DIMASZ
 40
2.5
  9
$DIMEXO
 40
0.625
  9
$DIMDLI
 40
3.75
  9
$DIMRND
 40
0.0
  9
$DIMDLE
 40
0.0
  9
$DIMEXE
 40
1.25
  9
$DIMTP
 40
0.0
  9
$DIMTM
 40
0.0
  9
$DIMTXT
 40
2.5
  9
$DIMCEN
 40
2.5
  9
$DIMTSZ
 40
0.0
  9
$DIMTOL
 70
     0
  9
$DIMLIM
 70
     0
  9
$DIMTIH
 70
     0
  9
$DIMTOH
 70
     0
  9
$DIMSE1
 70
     0
  9
$DIMSE2
 70
     0
  9
$DIMTAD
 70
     1
  9
$DIMZIN
 70
     8
  9
$DIMBLK
  1

  9
$DIMASO
 70
     1
  9
$DIMSHO
 70
     1
  9
$DIMPOST
  1

  9
$DIMAPOST
  1

  9
$DIMALT
 70
     0
  9
$DIMALTD
 70
     3
  9
$DIMALTF
 40
0.03937007874016
  9
$DIMLFAC
 40
1.0
  9
$DIMTOFL
 70
     1
  9
$DIMTVP
 40
0.0
  9
$DIMTIX
 70
     0
  9
$DIMSOXD
 70
     0
  9
$DIMSAH
 70
     0
  9
$DIMBLK1
  1

  9
$DIMBLK2
  1

  9
$DIMSTYLE
  2
ISO-25
  9
$DIMCLRD
 70
     0
  9
$DIMCLRE
 70
     0
  9
$DIMCLRT
 70
     0
  9
$DIMTFAC
 40
1.0
  9
$DIMGAP
 40
0.625
  9
$DIMJUST
 70
     0
  9
$DIMSD1
 70
     0
  9
$DIMSD2
 70
     0
  9
$DIMTOLJ
 70
     0
  9
$DIMTZIN
 70
     8
  9
$DIMALTZ
 70
     0
  9
$DIMALTTZ
 70
     0
  9
$DIMUPT
 70
     0
  9
$DIMDEC
 70
     2
  9
$DIMTDEC
 70
     2
  9
$DIMALTU
 70
     2
  9
$DIMALTTD
 70
     3
  9
$DIMTXSTY
  7
Standard
  9
$DIMAUNIT
 70
     0
  9
$DIMADEC
 70
     0
  9
$DIMALTRND
 40
0.0
  9
$DIMAZIN
 70
     0
  9
$DIMDSEP
 70
    44
  9
$DIMATFIT
 70
     3
  9
$DIMFRAC
 70
     0
  9
$DIMLDRBLK
  1

  9
$DIMLUNIT
 70
     2
  9
$DIMLWD
 70
    -2
  9
$DIMLWE
 70
    -2
  9
$DIMTMOVE
 70
     0
  9
$DIMFXL
 40
1.0
  9
$DIMFXLON
 70
     0
  9
$DIMJOGANG
 40
0.7853981633974483
  9
$DIMTFILL
 70
     0
  9
$DIMTFILLCLR
 70
     0
  9
$DIMARCSYM
 70
     0
  9
$DIMLTYPE
  6

  9
$DIMLTEX1
  6

  9
$DIMLTEX2
  6

  9
$DIMTXTDIRECTION
 70
     0
  9
$LUNITS
 70
     2
  9
$LUPREC
 70
     4
  9
$SKETCHINC
 40
1.0
  9
$FILLETRAD
 40
10.0
  9
$AUNITS
 70
     0
  9
$AUPREC
 70
     0
  9
$MENU
  1
.
  9
$ELEVATION
 40
0.0
  9
$PELEVATION
 40
0.0
  9
$THICKNESS
 40
0.0
  9
$LIMCHECK
 70
     0
  9
$CHAMFERA
 40
10.0
  9
$CHAMFERB
 40
10.0
  9
$CHAMFERC
 40
20.0
  9
$CHAMFERD
 40
0.0
  9
$SKPOLY
 70
     0
  9
$TDCREATE
 40
2456720.726423715
  9
$TDUCREATE
 40
2456720.351423715
  9
$TDUPDATE
 40
2456720.726423727
  9
$TDUUPDATE
 40
2456720.351423727
  9
$TDINDWG
 40
0.0000000116
  9
$TDUSRTIMER
 40
0.0000000116
  9
$USRTIMER
 70
     1
  9
$ANGBASE
 50
0.0
  9
$ANGDIR
 70
     0
  9
$PDMODE
 70
     0
  9
$PDSIZE
 40
0.0
  9
$PLINEWID
 40
0.0
  9
$SPLFRAME
 70
     0
  9
$SPLINETYPE
 70
     6
  9
$SPLINESEGS
 70
     8
  9
$HANDSEED
  5
3B3
  9
$SURFTAB1
 70
     6
  9
$SURFTAB2
 70
     6
  9
$SURFTYPE
 70
     6
  9
$SURFU
 70
     6
  9
$SURFV
 70
     6
  9
$UCSBASE
  2

  9
$UCSNAME
  2

  9
$UCSORG
 10
0.0
 20
0.0
 30
0.0
  9
$UCSXDIR
 10
1.0
 20
0.0
 30
0.0
  9
$UCSYDIR
 10
0.0
 20
1.0
 30
0.0
  9
$UCSORTHOREF
  2

  9
$UCSORTHOVIEW
 70
     0
  9
$UCSORGTOP
 10
0.0
 20
0.0
 30
0.0
  9
$UCSORGBOTTOM
 10
0.0
 20
0.0
 30
0.0
  9
$UCSORGLEFT
 10
0.0
 20
0.0
 30
0.0
  9
$UCSORGRIGHT
 10
0.0
 20
0.0
 30
0.0
  9
$UCSORGFRONT
 10
0.0
 20
0.0
 30
0.0
  9
$UCSORGBACK
 10
0.0
 20
0.0
 30
0.0
  9
$PUCSBASE
  2

  9
$PUCSNAME
  2

  9
$PUCSORG
 10
0.0
 20
0.0
 30
0.0
  9
$PUCSXDIR
 10
1.0
 20
0.0
 30
0.0
  9
$PUCSYDIR
 10
0.0
 20
1.0
 30
0.0
  9
$PUCSORTHOREF
  2

  9
$PUCSORTHOVIEW
 70
     0
  9
$PUCSORGTOP
 10
0.0
 20
0.0
 30
0.0
  9
$PUCSORGBOTTOM
 10
0.0
 20
0.0
 30
0.0
  9
$PUCSORGLEFT
 10
0.0
 20
0.0
 30
0.0
  9
$PUCSORGRIGHT
 10
0.0
 20
0.0
 30
0.0
  9
$PUCSORGFRONT
 10
0.0
 20
0.0
 30
0.0
  9
$PUCSORGBACK
 10
0.0
 20
0.0
 30
0.0
  9
$USERI1
 70
     0
  9
$USERI2
 70
     0
  9
$USERI3
 70
     0
  9
$USERI4
 70
     0
  9
$USERI5
 70
     0
  9
$USERR1
 40
0.0
  9
$USERR2
 40
0.0
  9
$USERR3
 40
0.0
  9
$USERR4
 40
0.0
  9
$USERR5
 40
0.0
  9
$WORLDVIEW
 70
     1
  9
$SHADEDGE
 70
     3
  9
$SHADEDIF
 70
    70
  9
$TILEMODE
 70
     1
  9
$MAXACTVP
 70
    64
  9
$PINSBASE
 10
0.0
 20
0.0
 30
0.0
  9
$PLIMCHECK
 70
     0
  9
$PEXTMIN
 10
1.000000000000000E+20
 20
1.000000000000000E+20
 30
1.000000000000000E+20
  9
$PEXTMAX
 10
-1.000000000000000E+20
 20
-1.000000000000000E+20
 30
-1.000000000000000E+20
  9
$PLIMMIN
 10
0.0
 20
0.0
  9
$PLIMMAX
 10
420.0
 20
297.0
  9
$UNITMODE
 70
     0
  9
$VISRETAIN
 70
     1
  9
$PLINEGEN
 70
     0
  9
$PSLTSCALE
 70
     1
  9
$TREEDEPTH
 70
  3020
  9
$CMLSTYLE
  2
Standard
  9
$CMLJUST
 70
     0
  9
$CMLSCALE
 40
20.0
  9
$PROXYGRAPHICS
 70
     1
  9
$MEASUREMENT
 70
     1
  9
$CELWEIGHT
370
    -1
  9
$ENDCAPS
280
     0
  9
$JOINSTYLE
280
     0
  9
$LWDISPLAY
290
     0
  9
$INSUNITS
 70
     4
  9
$HYPERLINKBASE
  1

  9
$STYLESHEET
  1

  9
$XEDIT
290
     1
  9
$CEPSNTYPE
380
     0
  9
$PSTYLEMODE
290
     1
  9
$FINGERPRINTGUID
  2
{BE1BEE72-0A5E-42DF-B659-1ABA73703021}
  9
$VERSIONGUID
  2
{FAEB1C32-E019-11D5-929B-00C0DF256EC4}
  9
$EXTNAMES
290
     1
  9
$PSVPSCALE
 40
0.0
  9
$OLESTARTUP
290
     0
  9
$SORTENTS
280
   127
  9
$INDEXCTL
280
     0
  9
$HIDETEXT
280
     1
  9
$XCLIPFRAME
280
     2
  9
$HALOGAP
280
     0
  9
$OBSCOLOR
 70
   257
  9
$OBSLTYPE
280
     0
  9
$INTERSECTIONDISPLAY
280
     0
  9
$INTERSECTIONCOLOR
 70
   257
  9
$DIMASSOC
280
     2
  9
$PROJECTNAME
  1

  9
$CAMERADISPLAY
290
     0
  9
$LENSLENGTH
 40
50.0
  9
$CAMERAHEIGHT
 40
0.0
  9
$STEPSPERSEC
 40
2.0
  9
$STEPSIZE
 40
6.0
  9
$3DDWFPREC
 40
2.0
  9
$PSOLWIDTH
 40
5.0
  9
$PSOLHEIGHT
 40
80.0
  9
$LOFTANG1
 40
1.570796326794897
  9
$LOFTANG2
 40
1.570796326794897
  9
$LOFTMAG1
 40
0.0
  9
$LOFTMAG2
 40
0.0
  9
$LOFTPARAM
 70
     7
  9
$LOFTNORMALS
280
     1
  9
$LATITUDE
 40
37.795
  9
$LONGITUDE
 40
-122.394
  9
$NORTHDIRECTION
 40
0.0
  9
$TIMEZONE
 70
 -8000
  9
$LIGHTGLYPHDISPLAY
280
     1
  9
$TILEMODELIGHTSYNCH
280
     1
  9
$SOLIDHIST
280
     1
  9
$SHOWHIST
280
     1
  9
$DWFFRAME
280
     2
  9
$DGNFRAME
280
     2
  9
$REALWORLDSCALE
290
     1
  9
$INTERFERECOLOR
 62
   256
  9
$CSHADOW
280
     0
  9
$SHADOWPLANELOCATION
 40
0.0
  0
ENDSEC
  0
SECTION
  2
CLASSES
  0
CLASS
  1
ACDBDICTIONARYWDFLT
  2
AcDbDictionaryWithDefault
  3
ObjectDBX Classes
 90
        0
 91
        4
280
     0
281
     0
  0
CLASS
  1
VISUALSTYLE
  2
AcDbVisualStyle
  3
ObjectDBX Classes
 90
     4095
 91
        4
280
     0
281
     0
  0
CLASS
  1
MATERIAL
  2
AcDbMaterial
  3
ObjectDBX Classes
 90
     1153
 91
        4
280
     0
281
     0
  0
ENDSEC
  0
SECTION
  2
TABLES
  0
TABLE
  2
VPORT
  5
8
330
0
100
AcDbSymbolTable
 70
     1
  0
VPORT
  5
29
330
8
100
AcDbSymbolTableRecord
100
AcDbViewportTableRecord
  2
*Active
 70
     0
 10
0.0
 20
0.0
 11
1.0
 21
1.0
 12
0.0
 22
0.0
 13
0.0
 23
0.0
 14
10.0
 24
10.0
 15
10.0
 25
10.0
 16
0.0
 26
0.0
 36
1.0
 17
0.0
 27
0.0
 37
0.0
 40
32670.0
 41
1.414141414141414
 42
50.0
 43
0.0
 44
0.0
 50
0.0
 51
0.0
 71
     0
 72
 10000
 73
     1
 74
     3
 75
     0
 76
     0
 77
     0
 78
     0
281
     0
 65
     1
110
0.0
120
0.0
130
0.0
111
1.0
121
0.0
131
0.0
112
0.0
122
1.0
132
0.0
 79
     0
146
0.0
 60
     3
 61
     5
292
     1
282
     1
141
0.0
142
0.0
 63
   250
  0
ENDTAB
  0
TABLE
  2
LTYPE
  5
5
330
0
100
AcDbSymbolTable
 70
     4
  0
LTYPE
  5
14
330
5
100
AcDbSymbolTableRecord
100
AcDbLinetypeTableRecord
  2
ByBlock
 70
     0
  3

 72
    65
 73
     0
 40
0.0
  0
LTYPE
  5
15
330
5
100
AcDbSymbolTableRecord
100
AcDbLinetypeTableRecord
  2
ByLayer
 70
     0
  3

 72
    65
 73
     0
 40
0.0
  0
LTYPE
  5
16
330
5
100
AcDbSymbolTableRecord
100
AcDbLinetypeTableRecord
  2
Continuous
 70
     0
  3
Solid line
 72
    65
 73
     0
 40
0.0
  0
LTYPE
  5
41
330
5
100
AcDbSymbolTableRecord
100
AcDbLinetypeTableRecord
  2
JWW_CENTER1
 70
     0
  3
-----  --  ----------  --  -----
 72
    65
 73
     4
 40
6.773333333333333
 49
4.233333333333333
 74
     0
 49
-0.8466666666666667
 74
     0
 49
0.8466666666666667
 74
     0
 49
-0.8466666666666667
 74
     0
  0
LTYPE
  5
42
330
5
100
AcDbSymbolTableRecord
100
AcDbLinetypeTableRecord
  2
JWW_HOJO
 70
     0
  3
  -   -   -   -   -   -   -   - 
 72
    65
 73
     2
 40
1.693333333333333
 49
-1.27
 74
     0
 49
0.4233333333333333
 74
     0
  0
LTYPE
  5
43
330
5
100
AcDbSymbolTableRecord
100
AcDbLinetypeTableRecord
  2
JWW_DASHED1
 70
     0
  3
-  --  --  --  --  --  --  --  -
 72
    65
 73
     2
 40
1.693333333333333
 49
0.8466666666666667
 74
     0
 49
-0.8466666666666667
 74
     0
  0
ENDTAB
  0
TABLE
  2
LAYER
  5
2
330
0
100
AcDbSymbolTable
 70
    12
  0
LAYER
  5
10
330
2
100
AcDbSymbolTableRecord
100
AcDbLayerTableRecord
  2
0
 70
     0
 62
     7
  6
Continuous
370
    -3
390
F
347
3E
  0
LAYER
  5
44
330
2
100
AcDbSymbolTableRecord
100
AcDbLayerTableRecord
  2
0-1_通り芯
 70
     0
 62
     7
  6
Continuous
370
    -3
390
F
347
3E
  0
LAYER
  5
45
330
2
100
AcDbSymbolTableRecord
100
AcDbLayerTableRecord
  2
0-A_文字
 70
     0
 62
     7
  6
Continuous
370
    -3
390
F
347
3E
  0
LAYER
  5
46
330
2
100
AcDbSymbolTableRecord
100
AcDbLayerTableRecord
  2
0-3_仕上
 70
     0
 62
     7
  6
Continuous
370
    -3
390
F
347
3E
  0
LAYER
  5
47
330
2
100
AcDbSymbolTableRecord
100
AcDbLayerTableRecord
  2
0-B_寸法
 70
     0
 62
     7
  6
Continuous
370
    -3
390
F
347
3E
  0
LAYER
  5
48
330
2
100
AcDbSymbolTableRecord
100
AcDbLayerTableRecord
  2
0-0_補助線
 70
     0
 62
     7
  6
Continuous
370
    -3
390
F
347
3E
  0
LAYER
  5
49
330
2
100
AcDbSymbolTableRecord
100
AcDbLayerTableRecord
  2
0-C_ハッチ
 70
     0
 62
     7
  6
Continuous
370
    -3
390
F
347
3E
  0
LAYER
  5
4A
330
2
100
AcDbSymbolTableRecord
100
AcDbLayerTableRecord
  2
0-E
 70
     0
 62
     7
  6
Continuous
370
    -3
390
F
347
3E
  0
LAYER
  5
4B
330
2
100
AcDbSymbolTableRecord
100
AcDbLayerTableRecord
  2
0-2_柱
 70
     0
 62
     7
  6
Continuous
370
    -3
390
F
347
3E
  0
LAYER
  5
4C
330
2
100
AcDbSymbolTableRecord
100
AcDbLayerTableRecord
  2
F-0ﾚｲﾔ
 70
     0
 62
     7
  6
Continuous
370
    -3
390
F
347
3E
  0
LAYER
  5
4D
330
2
100
AcDbSymbolTableRecord
100
AcDbLayerTableRecord
  2
F-Aﾚｲﾔ
 70
     0
 62
     7
  6
Continuous
370
    -3
390
F
347
3E
  0
LAYER
  5
4E
330
2
100
AcDbSymbolTableRecord
100
AcDbLayerTableRecord
  2
F-1ﾚｲﾔ
 70
     0
 62
     7
  6
Continuous
370
    -3
390
F
347
3E
  0
ENDTAB
  0
TABLE
  2
STYLE
  5
3
330
0
100
AcDbSymbolTable
 70
     3
  0
STYLE
  5
11
330
3
100
AcDbSymbolTableRecord
100
AcDbTextStyleTableRecord
  2
Standard
 70
     0
 40
0.0
 41
1.0
 50
0.0
 71
     0
 42
2.5
  3
txt
  4

  0
STYLE
  5
3F
330
3
100
AcDbSymbolTableRecord
100
AcDbTextStyleTableRecord
  2
ＭＳ ゴシック
 70
     0
 40
1.0
 41
1.0
 50
0.0
 71
     0
 42
10.0
  3

  4

1001
ACAD
1000
MS Gothic
1071
    32817
  0
STYLE
  5
40
330
3
100
AcDbSymbolTableRecord
100
AcDbTextStyleTableRecord
  2
HG明朝B
 70
     0
 40
1.0
 41
1.0
 50
0.0
 71
     0
 42
10.0
  3

  4

1001
ACAD
1000
HGMinchoB
1071
    32785
  0
ENDTAB
  0
TABLE
  2
VIEW
  5
6
330
0
100
AcDbSymbolTable
 70
     0
  0
ENDTAB
  0
TABLE
  2
UCS
  5
7
330
0
100
AcDbSymbolTable
 70
     0
  0
ENDTAB
  0
TABLE
  2
APPID
  5
9
330
0
100
AcDbSymbolTable
 70
     1
  0
APPID
  5
12
330
9
100
AcDbSymbolTableRecord
100
AcDbRegAppTableRecord
  2
ACAD
 70
     0
  0
ENDTAB
  0
TABLE
  2
DIMSTYLE
  5
A
330
0
100
AcDbSymbolTable
 70
     1
100
AcDbDimStyleTable
  0
DIMSTYLE
105
27
330
A
100
AcDbSymbolTableRecord
100
AcDbDimStyleTableRecord
  2
ISO-25
 70
     0
 41
2.5
 42
0.625
 43
3.75
 44
1.25
 73
     0
 74
     0
 77
     1
 78
     8
140
2.5
141
2.5
143
0.03937007874016
147
0.625
171
     3
172
     1
178
     0
271
     2
272
     2
274
     3
278
    44
283
     0
284
     8
340
11
  0
ENDTAB
  0
TABLE
  2
BLOCK_RECORD
  5
1
330
0
100
AcDbSymbolTable
 70
     1
  0
BLOCK_RECORD
  5
1F
330
1
100
AcDbSymbolTableRecord
100
AcDbBlockTableRecord
  2
*Model_Space
340
22
 70
     0
280
     1
281
     0
  0
BLOCK_RECORD
  5
1B
330
1
100
AcDbSymbolTableRecord
100
AcDbBlockTableRecord
  2
*Paper_Space
340
1E
 70
     0
280
     1
281
     0
  0
BLOCK_RECORD
  5
23
330
1
100
AcDbSymbolTableRecord
100
AcDbBlockTableRecord
  2
*Paper_Space0
340
26
 70
     0
280
     1
281
     0
  0
ENDTAB
  0
ENDSEC
  0
SECTION
  2
BLOCKS
  0
BLOCK
  5
20
330
1F
100
AcDbEntity
  8
0
100
AcDbBlockBegin
  2
*Model_Space
 70
     0
 10
0.0
 20
0.0
 30
0.0
  3
*Model_Space
  1

  0
ENDBLK
  5
21
330
1F
100
AcDbEntity
  8
0
100
AcDbBlockEnd
  0
BLOCK
  5
1C
330
1B
100
AcDbEntity
 67
     1
  8
0
100
AcDbBlockBegin
  2
*Paper_Space
 70
     0
 10
0.0
 20
0.0
 30
0.0
  3
*Paper_Space
  1

  0
ENDBLK
  5
1D
330
1B
100
AcDbEntity
 67
     1
  8
0
100
AcDbBlockEnd
  0
BLOCK
  5
24
330
23
100
AcDbEntity
  8
0
100
AcDbBlockBegin
  2
*Paper_Space0
 70
     0
 10
0.0
 20
0.0
 30
0.0
  3
*Paper_Space0
  1

  0
ENDBLK
  5
25
330
23
100
AcDbEntity
  8
0
100
AcDbBlockEnd
  0
ENDSEC
  0
SECTION
  2
ENTITIES
  0
LINE
  5
4F
330
1F
100
AcDbEntity
  8
0-1_通り芯
  6
JWW_CENTER1
 62
     3
370
     5
100
AcDbLine
 10
5902.727611196391
 20
4762.172633817439
 30
0.0
 11
5902.727611196391
 21
-2693.227853208301
 31
0.0
  0
LINE
  5
50
330
1F
100
AcDbEntity
  8
0-A_文字
  6
Continuous
 62
     7
370
     9
100
AcDbLine
 10
3527.727611196392
 20
3548.582172874449
 30
0.0
 11
5902.727609848777
 21
3548.582172874449
 31
0.0
  0
LINE
  5
51
330
1F
100
AcDbEntity
  8
0-3_仕上
  6
Continuous
 62
     7
370
     9
100
AcDbLine
 10
7657.45856598165
 20
13916.66589685388
 30
0.0
 11
7657.45856598165
 21
-12633.33339175662
 31
0.0
  0
LINE
  5
52
330
1F
100
AcDbEntity
  8
0-3_仕上
  6
Continuous
 62
     7
370
     9
100
AcDbLine
 10
-19999.99917520059
 20
13008.33327834671
 30
0.0
 11
18999.99587600296
 21
13008.33327834671
 31
0.0
  0
TEXT
  5
53
330
1F
100
AcDbEntity
  8
0-A_文字
  6
Continuous
 62
     7
370
     0
100
AcDbText
 10
8491.945911296967
 20
13261.43281340618
 30
0.0
 40
304.8
  1
断面詳細図
 41
1.1
  7
ＭＳ ゴシック
100
AcDbText
  0
TEXT
  5
54
330
1F
100
AcDbEntity
  8
0-A_文字
  6
Continuous
 62
     3
370
     0
100
AcDbText
 10
205.6629834254135
 20
13250.61049723757
 30
0.0
 40
381.0
  1
６尺モジュール（DW=846）
 41
1.091666666666667
  7
ＭＳ ゴシック
100
AcDbText
  0
LINE
  5
55
330
1F
100
AcDbEntity
  8
0-A_文字
  6
Continuous
 62
     7
370
     9
100
AcDbLine
 10
14851.2839353466
 20
-7029.581868824084
 30
0.0
 11
14851.2839353466
 21
-7260.904064902144
 31
0.0
  0
TEXT
  5
56
330
1F
100
AcDbEntity
  8
0-B_寸法
  6
Continuous
 62
     7
370
     0
100
AcDbText
 10
12770.37105002127
 20
1881.29921282961
 30
0.0
 40
228.6
  1
3
 41
0.9999999999999998
  7
ＭＳ ゴシック
100
AcDbText
  0
ARC
  5
57
330
1F
100
AcDbEntity
  8
0-A_文字
  6
Continuous
 62
     7
370
     9
100
AcDbCircle
 10
12139.16278942233
 20
2742.400456547053
 30
0.0
 40
25.0
100
AcDbArc
 50
180.0
 51
270.0
  0
LINE
  5
58
330
1F
100
AcDbEntity
  8
0-A_文字
  6
Continuous
 62
     7
370
     9
100
AcDbLine
 10
13258.94747837192
 20
-7293.735870115736
 30
0.0
 11
12883.94617005003
 21
-6918.734606497267
 31
0.0
  0
LINE
  5
59
330
1F
100
AcDbEntity
  8
0-A_文字
  6
Continuous
 62
     7
370
     9
100
AcDbLine
 10
13435.7246743024
 20
-7293.735870115736
 30
0.0
 11
13060.72341068393
 21
-6918.734606497267
 31
0.0
  0
LINE
  5
5A
330
1F
100
AcDbEntity
  8
0-A_文字
  6
Continuous
 62
     7
370
     9
100
AcDbLine
 10
14142.83195598727
 20
-7293.735870115736
 30
0.0
 11
13767.8306923688
 21
-6918.734606497267
 31
0.0
  0
LINE
  5
5B
330
1F
100
AcDbEntity
  8
0-A_文字
  6
Continuous
 62
     7
370
     9
100
AcDbLine
 10
14319.60760219699
 20
-7293.735870115736
 30
0.0
 11
13944.60629387511
 21
-6918.734606497267
 31
0.0
  0
LINE
  5
5C
330
1F
100
AcDbEntity
  8
0-A_文字
  6
Continuous
 62
     7
370
     9
100
AcDbLine
 10
14439.16278942233
 20
-7293.735870115736
 30
0.0
 11
12489.16278942233
 21
-7293.735870115736
 31
0.0
  0
LINE
  5
5D
330
1F
100
AcDbEntity
  8
0-A_文字
  6
JWW_HOJO
 62
     7
370
     9
100
AcDbLine
 10
13614.16278942233
 20
-4544.186475443493
 30
0.0
 11
13614.16278942233
 21
-7707.612413491723
 31
0.0
  0
ARC
  5
5E
330
1F
100
AcDbEntity
  8
0-A_文字
  6
Continuous
 62
     7
370
     9
100
AcDbCircle
 10
15146.33952502251
 20
-7026.40869873436
 30
0.0
 40
32.29408025741577
100
AcDbArc
 50
354.3609924316406
 51
185.6387786865234
  0
ARC
  5
5F
330
1F
100
AcDbEntity
  8
0-A_文字
  6
Continuous
 62
     7
370
     9
100
AcDbCircle
 10
14883.42252139092
 20
-7026.40869873436
 30
0.0
 40
32.29408025741577
100
AcDbArc
 50
354.3609924316406
 51
185.6387786865234
  0
ARC
  5
60
330
1F
100
AcDbEntity
  8
0-A_文字
  6
Continuous
 62
     7
370
     9
100
AcDbCircle
 10
15011.97425250054
 20
-7026.40869873436
 30
0.0
 40
32.29408025741577
100
AcDbArc
 50
354.3609924316406
 51
185.6387786865234
  0
LINE
  5
61
330
1F
100
AcDbEntity
  8
0-A_文字
  6
Continuous
 62
     7
370
     9
100
AcDbLine
 10
15178.47678545952
 20
-7029.581868824084
 30
0.0
 11
15178.47678545952
 21
-7260.904064902144
 31
0.0
  0
LINE
  5
62
330
1F
100
AcDbEntity
  8
0-A_文字
  6
Continuous
 62
     7
370
     9
100
AcDbLine
 10
15114.20092944145
 20
-7029.581868824084
 30
0.0
 11
15114.20092944145
 21
-7260.904064902144
 31
0.0
  0
LINE
  5
63
330
1F
100
AcDbEntity
  8
0-A_文字
  6
Continuous
 62
     7
370
     9
100
AcDbLine
 10
14915.55980090141
 20
-7029.581868824084
 30
0.0
 11
14915.55980090141
 21
-7260.904064902144
 31
0.0
  0
LINE
  5
64
330
1F
100
AcDbEntity
  8
0-A_文字
  6
Continuous
 62
     7
370
     9
100
AcDbLine
 10
15044.11151293754
 20
-7029.581868824084
 30
0.0
 11
15044.11151293754
 21
-7260.904064902144
 31
0.0
  0
LINE
  5
65
330
1F
100
AcDbEntity
  8
0-A_文字
  6
Continuous
 62
     7
370
     9
100
AcDbLine
 10
14979.83565691948
 20
-7029.581868824084
 30
0.0
 11
14979.83565691948
 21
-7260.904064902144
 31
0.0
  0
ARC
  5
66
330
1F
100
AcDbEntity
  8
0-A_文字
  6
Continuous
 62
     7
370
     9
100
AcDbCircle
 10
15210.6140840435
 20
-7260.680971869306
 30
0.0
 40
32.13871240615845
100
AcDbArc
 50
180.3977355957032
 51
359.6022796630859
  0
ARC
  5
67
330
1F
100
AcDbEntity
  8
0-A_文字
  6
Continuous
 62
     7
370
     9
100
AcDbCircle
 10
14947.69708041191
 20
-7260.680971869306
 30
0.0
 40
32.13871240615845
100
AcDbArc
 50
180.3977355957032
 51
359.6022796630859
  0
ARC
  5
68
330
1F
100
AcDbEntity
  8
0-A_文字
  6
Continuous
 62
     7
370
     9
100
AcDbCircle
 10
15076.24879244804
 20
-7260.680971869306
 30
0.0
 40
32.13871240615845
100
AcDbArc
 50
180.3977355957032
 51
359.6022796630859
  0
LINE
  5
69
330
1F
100
AcDbEntity
  8
0-A_文字
  6
Continuous
 62
     7
370
     9
100
AcDbLine
 10
17469.91902396951
 20
-6993.735870115736
 30
0.0
 11
14839.16278942233
 21
-6993.735870115736
 31
0.0
  0
LINE
  5
6A
330
1F
100
AcDbEntity
  8
0-A_文字
  6
Continuous
 62
     7
370
     9
100
AcDbLine
 10
17086.36601354337
 20
-7293.735870115736
 30
0.0
 11
14904.4366759401
 21
-7293.735870115736
 31
0.0
  0
LINE
  5
6B
330
1F
100
AcDbEntity
  8
0-A_文字
  6
Continuous
 62
     7
370
     9
100
AcDbLine
 10
12789.16278942233
 20
2942.400456547053
 30
0.0
 11
12789.16278942233
 21
5691.658135057698
 31
0.0
  0
LINE
  5
6C
330
1F
100
AcDbEntity
  8
0-A_文字
  6
Continuous
 62
     7
370
     9
100
AcDbLine
 10
12964.16278942233
 20
2942.400456547053
 30
0.0
 11
9939.162789422331
 21
2942.400456547053
 31
0.0
  0
LINE
  5
6D
330
1F
100
AcDbEntity
  8
0-A_文字
  6
Continuous
 62
     7
370
     9
100
AcDbLine
 10
12476.66278942233
 20
5691.658135057698
 30
0.0
 11
12476.66278942233
 21
3242.400456547053
 31
0.0
  0
LINE
  5
6E
330
1F
100
AcDbEntity
  8
0-A_文字
  6
JWW_DASHED1
 62
     7
370
     9
100
AcDbLine
 10
12476.66278942237
 20
3699.470543549421
 30
0.0
 11
12789.16278942237
 21
4011.970543549427
 31
0.0
  0
LINE
  5
6F
330
1F
100
AcDbEntity
  8
0-A_文字
  6
JWW_DASHED1
 62
     7
370
     9
100
AcDbLine
 10
12476.66278942235
 20
3840.891899786742
 30
0.0
 11
12789.16278942236
 21
4153.391899786749
 31
0.0
  0
LINE
  5
70
330
1F
100
AcDbEntity
  8
0-A_文字
  6
JWW_DASHED1
 62
     7
370
     9
100
AcDbLine
 10
12476.66278942234
 20
3982.313256024062
 30
0.0
 11
12789.16278942234
 21
4294.813256024069
 31
0.0
  0
LINE
  5
71
330
1F
100
AcDbEntity
  8
0-A_文字
  6
JWW_DASHED1
 62
     7
370
     9
100
AcDbLine
 10
12476.66278942233
 20
4123.734612261384
 30
0.0
 11
12789.16278942233
 21
4436.234612261392
 31
0.0
  0
LINE
  5
72
330
1F
100
AcDbEntity
  8
0-A_文字
  6
JWW_DASHED1
 62
     7
370
     9
100
AcDbLine
 10
12476.66278942234
 20
4265.155968498728
 30
0.0
 11
12789.16278942235
 21
4577.655968498739
 31
0.0
  0
LINE
  5
73
330
1F
100
AcDbEntity
  8
0-A_文字
  6
JWW_DASHED1
 62
     7
370
     9
100
AcDbLine
 10
12476.66278942235
 20
4406.577324736078
 30
0.0
 11
12789.16278942237
 21
4719.077324736087
 31
0.0
  0
LINE
  5
74
330
1F
100
AcDbEntity
  8
0-A_文字
  6
JWW_DASHED1
 62
     7
370
     9
100
AcDbLine
 10
12476.66278942234
 20
4547.9986809734
 30
0.0
 11
12789.16278942235
 21
4860.498680973405
 31
0.0
  0
LINE
  5
75
330
1F
100
AcDbEntity
  8
0-A_文字
  6
JWW_DASHED1
 62
     7
370
     9
100
AcDbLine
 10
12476.66278942238
 20
4689.420037210773
 30
0.0
 11
12789.16278942234
 21
5001.920037210728
 31
0.0
  0
LINE
  5
76
330
1F
100
AcDbEntity
  8
0-A_文字
  6
JWW_DASHED1
 62
     7
370
     9
100
AcDbLine
 10
12476.66278942235
 20
4830.841393447899
 30
0.0
 11
12789.16278942237
 21
5143.341393447905
 31
0.0
  0
LINE
  5
77
330
1F
100
AcDbEntity
  8
0-A_文字
  6
JWW_DASHED1
 62
     7
370
     9
100
AcDbLine
 10
12476.66278942234
 20
4972.262749685218
 30
0.0
 11
12789.16278942235
 21
5284.762749685226
 31
0.0
  0
LINE
  5
78
330
1F
100
AcDbEntity
  8
0-A_文字
  6
JWW_DASHED1
 62
     7
370
     9
100
AcDbLine
 10
12476.66278942233
 20
5113.684105922541
 30
0.0
 11
12789.16278942234
 21
5426.184105922549
 31
0.0
  0
LINE
  5
79
330
1F
100
AcDbEntity
  8
0-A_文字
  6
JWW_DASHED1
 62
     7
370
     9
100
AcDbLine
 10
12476.66278942237
 20
5255.105462159905
 30
0.0
 11
12789.16278942238
 21
5567.60546215992
 31
0.0
  0
LINE
  5
7A
330
1F
100
AcDbEntity
  8
0-A_文字
  6
JWW_DASHED1
 62
     7
370
     9
100
AcDbLine
 10
12476.66278942235
 20
5396.52681839723
 30
0.0
 11
12771.79410608279
 21
5691.658135057661
 31
0.0
  0
LINE
  5
7B
330
1F
100
AcDbEntity
  8
0-A_文字
  6
JWW_DASHED1
 62
     7
370
     9
100
AcDbLine
 10
12476.66278942235
 20
5537.948174634557
 30
0.0
 11
12630.37274984547
 21
5691.658135057675
 31
0.0
  0
LINE
  5
7C
330
1F
100
AcDbEntity
  8
0-A_文字
  6
JWW_DASHED1
 62
     7
370
     9
100
AcDbLine
 10
12476.66278942234
 20
5679.369530871877
 30
0.0
 11
12488.95139360815
 21
5691.658135057689
 31
0.0
  0
LINE
  5
7D
330
1F
100
AcDbEntity
  8
0-A_文字
  6
Continuous
 62
     7
370
     9
100
AcDbLine
 10
12556.09329351176
 20
2717.400456547053
 30
0.0
 11
12781.09329351176
 21
2942.400456547053
 31
0.0
  0
ARC
  5
7E
330
1F
100
AcDbEntity
  8
0-A_文字
  6
Continuous
 62
     7
370
     9
100
AcDbCircle
 10
13389.16278942233
 20
-6992.206842936139
 30
0.0
 40
25.0
100
AcDbArc
 50
219.7928363658217
 51
320.2071636341782
  0
LINE
  5
7F
330
1F
100
AcDbEntity
  8
0-A_文字
  6
Continuous
 62
     7
370
     9
100
AcDbLine
 10
13408.37187816897
 20
-7008.20718385512
 30
0.0
 11
13464.16278942233
 21
-6941.227825668409
 31
0.0
  0
LINE
  5
80
330
1F
100
AcDbEntity
  8
0-A_文字
  6
Continuous
 62
     7
370
     9
100
AcDbLine
 10
13369.95370067569
 20
-7008.20718385512
 30
0.0
 11
13314.16278942233
 21
-6941.227825668409
 31
0.0
  0
ARC
  5
81
330
1F
100
AcDbEntity
  8
0-A_文字
  6
Continuous
 62
     7
370
     9
100
AcDbCircle
 10
13235.36077602511
 20
-6964.375256888846
 30
0.0
 40
54.00353670120239
100
AcDbArc
 50
4.951354980468766
 51
30.2751922607422
  0
ARC
  5
82
330
1F
100
AcDbEntity
  8
0-A_文字
  6
Continuous
 62
     7
370
     9
100
AcDbCircle
 10
13281.71207769519
 20
-6923.165641866902
 30
0.0
 40
4.439356923103333
100
AcDbArc
 50
86.49131774902341
 51
171.549560546875
  0
ARC
  5
83
330
1F
100
AcDbEntity
  8
0-A_文字
  6
Continuous
 62
     7
370
     9
100
AcDbCircle
 10
13542.96480281955
 20
-6964.375256888846
 30
0.0
 40
54.00353670120239
100
AcDbArc
 50
149.7248382568359
 51
175.0486602783203
  0
ARC
  5
84
330
1F
100
AcDbEntity
  8
0-A_文字
  6
Continuous
 62
     7
370
     9
100
AcDbCircle
 10
13496.61350114947
 20
-6923.165641866902
 30
0.0
 40
4.439356923103333
100
AcDbArc
 50
8.450454711914048
 51
93.50869750976561
  0
LINE
  5
85
330
1F
100
AcDbEntity
  8
0-A_文字
  6
Continuous
 62
     7
370
     9
100
AcDbLine
 10
13278.09049947864
 20
-7031.234606497267
 30
0.0
 11
13289.16278942233
 21
-7031.234606497267
 31
0.0
  0
LINE
  5
86
330
1F
100
AcDbEntity
  8
0-A_文字
  6
Continuous
 62
     7
370
     9
100
AcDbLine
 10
13289.16278942233
 20
-6959.714215390662
 30
0.0
 11
13289.16278942233
 21
-7031.234606497267
 31
0.0
  0
LINE
  5
87
330
1F
100
AcDbEntity
  8
0-A_文字
  6
Continuous
 62
     7
370
     9
100
AcDbLine
 10
13278.09049947864
 20
-7031.234606497267
 30
0.0
 11
13283.12166793948
 21
-7068.968340151289
 31
0.0
  0
LINE
  5
88
330
1F
100
AcDbEntity
  8
0-A_文字
  6
Continuous
 62
     7
370
     9
100
AcDbLine
 10
13500.23507936603
 20
-7031.234606497267
 30
0.0
 11
13495.20391090518
 21
-7068.968340151289
 31
0.0
  0
LINE
  5
89
330
1F
100
AcDbEntity
  8
0-A_文字
  6
Continuous
 62
     7
370
     9
100
AcDbLine
 10
13500.23507936603
 20
-7031.234606497267
 30
0.0
 11
13489.16278942233
 21
-7031.234606497267
 31
0.0
  0
LINE
  5
8A
330
1F
100
AcDbEntity
  8
0-A_文字
  6
Continuous
 62
     7
370
     9
100
AcDbLine
 10
13489.16278942233
 20
-6959.714215390662
 30
0.0
 11
13489.16278942233
 21
-7031.234606497267
 31
0.0
  0
LINE
  5
8B
330
1F
100
AcDbEntity
  8
0-A_文字
  6
Continuous
 62
     7
370
     9
100
AcDbLine
 10
13451.66278942233
 20
-7031.234606497267
 30
0.0
 11
13326.66278942233
 21
-7031.234606497267
 31
0.0
  0
LINE
  5
8C
330
1F
100
AcDbEntity
  8
0-A_文字
  6
Continuous
 62
     7
370
     9
100
AcDbLine
 10
13326.66278942233
 20
-6956.234606497267
 30
0.0
 11
13326.66278942233
 21
-7031.234606497267
 31
0.0
  0
LINE
  5
8D
330
1F
100
AcDbEntity
  8
0-A_文字
  6
Continuous
 62
     7
370
     9
100
AcDbLine
 10
13451.66278942233
 20
-6956.234606497267
 30
0.0
 11
13451.66278942233
 21
-7031.234606497267
 31
0.0
  0
LINE
  5
8E
330
1F
100
AcDbEntity
  8
0-A_文字
  6
Continuous
 62
     7
370
     9
100
AcDbLine
 10
13320.39866908198
 20
-6956.234606497267
 30
0.0
 11
13326.66278942233
 21
-6956.234606497267
 31
0.0
  0
LINE
  5
8F
330
1F
100
AcDbEntity
  8
0-A_文字
  6
Continuous
 62
     7
370
     9
100
AcDbLine
 10
13281.99899061328
 20
-6937.149181358794
 30
0.0
 11
13277.32092006808
 21
-6931.532956056574
 31
0.0
  0
LINE
  5
90
330
1F
100
AcDbEntity
  8
0-A_文字
  6
Continuous
 62
     7
370
     9
100
AcDbLine
 10
13277.32092006808
 20
-6931.532956056574
 30
0.0
 11
13277.32092006808
 21
-6922.513260461667
 31
0.0
  0
LINE
  5
91
330
1F
100
AcDbEntity
  8
0-A_文字
  6
Continuous
 62
     7
370
     9
100
AcDbLine
 10
13289.16278942233
 20
-6918.734606497267
 30
0.0
 11
13281.983767587
 21
-6918.734606497267
 31
0.0
  0
LINE
  5
92
330
1F
100
AcDbEntity
  8
0-A_文字
  6
Continuous
 62
     7
370
     9
100
AcDbLine
 10
13320.39866908198
 20
-6956.234606497267
 30
0.0
 11
13289.16278942233
 21
-6918.734606497267
 31
0.0
  0
LINE
  5
93
330
1F
100
AcDbEntity
  8
0-A_文字
  6
Continuous
 62
     7
370
     9
100
AcDbLine
 10
13457.92690976268
 20
-6956.234606497267
 30
0.0
 11
13451.66278942233
 21
-6956.234606497267
 31
0.0
  0
LINE
  5
94
330
1F
100
AcDbEntity
  8
0-A_文字
  6
Continuous
 62
     7
370
     9
100
AcDbLine
 10
13496.32658823138
 20
-6937.149181358794
 30
0.0
 11
13501.00465877658
 21
-6931.532956056574
 31
0.0
  0
LINE
  5
95
330
1F
100
AcDbEntity
  8
0-A_文字
  6
Continuous
 62
     7
370
     9
100
AcDbLine
 10
13501.00465877658
 20
-6931.532956056574
 30
0.0
 11
13501.00465877658
 21
-6922.513260461667
 31
0.0
  0
LINE
  5
96
330
1F
100
AcDbEntity
  8
0-A_文字
  6
Continuous
 62
     7
370
     9
100
AcDbLine
 10
13489.16278942233
 20
-6918.734606497267
 30
0.0
 11
13496.34181125766
 21
-6918.734606497267
 31
0.0
  0
LINE
  5
97
330
1F
100
AcDbEntity
  8
0-A_文字
  6
Continuous
 62
     7
370
     9
100
AcDbLine
 10
13457.92690976268
 20
-6956.234606497267
 30
0.0
 11
13489.16278942233
 21
-6918.734606497267
 31
0.0
  0
LINE
  5
98
330
1F
100
AcDbEntity
  8
0-A_文字
  6
Continuous
 62
     7
370
     9
100
AcDbLine
 10
13276.66278942233
 20
-6918.734606497267
 30
0.0
 11
13276.66278942233
 21
-7068.734606497267
 31
0.0
  0
LINE
  5
99
330
1F
100
AcDbEntity
  8
0-A_文字
  6
Continuous
 62
     7
370
     9
100
AcDbLine
 10
13501.66278942233
 20
-7068.734606497267
 30
0.0
 11
13276.66278942233
 21
-7068.734606497267
 31
0.0
  0
LINE
  5
9A
330
1F
100
AcDbEntity
  8
0-A_文字
  6
Continuous
 62
     7
370
     9
100
AcDbLine
 10
13501.66278942233
 20
-6918.734606497267
 30
0.0
 11
13501.66278942233
 21
-7068.734606497267
 31
0.0
  0
ARC
  5
9B
330
1F
100
AcDbEntity
  8
0-A_文字
  6
Continuous
 62
     7
370
     9
100
AcDbCircle
 10
12814.16278942233
 20
2767.400456547053
 30
0.0
 40
50.0
100
AcDbArc
 50
270.0
 51
0.0
  0
LINE
  5
9C
330
1F
100
AcDbEntity
  8
0-A_文字
  6
Continuous
 62
     7
370
     9
100
AcDbLine
 10
12697.5146497491
 20
2717.400456547053
 30
0.0
 11
12864.16278942233
 21
2884.048596220291
 31
0.0
  0
LINE
  5
9D
330
1F
100
AcDbEntity
  8
0-A_文字
  6
Continuous
 62
     7
370
     9
100
AcDbLine
 10
12114.16278942233
 20
-6993.735870115736
 30
0.0
 11
12114.16278942233
 21
2942.400456547053
 31
0.0
  0
LINE
  5
9E
330
1F
100
AcDbEntity
  8
0-A_文字
  6
Continuous
 62
     7
370
     9
100
AcDbLine
 10
12139.16278942233
 20
2717.400456547053
 30
0.0
 11
12814.16278942233
 21
2717.400456547053
 31
0.0
  0
LINE
  5
9F
330
1F
100
AcDbEntity
  8
0-A_文字
  6
Continuous
 62
     7
370
     9
100
AcDbLine
 10
12414.67193727443
 20
2717.400456547053
 30
0.0
 11
12639.67193727443
 21
2942.400456547053
 31
0.0
  0
LINE
  5
A0
330
1F
100
AcDbEntity
  8
0-A_文字
  6
Continuous
 62
     7
370
     9
100
AcDbLine
 10
12273.25058103712
 20
2717.400456547053
 30
0.0
 11
12498.25058103712
 21
2942.400456547053
 31
0.0
  0
LINE
  5
A1
330
1F
100
AcDbEntity
  8
0-A_文字
  6
Continuous
 62
     7
370
     9
100
AcDbLine
 10
12131.82922479981
 20
2717.400456547053
 30
0.0
 11
12356.82922479981
 21
2942.400456547053
 31
0.0
  0
LINE
  5
A2
330
1F
100
AcDbEntity
  8
0-A_文字
  6
Continuous
 62
     7
370
     9
100
AcDbLine
 10
12114.16278942233
 20
2841.155377406886
 30
0.0
 11
12215.4078685625
 21
2942.400456547053
 31
0.0
  0
LINE
  5
A3
330
1F
100
AcDbEntity
  8
0-A_文字
  6
Continuous
 62
     7
370
     9
100
AcDbLine
 10
12864.16278942233
 20
-6918.734606497267
 30
0.0
 11
12864.16278942233
 21
2942.400456547053
 31
0.0
  0
LINE
  5
A4
330
1F
100
AcDbEntity
  8
0-B_寸法
  6
Continuous
 62
     3
370
     5
100
AcDbLine
 10
12864.16278942233
 20
1700.691723616075
 30
0.0
 11
12789.16278942233
 21
1700.691723616075
 31
0.0
  0
LWPOLYLINE
  5
A5
330
1F
100
AcDbEntity
  8
0-B_寸法
  6
Continuous
 62
     3
370
     5
100
AcDbPolyline
 90
        4
 70
     1
 43
10.0
 10
12869.16278942233
 20
1700.691723616075
 42
0.4142135623731
 10
12864.16278942233
 20
1705.691723616075
 42
0.4142135623731
 10
12859.16278942233
 20
1700.691723616075
 42
0.4142135623731
 10
12864.16278942233
 20
1695.691723616075
 42
0.4142135623731
  0
LWPOLYLINE
  5
A6
330
1F
100
AcDbEntity
  8
0-B_寸法
  6
Continuous
 62
     3
370
     5
100
AcDbPolyline
 90
        4
 70
     1
 43
10.0
 10
12794.16278942233
 20
1700.691723616075
 42
0.4142135623731
 10
12789.16278942233
 20
1705.691723616075
 42
0.4142135623731
 10
12784.16278942233
 20
1700.691723616075
 42
0.4142135623731
 10
12789.16278942233
 20
1695.691723616075
 42
0.4142135623731
  0
LINE
  5
A7
330
1F
100
AcDbEntity
  8
0-B_寸法
  6
Continuous
 62
     3
370
     5
100
AcDbLine
 10
12864.16278942233
 20
1700.691723616075
 30
0.0
 11
12864.16278942233
 21
1845.285916884771
 31
0.0
  0
LINE
  5
A8
330
1F
100
AcDbEntity
  8
0-B_寸法
  6
Continuous
 62
     3
370
     5
100
AcDbLine
 10
12789.16278942233
 20
1700.691723616075
 30
0.0
 11
12789.16278942233
 21
1845.285916884771
 31
0.0
  0
LINE
  5
A9
330
1F
100
AcDbEntity
  8
0-B_寸法
  6
Continuous
 62
     3
370
     5
100
AcDbLine
 10
12864.16278942233
 20
-14.04057897971711
 30
0.0
 11
12114.16278942233
 21
-14.04057897971711
 31
0.0
  0
LWPOLYLINE
  5
AA
330
1F
100
AcDbEntity
  8
0-B_寸法
  6
Continuous
 62
     3
370
     5
100
AcDbPolyline
 90
        4
 70
     1
 43
10.0
 10
12869.16278942233
 20
-14.04057897971711
 42
0.4142135623731
 10
12864.16278942233
 20
-9.040578979717111
 42
0.4142135623731
 10
12859.16278942233
 20
-14.04057897971711
 42
0.4142135623731
 10
12864.16278942233
 20
-19.04057897971711
 42
0.4142135623731
  0
LWPOLYLINE
  5
AB
330
1F
100
AcDbEntity
  8
0-B_寸法
  6
Continuous
 62
     3
370
     5
100
AcDbPolyline
 90
        4
 70
     1
 43
10.0
 10
12119.16278942233
 20
-14.04057897971711
 42
0.4142135623731
 10
12114.16278942233
 20
-9.040578979717111
 42
0.4142135623731
 10
12109.16278942233
 20
-14.04057897971711
 42
0.4142135623731
 10
12114.16278942233
 20
-19.04057897971711
 42
0.4142135623731
  0
LINE
  5
AC
330
1F
100
AcDbEntity
  8
0-B_寸法
  6
Continuous
 62
     3
370
     5
100
AcDbLine
 10
12864.16278942233
 20
-14.04057897971711
 30
0.0
 11
12864.16278942233
 21
324.8803126948644
 31
0.0
  0
LINE
  5
AD
330
1F
100
AcDbEntity
  8
0-B_寸法
  6
Continuous
 62
     3
370
     5
100
AcDbLine
 10
12114.16278942233
 20
-14.04057897971711
 30
0.0
 11
12114.16278942233
 21
324.8803126948644
 31
0.0
  0
TEXT
  5
AE
330
1F
100
AcDbEntity
  8
0-B_寸法
  6
Continuous
 62
     7
370
     0
100
AcDbText
 10
12326.66278942233
 20
78.2594210202829
 30
0.0
 40
228.6
  1
30
 41
1.083333333333333
  7
ＭＳ ゴシック
100
AcDbText
  0
LINE
  5
AF
330
1F
100
AcDbEntity
  8
0-A_文字
  6
Continuous
 62
     7
370
     9
100
AcDbLine
 10
13789.27909000522
 20
-7293.735870115736
 30
0.0
 11
13501.66278942233
 21
-7006.119569532851
 31
0.0
  0
LINE
  5
B0
330
1F
100
AcDbEntity
  8
0-A_文字
  6
Continuous
 62
     7
370
     9
100
AcDbLine
 10
13966.05473621493
 20
-7293.735870115736
 30
0.0
 11
13591.05193777686
 21
-6918.734606497267
 31
0.0
  0
LINE
  5
B1
330
1F
100
AcDbEntity
  8
0-A_文字
  6
Continuous
 62
     7
370
     9
100
AcDbLine
 10
13612.50187917357
 20
-7293.735870115736
 30
0.0
 11
13387.5006272847
 21
-7068.734606497267
 31
0.0
  0
LINE
  5
B2
330
1F
100
AcDbEntity
  8
0-A_文字
  6
Continuous
 62
     7
370
     9
100
AcDbLine
 10
13276.66278942233
 20
-6957.896762856788
 30
0.0
 11
13237.50063510438
 21
-6918.734606497267
 31
0.0
  0
LINE
  5
B3
330
1F
100
AcDbEntity
  8
0-0_補助線
  6
JWW_HOJO
 62
     7
370
     9
100
AcDbLine
 10
12789.16278942233
 20
-6918.734606497267
 30
0.0
 11
12789.16278942233
 21
2942.400456547053
 31
0.0
  0
ARC
  5
B4
330
1F
100
AcDbEntity
  8
0-A_文字
  6
Continuous
 62
     7
370
     9
100
AcDbCircle
 10
14789.16278942233
 20
-6968.734606497267
 30
0.0
 40
50.0
100
AcDbArc
 50
0.0
 51
90.0
  0
LINE
  5
B5
330
1F
100
AcDbEntity
  8
0-A_文字
  6
Continuous
 62
     7
370
     9
100
AcDbLine
 10
14839.16278942233
 20
-6968.734606497267
 30
0.0
 11
14839.16278942233
 21
-7293.735870115736
 31
0.0
  0
ARC
  5
B6
330
1F
100
AcDbEntity
  8
0-A_文字
  6
Continuous
 62
     7
370
     9
100
AcDbCircle
 10
14819.14534930229
 20
-7260.680971869306
 30
0.0
 40
32.13871240615845
100
AcDbArc
 50
308.5241990416374
 51
359.6022796630859
  0
LINE
  5
B7
330
1F
100
AcDbEntity
  8
0-A_文字
  6
Continuous
 62
     7
370
     9
100
AcDbLine
 10
12789.16278942233
 20
-6968.734606497267
 30
0.0
 11
12789.16278942233
 21
-7293.735870115736
 31
0.0
  0
ARC
  5
B8
330
1F
100
AcDbEntity
  8
0-A_文字
  6
Continuous
 62
     7
370
     9
100
AcDbCircle
 10
12839.16278942233
 20
-6968.734606497267
 30
0.0
 40
50.0
100
AcDbArc
 50
90.0
 51
180.0
  0
LINE
  5
B9
330
1F
100
AcDbEntity
  8
0-A_文字
  6
Continuous
 62
     7
370
     9
100
AcDbLine
 10
13082.17025859958
 20
-7293.735870115736
 30
0.0
 11
12789.16278942233
 21
-7000.728374872569
 31
0.0
  0
LINE
  5
BA
330
1F
100
AcDbEntity
  8
0-A_文字
  6
Continuous
 62
     7
370
     9
100
AcDbLine
 10
12905.39303882724
 20
-7293.735870115736
 30
0.0
 11
12789.16278942233
 21
-7177.505610370994
 31
0.0
  0
LINE
  5
BB
330
1F
100
AcDbEntity
  8
0-A_文字
  6
Continuous
 62
     7
370
     9
100
AcDbLine
 10
14789.16278942233
 20
-6918.734606497267
 30
0.0
 11
13501.66278942233
 21
-6918.734606497267
 31
0.0
  0
LINE
  5
BC
330
1F
100
AcDbEntity
  8
0-A_文字
  6
Continuous
 62
     7
370
     9
100
AcDbLine
 10
14496.38479812747
 20
-7293.735870115736
 30
0.0
 11
14121.383534509
 21
-6918.734606497267
 31
0.0
  0
LINE
  5
BD
330
1F
100
AcDbEntity
  8
0-A_文字
  6
Continuous
 62
     7
370
     9
100
AcDbLine
 10
14673.16195449133
 20
-7293.735870115736
 30
0.0
 11
14298.16075428134
 21
-6918.734606497267
 31
0.0
  0
LINE
  5
BE
330
1F
100
AcDbEntity
  8
0-A_文字
  6
Continuous
 62
     7
370
     9
100
AcDbLine
 10
14839.16278942233
 20
-7282.959546849179
 30
0.0
 11
14474.93791065675
 21
-6918.734606497267
 31
0.0
  0
LINE
  5
BF
330
1F
100
AcDbEntity
  8
0-A_文字
  6
Continuous
 62
     7
370
     9
100
AcDbLine
 10
14839.16278942233
 20
-7106.182360582739
 30
0.0
 11
14651.71506703216
 21
-6918.734606497267
 31
0.0
  0
LINE
  5
C0
330
1F
100
AcDbEntity
  8
0-A_文字
  6
Continuous
 62
     7
370
     9
100
AcDbLine
 10
13764.16278942233
 20
-6768.734606497267
 30
0.0
 11
13014.16278942233
 21
-6768.734606497267
 31
0.0
  0
LINE
  5
C1
330
1F
100
AcDbEntity
  8
0-A_文字
  6
Continuous
 62
     7
370
     9
100
AcDbLine
 10
13314.16278942233
 20
-6768.734606497267
 30
0.0
 11
13314.16278942233
 21
-6941.227825668409
 31
0.0
  0
LINE
  5
C2
330
1F
100
AcDbEntity
  8
0-A_文字
  6
Continuous
 62
     7
370
     9
100
AcDbLine
 10
13464.16278942233
 20
-6768.734606497267
 30
0.0
 11
13464.16278942233
 21
-6941.227825668409
 31
0.0
  0
LINE
  5
C3
330
1F
100
AcDbEntity
  8
0-0_補助線
  6
JWW_HOJO
 62
     4
370
    15
100
AcDbLine
 10
13389.16278942233
 20
6054.655056710246
 30
0.0
 11
13389.16278942233
 21
-7941.312579643869
 31
0.0
  0
LINE
  5
C4
330
1F
100
AcDbEntity
  8
0-A_文字
  6
Continuous
 62
     7
370
     9
100
AcDbLine
 10
12839.16278942233
 20
-6918.734606497267
 30
0.0
 11
13276.66278942233
 21
-6918.734606497267
 31
0.0
  0
LINE
  5
C5
330
1F
100
AcDbEntity
  8
0-A_文字
  6
Continuous
 62
     7
370
     9
100
AcDbLine
 10
12801.41258935863
 20
2942.400456547038
 30
0.0
 11
12789.16278942231
 21
2954.650256483357
 31
0.0
  0
LINE
  5
C6
330
1F
100
AcDbEntity
  8
0-A_文字
  6
Continuous
 62
     7
370
     9
100
AcDbLine
 10
12942.83394559596
 20
2942.40045654705
 30
0.0
 11
12817.83394559597
 21
3067.400456547035
 31
0.0
  0
LINE
  5
C7
330
1F
100
AcDbEntity
  8
0-A_文字
  6
Continuous
 62
     7
370
     9
100
AcDbLine
 10
13084.25530183311
 20
2942.40045654705
 30
0.0
 11
12839.16278942234
 21
3187.492968957819
 31
0.0
  0
LINE
  5
C8
330
1F
100
AcDbEntity
  8
0-A_文字
  6
Continuous
 62
     7
370
     9
100
AcDbLine
 10
12789.16278942233
 20
3067.400456547053
 30
0.0
 11
12839.16278942233
 21
3067.400456547053
 31
0.0
  0
LINE
  5
C9
330
1F
100
AcDbEntity
  8
0-A_文字
  6
Continuous
 62
     7
370
     9
100
AcDbLine
 10
14839.16278942233
 20
3692.400456547053
 30
0.0
 11
12789.16278942233
 21
3692.400456547053
 31
0.0
  0
LINE
  5
CA
330
1F
100
AcDbEntity
  8
0-A_文字
  6
Continuous
 62
     7
370
     9
100
AcDbLine
 10
12839.16278942233
 20
3642.400456547053
 30
0.0
 11
12839.16278942233
 21
3067.400456547053
 31
0.0
  0
LINE
  5
CB
330
1F
100
AcDbEntity
  8
0-A_文字
  6
Continuous
 62
     7
370
     9
100
AcDbLine
 10
14357.04750796891
 20
2942.40045654707
 30
0.0
 11
13657.04750796893
 21
3642.400456547053
 31
0.0
  0
LINE
  5
CC
330
1F
100
AcDbEntity
  8
0-A_文字
  6
Continuous
 62
     7
370
     9
100
AcDbLine
 10
13626.66278942233
 20
3117.400456547053
 30
0.0
 11
13151.66278942233
 21
3117.400456547053
 31
0.0
  0
LINE
  5
CD
330
1F
100
AcDbEntity
  8
0-A_文字
  6
Continuous
 62
     7
370
     9
100
AcDbLine
 10
13151.66278942233
 20
2992.400456547053
 30
0.0
 11
13151.66278942233
 21
3117.400456547053
 31
0.0
  0
LINE
  5
CE
330
1F
100
AcDbEntity
  8
0-A_文字
  6
Continuous
 62
     7
370
     9
100
AcDbLine
 10
13626.66278942233
 20
2992.400456547053
 30
0.0
 11
13151.66278942233
 21
2992.400456547053
 31
0.0
  0
LINE
  5
CF
330
1F
100
AcDbEntity
  8
0-A_文字
  6
Continuous
 62
     7
370
     9
100
AcDbLine
 10
13626.66278942233
 20
2992.400456547053
 30
0.0
 11
13626.66278942233
 21
3117.400456547053
 31
0.0
  0
LINE
  5
D0
330
1F
100
AcDbEntity
  8
0-A_文字
  6
Continuous
 62
     7
370
     9
100
AcDbLine
 10
13126.66278942233
 20
2942.400456547053
 30
0.0
 11
13126.66278942233
 21
3317.400456547053
 31
0.0
  0
LINE
  5
D1
330
1F
100
AcDbEntity
  8
0-A_文字
  6
Continuous
 62
     7
370
     9
100
AcDbLine
 10
13126.66278942233
 20
3317.400456547053
 30
0.0
 11
13651.66278942233
 21
3317.400456547053
 31
0.0
  0
LINE
  5
D2
330
1F
100
AcDbEntity
  8
0-A_文字
  6
Continuous
 62
     7
370
     9
100
AcDbLine
 10
13651.66278942233
 20
2942.400456547053
 30
0.0
 11
13651.66278942233
 21
3317.400456547053
 31
0.0
  0
LINE
  5
D3
330
1F
100
AcDbEntity
  8
0-A_文字
  6
Continuous
 62
     7
370
     9
100
AcDbLine
 10
13707.78343925714
 20
2942.400456547024
 30
0.0
 11
13651.66278942231
 21
2998.521106381851
 31
0.0
  0
LINE
  5
D4
330
1F
100
AcDbEntity
  8
0-A_文字
  6
Continuous
 62
     7
370
     9
100
AcDbLine
 10
13189.16278942233
 20
2942.400456547053
 30
0.0
 11
12964.16278942233
 21
2942.400456547053
 31
0.0
  0
LINE
  5
D5
330
1F
100
AcDbEntity
  8
0-A_文字
  6
Continuous
 62
     7
370
     9
100
AcDbLine
 10
13126.66278942233
 20
3041.414325195157
 30
0.0
 11
12839.16278942235
 21
3328.914325195139
 31
0.0
  0
LINE
  5
D6
330
1F
100
AcDbEntity
  8
0-A_文字
  6
Continuous
 62
     7
370
     9
100
AcDbLine
 10
13126.66278942233
 20
3182.835681432491
 30
0.0
 11
12839.16278942231
 21
3470.335681432509
 31
0.0
  0
LINE
  5
D7
330
1F
100
AcDbEntity
  8
0-A_文字
  6
Continuous
 62
     7
370
     9
100
AcDbLine
 10
13133.51937054511
 20
3317.400456547053
 30
0.0
 11
12839.16278942229
 21
3611.757037669874
 31
0.0
  0
LINE
  5
D8
330
1F
100
AcDbEntity
  8
0-A_文字
  6
Continuous
 62
     7
370
     9
100
AcDbLine
 10
13274.94072678244
 20
3317.400456547053
 30
0.0
 11
12949.94072678244
 21
3642.400456547053
 31
0.0
  0
LINE
  5
D9
330
1F
100
AcDbEntity
  8
0-A_文字
  6
Continuous
 62
     7
370
     9
100
AcDbLine
 10
14074.20479549425
 20
2942.400456547053
 30
0.0
 11
13374.20479549425
 21
3642.400456547053
 31
0.0
  0
LINE
  5
DA
330
1F
100
AcDbEntity
  8
0-A_文字
  6
Continuous
 62
     7
370
     9
100
AcDbLine
 10
14215.6261517316
 20
2942.400456547053
 30
0.0
 11
13515.62615173159
 21
3642.400456547053
 31
0.0
  0
LINE
  5
DB
330
1F
100
AcDbEntity
  8
0-A_文字
  6
Continuous
 62
     7
370
     9
100
AcDbLine
 10
13651.66278942233
 20
2942.400456547053
 30
0.0
 11
14839.16278942233
 21
2942.400456547053
 31
0.0
  0
LINE
  5
DC
330
1F
100
AcDbEntity
  8
0-A_文字
  6
Continuous
 62
     7
370
     9
100
AcDbLine
 10
13791.36208301978
 20
2942.400456547053
 30
0.0
 11
13651.66278942233
 21
3082.099750144496
 31
0.0
  0
LINE
  5
DD
330
1F
100
AcDbEntity
  8
0-A_文字
  6
Continuous
 62
     7
370
     9
100
AcDbLine
 10
13416.36208301977
 20
3317.400456547053
 30
0.0
 11
13091.36208301977
 21
3642.400456547053
 31
0.0
  0
LINE
  5
DE
330
1F
100
AcDbEntity
  8
0-A_文字
  6
Continuous
 62
     7
370
     9
100
AcDbLine
 10
13932.78343925711
 20
2942.400456547053
 30
0.0
 11
13651.66278942233
 21
3223.521106381827
 31
0.0
  0
LINE
  5
DF
330
1F
100
AcDbEntity
  8
0-A_文字
  6
Continuous
 62
     7
370
     9
100
AcDbLine
 10
13557.7834392571
 20
3317.400456547053
 30
0.0
 11
13232.7834392571
 21
3642.400456547053
 31
0.0
  0
LINE
  5
E0
330
1F
100
AcDbEntity
  8
0-A_文字
  6
Continuous
 62
     7
370
     9
100
AcDbLine
 10
14839.16278942233
 20
2942.400456547053
 30
0.0
 11
14839.16278942233
 21
3692.400456547053
 31
0.0
  0
LINE
  5
E1
330
1F
100
AcDbEntity
  8
0-A_文字
  6
Continuous
 62
     7
370
     9
100
AcDbLine
 10
14498.46886420626
 20
2942.400456547053
 30
0.0
 11
13798.46886420625
 21
3642.400456547053
 31
0.0
  0
LINE
  5
E2
330
1F
100
AcDbEntity
  8
0-A_文字
  6
Continuous
 62
     7
370
     9
100
AcDbLine
 10
14639.89022044359
 20
2942.400456547053
 30
0.0
 11
13939.89022044359
 21
3642.400456547053
 31
0.0
  0
LINE
  5
E3
330
1F
100
AcDbEntity
  8
0-A_文字
  6
JWW_CENTER1
 62
     7
370
     9
100
AcDbLine
 10
8204.503046304057
 20
-7293.735870115736
 30
0.0
 11
17583.96682470819
 21
-7293.735870115736
 31
0.0
  0
LINE
  5
E4
330
1F
100
AcDbEntity
  8
0-A_文字
  6
Continuous
 62
     7
370
     9
100
AcDbLine
 10
8204.503046304057
 20
-7668.735870115736
 30
0.0
 11
17583.96682470819
 21
-7668.735870115736
 31
0.0
  0
LINE
  5
E5
330
1F
100
AcDbEntity
  8
0-A_文字
  6
Continuous
 62
     7
370
     9
100
AcDbLine
 10
8204.503046304057
 20
-7256.235870115736
 30
0.0
 11
12789.16278942233
 21
-7256.235870115736
 31
0.0
  0
LINE
  5
E6
330
1F
100
AcDbEntity
  8
0-A_文字
  6
Continuous
 62
     7
370
     9
100
AcDbLine
 10
8204.503046304057
 20
-7218.735870115736
 30
0.0
 11
12789.16278942233
 21
-7218.735870115736
 31
0.0
  0
LINE
  5
E7
330
1F
100
AcDbEntity
  8
0-A_文字
  6
Continuous
 62
     7
370
     9
100
AcDbLine
 10
8204.503046304057
 20
-7181.235870115736
 30
0.0
 11
12789.16278942233
 21
-7181.235870115736
 31
0.0
  0
LINE
  5
E8
330
1F
100
AcDbEntity
  8
0-A_文字
  6
Continuous
 62
     7
370
     9
100
AcDbLine
 10
8204.503046304057
 20
-7106.235870115736
 30
0.0
 11
12789.16278942233
 21
-7106.235870115736
 31
0.0
  0
LINE
  5
E9
330
1F
100
AcDbEntity
  8
0-A_文字
  6
Continuous
 62
     7
370
     9
100
AcDbLine
 10
8204.503046304057
 20
-7143.735870115736
 30
0.0
 11
12789.16278942233
 21
-7143.735870115736
 31
0.0
  0
LINE
  5
EA
330
1F
100
AcDbEntity
  8
0-A_文字
  6
Continuous
 62
     7
370
     9
100
AcDbLine
 10
8204.503046304057
 20
-7068.735870115736
 30
0.0
 11
12789.16278942233
 21
-7068.735870115736
 31
0.0
  0
LINE
  5
EB
330
1F
100
AcDbEntity
  8
0-A_文字
  6
Continuous
 62
     7
370
     9
100
AcDbLine
 10
8204.503046304057
 20
-7031.235870115736
 30
0.0
 11
12789.16278942233
 21
-7031.235870115736
 31
0.0
  0
LINE
  5
EC
330
1F
100
AcDbEntity
  8
0-A_文字
  6
Continuous
 62
     7
370
     9
100
AcDbLine
 10
8204.503046304057
 20
-6993.735870115736
 30
0.0
 11
12789.16278942233
 21
-6993.735870115736
 31
0.0
  0
ARC
  5
ED
330
1F
100
AcDbEntity
  8
0-A_文字
  6
Continuous
 62
     7
370
     9
100
AcDbCircle
 10
15434.49060956407
 20
-7026.40869873436
 30
0.0
 40
32.29408025741577
100
AcDbArc
 50
354.3609924316406
 51
185.6387786865234
  0
LINE
  5
EE
330
1F
100
AcDbEntity
  8
0-A_文字
  6
Continuous
 62
     7
370
     9
100
AcDbLine
 10
15466.62787000108
 20
-7029.581868824084
 30
0.0
 11
15466.62787000108
 21
-7260.904064902144
 31
0.0
  0
LINE
  5
EF
330
1F
100
AcDbEntity
  8
0-A_文字
  6
Continuous
 62
     7
370
     9
100
AcDbLine
 10
15402.35201398302
 20
-7029.581868824084
 30
0.0
 11
15402.35201398302
 21
-7260.904064902144
 31
0.0
  0
ARC
  5
F0
330
1F
100
AcDbEntity
  8
0-A_文字
  6
Continuous
 62
     7
370
     9
100
AcDbCircle
 10
15498.76516858507
 20
-7260.680971869306
 30
0.0
 40
32.13871240615845
100
AcDbArc
 50
180.3977355957032
 51
359.6022796630859
  0
ARC
  5
F1
330
1F
100
AcDbEntity
  8
0-A_文字
  6
Continuous
 62
     7
370
     9
100
AcDbCircle
 10
15300.1253370421
 20
-7026.40869873436
 30
0.0
 40
32.29408025741577
100
AcDbArc
 50
354.3609924316406
 51
185.6387786865234
  0
LINE
  5
F2
330
1F
100
AcDbEntity
  8
0-A_文字
  6
Continuous
 62
     7
370
     9
100
AcDbLine
 10
15332.26259747911
 20
-7029.581868824084
 30
0.0
 11
15332.26259747911
 21
-7260.904064902144
 31
0.0
  0
LINE
  5
F3
330
1F
100
AcDbEntity
  8
0-A_文字
  6
Continuous
 62
     7
370
     9
100
AcDbLine
 10
15267.98674146104
 20
-7029.581868824084
 30
0.0
 11
15267.98674146104
 21
-7260.904064902144
 31
0.0
  0
ARC
  5
F4
330
1F
100
AcDbEntity
  8
0-A_文字
  6
Continuous
 62
     7
370
     9
100
AcDbCircle
 10
15364.39989606309
 20
-7260.680971869306
 30
0.0
 40
32.13871240615845
100
AcDbArc
 50
180.3977355957032
 51
359.6022796630859
  0
ARC
  5
F5
330
1F
100
AcDbEntity
  8
0-A_文字
  6
Continuous
 62
     7
370
     9
100
AcDbCircle
 10
15568.85588208605
 20
-7026.40869873436
 30
0.0
 40
32.29408025741577
100
AcDbArc
 50
354.3609924316406
 51
185.6387786865234
  0
LINE
  5
F6
330
1F
100
AcDbEntity
  8
0-A_文字
  6
Continuous
 62
     7
370
     9
100
AcDbLine
 10
15600.99314252306
 20
-7029.581868824084
 30
0.0
 11
15600.99314252306
 21
-7260.904064902144
 31
0.0
  0
LINE
  5
F7
330
1F
100
AcDbEntity
  8
0-A_文字
  6
Continuous
 62
     7
370
     9
100
AcDbLine
 10
15536.71728650499
 20
-7029.581868824084
 30
0.0
 11
15536.71728650499
 21
-7260.904064902144
 31
0.0
  0
ARC
  5
F8
330
1F
100
AcDbEntity
  8
0-A_文字
  6
Continuous
 62
     7
370
     9
100
AcDbCircle
 10
15633.13044110704
 20
-7260.680971869306
 30
0.0
 40
32.13871240615845
100
AcDbArc
 50
180.3977355957032
 51
359.6022796630859
  0
ARC
  5
F9
330
1F
100
AcDbEntity
  8
0-A_文字
  6
Continuous
 62
     7
370
     9
100
AcDbCircle
 10
15703.22115460802
 20
-7026.40869873436
 30
0.0
 40
32.29408025741577
100
AcDbArc
 50
354.3609924316406
 51
185.6387786865234
  0
LINE
  5
FA
330
1F
100
AcDbEntity
  8
0-A_文字
  6
Continuous
 62
     7
370
     9
100
AcDbLine
 10
15735.35841504503
 20
-7029.581868824084
 30
0.0
 11
15735.35841504503
 21
-7260.904064902144
 31
0.0
  0
LINE
  5
FB
330
1F
100
AcDbEntity
  8
0-A_文字
  6
Continuous
 62
     7
370
     9
100
AcDbLine
 10
15671.08255902696
 20
-7029.581868824084
 30
0.0
 11
15671.08255902696
 21
-7260.904064902144
 31
0.0
  0
ARC
  5
FC
330
1F
100
AcDbEntity
  8
0-A_文字
  6
Continuous
 62
     7
370
     9
100
AcDbCircle
 10
15767.49571362901
 20
-7260.680971869306
 30
0.0
 40
32.13871240615845
100
AcDbArc
 50
180.3977355957032
 51
359.6022796630859
  0
ARC
  5
FD
330
1F
100
AcDbEntity
  8
0-A_文字
  6
Continuous
 62
     7
370
     9
100
AcDbCircle
 10
15837.5858869581
 20
-7026.40869873436
 30
0.0
 40
32.29408025741577
100
AcDbArc
 50
354.3609924316406
 51
185.6387786865234
  0
LINE
  5
FE
330
1F
100
AcDbEntity
  8
0-A_文字
  6
Continuous
 62
     7
370
     9
100
AcDbLine
 10
15869.72314739511
 20
-7029.581868824084
 30
0.0
 11
15869.72314739511
 21
-7260.904064902144
 31
0.0
  0
LINE
  5
FF
330
1F
100
AcDbEntity
  8
0-A_文字
  6
Continuous
 62
     7
370
     9
100
AcDbLine
 10
15805.44729137704
 20
-7029.581868824084
 30
0.0
 11
15805.44729137704
 21
-7260.904064902144
 31
0.0
  0
ARC
  5
100
330
1F
100
AcDbEntity
  8
0-A_文字
  6
Continuous
 62
     7
370
     9
100
AcDbCircle
 10
15901.86044597909
 20
-7260.680971869306
 30
0.0
 40
32.13871240615845
100
AcDbArc
 50
180.3977355957032
 51
359.6022796630859
  0
ARC
  5
101
330
1F
100
AcDbEntity
  8
0-A_文字
  6
Continuous
 62
     7
370
     9
100
AcDbCircle
 10
15971.95115948007
 20
-7026.40869873436
 30
0.0
 40
32.29408025741577
100
AcDbArc
 50
354.3609924316406
 51
185.6387786865234
  0
LINE
  5
102
330
1F
100
AcDbEntity
  8
0-A_文字
  6
Continuous
 62
     7
370
     9
100
AcDbLine
 10
16004.08841991708
 20
-7029.581868824084
 30
0.0
 11
16004.08841991708
 21
-7260.904064902144
 31
0.0
  0
LINE
  5
103
330
1F
100
AcDbEntity
  8
0-A_文字
  6
Continuous
 62
     7
370
     9
100
AcDbLine
 10
15939.81256389901
 20
-7029.581868824084
 30
0.0
 11
15939.81256389901
 21
-7260.904064902144
 31
0.0
  0
ARC
  5
104
330
1F
100
AcDbEntity
  8
0-A_文字
  6
Continuous
 62
     7
370
     9
100
AcDbCircle
 10
16036.22571850107
 20
-7260.680971869306
 30
0.0
 40
32.13871240615845
100
AcDbArc
 50
180.3977355957032
 51
359.6022796630859
  0
ARC
  5
105
330
1F
100
AcDbEntity
  8
0-A_文字
  6
Continuous
 62
     7
370
     9
100
AcDbCircle
 10
16106.31589183015
 20
-7026.40869873436
 30
0.0
 40
32.29408025741577
100
AcDbArc
 50
354.3609924316406
 51
185.6387786865234
  0
LINE
  5
106
330
1F
100
AcDbEntity
  8
0-A_文字
  6
Continuous
 62
     7
370
     9
100
AcDbLine
 10
16138.45315226716
 20
-7029.581868824084
 30
0.0
 11
16138.45315226716
 21
-7260.904064902144
 31
0.0
  0
LINE
  5
107
330
1F
100
AcDbEntity
  8
0-A_文字
  6
Continuous
 62
     7
370
     9
100
AcDbLine
 10
16074.17729624909
 20
-7029.581868824084
 30
0.0
 11
16074.17729624909
 21
-7260.904064902144
 31
0.0
  0
ARC
  5
108
330
1F
100
AcDbEntity
  8
0-A_文字
  6
Continuous
 62
     7
370
     9
100
AcDbCircle
 10
16170.59045085114
 20
-7260.680971869306
 30
0.0
 40
32.13871240615845
100
AcDbArc
 50
180.3977355957032
 51
359.6022796630859
  0
ARC
  5
109
330
1F
100
AcDbEntity
  8
0-A_文字
  6
Continuous
 62
     7
370
     9
100
AcDbCircle
 10
16240.68062418022
 20
-7026.40869873436
 30
0.0
 40
32.29408025741577
100
AcDbArc
 50
354.3609924316406
 51
185.6387786865234
  0
LINE
  5
10A
330
1F
100
AcDbEntity
  8
0-A_文字
  6
Continuous
 62
     7
370
     9
100
AcDbLine
 10
16272.81788461723
 20
-7029.581868824084
 30
0.0
 11
16272.81788461723
 21
-7260.904064902144
 31
0.0
  0
LINE
  5
10B
330
1F
100
AcDbEntity
  8
0-A_文字
  6
Continuous
 62
     7
370
     9
100
AcDbLine
 10
16208.54202859917
 20
-7029.581868824084
 30
0.0
 11
16208.54202859917
 21
-7260.904064902144
 31
0.0
  0
ARC
  5
10C
330
1F
100
AcDbEntity
  8
0-A_文字
  6
Continuous
 62
     7
370
     9
100
AcDbCircle
 10
16304.95518320122
 20
-7260.680971869306
 30
0.0
 40
32.13871240615845
100
AcDbArc
 50
180.3977355957032
 51
359.6022796630859
  0
ARC
  5
10D
330
1F
100
AcDbEntity
  8
0-A_文字
  6
Continuous
 62
     7
370
     9
100
AcDbCircle
 10
16375.04589670219
 20
-7026.40869873436
 30
0.0
 40
32.29408025741577
100
AcDbArc
 50
354.3609924316406
 51
185.6387786865234
  0
LINE
  5
10E
330
1F
100
AcDbEntity
  8
0-A_文字
  6
Continuous
 62
     7
370
     9
100
AcDbLine
 10
16407.18315713921
 20
-7029.581868824084
 30
0.0
 11
16407.18315713921
 21
-7260.904064902144
 31
0.0
  0
LINE
  5
10F
330
1F
100
AcDbEntity
  8
0-A_文字
  6
Continuous
 62
     7
370
     9
100
AcDbLine
 10
16342.90730112114
 20
-7029.581868824084
 30
0.0
 11
16342.90730112114
 21
-7260.904064902144
 31
0.0
  0
ARC
  5
110
330
1F
100
AcDbEntity
  8
0-A_文字
  6
Continuous
 62
     7
370
     9
100
AcDbCircle
 10
16439.32045572319
 20
-7260.680971869306
 30
0.0
 40
32.13871240615845
100
AcDbArc
 50
180.3977355957032
 51
359.6022796630859
  0
LWPOLYLINE
  5
111
330
1F
100
AcDbEntity
  8
0-A_文字
  6
Continuous
 62
     7
370
     9
100
AcDbPolyline
 90
        4
 70
     1
 43
10.0
 10
15837.08813935208
 20
-7068.734606497267
 42
0.4142135623731
 10
15832.08813935208
 20
-7063.734606497267
 42
0.4142135623731
 10
15827.08813935208
 20
-7068.734606497267
 42
0.4142135623731
 10
15832.08813935208
 20
-7073.734606497267
 42
0.4142135623731
  0
LINE
  5
112
330
1F
100
AcDbEntity
  8
0-A_文字
  6
Continuous
 62
     7
370
     9
100
AcDbLine
 10
17077.97419277312
 20
2942.400456547053
 30
0.0
 11
15778.00430457956
 21
2942.400456547053
 31
0.0
  0
LINE
  5
113
330
1F
100
AcDbEntity
  8
0-A_文字
  6
Continuous
 62
     7
370
     9
100
AcDbLine
 10
14776.66278942233
 20
3642.400456547053
 30
0.0
 11
12839.16278942233
 21
3642.400456547053
 31
0.0
  0
LINE
  5
114
330
1F
100
AcDbEntity
  8
0-A_文字
  6
Continuous
 62
     7
370
     9
100
AcDbLine
 10
14776.66278942233
 20
3642.400456547053
 30
0.0
 11
14776.66278942233
 21
3692.400456547053
 31
0.0
  0
LINE
  5
115
330
1F
100
AcDbEntity
  8
0-A_文字
  6
Continuous
 62
     7
370
     9
100
AcDbLine
 10
14839.16278942233
 20
3025.970600042973
 30
0.0
 11
14222.73293291826
 21
3642.400456547053
 31
0.0
  0
LINE
  5
116
330
1F
100
AcDbEntity
  8
0-A_文字
  6
Continuous
 62
     7
370
     9
100
AcDbLine
 10
14781.31157668093
 20
2942.400456547053
 30
0.0
 11
14081.31157668092
 21
3642.400456547053
 31
0.0
  0
LINE
  5
117
330
1F
100
AcDbEntity
  8
0-A_文字
  6
Continuous
 62
     7
370
     9
100
AcDbLine
 10
14839.16278942233
 20
3167.391956280289
 30
0.0
 11
14364.15428915559
 21
3642.400456547053
 31
0.0
  0
LINE
  5
118
330
1F
100
AcDbEntity
  8
0-A_文字
  6
Continuous
 62
     7
370
     9
100
AcDbLine
 10
14839.16278942233
 20
3308.813312517603
 30
0.0
 11
14505.5756453929
 21
3642.400456547053
 31
0.0
  0
LINE
  5
119
330
1F
100
AcDbEntity
  8
0-A_文字
  6
Continuous
 62
     7
370
     9
100
AcDbLine
 10
14839.16278942233
 20
3450.234668754915
 30
0.0
 11
14646.9970016302
 21
3642.400456547053
 31
0.0
  0
LINE
  5
11A
330
1F
100
AcDbEntity
  8
0-A_文字
  6
Continuous
 62
     7
370
     9
100
AcDbLine
 10
14839.16278942233
 20
3591.656024992227
 30
0.0
 11
14776.66278942233
 21
3654.156024992233
 31
0.0
  0
LINE
  5
11B
330
1F
100
AcDbEntity
  8
0-1_通り芯
  6
JWW_CENTER1
 62
     3
370
     5
100
AcDbLine
 10
11364.16278942233
 20
6074.761913212226
 30
0.0
 11
11364.16278942233
 21
-8214.364640883974
 31
0.0
  0
LINE
  5
11C
330
1F
100
AcDbEntity
  8
0-0_補助線
  6
JWW_HOJO
 62
     3
370
     5
100
AcDbLine
 10
10251.66278942233
 20
6074.761913212226
 30
0.0
 11
10251.66278942233
 21
-8214.364640883974
 31
0.0
  0
LINE
  5
11D
330
1F
100
AcDbEntity
  8
0-A_文字
  6
Continuous
 62
     7
370
     9
100
AcDbLine
 10
9939.162789422331
 20
3242.400456547053
 30
0.0
 11
12789.16278942233
 21
3242.400456547053
 31
0.0
  0
LINE
  5
11E
330
1F
100
AcDbEntity
  8
0-A_文字
  6
JWW_HOJO
 62
     7
370
     9
100
AcDbLine
 10
12837.37375535671
 20
5691.658135057698
 30
0.0
 11
9473.198949774247
 21
5691.658135057698
 31
0.0
  0
LINE
  5
11F
330
1F
100
AcDbEntity
  8
0-A_文字
  6
Continuous
 62
     7
370
     9
100
AcDbLine
 10
10251.66278942233
 20
5691.658135057698
 30
0.0
 11
10251.66278942233
 21
3242.400456547053
 31
0.0
  0
LINE
  5
120
330
1F
100
AcDbEntity
  8
0-A_文字
  6
Continuous
 62
     7
370
     9
100
AcDbLine
 10
9939.162789422331
 20
5691.658135057698
 30
0.0
 11
9939.162789422331
 21
2942.400456547053
 31
0.0
  0
LINE
  5
121
330
1F
100
AcDbEntity
  8
0-A_文字
  6
JWW_DASHED1
 62
     7
370
     9
100
AcDbLine
 10
9939.162789422326
 20
3307.55495582102
 30
0.0
 11
10251.66278942233
 21
3620.054955821027
 31
0.0
  0
LINE
  5
122
330
1F
100
AcDbEntity
  8
0-A_文字
  6
JWW_DASHED1
 62
     7
370
     9
100
AcDbLine
 10
9939.16278942232
 20
3448.976312058346
 30
0.0
 11
10251.66278942233
 21
3761.476312058359
 31
0.0
  0
LINE
  5
123
330
1F
100
AcDbEntity
  8
0-A_文字
  6
JWW_DASHED1
 62
     7
370
     9
100
AcDbLine
 10
9939.162789422355
 20
3590.397668295715
 30
0.0
 11
10251.66278942236
 21
3902.897668295722
 31
0.0
  0
LINE
  5
124
330
1F
100
AcDbEntity
  8
0-A_文字
  6
JWW_DASHED1
 62
     7
370
     9
100
AcDbLine
 10
9939.162789422395
 20
3731.81902453309
 30
0.0
 11
10251.66278942235
 21
4044.319024533043
 31
0.0
  0
LINE
  5
125
330
1F
100
AcDbEntity
  8
0-A_文字
  6
JWW_DASHED1
 62
     7
370
     9
100
AcDbLine
 10
9939.162789422384
 20
3873.24038077041
 30
0.0
 11
10251.66278942234
 21
4185.740380770365
 31
0.0
  0
LINE
  5
126
330
1F
100
AcDbEntity
  8
0-A_文字
  6
JWW_DASHED1
 62
     7
370
     9
100
AcDbLine
 10
9939.162789422357
 20
4014.661737007535
 30
0.0
 11
10251.66278942236
 21
4327.161737007542
 31
0.0
  0
LINE
  5
127
330
1F
100
AcDbEntity
  8
0-A_文字
  6
JWW_DASHED1
 62
     7
370
     9
100
AcDbLine
 10
9939.162789422344
 20
4156.083093244855
 30
0.0
 11
10251.66278942235
 21
4468.583093244863
 31
0.0
  0
LINE
  5
128
330
1F
100
AcDbEntity
  8
0-A_文字
  6
JWW_DASHED1
 62
     7
370
     9
100
AcDbLine
 10
9939.162789422331
 20
4297.504449482178
 30
0.0
 11
10251.66278942234
 21
4610.004449482183
 31
0.0
  0
LINE
  5
129
330
1F
100
AcDbEntity
  8
0-A_文字
  6
JWW_DASHED1
 62
     7
370
     9
100
AcDbLine
 10
9939.16278942232
 20
4438.925805719499
 30
0.0
 11
10251.66278942233
 21
4751.425805719505
 31
0.0
  0
LINE
  5
12A
330
1F
100
AcDbEntity
  8
0-A_文字
  6
JWW_DASHED1
 62
     7
370
     9
100
AcDbLine
 10
9939.162789422338
 20
4580.347161956847
 30
0.0
 11
10251.66278942235
 21
4892.847161956861
 31
0.0
  0
LINE
  5
12B
330
1F
100
AcDbEntity
  8
0-A_文字
  6
JWW_DASHED1
 62
     7
370
     9
100
AcDbLine
 10
9939.16278942235
 20
4721.768518194192
 30
0.0
 11
10251.66278942235
 21
5034.268518194201
 31
0.0
  0
LINE
  5
12C
330
1F
100
AcDbEntity
  8
0-A_文字
  6
JWW_DASHED1
 62
     7
370
     9
100
AcDbLine
 10
9939.16278942239
 20
4863.189874431568
 30
0.0
 11
10251.66278942234
 21
5175.689874431519
 31
0.0
  0
LINE
  5
12D
330
1F
100
AcDbEntity
  8
0-A_文字
  6
JWW_DASHED1
 62
     7
370
     9
100
AcDbLine
 10
9939.16278942236
 20
5004.611230668691
 30
0.0
 11
10251.66278942237
 21
5317.111230668699
 31
0.0
  0
LINE
  5
12E
330
1F
100
AcDbEntity
  8
0-A_文字
  6
JWW_DASHED1
 62
     7
370
     9
100
AcDbLine
 10
9939.16278942235
 20
5146.032586906013
 30
0.0
 11
10251.66278942235
 21
5458.532586906019
 31
0.0
  0
LINE
  5
12F
330
1F
100
AcDbEntity
  8
0-A_文字
  6
JWW_DASHED1
 62
     7
370
     9
100
AcDbLine
 10
9939.162789422338
 20
5287.453943143335
 30
0.0
 11
10251.66278942234
 21
5599.95394314334
 31
0.0
  0
LINE
  5
130
330
1F
100
AcDbEntity
  8
0-A_文字
  6
JWW_DASHED1
 62
     7
370
     9
100
AcDbLine
 10
9939.162789422326
 20
5428.875299380654
 30
0.0
 11
10201.94562509937
 21
5691.658135057698
 31
0.0
  0
LINE
  5
131
330
1F
100
AcDbEntity
  8
0-A_文字
  6
JWW_DASHED1
 62
     7
370
     9
100
AcDbLine
 10
9939.162789422364
 20
5570.296655618027
 30
0.0
 11
10060.524268862
 21
5691.658135057661
 31
0.0
  0
LINE
  5
132
330
1F
100
AcDbEntity
  8
0-A_文字
  6
Continuous
 62
     7
370
     9
100
AcDbLine
 10
9939.162789422331
 20
2942.400456547053
 30
0.0
 11
9939.162789422331
 21
-6993.735870115736
 31
0.0
  0
LINE
  5
133
330
1F
100
AcDbEntity
  8
0-3_仕上
  6
Continuous
 62
     7
370
     9
100
AcDbLine
 10
10251.66278942233
 20
5467.400456547052
 30
0.0
 11
12476.66278942233
 21
5467.400456547052
 31
0.0
  0
LINE
  5
134
330
1F
100
AcDbEntity
  8
0-3_仕上
  6
Continuous
 62
     7
370
     9
100
AcDbLine
 10
11526.66278942233
 20
5467.400456547052
 30
0.0
 11
11526.66278942233
 21
3242.400456547053
 31
0.0
  0
LINE
  5
135
330
1F
100
AcDbEntity
  8
0-3_仕上
  6
Continuous
 62
     7
370
     9
100
AcDbLine
 10
11201.66278942233
 20
5467.400456547052
 30
0.0
 11
11201.66278942233
 21
3242.400456547053
 31
0.0
  0
LINE
  5
136
330
1F
100
AcDbEntity
  8
0-3_仕上
  6
Continuous
 62
     7
370
     9
100
AcDbLine
 10
10251.66278942233
 20
3242.400456547053
 30
0.0
 11
11201.66278942233
 21
5467.400456547052
 31
0.0
  0
LINE
  5
137
330
1F
100
AcDbEntity
  8
0-3_仕上
  6
Continuous
 62
     7
370
     9
100
AcDbLine
 10
11526.66278942233
 20
3242.400456547053
 30
0.0
 11
12476.66278942233
 21
5467.400456547052
 31
0.0
  0
LINE
  5
138
330
1F
100
AcDbEntity
  8
0-A_文字
  6
JWW_DASHED1
 62
     7
370
     9
100
AcDbLine
 10
12476.66278942233
 20
3558.049187312237
 30
0.0
 11
12789.16278942234
 21
3870.54918731225
 31
0.0
  0
LINE
  5
139
330
1F
100
AcDbEntity
  8
0-A_文字
  6
JWW_DASHED1
 62
     7
370
     9
100
AcDbLine
 10
12476.66278942233
 20
3416.627831074899
 30
0.0
 11
12789.16278942235
 21
3729.127831074929
 31
0.0
  0
LINE
  5
13A
330
1F
100
AcDbEntity
  8
0-A_文字
  6
JWW_DASHED1
 62
     7
370
     9
100
AcDbLine
 10
12476.66278942233
 20
3275.206474837571
 30
0.0
 11
12789.16278942233
 21
3587.706474837563
 31
0.0
  0
LINE
  5
13B
330
1F
100
AcDbEntity
  8
0-A_文字
  6
Continuous
 62
     7
370
     9
100
AcDbLine
 10
17077.97419277312
 20
3692.400456547053
 30
0.0
 11
15778.00430457956
 21
3692.400456547053
 31
0.0
  0
LINE
  5
13C
330
1F
100
AcDbEntity
  8
0-A_文字
  6
Continuous
 62
     7
370
     9
100
AcDbLine
 10
13589.16278942233
 20
2992.400456547053
 30
0.0
 11
13589.16278942233
 21
2867.400456547053
 31
0.0
  0
LINE
  5
13D
330
1F
100
AcDbEntity
  8
0-A_文字
  6
Continuous
 62
     7
370
     9
100
AcDbLine
 10
13189.16278942233
 20
2992.400456547053
 30
0.0
 11
13189.16278942233
 21
2867.400456547053
 31
0.0
  0
LINE
  5
13E
330
1F
100
AcDbEntity
  8
0-A_文字
  6
Continuous
 62
     7
370
     9
100
AcDbLine
 10
13764.16278942233
 20
2867.400456547053
 30
0.0
 11
13014.16278942233
 21
2867.400456547053
 31
0.0
  0
LINE
  5
13F
330
1F
100
AcDbEntity
  8
0-A_文字
  6
Continuous
 62
     7
370
     9
100
AcDbLine
 10
13014.16278942233
 20
2867.400456547053
 30
0.0
 11
13014.16278942233
 21
-6768.734606497267
 31
0.0
  0
LINE
  5
140
330
1F
100
AcDbEntity
  8
0-A_文字
  6
Continuous
 62
     7
370
     9
100
AcDbLine
 10
13764.16278942233
 20
2867.400456547053
 30
0.0
 11
13764.16278942233
 21
-6768.734606497267
 31
0.0
  0
LINE
  5
141
330
1F
100
AcDbEntity
  8
0-A_文字
  6
Continuous
 62
     7
370
     9
100
AcDbLine
 10
17077.97419277312
 20
2867.400456547053
 30
0.0
 11
15778.00430457956
 21
2867.400456547053
 31
0.0
  0
LINE
  5
142
330
1F
100
AcDbEntity
  8
0-A_文字
  6
JWW_DASHED1
 62
     7
370
     9
100
AcDbLine
 10
10015.42964638569
 20
3242.400456547053
 30
0.0
 11
10251.66278942235
 21
3478.633599583706
 31
0.0
  0
LINE
  5
143
330
1F
100
AcDbEntity
  8
0-A_文字
  6
JWW_DASHED1
 62
     7
370
     9
100
AcDbLine
 10
10156.85100262303
 20
3242.400456547053
 30
0.0
 11
10251.66278942236
 21
3337.212243346384
 31
0.0
  0
LINE
  5
144
330
1F
100
AcDbEntity
  8
0-A_文字
  6
JWW_DASHED1
 62
     7
370
     9
100
AcDbLine
 10
12585.27812736915
 20
3242.400456547053
 30
0.0
 11
12789.16278942233
 21
3446.285118600238
 31
0.0
  0
LINE
  5
145
330
1F
100
AcDbEntity
  8
0-A_文字
  6
JWW_DASHED1
 62
     7
370
     9
100
AcDbLine
 10
12726.69948360649
 20
3242.400456547053
 30
0.0
 11
12789.16278942234
 21
3304.863762362913
 31
0.0
  0
LINE
  5
146
330
1F
100
AcDbEntity
  8
0-C_ハッチ
  6
Continuous
 62
     3
370
     5
100
AcDbLine
 10
9939.162789422331
 20
3204.900456547053
 30
0.0
 11
12789.16278942233
 21
3204.900456547053
 31
0.0
  0
LINE
  5
147
330
1F
100
AcDbEntity
  8
0-C_ハッチ
  6
Continuous
 62
     3
370
     5
100
AcDbLine
 10
9939.162789422331
 20
3167.400456547053
 30
0.0
 11
12789.16278942233
 21
3167.400456547053
 31
0.0
  0
LINE
  5
148
330
1F
100
AcDbEntity
  8
0-C_ハッチ
  6
Continuous
 62
     3
370
     5
100
AcDbLine
 10
9939.162789422331
 20
3129.900456547053
 30
0.0
 11
12789.16278942233
 21
3129.900456547053
 31
0.0
  0
LINE
  5
149
330
1F
100
AcDbEntity
  8
0-C_ハッチ
  6
Continuous
 62
     3
370
     5
100
AcDbLine
 10
9939.162789422331
 20
3092.400456547053
 30
0.0
 11
12789.16278942233
 21
3092.400456547053
 31
0.0
  0
LINE
  5
14A
330
1F
100
AcDbEntity
  8
0-C_ハッチ
  6
Continuous
 62
     3
370
     5
100
AcDbLine
 10
9939.162789422331
 20
3054.900456547053
 30
0.0
 11
12789.16278942233
 21
3054.900456547053
 31
0.0
  0
LINE
  5
14B
330
1F
100
AcDbEntity
  8
0-C_ハッチ
  6
Continuous
 62
     3
370
     5
100
AcDbLine
 10
9939.162789422331
 20
3017.400456547053
 30
0.0
 11
12789.16278942233
 21
3017.400456547053
 31
0.0
  0
LINE
  5
14C
330
1F
100
AcDbEntity
  8
0-C_ハッチ
  6
Continuous
 62
     3
370
     5
100
AcDbLine
 10
9939.162789422331
 20
2979.900456547053
 30
0.0
 11
12789.16278942233
 21
2979.900456547053
 31
0.0
  0
LWPOLYLINE
  5
14D
330
1F
100
AcDbEntity
  8
0-A_文字
  6
Continuous
 62
     3
370
     5
100
AcDbPolyline
 90
        4
 70
     1
 43
10.0
 10
12481.66278942233
 20
7063.101668874565
 42
0.4142135623731
 10
12476.66278942233
 20
7068.101668874564
 42
0.4142135623731
 10
12471.66278942233
 20
7063.101668874565
 42
0.4142135623731
 10
12476.66278942233
 20
7058.101668874565
 42
0.4142135623731
  0
LINE
  5
14E
330
1F
100
AcDbEntity
  8
0-A_文字
  6
Continuous
 62
     3
370
     5
100
AcDbLine
 10
12476.66278942233
 20
7063.101668874565
 30
0.0
 11
12476.66278942233
 21
5954.2749819588
 31
0.0
  0
LINE
  5
14F
330
1F
100
AcDbEntity
  8
0-A_文字
  6
Continuous
 62
     3
370
     5
100
AcDbLine
 10
12476.66278942233
 20
7063.101668874565
 30
0.0
 11
12789.16278942233
 21
7063.101668874565
 31
0.0
  0
LWPOLYLINE
  5
150
330
1F
100
AcDbEntity
  8
0-A_文字
  6
Continuous
 62
     3
370
     5
100
AcDbPolyline
 90
        4
 70
     1
 43
10.0
 10
12794.16278942233
 20
7063.101668874565
 42
0.4142135623731
 10
12789.16278942233
 20
7068.101668874564
 42
0.4142135623731
 10
12784.16278942233
 20
7063.101668874565
 42
0.4142135623731
 10
12789.16278942233
 20
7058.101668874565
 42
0.4142135623731
  0
LINE
  5
151
330
1F
100
AcDbEntity
  8
0-A_文字
  6
Continuous
 62
     3
370
     5
100
AcDbLine
 10
12789.16278942233
 20
7063.101668874565
 30
0.0
 11
12789.16278942233
 21
5954.2749819588
 31
0.0
  0
LWPOLYLINE
  5
152
330
1F
100
AcDbEntity
  8
0-A_文字
  6
Continuous
 62
     3
370
     5
100
AcDbPolyline
 90
        4
 70
     1
 43
10.0
 10
12794.16278942233
 20
7763.101668874565
 42
0.4142135623731
 10
12789.16278942233
 20
7768.101668874564
 42
0.4142135623731
 10
12784.16278942233
 20
7763.101668874565
 42
0.4142135623731
 10
12789.16278942233
 20
7758.101668874565
 42
0.4142135623731
  0
LINE
  5
153
330
1F
100
AcDbEntity
  8
0-A_文字
  6
Continuous
 62
     3
370
     5
100
AcDbLine
 10
12789.16278942233
 20
7763.101668874565
 30
0.0
 11
12789.16278942233
 21
7063.101668874565
 31
0.0
  0
TEXT
  5
154
330
1F
100
AcDbEntity
  8
0-A_文字
  6
Continuous
 62
     7
370
     0
100
AcDbText
 10
9627.612293232127
 20
7178.350793013758
 30
0.0
 40
228.6
  1
12.5
 41
1.125
  7
ＭＳ ゴシック
100
AcDbText
  0
LINE
  5
155
330
1F
100
AcDbEntity
  8
0-0_補助線
  6
JWW_HOJO
 62
     3
370
     5
100
AcDbLine
 10
14839.16278942233
 20
7763.101668874565
 30
0.0
 11
14839.16278942233
 21
7063.101668874565
 31
0.0
  0
LWPOLYLINE
  5
156
330
1F
100
AcDbEntity
  8
0-A_文字
  6
Continuous
 62
     3
370
     5
100
AcDbPolyline
 90
        4
 70
     1
 43
10.0
 10
14844.16278942233
 20
7063.101668874565
 42
0.4142135623731
 10
14839.16278942233
 20
7068.101668874564
 42
0.4142135623731
 10
14834.16278942233
 20
7063.101668874565
 42
0.4142135623731
 10
14839.16278942233
 20
7058.101668874565
 42
0.4142135623731
  0
LINE
  5
157
330
1F
100
AcDbEntity
  8
0-A_文字
  6
Continuous
 62
     3
370
     5
100
AcDbLine
 10
14839.16278942233
 20
7063.101668874565
 30
0.0
 11
14839.16278942233
 21
5954.2749819588
 31
0.0
  0
LINE
  5
158
330
1F
100
AcDbEntity
  8
0-A_文字
  6
Continuous
 62
     3
370
     5
100
AcDbLine
 10
12789.16278942233
 20
7763.101668874565
 30
0.0
 11
14839.16278942233
 21
7763.101668874565
 31
0.0
  0
LWPOLYLINE
  5
159
330
1F
100
AcDbEntity
  8
0-A_文字
  6
Continuous
 62
     3
370
     5
100
AcDbPolyline
 90
        4
 70
     1
 43
10.0
 10
14844.16278942233
 20
7763.101668874565
 42
0.4142135623731
 10
14839.16278942233
 20
7768.101668874564
 42
0.4142135623731
 10
14834.16278942233
 20
7763.101668874565
 42
0.4142135623731
 10
14839.16278942233
 20
7758.101668874565
 42
0.4142135623731
  0
LINE
  5
15A
330
1F
100
AcDbEntity
  8
0-A_文字
  6
Continuous
 62
     3
370
     5
100
AcDbLine
 10
14839.16278942233
 20
7763.101668874565
 30
0.0
 11
14839.16278942233
 21
7063.101668874565
 31
0.0
  0
TEXT
  5
15B
330
1F
100
AcDbEntity
  8
0-A_文字
  6
Continuous
 62
     7
370
     0
100
AcDbText
 10
13464.16278942234
 20
7855.401668874565
 30
0.0
 40
228.6
  1
82
 41
1.083333333333333
  7
ＭＳ ゴシック
100
AcDbText
  0
LINE
  5
15C
330
1F
100
AcDbEntity
  8
0-0_補助線
  6
JWW_HOJO
 62
     3
370
     5
100
AcDbLine
 10
13126.66278942233
 20
7063.101668874565
 30
0.0
 11
13126.66278942233
 21
5954.2749819588
 31
0.0
  0
LINE
  5
15D
330
1F
100
AcDbEntity
  8
0-0_補助線
  6
JWW_HOJO
 62
     3
370
     5
100
AcDbLine
 10
13651.66278942233
 20
7063.101668874565
 30
0.0
 11
13651.66278942233
 21
5954.2749819588
 31
0.0
  0
LINE
  5
15E
330
1F
100
AcDbEntity
  8
0-A_文字
  6
Continuous
 62
     3
370
     5
100
AcDbLine
 10
12789.16278942233
 20
7063.101668874565
 30
0.0
 11
13126.66278942233
 21
7063.101668874565
 31
0.0
  0
LWPOLYLINE
  5
15F
330
1F
100
AcDbEntity
  8
0-A_文字
  6
Continuous
 62
     3
370
     5
100
AcDbPolyline
 90
        4
 70
     1
 43
10.0
 10
13131.66278942233
 20
7063.101668874565
 42
0.4142135623731
 10
13126.66278942233
 20
7068.101668874564
 42
0.4142135623731
 10
13121.66278942233
 20
7063.101668874565
 42
0.4142135623731
 10
13126.66278942233
 20
7058.101668874565
 42
0.4142135623731
  0
LINE
  5
160
330
1F
100
AcDbEntity
  8
0-A_文字
  6
Continuous
 62
     3
370
     5
100
AcDbLine
 10
13126.66278942233
 20
7063.101668874565
 30
0.0
 11
13126.66278942233
 21
5954.2749819588
 31
0.0
  0
LWPOLYLINE
  5
161
330
1F
100
AcDbEntity
  8
0-A_文字
  6
Continuous
 62
     3
370
     5
100
AcDbPolyline
 90
        4
 70
     1
 43
10.0
 10
13656.66278942233
 20
7063.101668874565
 42
0.4142135623731
 10
13651.66278942233
 20
7068.101668874564
 42
0.4142135623731
 10
13646.66278942233
 20
7063.101668874565
 42
0.4142135623731
 10
13651.66278942233
 20
7058.101668874565
 42
0.4142135623731
  0
LINE
  5
162
330
1F
100
AcDbEntity
  8
0-A_文字
  6
Continuous
 62
     3
370
     5
100
AcDbLine
 10
13651.66278942233
 20
7063.101668874565
 30
0.0
 11
13651.66278942233
 21
5954.2749819588
 31
0.0
  0
LINE
  5
163
330
1F
100
AcDbEntity
  8
0-A_文字
  6
Continuous
 62
     3
370
     5
100
AcDbLine
 10
13651.66278942233
 20
7063.101668874565
 30
0.0
 11
14839.16278942233
 21
7063.101668874565
 31
0.0
  0
LINE
  5
164
330
1F
100
AcDbEntity
  8
0-A_文字
  6
Continuous
 62
     3
370
     5
100
AcDbLine
 10
13126.66278942233
 20
7063.101668874565
 30
0.0
 11
13651.66278942233
 21
7063.101668874565
 31
0.0
  0
TEXT
  5
165
330
1F
100
AcDbEntity
  8
0-A_文字
  6
Continuous
 62
     7
370
     0
100
AcDbText
 10
13269.90599988012
 20
7150.746029958155
 30
0.0
 40
228.6
  1
21
 41
1.083333333333333
  7
ＭＳ ゴシック
100
AcDbText
  0
TEXT
  5
166
330
1F
100
AcDbEntity
  8
0-A_文字
  6
Continuous
 62
     7
370
     0
100
AcDbText
 10
12096.55700428506
 20
7128.16974079812
 30
0.0
 40
228.6
  1
12.5
 41
1.125
  7
ＭＳ ゴシック
100
AcDbText
  0
TEXT
  5
167
330
1F
100
AcDbEntity
  8
0-A_文字
  6
Continuous
 62
     7
370
     0
100
AcDbText
 10
12839.30356269292
 20
6691.260000558199
 30
0.0
 40
228.6
  1
13.5
 41
1.125
  7
ＭＳ ゴシック
100
AcDbText
  0
TEXT
  5
168
330
1F
100
AcDbEntity
  8
0-A_文字
  6
Continuous
 62
     7
370
     0
100
AcDbText
 10
13902.45059727673
 20
6749.514632590189
 30
0.0
 40
228.6
  1
47.5
 41
1.125
  7
ＭＳ ゴシック
100
AcDbText
  0
LINE
  5
169
330
1F
100
AcDbEntity
  8
0-A_文字
  6
Continuous
 62
     3
370
     5
100
AcDbLine
 10
9939.162789422331
 20
7063.101668874565
 30
0.0
 11
10251.66278942233
 21
7063.101668874565
 31
0.0
  0
LWPOLYLINE
  5
16A
330
1F
100
AcDbEntity
  8
0-A_文字
  6
Continuous
 62
     3
370
     5
100
AcDbPolyline
 90
        4
 70
     1
 43
10.0
 10
9944.162789422331
 20
7063.101668874565
 42
0.4142135623731
 10
9939.162789422331
 20
7068.101668874564
 42
0.4142135623731
 10
9934.162789422333
 20
7063.101668874565
 42
0.4142135623731
 10
9939.162789422331
 20
7058.101668874565
 42
0.4142135623731
  0
LWPOLYLINE
  5
16B
330
1F
100
AcDbEntity
  8
0-A_文字
  6
Continuous
 62
     3
370
     5
100
AcDbPolyline
 90
        4
 70
     1
 43
10.0
 10
10256.66278942233
 20
7063.101668874565
 42
0.4142135623731
 10
10251.66278942233
 20
7068.101668874564
 42
0.4142135623731
 10
10246.66278942233
 20
7063.101668874565
 42
0.4142135623731
 10
10251.66278942233
 20
7058.101668874565
 42
0.4142135623731
  0
LINE
  5
16C
330
1F
100
AcDbEntity
  8
0-A_文字
  6
Continuous
 62
     3
370
     5
100
AcDbLine
 10
9939.162789422331
 20
7063.101668874565
 30
0.0
 11
9939.162789422331
 21
5954.2749819588
 31
0.0
  0
LINE
  5
16D
330
1F
100
AcDbEntity
  8
0-A_文字
  6
Continuous
 62
     3
370
     5
100
AcDbLine
 10
10251.66278942233
 20
7063.101668874565
 30
0.0
 11
10251.66278942233
 21
5954.2749819588
 31
0.0
  0
LINE
  5
16E
330
1F
100
AcDbEntity
  8
0-A_文字
  6
Continuous
 62
     3
370
     5
100
AcDbLine
 10
10251.66278942233
 20
7063.101668874565
 30
0.0
 11
12476.66278942233
 21
7063.101668874565
 31
0.0
  0
LINE
  5
16F
330
1F
100
AcDbEntity
  8
0-A_文字
  6
JWW_HOJO
 62
     3
370
     5
100
AcDbLine
 10
10251.66278942233
 20
7763.101668874565
 30
0.0
 11
12476.66278942233
 21
7763.101668874565
 31
0.0
  0
LINE
  5
170
330
1F
100
AcDbEntity
  8
0-A_文字
  6
Continuous
 62
     3
370
     5
100
AcDbLine
 10
9939.162789422331
 20
7763.101668874565
 30
0.0
 11
12789.16278942233
 21
7763.101668874565
 31
0.0
  0
LWPOLYLINE
  5
171
330
1F
100
AcDbEntity
  8
0-A_文字
  6
Continuous
 62
     3
370
     5
100
AcDbPolyline
 90
        4
 70
     1
 43
10.0
 10
9944.162789422331
 20
7763.101668874565
 42
0.4142135623731
 10
9939.162789422331
 20
7768.101668874564
 42
0.4142135623731
 10
9934.162789422333
 20
7763.101668874565
 42
0.4142135623731
 10
9939.162789422331
 20
7758.101668874565
 42
0.4142135623731
  0
LINE
  5
172
330
1F
100
AcDbEntity
  8
0-A_文字
  6
Continuous
 62
     3
370
     5
100
AcDbLine
 10
9939.162789422331
 20
7763.101668874565
 30
0.0
 11
9939.162789422331
 21
7063.101668874565
 31
0.0
  0
TEXT
  5
173
330
1F
100
AcDbEntity
  8
0-A_文字
  6
Continuous
 62
     7
370
     0
100
AcDbText
 10
11170.89366604697
 20
7090.944968709906
 30
0.0
 40
228.6
  1
89
 41
1.083333333333333
  7
ＭＳ ゴシック
100
AcDbText
  0
TEXT
  5
174
330
1F
100
AcDbEntity
  8
0-A_文字
  6
Continuous
 62
     7
370
     0
100
AcDbText
 10
11182.99075698463
 20
7792.576243093921
 30
0.0
 40
228.6
  1
114
 41
1.111111111111111
  7
ＭＳ ゴシック
100
AcDbText
  0
LINE
  5
175
330
1F
100
AcDbEntity
  8
0-A_文字
  6
Continuous
 62
     3
370
     5
100
AcDbLine
 10
9079.952375621584
 20
2942.400456547053
 30
0.0
 11
9079.952375621584
 21
-6993.735870115736
 31
0.0
  0
LWPOLYLINE
  5
176
330
1F
100
AcDbEntity
  8
0-A_文字
  6
Continuous
 62
     3
370
     5
100
AcDbPolyline
 90
        4
 70
     1
 43
10.0
 10
9084.952375621584
 20
2942.400456547053
 42
0.4142135623731
 10
9079.952375621584
 20
2947.400456547053
 42
0.4142135623731
 10
9074.952375621586
 20
2942.400456547053
 42
0.4142135623731
 10
9079.952375621584
 20
2937.400456547052
 42
0.4142135623731
  0
LWPOLYLINE
  5
177
330
1F
100
AcDbEntity
  8
0-A_文字
  6
Continuous
 62
     3
370
     5
100
AcDbPolyline
 90
        4
 70
     1
 43
10.0
 10
9084.952375621584
 20
-6993.735870115736
 42
0.4142135623731
 10
9079.952375621584
 20
-6988.735870115736
 42
0.4142135623731
 10
9074.952375621586
 20
-6993.735870115736
 42
0.4142135623731
 10
9079.952375621584
 20
-6998.735870115736
 42
0.4142135623731
  0
LINE
  5
178
330
1F
100
AcDbEntity
  8
0-A_文字
  6
Continuous
 62
     3
370
     5
100
AcDbLine
 10
9079.952375621584
 20
2942.400456547053
 30
0.0
 11
9410.132693243142
 21
2942.400456547053
 31
0.0
  0
LINE
  5
179
330
1F
100
AcDbEntity
  8
0-A_文字
  6
Continuous
 62
     3
370
     5
100
AcDbLine
 10
9079.952375621584
 20
-6993.735870115736
 30
0.0
 11
9410.132693243142
 21
-6993.735870115736
 31
0.0
  0
TEXT
  5
17A
330
1F
100
AcDbEntity
  8
0-A_文字
  6
Continuous
 62
     7
370
     0
100
AcDbText
 10
8987.652375621585
 20
-2338.167706784341
 30
0.0
 40
228.6
  1
2,006
 50
90.0
 41
1.133333333333333
  7
ＭＳ ゴシック
100
AcDbText
  0
LWPOLYLINE
  5
17B
330
1F
100
AcDbEntity
  8
0-B_寸法
  6
Continuous
 62
     3
370
     5
100
AcDbPolyline
 90
        4
 70
     1
 43
10.0
 10
9084.952375621584
 20
2942.400456547053
 42
0.4142135623731
 10
9079.952375621584
 20
2947.400456547053
 42
0.4142135623731
 10
9074.952375621586
 20
2942.400456547053
 42
0.4142135623731
 10
9079.952375621584
 20
2937.400456547052
 42
0.4142135623731
  0
LINE
  5
17C
330
1F
100
AcDbEntity
  8
0-A_文字
  6
Continuous
 62
     3
370
     5
100
AcDbLine
 10
9015.000470337753
 20
2829.900456547053
 30
0.0
 11
9144.904280905417
 21
2829.900456547053
 31
0.0
  0
LINE
  5
17D
330
1F
100
AcDbEntity
  8
0-A_文字
  6
Continuous
 62
     3
370
     5
100
AcDbLine
 10
9144.904280905417
 20
2829.900456547053
 30
0.0
 11
9079.952375621584
 21
2942.400456547053
 31
0.0
  0
LINE
  5
17E
330
1F
100
AcDbEntity
  8
0-A_文字
  6
Continuous
 62
     3
370
     5
100
AcDbLine
 10
9079.952375621584
 20
2942.400456547053
 30
0.0
 11
9015.000470337753
 21
2829.900456547053
 31
0.0
  0
LWPOLYLINE
  5
17F
330
1F
100
AcDbEntity
  8
0-B_寸法
  6
Continuous
 62
     3
370
     5
100
AcDbPolyline
 90
        4
 70
     1
 43
10.0
 10
9084.952375621584
 20
-6993.735870115736
 42
0.4142135623731
 10
9079.952375621584
 20
-6988.735870115736
 42
0.4142135623731
 10
9074.952375621586
 20
-6993.735870115736
 42
0.4142135623731
 10
9079.952375621584
 20
-6998.735870115736
 42
0.4142135623731
  0
LINE
  5
180
330
1F
100
AcDbEntity
  8
0-A_文字
  6
Continuous
 62
     3
370
     5
100
AcDbLine
 10
9144.904280905417
 20
-6881.235870115736
 30
0.0
 11
9015.000470337753
 21
-6881.235870115736
 31
0.0
  0
LINE
  5
181
330
1F
100
AcDbEntity
  8
0-A_文字
  6
Continuous
 62
     3
370
     5
100
AcDbLine
 10
9015.000470337753
 20
-6881.235870115736
 30
0.0
 11
9079.952375621584
 21
-6993.735870115736
 31
0.0
  0
LINE
  5
182
330
1F
100
AcDbEntity
  8
0-A_文字
  6
Continuous
 62
     3
370
     5
100
AcDbLine
 10
9079.952375621584
 20
-6993.735870115736
 30
0.0
 11
9144.904280905417
 21
-6881.235870115736
 31
0.0
  0
LWPOLYLINE
  5
183
330
1F
100
AcDbEntity
  8
0-A_文字
  6
Continuous
 62
     3
370
     5
100
AcDbPolyline
 90
        4
 70
     1
 43
10.0
 10
11671.23033925292
 20
2942.400456547053
 42
0.4142135623731
 10
11666.23033925292
 20
2947.400456547053
 42
0.4142135623731
 10
11661.23033925292
 20
2942.400456547053
 42
0.4142135623731
 10
11666.23033925292
 20
2937.400456547052
 42
0.4142135623731
  0
LWPOLYLINE
  5
184
330
1F
100
AcDbEntity
  8
0-A_文字
  6
Continuous
 62
     3
370
     5
100
AcDbPolyline
 90
        4
 70
     1
 43
10.0
 10
11671.23033925292
 20
2717.400456547053
 42
0.4142135623731
 10
11666.23033925292
 20
2722.400456547053
 42
0.4142135623731
 10
11661.23033925292
 20
2717.400456547053
 42
0.4142135623731
 10
11666.23033925292
 20
2712.400456547052
 42
0.4142135623731
  0
LINE
  5
185
330
1F
100
AcDbEntity
  8
0-A_文字
  6
Continuous
 62
     3
370
     5
100
AcDbLine
 10
11666.23033925292
 20
2942.400456547053
 30
0.0
 11
11666.23033925292
 21
2717.400456547053
 31
0.0
  0
TEXT
  5
186
330
1F
100
AcDbEntity
  8
0-A_文字
  6
Continuous
 62
     7
370
     0
100
AcDbText
 10
11582.94782739461
 20
2738.50333473064
 30
0.0
 40
228.6
  1
9
 50
90.0
 41
0.9999999999999998
  7
ＭＳ ゴシック
100
AcDbText
  0
LINE
  5
187
330
1F
100
AcDbEntity
  8
0-A_文字
  6
Continuous
 62
     3
370
     5
100
AcDbLine
 10
11666.23033925292
 20
2717.400456547053
 30
0.0
 11
11987.33733078474
 21
2717.400456547053
 31
0.0
  0
LWPOLYLINE
  5
188
330
1F
100
AcDbEntity
  8
0-A_文字
  6
Continuous
 62
     3
370
     5
100
AcDbPolyline
 90
        4
 70
     1
 43
10.0
 10
13506.66278942233
 20
-5825.885430343547
 42
0.4142135623731
 10
13501.66278942233
 20
-5820.885430343547
 42
0.4142135623731
 10
13496.66278942233
 20
-5825.885430343547
 42
0.4142135623731
 10
13501.66278942233
 20
-5830.885430343546
 42
0.4142135623731
  0
LINE
  5
189
330
1F
100
AcDbEntity
  8
0-A_文字
  6
Continuous
 62
     3
370
     5
100
AcDbLine
 10
12789.16278942233
 20
-5825.885430343547
 30
0.0
 11
13501.66278942233
 21
-5825.885430343547
 31
0.0
  0
TEXT
  5
18A
330
1F
100
AcDbEntity
  8
0-A_文字
  6
Continuous
 62
     7
370
     0
100
AcDbText
 10
13301.66278942233
 20
-5733.585430343547
 30
0.0
 40
228.6
  1
9
 41
0.9999999999999998
  7
ＭＳ ゴシック
100
AcDbText
  0
LINE
  5
18B
330
1F
100
AcDbEntity
  8
0-A_文字
  6
Continuous
 62
     3
370
     5
100
AcDbLine
 10
13276.66278942233
 20
-5825.885430343547
 30
0.0
 11
13276.66278942233
 21
-6553.177200655927
 31
0.0
  0
LWPOLYLINE
  5
18C
330
1F
100
AcDbEntity
  8
0-A_文字
  6
Continuous
 62
     3
370
     5
100
AcDbPolyline
 90
        4
 70
     1
 43
10.0
 10
13281.66278942233
 20
-5825.885430343547
 42
0.4142135623731
 10
13276.66278942233
 20
-5820.885430343547
 42
0.4142135623731
 10
13271.66278942233
 20
-5825.885430343547
 42
0.4142135623731
 10
13276.66278942233
 20
-5830.885430343546
 42
0.4142135623731
  0
LWPOLYLINE
  5
18D
330
1F
100
AcDbEntity
  8
0-A_文字
  6
Continuous
 62
     3
370
     5
100
AcDbPolyline
 90
        4
 70
     1
 43
10.0
 10
12794.16278942233
 20
-5825.885430343547
 42
0.4142135623731
 10
12789.16278942233
 20
-5820.885430343547
 42
0.4142135623731
 10
12784.16278942233
 20
-5825.885430343547
 42
0.4142135623731
 10
12789.16278942233
 20
-5830.885430343546
 42
0.4142135623731
  0
LINE
  5
18E
330
1F
100
AcDbEntity
  8
0-A_文字
  6
Continuous
 62
     3
370
     5
100
AcDbLine
 10
12789.16278942233
 20
-5825.885430343547
 30
0.0
 11
12789.16278942233
 21
-6553.177200655927
 31
0.0
  0
LWPOLYLINE
  5
18F
330
1F
100
AcDbEntity
  8
0-A_文字
  6
Continuous
 62
     3
370
     5
100
AcDbPolyline
 90
        4
 70
     1
 43
10.0
 10
12794.16278942233
 20
-5171.322837062408
 42
0.4142135623731
 10
12789.16278942233
 20
-5166.322837062408
 42
0.4142135623731
 10
12784.16278942233
 20
-5171.322837062408
 42
0.4142135623731
 10
12789.16278942233
 20
-5176.322837062407
 42
0.4142135623731
  0
LINE
  5
190
330
1F
100
AcDbEntity
  8
0-A_文字
  6
Continuous
 62
     3
370
     5
100
AcDbLine
 10
12789.16278942233
 20
-5171.322837062408
 30
0.0
 11
12789.16278942233
 21
-5825.885430343547
 31
0.0
  0
LINE
  5
191
330
1F
100
AcDbEntity
  8
0-0_補助線
  6
JWW_HOJO
 62
     3
370
     5
100
AcDbLine
 10
14839.16278942233
 20
-5825.885430343547
 30
0.0
 11
14839.16278942233
 21
-6553.177200655927
 31
0.0
  0
LINE
  5
192
330
1F
100
AcDbEntity
  8
0-0_補助線
  6
JWW_HOJO
 62
     3
370
     5
100
AcDbLine
 10
14839.16278942233
 20
-5171.322837062408
 30
0.0
 11
14839.16278942233
 21
-5825.885430343547
 31
0.0
  0
LWPOLYLINE
  5
193
330
1F
100
AcDbEntity
  8
0-A_文字
  6
Continuous
 62
     3
370
     5
100
AcDbPolyline
 90
        4
 70
     1
 43
10.0
 10
14844.16278942233
 20
-5825.885430343547
 42
0.4142135623731
 10
14839.16278942233
 20
-5820.885430343547
 42
0.4142135623731
 10
14834.16278942233
 20
-5825.885430343547
 42
0.4142135623731
 10
14839.16278942233
 20
-5830.885430343546
 42
0.4142135623731
  0
LINE
  5
194
330
1F
100
AcDbEntity
  8
0-A_文字
  6
Continuous
 62
     3
370
     5
100
AcDbLine
 10
14839.16278942233
 20
-5825.885430343547
 30
0.0
 11
14839.16278942233
 21
-6553.177200655927
 31
0.0
  0
LWPOLYLINE
  5
195
330
1F
100
AcDbEntity
  8
0-A_文字
  6
Continuous
 62
     3
370
     5
100
AcDbPolyline
 90
        4
 70
     1
 43
10.0
 10
14844.16278942233
 20
-5171.322837062408
 42
0.4142135623731
 10
14839.16278942233
 20
-5166.322837062408
 42
0.4142135623731
 10
14834.16278942233
 20
-5171.322837062408
 42
0.4142135623731
 10
14839.16278942233
 20
-5176.322837062407
 42
0.4142135623731
  0
LINE
  5
196
330
1F
100
AcDbEntity
  8
0-A_文字
  6
Continuous
 62
     3
370
     5
100
AcDbLine
 10
14839.16278942233
 20
-5171.322837062408
 30
0.0
 11
14839.16278942233
 21
-5825.885430343547
 31
0.0
  0
LINE
  5
197
330
1F
100
AcDbEntity
  8
0-A_文字
  6
Continuous
 62
     3
370
     5
100
AcDbLine
 10
12789.16278942233
 20
-5171.322837062408
 30
0.0
 11
14839.16278942233
 21
-5171.322837062408
 31
0.0
  0
TEXT
  5
198
330
1F
100
AcDbEntity
  8
0-A_文字
  6
Continuous
 62
     7
370
     0
100
AcDbText
 10
13888.49057381683
 20
-5739.680907964015
 30
0.0
 40
228.6
  1
53.5
 41
1.125
  7
ＭＳ ゴシック
100
AcDbText
  0
LINE
  5
199
330
1F
100
AcDbEntity
  8
0-A_文字
  6
Continuous
 62
     3
370
     5
100
AcDbLine
 10
13501.66278942233
 20
-5825.885430343547
 30
0.0
 11
13501.66278942233
 21
-6553.177200655927
 31
0.0
  0
LINE
  5
19A
330
1F
100
AcDbEntity
  8
0-A_文字
  6
Continuous
 62
     3
370
     5
100
AcDbLine
 10
13501.66278942233
 20
-5825.885430343547
 30
0.0
 11
14839.16278942233
 21
-5825.885430343547
 31
0.0
  0
TEXT
  5
19B
330
1F
100
AcDbEntity
  8
0-A_文字
  6
Continuous
 62
     7
370
     0
100
AcDbText
 10
13534.128832808
 20
-5099.103914601904
 30
0.0
 40
228.6
  1
82
 41
1.083333333333333
  7
ＭＳ ゴシック
100
AcDbText
  0
TEXT
  5
19C
330
1F
100
AcDbEntity
  8
0-A_文字
  6
Continuous
 62
     7
370
     0
100
AcDbText
 10
12485.86111703848
 20
-6142.295028388338
 30
0.0
 40
228.6
  1
19.5
 41
1.125
  7
ＭＳ ゴシック
100
AcDbText
  0
TEXT
  5
19D
330
1F
100
AcDbEntity
  8
0-A_文字
  6
Continuous
 62
     7
370
     0
100
AcDbText
 10
16964.03558681883
 20
-1882.597120148466
 30
0.0
 40
228.6
  1
DH=1,995
 50
90.0
 41
1.145833333333333
  7
ＭＳ ゴシック
100
AcDbText
  0
LINE
  5
19E
330
1F
100
AcDbEntity
  8
0-A_文字
  6
Continuous
 62
     3
370
     5
100
AcDbLine
 10
17077.97419277312
 20
-6918.734606497267
 30
0.0
 11
17077.97419277312
 21
-6993.735870115736
 31
0.0
  0
LWPOLYLINE
  5
19F
330
1F
100
AcDbEntity
  8
0-A_文字
  6
Continuous
 62
     3
370
     5
100
AcDbPolyline
 90
        4
 70
     1
 43
10.0
 10
17082.97419277312
 20
-6993.735870115736
 42
0.4142135623731
 10
17077.97419277312
 20
-6988.735870115736
 42
0.4142135623731
 10
17072.97419277312
 20
-6993.735870115736
 42
0.4142135623731
 10
17077.97419277312
 20
-6998.735870115736
 42
0.4142135623731
  0
LINE
  5
1A0
330
1F
100
AcDbEntity
  8
0-A_文字
  6
Continuous
 62
     3
370
     5
100
AcDbLine
 10
17077.97419277312
 20
-6993.735870115736
 30
0.0
 11
17077.97419277312
 21
-7293.735870115736
 31
0.0
  0
LWPOLYLINE
  5
1A1
330
1F
100
AcDbEntity
  8
0-A_文字
  6
Continuous
 62
     3
370
     5
100
AcDbPolyline
 90
        4
 70
     1
 43
10.0
 10
17082.97419277312
 20
-7293.735870115736
 42
0.4142135623731
 10
17077.97419277312
 20
-7288.735870115736
 42
0.4142135623731
 10
17072.97419277312
 20
-7293.735870115736
 42
0.4142135623731
 10
17077.97419277312
 20
-7298.735870115736
 42
0.4142135623731
  0
LWPOLYLINE
  5
1A2
330
1F
100
AcDbEntity
  8
0-A_文字
  6
Continuous
 62
     3
370
     5
100
AcDbPolyline
 90
        4
 70
     1
 43
10.0
 10
17782.97419277312
 20
-6918.734606497267
 42
0.4142135623731
 10
17777.97419277312
 20
-6913.734606497267
 42
0.4142135623731
 10
17772.97419277312
 20
-6918.734606497267
 42
0.4142135623731
 10
17777.97419277312
 20
-6923.734606497267
 42
0.4142135623731
  0
LINE
  5
1A3
330
1F
100
AcDbEntity
  8
0-A_文字
  6
Continuous
 62
     3
370
     5
100
AcDbLine
 10
17777.97419277312
 20
-6918.734606497267
 30
0.0
 11
17077.97419277312
 21
-6918.734606497267
 31
0.0
  0
LINE
  5
1A4
330
1F
100
AcDbEntity
  8
0-A_文字
  6
Continuous
 62
     3
370
     5
100
AcDbLine
 10
17777.97419277312
 20
-6918.734606497267
 30
0.0
 11
17777.97419277312
 21
-7293.735870115736
 31
0.0
  0
LWPOLYLINE
  5
1A5
330
1F
100
AcDbEntity
  8
0-A_文字
  6
Continuous
 62
     3
370
     5
100
AcDbPolyline
 90
        4
 70
     1
 43
10.0
 10
17782.97419277312
 20
-7293.735870115736
 42
0.4142135623731
 10
17777.97419277312
 20
-7288.735870115736
 42
0.4142135623731
 10
17772.97419277312
 20
-7293.735870115736
 42
0.4142135623731
 10
17777.97419277312
 20
-7298.735870115736
 42
0.4142135623731
  0
LINE
  5
1A6
330
1F
100
AcDbEntity
  8
0-A_文字
  6
Continuous
 62
     3
370
     5
100
AcDbLine
 10
18477.97419277312
 20
-7293.735870115736
 30
0.0
 11
17077.97419277312
 21
-7293.735870115736
 31
0.0
  0
LWPOLYLINE
  5
1A7
330
1F
100
AcDbEntity
  8
0-A_文字
  6
Continuous
 62
     3
370
     5
100
AcDbPolyline
 90
        4
 70
     1
 43
10.0
 10
18482.97419277312
 20
-7293.735870115736
 42
0.4142135623731
 10
18477.97419277312
 20
-7288.735870115736
 42
0.4142135623731
 10
18472.97419277312
 20
-7293.735870115736
 42
0.4142135623731
 10
18477.97419277312
 20
-7298.735870115736
 42
0.4142135623731
  0
TEXT
  5
1A8
330
1F
100
AcDbEntity
  8
0-A_文字
  6
Continuous
 62
     7
370
     0
100
AcDbText
 10
16984.01337736946
 20
-7664.756918949752
 30
0.0
 40
228.6
  1
12
 50
90.0
 41
1.083333333333333
  7
ＭＳ ゴシック
100
AcDbText
  0
TEXT
  5
1A9
330
1F
100
AcDbEntity
  8
0-A_文字
  6
Continuous
 62
     7
370
     0
100
AcDbText
 10
18122.3888848326
 20
-6944.266091441432
 30
0.0
 40
228.6
  1
15
 50
90.0
 41
1.083333333333333
  7
ＭＳ ゴシック
100
AcDbText
  0
LINE
  5
1AA
330
1F
100
AcDbEntity
  8
0-A_文字
  6
Continuous
 62
     3
370
     5
100
AcDbLine
 10
17077.97419277312
 20
3692.400456547053
 30
0.0
 11
17077.97419277312
 21
-6793.734606497267
 31
0.0
  0
TEXT
  5
1AB
330
1F
100
AcDbEntity
  8
0-A_文字
  6
Continuous
 62
     7
370
     0
100
AcDbText
 10
17385.7939385245
 20
-6905.246258403827
 30
0.0
 40
228.6
  1
3
 50
90.0
 41
0.9999999999999998
  7
ＭＳ ゴシック
100
AcDbText
  0
TEXT
  5
1AC
330
1F
100
AcDbEntity
  8
0-A_文字
  6
Continuous
 62
     7
370
     0
100
AcDbText
 10
17385.67419277312
 20
3192.400456547053
 30
0.0
 40
228.6
  1
30
 50
90.0
 41
1.083333333333333
  7
ＭＳ ゴシック
100
AcDbText
  0
LWPOLYLINE
  5
1AD
330
1F
100
AcDbEntity
  8
0-A_文字
  6
Continuous
 62
     3
370
     5
100
AcDbPolyline
 90
        4
 70
     1
 43
10.0
 10
17082.97419277312
 20
3692.400456547053
 42
0.4142135623731
 10
17077.97419277312
 20
3697.400456547052
 42
0.4142135623731
 10
17072.97419277312
 20
3692.400456547053
 42
0.4142135623731
 10
17077.97419277312
 20
3687.400456547053
 42
0.4142135623731
  0
LWPOLYLINE
  5
1AE
330
1F
100
AcDbEntity
  8
0-A_文字
  6
Continuous
 62
     3
370
     5
100
AcDbPolyline
 90
        4
 70
     1
 43
10.0
 10
17082.97419277312
 20
2942.400456547053
 42
0.4142135623731
 10
17077.97419277312
 20
2947.400456547053
 42
0.4142135623731
 10
17072.97419277312
 20
2942.400456547053
 42
0.4142135623731
 10
17077.97419277312
 20
2937.400456547052
 42
0.4142135623731
  0
LWPOLYLINE
  5
1AF
330
1F
100
AcDbEntity
  8
0-A_文字
  6
Continuous
 62
     3
370
     5
100
AcDbPolyline
 90
        4
 70
     1
 43
10.0
 10
17782.97419277312
 20
2942.400456547053
 42
0.4142135623731
 10
17777.97419277312
 20
2947.400456547053
 42
0.4142135623731
 10
17772.97419277312
 20
2942.400456547053
 42
0.4142135623731
 10
17777.97419277312
 20
2937.400456547052
 42
0.4142135623731
  0
LINE
  5
1B0
330
1F
100
AcDbEntity
  8
0-A_文字
  6
Continuous
 62
     3
370
     5
100
AcDbLine
 10
17777.97419277312
 20
2942.400456547053
 30
0.0
 11
17077.97419277312
 21
2942.400456547053
 31
0.0
  0
LWPOLYLINE
  5
1B1
330
1F
100
AcDbEntity
  8
0-A_文字
  6
Continuous
 62
     3
370
     5
100
AcDbPolyline
 90
        4
 70
     1
 43
10.0
 10
18482.97419277312
 20
3692.400456547053
 42
0.4142135623731
 10
18477.97419277312
 20
3697.400456547052
 42
0.4142135623731
 10
18472.97419277312
 20
3692.400456547053
 42
0.4142135623731
 10
18477.97419277312
 20
3687.400456547053
 42
0.4142135623731
  0
LINE
  5
1B2
330
1F
100
AcDbEntity
  8
0-A_文字
  6
Continuous
 62
     3
370
     5
100
AcDbLine
 10
18477.97419277312
 20
3692.400456547053
 30
0.0
 11
17077.97419277312
 21
3692.400456547053
 31
0.0
  0
LINE
  5
1B3
330
1F
100
AcDbEntity
  8
0-A_文字
  6
Continuous
 62
     3
370
     5
100
AcDbLine
 10
18477.97419277312
 20
3692.400456547053
 30
0.0
 11
18477.97419277312
 21
-7293.735870115736
 31
0.0
  0
LINE
  5
1B4
330
1F
100
AcDbEntity
  8
0-A_文字
  6
Continuous
 62
     3
370
     5
100
AcDbLine
 10
17777.97419277312
 20
2942.400456547053
 30
0.0
 11
17777.97419277312
 21
-6918.734606497267
 31
0.0
  0
TEXT
  5
1B5
330
1F
100
AcDbEntity
  8
0-A_文字
  6
Continuous
 62
     7
370
     0
100
AcDbText
 10
17704.37755220335
 20
-2263.985405346551
 30
0.0
 40
228.6
  1
枠内寸法＝2,003
 50
90.0
 41
1.155555555555555
  7
ＭＳ ゴシック
100
AcDbText
  0
TEXT
  5
1B6
330
1F
100
AcDbEntity
  8
0-A_文字
  6
Continuous
 62
     7
370
     0
100
AcDbText
 10
18419.42560017277
 20
-2261.346040051063
 30
0.0
 40
228.6
  1
枠外寸法＝2,048
 50
90.0
 41
1.155555555555555
  7
ＭＳ ゴシック
100
AcDbText
  0
TEXT
  5
1B7
330
1F
100
AcDbEntity
  8
0-A_文字
  6
Continuous
 62
     7
370
     0
100
AcDbText
 10
16956.76893988264
 20
2591.186428322919
 30
0.0
 40
228.6
  1
3
 50
90.0
 41
0.9999999999999998
  7
ＭＳ ゴシック
100
AcDbText
  0
LWPOLYLINE
  5
1B8
330
1F
100
AcDbEntity
  8
0-A_文字
  6
Continuous
 62
     3
370
     5
100
AcDbPolyline
 90
        4
 70
     1
 43
10.0
 10
17082.97419277312
 20
2867.400456547053
 42
0.4142135623731
 10
17077.97419277312
 20
2872.400456547053
 42
0.4142135623731
 10
17072.97419277312
 20
2867.400456547053
 42
0.4142135623731
 10
17077.97419277312
 20
2862.400456547052
 42
0.4142135623731
  0
LINE
  5
1B9
330
1F
100
AcDbEntity
  8
0-A_文字
  6
Continuous
 62
     3
370
     5
100
AcDbLine
 10
11733.44381365256
 20
-7293.735870115736
 30
0.0
 11
11733.44381365256
 21
-6918.734606497267
 31
0.0
  0
LWPOLYLINE
  5
1BA
330
1F
100
AcDbEntity
  8
0-A_文字
  6
Continuous
 62
     3
370
     5
100
AcDbPolyline
 90
        4
 70
     1
 43
10.0
 10
11738.44381365256
 20
-7293.735870115736
 42
0.4142135623731
 10
11733.44381365256
 20
-7288.735870115736
 42
0.4142135623731
 10
11728.44381365256
 20
-7293.735870115736
 42
0.4142135623731
 10
11733.44381365256
 20
-7298.735870115736
 42
0.4142135623731
  0
LWPOLYLINE
  5
1BB
330
1F
100
AcDbEntity
  8
0-A_文字
  6
Continuous
 62
     3
370
     5
100
AcDbPolyline
 90
        4
 70
     1
 43
10.0
 10
11738.44381365256
 20
-6918.734606497267
 42
0.4142135623731
 10
11733.44381365256
 20
-6913.734606497267
 42
0.4142135623731
 10
11728.44381365256
 20
-6918.734606497267
 42
0.4142135623731
 10
11733.44381365256
 20
-6923.734606497267
 42
0.4142135623731
  0
LINE
  5
1BC
330
1F
100
AcDbEntity
  8
0-A_文字
  6
Continuous
 62
     3
370
     5
100
AcDbLine
 10
11733.44381365256
 20
-7293.735870115736
 30
0.0
 11
12242.54805287122
 21
-7293.735870115736
 31
0.0
  0
LINE
  5
1BD
330
1F
100
AcDbEntity
  8
0-A_文字
  6
Continuous
 62
     3
370
     5
100
AcDbLine
 10
11733.44381365256
 20
-6918.734606497267
 30
0.0
 11
12242.54805287122
 21
-6918.734606497267
 31
0.0
  0
TEXT
  5
1BE
330
1F
100
AcDbEntity
  8
0-A_文字
  6
Continuous
 62
     7
370
     0
100
AcDbText
 10
11657.81243472859
 20
-6958.675907991599
 30
0.0
 40
228.6
  1
15
 50
90.0
 41
1.083333333333333
  7
ＭＳ ゴシック
100
AcDbText
  0
LINE
  5
1BF
330
1F
100
AcDbEntity
  8
0-A_文字
  6
Continuous
 62
     3
370
     5
100
AcDbLine
 10
17077.97419277312
 20
-6918.734606497267
 30
0.0
 11
15328.45835039782
 21
-6918.734606497267
 31
0.0
  0
LWPOLYLINE
  5
1C0
330
1F
100
AcDbEntity
  8
0-A_文字
  6
Continuous
 62
     3
370
     5
100
AcDbPolyline
 90
        4
 70
     1
 43
10.0
 10
15837.08813935208
 20
-6918.734606497267
 42
0.4142135623731
 10
15832.08813935208
 20
-6913.734606497267
 42
0.4142135623731
 10
15827.08813935208
 20
-6918.734606497267
 42
0.4142135623731
 10
15832.08813935208
 20
-6923.734606497267
 42
0.4142135623731
  0
LINE
  5
1C1
330
1F
100
AcDbEntity
  8
0-0_補助線
  6
JWW_HOJO
 62
     3
370
     5
100
AcDbLine
 10
17077.97419277312
 20
-6768.734606497267
 30
0.0
 11
15778.00430457956
 21
-6768.734606497267
 31
0.0
  0
LINE
  5
1C2
330
1F
100
AcDbEntity
  8
0-A_文字
  6
Continuous
 62
     3
370
     5
100
AcDbLine
 10
17077.97419277312
 20
-6768.734606497267
 30
0.0
 11
15778.00430457956
 21
-6768.734606497267
 31
0.0
  0
TEXT
  5
1C3
330
1F
100
AcDbEntity
  8
0-A_文字
  6
Continuous
 62
     7
370
     0
100
AcDbText
 10
15761.10486641417
 20
-6907.487856541567
 30
0.0
 40
228.6
  1
6
 50
90.0
 41
0.9999999999999998
  7
ＭＳ ゴシック
100
AcDbText
  0
LINE
  5
1C4
330
1F
100
AcDbEntity
  8
0-A_文字
  6
Continuous
 62
     3
370
     5
100
AcDbLine
 10
17077.97419277312
 20
-6793.734606497267
 30
0.0
 11
17077.97419277312
 21
-6918.734606497267
 31
0.0
  0
LWPOLYLINE
  5
1C5
330
1F
100
AcDbEntity
  8
0-A_文字
  6
Continuous
 62
     3
370
     5
100
AcDbPolyline
 90
        4
 70
     1
 43
10.0
 10
17082.97419277312
 20
-6918.734606497267
 42
0.4142135623731
 10
17077.97419277312
 20
-6913.734606497267
 42
0.4142135623731
 10
17072.97419277312
 20
-6918.734606497267
 42
0.4142135623731
 10
17077.97419277312
 20
-6923.734606497267
 42
0.4142135623731
  0
LWPOLYLINE
  5
1C6
330
1F
100
AcDbEntity
  8
0-A_文字
  6
Continuous
 62
     3
370
     5
100
AcDbPolyline
 90
        4
 70
     1
 43
10.0
 10
17082.97419277312
 20
-6768.734606497267
 42
0.4142135623731
 10
17077.97419277312
 20
-6763.734606497267
 42
0.4142135623731
 10
17072.97419277312
 20
-6768.734606497267
 42
0.4142135623731
 10
17077.97419277312
 20
-6773.734606497267
 42
0.4142135623731
  0
TEXT
  5
1C7
330
1F
100
AcDbEntity
  8
0-A_文字
  6
Continuous
 62
     7
370
     0
100
AcDbText
 10
16981.34465460273
 20
-6752.910397220052
 30
0.0
 40
228.6
  1
5
 50
90.0
 41
0.9999999999999998
  7
ＭＳ ゴシック
100
AcDbText
  0
LINE
  5
1C8
330
1F
100
AcDbEntity
  8
0-B_寸法
  6
Continuous
 62
     3
370
     5
100
AcDbLine
 10
15832.08813935208
 20
-7068.734606497267
 30
0.0
 11
15450.25995993808
 21
-7068.734606497267
 31
0.0
  0
LINE
  5
1C9
330
1F
100
AcDbEntity
  8
0-B_寸法
  6
Continuous
 62
     3
370
     5
100
AcDbLine
 10
15832.08813935208
 20
-6918.734606497267
 30
0.0
 11
15832.08813935208
 21
-7068.734606497267
 31
0.0
  0
LINE
  5
1CA
330
1F
100
AcDbEntity
  8
0-1_通り芯
  6
JWW_CENTER1
 62
     3
370
     5
100
AcDbLine
 10
-16505.88587448695
 20
3503.048756464136
 30
0.0
 11
-16505.88587448695
 21
-5796.31496797356
 31
0.0
  0
LINE
  5
1CB
330
1F
100
AcDbEntity
  8
0-A_文字
  6
Continuous
 62
     7
370
     9
100
AcDbLine
 10
-8940.7625904392
 20
1394.061261910465
 30
0.0
 11
-8940.7625904392
 21
-1530.938738089535
 31
0.0
  0
LINE
  5
1CC
330
1F
100
AcDbEntity
  8
0-A_文字
  6
Continuous
 62
     7
370
     9
100
AcDbLine
 10
-8940.7625904392
 20
-1455.938738089535
 30
0.0
 11
-13697.7543755696
 21
-1455.938738089535
 31
0.0
  0
LINE
  5
1CD
330
1F
100
AcDbEntity
  8
0-A_文字
  6
JWW_DASHED1
 62
     7
370
     9
100
AcDbLine
 10
-9275.737554337593
 20
-1455.938738089539
 30
0.0
 11
-9240.762590439195
 21
-1420.963774191142
 31
0.0
  0
LINE
  5
1CE
330
1F
100
AcDbEntity
  8
0-A_文字
  6
JWW_DASHED1
 62
     7
370
     9
100
AcDbLine
 10
-9417.158910574912
 20
-1455.938738089526
 30
0.0
 11
-9240.76259043921
 21
-1279.542417953823
 31
0.0
  0
LINE
  5
1CF
330
1F
100
AcDbEntity
  8
0-A_文字
  6
JWW_DASHED1
 62
     7
370
     9
100
AcDbLine
 10
-9558.580266812038
 20
-1455.938738089499
 30
0.0
 11
-9246.080266812032
 21
-1143.438738089493
 31
0.0
  0
LINE
  5
1D0
330
1F
100
AcDbEntity
  8
0-A_文字
  6
JWW_DASHED1
 62
     7
370
     9
100
AcDbLine
 10
-9700.001623049362
 20
-1455.93873808949
 30
0.0
 11
-9387.501623049406
 21
-1143.438738089535
 31
0.0
  0
LINE
  5
1D1
330
1F
100
AcDbEntity
  8
0-A_文字
  6
JWW_DASHED1
 62
     7
370
     9
100
AcDbLine
 10
-9841.422979286735
 20
-1455.938738089532
 30
0.0
 11
-9528.922979286728
 21
-1143.438738089523
 31
0.0
  0
LINE
  5
1D2
330
1F
100
AcDbEntity
  8
0-A_文字
  6
JWW_DASHED1
 62
     7
370
     9
100
AcDbLine
 10
-9982.84433552406
 20
-1455.93873808952
 30
0.0
 11
-9670.344335524049
 21
-1143.438738089512
 31
0.0
  0
LINE
  5
1D3
330
1F
100
AcDbEntity
  8
0-A_文字
  6
JWW_DASHED1
 62
     7
370
     9
100
AcDbLine
 10
-10124.26569176143
 20
-1455.938738089556
 30
0.0
 11
-9811.76569176142
 21
-1143.438738089549
 31
0.0
  0
LINE
  5
1D4
330
1F
100
AcDbEntity
  8
0-A_文字
  6
JWW_DASHED1
 62
     7
370
     9
100
AcDbLine
 10
-10265.68704799875
 20
-1455.938738089543
 30
0.0
 11
-9953.187047998743
 21
-1143.438738089536
 31
0.0
  0
LINE
  5
1D5
330
1F
100
AcDbEntity
  8
0-A_文字
  6
JWW_DASHED1
 62
     7
370
     9
100
AcDbLine
 10
-10407.10840423607
 20
-1455.93873808953
 30
0.0
 11
-10094.60840423606
 21
-1143.438738089523
 31
0.0
  0
LINE
  5
1D6
330
1F
100
AcDbEntity
  8
0-A_文字
  6
JWW_DASHED1
 62
     7
370
     9
100
AcDbLine
 10
-10548.52976047339
 20
-1455.938738089517
 30
0.0
 11
-10236.02976047338
 21
-1143.438738089512
 31
0.0
  0
LINE
  5
1D7
330
1F
100
AcDbEntity
  8
0-A_文字
  6
JWW_DASHED1
 62
     7
370
     9
100
AcDbLine
 10
-10689.95111671052
 20
-1455.93873808949
 30
0.0
 11
-10377.45111671056
 21
-1143.438738089537
 31
0.0
  0
LINE
  5
1D8
330
1F
100
AcDbEntity
  8
0-A_文字
  6
JWW_DASHED1
 62
     7
370
     9
100
AcDbLine
 10
-10831.3724729479
 20
-1455.938738089543
 30
0.0
 11
-10518.87247294789
 21
-1143.438738089535
 31
0.0
  0
LINE
  5
1D9
330
1F
100
AcDbEntity
  8
0-A_文字
  6
JWW_DASHED1
 62
     7
370
     9
100
AcDbLine
 10
-10972.79382918522
 20
-1455.938738089532
 30
0.0
 11
-10660.29382918521
 21
-1143.438738089523
 31
0.0
  0
LINE
  5
1DA
330
1F
100
AcDbEntity
  8
0-A_文字
  6
JWW_DASHED1
 62
     7
370
     9
100
AcDbLine
 10
-11114.21518542254
 20
-1455.93873808952
 30
0.0
 11
-10801.71518542254
 21
-1143.438738089512
 31
0.0
  0
LINE
  5
1DB
330
1F
100
AcDbEntity
  8
0-A_文字
  6
JWW_DASHED1
 62
     7
370
     9
100
AcDbLine
 10
-11255.63654165991
 20
-1455.938738089547
 30
0.0
 11
-10943.1365416599
 21
-1143.43873808954
 31
0.0
  0
LINE
  5
1DC
330
1F
100
AcDbEntity
  8
0-A_文字
  6
JWW_DASHED1
 62
     7
370
     9
100
AcDbLine
 10
-11397.05789789722
 20
-1455.938738089535
 30
0.0
 11
-11084.55789789722
 21
-1143.438738089527
 31
0.0
  0
LINE
  5
1DD
330
1F
100
AcDbEntity
  8
0-A_文字
  6
JWW_DASHED1
 62
     7
370
     9
100
AcDbLine
 10
-11538.47925413455
 20
-1455.938738089522
 30
0.0
 11
-11225.97925413454
 21
-1143.438738089516
 31
0.0
  0
LINE
  5
1DE
330
1F
100
AcDbEntity
  8
0-A_文字
  6
JWW_DASHED1
 62
     7
370
     9
100
AcDbLine
 10
-11679.90061037167
 20
-1455.938738089495
 30
0.0
 11
-11367.40061037166
 21
-1143.438738089489
 31
0.0
  0
LINE
  5
1DF
330
1F
100
AcDbEntity
  8
0-A_文字
  6
JWW_DASHED1
 62
     7
370
     9
100
AcDbLine
 10
-11821.32196660901
 20
-1455.938738089502
 30
0.0
 11
-11508.82196660906
 21
-1143.438738089546
 31
0.0
  0
LINE
  5
1E0
330
1F
100
AcDbEntity
  8
0-A_文字
  6
JWW_DASHED1
 62
     7
370
     9
100
AcDbLine
 10
-11962.74332284638
 20
-1455.938738089543
 30
0.0
 11
-11650.24332284638
 21
-1143.438738089535
 31
0.0
  0
LINE
  5
1E1
330
1F
100
AcDbEntity
  8
0-A_文字
  6
JWW_DASHED1
 62
     7
370
     9
100
AcDbLine
 10
-12104.16467908371
 20
-1455.938738089532
 30
0.0
 11
-11791.6646790837
 21
-1143.438738089523
 31
0.0
  0
LINE
  5
1E2
330
1F
100
AcDbEntity
  8
0-A_文字
  6
JWW_DASHED1
 62
     7
370
     9
100
AcDbLine
 10
-12245.58603532106
 20
-1455.93873808955
 30
0.0
 11
-11933.08603532106
 21
-1143.438738089544
 31
0.0
  0
LINE
  5
1E3
330
1F
100
AcDbEntity
  8
0-A_文字
  6
JWW_DASHED1
 62
     7
370
     9
100
AcDbLine
 10
-12387.00739155838
 20
-1455.938738089539
 30
0.0
 11
-12074.50739155837
 21
-1143.438738089532
 31
0.0
  0
LINE
  5
1E4
330
1F
100
AcDbEntity
  8
0-A_文字
  6
JWW_DASHED1
 62
     7
370
     9
100
AcDbLine
 10
-12528.4287477957
 20
-1455.938738089526
 30
0.0
 11
-12215.92874779569
 21
-1143.438738089519
 31
0.0
  0
LINE
  5
1E5
330
1F
100
AcDbEntity
  8
0-A_文字
  6
JWW_DASHED1
 62
     7
370
     9
100
AcDbLine
 10
-12669.85010403302
 20
-1455.938738089513
 30
0.0
 11
-12357.35010403302
 21
-1143.438738089508
 31
0.0
  0
LINE
  5
1E6
330
1F
100
AcDbEntity
  8
0-A_文字
  6
JWW_DASHED1
 62
     7
370
     9
100
AcDbLine
 10
-12811.27146027014
 20
-1455.938738089486
 30
0.0
 11
-12498.7714602702
 21
-1143.438738089533
 31
0.0
  0
LINE
  5
1E7
330
1F
100
AcDbEntity
  8
0-A_文字
  6
JWW_DASHED1
 62
     7
370
     9
100
AcDbLine
 10
-12952.69281650749
 20
-1455.938738089502
 30
0.0
 11
-12640.19281650754
 21
-1143.438738089547
 31
0.0
  0
LINE
  5
1E8
330
1F
100
AcDbEntity
  8
0-A_文字
  6
JWW_DASHED1
 62
     7
370
     9
100
AcDbLine
 10
-13094.11417274487
 20
-1455.938738089543
 30
0.0
 11
-12781.61417274486
 21
-1143.438738089536
 31
0.0
  0
LINE
  5
1E9
330
1F
100
AcDbEntity
  8
0-A_文字
  6
JWW_DASHED1
 62
     7
370
     9
100
AcDbLine
 10
-13235.5355289822
 20
-1455.938738089535
 30
0.0
 11
-12923.03552898218
 21
-1143.438738089523
 31
0.0
  0
LINE
  5
1EA
330
1F
100
AcDbEntity
  8
0-A_文字
  6
JWW_DASHED1
 62
     7
370
     9
100
AcDbLine
 10
4674.907692542246
 20
-1455.93873808955
 30
0.0
 11
4987.407692542254
 21
-1143.438738089543
 31
0.0
  0
LINE
  5
1EB
330
1F
100
AcDbEntity
  8
0-A_文字
  6
JWW_DASHED1
 62
     7
370
     9
100
AcDbLine
 10
4533.486336304925
 20
-1455.938738089537
 30
0.0
 11
4845.986336304933
 21
-1143.43873808953
 31
0.0
  0
LINE
  5
1EC
330
1F
100
AcDbEntity
  8
0-A_文字
  6
JWW_DASHED1
 62
     7
370
     9
100
AcDbLine
 10
4392.064980067605
 20
-1455.938738089526
 30
0.0
 11
4704.56498006761
 21
-1143.43873808952
 31
0.0
  0
LINE
  5
1ED
330
1F
100
AcDbEntity
  8
0-A_文字
  6
JWW_DASHED1
 62
     7
370
     9
100
AcDbLine
 10
4250.643623830479
 20
-1455.9387380895
 30
0.0
 11
4563.143623830487
 21
-1143.438738089492
 31
0.0
  0
LINE
  5
1EE
330
1F
100
AcDbEntity
  8
0-A_文字
  6
JWW_DASHED1
 62
     7
370
     9
100
AcDbLine
 10
4109.222267593157
 20
-1455.938738089489
 30
0.0
 11
4421.722267593112
 21
-1143.438738089533
 31
0.0
  0
LINE
  5
1EF
330
1F
100
AcDbEntity
  8
0-A_文字
  6
Continuous
 62
     7
370
     9
100
AcDbLine
 10
-13697.7543755696
 20
-1143.438738089535
 30
0.0
 11
-9240.762590439197
 21
-1143.438738089535
 31
0.0
  0
LINE
  5
1F0
330
1F
100
AcDbEntity
  8
0-A_文字
  6
JWW_DASHED1
 62
     7
370
     9
100
AcDbLine
 10
-13654.16034262087
 20
-1308.878126779052
 30
0.0
 11
-13488.72095393137
 21
-1143.438738089566
 31
0.0
  0
LINE
  5
1F1
330
1F
100
AcDbEntity
  8
0-A_文字
  6
JWW_DASHED1
 62
     7
370
     9
100
AcDbLine
 10
-13518.37824145668
 20
-1455.938738089535
 30
0.0
 11
-13205.87824145671
 21
-1143.438738089561
 31
0.0
  0
LINE
  5
1F2
330
1F
100
AcDbEntity
  8
0-A_文字
  6
JWW_DASHED1
 62
     7
370
     9
100
AcDbLine
 10
-13659.79959769401
 20
-1455.938738089535
 30
0.0
 11
-13347.29959769405
 21
-1143.438738089577
 31
0.0
  0
LINE
  5
1F3
330
1F
100
AcDbEntity
  8
0-A_文字
  6
JWW_DASHED1
 62
     7
370
     9
100
AcDbLine
 10
-13376.95688521953
 20
-1455.938738089535
 30
0.0
 11
-13064.45688521953
 21
-1143.438738089536
 31
0.0
  0
LINE
  5
1F4
330
1F
100
AcDbEntity
  8
0-A_文字
  6
JWW_DASHED1
 62
     7
370
     9
100
AcDbLine
 10
5240.593117491623
 20
-1455.938738089506
 30
0.0
 11
5553.093117491629
 21
-1143.4387380895
 31
0.0
  0
LINE
  5
1F5
330
1F
100
AcDbEntity
  8
0-A_文字
  6
JWW_DASHED1
 62
     7
370
     9
100
AcDbLine
 10
5806.278542440959
 20
-1455.938738089502
 30
0.0
 11
6118.778542440966
 21
-1143.438738089496
 31
0.0
  0
LINE
  5
1F6
330
1F
100
AcDbEntity
  8
0-A_文字
  6
JWW_DASHED1
 62
     7
370
     9
100
AcDbLine
 10
5664.857186203592
 20
-1455.938738089536
 30
0.0
 11
5977.357186203598
 21
-1143.43873808953
 31
0.0
  0
LINE
  5
1F7
330
1F
100
AcDbEntity
  8
0-A_文字
  6
JWW_DASHED1
 62
     7
370
     9
100
AcDbLine
 10
6371.963967390296
 20
-1455.938738089498
 30
0.0
 11
6684.463967390302
 21
-1143.438738089492
 31
0.0
  0
LINE
  5
1F8
330
1F
100
AcDbEntity
  8
0-A_文字
  6
JWW_DASHED1
 62
     7
370
     9
100
AcDbLine
 10
6230.542611152929
 20
-1455.938738089532
 30
0.0
 11
6543.042611152934
 21
-1143.438738089526
 31
0.0
  0
LINE
  5
1F9
330
1F
100
AcDbEntity
  8
0-A_文字
  6
JWW_DASHED1
 62
     7
370
     9
100
AcDbLine
 10
6937.649392339633
 20
-1455.938738089493
 30
0.0
 11
7250.149392339638
 21
-1143.438738089488
 31
0.0
  0
LINE
  5
1FA
330
1F
100
AcDbEntity
  8
0-A_文字
  6
JWW_DASHED1
 62
     7
370
     9
100
AcDbLine
 10
6796.228036102265
 20
-1455.938738089527
 30
0.0
 11
7108.72803610227
 21
-1143.438738089522
 31
0.0
  0
LINE
  5
1FB
330
1F
100
AcDbEntity
  8
0-A_文字
  6
JWW_DASHED1
 62
     7
370
     9
100
AcDbLine
 10
7361.913461051601
 20
-1455.938738089523
 30
0.0
 11
7367.249959286416
 21
-1450.602239854707
 31
0.0
  0
LINE
  5
1FC
330
1F
100
AcDbEntity
  8
0-A_文字
  6
JWW_DASHED1
 62
     7
370
     9
100
AcDbLine
 10
5523.43582996627
 20
-1455.938738089525
 30
0.0
 11
5835.935829966264
 21
-1143.438738089535
 31
0.0
  0
LINE
  5
1FD
330
1F
100
AcDbEntity
  8
0-A_文字
  6
JWW_DASHED1
 62
     7
370
     9
100
AcDbLine
 10
5382.014473728943
 20
-1455.938738089519
 30
0.0
 11
5694.514473728927
 21
-1143.438738089535
 31
0.0
  0
LINE
  5
1FE
330
1F
100
AcDbEntity
  8
0-A_文字
  6
JWW_DASHED1
 62
     7
370
     9
100
AcDbLine
 10
5099.171761254256
 20
-1455.93873808954
 30
0.0
 11
5411.671761254262
 21
-1143.438738089535
 31
0.0
  0
LINE
  5
1FF
330
1F
100
AcDbEntity
  8
0-A_文字
  6
JWW_DASHED1
 62
     7
370
     9
100
AcDbLine
 10
4816.329048779568
 20
-1455.938738089561
 30
0.0
 11
5128.829048779597
 21
-1143.438738089535
 31
0.0
  0
LINE
  5
200
330
1F
100
AcDbEntity
  8
0-A_文字
  6
JWW_DASHED1
 62
     7
370
     9
100
AcDbLine
 10
4957.750405016934
 20
-1455.938738089529
 30
0.0
 11
5270.250405016928
 21
-1143.438738089535
 31
0.0
  0
LINE
  5
201
330
1F
100
AcDbEntity
  8
0-A_文字
  6
JWW_DASHED1
 62
     7
370
     9
100
AcDbLine
 10
6089.121254915606
 20
-1455.93873808952
 30
0.0
 11
6401.621254915595
 21
-1143.438738089535
 31
0.0
  0
LINE
  5
202
330
1F
100
AcDbEntity
  8
0-A_文字
  6
JWW_DASHED1
 62
     7
370
     9
100
AcDbLine
 10
5947.699898678279
 20
-1455.938738089515
 30
0.0
 11
6260.199898678259
 21
-1143.438738089535
 31
0.0
  0
LINE
  5
203
330
1F
100
AcDbEntity
  8
0-A_文字
  6
JWW_DASHED1
 62
     7
370
     9
100
AcDbLine
 10
6654.806679864943
 20
-1455.938738089516
 30
0.0
 11
6967.306679864926
 21
-1143.438738089535
 31
0.0
  0
LINE
  5
204
330
1F
100
AcDbEntity
  8
0-A_文字
  6
JWW_DASHED1
 62
     7
370
     9
100
AcDbLine
 10
6513.385323627615
 20
-1455.93873808951
 30
0.0
 11
6825.885323627593
 21
-1143.438738089535
 31
0.0
  0
LINE
  5
205
330
1F
100
AcDbEntity
  8
0-A_文字
  6
JWW_DASHED1
 62
     7
370
     9
100
AcDbLine
 10
7220.49210481428
 20
-1455.938738089512
 30
0.0
 11
7367.249959286416
 21
-1309.180883617375
 31
0.0
  0
LINE
  5
206
330
1F
100
AcDbEntity
  8
0-A_文字
  6
JWW_DASHED1
 62
     7
370
     9
100
AcDbLine
 10
7079.070748576952
 20
-1455.938738089506
 30
0.0
 11
7367.249959286416
 21
-1167.759527380041
 31
0.0
  0
TEXT
  5
207
330
1F
100
AcDbEntity
  8
0-A_文字
  6
Continuous
 62
     7
370
   211
100
AcDbText
 10
-3587.031045566913
 20
4918.500487808963
 30
0.0
 40
228.6
  1
1,820
 41
1.133333333333333
  7
ＭＳ ゴシック
100
AcDbText
  0
TEXT
  5
208
330
1F
100
AcDbEntity
  8
0-A_文字
  6
Continuous
 62
     7
370
   211
100
AcDbText
 10
-14669.17747126004
 20
4869.416637530971
 30
0.0
 40
228.6
  1
910
 41
1.111111111111111
  7
ＭＳ ゴシック
100
AcDbText
  0
LWPOLYLINE
  5
209
330
1F
100
AcDbEntity
  8
0-A_文字
  6
Continuous
 62
     7
370
     9
100
AcDbPolyline
 90
        4
 70
     1
 43
10.0
 10
-8935.7625904392
 20
3548.582172874449
 42
0.4142135623731
 10
-8940.7625904392
 20
3553.582172874449
 42
0.4142135623731
 10
-8945.7625904392
 20
3548.582172874449
 42
0.4142135623731
 10
-8940.7625904392
 20
3543.58217287445
 42
0.4142135623731
  0
LINE
  5
20A
330
1F
100
AcDbEntity
  8
0-A_文字
  6
JWW_DASHED1
 62
     7
370
     9
100
AcDbLine
 10
-15393.38587448695
 20
-1481.071094407727
 30
0.0
 11
-15055.75351816876
 21
-1143.438738089537
 31
0.0
  0
LINE
  5
20B
330
1F
100
AcDbEntity
  8
0-A_文字
  6
Continuous
 62
     7
370
     9
100
AcDbLine
 10
-15393.38587448695
 20
-1455.938738089535
 30
0.0
 11
-14120.04285839314
 21
-1455.938738089535
 31
0.0
  0
LINE
  5
20C
330
1F
100
AcDbEntity
  8
0-A_文字
  6
JWW_DASHED1
 62
     7
370
     9
100
AcDbLine
 10
-15393.38587448695
 20
-1622.492450645061
 30
0.0
 11
-14914.33216193144
 21
-1143.438738089549
 31
0.0
  0
LINE
  5
20D
330
1F
100
AcDbEntity
  8
0-A_文字
  6
JWW_DASHED1
 62
     7
370
     9
100
AcDbLine
 10
-15393.38587448695
 20
-1763.913806882395
 30
0.0
 11
-14772.91080569411
 21
-1143.438738089553
 31
0.0
  0
LINE
  5
20E
330
1F
100
AcDbEntity
  8
0-A_文字
  6
JWW_DASHED1
 62
     7
370
     9
100
AcDbLine
 10
-15393.38587448695
 20
-2612.441944306228
 30
0.0
 11
-15080.88587448695
 21
-2299.941944306224
 31
0.0
  0
LINE
  5
20F
330
1F
100
AcDbEntity
  8
0-A_文字
  6
JWW_DASHED1
 62
     7
370
     9
100
AcDbLine
 10
-14236.88266827027
 20
-1455.938738089535
 30
0.0
 11
-14120.04285839314
 21
-1339.098928212397
 31
0.0
  0
LINE
  5
210
330
1F
100
AcDbEntity
  8
0-A_文字
  6
JWW_DASHED1
 62
     7
370
     9
100
AcDbLine
 10
-15393.38587448695
 20
-2471.020588068885
 30
0.0
 11
-15080.88587448695
 21
-2158.520588068883
 31
0.0
  0
LINE
  5
211
330
1F
100
AcDbEntity
  8
0-A_文字
  6
JWW_DASHED1
 62
     7
370
     9
100
AcDbLine
 10
-14378.3040245076
 20
-1455.938738089535
 30
0.0
 11
-14120.04285839314
 21
-1197.677571975064
 31
0.0
  0
LINE
  5
212
330
1F
100
AcDbEntity
  8
0-A_文字
  6
JWW_DASHED1
 62
     7
370
     9
100
AcDbLine
 10
-15393.38587448695
 20
-2329.599231831556
 30
0.0
 11
-15080.88587448695
 21
-2017.099231831553
 31
0.0
  0
LINE
  5
213
330
1F
100
AcDbEntity
  8
0-A_文字
  6
JWW_DASHED1
 62
     7
370
     9
100
AcDbLine
 10
-14519.72538074494
 20
-1455.938738089535
 30
0.0
 11
-14207.22538074492
 21
-1143.438738089513
 31
0.0
  0
LINE
  5
214
330
1F
100
AcDbEntity
  8
0-A_文字
  6
JWW_DASHED1
 62
     7
370
     9
100
AcDbLine
 10
-15393.38587448695
 20
-2188.177875594212
 30
0.0
 11
-15080.88587448695
 21
-1875.677875594212
 31
0.0
  0
LINE
  5
215
330
1F
100
AcDbEntity
  8
0-A_文字
  6
JWW_DASHED1
 62
     7
370
     9
100
AcDbLine
 10
-14661.14673698227
 20
-1455.938738089535
 30
0.0
 11
-14348.64673698224
 21
-1143.438738089503
 31
0.0
  0
LINE
  5
216
330
1F
100
AcDbEntity
  8
0-A_文字
  6
JWW_DASHED1
 62
     7
370
     9
100
AcDbLine
 10
-15393.38587448695
 20
-2046.756519357061
 30
0.0
 11
-15080.88587448695
 21
-1734.256519357061
 31
0.0
  0
LINE
  5
217
330
1F
100
AcDbEntity
  8
0-A_文字
  6
JWW_DASHED1
 62
     7
370
     9
100
AcDbLine
 10
-14802.56809321942
 20
-1455.938738089535
 30
0.0
 11
-14490.06809321937
 21
-1143.438738089478
 31
0.0
  0
LINE
  5
218
330
1F
100
AcDbEntity
  8
0-A_文字
  6
JWW_DASHED1
 62
     7
370
     9
100
AcDbLine
 10
-15393.38587448695
 20
-1905.335163119731
 30
0.0
 11
-15080.88587448695
 21
-1592.835163119729
 31
0.0
  0
LINE
  5
219
330
1F
100
AcDbEntity
  8
0-A_文字
  6
JWW_DASHED1
 62
     7
370
     9
100
AcDbLine
 10
-14943.98944945676
 20
-1455.938738089535
 30
0.0
 11
-14631.48944945675
 21
-1143.43873808952
 31
0.0
  0
LINE
  5
21A
330
1F
100
AcDbEntity
  8
0-A_文字
  6
JWW_DASHED1
 62
     7
370
     9
100
AcDbLine
 10
-15393.38587448695
 20
-3178.127369255377
 30
0.0
 11
-15080.88587448695
 21
-2865.627369255375
 31
0.0
  0
LINE
  5
21B
330
1F
100
AcDbEntity
  8
0-A_文字
  6
JWW_DASHED1
 62
     7
370
     9
100
AcDbLine
 10
-15393.38587448695
 20
-3036.706013018043
 30
0.0
 11
-15080.88587448695
 21
-2724.206013018041
 31
0.0
  0
LINE
  5
21C
330
1F
100
AcDbEntity
  8
0-A_文字
  6
JWW_DASHED1
 62
     7
370
     9
100
AcDbLine
 10
-15393.38587448695
 20
-2895.284656780868
 30
0.0
 11
-15080.88587448695
 21
-2582.784656780868
 31
0.0
  0
LINE
  5
21D
330
1F
100
AcDbEntity
  8
0-A_文字
  6
JWW_DASHED1
 62
     7
370
     9
100
AcDbLine
 10
-15393.38587448695
 20
-2753.863300543561
 30
0.0
 11
-15080.88587448695
 21
-2441.363300543559
 31
0.0
  0
LINE
  5
21E
330
1F
100
AcDbEntity
  8
0-A_文字
  6
JWW_DASHED1
 62
     7
370
     9
100
AcDbLine
 10
-15393.38587448695
 20
-3743.812794204528
 30
0.0
 11
-15080.88587448695
 21
-3431.312794204526
 31
0.0
  0
LINE
  5
21F
330
1F
100
AcDbEntity
  8
0-A_文字
  6
JWW_DASHED1
 62
     7
370
     9
100
AcDbLine
 10
-15393.38587448695
 20
-3602.391437967194
 30
0.0
 11
-15080.88587448695
 21
-3289.891437967191
 31
0.0
  0
LINE
  5
220
330
1F
100
AcDbEntity
  8
0-A_文字
  6
JWW_DASHED1
 62
     7
370
     9
100
AcDbLine
 10
-15393.38587448695
 20
-3460.970081730019
 30
0.0
 11
-15080.88587448695
 21
-3148.470081730019
 31
0.0
  0
LINE
  5
221
330
1F
100
AcDbEntity
  8
0-A_文字
  6
JWW_DASHED1
 62
     7
370
     9
100
AcDbLine
 10
-15393.38587448695
 20
-3319.548725492712
 30
0.0
 11
-15080.88587448695
 21
-3007.048725492709
 31
0.0
  0
LINE
  5
222
330
1F
100
AcDbEntity
  8
0-A_文字
  6
JWW_DASHED1
 62
     7
370
     9
100
AcDbLine
 10
-15393.38587448695
 20
-4026.65550667917
 30
0.0
 11
-15080.88587448695
 21
-3714.15550667917
 31
0.0
  0
LINE
  5
223
330
1F
100
AcDbEntity
  8
0-A_文字
  6
JWW_DASHED1
 62
     7
370
     9
100
AcDbLine
 10
-15393.38587448695
 20
-3885.234150441863
 30
0.0
 11
-15080.88587448695
 21
-3572.73415044186
 31
0.0
  0
TEXT
  5
224
330
1F
100
AcDbEntity
  8
0-A_文字
  6
Continuous
 62
     7
370
   211
100
AcDbText
 10
-8900.844324896867
 20
-300.8866639531321
 30
0.0
 40
228.6
  1
9
 41
0.9999999999999998
  7
ＭＳ ゴシック
100
AcDbText
  0
ARC
  5
225
330
1F
100
AcDbEntity
  8
0-A_文字
  6
Continuous
 62
     7
370
     9
100
AcDbCircle
 10
-8740.7625904392
 20
-805.9387380895345
 30
0.0
 40
25.0
100
AcDbArc
 50
0.0
 51
90.0
  0
LINE
  5
226
330
1F
100
AcDbEntity
  8
0-A_文字
  6
Continuous
 62
     7
370
     9
100
AcDbLine
 10
-8740.7625904392
 20
-780.9387380895345
 30
0.0
 11
-8940.7625904392
 21
-780.9387380895345
 31
0.0
  0
ARC
  5
227
330
1F
100
AcDbEntity
  8
0-A_文字
  6
Continuous
 62
     7
370
     9
100
AcDbCircle
 10
-8765.7625904392
 20
-1480.938738089535
 30
0.0
 40
50.0
100
AcDbArc
 50
270.0
 51
0.0
  0
LINE
  5
228
330
1F
100
AcDbEntity
  8
0-A_文字
  6
Continuous
 62
     7
370
     9
100
AcDbLine
 10
-8715.7625904392
 20
-805.9387380895345
 30
0.0
 11
-8715.7625904392
 21
-1480.938738089535
 31
0.0
  0
LINE
  5
229
330
1F
100
AcDbEntity
  8
0-A_文字
  6
Continuous
 62
     7
370
     9
100
AcDbLine
 10
-8782.410730112437
 20
-1530.938738089535
 30
0.0
 11
-8715.7625904392
 21
-1464.290598416298
 31
0.0
  0
LINE
  5
22A
330
1F
100
AcDbEntity
  8
0-A_文字
  6
Continuous
 62
     7
370
     9
100
AcDbLine
 10
-8923.83208634977
 20
-1530.938738089535
 30
0.0
 11
-8715.7625904392
 21
-1322.869242178965
 31
0.0
  0
LINE
  5
22B
330
1F
100
AcDbEntity
  8
0-A_文字
  6
JWW_HOJO
 62
     7
370
     9
100
AcDbLine
 10
-8715.7625904392
 20
-805.9387380895345
 30
0.0
 11
-8715.7625904392
 21
-1480.938738089535
 31
0.0
  0
LINE
  5
22C
330
1F
100
AcDbEntity
  8
0-A_文字
  6
Continuous
 62
     7
370
     9
100
AcDbLine
 10
-8940.76259043919
 20
-1265.026529704287
 30
0.0
 11
-8715.7625904392
 21
-1040.026529704294
 31
0.0
  0
LINE
  5
22D
330
1F
100
AcDbEntity
  8
0-A_文字
  6
Continuous
 62
     7
370
     9
100
AcDbLine
 10
-8940.76259043919
 20
-1406.44788594162
 30
0.0
 11
-8715.7625904392
 21
-1181.44788594163
 31
0.0
  0
LINE
  5
22E
330
1F
100
AcDbEntity
  8
0-A_文字
  6
Continuous
 62
     7
370
     9
100
AcDbLine
 10
-8940.7625904392
 20
-982.1838172296765
 30
0.0
 11
-8739.517511299064
 21
-780.9387380895345
 31
0.0
  0
LINE
  5
22F
330
1F
100
AcDbEntity
  8
0-A_文字
  6
Continuous
 62
     7
370
     9
100
AcDbLine
 10
-8940.7625904392
 20
-840.7624609923658
 30
0.0
 11
-8880.93886753637
 21
-780.9387380895345
 31
0.0
  0
LINE
  5
230
330
1F
100
AcDbEntity
  8
0-A_文字
  6
Continuous
 62
     7
370
     9
100
AcDbLine
 10
-8940.7625904392
 20
-1123.605173466987
 30
0.0
 11
-8715.7625904392
 21
-898.6051734669829
 31
0.0
  0
LWPOLYLINE
  5
231
330
1F
100
AcDbEntity
  8
0-A_文字
  6
Continuous
 62
     7
370
     9
100
AcDbPolyline
 90
        4
 70
     1
 43
10.0
 10
-7737.995123023677
 20
-1530.938738089535
 42
0.4142135623731
 10
-7742.995123023677
 20
-1525.938738089534
 42
0.4142135623731
 10
-7747.995123023677
 20
-1530.938738089535
 42
0.4142135623731
 10
-7742.995123023677
 20
-1535.938738089535
 42
0.4142135623731
  0
LINE
  5
232
330
1F
100
AcDbEntity
  8
0-A_文字
  6
Continuous
 62
     7
370
     9
100
AcDbLine
 10
-7742.995123023677
 20
-1530.938738089535
 30
0.0
 11
-8462.973145672559
 21
-1530.938738089535
 31
0.0
  0
LINE
  5
233
330
1F
100
AcDbEntity
  8
0-A_文字
  6
Continuous
 62
     7
370
     9
100
AcDbLine
 10
-7742.995123023677
 20
-780.9387380895345
 30
0.0
 11
-8462.973145672559
 21
-780.9387380895345
 31
0.0
  0
TEXT
  5
234
330
1F
100
AcDbEntity
  8
0-A_文字
  6
Continuous
 62
     7
370
   211
100
AcDbText
 10
-7836.566325274091
 20
-1317.053012487936
 30
0.0
 40
228.6
  1
30
 50
90.0
 41
1.083333333333333
  7
ＭＳ ゴシック
100
AcDbText
  0
LINE
  5
235
330
1F
100
AcDbEntity
  8
0-A_文字
  6
Continuous
 62
     7
370
     9
100
AcDbLine
 10
-8940.7625904392
 20
-1530.938738089535
 30
0.0
 11
-8765.7625904392
 21
-1530.938738089535
 31
0.0
  0
TEXT
  5
236
330
1F
100
AcDbEntity
  8
0-A_文字
  6
Continuous
 62
     7
370
   211
100
AcDbText
 10
-8878.483328661003
 20
2802.38710208241
 30
0.0
 40
228.6
  1
9
 41
0.9999999999999998
  7
ＭＳ ゴシック
100
AcDbText
  0
LWPOLYLINE
  5
237
330
1F
100
AcDbEntity
  8
0-A_文字
  6
Continuous
 62
     7
370
     9
100
AcDbPolyline
 90
        4
 70
     1
 43
10.0
 10
-8710.7625904392
 20
2544.94917448725
 42
0.4142135623731
 10
-8715.7625904392
 20
2549.94917448725
 42
0.4142135623731
 10
-8720.7625904392
 20
2544.94917448725
 42
0.4142135623731
 10
-8715.7625904392
 20
2539.94917448725
 42
0.4142135623731
  0
LINE
  5
238
330
1F
100
AcDbEntity
  8
0-A_文字
  6
Continuous
 62
     7
370
     9
100
AcDbLine
 10
-8940.7625904392
 20
2544.94917448725
 30
0.0
 11
-8715.762590439203
 21
2544.94917448725
 31
0.0
  0
LWPOLYLINE
  5
239
330
1F
100
AcDbEntity
  8
0-A_文字
  6
Continuous
 62
     7
370
     9
100
AcDbPolyline
 90
        4
 70
     1
 43
10.0
 10
4817.10723283164
 20
-1455.938738089535
 42
0.4142135623731
 10
4812.10723283164
 20
-1450.938738089534
 42
0.4142135623731
 10
4807.10723283164
 20
-1455.938738089535
 42
0.4142135623731
 10
4812.10723283164
 20
-1460.938738089535
 42
0.4142135623731
  0
LINE
  5
23A
330
1F
100
AcDbEntity
  8
0-A_文字
  6
Continuous
 62
     7
370
     9
100
AcDbLine
 10
7367.249959286416
 20
-1455.938738089535
 30
0.0
 11
3827.72761119639
 21
-1455.938738089535
 31
0.0
  0
LWPOLYLINE
  5
23B
330
1F
100
AcDbEntity
  8
0-A_文字
  6
Continuous
 62
     7
370
     9
100
AcDbPolyline
 90
        4
 70
     1
 43
10.0
 10
4817.10723283164
 20
-1530.938738089513
 42
0.4142135623731
 10
4812.10723283164
 20
-1525.938738089513
 42
0.4142135623731
 10
4807.10723283164
 20
-1530.938738089513
 42
0.4142135623731
 10
4812.10723283164
 20
-1535.938738089513
 42
0.4142135623731
  0
LINE
  5
23C
330
1F
100
AcDbEntity
  8
0-A_文字
  6
Continuous
 62
     7
370
     9
100
AcDbLine
 10
4812.10723283164
 20
-1530.938738089513
 30
0.0
 11
4258.277984640191
 21
-1530.938738089513
 31
0.0
  0
TEXT
  5
23D
330
1F
100
AcDbEntity
  8
0-A_文字
  6
Continuous
 62
     7
370
   211
100
AcDbText
 10
4591.92373296672
 20
-1695.760663429765
 30
0.0
 40
228.6
  1
6
 50
90.0
 41
0.9999999999999998
  7
ＭＳ ゴシック
100
AcDbText
  0
TEXT
  5
23E
330
1F
100
AcDbEntity
  8
0-A_文字
  6
Continuous
 62
     7
370
   211
100
AcDbText
 10
5147.96850109151
 20
-1597.803357028384
 30
0.0
 40
228.6
  1
3
 50
90.0
 41
0.9999999999999998
  7
ＭＳ ゴシック
100
AcDbText
  0
LWPOLYLINE
  5
23F
330
1F
100
AcDbEntity
  8
0-A_文字
  6
Continuous
 62
     7
370
     9
100
AcDbPolyline
 90
        4
 70
     1
 43
10.0
 10
4817.10723283164
 20
-2430.938738089513
 42
0.4142135623731
 10
4812.10723283164
 20
-2425.938738089513
 42
0.4142135623731
 10
4807.10723283164
 20
-2430.938738089513
 42
0.4142135623731
 10
4812.10723283164
 20
-2435.938738089513
 42
0.4142135623731
  0
LINE
  5
240
330
1F
100
AcDbEntity
  8
0-A_文字
  6
Continuous
 62
     7
370
     9
100
AcDbLine
 10
4812.10723283164
 20
-2430.938738089513
 30
0.0
 11
4258.277984640191
 21
-2430.938738089513
 31
0.0
  0
TEXT
  5
241
330
1F
100
AcDbEntity
  8
0-A_文字
  6
Continuous
 62
     7
370
   211
100
AcDbText
 10
5130.444727589916
 20
-2241.781918038605
 30
0.0
 40
228.6
  1
30
 50
90.0
 41
1.083333333333333
  7
ＭＳ ゴシック
100
AcDbText
  0
LINE
  5
242
330
1F
100
AcDbEntity
  8
0-A_文字
  6
Continuous
 62
     7
370
     9
100
AcDbLine
 10
3527.72761119639
 20
-1455.938738089535
 30
0.0
 11
3827.72761119639
 21
-1455.938738089535
 31
0.0
  0
LINE
  5
243
330
1F
100
AcDbEntity
  8
0-A_文字
  6
Continuous
 62
     7
370
     9
100
AcDbLine
 10
3527.72761119639
 20
1394.061261910465
 30
0.0
 11
3527.72761119639
 21
-1530.938738089513
 31
0.0
  0
LINE
  5
244
330
1F
100
AcDbEntity
  8
0-A_文字
  6
JWW_DASHED1
 62
     7
370
     9
100
AcDbLine
 10
4027.851416347058
 20
-1455.938738089485
 30
0.0
 11
4340.351416347014
 21
-1143.438738089529
 31
0.0
  0
LINE
  5
245
330
1F
100
AcDbEntity
  8
0-A_文字
  6
JWW_DASHED1
 62
     7
370
     9
100
AcDbLine
 10
3886.430060109684
 20
-1455.938738089526
 30
0.0
 11
4198.93006010969
 21
-1143.43873808952
 31
0.0
  0
LINE
  5
246
330
1F
100
AcDbEntity
  8
0-A_文字
  6
JWW_DASHED1
 62
     7
370
     9
100
AcDbLine
 10
3827.727611196418
 20
-1373.219830765457
 30
0.0
 11
4057.508703872317
 21
-1143.43873808956
 31
0.0
  0
LINE
  5
247
330
1F
100
AcDbEntity
  8
0-A_文字
  6
JWW_DASHED1
 62
     7
370
     9
100
AcDbLine
 10
3827.727611196404
 20
-1231.798474528139
 30
0.0
 11
3916.087347634995
 21
-1143.438738089547
 31
0.0
  0
LINE
  5
248
330
1F
100
AcDbEntity
  8
0-A_文字
  6
Continuous
 62
     7
370
     9
100
AcDbLine
 10
3827.72761119639
 20
-1143.438738089535
 30
0.0
 11
7367.249959286416
 21
-1143.438738089535
 31
0.0
  0
LWPOLYLINE
  5
249
330
1F
100
AcDbEntity
  8
0-A_文字
  6
Continuous
 62
     7
370
     9
100
AcDbPolyline
 90
        4
 70
     1
 43
10.0
 10
3532.727611196391
 20
3548.582172874449
 42
0.4142135623731
 10
3527.727611196392
 20
3553.582172874449
 42
0.4142135623731
 10
3522.727611196392
 20
3548.582172874449
 42
0.4142135623731
 10
3527.727611196392
 20
3543.58217287445
 42
0.4142135623731
  0
LWPOLYLINE
  5
24A
330
1F
100
AcDbEntity
  8
0-A_文字
  6
Continuous
 62
     7
370
     9
100
AcDbPolyline
 90
        4
 70
     1
 43
10.0
 10
3307.727611196373
 20
-385.3139097875896
 42
0.4142135623731
 10
3302.727611196373
 20
-380.3139097875896
 42
0.4142135623731
 10
3297.727611196373
 20
-385.3139097875896
 42
0.4142135623731
 10
3302.727611196373
 20
-390.3139097875896
 42
0.4142135623731
  0
LINE
  5
24B
330
1F
100
AcDbEntity
  8
0-A_文字
  6
Continuous
 62
     7
370
     9
100
AcDbLine
 10
3527.727611196379
 20
-1406.44788594162
 30
0.0
 11
3302.72761119639
 21
-1181.447885941628
 31
0.0
  0
TEXT
  5
24C
330
1F
100
AcDbEntity
  8
0-A_文字
  6
Continuous
 62
     7
370
   211
100
AcDbText
 10
3331.612565105848
 20
-311.8742197416596
 30
0.0
 40
228.6
  1
9
 41
0.9999999999999998
  7
ＭＳ ゴシック
100
AcDbText
  0
ARC
  5
24D
330
1F
100
AcDbEntity
  8
0-A_文字
  6
Continuous
 62
     7
370
     9
100
AcDbCircle
 10
3327.727611196373
 20
-805.9387380895089
 30
0.0
 40
25.0
100
AcDbArc
 50
90.0
 51
180.0
  0
LINE
  5
24E
330
1F
100
AcDbEntity
  8
0-A_文字
  6
Continuous
 62
     7
370
     9
100
AcDbLine
 10
3302.727611196373
 20
-894.8368181237214
 30
0.0
 11
3302.727611196373
 21
-1480.938738089513
 31
0.0
  0
LINE
  5
24F
330
1F
100
AcDbEntity
  8
0-A_文字
  6
Continuous
 62
     7
370
     9
100
AcDbLine
 10
3510.797107106939
 20
-1530.938738089513
 30
0.0
 11
3302.72761119639
 21
-1322.869242178963
 31
0.0
  0
ARC
  5
250
330
1F
100
AcDbEntity
  8
0-A_文字
  6
Continuous
 62
     7
370
     9
100
AcDbCircle
 10
3352.727611196373
 20
-1480.938738089513
 30
0.0
 40
50.0
100
AcDbArc
 50
180.0
 51
270.0
  0
LINE
  5
251
330
1F
100
AcDbEntity
  8
0-A_文字
  6
Continuous
 62
     7
370
     9
100
AcDbLine
 10
3369.375750869605
 20
-1530.938738089513
 30
0.0
 11
3302.72761119639
 21
-1464.290598416298
 31
0.0
  0
LINE
  5
252
330
1F
100
AcDbEntity
  8
0-A_文字
  6
Continuous
 62
     7
370
     9
100
AcDbLine
 10
3527.727611196379
 20
-1265.026529704287
 30
0.0
 11
3302.727611196373
 21
-1040.026529704275
 31
0.0
  0
LINE
  5
253
330
1F
100
AcDbEntity
  8
0-A_文字
  6
Continuous
 62
     7
370
     9
100
AcDbLine
 10
3527.72761119639
 20
-842.2899045535573
 30
0.0
 11
3466.376444732343
 21
-780.9387380895089
 31
0.0
  0
LINE
  5
254
330
1F
100
AcDbEntity
  8
0-A_文字
  6
Continuous
 62
     7
370
     9
100
AcDbLine
 10
3527.72761119639
 20
-983.2021129371384
 30
0.0
 11
3325.464236348765
 21
-780.9387380895089
 31
0.0
  0
LINE
  5
255
330
1F
100
AcDbEntity
  8
0-A_文字
  6
Continuous
 62
     7
370
     9
100
AcDbLine
 10
3527.72761119639
 20
-1124.114321320718
 30
0.0
 11
3302.727611196373
 21
-899.1143213206954
 31
0.0
  0
LINE
  5
256
330
1F
100
AcDbEntity
  8
0-A_文字
  6
Continuous
 62
     7
370
     9
100
AcDbLine
 10
3327.727611196373
 20
-780.9387380895089
 30
0.0
 11
3527.72761119639
 21
-780.9387380895089
 31
0.0
  0
LINE
  5
257
330
1F
100
AcDbEntity
  8
0-A_文字
  6
Continuous
 62
     7
370
     9
100
AcDbLine
 10
3527.72761119639
 20
-1530.938738089513
 30
0.0
 11
3352.727611196373
 21
-1530.938738089513
 31
0.0
  0
TEXT
  5
258
330
1F
100
AcDbEntity
  8
0-A_文字
  6
Continuous
 62
     7
370
   211
100
AcDbText
 10
3333.832398828017
 20
2700.33164399019
 30
0.0
 40
228.6
  1
9
 41
0.9999999999999998
  7
ＭＳ ゴシック
100
AcDbText
  0
LWPOLYLINE
  5
259
330
1F
100
AcDbEntity
  8
0-A_文字
  6
Continuous
 62
     7
370
     9
100
AcDbPolyline
 90
        4
 70
     1
 43
10.0
 10
3307.72761119639
 20
2544.94917448725
 42
0.4142135623731
 10
3302.72761119639
 20
2549.94917448725
 42
0.4142135623731
 10
3297.72761119639
 20
2544.94917448725
 42
0.4142135623731
 10
3302.72761119639
 20
2539.94917448725
 42
0.4142135623731
  0
LINE
  5
25A
330
1F
100
AcDbEntity
  8
0-A_文字
  6
Continuous
 62
     7
370
     9
100
AcDbLine
 10
3302.727611196392
 20
2544.94917448725
 30
0.0
 11
3527.727611196392
 21
2544.94917448725
 31
0.0
  0
LINE
  5
25B
330
1F
100
AcDbEntity
  8
0-A_文字
  6
JWW_DASHED1
 62
     7
370
     9
100
AcDbLine
 10
-12121.65682207778
 20
-1250.638675736285
 30
0.0
 11
-12014.45688443103
 21
-1143.438738089536
 31
0.0
  0
TEXT
  5
25C
330
1F
100
AcDbEntity
  8
0-A_文字
  6
Continuous
 62
     7
370
     9
100
AcDbText
 10
-6502.796540888489
 20
-2216.308491329255
 30
0.0
 40
228.6
  1
ＤＷ＝846
 41
1.148148148148148
  7
ＭＳ ゴシック
100
AcDbText
  0
TEXT
  5
25D
330
1F
100
AcDbEntity
  8
0-A_文字
  6
Continuous
 62
     7
370
     9
100
AcDbText
 10
-1508.024113275087
 20
-2216.308491329255
 30
0.0
 40
228.6
  1
ＤＷ＝846
 41
1.148148148148148
  7
ＭＳ ゴシック
100
AcDbText
  0
LINE
  5
25E
330
1F
100
AcDbEntity
  8
0-A_文字
  6
JWW_HOJO
 62
     7
370
     9
100
AcDbLine
 10
3577.72761119639
 20
-1680.938738089513
 30
0.0
 11
3352.727611196373
 21
-1680.938738089513
 31
0.0
  0
LINE
  5
25F
330
1F
100
AcDbEntity
  8
0-A_文字
  6
Continuous
 62
     7
370
     9
100
AcDbLine
 10
-2706.517489621405
 20
751.003934720454
 30
0.0
 11
-2706.517489621405
 21
-3797.062363622088
 31
0.0
  0
LINE
  5
260
330
1F
100
AcDbEntity
  8
0-A_文字
  6
Continuous
 62
     7
370
     9
100
AcDbLine
 10
-15393.38587448695
 20
-1143.438738089535
 30
0.0
 11
-15393.38587448695
 21
-5492.054801965861
 31
0.0
  0
LINE
  5
261
330
1F
100
AcDbEntity
  8
0-A_文字
  6
Continuous
 62
     7
370
     9
100
AcDbLine
 10
-15080.88587448695
 20
-1455.938738089535
 30
0.0
 11
-15080.88587448695
 21
-5492.054801965861
 31
0.0
  0
LWPOLYLINE
  5
262
330
1F
100
AcDbEntity
  8
0-A_文字
  6
Continuous
 62
     7
370
     9
100
AcDbPolyline
 90
        4
 70
     1
 43
10.0
 10
-6888.664855853824
 20
-1455.938738089535
 42
0.4142135623731
 10
-6893.664855853824
 20
-1450.938738089534
 42
0.4142135623731
 10
-6898.664855853824
 20
-1455.938738089535
 42
0.4142135623731
 10
-6893.664855853824
 20
-1460.938738089535
 42
0.4142135623731
  0
LINE
  5
263
330
1F
100
AcDbEntity
  8
0-A_文字
  6
Continuous
 62
     7
370
     9
100
AcDbLine
 10
-6893.664855853824
 20
-1455.938738089535
 30
0.0
 11
-7026.58622476273
 21
-1455.938738089535
 31
0.0
  0
LWPOLYLINE
  5
264
330
1F
100
AcDbEntity
  8
0-A_文字
  6
Continuous
 62
     7
370
     9
100
AcDbPolyline
 90
        4
 70
     1
 43
10.0
 10
-6888.664855853824
 20
-3505.938738089535
 42
0.4142135623731
 10
-6893.664855853824
 20
-3500.938738089535
 42
0.4142135623731
 10
-6898.664855853824
 20
-3505.938738089535
 42
0.4142135623731
 10
-6893.664855853824
 20
-3510.938738089534
 42
0.4142135623731
  0
LINE
  5
265
330
1F
100
AcDbEntity
  8
0-A_文字
  6
Continuous
 62
     7
370
     9
100
AcDbLine
 10
-6893.664855853824
 20
-3505.938738089535
 30
0.0
 11
-7026.58622476273
 21
-3505.938738089535
 31
0.0
  0
TEXT
  5
266
330
1F
100
AcDbEntity
  8
0-A_文字
  6
Continuous
 62
     7
370
   211
100
AcDbText
 10
-6954.162920711487
 20
-2652.876685197317
 30
0.0
 40
228.6
  1
82
 50
90.0
 41
1.083333333333333
  7
ＭＳ ゴシック
100
AcDbText
  0
LINE
  5
267
330
1F
100
AcDbEntity
  8
0-3_仕上
  6
Continuous
 62
     7
370
     9
100
AcDbLine
 10
-13030.88587448695
 20
-3505.938738089535
 30
0.0
 11
-13030.88587448695
 21
-5469.03367133299
 31
0.0
  0
LINE
  5
268
330
1F
100
AcDbEntity
  8
0-3_仕上
  6
Continuous
 62
     7
370
     9
100
AcDbLine
 10
-13030.88587448695
 20
-3505.938738089535
 30
0.0
 11
7120.610173736865
 21
-3505.938738089535
 31
0.0
  0
LINE
  5
269
330
1F
100
AcDbEntity
  8
0-3_仕上
  6
Continuous
 62
     7
370
     9
100
AcDbLine
 10
-15080.88587448695
 20
-1455.938738089535
 30
0.0
 11
-13030.88587448695
 21
-3505.938738089535
 31
0.0
  0
LINE
  5
26A
330
1F
100
AcDbEntity
  8
0-0_補助線
  6
JWW_HOJO
 62
     3
370
     5
100
AcDbLine
 10
-14726.14953404769
 20
-2055.938738089513
 30
0.0
 11
-13534.98931305322
 21
-2055.938738089513
 31
0.0
  0
LINE
  5
26B
330
1F
100
AcDbEntity
  8
0-3_仕上
  6
Continuous
 62
     7
370
     9
100
AcDbLine
 10
-15393.38587448695
 20
-1893.438738089535
 30
0.0
 11
-15393.38587448695
 21
-1143.438738089535
 31
0.0
  0
LINE
  5
26C
330
1F
100
AcDbEntity
  8
0-A_文字
  6
Continuous
 62
     7
370
     9
100
AcDbLine
 10
-15393.38587448695
 20
1081.561261910465
 30
0.0
 11
-15393.38587448695
 21
-1143.438738089535
 31
0.0
  0
LINE
  5
26D
330
1F
100
AcDbEntity
  8
0-A_文字
  6
JWW_DASHED1
 62
     7
370
     9
100
AcDbLine
 10
-14552.0738617284
 20
1081.56126191046
 30
0.0
 11
-14239.57386172839
 21
1394.061261910468
 31
0.0
  0
LINE
  5
26E
330
1F
100
AcDbEntity
  8
0-A_文字
  6
JWW_DASHED1
 62
     7
370
     9
100
AcDbLine
 10
-14693.49521796573
 20
1081.56126191047
 30
0.0
 11
-14380.99521796572
 21
1394.061261910477
 31
0.0
  0
LINE
  5
26F
330
1F
100
AcDbEntity
  8
0-A_文字
  6
JWW_DASHED1
 62
     7
370
     9
100
AcDbLine
 10
-14834.91657420305
 20
1081.561261910481
 30
0.0
 11
-14522.41657420304
 21
1394.061261910488
 31
0.0
  0
LINE
  5
270
330
1F
100
AcDbEntity
  8
0-A_文字
  6
JWW_DASHED1
 62
     7
370
     9
100
AcDbLine
 10
-14976.33793044037
 20
1081.561261910492
 30
0.0
 11
-14663.83793044036
 21
1394.061261910502
 31
0.0
  0
LINE
  5
271
330
1F
100
AcDbEntity
  8
0-A_文字
  6
JWW_DASHED1
 62
     7
370
     9
100
AcDbLine
 10
-15117.75928667749
 20
1081.561261910522
 30
0.0
 11
-14805.25928667754
 21
1394.061261910474
 31
0.0
  0
LINE
  5
272
330
1F
100
AcDbEntity
  8
0-A_文字
  6
JWW_DASHED1
 62
     7
370
     9
100
AcDbLine
 10
-15259.18064291487
 20
1081.561261910478
 30
0.0
 11
-14946.68064291486
 21
1394.061261910487
 31
0.0
  0
LINE
  5
273
330
1F
100
AcDbEntity
  8
0-A_文字
  6
JWW_DASHED1
 62
     7
370
     9
100
AcDbLine
 10
-15400.60199915223
 20
1081.56126191045
 30
0.0
 11
-15088.10199915222
 21
1394.061261910454
 31
0.0
  0
LINE
  5
274
330
1F
100
AcDbEntity
  8
0-A_文字
  6
JWW_DASHED1
 62
     7
370
     9
100
AcDbLine
 10
-15542.02335538956
 20
1081.56126191045
 30
0.0
 11
-15229.52335538956
 21
1394.061261910458
 31
0.0
  0
LINE
  5
275
330
1F
100
AcDbEntity
  8
0-A_文字
  6
JWW_DASHED1
 62
     7
370
     9
100
AcDbLine
 10
-15683.44471162689
 20
1081.561261910461
 30
0.0
 11
-15370.94471162688
 21
1394.06126191047
 31
0.0
  0
LINE
  5
276
330
1F
100
AcDbEntity
  8
0-A_文字
  6
JWW_DASHED1
 62
     7
370
     9
100
AcDbLine
 10
-15824.86606786421
 20
1081.561261910474
 30
0.0
 11
-15512.3660678642
 21
1394.061261910483
 31
0.0
  0
LINE
  5
277
330
1F
100
AcDbEntity
  8
0-A_文字
  6
JWW_DASHED1
 62
     7
370
     9
100
AcDbLine
 10
-15966.28742410153
 20
1081.561261910485
 30
0.0
 11
-15653.78742410152
 21
1394.061261910494
 31
0.0
  0
LINE
  5
278
330
1F
100
AcDbEntity
  8
0-A_文字
  6
JWW_DASHED1
 62
     7
370
     9
100
AcDbLine
 10
-16107.70878033885
 20
1081.561261910498
 30
0.0
 11
-15795.20878033884
 21
1394.061261910507
 31
0.0
  0
LINE
  5
279
330
1F
100
AcDbEntity
  8
0-A_文字
  6
JWW_DASHED1
 62
     7
370
     9
100
AcDbLine
 10
-16249.13013657602
 20
1081.561261910471
 30
0.0
 11
-15936.63013657602
 21
1394.06126191048
 31
0.0
  0
LINE
  5
27A
330
1F
100
AcDbEntity
  8
0-A_文字
  6
JWW_DASHED1
 62
     7
370
     9
100
AcDbLine
 10
-16390.55149281339
 20
1081.561261910443
 30
0.0
 11
-16078.05149281338
 21
1394.061261910451
 31
0.0
  0
LINE
  5
27B
330
1F
100
AcDbEntity
  8
0-A_文字
  6
JWW_DASHED1
 62
     7
370
     9
100
AcDbLine
 10
-16531.97284905071
 20
1081.561261910457
 30
0.0
 11
-16219.4728490507
 21
1394.061261910463
 31
0.0
  0
LINE
  5
27C
330
1F
100
AcDbEntity
  8
0-A_文字
  6
JWW_DASHED1
 62
     7
370
     9
100
AcDbLine
 10
-16673.39420528804
 20
1081.561261910454
 30
0.0
 11
-16360.89420528804
 21
1394.061261910463
 31
0.0
  0
LINE
  5
27D
330
1F
100
AcDbEntity
  8
0-A_文字
  6
JWW_DASHED1
 62
     7
370
     9
100
AcDbLine
 10
-16814.81556152536
 20
1081.561261910467
 30
0.0
 11
-16502.31556152536
 21
1394.061261910473
 31
0.0
  0
LINE
  5
27E
330
1F
100
AcDbEntity
  8
0-A_文字
  6
JWW_DASHED1
 62
     7
370
     9
100
AcDbLine
 10
-16956.23691776269
 20
1081.561261910478
 30
0.0
 11
-16643.73691776268
 21
1394.061261910485
 31
0.0
  0
LINE
  5
27F
330
1F
100
AcDbEntity
  8
0-A_文字
  6
JWW_DASHED1
 62
     7
370
     9
100
AcDbLine
 10
-17097.65827400001
 20
1081.56126191049
 30
0.0
 11
-16785.158274
 21
1394.061261910497
 31
0.0
  0
LINE
  5
280
330
1F
100
AcDbEntity
  8
0-A_文字
  6
JWW_DASHED1
 62
     7
370
     9
100
AcDbLine
 10
-17239.07963023713
 20
1081.561261910515
 30
0.0
 11
-16926.57963023718
 21
1394.061261910473
 31
0.0
  0
LINE
  5
281
330
1F
100
AcDbEntity
  8
0-A_文字
  6
JWW_DASHED1
 62
     7
370
     9
100
AcDbLine
 10
-17380.5009864745
 20
1081.561261910475
 30
0.0
 11
-17068.0009864745
 21
1394.061261910483
 31
0.0
  0
LINE
  5
282
330
1F
100
AcDbEntity
  8
0-A_文字
  6
JWW_DASHED1
 62
     7
370
     9
100
AcDbLine
 10
-17521.92234271187
 20
1081.561261910451
 30
0.0
 11
-17209.42234271186
 21
1394.06126191046
 31
0.0
  0
LINE
  5
283
330
1F
100
AcDbEntity
  8
0-A_文字
  6
JWW_DASHED1
 62
     7
370
     9
100
AcDbLine
 10
-17663.3436989492
 20
1081.561261910446
 30
0.0
 11
-17350.8436989492
 21
1394.061261910451
 31
0.0
  0
LINE
  5
284
330
1F
100
AcDbEntity
  8
0-A_文字
  6
JWW_DASHED1
 62
     7
370
     9
100
AcDbLine
 10
-14127.80979301638
 20
1081.561261910477
 30
0.0
 11
-14120.04285839314
 21
1089.328196533724
 31
0.0
  0
LINE
  5
285
330
1F
100
AcDbEntity
  8
0-A_文字
  6
JWW_DASHED1
 62
     7
370
     9
100
AcDbLine
 10
-14269.23114925376
 20
1081.56126191044
 30
0.0
 11
-14120.04285839314
 21
1230.749552771057
 31
0.0
  0
LINE
  5
286
330
1F
100
AcDbEntity
  8
0-A_文字
  6
JWW_DASHED1
 62
     7
370
     9
100
AcDbLine
 10
-14410.65250549107
 20
1081.561261910454
 30
0.0
 11
-14120.04285839314
 21
1372.17090900839
 31
0.0
  0
LINE
  5
287
330
1F
100
AcDbEntity
  8
0-A_文字
  6
JWW_DASHED1
 62
     7
370
     9
100
AcDbLine
 10
-9308.086035321065
 20
1081.561261910444
 30
0.0
 11
-9240.76259043918
 21
1148.884706792329
 31
0.0
  0
LINE
  5
288
330
1F
100
AcDbEntity
  8
0-A_文字
  6
JWW_DASHED1
 62
     7
370
     9
100
AcDbLine
 10
-9449.507391558385
 20
1081.561261910457
 30
0.0
 11
-9240.762590439195
 21
1290.306063029648
 31
0.0
  0
LINE
  5
289
330
1F
100
AcDbEntity
  8
0-A_文字
  6
JWW_DASHED1
 62
     7
370
     9
100
AcDbLine
 10
-9590.928747795706
 20
1081.56126191047
 30
0.0
 11
-9278.4287477957
 21
1394.061261910475
 31
0.0
  0
LINE
  5
28A
330
1F
100
AcDbEntity
  8
0-A_文字
  6
JWW_DASHED1
 62
     7
370
     9
100
AcDbLine
 10
-9732.350104033028
 20
1081.561261910481
 30
0.0
 11
-9419.85010403302
 21
1394.061261910488
 31
0.0
  0
LINE
  5
28B
330
1F
100
AcDbEntity
  8
0-A_文字
  6
JWW_DASHED1
 62
     7
370
     9
100
AcDbLine
 10
-9873.77146027015
 20
1081.561261910508
 30
0.0
 11
-9561.271460270196
 21
1394.061261910463
 31
0.0
  0
LINE
  5
28C
330
1F
100
AcDbEntity
  8
0-A_文字
  6
JWW_DASHED1
 62
     7
370
     9
100
AcDbLine
 10
-10015.19281650753
 20
1081.561261910463
 30
0.0
 11
-9702.692816507522
 21
1394.061261910471
 31
0.0
  0
LINE
  5
28D
330
1F
100
AcDbEntity
  8
0-A_文字
  6
JWW_DASHED1
 62
     7
370
     9
100
AcDbLine
 10
-10156.61417274485
 20
1081.561261910474
 30
0.0
 11
-9844.114172744845
 21
1394.061261910483
 31
0.0
  0
LINE
  5
28E
330
1F
100
AcDbEntity
  8
0-A_文字
  6
JWW_DASHED1
 62
     7
370
     9
100
AcDbLine
 10
-10298.03552898218
 20
1081.561261910485
 30
0.0
 11
-9985.535528982167
 21
1394.061261910494
 31
0.0
  0
LINE
  5
28F
330
1F
100
AcDbEntity
  8
0-A_文字
  6
JWW_DASHED1
 62
     7
370
     9
100
AcDbLine
 10
-10439.45688521954
 20
1081.561261910453
 30
0.0
 11
-10126.95688521954
 21
1394.06126191046
 31
0.0
  0
LINE
  5
290
330
1F
100
AcDbEntity
  8
0-A_文字
  6
JWW_DASHED1
 62
     7
370
     9
100
AcDbLine
 10
-10580.87824145686
 20
1081.561261910465
 30
0.0
 11
-10268.37824145686
 21
1394.061261910471
 31
0.0
  0
LINE
  5
291
330
1F
100
AcDbEntity
  8
0-A_文字
  6
JWW_DASHED1
 62
     7
370
     9
100
AcDbLine
 10
-10722.29959769418
 20
1081.561261910478
 30
0.0
 11
-10409.79959769418
 21
1394.061261910484
 31
0.0
  0
LINE
  5
292
330
1F
100
AcDbEntity
  8
0-A_文字
  6
JWW_DASHED1
 62
     7
370
     9
100
AcDbLine
 10
-10863.72095393151
 20
1081.56126191049
 30
0.0
 11
-10551.2209539315
 21
1394.061261910497
 31
0.0
  0
LINE
  5
293
330
1F
100
AcDbEntity
  8
0-A_文字
  6
JWW_DASHED1
 62
     7
370
     9
100
AcDbLine
 10
-11005.14231016869
 20
1081.561261910451
 30
0.0
 11
-10692.64231016869
 21
1394.06126191046
 31
0.0
  0
LINE
  5
294
330
1F
100
AcDbEntity
  8
0-A_文字
  6
JWW_DASHED1
 62
     7
370
     9
100
AcDbLine
 10
-11146.56366640602
 20
1081.561261910463
 30
0.0
 11
-10834.06366640601
 21
1394.061261910471
 31
0.0
  0
LINE
  5
295
330
1F
100
AcDbEntity
  8
0-A_文字
  6
JWW_DASHED1
 62
     7
370
     9
100
AcDbLine
 10
-11287.98502264334
 20
1081.561261910474
 30
0.0
 11
-10975.48502264333
 21
1394.061261910483
 31
0.0
  0
LINE
  5
296
330
1F
100
AcDbEntity
  8
0-A_文字
  6
JWW_DASHED1
 62
     7
370
     9
100
AcDbLine
 10
-11429.40637888066
 20
1081.561261910485
 30
0.0
 11
-11116.90637888065
 21
1394.061261910494
 31
0.0
  0
LINE
  5
297
330
1F
100
AcDbEntity
  8
0-A_文字
  6
JWW_DASHED1
 62
     7
370
     9
100
AcDbLine
 10
-11570.82773511802
 20
1081.561261910461
 30
0.0
 11
-11258.32773511801
 21
1394.061261910468
 31
0.0
  0
LINE
  5
298
330
1F
100
AcDbEntity
  8
0-A_文字
  6
JWW_DASHED1
 62
     7
370
     9
100
AcDbLine
 10
-11712.24909135534
 20
1081.561261910474
 30
0.0
 11
-11399.74909135533
 21
1394.06126191048
 31
0.0
  0
LINE
  5
299
330
1F
100
AcDbEntity
  8
0-A_文字
  6
JWW_DASHED1
 62
     7
370
     9
100
AcDbLine
 10
-11853.67044759266
 20
1081.561261910487
 30
0.0
 11
-11541.17044759265
 21
1394.061261910492
 31
0.0
  0
LINE
  5
29A
330
1F
100
AcDbEntity
  8
0-A_文字
  6
JWW_DASHED1
 62
     7
370
     9
100
AcDbLine
 10
-11995.09180382978
 20
1081.561261910514
 30
0.0
 11
-11682.59180382983
 21
1394.061261910467
 31
0.0
  0
LINE
  5
29B
330
1F
100
AcDbEntity
  8
0-A_文字
  6
JWW_DASHED1
 62
     7
370
     9
100
AcDbLine
 10
-12136.51316006718
 20
1081.561261910451
 30
0.0
 11
-11824.01316006717
 21
1394.06126191046
 31
0.0
  0
LINE
  5
29C
330
1F
100
AcDbEntity
  8
0-A_文字
  6
JWW_DASHED1
 62
     7
370
     9
100
AcDbLine
 10
-12277.93451630451
 20
1081.561261910461
 30
0.0
 11
-11965.43451630449
 21
1394.061261910471
 31
0.0
  0
LINE
  5
29D
330
1F
100
AcDbEntity
  8
0-A_文字
  6
JWW_DASHED1
 62
     7
370
     9
100
AcDbLine
 10
-12419.35587254182
 20
1081.561261910474
 30
0.0
 11
-12106.85587254182
 21
1394.061261910483
 31
0.0
  0
LINE
  5
29E
330
1F
100
AcDbEntity
  8
0-A_文字
  6
JWW_DASHED1
 62
     7
370
     9
100
AcDbLine
 10
-12560.77722877917
 20
1081.561261910458
 30
0.0
 11
-12248.27722877917
 21
1394.061261910464
 31
0.0
  0
LINE
  5
29F
330
1F
100
AcDbEntity
  8
0-A_文字
  6
JWW_DASHED1
 62
     7
370
     9
100
AcDbLine
 10
-12702.19858501649
 20
1081.56126191047
 30
0.0
 11
-12389.69858501649
 21
1394.061261910477
 31
0.0
  0
LINE
  5
2A0
330
1F
100
AcDbEntity
  8
0-A_文字
  6
JWW_DASHED1
 62
     7
370
     9
100
AcDbLine
 10
-12843.61994125382
 20
1081.561261910483
 30
0.0
 11
-12531.11994125381
 21
1394.061261910488
 31
0.0
  0
LINE
  5
2A1
330
1F
100
AcDbEntity
  8
0-A_文字
  6
JWW_DASHED1
 62
     7
370
     9
100
AcDbLine
 10
-12985.04129749114
 20
1081.561261910495
 30
0.0
 11
-12672.54129749113
 21
1394.061261910501
 31
0.0
  0
LINE
  5
2A2
330
1F
100
AcDbEntity
  8
0-A_文字
  6
JWW_DASHED1
 62
     7
370
     9
100
AcDbLine
 10
-13126.46265372826
 20
1081.561261910522
 30
0.0
 11
-12813.96265372831
 21
1394.061261910475
 31
0.0
  0
LINE
  5
2A3
330
1F
100
AcDbEntity
  8
0-A_文字
  6
JWW_DASHED1
 62
     7
370
     9
100
AcDbLine
 10
4642.559211558822
 20
1081.56126191048
 30
0.0
 11
4955.059211558827
 21
1394.061261910485
 31
0.0
  0
LINE
  5
2A4
330
1F
100
AcDbEntity
  8
0-A_文字
  6
JWW_DASHED1
 62
     7
370
     9
100
AcDbLine
 10
4501.137855321454
 20
1081.561261910446
 30
0.0
 11
4813.63785532146
 21
1394.061261910451
 31
0.0
  0
LINE
  5
2A5
330
1F
100
AcDbEntity
  8
0-A_文字
  6
JWW_DASHED1
 62
     7
370
     9
100
AcDbLine
 10
4359.716499084132
 20
1081.561261910457
 30
0.0
 11
4672.216499084137
 21
1394.061261910464
 31
0.0
  0
LINE
  5
2A6
330
1F
100
AcDbEntity
  8
0-A_文字
  6
JWW_DASHED1
 62
     7
370
     9
100
AcDbLine
 10
4218.29514284681
 20
1081.561261910468
 30
0.0
 11
4530.795142846816
 21
1394.061261910475
 31
0.0
  0
LINE
  5
2A7
330
1F
100
AcDbEntity
  8
0-A_文字
  6
Continuous
 62
     7
370
     9
100
AcDbLine
 10
-13697.7543755696
 20
1081.561261910465
 30
0.0
 11
-9240.762590439197
 21
1081.561261910465
 31
0.0
  0
LINE
  5
2A8
330
1F
100
AcDbEntity
  8
0-A_文字
  6
Continuous
 62
     7
370
     9
100
AcDbLine
 10
-13697.7543755696
 20
1394.061261910465
 30
0.0
 11
-8940.7625904392
 21
1394.061261910465
 31
0.0
  0
LINE
  5
2A9
330
1F
100
AcDbEntity
  8
0-A_文字
  6
JWW_DASHED1
 62
     7
370
     9
100
AcDbLine
 10
-13267.88400996565
 20
1081.561261910465
 30
0.0
 11
-12955.38400996566
 21
1394.06126191046
 31
0.0
  0
LINE
  5
2AA
330
1F
100
AcDbEntity
  8
0-A_文字
  6
JWW_DASHED1
 62
     7
370
     9
100
AcDbLine
 10
-13409.30536620299
 20
1081.561261910465
 30
0.0
 11
-13096.80536620298
 21
1394.061261910471
 31
0.0
  0
LINE
  5
2AB
330
1F
100
AcDbEntity
  8
0-A_文字
  6
JWW_DASHED1
 62
     7
370
     9
100
AcDbLine
 10
-13550.72672244017
 20
1081.561261910465
 30
0.0
 11
-13238.22672244016
 21
1394.061261910475
 31
0.0
  0
LINE
  5
2AC
330
1F
100
AcDbEntity
  8
0-A_文字
  6
JWW_DASHED1
 62
     7
370
     9
100
AcDbLine
 10
-13692.1480786775
 20
1081.561261910465
 30
0.0
 11
-13379.64807867751
 21
1394.06126191046
 31
0.0
  0
LINE
  5
2AD
330
1F
100
AcDbEntity
  8
0-A_文字
  6
JWW_DASHED1
 62
     7
370
     9
100
AcDbLine
 10
-13696.06477037541
 20
1219.065926449893
 30
0.0
 11
-13521.06943491483
 21
1394.061261910471
 31
0.0
  0
LINE
  5
2AE
330
1F
100
AcDbEntity
  8
0-A_文字
  6
JWW_DASHED1
 62
     7
370
     9
100
AcDbLine
 10
5208.244636508158
 20
1081.561261910484
 30
0.0
 11
5520.744636508163
 21
1394.06126191049
 31
0.0
  0
LINE
  5
2AF
330
1F
100
AcDbEntity
  8
0-A_文字
  6
JWW_DASHED1
 62
     7
370
     9
100
AcDbLine
 10
5773.930061457494
 20
1081.561261910488
 30
0.0
 11
6086.4300614575
 21
1394.061261910494
 31
0.0
  0
LINE
  5
2B0
330
1F
100
AcDbEntity
  8
0-A_文字
  6
JWW_DASHED1
 62
     7
370
     9
100
AcDbLine
 10
5632.508705220127
 20
1081.561261910454
 30
0.0
 11
5945.008705220132
 21
1394.06126191046
 31
0.0
  0
LINE
  5
2B1
330
1F
100
AcDbEntity
  8
0-A_文字
  6
JWW_DASHED1
 62
     7
370
     9
100
AcDbLine
 10
6339.615486406832
 20
1081.561261910492
 30
0.0
 11
6652.115486406838
 21
1394.061261910498
 31
0.0
  0
LINE
  5
2B2
330
1F
100
AcDbEntity
  8
0-A_文字
  6
JWW_DASHED1
 62
     7
370
     9
100
AcDbLine
 10
6198.194130169463
 20
1081.561261910458
 30
0.0
 11
6510.694130169471
 21
1394.061261910464
 31
0.0
  0
LINE
  5
2B3
330
1F
100
AcDbEntity
  8
0-A_文字
  6
JWW_DASHED1
 62
     7
370
     9
100
AcDbLine
 10
6905.300911356166
 20
1081.561261910497
 30
0.0
 11
7217.800911356171
 21
1394.061261910502
 31
0.0
  0
LINE
  5
2B4
330
1F
100
AcDbEntity
  8
0-A_文字
  6
JWW_DASHED1
 62
     7
370
     9
100
AcDbLine
 10
6763.879555118799
 20
1081.561261910463
 30
0.0
 11
7076.379555118804
 21
1394.061261910468
 31
0.0
  0
LINE
  5
2B5
330
1F
100
AcDbEntity
  8
0-A_文字
  6
JWW_DASHED1
 62
     7
370
     9
100
AcDbLine
 10
7329.564980068138
 20
1081.561261910467
 30
0.0
 11
7367.249959286419
 21
1119.246241128748
 31
0.0
  0
LINE
  5
2B6
330
1F
100
AcDbEntity
  8
0-A_文字
  6
JWW_DASHED1
 62
     7
370
     9
100
AcDbLine
 10
5066.823280270791
 20
1081.56126191045
 30
0.0
 11
5379.323280270806
 21
1394.061261910465
 31
0.0
  0
LINE
  5
2B7
330
1F
100
AcDbEntity
  8
0-A_文字
  6
JWW_DASHED1
 62
     7
370
     9
100
AcDbLine
 10
4925.401924033468
 20
1081.561261910461
 30
0.0
 11
5237.901924033476
 21
1394.061261910465
 31
0.0
  0
LINE
  5
2B8
330
1F
100
AcDbEntity
  8
0-A_文字
  6
JWW_DASHED1
 62
     7
370
     9
100
AcDbLine
 10
5491.087348982805
 20
1081.561261910465
 30
0.0
 11
5803.587348982808
 21
1394.061261910465
 31
0.0
  0
LINE
  5
2B9
330
1F
100
AcDbEntity
  8
0-A_文字
  6
JWW_DASHED1
 62
     7
370
     9
100
AcDbLine
 10
5349.665992745478
 20
1081.561261910471
 30
0.0
 11
5662.165992745471
 21
1394.061261910465
 31
0.0
  0
LINE
  5
2BA
330
1F
100
AcDbEntity
  8
0-A_文字
  6
JWW_DASHED1
 62
     7
370
     9
100
AcDbLine
 10
4783.980567796141
 20
1081.561261910467
 30
0.0
 11
5096.480567796139
 21
1394.061261910465
 31
0.0
  0
LINE
  5
2BB
330
1F
100
AcDbEntity
  8
0-A_文字
  6
JWW_DASHED1
 62
     7
370
     9
100
AcDbLine
 10
5915.351417694814
 20
1081.561261910475
 30
0.0
 11
6227.851417694804
 21
1394.061261910465
 31
0.0
  0
LINE
  5
2BC
330
1F
100
AcDbEntity
  8
0-A_文字
  6
JWW_DASHED1
 62
     7
370
     9
100
AcDbLine
 10
6056.772773932142
 20
1081.56126191047
 30
0.0
 11
6369.27277393214
 21
1394.061261910465
 31
0.0
  0
LINE
  5
2BD
330
1F
100
AcDbEntity
  8
0-A_文字
  6
JWW_DASHED1
 62
     7
370
     9
100
AcDbLine
 10
6481.036842644148
 20
1081.56126191048
 30
0.0
 11
6793.536842644137
 21
1394.061261910465
 31
0.0
  0
LINE
  5
2BE
330
1F
100
AcDbEntity
  8
0-A_文字
  6
JWW_DASHED1
 62
     7
370
     9
100
AcDbLine
 10
6622.458198881476
 20
1081.561261910474
 30
0.0
 11
6934.958198881471
 21
1394.061261910465
 31
0.0
  0
LINE
  5
2BF
330
1F
100
AcDbEntity
  8
0-A_文字
  6
JWW_DASHED1
 62
     7
370
     9
100
AcDbLine
 10
7046.722267593488
 20
1081.561261910484
 30
0.0
 11
7359.222267593468
 21
1394.061261910465
 31
0.0
  0
LINE
  5
2C0
330
1F
100
AcDbEntity
  8
0-A_文字
  6
JWW_DASHED1
 62
     7
370
     9
100
AcDbLine
 10
7188.143623830815
 20
1081.561261910478
 30
0.0
 11
7367.249959286419
 21
1260.667597366079
 31
0.0
  0
LINE
  5
2C1
330
1F
100
AcDbEntity
  8
0-A_文字
  6
Continuous
 62
     7
370
     9
100
AcDbLine
 10
-9240.762590439197
 20
1394.061261910465
 30
0.0
 11
-9240.762590439197
 21
-1455.938738089535
 31
0.0
  0
LINE
  5
2C2
330
1F
100
AcDbEntity
  8
0-A_文字
  6
Continuous
 62
     7
370
     9
100
AcDbLine
 10
-8715.762590439203
 20
2544.94917448725
 30
0.0
 11
-8715.762590439203
 21
1671.704177697256
 31
0.0
  0
LINE
  5
2C3
330
1F
100
AcDbEntity
  8
0-A_文字
  6
Continuous
 62
     7
370
     9
100
AcDbLine
 10
3827.72761119639
 20
1394.061261910465
 30
0.0
 11
3827.72761119639
 21
-1455.938738089535
 31
0.0
  0
LINE
  5
2C4
330
1F
100
AcDbEntity
  8
0-A_文字
  6
JWW_DASHED1
 62
     7
370
     9
100
AcDbLine
 10
4136.924291600711
 20
1081.561261910473
 30
0.0
 11
4449.42429160072
 21
1394.061261910481
 31
0.0
  0
LINE
  5
2C5
330
1F
100
AcDbEntity
  8
0-A_文字
  6
JWW_DASHED1
 62
     7
370
     9
100
AcDbLine
 10
3995.502935363389
 20
1081.561261910484
 30
0.0
 11
4308.002935363397
 21
1394.061261910491
 31
0.0
  0
LINE
  5
2C6
330
1F
100
AcDbEntity
  8
0-A_文字
  6
JWW_DASHED1
 62
     7
370
     9
100
AcDbLine
 10
3854.081579126263
 20
1081.56126191051
 30
0.0
 11
4166.58157912622
 21
1394.061261910465
 31
0.0
  0
LINE
  5
2C7
330
1F
100
AcDbEntity
  8
0-A_文字
  6
JWW_DASHED1
 62
     7
370
     9
100
AcDbLine
 10
3827.727611196382
 20
1196.62865021796
 30
0.0
 11
4025.160222888898
 21
1394.061261910477
 31
0.0
  0
LINE
  5
2C8
330
1F
100
AcDbEntity
  8
0-A_文字
  6
JWW_DASHED1
 62
     7
370
     9
100
AcDbLine
 10
3827.727611196367
 20
1338.050006455279
 30
0.0
 11
3883.738866651576
 21
1394.061261910488
 31
0.0
  0
LINE
  5
2C9
330
1F
100
AcDbEntity
  8
0-A_文字
  6
Continuous
 62
     7
370
     9
100
AcDbLine
 10
3527.72761119639
 20
1394.061261910465
 30
0.0
 11
7367.249959286419
 21
1394.061261910465
 31
0.0
  0
LINE
  5
2CA
330
1F
100
AcDbEntity
  8
0-A_文字
  6
Continuous
 62
     7
370
     9
100
AcDbLine
 10
3827.72761119639
 20
1081.561261910465
 30
0.0
 11
7367.249959286419
 21
1081.561261910465
 31
0.0
  0
LINE
  5
2CB
330
1F
100
AcDbEntity
  8
0-A_文字
  6
JWW_HOJO
 62
     7
370
     9
100
AcDbLine
 10
3302.72761119639
 20
1394.061261910465
 30
0.0
 11
3302.72761119639
 21
-1480.938738089513
 31
0.0
  0
LINE
  5
2CC
330
1F
100
AcDbEntity
  8
0-A_文字
  6
Continuous
 62
     7
370
     9
100
AcDbLine
 10
3302.72761119639
 20
2544.94917448725
 30
0.0
 11
3302.72761119639
 21
1641.528643978413
 31
0.0
  0
LINE
  5
2CD
330
1F
100
AcDbEntity
  8
0-0_補助線
  6
JWW_HOJO
 62
     3
370
     5
100
AcDbLine
 10
-2706.517489621405
 20
1358.79487465952
 30
0.0
 11
-2706.517489621405
 21
-5125.769551514185
 31
0.0
  0
TEXT
  5
2CE
330
1F
100
AcDbEntity
  8
0-A_文字
  6
Continuous
 62
     7
370
   211
100
AcDbText
 10
-4433.557732820623
 20
2658.934043327734
 30
0.0
 40
228.6
  1
枠内寸法＝1,612
 41
1.155555555555555
  7
ＭＳ ゴシック
100
AcDbText
  0
TEXT
  5
2CF
330
1F
100
AcDbEntity
  8
0-A_文字
  6
Continuous
 62
     7
370
   211
100
AcDbText
 10
-3574.045507919063
 20
3611.366508759193
 30
0.0
 40
228.6
  1
1,630
 41
1.133333333333333
  7
ＭＳ ゴシック
100
AcDbText
  0
LINE
  5
2D0
330
1F
100
AcDbEntity
  8
0-1_通り芯
  6
JWW_CENTER1
 62
     3
370
     5
100
AcDbLine
 10
-11315.7625904392
 20
4775.809354510795
 30
0.0
 11
-11315.7625904392
 21
-4051.401244845074
 31
0.0
  0
LINE
  5
2D1
330
1F
100
AcDbEntity
  8
0-0_補助線
  6
JWW_HOJO
 62
     3
370
     5
100
AcDbLine
 10
-17618.38587448695
 20
3503.048756464136
 30
0.0
 11
-17618.38587448695
 21
-5796.31496797356
 31
0.0
  0
LINE
  5
2D2
330
1F
100
AcDbEntity
  8
0-A_文字
  6
Continuous
 62
     7
370
     9
100
AcDbLine
 10
-18498.74515350974
 20
-1143.438738089535
 30
0.0
 11
-14120.04285839314
 21
-1143.438738089535
 31
0.0
  0
LWPOLYLINE
  5
2D3
330
1F
100
AcDbEntity
  8
0-A_文字
  6
Continuous
 62
     7
370
     9
100
AcDbPolyline
 90
        4
 70
     1
 43
10.0
 10
-18361.18887127055
 20
-1143.438738089535
 42
0.4142135623731
 10
-18366.18887127055
 20
-1138.438738089534
 42
0.4142135623731
 10
-18371.18887127055
 20
-1143.438738089535
 42
0.4142135623731
 10
-18366.18887127055
 20
-1148.438738089535
 42
0.4142135623731
  0
LWPOLYLINE
  5
2D4
330
1F
100
AcDbEntity
  8
0-A_文字
  6
Continuous
 62
     7
370
     9
100
AcDbPolyline
 90
        4
 70
     1
 43
10.0
 10
-18361.18887127055
 20
-1455.938738089535
 42
0.4142135623731
 10
-18366.18887127055
 20
-1450.938738089534
 42
0.4142135623731
 10
-18371.18887127055
 20
-1455.938738089535
 42
0.4142135623731
 10
-18366.18887127055
 20
-1460.938738089535
 42
0.4142135623731
  0
LWPOLYLINE
  5
2D5
330
1F
100
AcDbEntity
  8
0-A_文字
  6
Continuous
 62
     7
370
     9
100
AcDbPolyline
 90
        4
 70
     1
 43
10.0
 10
-19061.18887127055
 20
-1455.938738089535
 42
0.4142135623731
 10
-19066.18887127055
 20
-1450.938738089534
 42
0.4142135623731
 10
-19071.18887127055
 20
-1455.938738089535
 42
0.4142135623731
 10
-19066.18887127055
 20
-1460.938738089535
 42
0.4142135623731
  0
TEXT
  5
2D6
330
1F
100
AcDbEntity
  8
0-A_文字
  6
Continuous
 62
     7
370
   211
100
AcDbText
 10
-18517.28813755418
 20
-1549.688738089535
 30
0.0
 40
228.6
  1
12.5
 50
90.0
 41
1.125
  7
ＭＳ ゴシック
100
AcDbText
  0
LINE
  5
2D7
330
1F
100
AcDbEntity
  8
0-A_文字
  6
Continuous
 62
     7
370
     9
100
AcDbLine
 10
-17618.38587448695
 20
-1143.438738089535
 30
0.0
 11
-17618.38587448695
 21
-5492.054801965861
 31
0.0
  0
LINE
  5
2D8
330
1F
100
AcDbEntity
  8
0-3_仕上
  6
Continuous
 62
     7
370
     9
100
AcDbLine
 10
-17930.88587448695
 20
-1455.938738089535
 30
0.0
 11
-17930.88587448695
 21
-5492.054801965861
 31
0.0
  0
LINE
  5
2D9
330
1F
100
AcDbEntity
  8
0-A_文字
  6
Continuous
 62
     7
370
     9
100
AcDbLine
 10
-18366.18887127055
 20
-1455.938738089535
 30
0.0
 11
-17618.38587448695
 21
-1455.938738089535
 31
0.0
  0
LINE
  5
2DA
330
1F
100
AcDbEntity
  8
0-A_文字
  6
JWW_DASHED1
 62
     7
370
     9
100
AcDbLine
 10
-17833.18398128364
 20
-4524.296325950373
 30
0.0
 11
-17618.38587448695
 21
-4309.498219153676
 31
0.0
  0
LINE
  5
2DB
330
1F
100
AcDbEntity
  8
0-A_文字
  6
JWW_DASHED1
 62
     7
370
     9
100
AcDbLine
 10
-17930.88587448695
 20
-2924.941944306228
 30
0.0
 11
-17618.38587448695
 21
-2612.441944306224
 31
0.0
  0
LINE
  5
2DC
330
1F
100
AcDbEntity
  8
0-A_文字
  6
JWW_DASHED1
 62
     7
370
     9
100
AcDbLine
 10
-17930.88587448695
 20
-2783.520588068885
 30
0.0
 11
-17618.38587448695
 21
-2471.020588068883
 31
0.0
  0
LINE
  5
2DD
330
1F
100
AcDbEntity
  8
0-A_文字
  6
JWW_DASHED1
 62
     7
370
     9
100
AcDbLine
 10
-17930.88587448695
 20
-2642.099231831556
 30
0.0
 11
-17618.38587448695
 21
-2329.599231831553
 31
0.0
  0
LINE
  5
2DE
330
1F
100
AcDbEntity
  8
0-A_文字
  6
JWW_DASHED1
 62
     7
370
     9
100
AcDbLine
 10
-17930.88587448695
 20
-2500.677875594212
 30
0.0
 11
-17618.38587448695
 21
-2188.177875594212
 31
0.0
  0
LINE
  5
2DF
330
1F
100
AcDbEntity
  8
0-A_文字
  6
JWW_DASHED1
 62
     7
370
     9
100
AcDbLine
 10
-17930.88587448695
 20
-2359.256519357061
 30
0.0
 11
-17618.38587448695
 21
-2046.756519357061
 31
0.0
  0
LINE
  5
2E0
330
1F
100
AcDbEntity
  8
0-A_文字
  6
JWW_DASHED1
 62
     7
370
     9
100
AcDbLine
 10
-17930.88587448695
 20
-2217.835163119731
 30
0.0
 11
-17618.38587448695
 21
-1905.335163119729
 31
0.0
  0
LINE
  5
2E1
330
1F
100
AcDbEntity
  8
0-A_文字
  6
JWW_DASHED1
 62
     7
370
     9
100
AcDbLine
 10
-17930.88587448695
 20
-3490.627369255377
 30
0.0
 11
-17618.38587448695
 21
-3178.127369255375
 31
0.0
  0
LINE
  5
2E2
330
1F
100
AcDbEntity
  8
0-A_文字
  6
JWW_DASHED1
 62
     7
370
     9
100
AcDbLine
 10
-17930.88587448695
 20
-3349.206013018043
 30
0.0
 11
-17618.38587448695
 21
-3036.706013018041
 31
0.0
  0
LINE
  5
2E3
330
1F
100
AcDbEntity
  8
0-A_文字
  6
JWW_DASHED1
 62
     7
370
     9
100
AcDbLine
 10
-17930.88587448695
 20
-3207.784656780868
 30
0.0
 11
-17618.38587448695
 21
-2895.284656780868
 31
0.0
  0
LINE
  5
2E4
330
1F
100
AcDbEntity
  8
0-A_文字
  6
JWW_DASHED1
 62
     7
370
     9
100
AcDbLine
 10
-17930.88587448695
 20
-3066.363300543561
 30
0.0
 11
-17618.38587448695
 21
-2753.863300543559
 31
0.0
  0
LINE
  5
2E5
330
1F
100
AcDbEntity
  8
0-A_文字
  6
JWW_DASHED1
 62
     7
370
     9
100
AcDbLine
 10
-17930.88587448695
 20
-4056.312794204528
 30
0.0
 11
-17618.38587448695
 21
-3743.812794204526
 31
0.0
  0
LINE
  5
2E6
330
1F
100
AcDbEntity
  8
0-A_文字
  6
JWW_DASHED1
 62
     7
370
     9
100
AcDbLine
 10
-17930.88587448695
 20
-3914.891437967194
 30
0.0
 11
-17618.38587448695
 21
-3602.391437967191
 31
0.0
  0
LINE
  5
2E7
330
1F
100
AcDbEntity
  8
0-A_文字
  6
JWW_DASHED1
 62
     7
370
     9
100
AcDbLine
 10
-17930.88587448695
 20
-3773.470081730019
 30
0.0
 11
-17618.38587448695
 21
-3460.970081730019
 31
0.0
  0
LINE
  5
2E8
330
1F
100
AcDbEntity
  8
0-A_文字
  6
JWW_DASHED1
 62
     7
370
     9
100
AcDbLine
 10
-17930.88587448695
 20
-3632.048725492712
 30
0.0
 11
-17618.38587448695
 21
-3319.548725492709
 31
0.0
  0
LINE
  5
2E9
330
1F
100
AcDbEntity
  8
0-A_文字
  6
JWW_DASHED1
 62
     7
370
     9
100
AcDbLine
 10
-17930.88587448695
 20
-4480.576862916345
 30
0.0
 11
-17618.38587448695
 21
-4168.076862916342
 31
0.0
  0
LINE
  5
2EA
330
1F
100
AcDbEntity
  8
0-A_文字
  6
JWW_DASHED1
 62
     7
370
     9
100
AcDbLine
 10
-17930.88587448695
 20
-4339.15550667917
 30
0.0
 11
-17618.38587448695
 21
-4026.65550667917
 31
0.0
  0
LINE
  5
2EB
330
1F
100
AcDbEntity
  8
0-A_文字
  6
JWW_DASHED1
 62
     7
370
     9
100
AcDbLine
 10
-17930.88587448695
 20
-4197.734150441864
 30
0.0
 11
-17618.38587448695
 21
-3885.23415044186
 31
0.0
  0
LINE
  5
2EC
330
1F
100
AcDbEntity
  8
0-A_文字
  6
JWW_DASHED1
 62
     7
370
     9
100
AcDbLine
 10
-17691.76262504631
 20
-4524.296325950373
 30
0.0
 11
-17618.38587448695
 21
-4450.919575391012
 31
0.0
  0
LINE
  5
2ED
330
1F
100
AcDbEntity
  8
0-A_文字
  6
JWW_DASHED1
 62
     7
370
     9
100
AcDbLine
 10
-17930.88587448695
 20
-2076.41380688239
 30
0.0
 11
-17618.38587448695
 21
-1763.913806882388
 31
0.0
  0
LINE
  5
2EE
330
1F
100
AcDbEntity
  8
0-A_文字
  6
JWW_DASHED1
 62
     7
370
     9
100
AcDbLine
 10
-17930.88587448695
 20
-1934.992450645061
 30
0.0
 11
-17618.38587448695
 21
-1622.492450645058
 31
0.0
  0
LINE
  5
2EF
330
1F
100
AcDbEntity
  8
0-A_文字
  6
JWW_DASHED1
 62
     7
370
     9
100
AcDbLine
 10
-17930.88587448695
 20
-1793.571094407717
 30
0.0
 11
-17618.38587448695
 21
-1481.071094407717
 31
0.0
  0
LINE
  5
2F0
330
1F
100
AcDbEntity
  8
0-A_文字
  6
JWW_DASHED1
 62
     7
370
     9
100
AcDbLine
 10
-17930.88587448695
 20
-1652.149738170566
 30
0.0
 11
-17618.38587448695
 21
-1339.649738170566
 31
0.0
  0
LINE
  5
2F1
330
1F
100
AcDbEntity
  8
0-A_文字
  6
JWW_DASHED1
 62
     7
370
     9
100
AcDbLine
 10
-17930.88587448695
 20
-1510.728381933236
 30
0.0
 11
-17618.38587448695
 21
-1198.228381933234
 31
0.0
  0
LINE
  5
2F2
330
1F
100
AcDbEntity
  8
0-A_文字
  6
JWW_DASHED1
 62
     7
370
     9
100
AcDbLine
 10
-18441.78165559241
 20
-1455.938738089535
 30
0.0
 11
-18129.28165559241
 21
-1143.438738089535
 31
0.0
  0
LINE
  5
2F3
330
1F
100
AcDbEntity
  8
0-A_文字
  6
JWW_DASHED1
 62
     7
370
     9
100
AcDbLine
 10
-18300.36029935526
 20
-1455.938738089535
 30
0.0
 11
-17987.86029935526
 21
-1143.438738089535
 31
0.0
  0
LINE
  5
2F4
330
1F
100
AcDbEntity
  8
0-A_文字
  6
JWW_DASHED1
 62
     7
370
     9
100
AcDbLine
 10
-18158.93894311792
 20
-1455.938738089535
 30
0.0
 11
-17846.43894311792
 21
-1143.438738089535
 31
0.0
  0
LINE
  5
2F5
330
1F
100
AcDbEntity
  8
0-A_文字
  6
JWW_DASHED1
 62
     7
370
     9
100
AcDbLine
 10
-18017.51758688059
 20
-1455.938738089535
 30
0.0
 11
-17705.01758688059
 21
-1143.438738089535
 31
0.0
  0
LINE
  5
2F6
330
1F
100
AcDbEntity
  8
0-3_仕上
  6
Continuous
 62
     7
370
     9
100
AcDbLine
 10
-17618.38587448695
 20
-1893.438738089535
 30
0.0
 11
-17618.38587448695
 21
-1143.438738089535
 31
0.0
  0
LINE
  5
2F7
330
1F
100
AcDbEntity
  8
0-3_仕上
  6
Continuous
 62
     7
370
     9
100
AcDbLine
 10
-18368.38587448695
 20
-1143.438738089535
 30
0.0
 11
-17618.38587448695
 21
-1143.438738089535
 31
0.0
  0
LINE
  5
2F8
330
1F
100
AcDbEntity
  8
0-1_通り芯
  6
JWW_CENTER1
 62
     3
370
     5
100
AcDbLine
 10
-17744.93406443443
 20
-30.93873808953447
 30
0.0
 11
7287.110134460595
 21
-30.93873808953447
 31
0.0
  0
LINE
  5
2F9
330
1F
100
AcDbEntity
  8
0-0_補助線
  6
JWW_HOJO
 62
     3
370
     5
100
AcDbLine
 10
-17744.93406443443
 20
1081.561261910465
 30
0.0
 11
7287.110134460595
 21
1081.561261910465
 31
0.0
  0
LINE
  5
2FA
330
1F
100
AcDbEntity
  8
0-A_文字
  6
Continuous
 62
     7
370
     9
100
AcDbLine
 10
-17618.38587448695
 20
1081.561261910465
 30
0.0
 11
-17618.38587448695
 21
-1143.438738089535
 31
0.0
  0
LINE
  5
2FB
330
1F
100
AcDbEntity
  8
0-A_文字
  6
JWW_DASHED1
 62
     7
370
     9
100
AcDbLine
 10
-17829.02912389849
 20
1081.561261910491
 30
0.0
 11
-17516.52912389848
 21
1394.0612619105
 31
0.0
  0
LINE
  5
2FC
330
1F
100
AcDbEntity
  8
0-A_文字
  6
JWW_DASHED1
 62
     7
370
     9
100
AcDbLine
 10
-17970.45048013561
 20
1081.561261910521
 30
0.0
 11
-17657.95048013566
 21
1394.061261910473
 31
0.0
  0
LINE
  5
2FD
330
1F
100
AcDbEntity
  8
0-A_文字
  6
JWW_DASHED1
 62
     7
370
     9
100
AcDbLine
 10
-18111.87183637299
 20
1081.561261910478
 30
0.0
 11
-17799.37183637299
 21
1394.061261910484
 31
0.0
  0
LINE
  5
2FE
330
1F
100
AcDbEntity
  8
0-A_文字
  6
JWW_DASHED1
 62
     7
370
     9
100
AcDbLine
 10
-18253.29319261034
 20
1081.56126191046
 30
0.0
 11
-17940.79319261033
 21
1394.061261910467
 31
0.0
  0
LINE
  5
2FF
330
1F
100
AcDbEntity
  8
0-A_文字
  6
JWW_DASHED1
 62
     7
370
     9
100
AcDbLine
 10
-18394.71454884769
 20
1081.561261910447
 30
0.0
 11
-18082.21454884768
 21
1394.061261910456
 31
0.0
  0
LINE
  5
300
330
1F
100
AcDbEntity
  8
0-A_文字
  6
JWW_DASHED1
 62
     7
370
     9
100
AcDbLine
 10
-18498.74515350974
 20
1118.952013485725
 30
0.0
 11
-18223.635905085
 21
1394.061261910468
 31
0.0
  0
LINE
  5
301
330
1F
100
AcDbEntity
  8
0-A_文字
  6
JWW_DASHED1
 62
     7
370
     9
100
AcDbLine
 10
-18498.74515350974
 20
1260.373369723058
 30
0.0
 11
-18365.05726132232
 21
1394.06126191048
 31
0.0
  0
LINE
  5
302
330
1F
100
AcDbEntity
  8
0-A_文字
  6
Continuous
 62
     7
370
     9
100
AcDbLine
 10
-18498.74515350974
 20
1394.061261910465
 30
0.0
 11
-14120.04285839314
 21
1394.061261910465
 31
0.0
  0
LINE
  5
303
330
1F
100
AcDbEntity
  8
0-A_文字
  6
Continuous
 62
     7
370
     9
100
AcDbLine
 10
-18498.74515350974
 20
1081.561261910465
 30
0.0
 11
-14120.04285839314
 21
1081.561261910465
 31
0.0
  0
LWPOLYLINE
  5
304
330
1F
100
AcDbEntity
  8
0-A_文字
  6
Continuous
 62
     7
370
     9
100
AcDbPolyline
 90
        4
 70
     1
 43
10.0
 10
-18361.18887127055
 20
1394.061261910465
 42
0.4142135623731
 10
-18366.18887127055
 20
1399.061261910466
 42
0.4142135623731
 10
-18371.18887127055
 20
1394.061261910465
 42
0.4142135623731
 10
-18366.18887127055
 20
1389.061261910465
 42
0.4142135623731
  0
TEXT
  5
305
330
1F
100
AcDbEntity
  8
0-A_文字
  6
Continuous
 62
     7
370
   211
100
AcDbText
 10
-18517.28813755418
 20
987.8112619104655
 30
0.0
 40
228.6
  1
12.5
 50
90.0
 41
1.125
  7
ＭＳ ゴシック
100
AcDbText
  0
LWPOLYLINE
  5
306
330
1F
100
AcDbEntity
  8
0-A_文字
  6
Continuous
 62
     7
370
     9
100
AcDbPolyline
 90
        4
 70
     1
 43
10.0
 10
-16500.88587448695
 20
4791.851314871848
 42
0.4142135623731
 10
-16505.88587448695
 20
4796.851314871848
 42
0.4142135623731
 10
-16510.88587448695
 20
4791.851314871848
 42
0.4142135623731
 10
-16505.88587448695
 20
4786.851314871848
 42
0.4142135623731
  0
TEXT
  5
307
330
1F
100
AcDbEntity
  8
0-A_文字
  6
Continuous
 62
     7
370
   211
100
AcDbText
 10
-18427.56224279362
 20
-249.0915023819923
 30
0.0
 40
228.6
  1
89
 50
90.0
 41
1.083333333333333
  7
ＭＳ ゴシック
100
AcDbText
  0
TEXT
  5
308
330
1F
100
AcDbEntity
  8
0-A_文字
  6
Continuous
 62
     7
370
   211
100
AcDbText
 10
-19116.2084144039
 20
-214.2233417941299
 30
0.0
 40
228.6
  1
114
 50
90.0
 41
1.111111111111111
  7
ＭＳ ゴシック
100
AcDbText
  0
LWPOLYLINE
  5
309
330
1F
100
AcDbEntity
  8
0-A_文字
  6
Continuous
 62
     7
370
     9
100
AcDbPolyline
 90
        4
 70
     1
 43
10.0
 10
5907.727611196391
 20
4791.851314871848
 42
0.4142135623731
 10
5902.727611196391
 20
4796.851314871848
 42
0.4142135623731
 10
5897.727611196392
 20
4791.851314871848
 42
0.4142135623731
 10
5902.727611196391
 20
4786.851314871848
 42
0.4142135623731
  0
LINE
  5
30A
330
1F
100
AcDbEntity
  8
0-A_文字
  6
Continuous
 62
     7
370
     9
100
AcDbLine
 10
5902.727611196391
 20
4791.851314871848
 30
0.0
 11
5902.727611196391
 21
1641.528643978413
 31
0.0
  0
LWPOLYLINE
  5
30B
330
1F
100
AcDbEntity
  8
0-A_文字
  6
Continuous
 62
     7
370
     9
100
AcDbPolyline
 90
        4
 70
     1
 43
10.0
 10
5907.727609848777
 20
3548.582172874449
 42
0.4142135623731
 10
5902.727609848777
 20
3553.582172874449
 42
0.4142135623731
 10
5897.727609848778
 20
3548.582172874449
 42
0.4142135623731
 10
5902.727609848777
 20
3543.58217287445
 42
0.4142135623731
  0
LWPOLYLINE
  5
30C
330
1F
100
AcDbEntity
  8
0-A_文字
  6
Continuous
 62
     7
370
     9
100
AcDbPolyline
 90
        4
 70
     1
 43
10.0
 10
-11310.7625904392
 20
4791.851314871848
 42
0.4142135623731
 10
-11315.7625904392
 20
4796.851314871848
 42
0.4142135623731
 10
-11320.7625904392
 20
4791.851314871848
 42
0.4142135623731
 10
-11315.7625904392
 20
4786.851314871848
 42
0.4142135623731
  0
LWPOLYLINE
  5
30D
330
1F
100
AcDbEntity
  8
0-A_文字
  6
Continuous
 62
     7
370
     9
100
AcDbPolyline
 90
        4
 70
     1
 43
10.0
 10
-11310.7625904392
 20
3548.582172874449
 42
0.4142135623731
 10
-11315.7625904392
 20
3553.582172874449
 42
0.4142135623731
 10
-11320.7625904392
 20
3548.582172874449
 42
0.4142135623731
 10
-11315.7625904392
 20
3543.58217287445
 42
0.4142135623731
  0
LINE
  5
30E
330
1F
100
AcDbEntity
  8
0-A_文字
  6
Continuous
 62
     7
370
     9
100
AcDbLine
 10
-11315.7625904392
 20
3548.582172874449
 30
0.0
 11
-11315.7625904392
 21
2544.94917448725
 31
0.0
  0
LINE
  5
30F
330
1F
100
AcDbEntity
  8
0-A_文字
  6
Continuous
 62
     7
370
     9
100
AcDbLine
 10
-11315.7625904777
 20
2544.94917448725
 30
0.0
 11
-11315.7625904777
 21
1641.528643978413
 31
0.0
  0
LWPOLYLINE
  5
310
330
1F
100
AcDbEntity
  8
0-A_文字
  6
Continuous
 62
     7
370
     9
100
AcDbPolyline
 90
        4
 70
     1
 43
10.0
 10
-8710.7625904392
 20
-2923.594931724554
 42
0.4142135623731
 10
-8715.7625904392
 20
-2918.594931724554
 42
0.4142135623731
 10
-8720.7625904392
 20
-2923.594931724554
 42
0.4142135623731
 10
-8715.7625904392
 20
-2928.594931724554
 42
0.4142135623731
  0
LWPOLYLINE
  5
311
330
1F
100
AcDbEntity
  8
0-A_文字
  6
Continuous
 62
     7
370
     9
100
AcDbPolyline
 90
        4
 70
     1
 43
10.0
 10
3307.727611196373
 20
-2927.670182492724
 42
0.4142135623731
 10
3302.727611196373
 20
-2922.670182492724
 42
0.4142135623731
 10
3297.727611196373
 20
-2927.670182492724
 42
0.4142135623731
 10
3302.727611196373
 20
-2932.670182492724
 42
0.4142135623731
  0
LINE
  5
312
330
1F
100
AcDbEntity
  8
0-3_仕上
  6
Continuous
 62
     7
370
     9
100
AcDbLine
 10
-8715.7625904392
 20
-1455.938738089535
 30
0.0
 11
3302.727611196373
 21
-1455.938738089535
 31
0.0
  0
LINE
  5
313
330
1F
100
AcDbEntity
  8
0-A_文字
  6
Continuous
 62
     7
370
     9
100
AcDbLine
 10
-9640.762590439197
 20
-1680.938738089513
 30
0.0
 11
-9640.762590439197
 21
-2430.938738089513
 31
0.0
  0
LWPOLYLINE
  5
314
330
1F
100
AcDbEntity
  8
0-A_文字
  6
Continuous
 62
     7
370
     9
100
AcDbPolyline
 90
        4
 70
     1
 43
10.0
 10
-9635.762590439199
 20
-2923.594931724554
 42
0.4142135623731
 10
-9640.762590439197
 20
-2918.594931724554
 42
0.4142135623731
 10
-9645.762590439197
 20
-2923.594931724554
 42
0.4142135623731
 10
-9640.762590439197
 20
-2928.594931724554
 42
0.4142135623731
  0
LINE
  5
315
330
1F
100
AcDbEntity
  8
0-A_文字
  6
Continuous
 62
     7
370
     9
100
AcDbLine
 10
-14368.38587448697
 20
-2168.438738089513
 30
0.0
 11
-9640.762590439197
 21
-2168.438738089513
 31
0.0
  0
LINE
  5
316
330
1F
100
AcDbEntity
  8
0-A_文字
  6
Continuous
 62
     7
370
     9
100
AcDbLine
 10
-14593.38587448697
 20
-1943.438738089513
 30
0.0
 11
-9640.762590439197
 21
-1943.438738089513
 31
0.0
  0
LINE
  5
317
330
1F
100
AcDbEntity
  8
0-A_文字
  6
Continuous
 62
     7
370
     9
100
AcDbLine
 10
4227.72761119639
 20
-2430.938738089513
 30
0.0
 11
4227.72761119639
 21
-1680.938738089513
 31
0.0
  0
LINE
  5
318
330
1F
100
AcDbEntity
  8
0-A_文字
  6
Continuous
 62
     7
370
     9
100
AcDbLine
 10
4227.72761119639
 20
-1943.438738089513
 30
0.0
 11
7367.249959286416
 21
-1943.438738089513
 31
0.0
  0
LINE
  5
319
330
1F
100
AcDbEntity
  8
0-A_文字
  6
Continuous
 62
     7
370
     9
100
AcDbLine
 10
4227.72761119639
 20
-2168.438738089513
 30
0.0
 11
7367.249959286416
 21
-2168.438738089513
 31
0.0
  0
LWPOLYLINE
  5
31A
330
1F
100
AcDbEntity
  8
0-A_文字
  6
Continuous
 62
     7
370
     9
100
AcDbPolyline
 90
        4
 70
     1
 43
10.0
 10
4232.727611196389
 20
-2927.670182492724
 42
0.4142135623731
 10
4227.72761119639
 20
-2922.670182492724
 42
0.4142135623731
 10
4222.72761119639
 20
-2927.670182492724
 42
0.4142135623731
 10
4227.72761119639
 20
-2932.670182492724
 42
0.4142135623731
  0
LINE
  5
31B
330
1F
100
AcDbEntity
  8
0-A_文字
  6
Continuous
 62
     7
370
     9
100
AcDbLine
 10
4227.72761119639
 20
-2430.938738089513
 30
0.0
 11
-9640.762590439197
 21
-2430.938738089513
 31
0.0
  0
LINE
  5
31C
330
1F
100
AcDbEntity
  8
0-A_文字
  6
Continuous
 62
     7
370
     9
100
AcDbLine
 10
4227.72761119639
 20
-1680.938738089513
 30
0.0
 11
-9640.762590439197
 21
-1680.938738089513
 31
0.0
  0
TEXT
  5
31D
330
1F
100
AcDbEntity
  8
0-A_文字
  6
Continuous
 62
     7
370
   211
100
AcDbText
 10
3640.167137419407
 20
-2831.797691651914
 30
0.0
 40
228.6
  1
40
 41
1.083333333333333
  7
ＭＳ ゴシック
100
AcDbText
  0
TEXT
  5
31E
330
1F
100
AcDbEntity
  8
0-A_文字
  6
Continuous
 62
     7
370
   211
100
AcDbText
 10
-9302.107220413589
 20
-2832.384217273132
 30
0.0
 40
228.6
  1
40
 41
1.083333333333333
  7
ＭＳ ゴシック
100
AcDbText
  0
LINE
  5
31F
330
1F
100
AcDbEntity
  8
0-E
  6
JWW_DASHED1
 62
     7
370
     9
100
AcDbLine
 10
-9640.762590439197
 20
-1680.938738089513
 30
0.0
 11
-13255.88587448695
 21
-1680.938738089513
 31
0.0
  0
LINE
  5
320
330
1F
100
AcDbEntity
  8
0-E
  6
JWW_DASHED1
 62
     7
370
     9
100
AcDbLine
 10
-13255.88587448695
 20
-1680.938738089513
 30
0.0
 11
-13255.88587448695
 21
-2430.938738089513
 31
0.0
  0
LINE
  5
321
330
1F
100
AcDbEntity
  8
0-E
  6
JWW_DASHED1
 62
     7
370
     9
100
AcDbLine
 10
-9640.762590439197
 20
-2430.938738089513
 30
0.0
 11
-13255.88587448695
 21
-2430.938738089513
 31
0.0
  0
TEXT
  5
322
330
1F
100
AcDbEntity
  8
0-A_文字
  6
Continuous
 62
     7
370
   211
100
AcDbText
 10
4610.280514916723
 20
3654.955731929557
 30
0.0
 40
228.6
  1
95
 41
1.083333333333333
  7
ＭＳ ゴシック
100
AcDbText
  0
TEXT
  5
323
330
1F
100
AcDbEntity
  8
0-A_文字
  6
Continuous
 62
     7
370
   211
100
AcDbText
 10
-10285.12416157774
 20
3622.110297141257
 30
0.0
 40
228.6
  1
95
 41
1.083333333333333
  7
ＭＳ ゴシック
100
AcDbText
  0
LINE
  5
324
330
1F
100
AcDbEntity
  8
0-3_仕上
  6
Continuous
 62
     7
370
     9
100
AcDbLine
 10
4790.227611196391
 20
1081.561261910475
 30
0.0
 11
4790.227611196391
 21
-1143.438738089535
 31
0.0
  0
LINE
  5
325
330
1F
100
AcDbEntity
  8
0-3_仕上
  6
Continuous
 62
     7
370
     9
100
AcDbLine
 10
7015.227611196391
 20
1081.561261910475
 30
0.0
 11
7015.227611196391
 21
-1143.438738089535
 31
0.0
  0
LINE
  5
326
330
1F
100
AcDbEntity
  8
0-3_仕上
  6
Continuous
 62
     7
370
     9
100
AcDbLine
 10
5740.227611196391
 20
1081.561261910475
 30
0.0
 11
5740.227611196391
 21
-1143.438738089535
 31
0.0
  0
LINE
  5
327
330
1F
100
AcDbEntity
  8
0-3_仕上
  6
Continuous
 62
     7
370
     9
100
AcDbLine
 10
6065.227611196391
 20
1081.561261910475
 30
0.0
 11
6065.227611196391
 21
-1143.438738089535
 31
0.0
  0
LINE
  5
328
330
1F
100
AcDbEntity
  8
0-3_仕上
  6
Continuous
 62
     7
370
     9
100
AcDbLine
 10
3827.72761119639
 20
-1143.438738089535
 30
0.0
 11
4790.227611196391
 21
1081.561261910465
 31
0.0
  0
LINE
  5
329
330
1F
100
AcDbEntity
  8
0-3_仕上
  6
Continuous
 62
     7
370
     9
100
AcDbLine
 10
4790.227611196391
 20
-1143.438738089535
 30
0.0
 11
5740.227611196391
 21
1081.561261910465
 31
0.0
  0
LINE
  5
32A
330
1F
100
AcDbEntity
  8
0-3_仕上
  6
Continuous
 62
     7
370
     9
100
AcDbLine
 10
7015.227611196391
 20
1081.561261910475
 30
0.0
 11
6065.227611196391
 21
-1143.438738089535
 31
0.0
  0
LINE
  5
32B
330
1F
100
AcDbEntity
  8
0-2_柱
  6
Continuous
 62
     7
370
     9
100
AcDbLine
 10
-12428.2625904392
 20
1081.561261910465
 30
0.0
 11
-12428.2625904392
 21
-1143.438738089535
 31
0.0
  0
LINE
  5
32C
330
1F
100
AcDbEntity
  8
0-2_柱
  6
Continuous
 62
     7
370
     9
100
AcDbLine
 10
-10203.2625904392
 20
1081.561261910465
 30
0.0
 11
-10203.2625904392
 21
-1143.438738089535
 31
0.0
  0
LINE
  5
32D
330
1F
100
AcDbEntity
  8
0-2_柱
  6
Continuous
 62
     7
370
     9
100
AcDbLine
 10
-11478.2625904392
 20
1081.561261910465
 30
0.0
 11
-11478.2625904392
 21
-1143.438738089535
 31
0.0
  0
LINE
  5
32E
330
1F
100
AcDbEntity
  8
0-2_柱
  6
Continuous
 62
     7
370
     9
100
AcDbLine
 10
-11153.2625904392
 20
1081.561261910465
 30
0.0
 11
-11153.2625904392
 21
-1143.438738089535
 31
0.0
  0
LINE
  5
32F
330
1F
100
AcDbEntity
  8
0-2_柱
  6
Continuous
 62
     7
370
     9
100
AcDbLine
 10
-12428.2625904392
 20
-1143.438738089535
 30
0.0
 11
-11478.2625904392
 21
1081.561261910465
 31
0.0
  0
LINE
  5
330
330
1F
100
AcDbEntity
  8
0-2_柱
  6
Continuous
 62
     7
370
     9
100
AcDbLine
 10
-11153.2625904392
 20
-1143.438738089535
 30
0.0
 11
-10203.2625904392
 21
1081.561261910465
 31
0.0
  0
LINE
  5
331
330
1F
100
AcDbEntity
  8
0-2_柱
  6
Continuous
 62
     7
370
     9
100
AcDbLine
 10
-10203.2625904392
 20
-1143.438738089535
 30
0.0
 11
-9240.762590439197
 21
1081.561261910465
 31
0.0
  0
LINE
  5
332
330
1F
100
AcDbEntity
  8
0-2_柱
  6
Continuous
 62
     7
370
     9
100
AcDbLine
 10
-17618.38587448695
 20
1081.561261910465
 30
0.0
 11
-17618.38587448695
 21
-1143.438738089535
 31
0.0
  0
LINE
  5
333
330
1F
100
AcDbEntity
  8
0-2_柱
  6
Continuous
 62
     7
370
     9
100
AcDbLine
 10
-15393.38587448695
 20
1081.561261910465
 30
0.0
 11
-15393.38587448695
 21
-1143.438738089535
 31
0.0
  0
LINE
  5
334
330
1F
100
AcDbEntity
  8
0-2_柱
  6
Continuous
 62
     7
370
     9
100
AcDbLine
 10
-16668.38587448695
 20
1081.561261910465
 30
0.0
 11
-16668.38587448695
 21
-1143.438738089535
 31
0.0
  0
LINE
  5
335
330
1F
100
AcDbEntity
  8
0-2_柱
  6
Continuous
 62
     7
370
     9
100
AcDbLine
 10
-16343.38587448695
 20
1081.561261910465
 30
0.0
 11
-16343.38587448695
 21
-1143.438738089535
 31
0.0
  0
LINE
  5
336
330
1F
100
AcDbEntity
  8
0-2_柱
  6
Continuous
 62
     7
370
     9
100
AcDbLine
 10
-17618.38587448695
 20
-1143.438738089535
 30
0.0
 11
-16668.38587448695
 21
1081.561261910465
 31
0.0
  0
LINE
  5
337
330
1F
100
AcDbEntity
  8
0-2_柱
  6
Continuous
 62
     7
370
     9
100
AcDbLine
 10
-16343.38587448695
 20
-1143.438738089535
 30
0.0
 11
-15393.38587448695
 21
1081.561261910465
 31
0.0
  0
LINE
  5
338
330
1F
100
AcDbEntity
  8
0-2_柱
  6
Continuous
 62
     7
370
     9
100
AcDbLine
 10
-17618.38587448695
 20
-2093.438738089535
 30
0.0
 11
-15393.38587448695
 21
-2093.438738089535
 31
0.0
  0
LINE
  5
339
330
1F
100
AcDbEntity
  8
0-2_柱
  6
Continuous
 62
     7
370
     9
100
AcDbLine
 10
-17618.38587448695
 20
-2093.438738089535
 30
0.0
 11
-15393.38587448695
 21
-1143.438738089535
 31
0.0
  0
LINE
  5
33A
330
1F
100
AcDbEntity
  8
0-C_ハッチ
  6
Continuous
 62
     3
370
     5
100
AcDbLine
 10
3565.22761119639
 20
1394.061261910465
 30
0.0
 11
3565.22761119639
 21
-1455.938738089535
 31
0.0
  0
LINE
  5
33B
330
1F
100
AcDbEntity
  8
0-C_ハッチ
  6
Continuous
 62
     3
370
     5
100
AcDbLine
 10
3602.72761119639
 20
1394.061261910465
 30
0.0
 11
3602.72761119639
 21
-1455.938738089535
 31
0.0
  0
LINE
  5
33C
330
1F
100
AcDbEntity
  8
0-C_ハッチ
  6
Continuous
 62
     3
370
     5
100
AcDbLine
 10
3640.22761119639
 20
1394.061261910465
 30
0.0
 11
3640.22761119639
 21
-1455.938738089535
 31
0.0
  0
LINE
  5
33D
330
1F
100
AcDbEntity
  8
0-C_ハッチ
  6
Continuous
 62
     3
370
     5
100
AcDbLine
 10
3677.72761119639
 20
1394.061261910465
 30
0.0
 11
3677.72761119639
 21
-1455.938738089535
 31
0.0
  0
LINE
  5
33E
330
1F
100
AcDbEntity
  8
0-C_ハッチ
  6
Continuous
 62
     3
370
     5
100
AcDbLine
 10
3715.22761119639
 20
1394.061261910465
 30
0.0
 11
3715.22761119639
 21
-1455.938738089535
 31
0.0
  0
LINE
  5
33F
330
1F
100
AcDbEntity
  8
0-C_ハッチ
  6
Continuous
 62
     3
370
     5
100
AcDbLine
 10
3752.72761119639
 20
1394.061261910465
 30
0.0
 11
3752.72761119639
 21
-1455.938738089535
 31
0.0
  0
LINE
  5
340
330
1F
100
AcDbEntity
  8
0-C_ハッチ
  6
Continuous
 62
     3
370
     5
100
AcDbLine
 10
3790.22761119639
 20
1394.061261910465
 30
0.0
 11
3790.22761119639
 21
-1455.938738089535
 31
0.0
  0
LINE
  5
341
330
1F
100
AcDbEntity
  8
0-C_ハッチ
  6
Continuous
 62
     3
370
     5
100
AcDbLine
 10
-9203.2625904392
 20
1394.061261910465
 30
0.0
 11
-9203.2625904392
 21
-1455.938738089535
 31
0.0
  0
LINE
  5
342
330
1F
100
AcDbEntity
  8
0-C_ハッチ
  6
Continuous
 62
     3
370
     5
100
AcDbLine
 10
-9165.7625904392
 20
1394.061261910465
 30
0.0
 11
-9165.7625904392
 21
-1455.938738089535
 31
0.0
  0
LINE
  5
343
330
1F
100
AcDbEntity
  8
0-C_ハッチ
  6
Continuous
 62
     3
370
     5
100
AcDbLine
 10
-9128.2625904392
 20
1394.061261910465
 30
0.0
 11
-9128.2625904392
 21
-1455.938738089535
 31
0.0
  0
LINE
  5
344
330
1F
100
AcDbEntity
  8
0-C_ハッチ
  6
Continuous
 62
     3
370
     5
100
AcDbLine
 10
-9090.7625904392
 20
1394.061261910465
 30
0.0
 11
-9090.7625904392
 21
-1455.938738089535
 31
0.0
  0
LINE
  5
345
330
1F
100
AcDbEntity
  8
0-C_ハッチ
  6
Continuous
 62
     3
370
     5
100
AcDbLine
 10
-9053.2625904392
 20
1394.061261910465
 30
0.0
 11
-9053.2625904392
 21
-1455.938738089535
 31
0.0
  0
LINE
  5
346
330
1F
100
AcDbEntity
  8
0-C_ハッチ
  6
Continuous
 62
     3
370
     5
100
AcDbLine
 10
-9015.7625904392
 20
1394.061261910465
 30
0.0
 11
-9015.7625904392
 21
-1455.938738089535
 31
0.0
  0
LINE
  5
347
330
1F
100
AcDbEntity
  8
0-C_ハッチ
  6
Continuous
 62
     3
370
     5
100
AcDbLine
 10
-8978.2625904392
 20
1394.061261910465
 30
0.0
 11
-8978.2625904392
 21
-1455.938738089535
 31
0.0
  0
TEXT
  5
348
330
1F
100
AcDbEntity
  8
0-A_文字
  6
Continuous
 62
     7
370
     0
100
AcDbText
 10
-19376.53373831531
 20
13276.1009766699
 30
0.0
 40
304.8
  1
引き分け戸
 41
1.1
  7
ＭＳ ゴシック
100
AcDbText
  0
LINE
  5
349
330
1F
100
AcDbEntity
  8
0-B_寸法
  6
Continuous
 62
     3
370
     5
100
AcDbLine
 10
-19066.18887127055
 20
1394.061261910465
 30
0.0
 11
-19066.18887127055
 21
-1455.938738089535
 31
0.0
  0
LWPOLYLINE
  5
34A
330
1F
100
AcDbEntity
  8
0-B_寸法
  6
Continuous
 62
     3
370
     5
100
AcDbPolyline
 90
        4
 70
     1
 43
10.0
 10
-19061.18887127055
 20
1394.061261910465
 42
0.4142135623731
 10
-19066.18887127055
 20
1399.061261910466
 42
0.4142135623731
 10
-19071.18887127055
 20
1394.061261910465
 42
0.4142135623731
 10
-19066.18887127055
 20
1389.061261910465
 42
0.4142135623731
  0
LINE
  5
34B
330
1F
100
AcDbEntity
  8
0-B_寸法
  6
Continuous
 62
     3
370
     5
100
AcDbLine
 10
-19066.18887127055
 20
1394.061261910465
 30
0.0
 11
-18366.18887127055
 21
1394.061261910465
 31
0.0
  0
LINE
  5
34C
330
1F
100
AcDbEntity
  8
0-B_寸法
  6
Continuous
 62
     3
370
     5
100
AcDbLine
 10
-19066.18887127055
 20
-1455.938738089535
 30
0.0
 11
-18366.18887127055
 21
-1455.938738089535
 31
0.0
  0
LINE
  5
34D
330
1F
100
AcDbEntity
  8
0-B_寸法
  6
Continuous
 62
     3
370
     5
100
AcDbLine
 10
-18366.18887127055
 20
1081.561261910465
 30
0.0
 11
-18366.18887127055
 21
-1143.438738089535
 31
0.0
  0
LINE
  5
34E
330
1F
100
AcDbEntity
  8
0-B_寸法
  6
Continuous
 62
     3
370
     5
100
AcDbLine
 10
-18366.18887127055
 20
-1143.438738089535
 30
0.0
 11
-18366.18887127055
 21
-1455.938738089535
 31
0.0
  0
LWPOLYLINE
  5
34F
330
1F
100
AcDbEntity
  8
0-B_寸法
  6
Continuous
 62
     3
370
     5
100
AcDbPolyline
 90
        4
 70
     1
 43
10.0
 10
-18361.18887127055
 20
1081.561261910465
 42
0.4142135623731
 10
-18366.18887127055
 20
1086.561261910466
 42
0.4142135623731
 10
-18371.18887127055
 20
1081.561261910465
 42
0.4142135623731
 10
-18366.18887127055
 20
1076.561261910465
 42
0.4142135623731
  0
LINE
  5
350
330
1F
100
AcDbEntity
  8
0-B_寸法
  6
Continuous
 62
     3
370
     5
100
AcDbLine
 10
-18366.18887127055
 20
1394.061261910465
 30
0.0
 11
-18366.18887127055
 21
1081.561261910465
 31
0.0
  0
LINE
  5
351
330
1F
100
AcDbEntity
  8
0-B_寸法
  6
Continuous
 62
     3
370
     5
100
AcDbLine
 10
-16505.88587448695
 20
4791.851314871848
 30
0.0
 11
-16505.88587448695
 21
2244.411722397612
 31
0.0
  0
LINE
  5
352
330
1F
100
AcDbEntity
  8
0-B_寸法
  6
Continuous
 62
     3
370
     5
100
AcDbLine
 10
-16505.88587448695
 20
4791.851314871848
 30
0.0
 11
7367.249959286419
 21
4791.851314871848
 31
0.0
  0
LINE
  5
353
330
1F
100
AcDbEntity
  8
0-B_寸法
  6
Continuous
 62
     3
370
     5
100
AcDbLine
 10
-11315.7625904392
 20
3548.582172874449
 30
0.0
 11
-8940.7625904392
 21
3548.582172874449
 31
0.0
  0
LINE
  5
354
330
1F
100
AcDbEntity
  8
0-B_寸法
  6
Continuous
 62
     3
370
     5
100
AcDbLine
 10
-8940.7625904392
 20
3548.582172874449
 30
0.0
 11
3527.727611196392
 21
3548.582172874449
 31
0.0
  0
LINE
  5
355
330
1F
100
AcDbEntity
  8
0-B_寸法
  6
Continuous
 62
     3
370
     5
100
AcDbLine
 10
-8715.7625904392
 20
2544.94917448725
 30
0.0
 11
3302.72761119639
 21
2544.94917448725
 31
0.0
  0
LINE
  5
356
330
1F
100
AcDbEntity
  8
0-B_寸法
  6
Continuous
 62
     3
370
     5
100
AcDbLine
 10
-8715.7625904392
 20
2544.94917448725
 30
0.0
 11
-8715.7625904392
 21
818.232651792583
 31
0.0
  0
LWPOLYLINE
  5
357
330
1F
100
AcDbEntity
  8
0-B_寸法
  6
Continuous
 62
     3
370
     5
100
AcDbPolyline
 90
        4
 70
     1
 43
10.0
 10
-8935.7625904392
 20
2544.94917448725
 42
0.4142135623731
 10
-8940.7625904392
 20
2549.94917448725
 42
0.4142135623731
 10
-8945.7625904392
 20
2544.94917448725
 42
0.4142135623731
 10
-8940.7625904392
 20
2539.94917448725
 42
0.4142135623731
  0
LINE
  5
358
330
1F
100
AcDbEntity
  8
0-B_寸法
  6
Continuous
 62
     3
370
     5
100
AcDbLine
 10
-8940.7625904392
 20
3548.582172874449
 30
0.0
 11
-8940.7625904392
 21
2544.94917448725
 31
0.0
  0
LINE
  5
359
330
1F
100
AcDbEntity
  8
0-B_寸法
  6
Continuous
 62
     3
370
     5
100
AcDbLine
 10
-8940.7625904392
 20
2544.94917448725
 30
0.0
 11
-8940.7625904392
 21
1671.704177697256
 31
0.0
  0
LINE
  5
35A
330
1F
100
AcDbEntity
  8
0-B_寸法
  6
Continuous
 62
     3
370
     5
100
AcDbLine
 10
3527.727611196392
 20
3548.582172874449
 30
0.0
 11
3527.727611196392
 21
2544.94917448725
 31
0.0
  0
LWPOLYLINE
  5
35B
330
1F
100
AcDbEntity
  8
0-B_寸法
  6
Continuous
 62
     3
370
     5
100
AcDbPolyline
 90
        4
 70
     1
 43
10.0
 10
3532.727611196391
 20
2544.94917448725
 42
0.4142135623731
 10
3527.727611196392
 20
2549.94917448725
 42
0.4142135623731
 10
3522.727611196392
 20
2544.94917448725
 42
0.4142135623731
 10
3527.727611196392
 20
2539.94917448725
 42
0.4142135623731
  0
LINE
  5
35C
330
1F
100
AcDbEntity
  8
0-B_寸法
  6
Continuous
 62
     3
370
     5
100
AcDbLine
 10
3527.727611196392
 20
2544.94917448725
 30
0.0
 11
3527.727611196392
 21
1671.704177697256
 31
0.0
  0
LINE
  5
35D
330
1F
100
AcDbEntity
  8
0-B_寸法
  6
Continuous
 62
     3
370
     5
100
AcDbLine
 10
3302.72761119639
 20
2544.94917448725
 30
0.0
 11
3302.72761119639
 21
818.232651792583
 31
0.0
  0
LWPOLYLINE
  5
35E
330
1F
100
AcDbEntity
  8
0-B_寸法
  6
Continuous
 62
     3
370
     5
100
AcDbPolyline
 90
        4
 70
     1
 43
10.0
 10
3532.72761119639
 20
-385.3139097875896
 42
0.4142135623731
 10
3527.72761119639
 20
-380.3139097875896
 42
0.4142135623731
 10
3522.72761119639
 20
-385.3139097875896
 42
0.4142135623731
 10
3527.72761119639
 20
-390.3139097875896
 42
0.4142135623731
  0
LINE
  5
35F
330
1F
100
AcDbEntity
  8
0-B_寸法
  6
Continuous
 62
     3
370
     5
100
AcDbLine
 10
3527.72761119639
 20
-385.3139097875896
 30
0.0
 11
3302.72761119639
 21
-385.3139097875896
 31
0.0
  0
LINE
  5
360
330
1F
100
AcDbEntity
  8
0-B_寸法
  6
Continuous
 62
     3
370
     5
100
AcDbLine
 10
3302.727611196373
 20
-385.3139097875896
 30
0.0
 11
3302.727611196373
 21
-894.8368181237214
 31
0.0
  0
LINE
  5
361
330
1F
100
AcDbEntity
  8
0-B_寸法
  6
Continuous
 62
     3
370
     5
100
AcDbLine
 10
4812.10723283164
 20
-1680.938738089513
 30
0.0
 11
4812.10723283164
 21
-2430.938738089513
 31
0.0
  0
LINE
  5
362
330
1F
100
AcDbEntity
  8
0-B_寸法
  6
Continuous
 62
     3
370
     5
100
AcDbLine
 10
4812.10723283164
 20
-1530.938738089513
 30
0.0
 11
4258.277984640191
 21
-1530.938738089513
 31
0.0
  0
LINE
  5
363
330
1F
100
AcDbEntity
  8
0-B_寸法
  6
Continuous
 62
     3
370
     5
100
AcDbLine
 10
4812.10723283164
 20
-1680.938738089513
 30
0.0
 11
4258.277984640191
 21
-1680.938738089513
 31
0.0
  0
LWPOLYLINE
  5
364
330
1F
100
AcDbEntity
  8
0-B_寸法
  6
Continuous
 62
     3
370
     5
100
AcDbPolyline
 90
        4
 70
     1
 43
10.0
 10
4817.10723283164
 20
-1680.938738089513
 42
0.4142135623731
 10
4812.10723283164
 20
-1675.938738089513
 42
0.4142135623731
 10
4807.10723283164
 20
-1680.938738089513
 42
0.4142135623731
 10
4812.10723283164
 20
-1685.938738089513
 42
0.4142135623731
  0
LINE
  5
365
330
1F
100
AcDbEntity
  8
0-B_寸法
  6
Continuous
 62
     3
370
     5
100
AcDbLine
 10
4812.10723283164
 20
-1530.938738089513
 30
0.0
 11
4812.10723283164
 21
-1680.938738089513
 31
0.0
  0
LINE
  5
366
330
1F
100
AcDbEntity
  8
0-B_寸法
  6
Continuous
 62
     3
370
     5
100
AcDbLine
 10
4812.10723283164
 20
-1455.938738089535
 30
0.0
 11
4812.10723283164
 21
-1530.938738089513
 31
0.0
  0
LINE
  5
367
330
1F
100
AcDbEntity
  8
0-B_寸法
  6
Continuous
 62
     3
370
     5
100
AcDbLine
 10
4812.10723283164
 20
-2430.938738089513
 30
0.0
 11
4258.277984640191
 21
-2430.938738089513
 31
0.0
  0
LINE
  5
368
330
1F
100
AcDbEntity
  8
0-B_寸法
  6
Continuous
 62
     3
370
     5
100
AcDbLine
 10
4227.72761119639
 20
-2927.670182492724
 30
0.0
 11
4227.72761119639
 21
-2609.279296224761
 31
0.0
  0
LINE
  5
369
330
1F
100
AcDbEntity
  8
0-B_寸法
  6
Continuous
 62
     3
370
     5
100
AcDbLine
 10
4227.72761119639
 20
-2927.670182492724
 30
0.0
 11
3302.727611196373
 21
-2927.670182492724
 31
0.0
  0
LINE
  5
36A
330
1F
100
AcDbEntity
  8
0-B_寸法
  6
Continuous
 62
     3
370
     5
100
AcDbLine
 10
3302.727611196373
 20
-2927.670182492724
 30
0.0
 11
3302.727611196373
 21
-2609.279296224761
 31
0.0
  0
LINE
  5
36B
330
1F
100
AcDbEntity
  8
0-B_寸法
  6
Continuous
 62
     3
370
     5
100
AcDbLine
 10
-6893.664855853824
 20
-1455.938738089535
 30
0.0
 11
-6893.664855853824
 21
-3505.938738089535
 31
0.0
  0
LINE
  5
36C
330
1F
100
AcDbEntity
  8
0-B_寸法
  6
Continuous
 62
     3
370
     5
100
AcDbLine
 10
-7742.995123023677
 20
-1530.938738089516
 30
0.0
 11
-8462.973145672559
 21
-1530.938738089516
 31
0.0
  0
LINE
  5
36D
330
1F
100
AcDbEntity
  8
0-B_寸法
  6
Continuous
 62
     3
370
     5
100
AcDbLine
 10
-7742.995123023677
 20
-780.9387380895345
 30
0.0
 11
-7742.995123023677
 21
-1530.938738089516
 31
0.0
  0
LWPOLYLINE
  5
36E
330
1F
100
AcDbEntity
  8
0-B_寸法
  6
Continuous
 62
     3
370
     5
100
AcDbPolyline
 90
        4
 70
     1
 43
10.0
 10
-7737.995123023677
 20
-780.9387380895345
 42
0.4142135623731
 10
-7742.995123023677
 20
-775.9387380895345
 42
0.4142135623731
 10
-7747.995123023677
 20
-780.9387380895345
 42
0.4142135623731
 10
-7742.995123023677
 20
-785.9387380895345
 42
0.4142135623731
  0
LINE
  5
36F
330
1F
100
AcDbEntity
  8
0-B_寸法
  6
Continuous
 62
     3
370
     5
100
AcDbLine
 10
-8715.7625904392
 20
-385.3139097875896
 30
0.0
 11
-8715.7625904392
 21
-619.3376964027266
 31
0.0
  0
LWPOLYLINE
  5
370
330
1F
100
AcDbEntity
  8
0-B_寸法
  6
Continuous
 62
     3
370
     5
100
AcDbPolyline
 90
        4
 70
     1
 43
10.0
 10
-8935.7625904392
 20
-385.3139097875896
 42
0.4142135623731
 10
-8940.7625904392
 20
-380.3139097875896
 42
0.4142135623731
 10
-8945.7625904392
 20
-385.3139097875896
 42
0.4142135623731
 10
-8940.7625904392
 20
-390.3139097875896
 42
0.4142135623731
  0
LWPOLYLINE
  5
371
330
1F
100
AcDbEntity
  8
0-B_寸法
  6
Continuous
 62
     3
370
     5
100
AcDbPolyline
 90
        4
 70
     1
 43
10.0
 10
-8710.7625904392
 20
-385.3139097875896
 42
0.4142135623731
 10
-8715.7625904392
 20
-380.3139097875896
 42
0.4142135623731
 10
-8720.7625904392
 20
-385.3139097875896
 42
0.4142135623731
 10
-8715.7625904392
 20
-390.3139097875896
 42
0.4142135623731
  0
LINE
  5
372
330
1F
100
AcDbEntity
  8
0-B_寸法
  6
Continuous
 62
     3
370
     5
100
AcDbLine
 10
-8940.7625904392
 20
-385.3139097875896
 30
0.0
 11
-8715.7625904392
 21
-385.3139097875896
 31
0.0
  0
LINE
  5
373
330
1F
100
AcDbEntity
  8
0-B_寸法
  6
Continuous
 62
     3
370
     5
100
AcDbLine
 10
-8715.7625904392
 20
-2923.594931724554
 30
0.0
 11
-8715.7625904392
 21
-2656.586910376812
 31
0.0
  0
LINE
  5
374
330
1F
100
AcDbEntity
  8
0-B_寸法
  6
Continuous
 62
     3
370
     5
100
AcDbLine
 10
-9640.762590439197
 20
-2923.594931724554
 30
0.0
 11
-8715.7625904392
 21
-2923.594931724554
 31
0.0
  0
LINE
  5
375
330
1F
100
AcDbEntity
  8
0-B_寸法
  6
Continuous
 62
     3
370
     5
100
AcDbLine
 10
-9640.762590439197
 20
-2923.594931724554
 30
0.0
 11
-9640.762590439197
 21
-2694.564444350786
 31
0.0
  0
LINE
  5
376
330
1F
100
AcDbEntity
  8
F-0ﾚｲﾔ
  6
JWW_HOJO
 62
     4
370
    15
100
AcDbLine
 10
-21000.0
 20
-14850.0
 30
0.0
 11
-21000.0
 21
14749.99868032095
 31
0.0
  0
LINE
  5
377
330
1F
100
AcDbEntity
  8
F-0ﾚｲﾔ
  6
JWW_HOJO
 62
     4
370
    15
100
AcDbLine
 10
-21000.0
 20
14749.99868032095
 30
0.0
 11
19999.99670080236
 21
14749.99868032095
 31
0.0
  0
LINE
  5
378
330
1F
100
AcDbEntity
  8
F-0ﾚｲﾔ
  6
JWW_HOJO
 62
     4
370
    15
100
AcDbLine
 10
19999.99670080236
 20
14749.99868032095
 30
0.0
 11
19999.99670080236
 21
-14850.0
 31
0.0
  0
LINE
  5
379
330
1F
100
AcDbEntity
  8
F-0ﾚｲﾔ
  6
JWW_HOJO
 62
     4
370
    15
100
AcDbLine
 10
19999.99670080236
 20
-14850.0
 30
0.0
 11
-21000.0
 21
-14850.0
 31
0.0
  0
LINE
  5
37A
330
1F
100
AcDbEntity
  8
F-0ﾚｲﾔ
  6
Continuous
 62
   200
370
     9
100
AcDbLine
 10
18999.99587600296
 20
13916.66589685388
 30
0.0
 11
18999.99587600296
 21
-14016.66721653294
 31
0.0
  0
LINE
  5
37B
330
1F
100
AcDbEntity
  8
F-0ﾚｲﾔ
  6
Continuous
 62
   200
370
     9
100
AcDbLine
 10
-19999.99994845003
 20
13916.66589685388
 30
0.0
 11
-19999.99994845003
 21
-14016.66721653294
 31
0.0
  0
LINE
  5
37C
330
1F
100
AcDbEntity
  8
F-0ﾚｲﾔ
  6
Continuous
 62
   200
370
     9
100
AcDbLine
 10
-19966.66663401835
 20
13916.66589685388
 30
0.0
 11
-19966.66663401835
 21
-14016.66721653294
 31
0.0
  0
LINE
  5
37D
330
1F
100
AcDbEntity
  8
F-0ﾚｲﾔ
  6
Continuous
 62
   200
370
     9
100
AcDbLine
 10
-19983.33325257173
 20
13916.66589685388
 30
0.0
 11
-19983.33325257173
 21
-14016.66721653294
 31
0.0
  0
LINE
  5
37E
330
1F
100
AcDbEntity
  8
F-0ﾚｲﾔ
  6
Continuous
 62
   200
370
     9
100
AcDbLine
 10
18983.32832955026
 20
13916.66589685388
 30
0.0
 11
18983.32832955026
 21
-14016.66721653294
 31
0.0
  0
LINE
  5
37F
330
1F
100
AcDbEntity
  8
F-0ﾚｲﾔ
  6
Continuous
 62
   200
370
     9
100
AcDbLine
 10
18966.66325749578
 20
13916.66589685388
 30
0.0
 11
18966.66325749578
 21
-14016.66721653294
 31
0.0
  0
LINE
  5
380
330
1F
100
AcDbEntity
  8
F-0ﾚｲﾔ
  6
Continuous
 62
   200
370
     9
100
AcDbLine
 10
-19999.9991752006
 20
13916.66589685388
 30
0.0
 11
18999.99587600296
 21
13916.66589685388
 31
0.0
  0
LINE
  5
381
330
1F
100
AcDbEntity
  8
F-0ﾚｲﾔ
  6
Continuous
 62
   200
370
     9
100
AcDbLine
 10
-19999.9991752006
 20
13883.33327834671
 30
0.0
 11
18999.99587600296
 21
13883.33327834671
 31
0.0
  0
LINE
  5
382
330
1F
100
AcDbEntity
  8
F-0ﾚｲﾔ
  6
Continuous
 62
   200
370
     9
100
AcDbLine
 10
-19999.9991752006
 20
13899.99835040118
 30
0.0
 11
18999.99587600296
 21
13899.99835040118
 31
0.0
  0
TEXT
  5
383
330
1F
100
AcDbEntity
  8
F-Aﾚｲﾔ
  6
Continuous
 62
     7
370
     0
100
AcDbText
 10
-200.000412399703
 20
-12905.1332775144
 30
0.0
 40
152.4
  1
図面名
  7
ＭＳ ゴシック
100
AcDbText
  0
TEXT
  5
384
330
1F
100
AcDbEntity
  8
F-Aﾚｲﾔ
  6
Continuous
 62
     7
370
     0
100
AcDbText
 10
9266.662432696372
 20
-12905.14207666719
 30
0.0
 40
152.4
  1
ＳＣＡＬＥ
 41
0.9999999999999999
  7
ＭＳ ゴシック
100
AcDbText
  0
TEXT
  5
385
330
1F
100
AcDbEntity
  8
F-Aﾚｲﾔ
  6
Continuous
 62
     7
370
     0
100
AcDbText
 10
14266.66408229519
 20
-12905.14672411046
 30
0.0
 40
152.4
  1
ＤＡＴＥ
  7
ＭＳ ゴシック
100
AcDbText
  0
TEXT
  5
386
330
1F
100
AcDbEntity
  8
F-Aﾚｲﾔ
  6
Continuous
 62
     7
370
     0
100
AcDbText
 10
1166.666391733531
 20
-13091.0345478154
 30
0.0
 40
220.2
  1
ＪＵＰＩＮＯ・Ｊ
 41
0.8333333333333334
  7
HG明朝B
100
AcDbText
  0
LINE
  5
387
330
1F
100
AcDbEntity
  8
F-0ﾚｲﾔ
  6
JWW_HOJO
 62
     7
370
     9
100
AcDbLine
 10
2833.331958667654
 20
-12650.00055158461
 30
0.0
 11
2833.331958667654
 21
-13983.33390210126
 31
0.0
  0
LINE
  5
388
330
1F
100
AcDbEntity
  8
F-0ﾚｲﾔ
  6
JWW_HOJO
 62
     7
370
     9
100
AcDbLine
 10
1166.666391733531
 20
-12650.00055158461
 30
0.0
 11
1166.666391733531
 21
-13983.33390210126
 31
0.0
  0
LINE
  5
389
330
1F
100
AcDbEntity
  8
F-1ﾚｲﾔ
  6
Continuous
 62
   200
370
     9
100
AcDbLine
 10
18999.99587600296
 20
-14016.66721653294
 30
0.0
 11
-19999.9991752006
 21
-14016.66721653294
 31
0.0
  0
LINE
  5
38A
330
1F
100
AcDbEntity
  8
F-1ﾚｲﾔ
  6
Continuous
 62
   200
370
     9
100
AcDbLine
 10
18999.99587600296
 20
-14000.00052065463
 30
0.0
 11
-19999.9991752006
 21
-14000.00052065463
 31
0.0
  0
LINE
  5
38B
330
1F
100
AcDbEntity
  8
F-1ﾚｲﾔ
  6
Continuous
 62
   200
370
     9
100
AcDbLine
 10
18999.99587600296
 20
-13983.33390210126
 30
0.0
 11
-19999.9991752006
 21
-13983.33390210126
 31
0.0
  0
LINE
  5
38C
330
1F
100
AcDbEntity
  8
F-1ﾚｲﾔ
  6
Continuous
 62
   200
370
     9
100
AcDbLine
 10
13966.66408229519
 20
-12650.00055158461
 30
0.0
 11
13966.66408229519
 21
-13983.33390210126
 31
0.0
  0
LINE
  5
38D
330
1F
100
AcDbEntity
  8
F-1ﾚｲﾔ
  6
Continuous
 62
   200
370
     9
100
AcDbLine
 10
8966.662432696372
 20
-12650.00055158461
 30
0.0
 11
8966.662432696372
 21
-13983.33390210126
 31
0.0
  0
LINE
  5
38E
330
1F
100
AcDbEntity
  8
F-1ﾚｲﾔ
  6
Continuous
 62
   200
370
     9
100
AcDbLine
 10
-500.000412399703
 20
-12650.00055158461
 30
0.0
 11
-500.000412399703
 21
-13983.33390210126
 31
0.0
  0
LINE
  5
38F
330
1F
100
AcDbEntity
  8
F-1ﾚｲﾔ
  6
Continuous
 62
   200
370
     9
100
AcDbLine
 10
-500.000412399703
 20
-13316.6669948681
 30
0.0
 11
18966.66325749578
 21
-13316.68508890513
 31
0.0
  0
LINE
  5
390
330
1F
100
AcDbEntity
  8
F-0ﾚｲﾔ
  6
JWW_HOJO
 62
     7
370
     9
100
AcDbLine
 10
-19966.66663401835
 20
-13316.66699486925
 30
0.0
 11
-500.000412399703
 21
-13316.66699486925
 31
0.0
  0
LINE
  5
391
330
1F
100
AcDbEntity
  8
F-0ﾚｲﾔ
  6
JWW_HOJO
 62
     7
370
     9
100
AcDbLine
 10
-19966.66663401835
 20
-13016.66699486925
 30
0.0
 11
-500.000412399703
 21
-13016.66699486925
 31
0.0
  0
LINE
  5
392
330
1F
100
AcDbEntity
  8
F-0ﾚｲﾔ
  6
JWW_HOJO
 62
     7
370
     9
100
AcDbLine
 10
-19966.66663401835
 20
-13616.66699486925
 30
0.0
 11
-500.000412399703
 21
-13616.66699486925
 31
0.0
  0
LINE
  5
393
330
1F
100
AcDbEntity
  8
F-0ﾚｲﾔ
  6
JWW_HOJO
 62
     7
370
     9
100
AcDbLine
 10
-500.000861651796
 20
-13799.99967386789
 30
0.0
 11
18966.66280824368
 21
-13800.01776790492
 31
0.0
  0
LINE
  5
394
330
1F
100
AcDbEntity
  8
F-0ﾚｲﾔ
  6
JWW_HOJO
 62
     7
370
     9
100
AcDbLine
 10
-500.0005828052906
 20
-13499.99967386802
 30
0.0
 11
18966.66308709019
 21
-13500.01776790505
 31
0.0
  0
LINE
  5
395
330
1F
100
AcDbEntity
  8
F-0ﾚｲﾔ
  6
JWW_HOJO
 62
     7
370
     9
100
AcDbLine
 10
-500.0002419928904
 20
-13133.33299866818
 30
0.0
 11
18966.66342790259
 21
-13133.35109270521
 31
0.0
  0
LINE
  5
396
330
1F
100
AcDbEntity
  8
F-0ﾚｲﾔ
  6
JWW_HOJO
 62
     7
370
     9
100
AcDbLine
 10
-499.9999631463851
 20
-12833.33299866831
 30
0.0
 11
18966.6637067491
 21
-12833.35109270534
 31
0.0
  0
LINE
  5
397
330
1F
100
AcDbEntity
  8
F-0ﾚｲﾔ
  6
JWW_HOJO
 62
     7
370
     9
100
AcDbLine
 10
9266.662432696372
 20
-12650.00055158461
 30
0.0
 11
9266.662432696372
 21
-13983.33390210126
 31
0.0
  0
LINE
  5
398
330
1F
100
AcDbEntity
  8
F-0ﾚｲﾔ
  6
JWW_HOJO
 62
     7
370
     9
100
AcDbLine
 10
-200.000412399703
 20
-12650.00055158461
 30
0.0
 11
-200.000412399703
 21
-13983.33390210126
 31
0.0
  0
LINE
  5
399
330
1F
100
AcDbEntity
  8
F-0ﾚｲﾔ
  6
JWW_HOJO
 62
     7
370
     9
100
AcDbLine
 10
14266.66408229519
 20
-12650.00055158461
 30
0.0
 11
14266.66408229519
 21
-13983.33390210126
 31
0.0
  0
TEXT
  5
39A
330
1F
100
AcDbEntity
  8
F-Aﾚｲﾔ
  6
Continuous
 62
     7
370
     0
100
AcDbText
 10
9266.662432696372
 20
-13571.80875186748
 30
0.0
 40
152.4
  1
ＦＩＬＥ
  7
ＭＳ ゴシック
100
AcDbText
  0
TEXT
  5
39B
330
1F
100
AcDbEntity
  8
F-Aﾚｲﾔ
  6
Continuous
 62
     7
370
     0
100
AcDbText
 10
14266.66408229519
 20
-13571.81339931074
 30
0.0
 40
152.4
  1
ＮＯ．
  7
ＭＳ ゴシック
100
AcDbText
  0
TEXT
  5
39C
330
1F
100
AcDbEntity
  8
F-Aﾚｲﾔ
  6
Continuous
 62
     7
370
     0
100
AcDbText
 10
4116.66243269637
 20
-13601.80277216177
 30
0.0
 40
152.4
  1
株式
  7
ＭＳ ゴシック
100
AcDbText
  0
TEXT
  5
39D
330
1F
100
AcDbEntity
  8
F-Aﾚｲﾔ
  6
Continuous
 62
     7
370
     9
100
AcDbText
 10
16454.16344526943
 20
-13757.7155836079
 30
0.0
 40
228.6
  1
01
 41
1.083333333333333
  7
ＭＳ ゴシック
100
AcDbText
  0
TEXT
  5
39E
330
1F
100
AcDbEntity
  8
F-Aﾚｲﾔ
  6
Continuous
 62
     7
370
     0
100
AcDbText
 10
4816.66243269637
 20
-13793.60847302104
 30
0.0
 40
304.8
  1
ウッドワン・・・
 41
1.109375
  7
ＭＳ ゴシック
100
AcDbText
  0
TEXT
  5
39F
330
1F
100
AcDbEntity
  8
F-Aﾚｲﾔ
  6
Continuous
 62
     7
370
     0
100
AcDbText
 10
4116.66243269637
 20
-13841.8027721619
 30
0.0
 40
152.4
  1
会社
  7
ＭＳ ゴシック
100
AcDbText
  0
TEXT
  5
3A0
330
1F
100
AcDbEntity
  8
F-Aﾚｲﾔ
  6
Continuous
 62
     7
370
     0
100
AcDbText
 10
18694.67770369904
 20
-14304.80473006973
 30
0.0
 40
228.6
  1
）
 41
0.9999999999999998
  7
ＭＳ ゴシック
100
AcDbText
  0
LINE
  5
3A1
330
1F
100
AcDbEntity
  8
F-1ﾚｲﾔ
  6
Continuous
 62
   200
370
     9
100
AcDbLine
 10
18999.99587600296
 20
-12650.00055158461
 30
0.0
 11
-19999.9991752006
 21
-12650.00055158461
 31
0.0
  0
LINE
  5
3A2
330
1F
100
AcDbEntity
  8
F-1ﾚｲﾔ
  6
Continuous
 62
   200
370
     9
100
AcDbLine
 10
18999.99587600296
 20
-12633.33393303124
 30
0.0
 11
-19999.9991752006
 21
-12633.33393303124
 31
0.0
  0
LINE
  5
3A3
330
1F
100
AcDbEntity
  8
F-0ﾚｲﾔ
  6
JWW_HOJO
 62
     7
370
     9
100
AcDbLine
 10
-17491.82458917613
 20
-12650.00055158461
 30
0.0
 11
-17491.82458917613
 21
-14016.66775780755
 31
0.0
  0
LINE
  5
3A4
330
1F
100
AcDbEntity
  8
F-0ﾚｲﾔ
  6
JWW_HOJO
 62
     7
370
     9
100
AcDbLine
 10
-700.000412399703
 20
-12650.00055158461
 30
0.0
 11
-700.000412399703
 21
-13983.33390210126
 31
0.0
  0
TEXT
  5
3A5
330
1F
100
AcDbEntity
  8
F-Aﾚｲﾔ
  6
Continuous
 62
     7
370
     0
100
AcDbText
 10
17300.65316947357
 20
-14309.45147956619
 30
0.0
 40
228.6
  1
,
 41
0.9999999999999998
  7
ＭＳ ゴシック
100
AcDbText
  0
TEXT
  5
3A6
330
1F
100
AcDbEntity
  8
F-Aﾚｲﾔ
  6
Continuous
 62
     7
370
     0
100
AcDbText
 10
16413.12420638458
 20
-14314.09822429427
 30
0.0
 40
228.6
  1
$y
 41
1.083333333333333
  7
ＭＳ ゴシック
100
AcDbText
  0
TEXT
  5
3A7
330
1F
100
AcDbEntity
  8
F-Aﾚｲﾔ
  6
Continuous
 62
     7
370
     0
100
AcDbText
 10
16928.91327651398
 20
-14314.09822429427
 30
0.0
 40
228.6
  1
$m
 41
1.083333333333333
  7
ＭＳ ゴシック
100
AcDbText
  0
TEXT
  5
3A8
330
1F
100
AcDbEntity
  8
F-Aﾚｲﾔ
  6
Continuous
 62
     7
370
     0
100
AcDbText
 10
17444.70238479034
 20
-14314.09822429427
 30
0.0
 40
228.6
  1
$d
 41
1.083333333333333
  7
ＭＳ ゴシック
100
AcDbText
  0
TEXT
  5
3A9
330
1F
100
AcDbEntity
  8
F-Aﾚｲﾔ
  6
Continuous
 62
     7
370
     0
100
AcDbText
 10
17960.49149306671
 20
-14314.09822429427
 30
0.0
 40
228.6
  1
印刷
 41
1.083333333333333
  7
ＭＳ ゴシック
100
AcDbText
  0
TEXT
  5
3AA
330
1F
100
AcDbEntity
  8
F-Aﾚｲﾔ
  6
Continuous
 62
     7
370
     0
100
AcDbText
 10
15946.77791417666
 20
-14318.74497855911
 30
0.0
 40
228.6
  1
（
 41
0.9999999999999998
  7
ＭＳ ゴシック
100
AcDbText
  0
TEXT
  5
3AB
330
1F
100
AcDbEntity
  8
F-Aﾚｲﾔ
  6
Continuous
 62
     7
370
     0
100
AcDbText
 10
16770.92381270781
 20
-14318.74497855911
 30
0.0
 40
228.6
  1
,
 41
0.9999999999999998
  7
ＭＳ ゴシック
100
AcDbText
  0
TEXT
  5
3AC
330
1F
100
AcDbEntity
  8
F-Aﾚｲﾔ
  6
Continuous
 62
     7
370
     0
100
AcDbText
 10
15929.16375509889
 20
-13066.04890840783
 30
0.0
 40
228.6
  1
06.08.31
 41
1.145833333333333
  7
ＭＳ ゴシック
100
AcDbText
  0
TEXT
  5
3AD
330
1F
100
AcDbEntity
  8
F-Aﾚｲﾔ
  6
Continuous
 62
     7
370
     9
100
AcDbText
 10
10404.16325749578
 20
-13757.71093616599
 30
0.0
 40
228.6
  1
SJ12-846-T_S01
 41
1.154761904761904
  7
ＭＳ ゴシック
100
AcDbText
  0
TEXT
  5
3AE
330
1F
100
AcDbEntity
  8
F-Aﾚｲﾔ
  6
Continuous
 62
     7
370
     0
100
AcDbText
 10
11366.66325749578
 20
-13091.0442609657
 30
0.0
 40
228.6
  1
1/4
 41
1.111111111111111
  7
ＭＳ ゴシック
100
AcDbText
  0
TEXT
  5
3AF
330
1F
100
AcDbEntity
  8
F-Aﾚｲﾔ
  6
Continuous
 62
     7
370
     0
100
AcDbText
 10
3934.725673012397
 20
-13091.03441327408
 30
0.0
 40
228.6
  1
建具納まり図
 41
1.138888888888889
  7
ＭＳ ゴシック
100
AcDbText
  0
TEXT
  5
3B0
330
1F
100
AcDbEntity
  8
F-Aﾚｲﾔ
  6
Continuous
 62
     7
370
     0
100
AcDbText
 10
-17466.66663401835
 20
-13424.36699486925
 30
0.0
 40
228.6
  1
ジュピーノ・Ｊ　引き分け戸　２×４工法　ＤＷ846
 41
1.163120567375886
  7
ＭＳ ゴシック
100
AcDbText
  0
ENDSEC
  0
SECTION
  2
OBJECTS
  0
DICTIONARY
  5
C
330
0
100
AcDbDictionary
281
     1
  3
ACAD_GROUP
350
D
  3
ACAD_LAYOUT
350
1A
  3
ACAD_MATERIAL
350
3B
  3
ACAD_MLEADERSTYLE
350
3B2
  3
ACAD_MLINESTYLE
350
17
  3
ACAD_PLOTSETTINGS
350
19
  3
ACAD_PLOTSTYLENAME
350
E
  3
ACAD_TABLESTYLE
350
3B1
  3
ACAD_VISUALSTYLE
350
2A
  0
DICTIONARY
  5
D
102
{ACAD_REACTORS
330
C
102
}
330
C
100
AcDbDictionary
281
     1
  0
DICTIONARY
  5
1A
102
{ACAD_REACTORS
330
C
102
}
330
C
100
AcDbDictionary
281
     1
  3
Layout1
350
1E
  3
Layout2
350
26
  3
Model
350
22
  0
DICTIONARY
  5
3B
102
{ACAD_REACTORS
330
C
102
}
330
C
100
AcDbDictionary
281
     1
  3
ByBlock
350
3D
  3
ByLayer
350
3C
  3
Global
350
3E
  0
DICTIONARY
  5
3B2
102
{ACAD_REACTORS
330
C
102
}
330
C
100
AcDbDictionary
281
     1
  0
DICTIONARY
  5
17
102
{ACAD_REACTORS
330
C
102
}
330
C
100
AcDbDictionary
281
     1
  3
Standard
350
18
  0
DICTIONARY
  5
19
102
{ACAD_REACTORS
330
C
102
}
330
C
100
AcDbDictionary
281
     1
  0
ACDBDICTIONARYWDFLT
  5
E
102
{ACAD_REACTORS
330
C
102
}
330
C
100
AcDbDictionary
281
     1
  3
Normal
350
F
100
AcDbDictionaryWithDefault
340
F
  0
DICTIONARY
  5
3B1
102
{ACAD_REACTORS
330
C
102
}
330
C
100
AcDbDictionary
281
     1
  0
DICTIONARY
  5
2A
102
{ACAD_REACTORS
330
C
102
}
330
C
100
AcDbDictionary
281
     1
  3
2dWireframe
350
2F
  3
3D Hidden
350
31
  3
3dWireframe
350
30
  3
Basic
350
32
  3
Brighten
350
36
  3
ColorChange
350
3A
  3
Conceptual
350
34
  3
Dim
350
35
  3
Facepattern
350
39
  3
Flat
350
2B
  3
FlatWithEdges
350
2C
  3
Gouraud
350
2D
  3
GouraudWithEdges
350
2E
  3
Linepattern
350
38
  3
Realistic
350
33
  3
Thicken
350
37
  0
LAYOUT
  5
1E
102
{ACAD_REACTORS
330
1A
102
}
330
1A
100
AcDbPlotSettings
  1

  2
none_device
  4

  6

 40
0.0
 41
0.0
 42
0.0
 43
0.0
 44
0.0
 45
0.0
 46
0.0
 47
0.0
 48
0.0
 49
0.0
140
0.0
141
0.0
142
1.0
143
1.0
 70
   688
 72
     0
 73
     0
 74
     5
  7

 75
    16
 76
     0
 77
     5
 78
   300
147
1.0
148
0.0
149
0.0
100
AcDbLayout
  1
Layout1
 70
     1
 71
     1
 10
0.0
 20
0.0
 11
420.0
 21
297.0
 12
0.0
 22
0.0
 32
0.0
 14
1.000000000000000E+20
 24
1.000000000000000E+20
 34
1.000000000000000E+20
 15
-1.000000000000000E+20
 25
-1.000000000000000E+20
 35
-1.000000000000000E+20
146
0.0
 13
0.0
 23
0.0
 33
0.0
 16
1.0
 26
0.0
 36
0.0
 17
0.0
 27
1.0
 37
0.0
 76
     0
330
1B
  0
LAYOUT
  5
26
102
{ACAD_REACTORS
330
1A
102
}
330
1A
100
AcDbPlotSettings
  1

  2
none_device
  4

  6

 40
0.0
 41
0.0
 42
0.0
 43
0.0
 44
0.0
 45
0.0
 46
0.0
 47
0.0
 48
0.0
 49
0.0
140
0.0
141
0.0
142
1.0
143
1.0
 70
   688
 72
     0
 73
     0
 74
     5
  7

 75
    16
 76
     0
 77
     5
 78
   300
147
1.0
148
0.0
149
0.0
100
AcDbLayout
  1
Layout2
 70
     1
 71
     2
 10
0.0
 20
0.0
 11
0.0
 21
0.0
 12
0.0
 22
0.0
 32
0.0
 14
0.0
 24
0.0
 34
0.0
 15
0.0
 25
0.0
 35
0.0
146
0.0
 13
0.0
 23
0.0
 33
0.0
 16
1.0
 26
0.0
 36
0.0
 17
0.0
 27
1.0
 37
0.0
 76
     0
330
23
  0
LAYOUT
  5
22
102
{ACAD_REACTORS
330
1A
102
}
330
1A
100
AcDbPlotSettings
  1

  2
none_device
  4

  6

 40
0.0
 41
0.0
 42
0.0
 43
0.0
 44
0.0
 45
0.0
 46
0.0
 47
0.0
 48
0.0
 49
0.0
140
0.0
141
0.0
142
1.0
143
1.0
 70
  1712
 72
     0
 73
     0
 74
     0
  7

 75
     0
 76
     0
 77
     5
 78
   300
147
1.0
148
0.0
149
0.0
100
AcDbLayout
  1
Model
 70
     1
 71
     0
 10
-21000.0
 20
-14850.0
 11
21000.0
 21
14850.0
 12
0.0
 22
0.0
 32
0.0
 14
-21000.0
 24
-14850.0
 34
0.0
 15
21000.0
 25
14850.0
 35
0.0
146
0.0
 13
0.0
 23
0.0
 33
0.0
 16
1.0
 26
0.0
 36
0.0
 17
0.0
 27
1.0
 37
0.0
 76
     0
330
1F
331
29
  0
MATERIAL
  5
3D
102
{ACAD_REACTORS
330
3B
102
}
330
3B
100
AcDbMaterial
  1
ByBlock
 72
     1
 94
      127
  0
MATERIAL
  5
3C
102
{ACAD_REACTORS
330
3B
102
}
330
3B
100
AcDbMaterial
  1
ByLayer
 72
     1
 94
      127
  0
MATERIAL
  5
3E
102
{ACAD_REACTORS
330
3B
102
}
330
3B
100
AcDbMaterial
  1
Global
 72
     1
 94
      127
  0
MLINESTYLE
  5
18
102
{ACAD_REACTORS
330
17
102
}
330
17
100
AcDbMlineStyle
  2
Standard
 70
     0
  3

 62
   256
 51
90.0
 52
90.0
 71
     2
 49
0.5
 62
   256
  6
BYLAYER
 49
-0.5
 62
   256
  6
BYLAYER
  0
ACDBPLACEHOLDER
  5
F
102
{ACAD_REACTORS
330
E
102
}
330
E
  0
VISUALSTYLE
  5
2F
102
{ACAD_REACTORS
330
2A
102
}
330
2A
100
AcDbVisualStyle
  2
2dWireframe
 70
     4
177
     2
291
     0
 71
     0
176
     1
 72
     2
176
     1
 73
     0
176
     1
 90
        0
176
     1
 40
-0.6
176
     1
 41
-30.0
176
     1
 62
     5
 63
     7
421
 16777215
176
     1
 74
     1
176
     1
 91
        4
176
     1
 64
     7
176
     1
 65
   257
176
     1
 75
     1
176
     1
175
     1
176
     1
 42
1.0
176
     1
 92
        0
176
     1
 66
   257
176
     1
 43
1.0
176
     1
 76
     1
176
     1
 77
     6
176
     1
 78
     2
176
     1
 67
     7
176
     1
 79
     5
176
     1
170
     0
176
     1
171
     0
176
     1
290
     0
176
     1
 93
        1
176
     1
 44
0.0
176
     1
173
     0
176
     1
  0
VISUALSTYLE
  5
31
102
{ACAD_REACTORS
330
2A
102
}
330
2A
100
AcDbVisualStyle
  2
3D Hidden
 70
     6
177
     2
291
     0
 71
     1
176
     1
 72
     2
176
     1
 73
     2
176
     1
 90
        0
176
     1
 40
-0.6
176
     1
 41
-30.0
176
     1
 62
     5
 63
     7
421
 16777215
176
     1
 74
     2
176
     1
 91
        2
176
     1
 64
     7
176
     1
 65
   257
176
     1
 75
     2
176
     1
175
     1
176
     1
 42
40.0
176
     1
 92
        0
176
     1
 66
   257
176
     1
 43
1.0
176
     1
 76
     1
176
     1
 77
     6
176
     1
 78
     2
176
     1
 67
     7
176
     1
 79
     3
176
     1
170
     0
176
     1
171
     0
176
     1
290
     0
176
     1
 93
        1
176
     1
 44
0.0
176
     1
173
     0
176
     1
  0
VISUALSTYLE
  5
30
102
{ACAD_REACTORS
330
2A
102
}
330
2A
100
AcDbVisualStyle
  2
3dWireframe
 70
     5
177
     2
291
     0
 71
     0
176
     1
 72
     2
176
     1
 73
     0
176
     1
 90
        0
176
     1
 40
-0.6
176
     1
 41
-30.0
176
     1
 62
     5
 63
     7
421
 16777215
176
     1
 74
     1
176
     1
 91
        4
176
     1
 64
     7
176
     1
 65
   257
176
     1
 75
     1
176
     1
175
     1
176
     1
 42
1.0
176
     1
 92
        0
176
     1
 66
   257
176
     1
 43
1.0
176
     1
 76
     1
176
     1
 77
     6
176
     1
 78
     2
176
     1
 67
     7
176
     1
 79
     5
176
     1
170
     0
176
     1
171
     0
176
     1
290
     0
176
     1
 93
        1
176
     1
 44
0.0
176
     1
173
     0
176
     1
  0
VISUALSTYLE
  5
32
102
{ACAD_REACTORS
330
2A
102
}
330
2A
100
AcDbVisualStyle
  2
Basic
 70
     7
177
     2
291
     1
 71
     1
176
     1
 72
     0
176
     1
 73
     1
176
     1
 90
        0
176
     1
 40
-0.6
176
     1
 41
-30.0
176
     1
 62
     5
 63
     7
421
 16777215
176
     1
 74
     0
176
     1
 91
        4
176
     1
 64
     7
176
     1
 65
   257
176
     1
 75
     1
176
     1
175
     1
176
     1
 42
1.0
176
     1
 92
        8
176
     1
 66
     7
176
     1
 43
1.0
176
     1
 76
     1
176
     1
 77
     6
176
     1
 78
     2
176
     1
 67
     7
176
     1
 79
     5
176
     1
170
     0
176
     1
171
     0
176
     1
290
     0
176
     1
 93
        1
176
     1
 44
0.0
176
     1
173
     0
176
     1
  0
VISUALSTYLE
  5
36
102
{ACAD_REACTORS
330
2A
102
}
330
2A
100
AcDbVisualStyle
  2
Brighten
 70
    12
177
     2
291
     1
 71
     2
176
     1
 72
     2
176
     1
 73
     0
176
     1
 90
        0
176
     1
 40
-0.6
176
     1
 41
-30.0
176
     1
 62
     5
 63
     7
421
 16777215
176
     1
 74
     1
176
     1
 91
        4
176
     1
 64
     7
176
     1
 65
   257
176
     1
 75
     1
176
     1
175
     1
176
     1
 42
1.0
176
     1
 92
        8
176
     1
 66
     7
176
     1
 43
1.0
176
     1
 76
     1
176
     1
 77
     6
176
     1
 78
     2
176
     1
 67
     7
176
     1
 79
     5
176
     1
170
     0
176
     1
171
     0
176
     1
290
     0
176
     1
 93
        1
176
     1
 44
50.0
176
     1
173
     0
176
     1
  0
VISUALSTYLE
  5
3A
102
{ACAD_REACTORS
330
2A
102
}
330
2A
100
AcDbVisualStyle
  2
ColorChange
 70
    16
177
     2
291
     1
 71
     2
176
     1
 72
     2
176
     1
 73
     3
176
     1
 90
        0
176
     1
 40
-0.6
176
     1
 41
-30.0
176
     1
 62
     5
 63
     8
421
  8421504
176
     1
 74
     1
176
     1
 91
        4
176
     1
 64
     7
176
     1
 65
   257
176
     1
 75
     1
176
     1
175
     1
176
     1
 42
1.0
176
     1
 92
        8
176
     1
 66
     8
424
  8421504
176
     1
 43
1.0
176
     1
 76
     1
176
     1
 77
     6
176
     1
 78
     2
176
     1
 67
     7
176
     1
 79
     5
176
     1
170
     0
176
     1
171
     0
176
     1
290
     0
176
     1
 93
        1
176
     1
 44
0.0
176
     1
173
     0
176
     1
  0
VISUALSTYLE
  5
34
102
{ACAD_REACTORS
330
2A
102
}
330
2A
100
AcDbVisualStyle
  2
Conceptual
 70
     9
177
     2
291
     0
 71
     3
176
     1
 72
     2
176
     1
 73
     0
176
     1
 90
        0
176
     1
 40
-0.6
176
     1
 41
-30.0
176
     1
 62
     5
 63
     7
421
 16777215
176
     1
 74
     2
176
     1
 91
        2
176
     1
 64
     7
176
     1
 65
   257
176
     1
 75
     1
176
     1
175
     1
176
     1
 42
40.0
176
     1
 92
        8
176
     1
 66
     7
176
     1
 43
1.0
176
     1
 76
     1
176
     1
 77
     6
176
     1
 78
     2
176
     1
 67
     7
176
     1
 79
     3
176
     1
170
     0
176
     1
171
     0
176
     1
290
     0
176
     1
 93
        1
176
     1
 44
0.0
176
     1
173
     0
176
     1
  0
VISUALSTYLE
  5
35
102
{ACAD_REACTORS
330
2A
102
}
330
2A
100
AcDbVisualStyle
  2
Dim
 70
    11
177
     2
291
     1
 71
     2
176
     1
 72
     2
176
     1
 73
     0
176
     1
 90
        0
176
     1
 40
-0.6
176
     1
 41
-30.0
176
     1
 62
     5
 63
     7
421
 16777215
176
     1
 74
     1
176
     1
 91
        4
176
     1
 64
     7
176
     1
 65
   257
176
     1
 75
     1
176
     1
175
     1
176
     1
 42
1.0
176
     1
 92
        8
176
     1
 66
     7
176
     1
 43
1.0
176
     1
 76
     1
176
     1
 77
     6
176
     1
 78
     2
176
     1
 67
     7
176
     1
 79
     5
176
     1
170
     0
176
     1
171
     0
176
     1
290
     0
176
     1
 93
        1
176
     1
 44
-50.0
176
     1
173
     0
176
     1
  0
VISUALSTYLE
  5
39
102
{ACAD_REACTORS
330
2A
102
}
330
2A
100
AcDbVisualStyle
  2
Facepattern
 70
    15
177
     2
291
     1
 71
     2
176
     1
 72
     2
176
     1
 73
     0
176
     1
 90
        0
176
     1
 40
-0.6
176
     1
 41
-30.0
176
     1
 62
     5
 63
     7
421
 16777215
176
     1
 74
     1
176
     1
 91
        4
176
     1
 64
     7
176
     1
 65
   257
176
     1
 75
     1
176
     1
175
     1
176
     1
 42
1.0
176
     1
 92
        8
176
     1
 66
     7
176
     1
 43
1.0
176
     1
 76
     1
176
     1
 77
     6
176
     1
 78
     2
176
     1
 67
     7
176
     1
 79
     5
176
     1
170
     0
176
     1
171
     0
176
     1
290
     0
176
     1
 93
        1
176
     1
 44
0.0
176
     1
173
     0
176
     1
  0
VISUALSTYLE
  5
2B
102
{ACAD_REACTORS
330
2A
102
}
330
2A
100
AcDbVisualStyle
  2
Flat
 70
     0
177
     2
291
     1
 71
     2
176
     1
 72
     1
176
     1
 73
     1
176
     1
 90
        2
176
     1
 40
-0.6
176
     1
 41
30.0
176
     1
 62
     5
 63
     7
421
 16777215
176
     1
 74
     0
176
     1
 91
        4
176
     1
 64
     7
176
     1
 65
   257
176
     1
 75
     1
176
     1
175
     1
176
     1
 42
1.0
176
     1
 92
        8
176
     1
 66
     7
176
     1
 43
1.0
176
     1
 76
     1
176
     1
 77
     6
176
     1
 78
     2
176
     1
 67
     7
176
     1
 79
     5
176
     1
170
     0
176
     1
171
     0
176
     1
290
     0
176
     1
 93
       13
176
     1
 44
0.0
176
     1
173
     0
176
     1
  0
VISUALSTYLE
  5
2C
102
{ACAD_REACTORS
330
2A
102
}
330
2A
100
AcDbVisualStyle
  2
FlatWithEdges
 70
     1
177
     2
291
     1
 71
     2
176
     1
 72
     1
176
     1
 73
     1
176
     1
 90
        2
176
     1
 40
-0.6
176
     1
 41
30.0
176
     1
 62
     5
 63
     7
421
 16777215
176
     1
 74
     1
176
     1
 91
        4
176
     1
 64
     7
176
     1
 65
   257
176
     1
 75
     1
176
     1
175
     1
176
     1
 42
1.0
176
     1
 92
        0
176
     1
 66
   257
176
     1
 43
1.0
176
     1
 76
     1
176
     1
 77
     6
176
     1
 78
     2
176
     1
 67
     7
176
     1
 79
     5
176
     1
170
     0
176
     1
171
     0
176
     1
290
     0
176
     1
 93
       13
176
     1
 44
0.0
176
     1
173
     0
176
     1
  0
VISUALSTYLE
  5
2D
102
{ACAD_REACTORS
330
2A
102
}
330
2A
100
AcDbVisualStyle
  2
Gouraud
 70
     2
177
     2
291
     1
 71
     2
176
     1
 72
     2
176
     1
 73
     1
176
     1
 90
        2
176
     1
 40
-0.6
176
     1
 41
30.0
176
     1
 62
     5
 63
     7
421
 16777215
176
     1
 74
     0
176
     1
 91
        4
176
     1
 64
     7
176
     1
 65
   257
176
     1
 75
     1
176
     1
175
     1
176
     1
 42
1.0
176
     1
 92
        0
176
     1
 66
     7
176
     1
 43
1.0
176
     1
 76
     1
176
     1
 77
     6
176
     1
 78
     2
176
     1
 67
     7
176
     1
 79
     5
176
     1
170
     0
176
     1
171
     0
176
     1
290
     0
176
     1
 93
       13
176
     1
 44
0.0
176
     1
173
     0
176
     1
  0
VISUALSTYLE
  5
2E
102
{ACAD_REACTORS
330
2A
102
}
330
2A
100
AcDbVisualStyle
  2
GouraudWithEdges
 70
     3
177
     2
291
     1
 71
     2
176
     1
 72
     2
176
     1
 73
     1
176
     1
 90
        2
176
     1
 40
-0.6
176
     1
 41
30.0
176
     1
 62
     5
 63
     7
421
 16777215
176
     1
 74
     1
176
     1
 91
        4
176
     1
 64
     7
176
     1
 65
   257
176
     1
 75
     1
176
     1
175
     1
176
     1
 42
1.0
176
     1
 92
        0
176
     1
 66
   257
176
     1
 43
1.0
176
     1
 76
     1
176
     1
 77
     6
176
     1
 78
     2
176
     1
 67
     7
176
     1
 79
     5
176
     1
170
     0
176
     1
171
     0
176
     1
290
     0
176
     1
 93
       13
176
     1
 44
0.0
176
     1
173
     0
176
     1
  0
VISUALSTYLE
  5
38
102
{ACAD_REACTORS
330
2A
102
}
330
2A
100
AcDbVisualStyle
  2
Linepattern
 70
    14
177
     2
291
     1
 71
     2
176
     1
 72
     2
176
     1
 73
     0
176
     1
 90
        0
176
     1
 40
-0.6
176
     1
 41
-30.0
176
     1
 62
     5
 63
     7
421
 16777215
176
     1
 74
     1
176
     1
 91
        4
176
     1
 64
     7
176
     1
 65
   257
176
     1
 75
     7
176
     1
175
     7
176
     1
 42
1.0
176
     1
 92
        8
176
     1
 66
     7
176
     1
 43
1.0
176
     1
 76
     1
176
     1
 77
     6
176
     1
 78
     2
176
     1
 67
     7
176
     1
 79
     5
176
     1
170
     0
176
     1
171
     0
176
     1
290
     0
176
     1
 93
        1
176
     1
 44
0.0
176
     1
173
     0
176
     1
  0
VISUALSTYLE
  5
33
102
{ACAD_REACTORS
330
2A
102
}
330
2A
100
AcDbVisualStyle
  2
Realistic
 70
     8
177
     2
291
     0
 71
     2
176
     1
 72
     2
176
     1
 73
     0
176
     1
 90
        0
176
     1
 40
-0.6
176
     1
 41
-30.0
176
     1
 62
     5
 63
     7
421
 16777215
176
     1
 74
     1
176
     1
 91
        0
176
     1
 64
     7
176
     1
 65
   257
176
     1
 75
     1
176
     1
175
     1
176
     1
 42
1.0
176
     1
 92
        8
176
     1
 66
     8
424
  7895160
176
     1
 43
1.0
176
     1
 76
     1
176
     1
 77
     6
176
     1
 78
     2
176
     1
 67
     7
176
     1
 79
     5
176
     1
170
     0
176
     1
171
     0
176
     1
290
     0
176
     1
 93
       13
176
     1
 44
0.0
176
     1
173
     0
176
     1
  0
VISUALSTYLE
  5
37
102
{ACAD_REACTORS
330
2A
102
}
330
2A
100
AcDbVisualStyle
  2
Thicken
 70
    13
177
     2
291
     1
 71
     2
176
     1
 72
     2
176
     1
 73
     0
176
     1
 90
        0
176
     1
 40
-0.6
176
     1
 41
-30.0
176
     1
 62
     5
 63
     7
421
 16777215
176
     1
 74
     1
176
     1
 91
        4
176
     1
 64
     7
176
     1
 65
   257
176
     1
 75
     1
176
     1
175
     1
176
     1
 42
1.0
176
     1
 92
       12
176
     1
 66
     7
176
     1
 43
1.0
176
     1
 76
     1
176
     1
 77
     6
176
     1
 78
     2
176
     1
 67
     7
176
     1
 79
     5
176
     1
170
     0
176
     1
171
     0
176
     1
290
     0
176
     1
 93
        1
176
     1
 44
0.0
176
     1
173
     0
176
     1
  0
ENDSEC
  0
EOF
