  0
SECTION
  2
HEADER
  9
$ACADVER
  1
AC1024
  9
$ACADMAINTVER
 70
     6
  9
$DWGCODEPAGE
  3
ANSI_932
  9
$INSBASE
 10
0.0
 20
0.0
 30
0.0
  9
$EXTMIN
 10
-21000.0
 20
-14850.0
 30
0.0
  9
$EXTMAX
 10
21000.0
 20
14850.0
 30
0.0
  9
$LIMMIN
 10
-21000.0
 20
-14850.0
  9
$LIMMAX
 10
21000.0
 20
14850.0
  9
$ORTHOMODE
 70
     0
  9
$REGENMODE
 70
     1
  9
$FILLMODE
 70
     1
  9
$QTEXTMODE
 70
     0
  9
$MIRRTEXT
 70
     1
  9
$LTSCALE
 40
100.0
  9
$ATTMODE
 70
     1
  9
$TEXTSIZE
 40
2.5
  9
$TRACEWID
 40
1.0
  9
$TEXTSTYLE
  7
Standard
  9
$CLAYER
  8
0
  9
$CELTYPE
  6
ByLayer
  9
$CECOLOR
 62
   256
  9
$CELTSCALE
 40
1.0
  9
$DISPSILH
 70
     0
  9
$DIMSCALE
 40
1.0
  9
$DIMASZ
 40
2.5
  9
$DIMEXO
 40
0.625
  9
$DIMDLI
 40
3.75
  9
$DIMRND
 40
0.0
  9
$DIMDLE
 40
0.0
  9
$DIMEXE
 40
1.25
  9
$DIMTP
 40
0.0
  9
$DIMTM
 40
0.0
  9
$DIMTXT
 40
2.5
  9
$DIMCEN
 40
2.5
  9
$DIMTSZ
 40
0.0
  9
$DIMTOL
 70
     0
  9
$DIMLIM
 70
     0
  9
$DIMTIH
 70
     0
  9
$DIMTOH
 70
     0
  9
$DIMSE1
 70
     0
  9
$DIMSE2
 70
     0
  9
$DIMTAD
 70
     1
  9
$DIMZIN
 70
     8
  9
$DIMBLK
  1

  9
$DIMASO
 70
     1
  9
$DIMSHO
 70
     1
  9
$DIMPOST
  1

  9
$DIMAPOST
  1

  9
$DIMALT
 70
     0
  9
$DIMALTD
 70
     3
  9
$DIMALTF
 40
0.03937007874016
  9
$DIMLFAC
 40
1.0
  9
$DIMTOFL
 70
     1
  9
$DIMTVP
 40
0.0
  9
$DIMTIX
 70
     0
  9
$DIMSOXD
 70
     0
  9
$DIMSAH
 70
     0
  9
$DIMBLK1
  1

  9
$DIMBLK2
  1

  9
$DIMSTYLE
  2
ISO-25
  9
$DIMCLRD
 70
     0
  9
$DIMCLRE
 70
     0
  9
$DIMCLRT
 70
     0
  9
$DIMTFAC
 40
1.0
  9
$DIMGAP
 40
0.625
  9
$DIMJUST
 70
     0
  9
$DIMSD1
 70
     0
  9
$DIMSD2
 70
     0
  9
$DIMTOLJ
 70
     0
  9
$DIMTZIN
 70
     8
  9
$DIMALTZ
 70
     0
  9
$DIMALTTZ
 70
     0
  9
$DIMUPT
 70
     0
  9
$DIMDEC
 70
     2
  9
$DIMTDEC
 70
     2
  9
$DIMALTU
 70
     2
  9
$DIMALTTD
 70
     3
  9
$DIMTXSTY
  7
Standard
  9
$DIMAUNIT
 70
     0
  9
$DIMADEC
 70
     0
  9
$DIMALTRND
 40
0.0
  9
$DIMAZIN
 70
     0
  9
$DIMDSEP
 70
    44
  9
$DIMATFIT
 70
     3
  9
$DIMFRAC
 70
     0
  9
$DIMLDRBLK
  1

  9
$DIMLUNIT
 70
     2
  9
$DIMLWD
 70
    -2
  9
$DIMLWE
 70
    -2
  9
$DIMTMOVE
 70
     0
  9
$DIMFXL
 40
1.0
  9
$DIMFXLON
 70
     0
  9
$DIMJOGANG
 40
0.7853981633974483
  9
$DIMTFILL
 70
     0
  9
$DIMTFILLCLR
 70
     0
  9
$DIMARCSYM
 70
     0
  9
$DIMLTYPE
  6

  9
$DIMLTEX1
  6

  9
$DIMLTEX2
  6

  9
$DIMTXTDIRECTION
 70
     0
  9
$LUNITS
 70
     2
  9
$LUPREC
 70
     4
  9
$SKETCHINC
 40
1.0
  9
$FILLETRAD
 40
10.0
  9
$AUNITS
 70
     0
  9
$AUPREC
 70
     0
  9
$MENU
  1
.
  9
$ELEVATION
 40
0.0
  9
$PELEVATION
 40
0.0
  9
$THICKNESS
 40
0.0
  9
$LIMCHECK
 70
     0
  9
$CHAMFERA
 40
10.0
  9
$CHAMFERB
 40
10.0
  9
$CHAMFERC
 40
20.0
  9
$CHAMFERD
 40
0.0
  9
$SKPOLY
 70
     0
  9
$TDCREATE
 40
2456720.726395683
  9
$TDUCREATE
 40
2456720.351395683
  9
$TDUPDATE
 40
2456720.726395695
  9
$TDUUPDATE
 40
2456720.351395695
  9
$TDINDWG
 40
0.0000000116
  9
$TDUSRTIMER
 40
0.0000000116
  9
$USRTIMER
 70
     1
  9
$ANGBASE
 50
0.0
  9
$ANGDIR
 70
     0
  9
$PDMODE
 70
     0
  9
$PDSIZE
 40
0.0
  9
$PLINEWID
 40
0.0
  9
$SPLFRAME
 70
     0
  9
$SPLINETYPE
 70
     6
  9
$SPLINESEGS
 70
     8
  9
$HANDSEED
  5
3EF
  9
$SURFTAB1
 70
     6
  9
$SURFTAB2
 70
     6
  9
$SURFTYPE
 70
     6
  9
$SURFU
 70
     6
  9
$SURFV
 70
     6
  9
$UCSBASE
  2

  9
$UCSNAME
  2

  9
$UCSORG
 10
0.0
 20
0.0
 30
0.0
  9
$UCSXDIR
 10
1.0
 20
0.0
 30
0.0
  9
$UCSYDIR
 10
0.0
 20
1.0
 30
0.0
  9
$UCSORTHOREF
  2

  9
$UCSORTHOVIEW
 70
     0
  9
$UCSORGTOP
 10
0.0
 20
0.0
 30
0.0
  9
$UCSORGBOTTOM
 10
0.0
 20
0.0
 30
0.0
  9
$UCSORGLEFT
 10
0.0
 20
0.0
 30
0.0
  9
$UCSORGRIGHT
 10
0.0
 20
0.0
 30
0.0
  9
$UCSORGFRONT
 10
0.0
 20
0.0
 30
0.0
  9
$UCSORGBACK
 10
0.0
 20
0.0
 30
0.0
  9
$PUCSBASE
  2

  9
$PUCSNAME
  2

  9
$PUCSORG
 10
0.0
 20
0.0
 30
0.0
  9
$PUCSXDIR
 10
1.0
 20
0.0
 30
0.0
  9
$PUCSYDIR
 10
0.0
 20
1.0
 30
0.0
  9
$PUCSORTHOREF
  2

  9
$PUCSORTHOVIEW
 70
     0
  9
$PUCSORGTOP
 10
0.0
 20
0.0
 30
0.0
  9
$PUCSORGBOTTOM
 10
0.0
 20
0.0
 30
0.0
  9
$PUCSORGLEFT
 10
0.0
 20
0.0
 30
0.0
  9
$PUCSORGRIGHT
 10
0.0
 20
0.0
 30
0.0
  9
$PUCSORGFRONT
 10
0.0
 20
0.0
 30
0.0
  9
$PUCSORGBACK
 10
0.0
 20
0.0
 30
0.0
  9
$USERI1
 70
     0
  9
$USERI2
 70
     0
  9
$USERI3
 70
     0
  9
$USERI4
 70
     0
  9
$USERI5
 70
     0
  9
$USERR1
 40
0.0
  9
$USERR2
 40
0.0
  9
$USERR3
 40
0.0
  9
$USERR4
 40
0.0
  9
$USERR5
 40
0.0
  9
$WORLDVIEW
 70
     1
  9
$SHADEDGE
 70
     3
  9
$SHADEDIF
 70
    70
  9
$TILEMODE
 70
     1
  9
$MAXACTVP
 70
    64
  9
$PINSBASE
 10
0.0
 20
0.0
 30
0.0
  9
$PLIMCHECK
 70
     0
  9
$PEXTMIN
 10
1.000000000000000E+20
 20
1.000000000000000E+20
 30
1.000000000000000E+20
  9
$PEXTMAX
 10
-1.000000000000000E+20
 20
-1.000000000000000E+20
 30
-1.000000000000000E+20
  9
$PLIMMIN
 10
0.0
 20
0.0
  9
$PLIMMAX
 10
420.0
 20
297.0
  9
$UNITMODE
 70
     0
  9
$VISRETAIN
 70
     1
  9
$PLINEGEN
 70
     0
  9
$PSLTSCALE
 70
     1
  9
$TREEDEPTH
 70
  3020
  9
$CMLSTYLE
  2
Standard
  9
$CMLJUST
 70
     0
  9
$CMLSCALE
 40
20.0
  9
$PROXYGRAPHICS
 70
     1
  9
$MEASUREMENT
 70
     1
  9
$CELWEIGHT
370
    -1
  9
$ENDCAPS
280
     0
  9
$JOINSTYLE
280
     0
  9
$LWDISPLAY
290
     0
  9
$INSUNITS
 70
     4
  9
$HYPERLINKBASE
  1

  9
$STYLESHEET
  1

  9
$XEDIT
290
     1
  9
$CEPSNTYPE
380
     0
  9
$PSTYLEMODE
290
     1
  9
$FINGERPRINTGUID
  2
{5101A092-E67C-42E2-B88D-1BA59F18D84F}
  9
$VERSIONGUID
  2
{FAEB1C32-E019-11D5-929B-00C0DF256EC4}
  9
$EXTNAMES
290
     1
  9
$PSVPSCALE
 40
0.0
  9
$OLESTARTUP
290
     0
  9
$SORTENTS
280
   127
  9
$INDEXCTL
280
     0
  9
$HIDETEXT
280
     1
  9
$XCLIPFRAME
280
     2
  9
$HALOGAP
280
     0
  9
$OBSCOLOR
 70
   257
  9
$OBSLTYPE
280
     0
  9
$INTERSECTIONDISPLAY
280
     0
  9
$INTERSECTIONCOLOR
 70
   257
  9
$DIMASSOC
280
     2
  9
$PROJECTNAME
  1

  9
$CAMERADISPLAY
290
     0
  9
$LENSLENGTH
 40
50.0
  9
$CAMERAHEIGHT
 40
0.0
  9
$STEPSPERSEC
 40
2.0
  9
$STEPSIZE
 40
6.0
  9
$3DDWFPREC
 40
2.0
  9
$PSOLWIDTH
 40
5.0
  9
$PSOLHEIGHT
 40
80.0
  9
$LOFTANG1
 40
1.570796326794897
  9
$LOFTANG2
 40
1.570796326794897
  9
$LOFTMAG1
 40
0.0
  9
$LOFTMAG2
 40
0.0
  9
$LOFTPARAM
 70
     7
  9
$LOFTNORMALS
280
     1
  9
$LATITUDE
 40
37.795
  9
$LONGITUDE
 40
-122.394
  9
$NORTHDIRECTION
 40
0.0
  9
$TIMEZONE
 70
 -8000
  9
$LIGHTGLYPHDISPLAY
280
     1
  9
$TILEMODELIGHTSYNCH
280
     1
  9
$SOLIDHIST
280
     1
  9
$SHOWHIST
280
     1
  9
$DWFFRAME
280
     2
  9
$DGNFRAME
280
     2
  9
$REALWORLDSCALE
290
     1
  9
$INTERFERECOLOR
 62
   256
  9
$CSHADOW
280
     0
  9
$SHADOWPLANELOCATION
 40
0.0
  0
ENDSEC
  0
SECTION
  2
CLASSES
  0
CLASS
  1
ACDBDICTIONARYWDFLT
  2
AcDbDictionaryWithDefault
  3
ObjectDBX Classes
 90
        0
 91
        4
280
     0
281
     0
  0
CLASS
  1
VISUALSTYLE
  2
AcDbVisualStyle
  3
ObjectDBX Classes
 90
     4095
 91
        4
280
     0
281
     0
  0
CLASS
  1
MATERIAL
  2
AcDbMaterial
  3
ObjectDBX Classes
 90
     1153
 91
        4
280
     0
281
     0
  0
ENDSEC
  0
SECTION
  2
TABLES
  0
TABLE
  2
VPORT
  5
8
330
0
100
AcDbSymbolTable
 70
     1
  0
VPORT
  5
29
330
8
100
AcDbSymbolTableRecord
100
AcDbViewportTableRecord
  2
*Active
 70
     0
 10
0.0
 20
0.0
 11
1.0
 21
1.0
 12
0.0
 22
0.0
 13
0.0
 23
0.0
 14
10.0
 24
10.0
 15
10.0
 25
10.0
 16
0.0
 26
0.0
 36
1.0
 17
0.0
 27
0.0
 37
0.0
 40
32670.0
 41
1.414141414141414
 42
50.0
 43
0.0
 44
0.0
 50
0.0
 51
0.0
 71
     0
 72
 10000
 73
     1
 74
     3
 75
     0
 76
     0
 77
     0
 78
     0
281
     0
 65
     1
110
0.0
120
0.0
130
0.0
111
1.0
121
0.0
131
0.0
112
0.0
122
1.0
132
0.0
 79
     0
146
0.0
 60
     3
 61
     5
292
     1
282
     1
141
0.0
142
0.0
 63
   250
  0
ENDTAB
  0
TABLE
  2
LTYPE
  5
5
330
0
100
AcDbSymbolTable
 70
     4
  0
LTYPE
  5
14
330
5
100
AcDbSymbolTableRecord
100
AcDbLinetypeTableRecord
  2
ByBlock
 70
     0
  3

 72
    65
 73
     0
 40
0.0
  0
LTYPE
  5
15
330
5
100
AcDbSymbolTableRecord
100
AcDbLinetypeTableRecord
  2
ByLayer
 70
     0
  3

 72
    65
 73
     0
 40
0.0
  0
LTYPE
  5
16
330
5
100
AcDbSymbolTableRecord
100
AcDbLinetypeTableRecord
  2
Continuous
 70
     0
  3
Solid line
 72
    65
 73
     0
 40
0.0
  0
LTYPE
  5
41
330
5
100
AcDbSymbolTableRecord
100
AcDbLinetypeTableRecord
  2
JWW_HOJO
 70
     0
  3
  -   -   -   -   -   -   -   - 
 72
    65
 73
     2
 40
1.693333333333333
 49
-1.27
 74
     0
 49
0.4233333333333333
 74
     0
  0
LTYPE
  5
42
330
5
100
AcDbSymbolTableRecord
100
AcDbLinetypeTableRecord
  2
JWW_DASHED1
 70
     0
  3
-  --  --  --  --  --  --  --  -
 72
    65
 73
     2
 40
1.693333333333333
 49
0.8466666666666667
 74
     0
 49
-0.8466666666666667
 74
     0
  0
LTYPE
  5
43
330
5
100
AcDbSymbolTableRecord
100
AcDbLinetypeTableRecord
  2
JWW_CENTER1
 70
     0
  3
-----  --  ----------  --  -----
 72
    65
 73
     4
 40
6.773333333333333
 49
4.233333333333333
 74
     0
 49
-0.8466666666666667
 74
     0
 49
0.8466666666666667
 74
     0
 49
-0.8466666666666667
 74
     0
  0
ENDTAB
  0
TABLE
  2
LAYER
  5
2
330
0
100
AcDbSymbolTable
 70
    14
  0
LAYER
  5
10
330
2
100
AcDbSymbolTableRecord
100
AcDbLayerTableRecord
  2
0
 70
     0
 62
     7
  6
Continuous
370
    -3
390
F
347
3E
  0
LAYER
  5
44
330
2
100
AcDbSymbolTableRecord
100
AcDbLayerTableRecord
  2
F-Aﾚｲﾔ
 70
     0
 62
     7
  6
Continuous
370
    -3
390
F
347
3E
  0
LAYER
  5
45
330
2
100
AcDbSymbolTableRecord
100
AcDbLayerTableRecord
  2
F-0ﾚｲﾔ
 70
     0
 62
     7
  6
Continuous
370
    -3
390
F
347
3E
  0
LAYER
  5
46
330
2
100
AcDbSymbolTableRecord
100
AcDbLayerTableRecord
  2
F-1ﾚｲﾔ
 70
     0
 62
     7
  6
Continuous
370
    -3
390
F
347
3E
  0
LAYER
  5
47
330
2
100
AcDbSymbolTableRecord
100
AcDbLayerTableRecord
  2
0-2_柱
 70
     0
 62
     7
  6
Continuous
370
    -3
390
F
347
3E
  0
LAYER
  5
48
330
2
100
AcDbSymbolTableRecord
100
AcDbLayerTableRecord
  2
0-3_仕上
 70
     0
 62
     7
  6
Continuous
370
    -3
390
F
347
3E
  0
LAYER
  5
49
330
2
100
AcDbSymbolTableRecord
100
AcDbLayerTableRecord
  2
0-A_文字
 70
     0
 62
     7
  6
Continuous
370
    -3
390
F
347
3E
  0
LAYER
  5
4A
330
2
100
AcDbSymbolTableRecord
100
AcDbLayerTableRecord
  2
0-B_寸法
 70
     0
 62
     7
  6
Continuous
370
    -3
390
F
347
3E
  0
LAYER
  5
4B
330
2
100
AcDbSymbolTableRecord
100
AcDbLayerTableRecord
  2
0-0_補助線
 70
     0
 62
     7
  6
Continuous
370
    -3
390
F
347
3E
  0
LAYER
  5
4C
330
2
100
AcDbSymbolTableRecord
100
AcDbLayerTableRecord
  2
0-1_通り芯
 70
     0
 62
     7
  6
Continuous
370
    -3
390
F
347
3E
  0
LAYER
  5
4D
330
2
100
AcDbSymbolTableRecord
100
AcDbLayerTableRecord
  2
0-C_ハッチ
 70
     0
 62
     7
  6
Continuous
370
    -3
390
F
347
3E
  0
LAYER
  5
4E
330
2
100
AcDbSymbolTableRecord
100
AcDbLayerTableRecord
  2
0-4_枠
 70
     0
 62
     7
  6
Continuous
370
    -3
390
F
347
3E
  0
LAYER
  5
4F
330
2
100
AcDbSymbolTableRecord
100
AcDbLayerTableRecord
  2
0-7_金物
 70
     0
 62
     7
  6
Continuous
370
    -3
390
F
347
3E
  0
LAYER
  5
50
330
2
100
AcDbSymbolTableRecord
100
AcDbLayerTableRecord
  2
0-E
 70
     0
 62
     7
  6
Continuous
370
    -3
390
F
347
3E
  0
ENDTAB
  0
TABLE
  2
STYLE
  5
3
330
0
100
AcDbSymbolTable
 70
     3
  0
STYLE
  5
11
330
3
100
AcDbSymbolTableRecord
100
AcDbTextStyleTableRecord
  2
Standard
 70
     0
 40
0.0
 41
1.0
 50
0.0
 71
     0
 42
2.5
  3
txt
  4

  0
STYLE
  5
3F
330
3
100
AcDbSymbolTableRecord
100
AcDbTextStyleTableRecord
  2
ＭＳ ゴシック
 70
     0
 40
1.0
 41
1.0
 50
0.0
 71
     0
 42
10.0
  3

  4

1001
ACAD
1000
MS Gothic
1071
    32817
  0
STYLE
  5
40
330
3
100
AcDbSymbolTableRecord
100
AcDbTextStyleTableRecord
  2
HG明朝B
 70
     0
 40
1.0
 41
1.0
 50
0.0
 71
     0
 42
10.0
  3

  4

1001
ACAD
1000
HGMinchoB
1071
    32785
  0
ENDTAB
  0
TABLE
  2
VIEW
  5
6
330
0
100
AcDbSymbolTable
 70
     0
  0
ENDTAB
  0
TABLE
  2
UCS
  5
7
330
0
100
AcDbSymbolTable
 70
     0
  0
ENDTAB
  0
TABLE
  2
APPID
  5
9
330
0
100
AcDbSymbolTable
 70
     1
  0
APPID
  5
12
330
9
100
AcDbSymbolTableRecord
100
AcDbRegAppTableRecord
  2
ACAD
 70
     0
  0
ENDTAB
  0
TABLE
  2
DIMSTYLE
  5
A
330
0
100
AcDbSymbolTable
 70
     1
100
AcDbDimStyleTable
  0
DIMSTYLE
105
27
330
A
100
AcDbSymbolTableRecord
100
AcDbDimStyleTableRecord
  2
ISO-25
 70
     0
 41
2.5
 42
0.625
 43
3.75
 44
1.25
 73
     0
 74
     0
 77
     1
 78
     8
140
2.5
141
2.5
143
0.03937007874016
147
0.625
171
     3
172
     1
178
     0
271
     2
272
     2
274
     3
278
    44
283
     0
284
     8
340
11
  0
ENDTAB
  0
TABLE
  2
BLOCK_RECORD
  5
1
330
0
100
AcDbSymbolTable
 70
     1
  0
BLOCK_RECORD
  5
1F
330
1
100
AcDbSymbolTableRecord
100
AcDbBlockTableRecord
  2
*Model_Space
340
22
 70
     0
280
     1
281
     0
  0
BLOCK_RECORD
  5
1B
330
1
100
AcDbSymbolTableRecord
100
AcDbBlockTableRecord
  2
*Paper_Space
340
1E
 70
     0
280
     1
281
     0
  0
BLOCK_RECORD
  5
23
330
1
100
AcDbSymbolTableRecord
100
AcDbBlockTableRecord
  2
*Paper_Space0
340
26
 70
     0
280
     1
281
     0
  0
ENDTAB
  0
ENDSEC
  0
SECTION
  2
BLOCKS
  0
BLOCK
  5
20
330
1F
100
AcDbEntity
  8
0
100
AcDbBlockBegin
  2
*Model_Space
 70
     0
 10
0.0
 20
0.0
 30
0.0
  3
*Model_Space
  1

  0
ENDBLK
  5
21
330
1F
100
AcDbEntity
  8
0
100
AcDbBlockEnd
  0
BLOCK
  5
1C
330
1B
100
AcDbEntity
 67
     1
  8
0
100
AcDbBlockBegin
  2
*Paper_Space
 70
     0
 10
0.0
 20
0.0
 30
0.0
  3
*Paper_Space
  1

  0
ENDBLK
  5
1D
330
1B
100
AcDbEntity
 67
     1
  8
0
100
AcDbBlockEnd
  0
BLOCK
  5
24
330
23
100
AcDbEntity
  8
0
100
AcDbBlockBegin
  2
*Paper_Space0
 70
     0
 10
0.0
 20
0.0
 30
0.0
  3
*Paper_Space0
  1

  0
ENDBLK
  5
25
330
23
100
AcDbEntity
  8
0
100
AcDbBlockEnd
  0
ENDSEC
  0
SECTION
  2
ENTITIES
  0
TEXT
  5
51
330
1F
100
AcDbEntity
  8
F-Aﾚｲﾔ
  6
Continuous
 62
     7
370
     0
100
AcDbText
 10
15929.16375509889
 20
-13066.04890840783
 30
0.0
 40
228.6
  1
06.08.31
 41
1.145833333333333
  7
ＭＳ ゴシック
100
AcDbText
  0
TEXT
  5
52
330
1F
100
AcDbEntity
  8
F-Aﾚｲﾔ
  6
Continuous
 62
     7
370
     0
100
AcDbText
 10
16770.92381270781
 20
-14318.74497855911
 30
0.0
 40
228.6
  1
,
 41
0.9999999999999998
  7
ＭＳ ゴシック
100
AcDbText
  0
TEXT
  5
53
330
1F
100
AcDbEntity
  8
F-Aﾚｲﾔ
  6
Continuous
 62
     7
370
     0
100
AcDbText
 10
15946.77791417666
 20
-14318.74497855911
 30
0.0
 40
228.6
  1
（
 41
0.9999999999999998
  7
ＭＳ ゴシック
100
AcDbText
  0
TEXT
  5
54
330
1F
100
AcDbEntity
  8
F-Aﾚｲﾔ
  6
Continuous
 62
     7
370
     0
100
AcDbText
 10
17960.49149306671
 20
-14314.09822429427
 30
0.0
 40
228.6
  1
印刷
 41
1.083333333333333
  7
ＭＳ ゴシック
100
AcDbText
  0
TEXT
  5
55
330
1F
100
AcDbEntity
  8
F-Aﾚｲﾔ
  6
Continuous
 62
     7
370
     0
100
AcDbText
 10
17444.70238479034
 20
-14314.09822429427
 30
0.0
 40
228.6
  1
$d
 41
1.083333333333333
  7
ＭＳ ゴシック
100
AcDbText
  0
TEXT
  5
56
330
1F
100
AcDbEntity
  8
F-Aﾚｲﾔ
  6
Continuous
 62
     7
370
     0
100
AcDbText
 10
16928.91327651398
 20
-14314.09822429427
 30
0.0
 40
228.6
  1
$m
 41
1.083333333333333
  7
ＭＳ ゴシック
100
AcDbText
  0
TEXT
  5
57
330
1F
100
AcDbEntity
  8
F-Aﾚｲﾔ
  6
Continuous
 62
     7
370
     0
100
AcDbText
 10
16413.12420638458
 20
-14314.09822429427
 30
0.0
 40
228.6
  1
$y
 41
1.083333333333333
  7
ＭＳ ゴシック
100
AcDbText
  0
TEXT
  5
58
330
1F
100
AcDbEntity
  8
F-Aﾚｲﾔ
  6
Continuous
 62
     7
370
     0
100
AcDbText
 10
17300.65316947357
 20
-14309.45147956619
 30
0.0
 40
228.6
  1
,
 41
0.9999999999999998
  7
ＭＳ ゴシック
100
AcDbText
  0
LINE
  5
59
330
1F
100
AcDbEntity
  8
F-0ﾚｲﾔ
  6
JWW_HOJO
 62
     7
370
     5
100
AcDbLine
 10
-700.000412399703
 20
-12650.00055158461
 30
0.0
 11
-700.000412399703
 21
-13983.33390210126
 31
0.0
  0
LINE
  5
5A
330
1F
100
AcDbEntity
  8
F-0ﾚｲﾔ
  6
JWW_HOJO
 62
     7
370
     5
100
AcDbLine
 10
-17491.82458917613
 20
-12650.00055158461
 30
0.0
 11
-17491.82458917613
 21
-14016.66775780755
 31
0.0
  0
LINE
  5
5B
330
1F
100
AcDbEntity
  8
F-1ﾚｲﾔ
  6
Continuous
 62
   200
370
     5
100
AcDbLine
 10
18999.99587600296
 20
-12633.33393303124
 30
0.0
 11
-19999.9991752006
 21
-12633.33393303124
 31
0.0
  0
LINE
  5
5C
330
1F
100
AcDbEntity
  8
F-1ﾚｲﾔ
  6
Continuous
 62
   200
370
     5
100
AcDbLine
 10
18999.99587600296
 20
-12650.00055158461
 30
0.0
 11
-19999.9991752006
 21
-12650.00055158461
 31
0.0
  0
TEXT
  5
5D
330
1F
100
AcDbEntity
  8
F-Aﾚｲﾔ
  6
Continuous
 62
     7
370
     0
100
AcDbText
 10
18694.67770369904
 20
-14304.80473006973
 30
0.0
 40
228.6
  1
）
 41
0.9999999999999998
  7
ＭＳ ゴシック
100
AcDbText
  0
TEXT
  5
5E
330
1F
100
AcDbEntity
  8
F-Aﾚｲﾔ
  6
Continuous
 62
     7
370
     0
100
AcDbText
 10
4116.66243269637
 20
-13841.8027721619
 30
0.0
 40
152.4
  1
会社
  7
ＭＳ ゴシック
100
AcDbText
  0
TEXT
  5
5F
330
1F
100
AcDbEntity
  8
F-Aﾚｲﾔ
  6
Continuous
 62
     7
370
     0
100
AcDbText
 10
4816.66243269637
 20
-13793.60847302104
 30
0.0
 40
304.8
  1
ウッドワン・・・
 41
1.109375
  7
ＭＳ ゴシック
100
AcDbText
  0
TEXT
  5
60
330
1F
100
AcDbEntity
  8
F-Aﾚｲﾔ
  6
Continuous
 62
     7
370
     5
100
AcDbText
 10
16454.16344526943
 20
-13757.7155836079
 30
0.0
 40
228.6
  1
01
 41
1.083333333333333
  7
ＭＳ ゴシック
100
AcDbText
  0
TEXT
  5
61
330
1F
100
AcDbEntity
  8
F-Aﾚｲﾔ
  6
Continuous
 62
     7
370
     0
100
AcDbText
 10
4116.66243269637
 20
-13601.80277216177
 30
0.0
 40
152.4
  1
株式
  7
ＭＳ ゴシック
100
AcDbText
  0
TEXT
  5
62
330
1F
100
AcDbEntity
  8
F-Aﾚｲﾔ
  6
Continuous
 62
     7
370
     0
100
AcDbText
 10
14266.66408229519
 20
-13571.81339931074
 30
0.0
 40
152.4
  1
ＮＯ．
  7
ＭＳ ゴシック
100
AcDbText
  0
TEXT
  5
63
330
1F
100
AcDbEntity
  8
F-Aﾚｲﾔ
  6
Continuous
 62
     7
370
     0
100
AcDbText
 10
9266.662432696372
 20
-13571.80875186748
 30
0.0
 40
152.4
  1
ＦＩＬＥ
  7
ＭＳ ゴシック
100
AcDbText
  0
LINE
  5
64
330
1F
100
AcDbEntity
  8
F-0ﾚｲﾔ
  6
JWW_HOJO
 62
     7
370
     5
100
AcDbLine
 10
14266.66408229519
 20
-12650.00055158461
 30
0.0
 11
14266.66408229519
 21
-13983.33390210126
 31
0.0
  0
LINE
  5
65
330
1F
100
AcDbEntity
  8
F-0ﾚｲﾔ
  6
JWW_HOJO
 62
     7
370
     5
100
AcDbLine
 10
-200.000412399703
 20
-12650.00055158461
 30
0.0
 11
-200.000412399703
 21
-13983.33390210126
 31
0.0
  0
LINE
  5
66
330
1F
100
AcDbEntity
  8
F-0ﾚｲﾔ
  6
JWW_HOJO
 62
     7
370
     5
100
AcDbLine
 10
9266.662432696372
 20
-12650.00055158461
 30
0.0
 11
9266.662432696372
 21
-13983.33390210126
 31
0.0
  0
LINE
  5
67
330
1F
100
AcDbEntity
  8
F-0ﾚｲﾔ
  6
JWW_HOJO
 62
     7
370
     5
100
AcDbLine
 10
-499.9999631463851
 20
-12833.33299866831
 30
0.0
 11
18966.6637067491
 21
-12833.35109270534
 31
0.0
  0
LINE
  5
68
330
1F
100
AcDbEntity
  8
F-0ﾚｲﾔ
  6
JWW_HOJO
 62
     7
370
     5
100
AcDbLine
 10
-500.0002419928904
 20
-13133.33299866818
 30
0.0
 11
18966.66342790259
 21
-13133.35109270521
 31
0.0
  0
LINE
  5
69
330
1F
100
AcDbEntity
  8
F-0ﾚｲﾔ
  6
JWW_HOJO
 62
     7
370
     5
100
AcDbLine
 10
-500.0005828052906
 20
-13499.99967386802
 30
0.0
 11
18966.66308709019
 21
-13500.01776790505
 31
0.0
  0
LINE
  5
6A
330
1F
100
AcDbEntity
  8
F-0ﾚｲﾔ
  6
JWW_HOJO
 62
     7
370
     5
100
AcDbLine
 10
-500.000861651796
 20
-13799.99967386789
 30
0.0
 11
18966.66280824368
 21
-13800.01776790492
 31
0.0
  0
LINE
  5
6B
330
1F
100
AcDbEntity
  8
F-0ﾚｲﾔ
  6
JWW_HOJO
 62
     7
370
     5
100
AcDbLine
 10
-19966.66663401835
 20
-13616.66699486925
 30
0.0
 11
-500.000412399703
 21
-13616.66699486925
 31
0.0
  0
LINE
  5
6C
330
1F
100
AcDbEntity
  8
F-0ﾚｲﾔ
  6
JWW_HOJO
 62
     7
370
     5
100
AcDbLine
 10
-19966.66663401835
 20
-13016.66699486925
 30
0.0
 11
-500.000412399703
 21
-13016.66699486925
 31
0.0
  0
LINE
  5
6D
330
1F
100
AcDbEntity
  8
F-0ﾚｲﾔ
  6
JWW_HOJO
 62
     7
370
     5
100
AcDbLine
 10
-19966.66663401835
 20
-13316.66699486925
 30
0.0
 11
-500.000412399703
 21
-13316.66699486925
 31
0.0
  0
LINE
  5
6E
330
1F
100
AcDbEntity
  8
F-1ﾚｲﾔ
  6
Continuous
 62
   200
370
     5
100
AcDbLine
 10
-500.000412399703
 20
-13316.6669948681
 30
0.0
 11
18966.66325749578
 21
-13316.68508890513
 31
0.0
  0
LINE
  5
6F
330
1F
100
AcDbEntity
  8
F-1ﾚｲﾔ
  6
Continuous
 62
   200
370
     5
100
AcDbLine
 10
-500.000412399703
 20
-12650.00055158461
 30
0.0
 11
-500.000412399703
 21
-13983.33390210126
 31
0.0
  0
LINE
  5
70
330
1F
100
AcDbEntity
  8
F-1ﾚｲﾔ
  6
Continuous
 62
   200
370
     5
100
AcDbLine
 10
8966.662432696372
 20
-12650.00055158461
 30
0.0
 11
8966.662432696372
 21
-13983.33390210126
 31
0.0
  0
LINE
  5
71
330
1F
100
AcDbEntity
  8
F-1ﾚｲﾔ
  6
Continuous
 62
   200
370
     5
100
AcDbLine
 10
13966.66408229519
 20
-12650.00055158461
 30
0.0
 11
13966.66408229519
 21
-13983.33390210126
 31
0.0
  0
LINE
  5
72
330
1F
100
AcDbEntity
  8
F-1ﾚｲﾔ
  6
Continuous
 62
   200
370
     5
100
AcDbLine
 10
18999.99587600296
 20
-13983.33390210126
 30
0.0
 11
-19999.9991752006
 21
-13983.33390210126
 31
0.0
  0
LINE
  5
73
330
1F
100
AcDbEntity
  8
F-1ﾚｲﾔ
  6
Continuous
 62
   200
370
     5
100
AcDbLine
 10
18999.99587600296
 20
-14000.00052065463
 30
0.0
 11
-19999.9991752006
 21
-14000.00052065463
 31
0.0
  0
LINE
  5
74
330
1F
100
AcDbEntity
  8
F-1ﾚｲﾔ
  6
Continuous
 62
   200
370
     5
100
AcDbLine
 10
18999.99587600296
 20
-14016.66721653294
 30
0.0
 11
-19999.9991752006
 21
-14016.66721653294
 31
0.0
  0
LINE
  5
75
330
1F
100
AcDbEntity
  8
F-0ﾚｲﾔ
  6
JWW_HOJO
 62
     7
370
     5
100
AcDbLine
 10
1166.666391733531
 20
-12650.00055158461
 30
0.0
 11
1166.666391733531
 21
-13983.33390210126
 31
0.0
  0
LINE
  5
76
330
1F
100
AcDbEntity
  8
F-0ﾚｲﾔ
  6
JWW_HOJO
 62
     7
370
     5
100
AcDbLine
 10
2833.331958667654
 20
-12650.00055158461
 30
0.0
 11
2833.331958667654
 21
-13983.33390210126
 31
0.0
  0
TEXT
  5
77
330
1F
100
AcDbEntity
  8
F-Aﾚｲﾔ
  6
Continuous
 62
     7
370
     0
100
AcDbText
 10
1166.666391733531
 20
-13091.0345478154
 30
0.0
 40
220.2
  1
ＪＵＰＩＮＯ・Ｊ
 41
0.8333333333333334
  7
HG明朝B
100
AcDbText
  0
TEXT
  5
78
330
1F
100
AcDbEntity
  8
F-Aﾚｲﾔ
  6
Continuous
 62
     7
370
     0
100
AcDbText
 10
14266.66408229519
 20
-12905.14672411046
 30
0.0
 40
152.4
  1
ＤＡＴＥ
  7
ＭＳ ゴシック
100
AcDbText
  0
TEXT
  5
79
330
1F
100
AcDbEntity
  8
F-Aﾚｲﾔ
  6
Continuous
 62
     7
370
     0
100
AcDbText
 10
9266.662432696372
 20
-12905.14207666719
 30
0.0
 40
152.4
  1
ＳＣＡＬＥ
 41
0.9999999999999999
  7
ＭＳ ゴシック
100
AcDbText
  0
TEXT
  5
7A
330
1F
100
AcDbEntity
  8
F-Aﾚｲﾔ
  6
Continuous
 62
     7
370
     0
100
AcDbText
 10
-200.000412399703
 20
-12905.1332775144
 30
0.0
 40
152.4
  1
図面名
  7
ＭＳ ゴシック
100
AcDbText
  0
LINE
  5
7B
330
1F
100
AcDbEntity
  8
F-0ﾚｲﾔ
  6
Continuous
 62
   200
370
     5
100
AcDbLine
 10
-19999.9991752006
 20
13899.99835040118
 30
0.0
 11
18999.99587600296
 21
13899.99835040118
 31
0.0
  0
LINE
  5
7C
330
1F
100
AcDbEntity
  8
F-0ﾚｲﾔ
  6
Continuous
 62
   200
370
     5
100
AcDbLine
 10
-19999.9991752006
 20
13883.33327834671
 30
0.0
 11
18999.99587600296
 21
13883.33327834671
 31
0.0
  0
LINE
  5
7D
330
1F
100
AcDbEntity
  8
F-0ﾚｲﾔ
  6
Continuous
 62
   200
370
     5
100
AcDbLine
 10
-19999.9991752006
 20
13916.66589685388
 30
0.0
 11
18999.99587600296
 21
13916.66589685388
 31
0.0
  0
LINE
  5
7E
330
1F
100
AcDbEntity
  8
F-0ﾚｲﾔ
  6
Continuous
 62
   200
370
     5
100
AcDbLine
 10
18966.66325749578
 20
13916.66589685388
 30
0.0
 11
18966.66325749578
 21
-14016.66721653294
 31
0.0
  0
LINE
  5
7F
330
1F
100
AcDbEntity
  8
F-0ﾚｲﾔ
  6
Continuous
 62
   200
370
     5
100
AcDbLine
 10
18983.32832955026
 20
13916.66589685388
 30
0.0
 11
18983.32832955026
 21
-14016.66721653294
 31
0.0
  0
LINE
  5
80
330
1F
100
AcDbEntity
  8
F-0ﾚｲﾔ
  6
Continuous
 62
   200
370
     5
100
AcDbLine
 10
-19983.33325257173
 20
13916.66589685388
 30
0.0
 11
-19983.33325257173
 21
-14016.66721653294
 31
0.0
  0
LINE
  5
81
330
1F
100
AcDbEntity
  8
F-0ﾚｲﾔ
  6
Continuous
 62
   200
370
     5
100
AcDbLine
 10
-19966.66663401835
 20
13916.66589685388
 30
0.0
 11
-19966.66663401835
 21
-14016.66721653294
 31
0.0
  0
LINE
  5
82
330
1F
100
AcDbEntity
  8
F-0ﾚｲﾔ
  6
Continuous
 62
   200
370
     5
100
AcDbLine
 10
-19999.99994845003
 20
13916.66589685388
 30
0.0
 11
-19999.99994845003
 21
-14016.66721653294
 31
0.0
  0
LINE
  5
83
330
1F
100
AcDbEntity
  8
F-0ﾚｲﾔ
  6
Continuous
 62
   200
370
     5
100
AcDbLine
 10
18999.99587600296
 20
13916.66589685388
 30
0.0
 11
18999.99587600296
 21
-14016.66721653294
 31
0.0
  0
LINE
  5
84
330
1F
100
AcDbEntity
  8
F-0ﾚｲﾔ
  6
JWW_HOJO
 62
     4
370
     5
100
AcDbLine
 10
19999.99670080236
 20
-14850.0
 30
0.0
 11
-21000.0
 21
-14850.0
 31
0.0
  0
LINE
  5
85
330
1F
100
AcDbEntity
  8
F-0ﾚｲﾔ
  6
JWW_HOJO
 62
     4
370
     5
100
AcDbLine
 10
19999.99670080236
 20
14749.99868032095
 30
0.0
 11
19999.99670080236
 21
-14850.0
 31
0.0
  0
LINE
  5
86
330
1F
100
AcDbEntity
  8
F-0ﾚｲﾔ
  6
JWW_HOJO
 62
     4
370
     5
100
AcDbLine
 10
-21000.0
 20
14749.99868032095
 30
0.0
 11
19999.99670080236
 21
14749.99868032095
 31
0.0
  0
LINE
  5
87
330
1F
100
AcDbEntity
  8
F-0ﾚｲﾔ
  6
JWW_HOJO
 62
     4
370
     5
100
AcDbLine
 10
-21000.0
 20
-14850.0
 30
0.0
 11
-21000.0
 21
14749.99868032095
 31
0.0
  0
LINE
  5
88
330
1F
100
AcDbEntity
  8
0-2_柱
  6
Continuous
 62
     7
370
     5
100
AcDbLine
 10
-14134.26824490885
 20
-1857.297694749337
 30
0.0
 11
-14134.26824490885
 21
-2607.297694749337
 31
0.0
  0
LINE
  5
89
330
1F
100
AcDbEntity
  8
0-3_仕上
  6
Continuous
 62
     7
370
     5
100
AcDbLine
 10
-14409.26824490885
 20
-2344.796210110403
 30
0.0
 11
-14134.26824490885
 21
-2344.796210110403
 31
0.0
  0
LINE
  5
8A
330
1F
100
AcDbEntity
  8
0-3_仕上
  6
Continuous
 62
     7
370
     5
100
AcDbLine
 10
-14634.2677500292
 20
-2119.796704990049
 30
0.0
 11
-14134.26824490885
 21
-2119.796704990049
 31
0.0
  0
LINE
  5
8B
330
1F
100
AcDbEntity
  8
0-A_文字
  6
Continuous
 62
     7
370
     5
100
AcDbLine
 10
14851.2839353466
 20
-7029.581868824084
 30
0.0
 11
14851.2839353466
 21
-7260.904064902144
 31
0.0
  0
TEXT
  5
8C
330
1F
100
AcDbEntity
  8
0-B_寸法
  6
Continuous
 62
     7
370
     0
100
AcDbText
 10
12770.37105002127
 20
1881.29921282961
 30
0.0
 40
228.6
  1
3
 41
0.9999999999999998
  7
ＭＳ ゴシック
100
AcDbText
  0
ARC
  5
8D
330
1F
100
AcDbEntity
  8
0-A_文字
  6
Continuous
 62
     7
370
     5
100
AcDbCircle
 10
12139.16278942233
 20
2742.400456547053
 30
0.0
 40
25.0
100
AcDbArc
 50
180.0
 51
270.0
  0
LINE
  5
8E
330
1F
100
AcDbEntity
  8
0-A_文字
  6
Continuous
 62
     7
370
     5
100
AcDbLine
 10
13258.94747837192
 20
-7293.735870115736
 30
0.0
 11
12883.94617005003
 21
-6918.734606497267
 31
0.0
  0
LINE
  5
8F
330
1F
100
AcDbEntity
  8
0-A_文字
  6
Continuous
 62
     7
370
     5
100
AcDbLine
 10
13435.7246743024
 20
-7293.735870115736
 30
0.0
 11
13060.72341068393
 21
-6918.734606497267
 31
0.0
  0
LINE
  5
90
330
1F
100
AcDbEntity
  8
0-A_文字
  6
Continuous
 62
     7
370
     5
100
AcDbLine
 10
14142.83195598727
 20
-7293.735870115736
 30
0.0
 11
13767.8306923688
 21
-6918.734606497267
 31
0.0
  0
LINE
  5
91
330
1F
100
AcDbEntity
  8
0-A_文字
  6
Continuous
 62
     7
370
     5
100
AcDbLine
 10
14319.60760219699
 20
-7293.735870115736
 30
0.0
 11
13944.60629387511
 21
-6918.734606497267
 31
0.0
  0
LINE
  5
92
330
1F
100
AcDbEntity
  8
0-A_文字
  6
Continuous
 62
     7
370
     5
100
AcDbLine
 10
14439.16278942233
 20
-7293.735870115736
 30
0.0
 11
12489.16278942233
 21
-7293.735870115736
 31
0.0
  0
LINE
  5
93
330
1F
100
AcDbEntity
  8
0-A_文字
  6
JWW_HOJO
 62
     7
370
     5
100
AcDbLine
 10
13614.16278942233
 20
-4544.186475443493
 30
0.0
 11
13614.16278942233
 21
-7707.612413491724
 31
0.0
  0
ARC
  5
94
330
1F
100
AcDbEntity
  8
0-A_文字
  6
Continuous
 62
     7
370
     5
100
AcDbCircle
 10
15146.33952502251
 20
-7026.408698734362
 30
0.0
 40
32.29408025741577
100
AcDbArc
 50
354.3609924316406
 51
185.6387786865234
  0
ARC
  5
95
330
1F
100
AcDbEntity
  8
0-A_文字
  6
Continuous
 62
     7
370
     5
100
AcDbCircle
 10
14883.42252139092
 20
-7026.408698734362
 30
0.0
 40
32.29408025741577
100
AcDbArc
 50
354.3609924316406
 51
185.6387786865234
  0
ARC
  5
96
330
1F
100
AcDbEntity
  8
0-A_文字
  6
Continuous
 62
     7
370
     5
100
AcDbCircle
 10
15011.97425250054
 20
-7026.408698734362
 30
0.0
 40
32.29408025741577
100
AcDbArc
 50
354.3609924316406
 51
185.6387786865234
  0
LINE
  5
97
330
1F
100
AcDbEntity
  8
0-A_文字
  6
Continuous
 62
     7
370
     5
100
AcDbLine
 10
15178.47678545952
 20
-7029.581868824084
 30
0.0
 11
15178.47678545952
 21
-7260.904064902144
 31
0.0
  0
LINE
  5
98
330
1F
100
AcDbEntity
  8
0-A_文字
  6
Continuous
 62
     7
370
     5
100
AcDbLine
 10
15114.20092944145
 20
-7029.581868824084
 30
0.0
 11
15114.20092944145
 21
-7260.904064902144
 31
0.0
  0
LINE
  5
99
330
1F
100
AcDbEntity
  8
0-A_文字
  6
Continuous
 62
     7
370
     5
100
AcDbLine
 10
14915.55980090141
 20
-7029.581868824084
 30
0.0
 11
14915.55980090141
 21
-7260.904064902144
 31
0.0
  0
LINE
  5
9A
330
1F
100
AcDbEntity
  8
0-A_文字
  6
Continuous
 62
     7
370
     5
100
AcDbLine
 10
15044.11151293754
 20
-7029.581868824084
 30
0.0
 11
15044.11151293754
 21
-7260.904064902144
 31
0.0
  0
LINE
  5
9B
330
1F
100
AcDbEntity
  8
0-A_文字
  6
Continuous
 62
     7
370
     5
100
AcDbLine
 10
14979.83565691948
 20
-7029.581868824084
 30
0.0
 11
14979.83565691948
 21
-7260.904064902144
 31
0.0
  0
ARC
  5
9C
330
1F
100
AcDbEntity
  8
0-A_文字
  6
Continuous
 62
     7
370
     5
100
AcDbCircle
 10
15210.6140840435
 20
-7260.680971869308
 30
0.0
 40
32.13871240615845
100
AcDbArc
 50
180.3977355957032
 51
359.6022796630859
  0
ARC
  5
9D
330
1F
100
AcDbEntity
  8
0-A_文字
  6
Continuous
 62
     7
370
     5
100
AcDbCircle
 10
14947.69708041191
 20
-7260.680971869308
 30
0.0
 40
32.13871240615845
100
AcDbArc
 50
180.3977355957032
 51
359.6022796630859
  0
ARC
  5
9E
330
1F
100
AcDbEntity
  8
0-A_文字
  6
Continuous
 62
     7
370
     5
100
AcDbCircle
 10
15076.24879244804
 20
-7260.680971869308
 30
0.0
 40
32.13871240615845
100
AcDbArc
 50
180.3977355957032
 51
359.6022796630859
  0
LINE
  5
9F
330
1F
100
AcDbEntity
  8
0-A_文字
  6
Continuous
 62
     7
370
     5
100
AcDbLine
 10
17469.91902396951
 20
-6993.735870115736
 30
0.0
 11
14839.16278942233
 21
-6993.735870115736
 31
0.0
  0
LINE
  5
A0
330
1F
100
AcDbEntity
  8
0-A_文字
  6
Continuous
 62
     7
370
     5
100
AcDbLine
 10
17086.36601354337
 20
-7293.735870115736
 30
0.0
 11
14904.4366759401
 21
-7293.735870115736
 31
0.0
  0
LINE
  5
A1
330
1F
100
AcDbEntity
  8
0-A_文字
  6
Continuous
 62
     7
370
     5
100
AcDbLine
 10
12789.16278942233
 20
2942.400456547053
 30
0.0
 11
12789.16278942233
 21
5691.658135057698
 31
0.0
  0
LINE
  5
A2
330
1F
100
AcDbEntity
  8
0-A_文字
  6
Continuous
 62
     7
370
     5
100
AcDbLine
 10
12964.16278942233
 20
2942.400456547053
 30
0.0
 11
9939.162789422331
 21
2942.400456547053
 31
0.0
  0
LINE
  5
A3
330
1F
100
AcDbEntity
  8
0-A_文字
  6
Continuous
 62
     7
370
     5
100
AcDbLine
 10
12476.66278942233
 20
5691.658135057698
 30
0.0
 11
12476.66278942233
 21
3242.400456547053
 31
0.0
  0
LINE
  5
A4
330
1F
100
AcDbEntity
  8
0-A_文字
  6
JWW_DASHED1
 62
     7
370
     5
100
AcDbLine
 10
12476.66278942237
 20
3699.470543549421
 30
0.0
 11
12789.16278942237
 21
4011.970543549427
 31
0.0
  0
LINE
  5
A5
330
1F
100
AcDbEntity
  8
0-A_文字
  6
JWW_DASHED1
 62
     7
370
     5
100
AcDbLine
 10
12476.66278942235
 20
3840.891899786742
 30
0.0
 11
12789.16278942236
 21
4153.391899786749
 31
0.0
  0
LINE
  5
A6
330
1F
100
AcDbEntity
  8
0-A_文字
  6
JWW_DASHED1
 62
     7
370
     5
100
AcDbLine
 10
12476.66278942234
 20
3982.313256024062
 30
0.0
 11
12789.16278942234
 21
4294.813256024069
 31
0.0
  0
LINE
  5
A7
330
1F
100
AcDbEntity
  8
0-A_文字
  6
JWW_DASHED1
 62
     7
370
     5
100
AcDbLine
 10
12476.66278942233
 20
4123.734612261384
 30
0.0
 11
12789.16278942233
 21
4436.234612261392
 31
0.0
  0
LINE
  5
A8
330
1F
100
AcDbEntity
  8
0-A_文字
  6
JWW_DASHED1
 62
     7
370
     5
100
AcDbLine
 10
12476.66278942234
 20
4265.155968498728
 30
0.0
 11
12789.16278942235
 21
4577.655968498739
 31
0.0
  0
LINE
  5
A9
330
1F
100
AcDbEntity
  8
0-A_文字
  6
JWW_DASHED1
 62
     7
370
     5
100
AcDbLine
 10
12476.66278942235
 20
4406.577324736078
 30
0.0
 11
12789.16278942237
 21
4719.077324736087
 31
0.0
  0
LINE
  5
AA
330
1F
100
AcDbEntity
  8
0-A_文字
  6
JWW_DASHED1
 62
     7
370
     5
100
AcDbLine
 10
12476.66278942234
 20
4547.9986809734
 30
0.0
 11
12789.16278942235
 21
4860.498680973405
 31
0.0
  0
LINE
  5
AB
330
1F
100
AcDbEntity
  8
0-A_文字
  6
JWW_DASHED1
 62
     7
370
     5
100
AcDbLine
 10
12476.66278942238
 20
4689.420037210773
 30
0.0
 11
12789.16278942234
 21
5001.920037210728
 31
0.0
  0
LINE
  5
AC
330
1F
100
AcDbEntity
  8
0-A_文字
  6
JWW_DASHED1
 62
     7
370
     5
100
AcDbLine
 10
12476.66278942235
 20
4830.841393447899
 30
0.0
 11
12789.16278942237
 21
5143.341393447905
 31
0.0
  0
LINE
  5
AD
330
1F
100
AcDbEntity
  8
0-A_文字
  6
JWW_DASHED1
 62
     7
370
     5
100
AcDbLine
 10
12476.66278942234
 20
4972.262749685218
 30
0.0
 11
12789.16278942235
 21
5284.762749685226
 31
0.0
  0
LINE
  5
AE
330
1F
100
AcDbEntity
  8
0-A_文字
  6
JWW_DASHED1
 62
     7
370
     5
100
AcDbLine
 10
12476.66278942233
 20
5113.684105922541
 30
0.0
 11
12789.16278942234
 21
5426.184105922549
 31
0.0
  0
LINE
  5
AF
330
1F
100
AcDbEntity
  8
0-A_文字
  6
JWW_DASHED1
 62
     7
370
     5
100
AcDbLine
 10
12476.66278942237
 20
5255.105462159905
 30
0.0
 11
12789.16278942238
 21
5567.60546215992
 31
0.0
  0
LINE
  5
B0
330
1F
100
AcDbEntity
  8
0-A_文字
  6
JWW_DASHED1
 62
     7
370
     5
100
AcDbLine
 10
12476.66278942235
 20
5396.52681839723
 30
0.0
 11
12771.79410608279
 21
5691.658135057661
 31
0.0
  0
LINE
  5
B1
330
1F
100
AcDbEntity
  8
0-A_文字
  6
JWW_DASHED1
 62
     7
370
     5
100
AcDbLine
 10
12476.66278942235
 20
5537.948174634557
 30
0.0
 11
12630.37274984547
 21
5691.658135057675
 31
0.0
  0
LINE
  5
B2
330
1F
100
AcDbEntity
  8
0-A_文字
  6
JWW_DASHED1
 62
     7
370
     5
100
AcDbLine
 10
12476.66278942234
 20
5679.369530871877
 30
0.0
 11
12488.95139360815
 21
5691.658135057689
 31
0.0
  0
LINE
  5
B3
330
1F
100
AcDbEntity
  8
0-A_文字
  6
Continuous
 62
     7
370
     5
100
AcDbLine
 10
12556.09329351176
 20
2717.400456547053
 30
0.0
 11
12781.09329351176
 21
2942.400456547053
 31
0.0
  0
ARC
  5
B4
330
1F
100
AcDbEntity
  8
0-A_文字
  6
Continuous
 62
     7
370
     5
100
AcDbCircle
 10
13389.16278942233
 20
-6992.206842936141
 30
0.0
 40
25.0
100
AcDbArc
 50
219.7928363658217
 51
320.2071636341782
  0
LINE
  5
B5
330
1F
100
AcDbEntity
  8
0-A_文字
  6
Continuous
 62
     7
370
     5
100
AcDbLine
 10
13408.37187816897
 20
-7008.20718385512
 30
0.0
 11
13464.16278942233
 21
-6941.227825668409
 31
0.0
  0
LINE
  5
B6
330
1F
100
AcDbEntity
  8
0-A_文字
  6
Continuous
 62
     7
370
     5
100
AcDbLine
 10
13369.95370067569
 20
-7008.20718385512
 30
0.0
 11
13314.16278942233
 21
-6941.227825668409
 31
0.0
  0
ARC
  5
B7
330
1F
100
AcDbEntity
  8
0-A_文字
  6
Continuous
 62
     7
370
     5
100
AcDbCircle
 10
13235.36077602511
 20
-6964.375256888846
 30
0.0
 40
54.00353670120239
100
AcDbArc
 50
4.951354980468766
 51
30.2751922607422
  0
ARC
  5
B8
330
1F
100
AcDbEntity
  8
0-A_文字
  6
Continuous
 62
     7
370
     5
100
AcDbCircle
 10
13281.71207769519
 20
-6923.165641866902
 30
0.0
 40
4.439356923103333
100
AcDbArc
 50
86.49131774902341
 51
171.549560546875
  0
ARC
  5
B9
330
1F
100
AcDbEntity
  8
0-A_文字
  6
Continuous
 62
     7
370
     5
100
AcDbCircle
 10
13542.96480281955
 20
-6964.375256888846
 30
0.0
 40
54.00353670120239
100
AcDbArc
 50
149.7248382568359
 51
175.0486602783203
  0
ARC
  5
BA
330
1F
100
AcDbEntity
  8
0-A_文字
  6
Continuous
 62
     7
370
     5
100
AcDbCircle
 10
13496.61350114947
 20
-6923.165641866902
 30
0.0
 40
4.439356923103333
100
AcDbArc
 50
8.450454711914048
 51
93.50869750976561
  0
LINE
  5
BB
330
1F
100
AcDbEntity
  8
0-A_文字
  6
Continuous
 62
     7
370
     5
100
AcDbLine
 10
13278.09049947864
 20
-7031.234606497267
 30
0.0
 11
13289.16278942233
 21
-7031.234606497267
 31
0.0
  0
LINE
  5
BC
330
1F
100
AcDbEntity
  8
0-A_文字
  6
Continuous
 62
     7
370
     5
100
AcDbLine
 10
13289.16278942233
 20
-6959.714215390662
 30
0.0
 11
13289.16278942233
 21
-7031.234606497267
 31
0.0
  0
LINE
  5
BD
330
1F
100
AcDbEntity
  8
0-A_文字
  6
Continuous
 62
     7
370
     5
100
AcDbLine
 10
13278.09049947864
 20
-7031.234606497267
 30
0.0
 11
13283.12166793948
 21
-7068.968340151289
 31
0.0
  0
LINE
  5
BE
330
1F
100
AcDbEntity
  8
0-A_文字
  6
Continuous
 62
     7
370
     5
100
AcDbLine
 10
13500.23507936603
 20
-7031.234606497267
 30
0.0
 11
13495.20391090518
 21
-7068.968340151289
 31
0.0
  0
LINE
  5
BF
330
1F
100
AcDbEntity
  8
0-A_文字
  6
Continuous
 62
     7
370
     5
100
AcDbLine
 10
13500.23507936603
 20
-7031.234606497267
 30
0.0
 11
13489.16278942233
 21
-7031.234606497267
 31
0.0
  0
LINE
  5
C0
330
1F
100
AcDbEntity
  8
0-A_文字
  6
Continuous
 62
     7
370
     5
100
AcDbLine
 10
13489.16278942233
 20
-6959.714215390662
 30
0.0
 11
13489.16278942233
 21
-7031.234606497267
 31
0.0
  0
LINE
  5
C1
330
1F
100
AcDbEntity
  8
0-A_文字
  6
Continuous
 62
     7
370
     5
100
AcDbLine
 10
13451.66278942233
 20
-7031.234606497267
 30
0.0
 11
13326.66278942233
 21
-7031.234606497267
 31
0.0
  0
LINE
  5
C2
330
1F
100
AcDbEntity
  8
0-A_文字
  6
Continuous
 62
     7
370
     5
100
AcDbLine
 10
13326.66278942233
 20
-6956.234606497267
 30
0.0
 11
13326.66278942233
 21
-7031.234606497267
 31
0.0
  0
LINE
  5
C3
330
1F
100
AcDbEntity
  8
0-A_文字
  6
Continuous
 62
     7
370
     5
100
AcDbLine
 10
13451.66278942233
 20
-6956.234606497267
 30
0.0
 11
13451.66278942233
 21
-7031.234606497267
 31
0.0
  0
LINE
  5
C4
330
1F
100
AcDbEntity
  8
0-A_文字
  6
Continuous
 62
     7
370
     5
100
AcDbLine
 10
13320.39866908198
 20
-6956.234606497267
 30
0.0
 11
13326.66278942233
 21
-6956.234606497267
 31
0.0
  0
LINE
  5
C5
330
1F
100
AcDbEntity
  8
0-A_文字
  6
Continuous
 62
     7
370
     5
100
AcDbLine
 10
13281.99899061328
 20
-6937.149181358794
 30
0.0
 11
13277.32092006808
 21
-6931.532956056574
 31
0.0
  0
LINE
  5
C6
330
1F
100
AcDbEntity
  8
0-A_文字
  6
Continuous
 62
     7
370
     5
100
AcDbLine
 10
13277.32092006808
 20
-6931.532956056574
 30
0.0
 11
13277.32092006808
 21
-6922.513260461667
 31
0.0
  0
LINE
  5
C7
330
1F
100
AcDbEntity
  8
0-A_文字
  6
Continuous
 62
     7
370
     5
100
AcDbLine
 10
13289.16278942233
 20
-6918.734606497267
 30
0.0
 11
13281.983767587
 21
-6918.734606497267
 31
0.0
  0
LINE
  5
C8
330
1F
100
AcDbEntity
  8
0-A_文字
  6
Continuous
 62
     7
370
     5
100
AcDbLine
 10
13320.39866908198
 20
-6956.234606497267
 30
0.0
 11
13289.16278942233
 21
-6918.734606497267
 31
0.0
  0
LINE
  5
C9
330
1F
100
AcDbEntity
  8
0-A_文字
  6
Continuous
 62
     7
370
     5
100
AcDbLine
 10
13457.92690976268
 20
-6956.234606497267
 30
0.0
 11
13451.66278942233
 21
-6956.234606497267
 31
0.0
  0
LINE
  5
CA
330
1F
100
AcDbEntity
  8
0-A_文字
  6
Continuous
 62
     7
370
     5
100
AcDbLine
 10
13496.32658823138
 20
-6937.149181358794
 30
0.0
 11
13501.00465877658
 21
-6931.532956056574
 31
0.0
  0
LINE
  5
CB
330
1F
100
AcDbEntity
  8
0-A_文字
  6
Continuous
 62
     7
370
     5
100
AcDbLine
 10
13501.00465877658
 20
-6931.532956056574
 30
0.0
 11
13501.00465877658
 21
-6922.513260461667
 31
0.0
  0
LINE
  5
CC
330
1F
100
AcDbEntity
  8
0-A_文字
  6
Continuous
 62
     7
370
     5
100
AcDbLine
 10
13489.16278942233
 20
-6918.734606497267
 30
0.0
 11
13496.34181125766
 21
-6918.734606497267
 31
0.0
  0
LINE
  5
CD
330
1F
100
AcDbEntity
  8
0-A_文字
  6
Continuous
 62
     7
370
     5
100
AcDbLine
 10
13457.92690976268
 20
-6956.234606497267
 30
0.0
 11
13489.16278942233
 21
-6918.734606497267
 31
0.0
  0
LINE
  5
CE
330
1F
100
AcDbEntity
  8
0-A_文字
  6
Continuous
 62
     7
370
     5
100
AcDbLine
 10
13276.66278942233
 20
-6918.734606497267
 30
0.0
 11
13276.66278942233
 21
-7068.734606497267
 31
0.0
  0
LINE
  5
CF
330
1F
100
AcDbEntity
  8
0-A_文字
  6
Continuous
 62
     7
370
     5
100
AcDbLine
 10
13501.66278942233
 20
-7068.734606497267
 30
0.0
 11
13276.66278942233
 21
-7068.734606497267
 31
0.0
  0
LINE
  5
D0
330
1F
100
AcDbEntity
  8
0-A_文字
  6
Continuous
 62
     7
370
     5
100
AcDbLine
 10
13501.66278942233
 20
-6918.734606497267
 30
0.0
 11
13501.66278942233
 21
-7068.734606497267
 31
0.0
  0
ARC
  5
D1
330
1F
100
AcDbEntity
  8
0-A_文字
  6
Continuous
 62
     7
370
     5
100
AcDbCircle
 10
12814.16278942233
 20
2767.400456547053
 30
0.0
 40
50.0
100
AcDbArc
 50
270.0
 51
0.0
  0
LINE
  5
D2
330
1F
100
AcDbEntity
  8
0-A_文字
  6
Continuous
 62
     7
370
     5
100
AcDbLine
 10
12697.5146497491
 20
2717.400456547053
 30
0.0
 11
12864.16278942233
 21
2884.04859622029
 31
0.0
  0
LINE
  5
D3
330
1F
100
AcDbEntity
  8
0-A_文字
  6
Continuous
 62
     7
370
     5
100
AcDbLine
 10
12114.16278942233
 20
-6993.735870115736
 30
0.0
 11
12114.16278942233
 21
2942.400456547053
 31
0.0
  0
LINE
  5
D4
330
1F
100
AcDbEntity
  8
0-A_文字
  6
Continuous
 62
     7
370
     5
100
AcDbLine
 10
12139.16278942233
 20
2717.400456547053
 30
0.0
 11
12814.16278942233
 21
2717.400456547053
 31
0.0
  0
LINE
  5
D5
330
1F
100
AcDbEntity
  8
0-A_文字
  6
Continuous
 62
     7
370
     5
100
AcDbLine
 10
12414.67193727443
 20
2717.400456547053
 30
0.0
 11
12639.67193727443
 21
2942.400456547053
 31
0.0
  0
LINE
  5
D6
330
1F
100
AcDbEntity
  8
0-A_文字
  6
Continuous
 62
     7
370
     5
100
AcDbLine
 10
12273.25058103712
 20
2717.400456547053
 30
0.0
 11
12498.25058103712
 21
2942.400456547053
 31
0.0
  0
LINE
  5
D7
330
1F
100
AcDbEntity
  8
0-A_文字
  6
Continuous
 62
     7
370
     5
100
AcDbLine
 10
12131.82922479981
 20
2717.400456547053
 30
0.0
 11
12356.82922479981
 21
2942.400456547053
 31
0.0
  0
LINE
  5
D8
330
1F
100
AcDbEntity
  8
0-A_文字
  6
Continuous
 62
     7
370
     5
100
AcDbLine
 10
12114.16278942233
 20
2841.155377406887
 30
0.0
 11
12215.4078685625
 21
2942.400456547053
 31
0.0
  0
LINE
  5
D9
330
1F
100
AcDbEntity
  8
0-A_文字
  6
Continuous
 62
     7
370
     5
100
AcDbLine
 10
12864.16278942233
 20
-6918.734606497267
 30
0.0
 11
12864.16278942233
 21
2942.400456547053
 31
0.0
  0
LINE
  5
DA
330
1F
100
AcDbEntity
  8
0-B_寸法
  6
Continuous
 62
     3
370
     5
100
AcDbLine
 10
12864.16278942233
 20
1700.691723616075
 30
0.0
 11
12789.16278942233
 21
1700.691723616075
 31
0.0
  0
LWPOLYLINE
  5
DB
330
1F
100
AcDbEntity
  8
0-B_寸法
  6
Continuous
 62
     3
370
     5
100
AcDbPolyline
 90
        4
 70
     1
 43
10.0
 10
12869.16278942233
 20
1700.691723616075
 42
0.4142135623731
 10
12864.16278942233
 20
1705.691723616075
 42
0.4142135623731
 10
12859.16278942233
 20
1700.691723616075
 42
0.4142135623731
 10
12864.16278942233
 20
1695.691723616075
 42
0.4142135623731
  0
LWPOLYLINE
  5
DC
330
1F
100
AcDbEntity
  8
0-B_寸法
  6
Continuous
 62
     3
370
     5
100
AcDbPolyline
 90
        4
 70
     1
 43
10.0
 10
12794.16278942233
 20
1700.691723616075
 42
0.4142135623731
 10
12789.16278942233
 20
1705.691723616075
 42
0.4142135623731
 10
12784.16278942233
 20
1700.691723616075
 42
0.4142135623731
 10
12789.16278942233
 20
1695.691723616075
 42
0.4142135623731
  0
LINE
  5
DD
330
1F
100
AcDbEntity
  8
0-B_寸法
  6
Continuous
 62
     3
370
     5
100
AcDbLine
 10
12864.16278942233
 20
1700.691723616075
 30
0.0
 11
12864.16278942233
 21
1845.285916884771
 31
0.0
  0
LINE
  5
DE
330
1F
100
AcDbEntity
  8
0-B_寸法
  6
Continuous
 62
     3
370
     5
100
AcDbLine
 10
12789.16278942233
 20
1700.691723616075
 30
0.0
 11
12789.16278942233
 21
1845.285916884771
 31
0.0
  0
LINE
  5
DF
330
1F
100
AcDbEntity
  8
0-B_寸法
  6
Continuous
 62
     3
370
     5
100
AcDbLine
 10
12864.16278942233
 20
-14.0405789797164
 30
0.0
 11
12114.16278942233
 21
-14.0405789797164
 31
0.0
  0
LWPOLYLINE
  5
E0
330
1F
100
AcDbEntity
  8
0-B_寸法
  6
Continuous
 62
     3
370
     5
100
AcDbPolyline
 90
        4
 70
     1
 43
10.0
 10
12869.16278942233
 20
-14.0405789797164
 42
0.4142135623731
 10
12864.16278942233
 20
-9.0405789797164
 42
0.4142135623731
 10
12859.16278942233
 20
-14.0405789797164
 42
0.4142135623731
 10
12864.16278942233
 20
-19.0405789797164
 42
0.4142135623731
  0
LWPOLYLINE
  5
E1
330
1F
100
AcDbEntity
  8
0-B_寸法
  6
Continuous
 62
     3
370
     5
100
AcDbPolyline
 90
        4
 70
     1
 43
10.0
 10
12119.16278942233
 20
-14.0405789797164
 42
0.4142135623731
 10
12114.16278942233
 20
-9.0405789797164
 42
0.4142135623731
 10
12109.16278942233
 20
-14.0405789797164
 42
0.4142135623731
 10
12114.16278942233
 20
-19.0405789797164
 42
0.4142135623731
  0
LINE
  5
E2
330
1F
100
AcDbEntity
  8
0-B_寸法
  6
Continuous
 62
     3
370
     5
100
AcDbLine
 10
12864.16278942233
 20
-14.0405789797164
 30
0.0
 11
12864.16278942233
 21
324.8803126948651
 31
0.0
  0
LINE
  5
E3
330
1F
100
AcDbEntity
  8
0-B_寸法
  6
Continuous
 62
     3
370
     5
100
AcDbLine
 10
12114.16278942233
 20
-14.0405789797164
 30
0.0
 11
12114.16278942233
 21
324.8803126948651
 31
0.0
  0
TEXT
  5
E4
330
1F
100
AcDbEntity
  8
0-B_寸法
  6
Continuous
 62
     7
370
     0
100
AcDbText
 10
12326.66278942233
 20
78.25942102028361
 30
0.0
 40
228.6
  1
30
 41
1.083333333333333
  7
ＭＳ ゴシック
100
AcDbText
  0
LINE
  5
E5
330
1F
100
AcDbEntity
  8
0-A_文字
  6
Continuous
 62
     7
370
     5
100
AcDbLine
 10
13789.27909000522
 20
-7293.735870115736
 30
0.0
 11
13501.66278942233
 21
-7006.119569532851
 31
0.0
  0
LINE
  5
E6
330
1F
100
AcDbEntity
  8
0-A_文字
  6
Continuous
 62
     7
370
     5
100
AcDbLine
 10
13966.05473621493
 20
-7293.735870115736
 30
0.0
 11
13591.05193777686
 21
-6918.734606497267
 31
0.0
  0
LINE
  5
E7
330
1F
100
AcDbEntity
  8
0-A_文字
  6
Continuous
 62
     7
370
     5
100
AcDbLine
 10
13612.50187917357
 20
-7293.735870115736
 30
0.0
 11
13387.5006272847
 21
-7068.734606497267
 31
0.0
  0
LINE
  5
E8
330
1F
100
AcDbEntity
  8
0-A_文字
  6
Continuous
 62
     7
370
     5
100
AcDbLine
 10
13276.66278942233
 20
-6957.896762856788
 30
0.0
 11
13237.50063510438
 21
-6918.734606497267
 31
0.0
  0
LINE
  5
E9
330
1F
100
AcDbEntity
  8
0-0_補助線
  6
JWW_HOJO
 62
     7
370
     5
100
AcDbLine
 10
12789.16278942233
 20
-6918.734606497267
 30
0.0
 11
12789.16278942233
 21
2942.400456547053
 31
0.0
  0
ARC
  5
EA
330
1F
100
AcDbEntity
  8
0-A_文字
  6
Continuous
 62
     7
370
     5
100
AcDbCircle
 10
14789.16278942233
 20
-6968.734606497267
 30
0.0
 40
50.0
100
AcDbArc
 50
0.0
 51
90.0
  0
LINE
  5
EB
330
1F
100
AcDbEntity
  8
0-A_文字
  6
Continuous
 62
     7
370
     5
100
AcDbLine
 10
14839.16278942233
 20
-6968.734606497267
 30
0.0
 11
14839.16278942233
 21
-7293.735870115736
 31
0.0
  0
ARC
  5
EC
330
1F
100
AcDbEntity
  8
0-A_文字
  6
Continuous
 62
     7
370
     5
100
AcDbCircle
 10
14819.14534930229
 20
-7260.680971869308
 30
0.0
 40
32.13871240615845
100
AcDbArc
 50
308.5241990416374
 51
359.6022796630859
  0
LINE
  5
ED
330
1F
100
AcDbEntity
  8
0-A_文字
  6
Continuous
 62
     7
370
     5
100
AcDbLine
 10
12789.16278942233
 20
-6968.734606497267
 30
0.0
 11
12789.16278942233
 21
-7293.735870115736
 31
0.0
  0
ARC
  5
EE
330
1F
100
AcDbEntity
  8
0-A_文字
  6
Continuous
 62
     7
370
     5
100
AcDbCircle
 10
12839.16278942233
 20
-6968.734606497267
 30
0.0
 40
50.0
100
AcDbArc
 50
90.0
 51
180.0
  0
LINE
  5
EF
330
1F
100
AcDbEntity
  8
0-A_文字
  6
Continuous
 62
     7
370
     5
100
AcDbLine
 10
13082.17025859958
 20
-7293.735870115736
 30
0.0
 11
12789.16278942233
 21
-7000.728374872569
 31
0.0
  0
LINE
  5
F0
330
1F
100
AcDbEntity
  8
0-A_文字
  6
Continuous
 62
     7
370
     5
100
AcDbLine
 10
12905.39303882724
 20
-7293.735870115736
 30
0.0
 11
12789.16278942233
 21
-7177.505610370994
 31
0.0
  0
LINE
  5
F1
330
1F
100
AcDbEntity
  8
0-A_文字
  6
Continuous
 62
     7
370
     5
100
AcDbLine
 10
14789.16278942233
 20
-6918.734606497267
 30
0.0
 11
13501.66278942233
 21
-6918.734606497267
 31
0.0
  0
LINE
  5
F2
330
1F
100
AcDbEntity
  8
0-A_文字
  6
Continuous
 62
     7
370
     5
100
AcDbLine
 10
14496.38479812747
 20
-7293.735870115736
 30
0.0
 11
14121.383534509
 21
-6918.734606497267
 31
0.0
  0
LINE
  5
F3
330
1F
100
AcDbEntity
  8
0-A_文字
  6
Continuous
 62
     7
370
     5
100
AcDbLine
 10
14673.16195449133
 20
-7293.735870115736
 30
0.0
 11
14298.16075428134
 21
-6918.734606497267
 31
0.0
  0
LINE
  5
F4
330
1F
100
AcDbEntity
  8
0-A_文字
  6
Continuous
 62
     7
370
     5
100
AcDbLine
 10
14839.16278942233
 20
-7282.959546849177
 30
0.0
 11
14474.93791065675
 21
-6918.734606497267
 31
0.0
  0
LINE
  5
F5
330
1F
100
AcDbEntity
  8
0-A_文字
  6
Continuous
 62
     7
370
     5
100
AcDbLine
 10
14839.16278942233
 20
-7106.18236058274
 30
0.0
 11
14651.71506703216
 21
-6918.734606497267
 31
0.0
  0
LINE
  5
F6
330
1F
100
AcDbEntity
  8
0-A_文字
  6
Continuous
 62
     7
370
     5
100
AcDbLine
 10
13764.16278942233
 20
-6768.734606497267
 30
0.0
 11
13014.16278942233
 21
-6768.734606497267
 31
0.0
  0
LINE
  5
F7
330
1F
100
AcDbEntity
  8
0-A_文字
  6
Continuous
 62
     7
370
     5
100
AcDbLine
 10
13314.16278942233
 20
-6768.734606497267
 30
0.0
 11
13314.16278942233
 21
-6941.227825668409
 31
0.0
  0
LINE
  5
F8
330
1F
100
AcDbEntity
  8
0-A_文字
  6
Continuous
 62
     7
370
     5
100
AcDbLine
 10
13464.16278942233
 20
-6768.734606497267
 30
0.0
 11
13464.16278942233
 21
-6941.227825668409
 31
0.0
  0
LINE
  5
F9
330
1F
100
AcDbEntity
  8
0-0_補助線
  6
JWW_HOJO
 62
     4
370
     5
100
AcDbLine
 10
13389.16278942233
 20
6054.655056710245
 30
0.0
 11
13389.16278942233
 21
-7941.312579643871
 31
0.0
  0
LINE
  5
FA
330
1F
100
AcDbEntity
  8
0-A_文字
  6
Continuous
 62
     7
370
     5
100
AcDbLine
 10
12839.16278942233
 20
-6918.734606497267
 30
0.0
 11
13276.66278942233
 21
-6918.734606497267
 31
0.0
  0
LINE
  5
FB
330
1F
100
AcDbEntity
  8
0-A_文字
  6
Continuous
 62
     7
370
     5
100
AcDbLine
 10
12801.41258935863
 20
2942.400456547038
 30
0.0
 11
12789.16278942231
 21
2954.650256483357
 31
0.0
  0
LINE
  5
FC
330
1F
100
AcDbEntity
  8
0-A_文字
  6
Continuous
 62
     7
370
     5
100
AcDbLine
 10
12942.83394559596
 20
2942.40045654705
 30
0.0
 11
12817.83394559597
 21
3067.400456547035
 31
0.0
  0
LINE
  5
FD
330
1F
100
AcDbEntity
  8
0-A_文字
  6
Continuous
 62
     7
370
     5
100
AcDbLine
 10
13084.25530183311
 20
2942.40045654705
 30
0.0
 11
12839.16278942234
 21
3187.492968957819
 31
0.0
  0
LINE
  5
FE
330
1F
100
AcDbEntity
  8
0-A_文字
  6
Continuous
 62
     7
370
     5
100
AcDbLine
 10
12789.16278942233
 20
3067.400456547053
 30
0.0
 11
12839.16278942233
 21
3067.400456547053
 31
0.0
  0
LINE
  5
FF
330
1F
100
AcDbEntity
  8
0-A_文字
  6
Continuous
 62
     7
370
     5
100
AcDbLine
 10
14839.16278942233
 20
3692.400456547053
 30
0.0
 11
12789.16278942233
 21
3692.400456547053
 31
0.0
  0
LINE
  5
100
330
1F
100
AcDbEntity
  8
0-A_文字
  6
Continuous
 62
     7
370
     5
100
AcDbLine
 10
12839.16278942233
 20
3642.400456547053
 30
0.0
 11
12839.16278942233
 21
3067.400456547053
 31
0.0
  0
LINE
  5
101
330
1F
100
AcDbEntity
  8
0-A_文字
  6
Continuous
 62
     7
370
     5
100
AcDbLine
 10
14357.04750796891
 20
2942.40045654707
 30
0.0
 11
13657.04750796893
 21
3642.400456547053
 31
0.0
  0
LINE
  5
102
330
1F
100
AcDbEntity
  8
0-A_文字
  6
Continuous
 62
     7
370
     5
100
AcDbLine
 10
13626.66278942233
 20
3117.400456547053
 30
0.0
 11
13151.66278942233
 21
3117.400456547053
 31
0.0
  0
LINE
  5
103
330
1F
100
AcDbEntity
  8
0-A_文字
  6
Continuous
 62
     7
370
     5
100
AcDbLine
 10
13151.66278942233
 20
2992.400456547053
 30
0.0
 11
13151.66278942233
 21
3117.400456547053
 31
0.0
  0
LINE
  5
104
330
1F
100
AcDbEntity
  8
0-A_文字
  6
Continuous
 62
     7
370
     5
100
AcDbLine
 10
13626.66278942233
 20
2992.400456547053
 30
0.0
 11
13151.66278942233
 21
2992.400456547053
 31
0.0
  0
LINE
  5
105
330
1F
100
AcDbEntity
  8
0-A_文字
  6
Continuous
 62
     7
370
     5
100
AcDbLine
 10
13626.66278942233
 20
2992.400456547053
 30
0.0
 11
13626.66278942233
 21
3117.400456547053
 31
0.0
  0
LINE
  5
106
330
1F
100
AcDbEntity
  8
0-A_文字
  6
Continuous
 62
     7
370
     5
100
AcDbLine
 10
13126.66278942233
 20
2942.400456547053
 30
0.0
 11
13126.66278942233
 21
3317.400456547053
 31
0.0
  0
LINE
  5
107
330
1F
100
AcDbEntity
  8
0-A_文字
  6
Continuous
 62
     7
370
     5
100
AcDbLine
 10
13126.66278942233
 20
3317.400456547053
 30
0.0
 11
13651.66278942233
 21
3317.400456547053
 31
0.0
  0
LINE
  5
108
330
1F
100
AcDbEntity
  8
0-A_文字
  6
Continuous
 62
     7
370
     5
100
AcDbLine
 10
13651.66278942233
 20
2942.400456547053
 30
0.0
 11
13651.66278942233
 21
3317.400456547053
 31
0.0
  0
LINE
  5
109
330
1F
100
AcDbEntity
  8
0-A_文字
  6
Continuous
 62
     7
370
     5
100
AcDbLine
 10
13707.78343925714
 20
2942.400456547024
 30
0.0
 11
13651.66278942231
 21
2998.521106381851
 31
0.0
  0
LINE
  5
10A
330
1F
100
AcDbEntity
  8
0-A_文字
  6
Continuous
 62
     7
370
     5
100
AcDbLine
 10
13189.16278942233
 20
2942.400456547053
 30
0.0
 11
12964.16278942233
 21
2942.400456547053
 31
0.0
  0
LINE
  5
10B
330
1F
100
AcDbEntity
  8
0-A_文字
  6
Continuous
 62
     7
370
     5
100
AcDbLine
 10
13126.66278942233
 20
3041.414325195157
 30
0.0
 11
12839.16278942235
 21
3328.914325195139
 31
0.0
  0
LINE
  5
10C
330
1F
100
AcDbEntity
  8
0-A_文字
  6
Continuous
 62
     7
370
     5
100
AcDbLine
 10
13126.66278942233
 20
3182.835681432491
 30
0.0
 11
12839.16278942231
 21
3470.335681432509
 31
0.0
  0
LINE
  5
10D
330
1F
100
AcDbEntity
  8
0-A_文字
  6
Continuous
 62
     7
370
     5
100
AcDbLine
 10
13133.51937054511
 20
3317.400456547053
 30
0.0
 11
12839.16278942229
 21
3611.757037669874
 31
0.0
  0
LINE
  5
10E
330
1F
100
AcDbEntity
  8
0-A_文字
  6
Continuous
 62
     7
370
     5
100
AcDbLine
 10
13274.94072678244
 20
3317.400456547053
 30
0.0
 11
12949.94072678244
 21
3642.400456547053
 31
0.0
  0
LINE
  5
10F
330
1F
100
AcDbEntity
  8
0-A_文字
  6
Continuous
 62
     7
370
     5
100
AcDbLine
 10
14074.20479549425
 20
2942.400456547053
 30
0.0
 11
13374.20479549425
 21
3642.400456547053
 31
0.0
  0
LINE
  5
110
330
1F
100
AcDbEntity
  8
0-A_文字
  6
Continuous
 62
     7
370
     5
100
AcDbLine
 10
14215.6261517316
 20
2942.400456547053
 30
0.0
 11
13515.62615173159
 21
3642.400456547053
 31
0.0
  0
LINE
  5
111
330
1F
100
AcDbEntity
  8
0-A_文字
  6
Continuous
 62
     7
370
     5
100
AcDbLine
 10
13651.66278942233
 20
2942.400456547053
 30
0.0
 11
14839.16278942233
 21
2942.400456547053
 31
0.0
  0
LINE
  5
112
330
1F
100
AcDbEntity
  8
0-A_文字
  6
Continuous
 62
     7
370
     5
100
AcDbLine
 10
13791.36208301978
 20
2942.400456547053
 30
0.0
 11
13651.66278942233
 21
3082.099750144497
 31
0.0
  0
LINE
  5
113
330
1F
100
AcDbEntity
  8
0-A_文字
  6
Continuous
 62
     7
370
     5
100
AcDbLine
 10
13416.36208301977
 20
3317.400456547053
 30
0.0
 11
13091.36208301977
 21
3642.400456547053
 31
0.0
  0
LINE
  5
114
330
1F
100
AcDbEntity
  8
0-A_文字
  6
Continuous
 62
     7
370
     5
100
AcDbLine
 10
13932.78343925711
 20
2942.400456547053
 30
0.0
 11
13651.66278942233
 21
3223.521106381826
 31
0.0
  0
LINE
  5
115
330
1F
100
AcDbEntity
  8
0-A_文字
  6
Continuous
 62
     7
370
     5
100
AcDbLine
 10
13557.7834392571
 20
3317.400456547053
 30
0.0
 11
13232.7834392571
 21
3642.400456547053
 31
0.0
  0
LINE
  5
116
330
1F
100
AcDbEntity
  8
0-A_文字
  6
Continuous
 62
     7
370
     5
100
AcDbLine
 10
14839.16278942233
 20
2942.400456547053
 30
0.0
 11
14839.16278942233
 21
3692.400456547053
 31
0.0
  0
LINE
  5
117
330
1F
100
AcDbEntity
  8
0-A_文字
  6
Continuous
 62
     7
370
     5
100
AcDbLine
 10
14498.46886420626
 20
2942.400456547053
 30
0.0
 11
13798.46886420625
 21
3642.400456547053
 31
0.0
  0
LINE
  5
118
330
1F
100
AcDbEntity
  8
0-A_文字
  6
Continuous
 62
     7
370
     5
100
AcDbLine
 10
14639.89022044359
 20
2942.400456547053
 30
0.0
 11
13939.89022044359
 21
3642.400456547053
 31
0.0
  0
LINE
  5
119
330
1F
100
AcDbEntity
  8
0-A_文字
  6
JWW_CENTER1
 62
     7
370
     5
100
AcDbLine
 10
8204.503046304057
 20
-7293.735870115736
 30
0.0
 11
17583.96682470819
 21
-7293.735870115736
 31
0.0
  0
LINE
  5
11A
330
1F
100
AcDbEntity
  8
0-A_文字
  6
Continuous
 62
     7
370
     5
100
AcDbLine
 10
8204.503046304057
 20
-7668.735870115736
 30
0.0
 11
17583.96682470819
 21
-7668.735870115736
 31
0.0
  0
LINE
  5
11B
330
1F
100
AcDbEntity
  8
0-A_文字
  6
Continuous
 62
     7
370
     5
100
AcDbLine
 10
8204.503046304057
 20
-7256.235870115736
 30
0.0
 11
12789.16278942233
 21
-7256.235870115736
 31
0.0
  0
LINE
  5
11C
330
1F
100
AcDbEntity
  8
0-A_文字
  6
Continuous
 62
     7
370
     5
100
AcDbLine
 10
8204.503046304057
 20
-7218.735870115736
 30
0.0
 11
12789.16278942233
 21
-7218.735870115736
 31
0.0
  0
LINE
  5
11D
330
1F
100
AcDbEntity
  8
0-A_文字
  6
Continuous
 62
     7
370
     5
100
AcDbLine
 10
8204.503046304057
 20
-7181.235870115736
 30
0.0
 11
12789.16278942233
 21
-7181.235870115736
 31
0.0
  0
LINE
  5
11E
330
1F
100
AcDbEntity
  8
0-A_文字
  6
Continuous
 62
     7
370
     5
100
AcDbLine
 10
8204.503046304057
 20
-7106.235870115736
 30
0.0
 11
12789.16278942233
 21
-7106.235870115736
 31
0.0
  0
LINE
  5
11F
330
1F
100
AcDbEntity
  8
0-A_文字
  6
Continuous
 62
     7
370
     5
100
AcDbLine
 10
8204.503046304057
 20
-7143.735870115736
 30
0.0
 11
12789.16278942233
 21
-7143.735870115736
 31
0.0
  0
LINE
  5
120
330
1F
100
AcDbEntity
  8
0-A_文字
  6
Continuous
 62
     7
370
     5
100
AcDbLine
 10
8204.503046304057
 20
-7068.735870115736
 30
0.0
 11
12789.16278942233
 21
-7068.735870115736
 31
0.0
  0
LINE
  5
121
330
1F
100
AcDbEntity
  8
0-A_文字
  6
Continuous
 62
     7
370
     5
100
AcDbLine
 10
8204.503046304057
 20
-7031.235870115736
 30
0.0
 11
12789.16278942233
 21
-7031.235870115736
 31
0.0
  0
LINE
  5
122
330
1F
100
AcDbEntity
  8
0-A_文字
  6
Continuous
 62
     7
370
     5
100
AcDbLine
 10
8204.503046304057
 20
-6993.735870115736
 30
0.0
 11
12789.16278942233
 21
-6993.735870115736
 31
0.0
  0
ARC
  5
123
330
1F
100
AcDbEntity
  8
0-A_文字
  6
Continuous
 62
     7
370
     5
100
AcDbCircle
 10
15434.49060956407
 20
-7026.408698734362
 30
0.0
 40
32.29408025741577
100
AcDbArc
 50
354.3609924316406
 51
185.6387786865234
  0
LINE
  5
124
330
1F
100
AcDbEntity
  8
0-A_文字
  6
Continuous
 62
     7
370
     5
100
AcDbLine
 10
15466.62787000108
 20
-7029.581868824084
 30
0.0
 11
15466.62787000108
 21
-7260.904064902144
 31
0.0
  0
LINE
  5
125
330
1F
100
AcDbEntity
  8
0-A_文字
  6
Continuous
 62
     7
370
     5
100
AcDbLine
 10
15402.35201398302
 20
-7029.581868824084
 30
0.0
 11
15402.35201398302
 21
-7260.904064902144
 31
0.0
  0
ARC
  5
126
330
1F
100
AcDbEntity
  8
0-A_文字
  6
Continuous
 62
     7
370
     5
100
AcDbCircle
 10
15498.76516858507
 20
-7260.680971869308
 30
0.0
 40
32.13871240615845
100
AcDbArc
 50
180.3977355957032
 51
359.6022796630859
  0
ARC
  5
127
330
1F
100
AcDbEntity
  8
0-A_文字
  6
Continuous
 62
     7
370
     5
100
AcDbCircle
 10
15300.1253370421
 20
-7026.408698734362
 30
0.0
 40
32.29408025741577
100
AcDbArc
 50
354.3609924316406
 51
185.6387786865234
  0
LINE
  5
128
330
1F
100
AcDbEntity
  8
0-A_文字
  6
Continuous
 62
     7
370
     5
100
AcDbLine
 10
15332.26259747911
 20
-7029.581868824084
 30
0.0
 11
15332.26259747911
 21
-7260.904064902144
 31
0.0
  0
LINE
  5
129
330
1F
100
AcDbEntity
  8
0-A_文字
  6
Continuous
 62
     7
370
     5
100
AcDbLine
 10
15267.98674146104
 20
-7029.581868824084
 30
0.0
 11
15267.98674146104
 21
-7260.904064902144
 31
0.0
  0
ARC
  5
12A
330
1F
100
AcDbEntity
  8
0-A_文字
  6
Continuous
 62
     7
370
     5
100
AcDbCircle
 10
15364.39989606309
 20
-7260.680971869308
 30
0.0
 40
32.13871240615845
100
AcDbArc
 50
180.3977355957032
 51
359.6022796630859
  0
ARC
  5
12B
330
1F
100
AcDbEntity
  8
0-A_文字
  6
Continuous
 62
     7
370
     5
100
AcDbCircle
 10
15568.85588208605
 20
-7026.408698734362
 30
0.0
 40
32.29408025741577
100
AcDbArc
 50
354.3609924316406
 51
185.6387786865234
  0
LINE
  5
12C
330
1F
100
AcDbEntity
  8
0-A_文字
  6
Continuous
 62
     7
370
     5
100
AcDbLine
 10
15600.99314252306
 20
-7029.581868824084
 30
0.0
 11
15600.99314252306
 21
-7260.904064902144
 31
0.0
  0
LINE
  5
12D
330
1F
100
AcDbEntity
  8
0-A_文字
  6
Continuous
 62
     7
370
     5
100
AcDbLine
 10
15536.71728650499
 20
-7029.581868824084
 30
0.0
 11
15536.71728650499
 21
-7260.904064902144
 31
0.0
  0
ARC
  5
12E
330
1F
100
AcDbEntity
  8
0-A_文字
  6
Continuous
 62
     7
370
     5
100
AcDbCircle
 10
15633.13044110704
 20
-7260.680971869308
 30
0.0
 40
32.13871240615845
100
AcDbArc
 50
180.3977355957032
 51
359.6022796630859
  0
ARC
  5
12F
330
1F
100
AcDbEntity
  8
0-A_文字
  6
Continuous
 62
     7
370
     5
100
AcDbCircle
 10
15703.22115460802
 20
-7026.408698734362
 30
0.0
 40
32.29408025741577
100
AcDbArc
 50
354.3609924316406
 51
185.6387786865234
  0
LINE
  5
130
330
1F
100
AcDbEntity
  8
0-A_文字
  6
Continuous
 62
     7
370
     5
100
AcDbLine
 10
15735.35841504503
 20
-7029.581868824084
 30
0.0
 11
15735.35841504503
 21
-7260.904064902144
 31
0.0
  0
LINE
  5
131
330
1F
100
AcDbEntity
  8
0-A_文字
  6
Continuous
 62
     7
370
     5
100
AcDbLine
 10
15671.08255902696
 20
-7029.581868824084
 30
0.0
 11
15671.08255902696
 21
-7260.904064902144
 31
0.0
  0
ARC
  5
132
330
1F
100
AcDbEntity
  8
0-A_文字
  6
Continuous
 62
     7
370
     5
100
AcDbCircle
 10
15767.49571362901
 20
-7260.680971869308
 30
0.0
 40
32.13871240615845
100
AcDbArc
 50
180.3977355957032
 51
359.6022796630859
  0
ARC
  5
133
330
1F
100
AcDbEntity
  8
0-A_文字
  6
Continuous
 62
     7
370
     5
100
AcDbCircle
 10
15837.5858869581
 20
-7026.408698734362
 30
0.0
 40
32.29408025741577
100
AcDbArc
 50
354.3609924316406
 51
185.6387786865234
  0
LINE
  5
134
330
1F
100
AcDbEntity
  8
0-A_文字
  6
Continuous
 62
     7
370
     5
100
AcDbLine
 10
15869.72314739511
 20
-7029.581868824084
 30
0.0
 11
15869.72314739511
 21
-7260.904064902144
 31
0.0
  0
LINE
  5
135
330
1F
100
AcDbEntity
  8
0-A_文字
  6
Continuous
 62
     7
370
     5
100
AcDbLine
 10
15805.44729137704
 20
-7029.581868824084
 30
0.0
 11
15805.44729137704
 21
-7260.904064902144
 31
0.0
  0
ARC
  5
136
330
1F
100
AcDbEntity
  8
0-A_文字
  6
Continuous
 62
     7
370
     5
100
AcDbCircle
 10
15901.86044597909
 20
-7260.680971869308
 30
0.0
 40
32.13871240615845
100
AcDbArc
 50
180.3977355957032
 51
359.6022796630859
  0
ARC
  5
137
330
1F
100
AcDbEntity
  8
0-A_文字
  6
Continuous
 62
     7
370
     5
100
AcDbCircle
 10
15971.95115948007
 20
-7026.408698734362
 30
0.0
 40
32.29408025741577
100
AcDbArc
 50
354.3609924316406
 51
185.6387786865234
  0
LINE
  5
138
330
1F
100
AcDbEntity
  8
0-A_文字
  6
Continuous
 62
     7
370
     5
100
AcDbLine
 10
16004.08841991708
 20
-7029.581868824084
 30
0.0
 11
16004.08841991708
 21
-7260.904064902144
 31
0.0
  0
LINE
  5
139
330
1F
100
AcDbEntity
  8
0-A_文字
  6
Continuous
 62
     7
370
     5
100
AcDbLine
 10
15939.81256389901
 20
-7029.581868824084
 30
0.0
 11
15939.81256389901
 21
-7260.904064902144
 31
0.0
  0
ARC
  5
13A
330
1F
100
AcDbEntity
  8
0-A_文字
  6
Continuous
 62
     7
370
     5
100
AcDbCircle
 10
16036.22571850107
 20
-7260.680971869308
 30
0.0
 40
32.13871240615845
100
AcDbArc
 50
180.3977355957032
 51
359.6022796630859
  0
ARC
  5
13B
330
1F
100
AcDbEntity
  8
0-A_文字
  6
Continuous
 62
     7
370
     5
100
AcDbCircle
 10
16106.31589183015
 20
-7026.408698734362
 30
0.0
 40
32.29408025741577
100
AcDbArc
 50
354.3609924316406
 51
185.6387786865234
  0
LINE
  5
13C
330
1F
100
AcDbEntity
  8
0-A_文字
  6
Continuous
 62
     7
370
     5
100
AcDbLine
 10
16138.45315226716
 20
-7029.581868824084
 30
0.0
 11
16138.45315226716
 21
-7260.904064902144
 31
0.0
  0
LINE
  5
13D
330
1F
100
AcDbEntity
  8
0-A_文字
  6
Continuous
 62
     7
370
     5
100
AcDbLine
 10
16074.17729624909
 20
-7029.581868824084
 30
0.0
 11
16074.17729624909
 21
-7260.904064902144
 31
0.0
  0
ARC
  5
13E
330
1F
100
AcDbEntity
  8
0-A_文字
  6
Continuous
 62
     7
370
     5
100
AcDbCircle
 10
16170.59045085114
 20
-7260.680971869308
 30
0.0
 40
32.13871240615845
100
AcDbArc
 50
180.3977355957032
 51
359.6022796630859
  0
ARC
  5
13F
330
1F
100
AcDbEntity
  8
0-A_文字
  6
Continuous
 62
     7
370
     5
100
AcDbCircle
 10
16240.68062418022
 20
-7026.408698734362
 30
0.0
 40
32.29408025741577
100
AcDbArc
 50
354.3609924316406
 51
185.6387786865234
  0
LINE
  5
140
330
1F
100
AcDbEntity
  8
0-A_文字
  6
Continuous
 62
     7
370
     5
100
AcDbLine
 10
16272.81788461723
 20
-7029.581868824084
 30
0.0
 11
16272.81788461723
 21
-7260.904064902144
 31
0.0
  0
LINE
  5
141
330
1F
100
AcDbEntity
  8
0-A_文字
  6
Continuous
 62
     7
370
     5
100
AcDbLine
 10
16208.54202859917
 20
-7029.581868824084
 30
0.0
 11
16208.54202859917
 21
-7260.904064902144
 31
0.0
  0
ARC
  5
142
330
1F
100
AcDbEntity
  8
0-A_文字
  6
Continuous
 62
     7
370
     5
100
AcDbCircle
 10
16304.95518320122
 20
-7260.680971869308
 30
0.0
 40
32.13871240615845
100
AcDbArc
 50
180.3977355957032
 51
359.6022796630859
  0
ARC
  5
143
330
1F
100
AcDbEntity
  8
0-A_文字
  6
Continuous
 62
     7
370
     5
100
AcDbCircle
 10
16375.04589670219
 20
-7026.408698734362
 30
0.0
 40
32.29408025741577
100
AcDbArc
 50
354.3609924316406
 51
185.6387786865234
  0
LINE
  5
144
330
1F
100
AcDbEntity
  8
0-A_文字
  6
Continuous
 62
     7
370
     5
100
AcDbLine
 10
16407.18315713921
 20
-7029.581868824084
 30
0.0
 11
16407.18315713921
 21
-7260.904064902144
 31
0.0
  0
LINE
  5
145
330
1F
100
AcDbEntity
  8
0-A_文字
  6
Continuous
 62
     7
370
     5
100
AcDbLine
 10
16342.90730112114
 20
-7029.581868824084
 30
0.0
 11
16342.90730112114
 21
-7260.904064902144
 31
0.0
  0
ARC
  5
146
330
1F
100
AcDbEntity
  8
0-A_文字
  6
Continuous
 62
     7
370
     5
100
AcDbCircle
 10
16439.32045572319
 20
-7260.680971869308
 30
0.0
 40
32.13871240615845
100
AcDbArc
 50
180.3977355957032
 51
359.6022796630859
  0
LWPOLYLINE
  5
147
330
1F
100
AcDbEntity
  8
0-A_文字
  6
Continuous
 62
     7
370
     5
100
AcDbPolyline
 90
        4
 70
     1
 43
10.0
 10
15837.08813935208
 20
-7068.734606497267
 42
0.4142135623731
 10
15832.08813935208
 20
-7063.734606497267
 42
0.4142135623731
 10
15827.08813935208
 20
-7068.734606497267
 42
0.4142135623731
 10
15832.08813935208
 20
-7073.734606497267
 42
0.4142135623731
  0
LINE
  5
148
330
1F
100
AcDbEntity
  8
0-A_文字
  6
Continuous
 62
     7
370
     5
100
AcDbLine
 10
17077.97419277312
 20
2942.400456547053
 30
0.0
 11
15778.00430457956
 21
2942.400456547053
 31
0.0
  0
LINE
  5
149
330
1F
100
AcDbEntity
  8
0-3_仕上
  6
Continuous
 62
     7
370
     5
100
AcDbLine
 10
7657.45856598165
 20
13916.66589685388
 30
0.0
 11
7657.45856598165
 21
-12633.33339175662
 31
0.0
  0
LINE
  5
14A
330
1F
100
AcDbEntity
  8
0-3_仕上
  6
Continuous
 62
     7
370
     5
100
AcDbLine
 10
-19999.99917520059
 20
13008.33327834671
 30
0.0
 11
18999.99587600296
 21
13008.33327834671
 31
0.0
  0
TEXT
  5
14B
330
1F
100
AcDbEntity
  8
0-A_文字
  6
Continuous
 62
     7
370
     0
100
AcDbText
 10
8491.945911296967
 20
13261.43281340618
 30
0.0
 40
304.8
  1
断面詳細図
 41
1.1
  7
ＭＳ ゴシック
100
AcDbText
  0
TEXT
  5
14C
330
1F
100
AcDbEntity
  8
0-A_文字
  6
Continuous
 62
     3
370
     0
100
AcDbText
 10
205.6629834254135
 20
13250.61049723757
 30
0.0
 40
381.0
  1
６尺モジュール（DW=846）
 41
1.091666666666667
  7
ＭＳ ゴシック
100
AcDbText
  0
LINE
  5
14D
330
1F
100
AcDbEntity
  8
0-A_文字
  6
Continuous
 62
     7
370
     5
100
AcDbLine
 10
14776.66278942233
 20
3642.400456547053
 30
0.0
 11
12839.16278942233
 21
3642.400456547053
 31
0.0
  0
LINE
  5
14E
330
1F
100
AcDbEntity
  8
0-A_文字
  6
Continuous
 62
     7
370
     5
100
AcDbLine
 10
14776.66278942233
 20
3642.400456547053
 30
0.0
 11
14776.66278942233
 21
3692.400456547053
 31
0.0
  0
LINE
  5
14F
330
1F
100
AcDbEntity
  8
0-A_文字
  6
Continuous
 62
     7
370
     5
100
AcDbLine
 10
14839.16278942233
 20
3025.970600042973
 30
0.0
 11
14222.73293291826
 21
3642.400456547053
 31
0.0
  0
LINE
  5
150
330
1F
100
AcDbEntity
  8
0-A_文字
  6
Continuous
 62
     7
370
     5
100
AcDbLine
 10
14781.31157668093
 20
2942.400456547053
 30
0.0
 11
14081.31157668092
 21
3642.400456547053
 31
0.0
  0
LINE
  5
151
330
1F
100
AcDbEntity
  8
0-A_文字
  6
Continuous
 62
     7
370
     5
100
AcDbLine
 10
14839.16278942233
 20
3167.39195628029
 30
0.0
 11
14364.15428915559
 21
3642.400456547053
 31
0.0
  0
LINE
  5
152
330
1F
100
AcDbEntity
  8
0-A_文字
  6
Continuous
 62
     7
370
     5
100
AcDbLine
 10
14839.16278942233
 20
3308.813312517602
 30
0.0
 11
14505.5756453929
 21
3642.400456547053
 31
0.0
  0
LINE
  5
153
330
1F
100
AcDbEntity
  8
0-A_文字
  6
Continuous
 62
     7
370
     5
100
AcDbLine
 10
14839.16278942233
 20
3450.234668754915
 30
0.0
 11
14646.9970016302
 21
3642.400456547053
 31
0.0
  0
LINE
  5
154
330
1F
100
AcDbEntity
  8
0-A_文字
  6
Continuous
 62
     7
370
     5
100
AcDbLine
 10
14839.16278942233
 20
3591.656024992228
 30
0.0
 11
14776.66278942233
 21
3654.156024992232
 31
0.0
  0
LINE
  5
155
330
1F
100
AcDbEntity
  8
0-1_通り芯
  6
JWW_CENTER1
 62
     3
370
     5
100
AcDbLine
 10
11364.16278942233
 20
6074.761913212226
 30
0.0
 11
11364.16278942233
 21
-8214.364640883976
 31
0.0
  0
LINE
  5
156
330
1F
100
AcDbEntity
  8
0-0_補助線
  6
JWW_HOJO
 62
     3
370
     5
100
AcDbLine
 10
10251.66278942233
 20
6074.761913212226
 30
0.0
 11
10251.66278942233
 21
-8214.364640883976
 31
0.0
  0
LINE
  5
157
330
1F
100
AcDbEntity
  8
0-A_文字
  6
Continuous
 62
     7
370
     5
100
AcDbLine
 10
9939.162789422331
 20
3242.400456547053
 30
0.0
 11
12789.16278942233
 21
3242.400456547053
 31
0.0
  0
LINE
  5
158
330
1F
100
AcDbEntity
  8
0-A_文字
  6
JWW_HOJO
 62
     7
370
     5
100
AcDbLine
 10
12837.37375535671
 20
5691.658135057698
 30
0.0
 11
9473.198949774247
 21
5691.658135057698
 31
0.0
  0
LINE
  5
159
330
1F
100
AcDbEntity
  8
0-A_文字
  6
Continuous
 62
     7
370
     5
100
AcDbLine
 10
10251.66278942233
 20
5691.658135057698
 30
0.0
 11
10251.66278942233
 21
3242.400456547053
 31
0.0
  0
LINE
  5
15A
330
1F
100
AcDbEntity
  8
0-A_文字
  6
Continuous
 62
     7
370
     5
100
AcDbLine
 10
9939.162789422331
 20
5691.658135057698
 30
0.0
 11
9939.162789422331
 21
2942.400456547053
 31
0.0
  0
LINE
  5
15B
330
1F
100
AcDbEntity
  8
0-A_文字
  6
JWW_DASHED1
 62
     7
370
     5
100
AcDbLine
 10
9939.162789422326
 20
3307.55495582102
 30
0.0
 11
10251.66278942233
 21
3620.054955821027
 31
0.0
  0
LINE
  5
15C
330
1F
100
AcDbEntity
  8
0-A_文字
  6
JWW_DASHED1
 62
     7
370
     5
100
AcDbLine
 10
9939.16278942232
 20
3448.976312058346
 30
0.0
 11
10251.66278942233
 21
3761.476312058359
 31
0.0
  0
LINE
  5
15D
330
1F
100
AcDbEntity
  8
0-A_文字
  6
JWW_DASHED1
 62
     7
370
     5
100
AcDbLine
 10
9939.162789422355
 20
3590.397668295715
 30
0.0
 11
10251.66278942236
 21
3902.897668295722
 31
0.0
  0
LINE
  5
15E
330
1F
100
AcDbEntity
  8
0-A_文字
  6
JWW_DASHED1
 62
     7
370
     5
100
AcDbLine
 10
9939.162789422395
 20
3731.81902453309
 30
0.0
 11
10251.66278942235
 21
4044.319024533043
 31
0.0
  0
LINE
  5
15F
330
1F
100
AcDbEntity
  8
0-A_文字
  6
JWW_DASHED1
 62
     7
370
     5
100
AcDbLine
 10
9939.162789422384
 20
3873.24038077041
 30
0.0
 11
10251.66278942234
 21
4185.740380770365
 31
0.0
  0
LINE
  5
160
330
1F
100
AcDbEntity
  8
0-A_文字
  6
JWW_DASHED1
 62
     7
370
     5
100
AcDbLine
 10
9939.162789422357
 20
4014.661737007535
 30
0.0
 11
10251.66278942236
 21
4327.161737007542
 31
0.0
  0
LINE
  5
161
330
1F
100
AcDbEntity
  8
0-A_文字
  6
JWW_DASHED1
 62
     7
370
     5
100
AcDbLine
 10
9939.162789422344
 20
4156.083093244855
 30
0.0
 11
10251.66278942235
 21
4468.583093244863
 31
0.0
  0
LINE
  5
162
330
1F
100
AcDbEntity
  8
0-A_文字
  6
JWW_DASHED1
 62
     7
370
     5
100
AcDbLine
 10
9939.162789422331
 20
4297.504449482178
 30
0.0
 11
10251.66278942234
 21
4610.004449482183
 31
0.0
  0
LINE
  5
163
330
1F
100
AcDbEntity
  8
0-A_文字
  6
JWW_DASHED1
 62
     7
370
     5
100
AcDbLine
 10
9939.16278942232
 20
4438.925805719499
 30
0.0
 11
10251.66278942233
 21
4751.425805719505
 31
0.0
  0
LINE
  5
164
330
1F
100
AcDbEntity
  8
0-A_文字
  6
JWW_DASHED1
 62
     7
370
     5
100
AcDbLine
 10
9939.162789422338
 20
4580.347161956847
 30
0.0
 11
10251.66278942235
 21
4892.847161956861
 31
0.0
  0
LINE
  5
165
330
1F
100
AcDbEntity
  8
0-A_文字
  6
JWW_DASHED1
 62
     7
370
     5
100
AcDbLine
 10
9939.16278942235
 20
4721.768518194192
 30
0.0
 11
10251.66278942235
 21
5034.268518194201
 31
0.0
  0
LINE
  5
166
330
1F
100
AcDbEntity
  8
0-A_文字
  6
JWW_DASHED1
 62
     7
370
     5
100
AcDbLine
 10
9939.16278942239
 20
4863.189874431568
 30
0.0
 11
10251.66278942234
 21
5175.689874431519
 31
0.0
  0
LINE
  5
167
330
1F
100
AcDbEntity
  8
0-A_文字
  6
JWW_DASHED1
 62
     7
370
     5
100
AcDbLine
 10
9939.16278942236
 20
5004.611230668691
 30
0.0
 11
10251.66278942237
 21
5317.111230668699
 31
0.0
  0
LINE
  5
168
330
1F
100
AcDbEntity
  8
0-A_文字
  6
JWW_DASHED1
 62
     7
370
     5
100
AcDbLine
 10
9939.16278942235
 20
5146.032586906013
 30
0.0
 11
10251.66278942235
 21
5458.532586906019
 31
0.0
  0
LINE
  5
169
330
1F
100
AcDbEntity
  8
0-A_文字
  6
JWW_DASHED1
 62
     7
370
     5
100
AcDbLine
 10
9939.162789422338
 20
5287.453943143335
 30
0.0
 11
10251.66278942234
 21
5599.95394314334
 31
0.0
  0
LINE
  5
16A
330
1F
100
AcDbEntity
  8
0-A_文字
  6
JWW_DASHED1
 62
     7
370
     5
100
AcDbLine
 10
9939.162789422326
 20
5428.875299380654
 30
0.0
 11
10201.94562509937
 21
5691.658135057698
 31
0.0
  0
LINE
  5
16B
330
1F
100
AcDbEntity
  8
0-A_文字
  6
JWW_DASHED1
 62
     7
370
     5
100
AcDbLine
 10
9939.162789422364
 20
5570.296655618027
 30
0.0
 11
10060.524268862
 21
5691.658135057661
 31
0.0
  0
LINE
  5
16C
330
1F
100
AcDbEntity
  8
0-A_文字
  6
Continuous
 62
     7
370
     5
100
AcDbLine
 10
9939.162789422331
 20
2942.400456547053
 30
0.0
 11
9939.162789422331
 21
-6993.735870115736
 31
0.0
  0
LINE
  5
16D
330
1F
100
AcDbEntity
  8
0-3_仕上
  6
Continuous
 62
     7
370
     5
100
AcDbLine
 10
10251.66278942233
 20
5467.400456547052
 30
0.0
 11
12476.66278942233
 21
5467.400456547052
 31
0.0
  0
LINE
  5
16E
330
1F
100
AcDbEntity
  8
0-3_仕上
  6
Continuous
 62
     7
370
     5
100
AcDbLine
 10
11526.66278942233
 20
5467.400456547052
 30
0.0
 11
11526.66278942233
 21
3242.400456547053
 31
0.0
  0
LINE
  5
16F
330
1F
100
AcDbEntity
  8
0-3_仕上
  6
Continuous
 62
     7
370
     5
100
AcDbLine
 10
11201.66278942233
 20
5467.400456547052
 30
0.0
 11
11201.66278942233
 21
3242.400456547053
 31
0.0
  0
LINE
  5
170
330
1F
100
AcDbEntity
  8
0-3_仕上
  6
Continuous
 62
     7
370
     5
100
AcDbLine
 10
10251.66278942233
 20
3242.400456547053
 30
0.0
 11
11201.66278942233
 21
5467.400456547052
 31
0.0
  0
LINE
  5
171
330
1F
100
AcDbEntity
  8
0-3_仕上
  6
Continuous
 62
     7
370
     5
100
AcDbLine
 10
11526.66278942233
 20
3242.400456547053
 30
0.0
 11
12476.66278942233
 21
5467.400456547052
 31
0.0
  0
LINE
  5
172
330
1F
100
AcDbEntity
  8
0-A_文字
  6
JWW_DASHED1
 62
     7
370
     5
100
AcDbLine
 10
12476.66278942233
 20
3558.049187312237
 30
0.0
 11
12789.16278942234
 21
3870.54918731225
 31
0.0
  0
LINE
  5
173
330
1F
100
AcDbEntity
  8
0-A_文字
  6
JWW_DASHED1
 62
     7
370
     5
100
AcDbLine
 10
12476.66278942233
 20
3416.627831074899
 30
0.0
 11
12789.16278942235
 21
3729.127831074929
 31
0.0
  0
LINE
  5
174
330
1F
100
AcDbEntity
  8
0-A_文字
  6
JWW_DASHED1
 62
     7
370
     5
100
AcDbLine
 10
12476.66278942233
 20
3275.206474837571
 30
0.0
 11
12789.16278942233
 21
3587.706474837563
 31
0.0
  0
TEXT
  5
175
330
1F
100
AcDbEntity
  8
0-A_文字
  6
Continuous
 62
     7
370
     0
100
AcDbText
 10
-19376.53373831531
 20
13276.1009766699
 30
0.0
 40
304.8
  1
片引き戸（入隅開口）
 41
1.1125
  7
ＭＳ ゴシック
100
AcDbText
  0
LINE
  5
176
330
1F
100
AcDbEntity
  8
0-3_仕上
  6
Continuous
 62
     7
370
     5
100
AcDbLine
 10
-15121.76824490885
 20
3367.500064435629
 30
0.0
 11
-15121.76824490885
 21
905.2029650901886
 31
0.0
  0
LINE
  5
177
330
1F
100
AcDbEntity
  8
0-A_文字
  6
Continuous
 62
     7
370
     5
100
AcDbLine
 10
-5058.108576940099
 20
-1632.296210110403
 30
0.0
 11
-4758.107587180807
 21
-1632.296210110403
 31
0.0
  0
LINE
  5
178
330
1F
100
AcDbEntity
  8
0-C_ハッチ
  6
JWW_DASHED1
 62
     3
370
     5
100
AcDbLine
 10
-1729.557980445165
 20
-1632.296210110403
 30
0.0
 11
-1417.056330846346
 21
-1319.797034909811
 31
0.0
  0
LINE
  5
179
330
1F
100
AcDbEntity
  8
0-C_ハッチ
  6
JWW_DASHED1
 62
     3
370
     5
100
AcDbLine
 10
-1870.977262275823
 20
-1632.296210110403
 30
0.0
 11
-1558.478087075232
 21
-1319.797034909811
 31
0.0
  0
LINE
  5
17A
330
1F
100
AcDbEntity
  8
0-C_ハッチ
  6
JWW_DASHED1
 62
     3
370
     5
100
AcDbLine
 10
-2012.399018504709
 20
-1632.296210110403
 30
0.0
 11
-1699.899843304118
 21
-1319.797034909811
 31
0.0
  0
LINE
  5
17B
330
1F
100
AcDbEntity
  8
0-C_ハッチ
  6
JWW_DASHED1
 62
     3
370
     5
100
AcDbLine
 10
-2153.820774733594
 20
-1632.296210110403
 30
0.0
 11
-1841.321599533003
 21
-1319.797034909811
 31
0.0
  0
LINE
  5
17C
330
1F
100
AcDbEntity
  8
0-C_ハッチ
  6
JWW_DASHED1
 62
     3
370
     5
100
AcDbLine
 10
-2295.242530962479
 20
-1632.296210110403
 30
0.0
 11
-1982.743355761889
 21
-1319.797034909811
 31
0.0
  0
LINE
  5
17D
330
1F
100
AcDbEntity
  8
0-C_ハッチ
  6
JWW_DASHED1
 62
     3
370
     5
100
AcDbLine
 10
-2436.664287191365
 20
-1632.296210110403
 30
0.0
 11
-2124.162637592548
 21
-1319.797034909811
 31
0.0
  0
LINE
  5
17E
330
1F
100
AcDbEntity
  8
0-C_ハッチ
  6
JWW_DASHED1
 62
     3
370
     5
100
AcDbLine
 10
-2578.08604342025
 20
-1632.296210110403
 30
0.0
 11
-2265.584393821433
 21
-1319.797034909811
 31
0.0
  0
LINE
  5
17F
330
1F
100
AcDbEntity
  8
0-C_ハッチ
  6
JWW_DASHED1
 62
     3
370
     5
100
AcDbLine
 10
-2719.507799649135
 20
-1632.296210110403
 30
0.0
 11
-2407.006150050318
 21
-1319.797034909811
 31
0.0
  0
LINE
  5
180
330
1F
100
AcDbEntity
  8
0-C_ハッチ
  6
JWW_DASHED1
 62
     3
370
     5
100
AcDbLine
 10
-2860.927081479795
 20
-1632.296210110403
 30
0.0
 11
-2548.427906279203
 21
-1319.797034909811
 31
0.0
  0
LINE
  5
181
330
1F
100
AcDbEntity
  8
0-C_ハッチ
  6
JWW_DASHED1
 62
     3
370
     5
100
AcDbLine
 10
-3002.34883770868
 20
-1632.296210110403
 30
0.0
 11
-2689.849662508089
 21
-1319.797034909811
 31
0.0
  0
LINE
  5
182
330
1F
100
AcDbEntity
  8
0-C_ハッチ
  6
JWW_DASHED1
 62
     3
370
     5
100
AcDbLine
 10
-3143.770593937566
 20
-1632.296210110403
 30
0.0
 11
-2831.271418736972
 21
-1319.797034909811
 31
0.0
  0
LINE
  5
183
330
1F
100
AcDbEntity
  8
0-C_ハッチ
  6
JWW_DASHED1
 62
     3
370
     5
100
AcDbLine
 10
-3285.192350166448
 20
-1632.296210110403
 30
0.0
 11
-2972.693174965857
 21
-1319.797034909811
 31
0.0
  0
LINE
  5
184
330
1F
100
AcDbEntity
  8
0-C_ハッチ
  6
JWW_DASHED1
 62
     3
370
     5
100
AcDbLine
 10
-3426.614106395333
 20
-1632.296210110403
 30
0.0
 11
-3114.112456796516
 21
-1319.797034909811
 31
0.0
  0
LINE
  5
185
330
1F
100
AcDbEntity
  8
0-C_ハッチ
  6
JWW_DASHED1
 62
     3
370
     5
100
AcDbLine
 10
-3568.035862624219
 20
-1632.296210110403
 30
0.0
 11
-3255.534213025401
 21
-1319.797034909811
 31
0.0
  0
LINE
  5
186
330
1F
100
AcDbEntity
  8
0-C_ハッチ
  6
JWW_DASHED1
 62
     3
370
     5
100
AcDbLine
 10
-3709.455144454878
 20
-1632.296210110403
 30
0.0
 11
-3396.955969254287
 21
-1319.797034909811
 31
0.0
  0
LINE
  5
187
330
1F
100
AcDbEntity
  8
0-C_ハッチ
  6
JWW_DASHED1
 62
     3
370
     5
100
AcDbLine
 10
-3850.876900683763
 20
-1632.296210110403
 30
0.0
 11
-3538.377725483172
 21
-1319.797034909811
 31
0.0
  0
LINE
  5
188
330
1F
100
AcDbEntity
  8
0-C_ハッチ
  6
JWW_DASHED1
 62
     3
370
     5
100
AcDbLine
 10
-3992.298656912649
 20
-1632.296210110403
 30
0.0
 11
-3679.799481712058
 21
-1319.797034909811
 31
0.0
  0
LINE
  5
189
330
1F
100
AcDbEntity
  8
0-C_ハッチ
  6
JWW_DASHED1
 62
     3
370
     5
100
AcDbLine
 10
-4133.720413141534
 20
-1632.296210110403
 30
0.0
 11
-3821.221237940943
 21
-1319.797034909811
 31
0.0
  0
LINE
  5
18A
330
1F
100
AcDbEntity
  8
0-C_ハッチ
  6
JWW_DASHED1
 62
     3
370
     5
100
AcDbLine
 10
-4275.14216937042
 20
-1632.296210110403
 30
0.0
 11
-3962.640519771602
 21
-1319.797034909811
 31
0.0
  0
LINE
  5
18B
330
1F
100
AcDbEntity
  8
0-C_ハッチ
  6
JWW_DASHED1
 62
     3
370
     5
100
AcDbLine
 10
-4416.563925599305
 20
-1632.296210110403
 30
0.0
 11
-4104.062276000487
 21
-1319.797034909811
 31
0.0
  0
LINE
  5
18C
330
1F
100
AcDbEntity
  8
0-C_ハッチ
  6
JWW_DASHED1
 62
     3
370
     5
100
AcDbLine
 10
-4557.983207429964
 20
-1632.296210110403
 30
0.0
 11
-4245.484032229373
 21
-1319.797034909811
 31
0.0
  0
LINE
  5
18D
330
1F
100
AcDbEntity
  8
0-C_ハッチ
  6
JWW_DASHED1
 62
     3
370
     5
100
AcDbLine
 10
-4699.404963658849
 20
-1632.296210110403
 30
0.0
 11
-4386.905788458255
 21
-1319.797034909811
 31
0.0
  0
LINE
  5
18E
330
1F
100
AcDbEntity
  8
0-B_寸法
  6
Continuous
 62
     3
370
     5
100
AcDbLine
 10
-5058.108576940099
 20
3333.227174602436
 30
0.0
 11
-5058.108576940099
 21
2290.273270991795
 31
0.0
  0
LINE
  5
18F
330
1F
100
AcDbEntity
  8
0-0_補助線
  6
JWW_HOJO
 62
     3
370
     5
100
AcDbLine
 10
-9646.188493404414
 20
807.3540419482981
 30
0.0
 11
-9646.188493404414
 21
-223.2303449288139
 31
0.0
  0
LINE
  5
190
330
1F
100
AcDbEntity
  8
0-C_ハッチ
  6
JWW_DASHED1
 62
     3
370
     5
100
AcDbLine
 10
-15434.26865730855
 20
3352.426030440697
 30
0.0
 11
-15365.69318486345
 21
3420.999028487572
 31
0.0
  0
LINE
  5
191
330
1F
100
AcDbEntity
  8
0-B_寸法
  6
Continuous
 62
     3
370
     5
100
AcDbLine
 10
-15121.76824490885
 20
3333.227174602436
 30
0.0
 11
-15121.76824490885
 21
2290.273270991795
 31
0.0
  0
LINE
  5
192
330
1F
100
AcDbEntity
  8
0-A_文字
  6
Continuous
 62
     7
370
     5
100
AcDbLine
 10
-15121.76824490885
 20
-1907.298354588866
 30
0.0
 11
-15121.76824490885
 21
-1319.797034909811
 31
0.0
  0
LINE
  5
193
330
1F
100
AcDbEntity
  8
0-C_ハッチ
  6
JWW_DASHED1
 62
     3
370
     5
100
AcDbLine
 10
-15434.26865730855
 20
3069.582517982926
 30
0.0
 11
-15134.26766754926
 21
3369.583507742218
 31
0.0
  0
LINE
  5
194
330
1F
100
AcDbEntity
  8
0-C_ハッチ
  6
JWW_DASHED1
 62
     3
370
     5
100
AcDbLine
 10
-15434.26865730855
 20
3211.004274211811
 30
0.0
 11
-15224.27266583368
 21
3420.999028487572
 31
0.0
  0
LINE
  5
195
330
1F
100
AcDbEntity
  8
0-C_ハッチ
  6
JWW_DASHED1
 62
     3
370
     5
100
AcDbLine
 10
-15434.26865730855
 20
2928.16076175404
 30
0.0
 11
-15134.26766754926
 21
3228.161751513332
 31
0.0
  0
LINE
  5
196
330
1F
100
AcDbEntity
  8
0-C_ハッチ
  6
JWW_DASHED1
 62
     3
370
     5
100
AcDbLine
 10
-15434.26865730855
 20
2786.739005525155
 30
0.0
 11
-15134.26766754926
 21
3086.739995284447
 31
0.0
  0
LINE
  5
197
330
1F
100
AcDbEntity
  8
0-C_ハッチ
  6
JWW_DASHED1
 62
     3
370
     5
100
AcDbLine
 10
-15434.26865730855
 20
2645.317249296269
 30
0.0
 11
-15134.26766754926
 21
2945.318239055561
 31
0.0
  0
LINE
  5
198
330
1F
100
AcDbEntity
  8
0-C_ハッチ
  6
JWW_DASHED1
 62
     3
370
     5
100
AcDbLine
 10
-15434.26865730855
 20
2503.897967465613
 30
0.0
 11
-15134.26766754926
 21
2803.896482826676
 31
0.0
  0
LINE
  5
199
330
1F
100
AcDbEntity
  8
0-C_ハッチ
  6
JWW_DASHED1
 62
     3
370
     5
100
AcDbLine
 10
-15434.26865730855
 20
2362.476211236728
 30
0.0
 11
-15134.26766754926
 21
2662.47472659779
 31
0.0
  0
LINE
  5
19A
330
1F
100
AcDbEntity
  8
0-C_ハッチ
  6
JWW_DASHED1
 62
     3
370
     5
100
AcDbLine
 10
-15434.26865730855
 20
2221.054455007843
 30
0.0
 11
-15134.26766754926
 21
2521.055444767134
 31
0.0
  0
LINE
  5
19B
330
1F
100
AcDbEntity
  8
0-C_ハッチ
  6
JWW_DASHED1
 62
     3
370
     5
100
AcDbLine
 10
-15434.26865730855
 20
2079.632698778957
 30
0.0
 11
-15134.26766754926
 21
2379.633688538249
 31
0.0
  0
LINE
  5
19C
330
1F
100
AcDbEntity
  8
0-C_ハッチ
  6
JWW_DASHED1
 62
     3
370
     5
100
AcDbLine
 10
-15434.26865730855
 20
1938.210942550072
 30
0.0
 11
-15134.26766754926
 21
2238.211932309363
 31
0.0
  0
LINE
  5
19D
330
1F
100
AcDbEntity
  8
0-C_ハッチ
  6
JWW_DASHED1
 62
     3
370
     5
100
AcDbLine
 10
-15434.26865730855
 20
1796.789186321186
 30
0.0
 11
-15134.26766754926
 21
2096.790176080478
 31
0.0
  0
LINE
  5
19E
330
1F
100
AcDbEntity
  8
0-C_ハッチ
  6
JWW_DASHED1
 62
     3
370
     5
100
AcDbLine
 10
-15300.67094827139
 20
-4150.731301696129
 30
0.0
 11
-15121.76824490885
 21
-3971.828598333587
 31
0.0
  0
LINE
  5
19F
330
1F
100
AcDbEntity
  8
0-C_ハッチ
  6
JWW_DASHED1
 62
     3
370
     5
100
AcDbLine
 10
-15434.26865730855
 20
-4142.907254504406
 30
0.0
 11
-15121.76824490885
 21
-3830.406842104702
 31
0.0
  0
LINE
  5
1A0
330
1F
100
AcDbEntity
  8
0-C_ハッチ
  6
JWW_DASHED1
 62
     3
370
     5
100
AcDbLine
 10
-15434.26865730855
 20
-4001.48549827552
 30
0.0
 11
-15121.76824490885
 21
-3688.985085875816
 31
0.0
  0
LINE
  5
1A1
330
1F
100
AcDbEntity
  8
0-C_ハッチ
  6
JWW_DASHED1
 62
     3
370
     5
100
AcDbLine
 10
-15434.26865730855
 20
-3860.063742046637
 30
0.0
 11
-15121.76824490885
 21
-3547.563329646931
 31
0.0
  0
LINE
  5
1A2
330
1F
100
AcDbEntity
  8
0-C_ハッチ
  6
JWW_DASHED1
 62
     3
370
     5
100
AcDbLine
 10
-15434.26865730855
 20
-3718.641985817751
 30
0.0
 11
-15121.76824490885
 21
-3406.142810617161
 31
0.0
  0
LINE
  5
1A3
330
1F
100
AcDbEntity
  8
0-C_ハッチ
  6
JWW_DASHED1
 62
     3
370
     5
100
AcDbLine
 10
-15434.26865730855
 20
-3577.221466787978
 30
0.0
 11
-15121.76824490885
 21
-3264.721054388275
 31
0.0
  0
LINE
  5
1A4
330
1F
100
AcDbEntity
  8
0-C_ハッチ
  6
JWW_DASHED1
 62
     3
370
     5
100
AcDbLine
 10
-15434.26865730855
 20
-3435.799710559093
 30
0.0
 11
-15121.76824490885
 21
-3123.29929815939
 31
0.0
  0
LINE
  5
1A5
330
1F
100
AcDbEntity
  8
0-C_ハッチ
  6
JWW_DASHED1
 62
     3
370
     5
100
AcDbLine
 10
-15434.26865730855
 20
-3294.377954330207
 30
0.0
 11
-15121.76824490885
 21
-2981.878779129616
 31
0.0
  0
LINE
  5
1A6
330
1F
100
AcDbEntity
  8
0-C_ハッチ
  6
JWW_DASHED1
 62
     3
370
     5
100
AcDbLine
 10
-15434.26865730855
 20
-3152.957435300436
 30
0.0
 11
-15121.76824490885
 21
-2840.458260099845
 31
0.0
  0
LINE
  5
1A7
330
1F
100
AcDbEntity
  8
0-C_ハッチ
  6
JWW_DASHED1
 62
     3
370
     5
100
AcDbLine
 10
-15434.26865730855
 20
-3011.535679071551
 30
0.0
 11
-15121.76824490885
 21
-2699.03650387096
 31
0.0
  0
LINE
  5
1A8
330
1F
100
AcDbEntity
  8
0-C_ハッチ
  6
JWW_DASHED1
 62
     3
370
     5
100
AcDbLine
 10
-15434.26865730855
 20
-2870.113922842665
 30
0.0
 11
-15121.76824490885
 21
-2557.614747642074
 31
0.0
  0
LINE
  5
1A9
330
1F
100
AcDbEntity
  8
0-C_ハッチ
  6
JWW_DASHED1
 62
     3
370
     5
100
AcDbLine
 10
-15434.26865730855
 20
-2728.69216661378
 30
0.0
 11
-15121.76824490885
 21
-2416.192991413189
 31
0.0
  0
LINE
  5
1AA
330
1F
100
AcDbEntity
  8
0-C_ハッチ
  6
JWW_DASHED1
 62
     3
370
     5
100
AcDbLine
 10
-15434.26865730855
 20
-2587.272884783121
 30
0.0
 11
-15121.76824490885
 21
-2274.771235184303
 31
0.0
  0
LINE
  5
1AB
330
1F
100
AcDbEntity
  8
0-C_ハッチ
  6
JWW_DASHED1
 62
     3
370
     5
100
AcDbLine
 10
-15434.26865730855
 20
-2445.851128554236
 30
0.0
 11
-15121.76824490885
 21
-2133.349478955418
 31
0.0
  0
LINE
  5
1AC
330
1F
100
AcDbEntity
  8
0-C_ハッチ
  6
JWW_DASHED1
 62
     3
370
     5
100
AcDbLine
 10
-15434.26865730855
 20
-2304.429372325353
 30
0.0
 11
-15121.76824490885
 21
-1991.930197124762
 31
0.0
  0
LINE
  5
1AD
330
1F
100
AcDbEntity
  8
0-B_寸法
  6
Continuous
 62
     3
370
     5
100
AcDbLine
 10
-5283.108082060453
 20
2290.273270991795
 30
0.0
 11
-5058.108576940099
 21
2290.273270991795
 31
0.0
  0
TEXT
  5
1AE
330
1F
100
AcDbEntity
  8
0-B_寸法
  6
Continuous
 62
     7
370
     0
100
AcDbText
 10
-5267.229621202133
 20
2377.980952843566
 30
0.0
 40
228.6
  1
9
 41
0.9999999999999998
  7
ＭＳ ゴシック
100
AcDbText
  0
LWPOLYLINE
  5
1AF
330
1F
100
AcDbEntity
  8
0-B_寸法
  6
Continuous
 62
     3
370
     5
100
AcDbPolyline
 90
        4
 70
     1
 43
10.0
 10
-5053.1085769401
 20
2290.273270991795
 42
0.4142135623731
 10
-5058.108576940099
 20
2295.273270991795
 42
0.4142135623731
 10
-5063.108576940099
 20
2290.273270991795
 42
0.4142135623731
 10
-5058.108576940099
 20
2285.273270991795
 42
0.4142135623731
  0
LWPOLYLINE
  5
1B0
330
1F
100
AcDbEntity
  8
0-B_寸法
  6
Continuous
 62
     3
370
     5
100
AcDbPolyline
 90
        4
 70
     1
 43
10.0
 10
-5053.1085769401
 20
3333.227174602436
 42
0.4142135623731
 10
-5058.108576940099
 20
3338.227174602436
 42
0.4142135623731
 10
-5063.108576940099
 20
3333.227174602436
 42
0.4142135623731
 10
-5058.108576940099
 20
3328.227174602436
 42
0.4142135623731
  0
LWPOLYLINE
  5
1B1
330
1F
100
AcDbEntity
  8
0-B_寸法
  6
Continuous
 62
     3
370
     5
100
AcDbPolyline
 90
        4
 70
     1
 43
10.0
 10
-5278.108082060454
 20
2290.273270991795
 42
0.4142135623731
 10
-5283.108082060453
 20
2295.273270991795
 42
0.4142135623731
 10
-5288.108082060453
 20
2290.273270991795
 42
0.4142135623731
 10
-5283.108082060453
 20
2285.273270991795
 42
0.4142135623731
  0
LINE
  5
1B2
330
1F
100
AcDbEntity
  8
0-A_文字
  6
Continuous
 62
     7
370
     5
100
AcDbLine
 10
-5058.108576940099
 20
-1107.297694749337
 30
0.0
 11
-5058.108576940099
 21
-1407.296210110403
 31
0.0
  0
LINE
  5
1B3
330
1F
100
AcDbEntity
  8
0-B_寸法
  6
Continuous
 62
     3
370
     5
100
AcDbLine
 10
-5058.108576940099
 20
-336.6735855326993
 30
0.0
 11
-5058.108576940099
 21
-846.1942451082905
 31
0.0
  0
LINE
  5
1B4
330
1F
100
AcDbEntity
  8
0-B_寸法
  6
Continuous
 62
     3
370
     5
100
AcDbLine
 10
-5058.108576940099
 20
-336.6735855326993
 30
0.0
 11
-5283.108082060453
 21
-336.6735855326993
 31
0.0
  0
LINE
  5
1B5
330
1F
100
AcDbEntity
  8
0-B_寸法
  6
Continuous
 62
     3
370
     5
100
AcDbLine
 10
-5283.108082060453
 20
-336.6735855326993
 30
0.0
 11
-5283.108082060453
 21
-846.1942451082905
 31
0.0
  0
LINE
  5
1B6
330
1F
100
AcDbEntity
  8
0-4_枠
  6
Continuous
 62
     3
370
     5
100
AcDbLine
 10
-5058.108576940099
 20
-1074.964733125606
 30
0.0
 11
-5175.773635797784
 21
-957.2971998696943
 31
0.0
  0
LINE
  5
1B7
330
1F
100
AcDbEntity
  8
0-A_文字
  6
Continuous
 62
     7
370
     5
100
AcDbLine
 10
-5058.108576940099
 20
-1682.298354588866
 30
0.0
 11
-5058.108576940099
 21
-1407.296210110403
 31
0.0
  0
TEXT
  5
1B8
330
1F
100
AcDbEntity
  8
0-B_寸法
  6
Continuous
 62
     7
370
     0
100
AcDbText
 10
-5244.932818784482
 20
-236.2573943903841
 30
0.0
 40
228.6
  1
9
 41
0.9999999999999998
  7
ＭＳ ゴシック
100
AcDbText
  0
LWPOLYLINE
  5
1B9
330
1F
100
AcDbEntity
  8
0-B_寸法
  6
Continuous
 62
     3
370
     5
100
AcDbPolyline
 90
        4
 70
     1
 43
10.0
 10
-5053.1085769401
 20
-336.6735855326993
 42
0.4142135623731
 10
-5058.108576940099
 20
-331.6735855326993
 42
0.4142135623731
 10
-5063.108576940099
 20
-336.6735855326993
 42
0.4142135623731
 10
-5058.108576940099
 20
-341.6735855326993
 42
0.4142135623731
  0
LWPOLYLINE
  5
1BA
330
1F
100
AcDbEntity
  8
0-B_寸法
  6
Continuous
 62
     3
370
     5
100
AcDbPolyline
 90
        4
 70
     1
 43
10.0
 10
-5278.108082060454
 20
-336.6735855326993
 42
0.4142135623731
 10
-5283.108082060453
 20
-331.6735855326993
 42
0.4142135623731
 10
-5288.108082060453
 20
-336.6735855326993
 42
0.4142135623731
 10
-5283.108082060453
 20
-341.6735855326993
 42
0.4142135623731
  0
LINE
  5
1BB
330
1F
100
AcDbEntity
  8
0-C_ハッチ
  6
JWW_DASHED1
 62
     3
370
     5
100
AcDbLine
 10
-1305.29271175851
 20
-1632.296210110403
 30
0.0
 11
-1299.447513812155
 21
-1626.451012164046
 31
0.0
  0
LINE
  5
1BC
330
1F
100
AcDbEntity
  8
0-C_ハッチ
  6
JWW_DASHED1
 62
     3
370
     5
100
AcDbLine
 10
-1446.714467987396
 20
-1632.296210110403
 30
0.0
 11
-1299.447513812155
 21
-1485.029255935161
 31
0.0
  0
LINE
  5
1BD
330
1F
100
AcDbEntity
  8
0-C_ハッチ
  6
JWW_DASHED1
 62
     3
370
     5
100
AcDbLine
 10
-1588.136224216282
 20
-1632.296210110403
 30
0.0
 11
-1299.447513812155
 21
-1343.609785552876
 31
0.0
  0
LINE
  5
1BE
330
1F
100
AcDbEntity
  8
0-2_柱
  6
Continuous
 62
     7
370
     5
100
AcDbLine
 10
-4758.107587180807
 20
-1319.797034909811
 30
0.0
 11
-1299.447513812155
 21
-1319.797034909811
 31
0.0
  0
LINE
  5
1BF
330
1F
100
AcDbEntity
  8
0-3_仕上
  6
Continuous
 62
     7
370
     5
100
AcDbLine
 10
-4758.107587180807
 20
-1632.296210110403
 30
0.0
 11
-1299.447513812155
 21
-1632.296210110403
 31
0.0
  0
LINE
  5
1C0
330
1F
100
AcDbEntity
  8
0-C_ハッチ
  6
JWW_DASHED1
 62
     3
370
     5
100
AcDbLine
 10
3986.114683683857
 20
-1632.296210110403
 30
0.0
 11
4298.616333282675
 21
-1319.797034909811
 31
0.0
  0
LINE
  5
1C1
330
1F
100
AcDbEntity
  8
0-C_ハッチ
  6
JWW_DASHED1
 62
     3
370
     5
100
AcDbLine
 10
3844.692927454972
 20
-1632.296210110403
 30
0.0
 11
4157.19457705379
 21
-1319.797034909811
 31
0.0
  0
LINE
  5
1C2
330
1F
100
AcDbEntity
  8
0-C_ハッチ
  6
JWW_DASHED1
 62
     3
370
     5
100
AcDbLine
 10
3703.273645624316
 20
-1632.296210110403
 30
0.0
 11
4015.772820824904
 21
-1319.797034909811
 31
0.0
  0
LINE
  5
1C3
330
1F
100
AcDbEntity
  8
0-C_ハッチ
  6
JWW_DASHED1
 62
     3
370
     5
100
AcDbLine
 10
3561.85188939543
 20
-1632.296210110403
 30
0.0
 11
3874.351064596024
 21
-1319.797034909811
 31
0.0
  0
LINE
  5
1C4
330
1F
100
AcDbEntity
  8
0-C_ハッチ
  6
JWW_DASHED1
 62
     3
370
     5
100
AcDbLine
 10
3420.430133166545
 20
-1632.296210110403
 30
0.0
 11
3732.929308367139
 21
-1319.797034909811
 31
0.0
  0
LINE
  5
1C5
330
1F
100
AcDbEntity
  8
0-C_ハッチ
  6
JWW_DASHED1
 62
     3
370
     5
100
AcDbLine
 10
3279.008376937659
 20
-1632.296210110403
 30
0.0
 11
3591.507552138253
 21
-1319.797034909811
 31
0.0
  0
LINE
  5
1C6
330
1F
100
AcDbEntity
  8
0-C_ハッチ
  6
JWW_DASHED1
 62
     3
370
     5
100
AcDbLine
 10
3137.586620708774
 20
-1632.296210110403
 30
0.0
 11
3450.085795909368
 21
-1319.797034909811
 31
0.0
  0
LINE
  5
1C7
330
1F
100
AcDbEntity
  8
0-C_ハッチ
  6
JWW_DASHED1
 62
     3
370
     5
100
AcDbLine
 10
2996.164864479888
 20
-1632.296210110403
 30
0.0
 11
3308.666514078706
 21
-1319.797034909811
 31
0.0
  0
LINE
  5
1C8
330
1F
100
AcDbEntity
  8
0-C_ハッチ
  6
JWW_DASHED1
 62
     3
370
     5
100
AcDbLine
 10
2854.743108251003
 20
-1632.296210110403
 30
0.0
 11
3167.244757849821
 21
-1319.797034909811
 31
0.0
  0
LINE
  5
1C9
330
1F
100
AcDbEntity
  8
0-C_ハッチ
  6
JWW_DASHED1
 62
     3
370
     5
100
AcDbLine
 10
2713.323826420347
 20
-1632.296210110403
 30
0.0
 11
3025.823001620935
 21
-1319.797034909811
 31
0.0
  0
LINE
  5
1CA
330
1F
100
AcDbEntity
  8
0-C_ハッチ
  6
JWW_DASHED1
 62
     3
370
     5
100
AcDbLine
 10
2571.902070191461
 20
-1632.296210110403
 30
0.0
 11
2884.40124539205
 21
-1319.797034909811
 31
0.0
  0
LINE
  5
1CB
330
1F
100
AcDbEntity
  8
0-C_ハッチ
  6
JWW_DASHED1
 62
     3
370
     5
100
AcDbLine
 10
2430.480313962576
 20
-1632.296210110403
 30
0.0
 11
2742.979489163165
 21
-1319.797034909811
 31
0.0
  0
LINE
  5
1CC
330
1F
100
AcDbEntity
  8
0-C_ハッチ
  6
JWW_DASHED1
 62
     3
370
     5
100
AcDbLine
 10
2289.058557733691
 20
-1632.296210110403
 30
0.0
 11
2601.557732934279
 21
-1319.797034909811
 31
0.0
  0
LINE
  5
1CD
330
1F
100
AcDbEntity
  8
0-C_ハッチ
  6
JWW_DASHED1
 62
     3
370
     5
100
AcDbLine
 10
2147.636801504805
 20
-1632.296210110403
 30
0.0
 11
2460.138451103623
 21
-1319.797034909811
 31
0.0
  0
LINE
  5
1CE
330
1F
100
AcDbEntity
  8
0-C_ハッチ
  6
JWW_DASHED1
 62
     3
370
     5
100
AcDbLine
 10
2006.21504527592
 20
-1632.296210110403
 30
0.0
 11
2318.716694874738
 21
-1319.797034909811
 31
0.0
  0
LINE
  5
1CF
330
1F
100
AcDbEntity
  8
0-C_ハッチ
  6
JWW_DASHED1
 62
     3
370
     5
100
AcDbLine
 10
1864.795763445264
 20
-1632.296210110403
 30
0.0
 11
2177.294938645852
 21
-1319.797034909811
 31
0.0
  0
LINE
  5
1D0
330
1F
100
AcDbEntity
  8
0-C_ハッチ
  6
JWW_DASHED1
 62
     3
370
     5
100
AcDbLine
 10
1723.374007216378
 20
-1632.296210110403
 30
0.0
 11
2035.873182416967
 21
-1319.797034909811
 31
0.0
  0
LINE
  5
1D1
330
1F
100
AcDbEntity
  8
0-C_ハッチ
  6
JWW_DASHED1
 62
     3
370
     5
100
AcDbLine
 10
1581.952250987493
 20
-1632.296210110403
 30
0.0
 11
1894.451426188081
 21
-1319.797034909811
 31
0.0
  0
LINE
  5
1D2
330
1F
100
AcDbEntity
  8
0-C_ハッチ
  6
JWW_DASHED1
 62
     3
370
     5
100
AcDbLine
 10
1440.530494758607
 20
-1632.296210110403
 30
0.0
 11
1753.029669959196
 21
-1319.797034909811
 31
0.0
  0
LINE
  5
1D3
330
1F
100
AcDbEntity
  8
0-C_ハッチ
  6
JWW_DASHED1
 62
     3
370
     5
100
AcDbLine
 10
1299.108738529722
 20
-1632.296210110403
 30
0.0
 11
1611.61038812854
 21
-1319.797034909811
 31
0.0
  0
LINE
  5
1D4
330
1F
100
AcDbEntity
  8
0-C_ハッチ
  6
JWW_DASHED1
 62
     3
370
     5
100
AcDbLine
 10
1157.686982300836
 20
-1632.296210110403
 30
0.0
 11
1470.188631899654
 21
-1319.797034909811
 31
0.0
  0
LINE
  5
1D5
330
1F
100
AcDbEntity
  8
0-C_ハッチ
  6
JWW_DASHED1
 62
     3
370
     5
100
AcDbLine
 10
1016.267700470175
 20
-1632.296210110403
 30
0.0
 11
1328.766875670769
 21
-1319.797034909811
 31
0.0
  0
LINE
  5
1D6
330
1F
100
AcDbEntity
  8
0-C_ハッチ
  6
JWW_DASHED1
 62
     3
370
     5
100
AcDbLine
 10
874.8459442412894
 20
-1632.296210110403
 30
0.0
 11
1187.345119441884
 21
-1319.797034909811
 31
0.0
  0
LINE
  5
1D7
330
1F
100
AcDbEntity
  8
0-C_ハッチ
  6
JWW_DASHED1
 62
     3
370
     5
100
AcDbLine
 10
733.424188012404
 20
-1632.296210110403
 30
0.0
 11
1045.923363212998
 21
-1319.797034909811
 31
0.0
  0
LINE
  5
1D8
330
1F
100
AcDbEntity
  8
0-C_ハッチ
  6
JWW_DASHED1
 62
     3
370
     5
100
AcDbLine
 10
592.0024317835185
 20
-1632.296210110403
 30
0.0
 11
904.5016069841125
 21
-1319.797034909811
 31
0.0
  0
LINE
  5
1D9
330
1F
100
AcDbEntity
  8
0-C_ハッチ
  6
JWW_DASHED1
 62
     3
370
     5
100
AcDbLine
 10
450.5806755546388
 20
-1632.296210110403
 30
0.0
 11
763.0823251534565
 21
-1319.797034909811
 31
0.0
  0
LINE
  5
1DA
330
1F
100
AcDbEntity
  8
0-C_ハッチ
  6
JWW_DASHED1
 62
     3
370
     5
100
AcDbLine
 10
309.1589193257533
 20
-1632.296210110403
 30
0.0
 11
621.6605689245711
 21
-1319.797034909811
 31
0.0
  0
LINE
  5
1DB
330
1F
100
AcDbEntity
  8
0-C_ハッチ
  6
JWW_DASHED1
 62
     3
370
     5
100
AcDbLine
 10
167.7396374950916
 20
-1632.296210110403
 30
0.0
 11
480.2388126956856
 21
-1319.797034909811
 31
0.0
  0
LINE
  5
1DC
330
1F
100
AcDbEntity
  8
0-C_ハッチ
  6
JWW_DASHED1
 62
     3
370
     5
100
AcDbLine
 10
26.31788126620584
 20
-1632.296210110403
 30
0.0
 11
338.8170564668002
 21
-1319.797034909811
 31
0.0
  0
LINE
  5
1DD
330
1F
100
AcDbEntity
  8
0-C_ハッチ
  6
JWW_DASHED1
 62
     3
370
     5
100
AcDbLine
 10
-115.1038749626796
 20
-1632.296210110403
 30
0.0
 11
197.3953002379147
 21
-1319.797034909811
 31
0.0
  0
LINE
  5
1DE
330
1F
100
AcDbEntity
  8
0-C_ハッチ
  6
JWW_DASHED1
 62
     3
370
     5
100
AcDbLine
 10
-256.525631191565
 20
-1632.296210110403
 30
0.0
 11
55.97354400902894
 21
-1319.797034909811
 31
0.0
  0
LINE
  5
1DF
330
1F
100
AcDbEntity
  8
0-C_ハッチ
  6
JWW_DASHED1
 62
     3
370
     5
100
AcDbLine
 10
-397.9473874204505
 20
-1632.296210110403
 30
0.0
 11
-85.44573782163276
 21
-1319.797034909811
 31
0.0
  0
LINE
  5
1E0
330
1F
100
AcDbEntity
  8
0-C_ハッチ
  6
JWW_DASHED1
 62
     3
370
     5
100
AcDbLine
 10
-539.3691436493359
 20
-1632.296210110403
 30
0.0
 11
-226.8674940505182
 21
-1319.797034909811
 31
0.0
  0
LINE
  5
1E1
330
1F
100
AcDbEntity
  8
0-C_ハッチ
  6
JWW_DASHED1
 62
     3
370
     5
100
AcDbLine
 10
-680.7884254799912
 20
-1632.296210110403
 30
0.0
 11
-368.2892502794036
 21
-1319.797034909811
 31
0.0
  0
LINE
  5
1E2
330
1F
100
AcDbEntity
  8
0-B_寸法
  6
Continuous
 62
     3
370
     5
100
AcDbLine
 10
2365.641182839263
 20
4346.376951576677
 30
0.0
 11
2365.641182839263
 21
2688.161454585545
 31
0.0
  0
LWPOLYLINE
  5
1E3
330
1F
100
AcDbEntity
  8
0-B_寸法
  6
Continuous
 62
     3
370
     5
100
AcDbPolyline
 90
        4
 70
     1
 43
10.0
 10
2370.641182839263
 20
4346.376951576677
 42
0.4142135623731
 10
2365.641182839263
 20
4351.376951576677
 42
0.4142135623731
 10
2360.641182839263
 20
4346.376951576677
 42
0.4142135623731
 10
2365.641182839263
 20
4341.376951576677
 42
0.4142135623731
  0
LINE
  5
1E4
330
1F
100
AcDbEntity
  8
0-1_通り芯
  6
JWW_CENTER1
 62
     3
370
     5
100
AcDbLine
 10
2365.641182839263
 20
2730.825028804295
 30
0.0
 11
2365.641182839263
 21
-2706.054639560361
 31
0.0
  0
LINE
  5
1E5
330
1F
100
AcDbEntity
  8
0-C_ハッチ
  6
JWW_DASHED1
 62
     3
370
     5
100
AcDbLine
 10
-739.2887025124036
 20
-1549.374730913928
 30
0.0
 11
-509.7110065082891
 21
-1319.797034909811
 31
0.0
  0
LINE
  5
1E6
330
1F
100
AcDbEntity
  8
0-C_ハッチ
  6
JWW_DASHED1
 62
     3
370
     5
100
AcDbLine
 10
-739.2887025124036
 20
-1407.952974685043
 30
0.0
 11
-651.1327627371738
 21
-1319.797034909811
 31
0.0
  0
LINE
  5
1E7
330
1F
100
AcDbEntity
  8
0-C_ハッチ
  6
JWW_DASHED1
 62
     3
370
     5
100
AcDbLine
 10
4268.958196141628
 20
-1632.296210110403
 30
0.0
 11
4349.420479031801
 21
-1551.833927220231
 31
0.0
  0
LINE
  5
1E8
330
1F
100
AcDbEntity
  8
0-C_ハッチ
  6
JWW_DASHED1
 62
     3
370
     5
100
AcDbLine
 10
4127.536439912743
 20
-1632.296210110403
 30
0.0
 11
4349.420479031801
 21
-1410.412170991346
 31
0.0
  0
LINE
  5
1E9
330
1F
100
AcDbEntity
  8
0-2_柱
  6
Continuous
 62
     7
370
     5
100
AcDbLine
 10
-739.2887025124036
 20
-1319.797034909811
 30
0.0
 11
4349.420479031801
 21
-1319.797034909811
 31
0.0
  0
LINE
  5
1EA
330
1F
100
AcDbEntity
  8
0-3_仕上
  6
Continuous
 62
     7
370
     5
100
AcDbLine
 10
-739.2887025124036
 20
-1632.296210110403
 30
0.0
 11
4349.420479031801
 21
-1632.296210110403
 31
0.0
  0
LINE
  5
1EB
330
1F
100
AcDbEntity
  8
0-3_仕上
  6
Continuous
 62
     7
370
     5
100
AcDbLine
 10
-739.2887025124036
 20
-3682.296210110403
 30
0.0
 11
4349.420479031801
 21
-3682.296210110403
 31
0.0
  0
LINE
  5
1EC
330
1F
100
AcDbEntity
  8
0-3_仕上
  6
Continuous
 62
     7
370
     5
100
AcDbLine
 10
-739.2887025124036
 20
-2344.796210110403
 30
0.0
 11
4349.420479031801
 21
-2344.796210110403
 31
0.0
  0
LINE
  5
1ED
330
1F
100
AcDbEntity
  8
0-3_仕上
  6
Continuous
 62
     7
370
     5
100
AcDbLine
 10
-739.2887025124036
 20
-2119.796704990049
 30
0.0
 11
4349.420479031801
 21
-2119.796704990049
 31
0.0
  0
LINE
  5
1EE
330
1F
100
AcDbEntity
  8
0-B_寸法
  6
Continuous
 62
     3
370
     5
100
AcDbLine
 10
5905.328010697172
 20
-1319.797034909811
 30
0.0
 11
4884.334391345395
 21
-1319.797034909811
 31
0.0
  0
LINE
  5
1EF
330
1F
100
AcDbEntity
  8
0-B_寸法
  6
Continuous
 62
     3
370
     5
100
AcDbLine
 10
5905.328010697172
 20
-1319.797034909811
 30
0.0
 11
5905.328010697172
 21
-1632.296210110403
 31
0.0
  0
LINE
  5
1F0
330
1F
100
AcDbEntity
  8
0-B_寸法
  6
Continuous
 62
     3
370
     5
100
AcDbLine
 10
5905.328010697172
 20
-1632.296210110403
 30
0.0
 11
4884.334391345395
 21
-1632.296210110403
 31
0.0
  0
LINE
  5
1F1
330
1F
100
AcDbEntity
  8
0-B_寸法
  6
Continuous
 62
     3
370
     5
100
AcDbLine
 10
6835.41471361102
 20
-1632.296210110403
 30
0.0
 11
5905.328010697172
 21
-1632.296210110403
 31
0.0
  0
TEXT
  5
1F2
330
1F
100
AcDbEntity
  8
0-B_寸法
  6
Continuous
 62
     7
370
     0
100
AcDbText
 10
6213.026691018119
 20
-1726.04695242987
 30
0.0
 40
228.6
  1
12.5
 50
90.0
 41
1.125
  7
ＭＳ ゴシック
100
AcDbText
  0
LWPOLYLINE
  5
1F3
330
1F
100
AcDbEntity
  8
0-B_寸法
  6
Continuous
 62
     3
370
     5
100
AcDbPolyline
 90
        4
 70
     1
 43
10.0
 10
5910.328010697171
 20
-1319.797034909811
 42
0.4142135623731
 10
5905.328010697172
 20
-1314.797034909811
 42
0.4142135623731
 10
5900.328010697172
 20
-1319.797034909811
 42
0.4142135623731
 10
5905.328010697172
 20
-1324.797034909811
 42
0.4142135623731
  0
LWPOLYLINE
  5
1F4
330
1F
100
AcDbEntity
  8
0-B_寸法
  6
Continuous
 62
     3
370
     5
100
AcDbPolyline
 90
        4
 70
     1
 43
10.0
 10
5910.328010697171
 20
-1632.296210110403
 42
0.4142135623731
 10
5905.328010697172
 20
-1627.296210110402
 42
0.4142135623731
 10
5900.328010697172
 20
-1632.296210110403
 42
0.4142135623731
 10
5905.328010697172
 20
-1637.296210110403
 42
0.4142135623731
  0
LWPOLYLINE
  5
1F5
330
1F
100
AcDbEntity
  8
0-B_寸法
  6
Continuous
 62
     3
370
     5
100
AcDbPolyline
 90
        4
 70
     1
 43
10.0
 10
6840.41471361102
 20
-1632.296210110403
 42
0.4142135623731
 10
6835.41471361102
 20
-1627.296210110402
 42
0.4142135623731
 10
6830.41471361102
 20
-1632.296210110403
 42
0.4142135623731
 10
6835.41471361102
 20
-1637.296210110403
 42
0.4142135623731
  0
TEXT
  5
1F6
330
1F
100
AcDbEntity
  8
0-B_寸法
  6
Continuous
 62
     7
370
     0
100
AcDbText
 10
-7887.451542993193
 20
4390.546188286014
 30
0.0
 40
228.6
  1
1,820
 41
1.133333333333333
  7
ＭＳ ゴシック
100
AcDbText
  0
TEXT
  5
1F7
330
1F
100
AcDbEntity
  8
0-B_寸法
  6
Continuous
 62
     7
370
     0
100
AcDbText
 10
-10046.1883696845
 20
3425.527339562316
 30
0.0
 40
228.6
  1
834
 41
1.111111111111111
  7
ＭＳ ゴシック
100
AcDbText
  0
TEXT
  5
1F8
330
1F
100
AcDbEntity
  8
0-B_寸法
  6
Continuous
 62
     7
370
     0
100
AcDbText
 10
-10903.80510354483
 20
2380.420709494749
 30
0.0
 40
228.6
  1
枠内寸法＝816
 41
1.153846153846154
  7
ＭＳ ゴシック
100
AcDbText
  0
TEXT
  5
1F9
330
1F
100
AcDbEntity
  8
0-A_文字
  6
Continuous
 62
     7
370
     0
100
AcDbText
 10
-10770.00688577139
 20
-2398.349448602801
 30
0.0
 40
228.6
  1
ＤＷ＝846
 41
1.148148148148148
  7
ＭＳ ゴシック
100
AcDbText
  0
LINE
  5
1FA
330
1F
100
AcDbEntity
  8
0-B_寸法
  6
Continuous
 62
     3
370
     5
100
AcDbLine
 10
-3918.639536382082
 20
-1632.296210110403
 30
0.0
 11
-4472.469244996946
 21
-1632.296210110403
 31
0.0
  0
LWPOLYLINE
  5
1FB
330
1F
100
AcDbEntity
  8
0-B_寸法
  6
Continuous
 62
     3
370
     5
100
AcDbPolyline
 90
        4
 70
     1
 43
10.0
 10
-3913.639536382082
 20
-1632.296210110403
 42
0.4142135623731
 10
-3918.639536382082
 20
-1627.296210110402
 42
0.4142135623731
 10
-3923.639536382081
 20
-1632.296210110403
 42
0.4142135623731
 10
-3918.639536382082
 20
-1637.296210110403
 42
0.4142135623731
  0
LINE
  5
1FC
330
1F
100
AcDbEntity
  8
0-B_寸法
  6
Continuous
 62
     3
370
     5
100
AcDbLine
 10
-3918.639536382082
 20
-1632.296210110403
 30
0.0
 11
-3918.639536382082
 21
-1707.297199869694
 31
0.0
  0
LINE
  5
1FD
330
1F
100
AcDbEntity
  8
0-B_寸法
  6
Continuous
 62
     3
370
     5
100
AcDbLine
 10
-3918.639536382082
 20
-1707.297199869694
 30
0.0
 11
-4472.469244996946
 21
-1707.297199869694
 31
0.0
  0
LINE
  5
1FE
330
1F
100
AcDbEntity
  8
0-B_寸法
  6
Continuous
 62
     3
370
     5
100
AcDbLine
 10
-3918.639536382082
 20
-1707.297199869694
 30
0.0
 11
-3918.639536382082
 21
-1857.297694749337
 31
0.0
  0
LINE
  5
1FF
330
1F
100
AcDbEntity
  8
0-B_寸法
  6
Continuous
 62
     3
370
     5
100
AcDbLine
 10
-3918.639536382082
 20
-1857.297694749337
 30
0.0
 11
-4472.469244996946
 21
-1857.297694749337
 31
0.0
  0
LINE
  5
200
330
1F
100
AcDbEntity
  8
0-B_寸法
  6
Continuous
 62
     3
370
     5
100
AcDbLine
 10
-3918.639536382082
 20
-1857.297694749337
 30
0.0
 11
-3918.639536382082
 21
-2607.297694749337
 31
0.0
  0
LINE
  5
201
330
1F
100
AcDbEntity
  8
0-B_寸法
  6
Continuous
 62
     3
370
     5
100
AcDbLine
 10
-3918.639536382082
 20
-2607.297694749337
 30
0.0
 11
-4472.469244996946
 21
-2607.297694749337
 31
0.0
  0
TEXT
  5
202
330
1F
100
AcDbEntity
  8
0-B_寸法
  6
Continuous
 62
     7
370
     0
100
AcDbText
 10
-3668.240495788753
 20
-2489.314758199507
 30
0.0
 40
228.6
  1
30
 50
90.0
 41
1.083333333333333
  7
ＭＳ ゴシック
100
AcDbText
  0
LWPOLYLINE
  5
203
330
1F
100
AcDbEntity
  8
0-B_寸法
  6
Continuous
 62
     3
370
     5
100
AcDbPolyline
 90
        4
 70
     1
 43
10.0
 10
-3913.639536382082
 20
-1707.297199869694
 42
0.4142135623731
 10
-3918.639536382082
 20
-1702.297199869694
 42
0.4142135623731
 10
-3923.639536382081
 20
-1707.297199869694
 42
0.4142135623731
 10
-3918.639536382082
 20
-1712.297199869694
 42
0.4142135623731
  0
LWPOLYLINE
  5
204
330
1F
100
AcDbEntity
  8
0-B_寸法
  6
Continuous
 62
     3
370
     5
100
AcDbPolyline
 90
        4
 70
     1
 43
10.0
 10
-3913.639536382082
 20
-1857.297694749337
 42
0.4142135623731
 10
-3918.639536382082
 20
-1852.297694749337
 42
0.4142135623731
 10
-3923.639536382081
 20
-1857.297694749337
 42
0.4142135623731
 10
-3918.639536382082
 20
-1862.297694749337
 42
0.4142135623731
  0
LWPOLYLINE
  5
205
330
1F
100
AcDbEntity
  8
0-B_寸法
  6
Continuous
 62
     3
370
     5
100
AcDbPolyline
 90
        4
 70
     1
 43
10.0
 10
-3913.639536382082
 20
-2607.297694749337
 42
0.4142135623731
 10
-3918.639536382082
 20
-2602.297694749337
 42
0.4142135623731
 10
-3923.639536382081
 20
-2607.297694749337
 42
0.4142135623731
 10
-3918.639536382082
 20
-2612.297694749338
 42
0.4142135623731
  0
TEXT
  5
206
330
1F
100
AcDbEntity
  8
0-B_寸法
  6
Continuous
 62
     7
370
     0
100
AcDbText
 10
-3627.628489348187
 20
-1565.439208278487
 30
0.0
 40
228.6
  1
3
 50
90.0
 41
0.9999999999999998
  7
ＭＳ ゴシック
100
AcDbText
  0
TEXT
  5
207
330
1F
100
AcDbEntity
  8
0-B_寸法
  6
Continuous
 62
     7
370
     0
100
AcDbText
 10
-4023.973177887372
 20
-1856.869126322005
 30
0.0
 40
228.6
  1
6
 50
90.0
 41
0.9999999999999998
  7
ＭＳ ゴシック
100
AcDbText
  0
LWPOLYLINE
  5
208
330
1F
100
AcDbEntity
  8
0-B_寸法
  6
Continuous
 62
     3
370
     5
100
AcDbPolyline
 90
        4
 70
     1
 43
10.0
 10
-15429.26865730855
 20
-4430.488554547007
 42
0.4142135623731
 10
-15434.26865730855
 20
-4425.488554547008
 42
0.4142135623731
 10
-15439.26865730855
 20
-4430.488554547007
 42
0.4142135623731
 10
-15434.26865730855
 20
-4435.488554547007
 42
0.4142135623731
  0
LINE
  5
209
330
1F
100
AcDbEntity
  8
0-B_寸法
  6
Continuous
 62
     3
370
     5
100
AcDbLine
 10
-15434.26865730855
 20
-4430.488554547007
 30
0.0
 11
-15434.26865730855
 21
-2893.278217032933
 31
0.0
  0
LINE
  5
20A
330
1F
100
AcDbEntity
  8
0-B_寸法
  6
Continuous
 62
     3
370
     5
100
AcDbLine
 10
-15434.26865730855
 20
2290.273270991795
 30
0.0
 11
-14684.26865730855
 21
2290.273270991795
 31
0.0
  0
LWPOLYLINE
  5
20B
330
1F
100
AcDbEntity
  8
0-B_寸法
  6
Continuous
 62
     3
370
     5
100
AcDbPolyline
 90
        4
 70
     1
 43
10.0
 10
-15429.26865730855
 20
2290.273270991795
 42
0.4142135623731
 10
-15434.26865730855
 20
2295.273270991795
 42
0.4142135623731
 10
-15439.26865730855
 20
2290.273270991795
 42
0.4142135623731
 10
-15434.26865730855
 20
2285.273270991795
 42
0.4142135623731
  0
LINE
  5
20C
330
1F
100
AcDbEntity
  8
0-3_仕上
  6
Continuous
 62
     7
370
     5
100
AcDbLine
 10
-13071.76824490885
 20
-3682.296210110403
 30
0.0
 11
-13071.76824490885
 21
-6422.737845497126
 31
0.0
  0
LINE
  5
20D
330
1F
100
AcDbEntity
  8
0-3_仕上
  6
Continuous
 62
     7
370
     5
100
AcDbLine
 10
-13071.76824490885
 20
-3682.296210110403
 30
0.0
 11
-1299.447513812155
 21
-3682.296210110403
 31
0.0
  0
LINE
  5
20E
330
1F
100
AcDbEntity
  8
0-3_仕上
  6
Continuous
 62
     7
370
     5
100
AcDbLine
 10
-13071.76824490885
 20
-3682.296210110403
 30
0.0
 11
-15121.76824490885
 21
-1632.296210110403
 31
0.0
  0
LINE
  5
20F
330
1F
100
AcDbEntity
  8
0-2_柱
  6
Continuous
 62
     7
370
     5
100
AcDbLine
 10
-15434.26865730855
 20
3367.500064435629
 30
0.0
 11
-15434.26865730855
 21
-6377.502056960559
 31
0.0
  0
LINE
  5
210
330
1F
100
AcDbEntity
  8
0-3_仕上
  6
Continuous
 62
     7
370
     5
100
AcDbLine
 10
-15121.76824490885
 20
-1632.296210110403
 30
0.0
 11
-15121.76824490885
 21
-6377.502056960559
 31
0.0
  0
LINE
  5
211
330
1F
100
AcDbEntity
  8
0-0_補助線
  6
JWW_HOJO
 62
     3
370
     5
100
AcDbLine
 10
-4758.107587180807
 20
-1707.296210110403
 30
0.0
 11
-1299.447513812154
 21
-1707.296210110403
 31
0.0
  0
LINE
  5
212
330
1F
100
AcDbEntity
  8
0-A_文字
  6
Continuous
 62
     7
370
     5
100
AcDbLine
 10
-15434.26865730855
 20
-2069.797034909811
 30
0.0
 11
-15434.26865730855
 21
-1319.797034909811
 31
0.0
  0
LINE
  5
213
330
1F
100
AcDbEntity
  8
0-1_通り芯
  6
JWW_CENTER1
 62
     3
370
     5
100
AcDbLine
 10
-19027.62430939226
 20
-207.2970349098114
 30
0.0
 11
4408.839779005524
 21
-207.2970349098114
 31
0.0
  0
LINE
  5
214
330
1F
100
AcDbEntity
  8
0-A_文字
  6
Continuous
 62
     7
370
     5
100
AcDbLine
 10
-14159.26824490885
 20
-1632.296210110403
 30
0.0
 11
-15121.76824490885
 21
-1632.296210110403
 31
0.0
  0
LINE
  5
215
330
1F
100
AcDbEntity
  8
0-B_寸法
  6
Continuous
 62
     3
370
     5
100
AcDbLine
 10
-14159.26824490885
 20
2290.273270991795
 30
0.0
 11
-5283.108082060453
 21
2290.273270991795
 31
0.0
  0
LINE
  5
216
330
1F
100
AcDbEntity
  8
0-B_寸法
  6
Continuous
 62
     3
370
     5
100
AcDbLine
 10
-14159.26824490885
 20
3333.227174602436
 30
0.0
 11
-5058.108576940099
 21
3333.227174602436
 31
0.0
  0
LWPOLYLINE
  5
217
330
1F
100
AcDbEntity
  8
0-B_寸法
  6
Continuous
 62
     3
370
     5
100
AcDbPolyline
 90
        4
 70
     1
 43
10.0
 10
-14154.26824490885
 20
2290.273270991795
 42
0.4142135623731
 10
-14159.26824490885
 20
2295.273270991795
 42
0.4142135623731
 10
-14164.26824490885
 20
2290.273270991795
 42
0.4142135623731
 10
-14159.26824490885
 20
2285.273270991795
 42
0.4142135623731
  0
LWPOLYLINE
  5
218
330
1F
100
AcDbEntity
  8
0-B_寸法
  6
Continuous
 62
     3
370
     5
100
AcDbPolyline
 90
        4
 70
     1
 43
10.0
 10
-13929.26873978849
 20
2290.273270991795
 42
0.4142135623731
 10
-13934.2687397885
 20
2295.273270991795
 42
0.4142135623731
 10
-13939.2687397885
 20
2290.273270991795
 42
0.4142135623731
 10
-13934.2687397885
 20
2285.273270991795
 42
0.4142135623731
  0
LWPOLYLINE
  5
219
330
1F
100
AcDbEntity
  8
0-B_寸法
  6
Continuous
 62
     3
370
     5
100
AcDbPolyline
 90
        4
 70
     1
 43
10.0
 10
-14154.26824490885
 20
3333.227174602436
 42
0.4142135623731
 10
-14159.26824490885
 20
3338.227174602436
 42
0.4142135623731
 10
-14164.26824490885
 20
3333.227174602436
 42
0.4142135623731
 10
-14159.26824490885
 20
3328.227174602436
 42
0.4142135623731
  0
LINE
  5
21A
330
1F
100
AcDbEntity
  8
0-B_寸法
  6
Continuous
 62
     3
370
     5
100
AcDbLine
 10
-13111.50039954884
 20
-1707.297199869694
 30
0.0
 11
-13831.47852586852
 21
-1707.297199869694
 31
0.0
  0
LINE
  5
21B
330
1F
100
AcDbEntity
  8
0-A_文字
  6
Continuous
 62
     7
370
     5
100
AcDbLine
 10
-13934.2687397885
 20
-1132.296540030165
 30
0.0
 11
-13934.2687397885
 21
-1657.297034909811
 31
0.0
  0
LINE
  5
21C
330
1F
100
AcDbEntity
  8
0-C_ハッチ
  6
Continuous
 62
     3
370
     5
100
AcDbLine
 10
-14159.26824490885
 20
-1632.07054499216
 30
0.0
 11
-13934.2687397885
 21
-1407.071039871803
 31
0.0
  0
LINE
  5
21D
330
1F
100
AcDbEntity
  8
0-C_ハッチ
  6
Continuous
 62
     3
370
     5
100
AcDbLine
 10
-14159.26824490885
 20
-1490.648788763275
 30
0.0
 11
-13934.2687397885
 21
-1265.649283642918
 31
0.0
  0
LINE
  5
21E
330
1F
100
AcDbEntity
  8
0-4_枠
  6
Continuous
 62
     3
370
     5
100
AcDbLine
 10
-14088.55736679441
 20
-1702.781423106603
 30
0.0
 11
-13934.2687397885
 21
-1548.492796100689
 31
0.0
  0
LINE
  5
21F
330
1F
100
AcDbEntity
  8
0-A_文字
  6
Continuous
 62
     7
370
     5
100
AcDbLine
 10
-14034.26783250914
 20
-957.2971998696943
 30
0.0
 11
-14159.26824490885
 21
-957.2971998696943
 31
0.0
  0
LINE
  5
220
330
1F
100
AcDbEntity
  8
0-2_柱
  6
Continuous
 62
     7
370
     5
100
AcDbLine
 10
-13934.2687397885
 20
-982.2960451505196
 30
0.0
 11
-13934.2687397885
 21
-1657.297034909811
 31
0.0
  0
LINE
  5
221
330
1F
100
AcDbEntity
  8
0-C_ハッチ
  6
Continuous
 62
     3
370
     5
100
AcDbLine
 10
-14159.26824490885
 20
-1207.805276305504
 30
0.0
 11
-13934.2687397885
 21
-982.80577118515
 31
0.0
  0
LINE
  5
222
330
1F
100
AcDbEntity
  8
0-C_ハッチ
  6
Continuous
 62
     3
370
     5
100
AcDbLine
 10
-14159.26824490885
 20
-1349.22703253439
 30
0.0
 11
-13934.2687397885
 21
-1124.227527414035
 31
0.0
  0
LINE
  5
223
330
1F
100
AcDbEntity
  8
0-B_寸法
  6
Continuous
 62
     3
370
     5
100
AcDbLine
 10
-13111.50039954884
 20
-957.2971998696943
 30
0.0
 11
-13111.50039954884
 21
-1707.297199869694
 31
0.0
  0
LINE
  5
224
330
1F
100
AcDbEntity
  8
0-B_寸法
  6
Continuous
 62
     3
370
     5
100
AcDbLine
 10
-13111.50039954884
 20
-957.2971998696943
 30
0.0
 11
-13831.47852586852
 21
-957.2971998696943
 31
0.0
  0
LINE
  5
225
330
1F
100
AcDbEntity
  8
0-2_柱
  6
Continuous
 62
     7
370
     5
100
AcDbLine
 10
-14004.8917767659
 20
-957.2971998696943
 30
0.0
 11
-13959.26882226844
 21
-957.2971998696943
 31
0.0
  0
LINE
  5
226
330
1F
100
AcDbEntity
  8
0-2_柱
  6
Continuous
 62
     7
370
     5
100
AcDbLine
 10
-14134.26816242891
 20
-957.2971998696943
 30
0.0
 11
-14011.67039070699
 21
-957.2971998696943
 31
0.0
  0
LINE
  5
227
330
1F
100
AcDbEntity
  8
0-2_柱
  6
Continuous
 62
     7
370
     5
100
AcDbLine
 10
-14011.67039070699
 20
-957.2971998696943
 30
0.0
 11
-14004.8917767659
 21
-957.2971998696943
 31
0.0
  0
LINE
  5
228
330
1F
100
AcDbEntity
  8
0-4_枠
  6
Continuous
 62
     3
370
     5
100
AcDbLine
 10
-14159.26824490885
 20
-1066.385994474845
 30
0.0
 11
-14050.18068750281
 21
-957.2971998696943
 31
0.0
  0
LINE
  5
229
330
1F
100
AcDbEntity
  8
0-B_寸法
  6
Continuous
 62
     3
370
     5
100
AcDbLine
 10
-13934.2687397885
 20
-336.6735855326993
 30
0.0
 11
-13934.2687397885
 21
-846.1942451082905
 31
0.0
  0
LINE
  5
22A
330
1F
100
AcDbEntity
  8
0-B_寸法
  6
Continuous
 62
     3
370
     5
100
AcDbLine
 10
-14159.26824490885
 20
-336.6735855326993
 30
0.0
 11
-13934.2687397885
 21
-336.6735855326993
 31
0.0
  0
ARC
  5
22B
330
1F
100
AcDbEntity
  8
0-A_文字
  6
Continuous
 62
     7
370
     5
100
AcDbCircle
 10
-13984.26766754926
 20
-1657.297034909811
 30
0.0
 40
50.00000064437454
100
AcDbArc
 50
270.0
 51
0.0
  0
ARC
  5
22C
330
1F
100
AcDbEntity
  8
0-A_文字
  6
Continuous
 62
     7
370
     5
100
AcDbCircle
 10
-13959.26882226844
 20
-982.2960451505196
 30
0.0
 40
25.00000032218727
100
AcDbArc
 50
0.0
 51
90.0
  0
TEXT
  5
22D
330
1F
100
AcDbEntity
  8
0-B_寸法
  6
Continuous
 62
     7
370
     0
100
AcDbText
 10
-13203.80056450872
 20
-1532.297942189162
 30
0.0
 40
228.6
  1
30
 50
90.0
 41
1.083333333333333
  7
ＭＳ ゴシック
100
AcDbText
  0
LWPOLYLINE
  5
22E
330
1F
100
AcDbEntity
  8
0-B_寸法
  6
Continuous
 62
     3
370
     5
100
AcDbPolyline
 90
        4
 70
     1
 43
10.0
 10
-13106.50039954884
 20
-1707.297199869694
 42
0.4142135623731
 10
-13111.50039954884
 20
-1702.297199869694
 42
0.4142135623731
 10
-13116.50039954884
 20
-1707.297199869694
 42
0.4142135623731
 10
-13111.50039954884
 20
-1712.297199869694
 42
0.4142135623731
  0
LWPOLYLINE
  5
22F
330
1F
100
AcDbEntity
  8
0-B_寸法
  6
Continuous
 62
     3
370
     5
100
AcDbPolyline
 90
        4
 70
     1
 43
10.0
 10
-13106.50039954884
 20
-957.2971998696943
 42
0.4142135623731
 10
-13111.50039954884
 20
-952.2971998696942
 42
0.4142135623731
 10
-13116.50039954884
 20
-957.2971998696943
 42
0.4142135623731
 10
-13111.50039954884
 20
-962.2971998696944
 42
0.4142135623731
  0
LWPOLYLINE
  5
230
330
1F
100
AcDbEntity
  8
0-B_寸法
  6
Continuous
 62
     3
370
     5
100
AcDbPolyline
 90
        4
 70
     1
 43
10.0
 10
-13929.26873978849
 20
-336.6735855326993
 42
0.4142135623731
 10
-13934.2687397885
 20
-331.6735855326993
 42
0.4142135623731
 10
-13939.2687397885
 20
-336.6735855326993
 42
0.4142135623731
 10
-13934.2687397885
 20
-341.6735855326993
 42
0.4142135623731
  0
LINE
  5
231
330
1F
100
AcDbEntity
  8
0-A_文字
  6
Continuous
 62
     7
370
     5
100
AcDbLine
 10
-14159.26824490885
 20
-1707.297199869694
 30
0.0
 11
-13984.26766754926
 21
-1707.297199869694
 31
0.0
  0
TEXT
  5
232
330
1F
100
AcDbEntity
  8
0-B_寸法
  6
Continuous
 62
     7
370
     0
100
AcDbText
 10
-13791.33760954613
 20
-433.4479197550111
 30
0.0
 40
228.6
  1
9
 41
0.9999999999999998
  7
ＭＳ ゴシック
100
AcDbText
  0
LINE
  5
233
330
1F
100
AcDbEntity
  8
0-B_寸法
  6
Continuous
 62
     3
370
     5
100
AcDbLine
 10
-14159.26824490885
 20
3333.227174602436
 30
0.0
 11
-14159.26824490885
 21
1738.657599611844
 31
0.0
  0
LINE
  5
234
330
1F
100
AcDbEntity
  8
0-2_柱
  6
Continuous
 62
     7
370
     5
100
AcDbLine
 10
-14471.76865730855
 20
-1319.797034909811
 30
0.0
 11
-15434.26865730855
 21
-1319.797034909811
 31
0.0
  0
LINE
  5
235
330
1F
100
AcDbEntity
  8
0-B_寸法
  6
Continuous
 62
     3
370
     5
100
AcDbLine
 10
-13934.2687397885
 20
2290.273270991795
 30
0.0
 11
-13934.2687397885
 21
1750.762386672982
 31
0.0
  0
TEXT
  5
236
330
1F
100
AcDbEntity
  8
0-B_寸法
  6
Continuous
 62
     7
370
     0
100
AcDbText
 10
-13865.96750262786
 20
1987.840383766051
 30
0.0
 40
228.6
  1
9
 41
0.9999999999999998
  7
ＭＳ ゴシック
100
AcDbText
  0
LINE
  5
237
330
1F
100
AcDbEntity
  8
0-B_寸法
  6
Continuous
 62
     3
370
     5
100
AcDbLine
 10
-14684.26865730855
 20
2290.273270991795
 30
0.0
 11
-14471.76865730855
 21
2290.273270991795
 31
0.0
  0
LWPOLYLINE
  5
238
330
1F
100
AcDbEntity
  8
0-B_寸法
  6
Continuous
 62
     3
370
     5
100
AcDbPolyline
 90
        4
 70
     1
 43
10.0
 10
-14466.76865730855
 20
2290.273270991795
 42
0.4142135623731
 10
-14471.76865730855
 20
2295.273270991795
 42
0.4142135623731
 10
-14476.76865730855
 20
2290.273270991795
 42
0.4142135623731
 10
-14471.76865730855
 20
2285.273270991795
 42
0.4142135623731
  0
LINE
  5
239
330
1F
100
AcDbEntity
  8
0-B_寸法
  6
Continuous
 62
     3
370
     5
100
AcDbLine
 10
-14471.76865730855
 20
2290.273270991795
 30
0.0
 11
-14471.76865730855
 21
1833.671824149513
 31
0.0
  0
LINE
  5
23A
330
1F
100
AcDbEntity
  8
0-B_寸法
  6
Continuous
 62
     3
370
     5
100
AcDbLine
 10
-14471.76865730855
 20
2290.273270991795
 30
0.0
 11
-14159.26824490885
 21
2290.273270991795
 31
0.0
  0
LINE
  5
23B
330
1F
100
AcDbEntity
  8
0-3_仕上
  6
Continuous
 62
     7
370
     5
100
AcDbLine
 10
-5358.107092301161
 20
-1632.296210110403
 30
0.0
 11
-13934.2687397885
 21
-1632.296210110403
 31
0.0
  0
LINE
  5
23C
330
1F
100
AcDbEntity
  8
0-2_柱
  6
Continuous
 62
     7
370
     5
100
AcDbLine
 10
-4758.107587180807
 20
1217.70214029078
 30
0.0
 11
-4758.107587180807
 21
-1632.296210110403
 31
0.0
  0
LINE
  5
23D
330
1F
100
AcDbEntity
  8
0-C_ハッチ
  6
JWW_DASHED1
 62
     3
370
     5
100
AcDbLine
 10
-1620.484032229373
 20
905.2029650901886
 30
0.0
 11
-1307.984857028781
 21
1217.70214029078
 31
0.0
  0
LINE
  5
23E
330
1F
100
AcDbEntity
  8
0-C_ハッチ
  6
JWW_DASHED1
 62
     3
370
     5
100
AcDbLine
 10
-1761.905788458256
 20
905.2029650901886
 30
0.0
 11
-1449.406613257664
 21
1217.70214029078
 31
0.0
  0
LINE
  5
23F
330
1F
100
AcDbEntity
  8
0-C_ハッチ
  6
JWW_DASHED1
 62
     3
370
     5
100
AcDbLine
 10
-1903.327544687141
 20
905.2029650901886
 30
0.0
 11
-1590.825895088323
 21
1217.70214029078
 31
0.0
  0
LINE
  5
240
330
1F
100
AcDbEntity
  8
0-C_ハッチ
  6
JWW_DASHED1
 62
     3
370
     5
100
AcDbLine
 10
-2044.749300916026
 20
905.2029650901886
 30
0.0
 11
-1732.247651317209
 21
1217.70214029078
 31
0.0
  0
LINE
  5
241
330
1F
100
AcDbEntity
  8
0-C_ハッチ
  6
JWW_DASHED1
 62
     3
370
     5
100
AcDbLine
 10
-2186.168582746685
 20
905.2029650901886
 30
0.0
 11
-1873.669407546094
 21
1217.70214029078
 31
0.0
  0
LINE
  5
242
330
1F
100
AcDbEntity
  8
0-C_ハッチ
  6
JWW_DASHED1
 62
     3
370
     5
100
AcDbLine
 10
-2327.59033897557
 20
905.2029650901886
 30
0.0
 11
-2015.09116377498
 21
1217.70214029078
 31
0.0
  0
LINE
  5
243
330
1F
100
AcDbEntity
  8
0-C_ハッチ
  6
JWW_DASHED1
 62
     3
370
     5
100
AcDbLine
 10
-2469.012095204456
 20
905.2029650901886
 30
0.0
 11
-2156.512920003865
 21
1217.70214029078
 31
0.0
  0
LINE
  5
244
330
1F
100
AcDbEntity
  8
0-C_ハッチ
  6
JWW_DASHED1
 62
     3
370
     5
100
AcDbLine
 10
-2610.433851433341
 20
905.2029650901886
 30
0.0
 11
-2297.93467623275
 21
1217.70214029078
 31
0.0
  0
LINE
  5
245
330
1F
100
AcDbEntity
  8
0-C_ハッチ
  6
JWW_DASHED1
 62
     3
370
     5
100
AcDbLine
 10
-2751.855607662227
 20
905.2029650901886
 30
0.0
 11
-2439.353958063409
 21
1217.70214029078
 31
0.0
  0
LINE
  5
246
330
1F
100
AcDbEntity
  8
0-C_ハッチ
  6
JWW_DASHED1
 62
     3
370
     5
100
AcDbLine
 10
-2893.277363891112
 20
905.2029650901886
 30
0.0
 11
-2580.775714292295
 21
1217.70214029078
 31
0.0
  0
LINE
  5
247
330
1F
100
AcDbEntity
  8
0-C_ハッチ
  6
JWW_DASHED1
 62
     3
370
     5
100
AcDbLine
 10
-3034.696645721771
 20
905.2029650901886
 30
0.0
 11
-2722.19747052118
 21
1217.70214029078
 31
0.0
  0
LINE
  5
248
330
1F
100
AcDbEntity
  8
0-C_ハッチ
  6
JWW_DASHED1
 62
     3
370
     5
100
AcDbLine
 10
-3176.118401950656
 20
905.2029650901886
 30
0.0
 11
-2863.619226750066
 21
1217.70214029078
 31
0.0
  0
LINE
  5
249
330
1F
100
AcDbEntity
  8
0-C_ハッチ
  6
JWW_DASHED1
 62
     3
370
     5
100
AcDbLine
 10
-3317.540158179539
 20
905.2029650901886
 30
0.0
 11
-3005.040982978948
 21
1217.70214029078
 31
0.0
  0
LINE
  5
24A
330
1F
100
AcDbEntity
  8
0-C_ハッチ
  6
JWW_DASHED1
 62
     3
370
     5
100
AcDbLine
 10
-3458.961914408424
 20
905.2029650901886
 30
0.0
 11
-3146.462739207833
 21
1217.70214029078
 31
0.0
  0
LINE
  5
24B
330
1F
100
AcDbEntity
  8
0-C_ハッチ
  6
JWW_DASHED1
 62
     3
370
     5
100
AcDbLine
 10
-3600.38367063731
 20
905.2029650901886
 30
0.0
 11
-3287.882021038492
 21
1217.70214029078
 31
0.0
  0
LINE
  5
24C
330
1F
100
AcDbEntity
  8
0-C_ハッチ
  6
JWW_DASHED1
 62
     3
370
     5
100
AcDbLine
 10
-3741.805426866195
 20
905.2029650901886
 30
0.0
 11
-3429.303777267378
 21
1217.70214029078
 31
0.0
  0
LINE
  5
24D
330
1F
100
AcDbEntity
  8
0-C_ハッチ
  6
JWW_DASHED1
 62
     3
370
     5
100
AcDbLine
 10
-3883.224708696854
 20
905.2029650901886
 30
0.0
 11
-3570.725533496263
 21
1217.70214029078
 31
0.0
  0
LINE
  5
24E
330
1F
100
AcDbEntity
  8
0-C_ハッチ
  6
JWW_DASHED1
 62
     3
370
     5
100
AcDbLine
 10
-4024.64646492574
 20
905.2029650901886
 30
0.0
 11
-3712.147289725149
 21
1217.70214029078
 31
0.0
  0
LINE
  5
24F
330
1F
100
AcDbEntity
  8
0-C_ハッチ
  6
JWW_DASHED1
 62
     3
370
     5
100
AcDbLine
 10
-4166.068221154625
 20
905.2029650901886
 30
0.0
 11
-3853.569045954034
 21
1217.70214029078
 31
0.0
  0
LINE
  5
250
330
1F
100
AcDbEntity
  8
0-C_ハッチ
  6
JWW_DASHED1
 62
     3
370
     5
100
AcDbLine
 10
-4307.48997738351
 20
905.2029650901886
 30
0.0
 11
-3994.99080218292
 21
1217.70214029078
 31
0.0
  0
LINE
  5
251
330
1F
100
AcDbEntity
  8
0-3_仕上
  6
Continuous
 62
     7
370
     5
100
AcDbLine
 10
-5058.108576940099
 20
1217.70214029078
 30
0.0
 11
-5058.108576940099
 21
-1707.297199869694
 31
0.0
  0
LINE
  5
252
330
1F
100
AcDbEntity
  8
0-3_仕上
  6
Continuous
 62
     7
370
     5
100
AcDbLine
 10
-4758.107587180807
 20
905.2029650901886
 30
0.0
 11
-4758.107587180807
 21
-1319.797034909811
 31
0.0
  0
LINE
  5
253
330
1F
100
AcDbEntity
  8
0-C_ハッチ
  6
JWW_DASHED1
 62
     3
370
     5
100
AcDbLine
 10
-1337.640519771601
 20
905.2029650901886
 30
0.0
 11
-1299.447513812155
 21
943.3959710496354
 31
0.0
  0
LINE
  5
254
330
1F
100
AcDbEntity
  8
0-C_ハッチ
  6
JWW_DASHED1
 62
     3
370
     5
100
AcDbLine
 10
-1479.062276000487
 20
905.2029650901886
 30
0.0
 11
-1299.447513812155
 21
1084.817727278521
 31
0.0
  0
LINE
  5
255
330
1F
100
AcDbEntity
  8
0-3_仕上
  6
Continuous
 62
     7
370
     5
100
AcDbLine
 10
-5058.108576940099
 20
1217.70214029078
 30
0.0
 11
-1299.447513812155
 21
1217.70214029078
 31
0.0
  0
LINE
  5
256
330
1F
100
AcDbEntity
  8
0-2_柱
  6
Continuous
 62
     7
370
     5
100
AcDbLine
 10
-4758.107587180807
 20
905.2029650901886
 30
0.0
 11
-1299.447513812155
 21
905.2029650901886
 31
0.0
  0
LINE
  5
257
330
1F
100
AcDbEntity
  8
0-C_ハッチ
  6
JWW_DASHED1
 62
     3
370
     5
100
AcDbLine
 10
3953.766875670769
 20
905.2029650901886
 30
0.0
 11
4266.266050871357
 21
1217.70214029078
 31
0.0
  0
LINE
  5
258
330
1F
100
AcDbEntity
  8
0-C_ハッチ
  6
JWW_DASHED1
 62
     3
370
     5
100
AcDbLine
 10
3812.345119441884
 20
905.2029650901886
 30
0.0
 11
4124.844294642472
 21
1217.70214029078
 31
0.0
  0
LINE
  5
259
330
1F
100
AcDbEntity
  8
0-C_ハッチ
  6
JWW_DASHED1
 62
     3
370
     5
100
AcDbLine
 10
3670.923363212998
 20
905.2029650901886
 30
0.0
 11
3983.425012811816
 21
1217.70214029078
 31
0.0
  0
LINE
  5
25A
330
1F
100
AcDbEntity
  8
0-C_ハッチ
  6
JWW_DASHED1
 62
     3
370
     5
100
AcDbLine
 10
3529.501606984113
 20
905.2029650901886
 30
0.0
 11
3842.00325658293
 21
1217.70214029078
 31
0.0
  0
LINE
  5
25B
330
1F
100
AcDbEntity
  8
0-C_ハッチ
  6
JWW_DASHED1
 62
     3
370
     5
100
AcDbLine
 10
3388.082325153457
 20
905.2029650901886
 30
0.0
 11
3700.581500354045
 21
1217.70214029078
 31
0.0
  0
LINE
  5
25C
330
1F
100
AcDbEntity
  8
0-C_ハッチ
  6
JWW_DASHED1
 62
     3
370
     5
100
AcDbLine
 10
3246.660568924571
 20
905.2029650901886
 30
0.0
 11
3559.159744125159
 21
1217.70214029078
 31
0.0
  0
LINE
  5
25D
330
1F
100
AcDbEntity
  8
0-C_ハッチ
  6
JWW_DASHED1
 62
     3
370
     5
100
AcDbLine
 10
3105.238812695686
 20
905.2029650901886
 30
0.0
 11
3417.737987896274
 21
1217.70214029078
 31
0.0
  0
LINE
  5
25E
330
1F
100
AcDbEntity
  8
0-C_ハッチ
  6
JWW_DASHED1
 62
     3
370
     5
100
AcDbLine
 10
2963.8170564668
 20
905.2029650901886
 30
0.0
 11
3276.316231667388
 21
1217.70214029078
 31
0.0
  0
LINE
  5
25F
330
1F
100
AcDbEntity
  8
0-C_ハッチ
  6
JWW_DASHED1
 62
     3
370
     5
100
AcDbLine
 10
2822.395300237915
 20
905.2029650901886
 30
0.0
 11
3134.896949836732
 21
1217.70214029078
 31
0.0
  0
LINE
  5
260
330
1F
100
AcDbEntity
  8
0-C_ハッチ
  6
JWW_DASHED1
 62
     3
370
     5
100
AcDbLine
 10
2680.973544009029
 20
905.2029650901886
 30
0.0
 11
2993.475193607847
 21
1217.70214029078
 31
0.0
  0
LINE
  5
261
330
1F
100
AcDbEntity
  8
0-C_ハッチ
  6
JWW_DASHED1
 62
     3
370
     5
100
AcDbLine
 10
2539.554262178367
 20
905.2029650901886
 30
0.0
 11
2852.053437378961
 21
1217.70214029078
 31
0.0
  0
LINE
  5
262
330
1F
100
AcDbEntity
  8
0-C_ハッチ
  6
JWW_DASHED1
 62
     3
370
     5
100
AcDbLine
 10
2398.132505949482
 20
905.2029650901886
 30
0.0
 11
2710.631681150076
 21
1217.70214029078
 31
0.0
  0
LINE
  5
263
330
1F
100
AcDbEntity
  8
0-C_ハッチ
  6
JWW_DASHED1
 62
     3
370
     5
100
AcDbLine
 10
2256.710749720597
 20
905.2029650901886
 30
0.0
 11
2569.209924921191
 21
1217.70214029078
 31
0.0
  0
LINE
  5
264
330
1F
100
AcDbEntity
  8
0-C_ハッチ
  6
JWW_DASHED1
 62
     3
370
     5
100
AcDbLine
 10
2115.288993491711
 20
905.2029650901886
 30
0.0
 11
2427.788168692305
 21
1217.70214029078
 31
0.0
  0
LINE
  5
265
330
1F
100
AcDbEntity
  8
0-C_ハッチ
  6
JWW_DASHED1
 62
     3
370
     5
100
AcDbLine
 10
1973.867237262832
 20
905.2029650901886
 30
0.0
 11
2286.368886861644
 21
1217.70214029078
 31
0.0
  0
LINE
  5
266
330
1F
100
AcDbEntity
  8
0-C_ハッチ
  6
JWW_DASHED1
 62
     3
370
     5
100
AcDbLine
 10
1832.445481033946
 20
905.2029650901886
 30
0.0
 11
2144.947130632764
 21
1217.70214029078
 31
0.0
  0
LINE
  5
267
330
1F
100
AcDbEntity
  8
0-C_ハッチ
  6
JWW_DASHED1
 62
     3
370
     5
100
AcDbLine
 10
1691.023724805061
 20
905.2029650901886
 30
0.0
 11
2003.525374403878
 21
1217.70214029078
 31
0.0
  0
LINE
  5
268
330
1F
100
AcDbEntity
  8
0-C_ハッチ
  6
JWW_DASHED1
 62
     3
370
     5
100
AcDbLine
 10
1549.604442974399
 20
905.2029650901886
 30
0.0
 11
1862.103618174993
 21
1217.70214029078
 31
0.0
  0
LINE
  5
269
330
1F
100
AcDbEntity
  8
0-C_ハッチ
  6
JWW_DASHED1
 62
     3
370
     5
100
AcDbLine
 10
1408.182686745513
 20
905.2029650901886
 30
0.0
 11
1720.681861946107
 21
1217.70214029078
 31
0.0
  0
LINE
  5
26A
330
1F
100
AcDbEntity
  8
0-C_ハッチ
  6
JWW_DASHED1
 62
     3
370
     5
100
AcDbLine
 10
1266.760930516628
 20
905.2029650901886
 30
0.0
 11
1579.260105717222
 21
1217.70214029078
 31
0.0
  0
LINE
  5
26B
330
1F
100
AcDbEntity
  8
0-C_ハッチ
  6
JWW_DASHED1
 62
     3
370
     5
100
AcDbLine
 10
1125.339174287742
 20
905.2029650901886
 30
0.0
 11
1437.838349488336
 21
1217.70214029078
 31
0.0
  0
LINE
  5
26C
330
1F
100
AcDbEntity
  8
0-C_ハッチ
  6
JWW_DASHED1
 62
     3
370
     5
100
AcDbLine
 10
983.9174180588572
 20
905.2029650901886
 30
0.0
 11
1296.419067657675
 21
1217.70214029078
 31
0.0
  0
LINE
  5
26D
330
1F
100
AcDbEntity
  8
0-C_ハッチ
  6
JWW_DASHED1
 62
     3
370
     5
100
AcDbLine
 10
842.4956618299717
 20
905.2029650901886
 30
0.0
 11
1154.99731142879
 21
1217.70214029078
 31
0.0
  0
LINE
  5
26E
330
1F
100
AcDbEntity
  8
0-C_ハッチ
  6
JWW_DASHED1
 62
     3
370
     5
100
AcDbLine
 10
701.0763799993157
 20
905.2029650901886
 30
0.0
 11
1013.575555199904
 21
1217.70214029078
 31
0.0
  0
LINE
  5
26F
330
1F
100
AcDbEntity
  8
0-C_ハッチ
  6
JWW_DASHED1
 62
     3
370
     5
100
AcDbLine
 10
559.6546237704302
 20
905.2029650901886
 30
0.0
 11
872.1537989710185
 21
1217.70214029078
 31
0.0
  0
LINE
  5
270
330
1F
100
AcDbEntity
  8
0-C_ハッチ
  6
JWW_DASHED1
 62
     3
370
     5
100
AcDbLine
 10
418.2328675415448
 20
905.2029650901886
 30
0.0
 11
730.7320427421388
 21
1217.70214029078
 31
0.0
  0
LINE
  5
271
330
1F
100
AcDbEntity
  8
0-C_ハッチ
  6
JWW_DASHED1
 62
     3
370
     5
100
AcDbLine
 10
276.8111113126594
 20
905.2029650901886
 30
0.0
 11
589.3102865132533
 21
1217.70214029078
 31
0.0
  0
LINE
  5
272
330
1F
100
AcDbEntity
  8
0-C_ハッチ
  6
JWW_DASHED1
 62
     3
370
     5
100
AcDbLine
 10
135.3893550837739
 20
905.2029650901886
 30
0.0
 11
447.8910046825916
 21
1217.70214029078
 31
0.0
  0
LINE
  5
273
330
1F
100
AcDbEntity
  8
0-C_ハッチ
  6
JWW_DASHED1
 62
     3
370
     5
100
AcDbLine
 10
-6.032401145111876
 20
905.2029650901886
 30
0.0
 11
306.4692484537062
 21
1217.70214029078
 31
0.0
  0
LINE
  5
274
330
1F
100
AcDbEntity
  8
0-C_ハッチ
  6
JWW_DASHED1
 62
     3
370
     5
100
AcDbLine
 10
-147.4516829757679
 20
905.2029650901886
 30
0.0
 11
165.0474922248208
 21
1217.70214029078
 31
0.0
  0
LINE
  5
275
330
1F
100
AcDbEntity
  8
0-C_ハッチ
  6
JWW_DASHED1
 62
     3
370
     5
100
AcDbLine
 10
-288.8734392046533
 20
905.2029650901886
 30
0.0
 11
23.62573599593496
 21
1217.70214029078
 31
0.0
  0
LINE
  5
276
330
1F
100
AcDbEntity
  8
0-C_ハッチ
  6
JWW_DASHED1
 62
     3
370
     5
100
AcDbLine
 10
-430.2951954335388
 20
905.2029650901886
 30
0.0
 11
-117.7960202329505
 21
1217.70214029078
 31
0.0
  0
LINE
  5
277
330
1F
100
AcDbEntity
  8
0-C_ハッチ
  6
JWW_DASHED1
 62
     3
370
     5
100
AcDbLine
 10
-571.7169516624235
 20
905.2029650901886
 30
0.0
 11
-259.2177764618359
 21
1217.70214029078
 31
0.0
  0
LINE
  5
278
330
1F
100
AcDbEntity
  8
0-C_ハッチ
  6
JWW_DASHED1
 62
     3
370
     5
100
AcDbLine
 10
-713.138707891309
 20
905.2029650901886
 30
0.0
 11
-400.6370582924919
 21
1217.70214029078
 31
0.0
  0
LINE
  5
279
330
1F
100
AcDbEntity
  8
0-C_ハッチ
  6
JWW_DASHED1
 62
     3
370
     5
100
AcDbLine
 10
-739.2887025124036
 20
1020.473813972423
 30
0.0
 11
-542.0588145213774
 21
1217.70214029078
 31
0.0
  0
LINE
  5
27A
330
1F
100
AcDbEntity
  8
0-C_ハッチ
  6
JWW_DASHED1
 62
     3
370
     5
100
AcDbLine
 10
-739.2887025124036
 20
1161.894008528638
 30
0.0
 11
-683.4805707502621
 21
1217.70214029078
 31
0.0
  0
LINE
  5
27B
330
1F
100
AcDbEntity
  8
0-C_ハッチ
  6
JWW_DASHED1
 62
     3
370
     5
100
AcDbLine
 10
4236.61038812854
 20
905.2029650901886
 30
0.0
 11
4349.420479031801
 21
1018.013055993451
 31
0.0
  0
LINE
  5
27C
330
1F
100
AcDbEntity
  8
0-C_ハッチ
  6
JWW_DASHED1
 62
     3
370
     5
100
AcDbLine
 10
4095.188631899654
 20
905.2029650901886
 30
0.0
 11
4349.420479031801
 21
1159.434812222337
 31
0.0
  0
LINE
  5
27D
330
1F
100
AcDbEntity
  8
0-3_仕上
  6
Continuous
 62
     7
370
     5
100
AcDbLine
 10
-739.2887025124036
 20
1217.70214029078
 30
0.0
 11
4349.420479031801
 21
1217.70214029078
 31
0.0
  0
LINE
  5
27E
330
1F
100
AcDbEntity
  8
0-2_柱
  6
Continuous
 62
     7
370
     5
100
AcDbLine
 10
-739.2887025124036
 20
905.2029650901886
 30
0.0
 11
4349.420479031801
 21
905.2029650901886
 31
0.0
  0
LINE
  5
27F
330
1F
100
AcDbEntity
  8
0-B_寸法
  6
Continuous
 62
     3
370
     5
100
AcDbLine
 10
5905.328010697172
 20
1217.70214029078
 30
0.0
 11
5905.328010697172
 21
905.2029650901886
 31
0.0
  0
LINE
  5
280
330
1F
100
AcDbEntity
  8
0-B_寸法
  6
Continuous
 62
     3
370
     5
100
AcDbLine
 10
5905.328010697172
 20
1217.70214029078
 30
0.0
 11
4884.334391345395
 21
1217.70214029078
 31
0.0
  0
LINE
  5
281
330
1F
100
AcDbEntity
  8
0-B_寸法
  6
Continuous
 62
     3
370
     5
100
AcDbLine
 10
5905.328010697172
 20
905.2029650901886
 30
0.0
 11
4884.334391345395
 21
905.2029650901886
 31
0.0
  0
LINE
  5
282
330
1F
100
AcDbEntity
  8
0-B_寸法
  6
Continuous
 62
     3
370
     5
100
AcDbLine
 10
5905.328010697172
 20
905.2029650901886
 30
0.0
 11
5905.328010697172
 21
-1319.797034909811
 31
0.0
  0
LINE
  5
283
330
1F
100
AcDbEntity
  8
0-B_寸法
  6
Continuous
 62
     3
370
     5
100
AcDbLine
 10
6835.41471361102
 20
-1632.296210110403
 30
0.0
 11
6835.41471361102
 21
1217.70214029078
 31
0.0
  0
LINE
  5
284
330
1F
100
AcDbEntity
  8
0-B_寸法
  6
Continuous
 62
     3
370
     5
100
AcDbLine
 10
6835.41471361102
 20
1217.70214029078
 30
0.0
 11
5905.328010697172
 21
1217.70214029078
 31
0.0
  0
TEXT
  5
285
330
1F
100
AcDbEntity
  8
0-B_寸法
  6
Continuous
 62
     7
370
     0
100
AcDbText
 10
6213.026691018119
 20
811.4534599698345
 30
0.0
 40
228.6
  1
12.5
 50
90.0
 41
1.125
  7
ＭＳ ゴシック
100
AcDbText
  0
LWPOLYLINE
  5
286
330
1F
100
AcDbEntity
  8
0-B_寸法
  6
Continuous
 62
     3
370
     5
100
AcDbPolyline
 90
        4
 70
     1
 43
10.0
 10
5910.328010697171
 20
1217.70214029078
 42
0.4142135623731
 10
5905.328010697172
 20
1222.70214029078
 42
0.4142135623731
 10
5900.328010697172
 20
1217.70214029078
 42
0.4142135623731
 10
5905.328010697172
 20
1212.70214029078
 42
0.4142135623731
  0
LWPOLYLINE
  5
287
330
1F
100
AcDbEntity
  8
0-B_寸法
  6
Continuous
 62
     3
370
     5
100
AcDbPolyline
 90
        4
 70
     1
 43
10.0
 10
5910.328010697171
 20
905.2029650901886
 42
0.4142135623731
 10
5905.328010697172
 20
910.2029650901887
 42
0.4142135623731
 10
5900.328010697172
 20
905.2029650901886
 42
0.4142135623731
 10
5905.328010697172
 20
900.2029650901885
 42
0.4142135623731
  0
LWPOLYLINE
  5
288
330
1F
100
AcDbEntity
  8
0-B_寸法
  6
Continuous
 62
     3
370
     5
100
AcDbPolyline
 90
        4
 70
     1
 43
10.0
 10
6840.41471361102
 20
1217.70214029078
 42
0.4142135623731
 10
6835.41471361102
 20
1222.70214029078
 42
0.4142135623731
 10
6830.41471361102
 20
1217.70214029078
 42
0.4142135623731
 10
6835.41471361102
 20
1212.70214029078
 42
0.4142135623731
  0
LINE
  5
289
330
1F
100
AcDbEntity
  8
0-B_寸法
  6
Continuous
 62
     3
370
     5
100
AcDbLine
 10
-5058.108576940099
 20
2290.273270991795
 30
0.0
 11
-5058.108576940099
 21
1446.185725776139
 31
0.0
  0
LINE
  5
28A
330
1F
100
AcDbEntity
  8
0-B_寸法
  6
Continuous
 62
     3
370
     5
100
AcDbLine
 10
-5283.108082060453
 20
2290.273270991795
 30
0.0
 11
-5283.108082060453
 21
1388.323839077253
 31
0.0
  0
LINE
  5
28B
330
1F
100
AcDbEntity
  8
0-0_補助線
  6
JWW_HOJO
 62
     7
370
     5
100
AcDbLine
 10
-5283.108082060453
 20
2290.273270991795
 30
0.0
 11
-5283.108082060453
 21
1388.830325014251
 31
0.0
  0
TEXT
  5
28C
330
1F
100
AcDbEntity
  8
0-B_寸法
  6
Continuous
 62
     7
370
     0
100
AcDbText
 10
5834.246830405068
 20
-371.846274184513
 30
0.0
 40
228.6
  1
89
 50
90.0
 41
1.083333333333333
  7
ＭＳ ゴシック
100
AcDbText
  0
TEXT
  5
28D
330
1F
100
AcDbEntity
  8
0-B_寸法
  6
Continuous
 62
     7
370
     0
100
AcDbText
 10
6746.587434212249
 20
-476.5410975722219
 30
0.0
 40
228.6
  1
114
 50
90.0
 41
1.111111111111111
  7
ＭＳ ゴシック
100
AcDbText
  0
LINE
  5
28E
330
1F
100
AcDbEntity
  8
0-3_仕上
  6
Continuous
 62
     7
370
     5
100
AcDbLine
 10
1253.141182839263
 20
905.2029650901886
 30
0.0
 11
1253.141182839263
 21
-1319.797034909811
 31
0.0
  0
LINE
  5
28F
330
1F
100
AcDbEntity
  8
0-3_仕上
  6
Continuous
 62
     7
370
     5
100
AcDbLine
 10
3478.141182839263
 20
905.2029650901886
 30
0.0
 11
3478.141182839263
 21
-1319.797034909811
 31
0.0
  0
LINE
  5
290
330
1F
100
AcDbEntity
  8
0-3_仕上
  6
Continuous
 62
     7
370
     5
100
AcDbLine
 10
2203.141182839263
 20
905.2029650901886
 30
0.0
 11
2203.141182839263
 21
-1319.797034909811
 31
0.0
  0
LINE
  5
291
330
1F
100
AcDbEntity
  8
0-3_仕上
  6
Continuous
 62
     7
370
     5
100
AcDbLine
 10
2528.141182839263
 20
905.2029650901886
 30
0.0
 11
2528.141182839263
 21
-1319.797034909811
 31
0.0
  0
LINE
  5
292
330
1F
100
AcDbEntity
  8
0-3_仕上
  6
Continuous
 62
     7
370
     5
100
AcDbLine
 10
1253.141182839263
 20
-1319.797034909811
 30
0.0
 11
2203.141182839263
 21
905.2029650901886
 31
0.0
  0
LINE
  5
293
330
1F
100
AcDbEntity
  8
0-3_仕上
  6
Continuous
 62
     7
370
     5
100
AcDbLine
 10
3478.141182839263
 20
905.2029650901886
 30
0.0
 11
2528.141182839263
 21
-1319.797034909811
 31
0.0
  0
LINE
  5
294
330
1F
100
AcDbEntity
  8
0-3_仕上
  6
Continuous
 62
     7
370
     5
100
AcDbLine
 10
-3808.107587180808
 20
905.2029650901886
 30
0.0
 11
-3808.107587180808
 21
-1319.797034909811
 31
0.0
  0
LINE
  5
295
330
1F
100
AcDbEntity
  8
0-3_仕上
  6
Continuous
 62
     7
370
     5
100
AcDbLine
 10
-4758.107587180807
 20
-1319.797034909811
 30
0.0
 11
-3808.107587180808
 21
905.2029650901886
 31
0.0
  0
LINE
  5
296
330
1F
100
AcDbEntity
  8
0-1_通り芯
  6
JWW_CENTER1
 62
     3
370
     5
100
AcDbLine
 10
-16546.76865730855
 20
2789.453508486797
 30
0.0
 11
-16546.76865730855
 21
-6109.606479468479
 31
0.0
  0
LINE
  5
297
330
1F
100
AcDbEntity
  8
0-0_補助線
  6
JWW_HOJO
 62
     3
370
     5
100
AcDbLine
 10
-17659.26865730855
 20
2789.453508486797
 30
0.0
 11
-17659.26865730855
 21
-6109.606479468479
 31
0.0
  0
LINE
  5
298
330
1F
100
AcDbEntity
  8
0-C_ハッチ
  6
JWW_DASHED1
 62
     3
370
     5
100
AcDbLine
 10
-17971.76906970825
 20
1687.717712503618
 30
0.0
 11
-17659.26865730855
 21
2000.216887704207
 31
0.0
  0
LINE
  5
299
330
1F
100
AcDbEntity
  8
0-C_ハッチ
  6
JWW_DASHED1
 62
     3
370
     5
100
AcDbLine
 10
-17971.76906970825
 20
1829.139468732504
 30
0.0
 11
-17659.26865730855
 21
2141.638643933092
 31
0.0
  0
LINE
  5
29A
330
1F
100
AcDbEntity
  8
0-C_ハッチ
  6
JWW_DASHED1
 62
     3
370
     5
100
AcDbLine
 10
-17971.76906970825
 20
1970.561224961389
 30
0.0
 11
-17659.26865730855
 21
2283.060400161978
 31
0.0
  0
LINE
  5
29B
330
1F
100
AcDbEntity
  8
0-C_ハッチ
  6
JWW_DASHED1
 62
     3
370
     5
100
AcDbLine
 10
-17971.76906970825
 20
2111.980506792045
 30
0.0
 11
-17659.26865730855
 21
2424.482156390863
 31
0.0
  0
LINE
  5
29C
330
1F
100
AcDbEntity
  8
0-C_ハッチ
  6
JWW_DASHED1
 62
     3
370
     5
100
AcDbLine
 10
-17971.76906970825
 20
2253.402263020931
 30
0.0
 11
-17659.26865730855
 21
2565.903912619749
 31
0.0
  0
LINE
  5
29D
330
1F
100
AcDbEntity
  8
0-C_ハッチ
  6
JWW_DASHED1
 62
     3
370
     5
100
AcDbLine
 10
-17971.76906970825
 20
2394.824019249816
 30
0.0
 11
-17659.26865730855
 21
2707.32319445041
 31
0.0
  0
LINE
  5
29E
330
1F
100
AcDbEntity
  8
0-C_ハッチ
  6
JWW_DASHED1
 62
     3
370
     5
100
AcDbLine
 10
-17971.76906970825
 20
2536.245775478701
 30
0.0
 11
-17659.26865730855
 21
2848.744950679295
 31
0.0
  0
LINE
  5
29F
330
1F
100
AcDbEntity
  8
0-C_ハッチ
  6
JWW_DASHED1
 62
     3
370
     5
100
AcDbLine
 10
-17971.76906970825
 20
2677.667531707587
 30
0.0
 11
-17659.26865730855
 21
2990.166706908181
 31
0.0
  0
LINE
  5
2A0
330
1F
100
AcDbEntity
  8
0-C_ハッチ
  6
JWW_DASHED1
 62
     3
370
     5
100
AcDbLine
 10
-17971.76906970825
 20
2819.089287936472
 30
0.0
 11
-17659.26865730855
 21
3131.588463137066
 31
0.0
  0
LINE
  5
2A1
330
1F
100
AcDbEntity
  8
0-C_ハッチ
  6
JWW_DASHED1
 62
     3
370
     5
100
AcDbLine
 10
-17971.76906970825
 20
2960.508569767134
 30
0.0
 11
-17659.26865730855
 21
3273.010219365952
 31
0.0
  0
LINE
  5
2A2
330
1F
100
AcDbEntity
  8
0-C_ハッチ
  6
JWW_DASHED1
 62
     3
370
     5
100
AcDbLine
 10
-17971.76906970825
 20
3101.930325996014
 30
0.0
 11
-17659.26865730855
 21
3414.431975594832
 31
0.0
  0
LINE
  5
2A3
330
1F
100
AcDbEntity
  8
0-C_ハッチ
  6
JWW_DASHED1
 62
     3
370
     5
100
AcDbLine
 10
-17971.76906970825
 20
3243.352082224899
 30
0.0
 11
-17794.12150484603
 21
3420.999028487572
 31
0.0
  0
LINE
  5
2A4
330
1F
100
AcDbEntity
  8
0-C_ハッチ
  6
JWW_DASHED1
 62
     3
370
     5
100
AcDbLine
 10
-17971.76906970825
 20
3384.773838453785
 30
0.0
 11
-17935.54264247536
 21
3420.999028487572
 31
0.0
  0
LINE
  5
2A5
330
1F
100
AcDbEntity
  8
0-C_ハッチ
  6
JWW_DASHED1
 62
     3
370
     5
100
AcDbLine
 10
-17971.76906970825
 20
1546.295956274733
 30
0.0
 11
-17659.26865730855
 21
1858.795131475324
 31
0.0
  0
LINE
  5
2A6
330
1F
100
AcDbEntity
  8
0-C_ハッチ
  6
JWW_DASHED1
 62
     3
370
     5
100
AcDbLine
 10
-17971.76906970825
 20
1404.874200045847
 30
0.0
 11
-17659.26865730855
 21
1717.375849644665
 31
0.0
  0
LINE
  5
2A7
330
1F
100
AcDbEntity
  8
0-C_ハッチ
  6
JWW_DASHED1
 62
     3
370
     5
100
AcDbLine
 10
-17971.76906970825
 20
1263.452443816962
 30
0.0
 11
-17659.26865730855
 21
1575.95409341578
 31
0.0
  0
LINE
  5
2A8
330
1F
100
AcDbEntity
  8
0-C_ハッチ
  6
JWW_DASHED1
 62
     3
370
     5
100
AcDbLine
 10
-17971.76906970825
 20
1122.033161986303
 30
0.0
 11
-17659.26865730855
 21
1434.532337186894
 31
0.0
  0
LINE
  5
2A9
330
1F
100
AcDbEntity
  8
0-C_ハッチ
  6
JWW_DASHED1
 62
     3
370
     5
100
AcDbLine
 10
-17971.76906970825
 20
980.6114057574177
 30
0.0
 11
-17659.26865730855
 21
1293.110580958009
 31
0.0
  0
LINE
  5
2AA
330
1F
100
AcDbEntity
  8
0-C_ハッチ
  6
JWW_DASHED1
 62
     3
370
     5
100
AcDbLine
 10
-17971.76906970825
 20
839.1896495285323
 30
0.0
 11
-17659.26865730855
 21
1151.688824729124
 31
0.0
  0
LINE
  5
2AB
330
1F
100
AcDbEntity
  8
0-C_ハッチ
  6
JWW_DASHED1
 62
     3
370
     5
100
AcDbLine
 10
-17971.76906970825
 20
697.7678932996497
 30
0.0
 11
-17659.26865730855
 21
1010.267068500241
 31
0.0
  0
LINE
  5
2AC
330
1F
100
AcDbEntity
  8
0-C_ハッチ
  6
JWW_DASHED1
 62
     3
370
     5
100
AcDbLine
 10
-17971.76906970825
 20
556.3461370707643
 30
0.0
 11
-17659.26865730855
 21
868.847786669582
 31
0.0
  0
LINE
  5
2AD
330
1F
100
AcDbEntity
  8
0-C_ハッチ
  6
JWW_DASHED1
 62
     3
370
     5
100
AcDbLine
 10
-17971.76906970825
 20
414.9243808418788
 30
0.0
 11
-17659.26865730855
 21
727.4260304406965
 31
0.0
  0
LINE
  5
2AE
330
1F
100
AcDbEntity
  8
0-C_ハッチ
  6
JWW_DASHED1
 62
     3
370
     5
100
AcDbLine
 10
-17971.76906970825
 20
273.50509901122
 30
0.0
 11
-17659.26865730855
 21
586.0042742118111
 31
0.0
  0
LINE
  5
2AF
330
1F
100
AcDbEntity
  8
0-C_ハッチ
  6
JWW_DASHED1
 62
     3
370
     5
100
AcDbLine
 10
-17971.76906970825
 20
132.0833427823345
 30
0.0
 11
-17659.26865730855
 21
444.5825179829257
 31
0.0
  0
LINE
  5
2B0
330
1F
100
AcDbEntity
  8
0-C_ハッチ
  6
JWW_DASHED1
 62
     3
370
     5
100
AcDbLine
 10
-17971.76906970825
 20
-9.33841344655093
 30
0.0
 11
-17659.26865730855
 21
303.1607617540402
 31
0.0
  0
LINE
  5
2B1
330
1F
100
AcDbEntity
  8
0-C_ハッチ
  6
JWW_DASHED1
 62
     3
370
     5
100
AcDbLine
 10
-17971.76906970825
 20
-150.7601696754364
 30
0.0
 11
-17659.26865730855
 21
161.7390055251548
 31
0.0
  0
LINE
  5
2B2
330
1F
100
AcDbEntity
  8
0-C_ハッチ
  6
JWW_DASHED1
 62
     3
370
     5
100
AcDbLine
 10
-17971.76906970825
 20
-292.1819259043218
 30
0.0
 11
-17659.26865730855
 21
20.31724929626932
 31
0.0
  0
LINE
  5
2B3
330
1F
100
AcDbEntity
  8
0-C_ハッチ
  6
JWW_DASHED1
 62
     3
370
     5
100
AcDbLine
 10
-17971.76906970825
 20
-433.6036821332073
 30
0.0
 11
-17659.26865730855
 21
-121.1020325343895
 31
0.0
  0
LINE
  5
2B4
330
1F
100
AcDbEntity
  8
0-C_ハッチ
  6
JWW_DASHED1
 62
     3
370
     5
100
AcDbLine
 10
-17971.76906970825
 20
-575.0254383620927
 30
0.0
 11
-17659.26865730855
 21
-262.523788763275
 31
0.0
  0
LINE
  5
2B5
330
1F
100
AcDbEntity
  8
0-C_ハッチ
  6
JWW_DASHED1
 62
     3
370
     5
100
AcDbLine
 10
-17971.76906970825
 20
-716.4447201927516
 30
0.0
 11
-17659.26865730855
 21
-403.9455449921604
 31
0.0
  0
LINE
  5
2B6
330
1F
100
AcDbEntity
  8
0-C_ハッチ
  6
JWW_DASHED1
 62
     3
370
     5
100
AcDbLine
 10
-17971.76906970825
 20
-857.866476421637
 30
0.0
 11
-17659.26865730855
 21
-545.367301221043
 31
0.0
  0
LINE
  5
2B7
330
1F
100
AcDbEntity
  8
0-C_ハッチ
  6
JWW_DASHED1
 62
     3
370
     5
100
AcDbLine
 10
-17971.76906970825
 20
-999.2882326505196
 30
0.0
 11
-17659.26865730855
 21
-686.7890574499285
 31
0.0
  0
LINE
  5
2B8
330
1F
100
AcDbEntity
  8
0-C_ハッチ
  6
JWW_DASHED1
 62
     3
370
     5
100
AcDbLine
 10
-17971.76906970825
 20
-1140.709988879405
 30
0.0
 11
-17659.26865730855
 21
-828.2108136788139
 31
0.0
  0
LINE
  5
2B9
330
1F
100
AcDbEntity
  8
0-C_ハッチ
  6
JWW_DASHED1
 62
     3
370
     5
100
AcDbLine
 10
-17729.09926825397
 20
-4018.2260394759
 30
0.0
 11
-17659.26865730855
 21
-3948.394809930926
 31
0.0
  0
LINE
  5
2BA
330
1F
100
AcDbEntity
  8
0-C_ハッチ
  6
JWW_DASHED1
 62
     3
370
     5
100
AcDbLine
 10
-17870.5204058833
 20
-4018.2260394759
 30
0.0
 11
-17659.26865730855
 21
-3806.974290901155
 31
0.0
  0
LINE
  5
2BB
330
1F
100
AcDbEntity
  8
0-C_ハッチ
  6
JWW_DASHED1
 62
     3
370
     5
100
AcDbLine
 10
-17971.76906970825
 20
-3978.052947071973
 30
0.0
 11
-17659.26865730855
 21
-3665.55253467227
 31
0.0
  0
LINE
  5
2BC
330
1F
100
AcDbEntity
  8
0-C_ハッチ
  6
JWW_DASHED1
 62
     3
370
     5
100
AcDbLine
 10
-17971.76906970825
 20
-3836.631190843087
 30
0.0
 11
-17659.26865730855
 21
-3524.130778443384
 31
0.0
  0
LINE
  5
2BD
330
1F
100
AcDbEntity
  8
0-C_ハッチ
  6
JWW_DASHED1
 62
     3
370
     5
100
AcDbLine
 10
-17971.76906970825
 20
-3695.209434614205
 30
0.0
 11
-17659.26865730855
 21
-3382.710259413611
 31
0.0
  0
LINE
  5
2BE
330
1F
100
AcDbEntity
  8
0-C_ハッチ
  6
JWW_DASHED1
 62
     3
370
     5
100
AcDbLine
 10
-17971.76906970825
 20
-3553.788915584431
 30
0.0
 11
-17659.26865730855
 21
-3241.288503184728
 31
0.0
  0
LINE
  5
2BF
330
1F
100
AcDbEntity
  8
0-C_ハッチ
  6
JWW_DASHED1
 62
     3
370
     5
100
AcDbLine
 10
-17971.76906970825
 20
-3412.367159355545
 30
0.0
 11
-17659.26865730855
 21
-3099.866746955843
 31
0.0
  0
LINE
  5
2C0
330
1F
100
AcDbEntity
  8
0-C_ハッチ
  6
JWW_DASHED1
 62
     3
370
     5
100
AcDbLine
 10
-17971.76906970825
 20
-3270.94540312666
 30
0.0
 11
-17659.26865730855
 21
-2958.446227926069
 31
0.0
  0
LINE
  5
2C1
330
1F
100
AcDbEntity
  8
0-C_ハッチ
  6
JWW_DASHED1
 62
     3
370
     5
100
AcDbLine
 10
-17971.76906970825
 20
-3129.52488409689
 30
0.0
 11
-17659.26865730855
 21
-2817.025708896299
 31
0.0
  0
LINE
  5
2C2
330
1F
100
AcDbEntity
  8
0-C_ハッチ
  6
JWW_DASHED1
 62
     3
370
     5
100
AcDbLine
 10
-17971.76906970825
 20
-2988.103127868004
 30
0.0
 11
-17659.26865730855
 21
-2675.603952667413
 31
0.0
  0
LINE
  5
2C3
330
1F
100
AcDbEntity
  8
0-C_ハッチ
  6
JWW_DASHED1
 62
     3
370
     5
100
AcDbLine
 10
-17971.76906970825
 20
-2846.681371639119
 30
0.0
 11
-17659.26865730855
 21
-2534.182196438528
 31
0.0
  0
LINE
  5
2C4
330
1F
100
AcDbEntity
  8
0-C_ハッチ
  6
JWW_DASHED1
 62
     3
370
     5
100
AcDbLine
 10
-17971.76906970825
 20
-2705.259615410233
 30
0.0
 11
-17659.26865730855
 21
-2392.760440209642
 31
0.0
  0
LINE
  5
2C5
330
1F
100
AcDbEntity
  8
0-C_ハッチ
  6
JWW_DASHED1
 62
     3
370
     5
100
AcDbLine
 10
-17971.76906970825
 20
-2563.840333579574
 30
0.0
 11
-17659.26865730855
 21
-2251.338683980757
 31
0.0
  0
LINE
  5
2C6
330
1F
100
AcDbEntity
  8
0-C_ハッチ
  6
JWW_DASHED1
 62
     3
370
     5
100
AcDbLine
 10
-17971.76906970825
 20
-2422.418577350689
 30
0.0
 11
-17659.26865730855
 21
-2109.916927751871
 31
0.0
  0
LINE
  5
2C7
330
1F
100
AcDbEntity
  8
0-C_ハッチ
  6
JWW_DASHED1
 62
     3
370
     5
100
AcDbLine
 10
-17971.76906970825
 20
-2280.996821121803
 30
0.0
 11
-17659.26865730855
 21
-1968.497645921212
 31
0.0
  0
LINE
  5
2C8
330
1F
100
AcDbEntity
  8
0-C_ハッチ
  6
JWW_DASHED1
 62
     3
370
     5
100
AcDbLine
 10
-17971.76906970825
 20
-2139.575064892918
 30
0.0
 11
-17659.26865730855
 21
-1827.075889692327
 31
0.0
  0
LINE
  5
2C9
330
1F
100
AcDbEntity
  8
0-C_ハッチ
  6
JWW_DASHED1
 62
     3
370
     5
100
AcDbLine
 10
-17971.76906970825
 20
-1998.153308664035
 30
0.0
 11
-17659.26865730855
 21
-1685.654133463444
 31
0.0
  0
LINE
  5
2CA
330
1F
100
AcDbEntity
  8
0-C_ハッチ
  6
JWW_DASHED1
 62
     3
370
     5
100
AcDbLine
 10
-17971.76906970825
 20
-1856.73155243515
 30
0.0
 11
-17659.26865730855
 21
-1544.232377234559
 31
0.0
  0
LINE
  5
2CB
330
1F
100
AcDbEntity
  8
0-C_ハッチ
  6
JWW_DASHED1
 62
     3
370
     5
100
AcDbLine
 10
-17971.76906970825
 20
-1715.309796206265
 30
0.0
 11
-17659.26865730855
 21
-1402.810621005674
 31
0.0
  0
LINE
  5
2CC
330
1F
100
AcDbEntity
  8
0-C_ハッチ
  6
JWW_DASHED1
 62
     3
370
     5
100
AcDbLine
 10
-17971.76906970825
 20
-1432.46875814672
 30
0.0
 11
-17659.26865730855
 21
-1119.967108547903
 31
0.0
  0
LINE
  5
2CD
330
1F
100
AcDbEntity
  8
0-C_ハッチ
  6
JWW_DASHED1
 62
     3
370
     5
100
AcDbLine
 10
-17971.76906970825
 20
-1573.890514375606
 30
0.0
 11
-17659.26865730855
 21
-1261.388864776788
 31
0.0
  0
LINE
  5
2CE
330
1F
100
AcDbEntity
  8
0-C_ハッチ
  6
JWW_DASHED1
 62
     3
370
     5
100
AcDbLine
 10
-17971.76906970825
 20
-1291.047001917835
 30
0.0
 11
-17659.26865730855
 21
-978.5478267172437
 31
0.0
  0
LINE
  5
2CF
330
1F
100
AcDbEntity
  8
0-0_補助線
  6
JWW_HOJO
 62
     3
370
     5
100
AcDbLine
 10
-17971.76906970825
 20
-4150.731301696129
 30
0.0
 11
-15121.76824490885
 21
-4150.731301696129
 31
0.0
  0
LINE
  5
2D0
330
1F
100
AcDbEntity
  8
0-3_仕上
  6
Continuous
 62
     7
370
     5
100
AcDbLine
 10
-17971.76906970825
 20
3135.455947564853
 30
0.0
 11
-17971.76906970825
 21
-6377.502056960559
 31
0.0
  0
LINE
  5
2D1
330
1F
100
AcDbEntity
  8
0-2_柱
  6
Continuous
 62
     7
370
     5
100
AcDbLine
 10
-17659.26865730855
 20
3135.455947564853
 30
0.0
 11
-17659.26865730855
 21
-6377.502056960559
 31
0.0
  0
LINE
  5
2D2
330
1F
100
AcDbEntity
  8
0-B_寸法
  6
Continuous
 62
     3
370
     5
100
AcDbLine
 10
-16546.76865730855
 20
-4430.488554547007
 30
0.0
 11
-15434.26865730855
 21
-4430.488554547007
 31
0.0
  0
LWPOLYLINE
  5
2D3
330
1F
100
AcDbEntity
  8
0-B_寸法
  6
Continuous
 62
     3
370
     5
100
AcDbPolyline
 90
        4
 70
     1
 43
10.0
 10
-16541.76865730855
 20
-4430.488554547007
 42
0.4142135623731
 10
-16546.76865730855
 20
-4425.488554547008
 42
0.4142135623731
 10
-16551.76865730856
 20
-4430.488554547007
 42
0.4142135623731
 10
-16546.76865730855
 20
-4435.488554547007
 42
0.4142135623731
  0
LINE
  5
2D4
330
1F
100
AcDbEntity
  8
0-B_寸法
  6
Continuous
 62
     3
370
     5
100
AcDbLine
 10
-16546.76865730855
 20
-4430.488554547007
 30
0.0
 11
-16546.76865730855
 21
-2893.278217032933
 31
0.0
  0
TEXT
  5
2D5
330
1F
100
AcDbEntity
  8
0-B_寸法
  6
Continuous
 62
     7
370
     0
100
AcDbText
 10
-16428.01834800878
 20
-4338.188554547007
 30
0.0
 40
228.6
  1
44.5
 41
1.125
  7
ＭＳ ゴシック
100
AcDbText
  0
TEXT
  5
2D6
330
1F
100
AcDbEntity
  8
0-B_寸法
  6
Continuous
 62
     7
370
     0
100
AcDbText
 10
-15029.8184195403
 20
2342.496629152059
 30
0.0
 40
228.6
  1
38
 41
1.083333333333333
  7
ＭＳ ゴシック
100
AcDbText
  0
LINE
  5
2D7
330
1F
100
AcDbEntity
  8
0-B_寸法
  6
Continuous
 62
     3
370
     5
100
AcDbLine
 10
-15434.26865730855
 20
2290.273270991795
 30
0.0
 11
-15434.26865730855
 21
1033.413909188585
 31
0.0
  0
LINE
  5
2D8
330
1F
100
AcDbEntity
  8
0-2_柱
  6
Continuous
 62
     7
370
     5
100
AcDbLine
 10
-14471.76865730855
 20
1217.70214029078
 30
0.0
 11
-14471.76865730855
 21
-1632.296210110403
 31
0.0
  0
LINE
  5
2D9
330
1F
100
AcDbEntity
  8
0-2_柱
  6
Continuous
 62
     7
370
     5
100
AcDbLine
 10
-14159.26824490885
 20
1217.70214029078
 30
0.0
 11
-14159.26824490885
 21
-1707.297199869694
 31
0.0
  0
LINE
  5
2DA
330
1F
100
AcDbEntity
  8
0-2_柱
  6
Continuous
 62
     7
370
     5
100
AcDbLine
 10
-14471.76865730855
 20
905.2029650901886
 30
0.0
 11
-15434.26865730855
 21
905.2029650901886
 31
0.0
  0
LINE
  5
2DB
330
1F
100
AcDbEntity
  8
0-C_ハッチ
  6
JWW_DASHED1
 62
     3
370
     5
100
AcDbLine
 10
-15434.26865730855
 20
1655.367430092301
 30
0.0
 11
-15134.26766754926
 21
1955.368419851593
 31
0.0
  0
LINE
  5
2DC
330
1F
100
AcDbEntity
  8
0-C_ハッチ
  6
JWW_DASHED1
 62
     3
370
     5
100
AcDbLine
 10
-15434.26865730855
 20
1513.945673863415
 30
0.0
 11
-15134.26766754926
 21
1813.946663622707
 31
0.0
  0
LINE
  5
2DD
330
1F
100
AcDbEntity
  8
0-C_ハッチ
  6
JWW_DASHED1
 62
     3
370
     5
100
AcDbLine
 10
-15434.26865730855
 20
1372.52391763453
 30
0.0
 11
-15134.26766754926
 21
1672.524907393822
 31
0.0
  0
LINE
  5
2DE
330
1F
100
AcDbEntity
  8
0-C_ハッチ
  6
JWW_DASHED1
 62
     3
370
     5
100
AcDbLine
 10
-15434.26865730855
 20
1231.102161405644
 30
0.0
 11
-15134.26766754926
 21
1531.103151164936
 31
0.0
  0
LINE
  5
2DF
330
1F
100
AcDbEntity
  8
0-C_ハッチ
  6
JWW_DASHED1
 62
     3
370
     5
100
AcDbLine
 10
-15434.26865730855
 20
1089.680405176759
 30
0.0
 11
-15134.26766754926
 21
1389.681394936051
 31
0.0
  0
LINE
  5
2E0
330
1F
100
AcDbEntity
  8
0-C_ハッチ
  6
JWW_DASHED1
 62
     3
370
     5
100
AcDbLine
 10
-15434.26865730855
 20
948.2586489478734
 30
0.0
 11
-15134.26766754926
 21
1248.259638707165
 31
0.0
  0
LINE
  5
2E1
330
1F
100
AcDbEntity
  8
0-C_ハッチ
  6
JWW_DASHED1
 62
     3
370
     5
100
AcDbLine
 10
-15335.90258493735
 20
905.2029650901886
 30
0.0
 11
-15023.40340973677
 21
1217.70214029078
 31
0.0
  0
LINE
  5
2E2
330
1F
100
AcDbEntity
  8
0-C_ハッチ
  6
JWW_DASHED1
 62
     3
370
     5
100
AcDbLine
 10
-15194.48082870847
 20
905.2029650901886
 30
0.0
 11
-14881.98165350788
 21
1217.70214029078
 31
0.0
  0
LINE
  5
2E3
330
1F
100
AcDbEntity
  8
0-A_文字
  6
Continuous
 62
     7
370
     5
100
AcDbLine
 10
-14159.26824490885
 20
1217.70214029078
 30
0.0
 11
-15121.76824490885
 21
1217.70214029078
 31
0.0
  0
LINE
  5
2E4
330
1F
100
AcDbEntity
  8
0-A_文字
  6
Continuous
 62
     7
370
     5
100
AcDbLine
 10
-15434.26865730855
 20
905.2029650901886
 30
0.0
 11
-17659.26865730855
 21
905.2029650901886
 31
0.0
  0
LINE
  5
2E5
330
1F
100
AcDbEntity
  8
0-A_文字
  6
Continuous
 62
     7
370
     5
100
AcDbLine
 10
-15434.26865730855
 20
-1319.797034909811
 30
0.0
 11
-17659.26865730855
 21
-1319.797034909811
 31
0.0
  0
LINE
  5
2E6
330
1F
100
AcDbEntity
  8
0-A_文字
  6
Continuous
 62
     7
370
     5
100
AcDbLine
 10
-15434.26865730855
 20
-369.7970349098114
 30
0.0
 11
-17659.26865730855
 21
-369.7970349098114
 31
0.0
  0
LINE
  5
2E7
330
1F
100
AcDbEntity
  8
0-A_文字
  6
Continuous
 62
     7
370
     5
100
AcDbLine
 10
-15434.26865730855
 20
-44.79703490981137
 30
0.0
 11
-17659.26865730855
 21
-44.79703490981137
 31
0.0
  0
LINE
  5
2E8
330
1F
100
AcDbEntity
  8
0-A_文字
  6
Continuous
 62
     7
370
     5
100
AcDbLine
 10
-17659.26865730855
 20
-44.79703490981137
 30
0.0
 11
-15434.26865730855
 21
905.2029650901886
 31
0.0
  0
LINE
  5
2E9
330
1F
100
AcDbEntity
  8
0-A_文字
  6
Continuous
 62
     7
370
     5
100
AcDbLine
 10
-15434.26865730855
 20
-369.7970349098114
 30
0.0
 11
-17659.26865730855
 21
-1319.797034909811
 31
0.0
  0
LINE
  5
2EA
330
1F
100
AcDbEntity
  8
0-A_文字
  6
Continuous
 62
     7
370
     5
100
AcDbLine
 10
-15434.26865730855
 20
-1319.797034909811
 30
0.0
 11
-14471.76865730855
 21
905.2029650901886
 31
0.0
  0
LINE
  5
2EB
330
1F
100
AcDbEntity
  8
0-B_寸法
  6
Continuous
 62
     3
370
     5
100
AcDbLine
 10
-16546.76865730855
 20
4346.376951576677
 30
0.0
 11
-16546.76865730855
 21
2688.161454585545
 31
0.0
  0
LWPOLYLINE
  5
2EC
330
1F
100
AcDbEntity
  8
0-B_寸法
  6
Continuous
 62
     3
370
     5
100
AcDbPolyline
 90
        4
 70
     1
 43
10.0
 10
-16541.76865730855
 20
4346.376951576677
 42
0.4142135623731
 10
-16546.76865730855
 20
4351.376951576677
 42
0.4142135623731
 10
-16551.76865730856
 20
4346.376951576677
 42
0.4142135623731
 10
-16546.76865730855
 20
4341.376951576677
 42
0.4142135623731
  0
LWPOLYLINE
  5
2ED
330
1F
100
AcDbEntity
  8
0-B_寸法
  6
Continuous
 62
     3
370
     5
100
AcDbPolyline
 90
        4
 70
     1
 43
10.0
 10
-16541.76865730855
 20
3333.227174602436
 42
0.4142135623731
 10
-16546.76865730855
 20
3338.227174602436
 42
0.4142135623731
 10
-16551.76865730856
 20
3333.227174602436
 42
0.4142135623731
 10
-16546.76865730855
 20
3328.227174602436
 42
0.4142135623731
  0
LINE
  5
2EE
330
1F
100
AcDbEntity
  8
0-B_寸法
  6
Continuous
 62
     3
370
     5
100
AcDbLine
 10
-16546.76865730855
 20
4346.376951576677
 30
0.0
 11
2365.641182839263
 21
4346.376951576677
 31
0.0
  0
LINE
  5
2EF
330
1F
100
AcDbEntity
  8
0-B_寸法
  6
Continuous
 62
     3
370
     5
100
AcDbLine
 10
-16546.76865730855
 20
3333.227174602436
 30
0.0
 11
-14159.26824490885
 21
3333.227174602436
 31
0.0
  0
LINE
  5
2F0
330
1F
100
AcDbEntity
  8
0-7_金物
  6
JWW_DASHED1
 62
     3
370
     5
100
AcDbLine
 10
-15434.26865730855
 20
-1455.901309350267
 30
0.0
 11
-15298.1643828681
 21
-1319.797034909811
 31
0.0
  0
LINE
  5
2F1
330
1F
100
AcDbEntity
  8
0-7_金物
  6
JWW_DASHED1
 62
     3
370
     5
100
AcDbLine
 10
-15434.26865730855
 20
-1597.323065579153
 30
0.0
 11
-15156.74262663921
 21
-1319.797034909811
 31
0.0
  0
LINE
  5
2F2
330
1F
100
AcDbEntity
  8
0-C_ハッチ
  6
JWW_DASHED1
 62
     3
370
     5
100
AcDbLine
 10
-15434.26865730855
 20
-1738.744821808038
 30
0.0
 11
-15015.32252903143
 21
-1319.797034909811
 31
0.0
  0
LINE
  5
2F3
330
1F
100
AcDbEntity
  8
0-C_ハッチ
  6
JWW_DASHED1
 62
     3
370
     5
100
AcDbLine
 10
-15434.26865730855
 20
-2021.585859867582
 30
0.0
 11
-15121.76824490885
 21
-1709.08668466699
 31
0.0
  0
LINE
  5
2F4
330
1F
100
AcDbEntity
  8
0-C_ハッチ
  6
JWW_DASHED1
 62
     3
370
     5
100
AcDbLine
 10
-15434.26865730855
 20
-2163.007616096468
 30
0.0
 11
-15121.76824490885
 21
-1850.508440895876
 31
0.0
  0
LINE
  5
2F5
330
1F
100
AcDbEntity
  8
0-C_ハッチ
  6
JWW_DASHED1
 62
     3
370
     5
100
AcDbLine
 10
-15434.26865730855
 20
-1880.164103638697
 30
0.0
 11
-14873.89937005977
 21
-1319.797034909811
 31
0.0
  0
LINE
  5
2F6
330
1F
100
AcDbEntity
  8
0-C_ハッチ
  6
JWW_DASHED1
 62
     3
370
     5
100
AcDbLine
 10
-15044.97746633512
 20
-1632.296210110403
 30
0.0
 11
-14732.47705393541
 21
-1319.797034909811
 31
0.0
  0
LINE
  5
2F7
330
1F
100
AcDbEntity
  8
0-C_ハッチ
  6
JWW_DASHED1
 62
     3
370
     5
100
AcDbLine
 10
-14900.16168412499
 20
-1628.90275745947
 30
0.0
 11
-14591.05473781106
 21
-1319.797034909811
 31
0.0
  0
LINE
  5
2F8
330
1F
100
AcDbEntity
  8
0-C_ハッチ
  6
JWW_DASHED1
 62
     3
370
     5
100
AcDbLine
 10
-14770.2253030441
 20
905.2029650901886
 30
0.0
 11
-14457.7248906444
 21
1217.70214029078
 31
0.0
  0
LINE
  5
2F9
330
1F
100
AcDbEntity
  8
0-C_ハッチ
  6
JWW_DASHED1
 62
     3
370
     5
100
AcDbLine
 10
-15053.05907247958
 20
905.2029650901886
 30
0.0
 11
-14740.55989727899
 21
1217.70214029078
 31
0.0
  0
LINE
  5
2FA
330
1F
100
AcDbEntity
  8
0-C_ハッチ
  6
JWW_DASHED1
 62
     3
370
     5
100
AcDbLine
 10
-14911.63731625069
 20
905.2029650901886
 30
0.0
 11
-14599.1381410501
 21
1217.70214029078
 31
0.0
  0
LINE
  5
2FB
330
1F
100
AcDbEntity
  8
0-C_ハッチ
  6
JWW_DASHED1
 62
     3
370
     5
100
AcDbLine
 10
-4731.755246070165
 20
905.2029650901886
 30
0.0
 11
-4419.253596471349
 21
1217.70214029078
 31
0.0
  0
LINE
  5
2FC
330
1F
100
AcDbEntity
  8
0-C_ハッチ
  6
JWW_DASHED1
 62
     3
370
     5
100
AcDbLine
 10
-4590.333489841281
 20
905.2029650901886
 30
0.0
 11
-4277.831840242464
 21
1217.70214029078
 31
0.0
  0
LINE
  5
2FD
330
1F
100
AcDbEntity
  8
0-C_ハッチ
  6
JWW_DASHED1
 62
     3
370
     5
100
AcDbLine
 10
-4448.911733612396
 20
905.2029650901886
 30
0.0
 11
-4136.412558411805
 21
1217.70214029078
 31
0.0
  0
LINE
  5
2FE
330
1F
100
AcDbEntity
  8
0-C_ハッチ
  6
JWW_DASHED1
 62
     3
370
     5
100
AcDbLine
 10
-5058.108576940099
 20
1003.116132367039
 30
0.0
 11
-4843.520869903914
 21
1217.70214029078
 31
0.0
  0
LINE
  5
2FF
330
1F
100
AcDbEntity
  8
0-C_ハッチ
  6
JWW_DASHED1
 62
     3
370
     5
100
AcDbLine
 10
-5058.108576940099
 20
1144.54159245428
 30
0.0
 11
-4984.947449811416
 21
1217.70214029078
 31
0.0
  0
TEXT
  5
300
330
1F
100
AcDbEntity
  8
0-B_寸法
  6
Continuous
 62
     7
370
     0
100
AcDbText
 10
-14472.37307218978
 20
1875.852407635307
 30
0.0
 40
228.6
  1
12
 41
1.083333333333333
  7
ＭＳ ゴシック
100
AcDbText
  0
LINE
  5
301
330
1F
100
AcDbEntity
  8
0-B_寸法
  6
Continuous
 62
     3
370
     5
100
AcDbLine
 10
-15434.26865730855
 20
-4430.488554547007
 30
0.0
 11
-14134.26824490885
 21
-4430.488554547007
 31
0.0
  0
LWPOLYLINE
  5
302
330
1F
100
AcDbEntity
  8
0-B_寸法
  6
Continuous
 62
     3
370
     5
100
AcDbPolyline
 90
        4
 70
     1
 43
10.0
 10
-14129.26824490885
 20
-4430.488554547007
 42
0.4142135623731
 10
-14134.26824490885
 20
-4425.488554547008
 42
0.4142135623731
 10
-14139.26824490885
 20
-4430.488554547007
 42
0.4142135623731
 10
-14134.26824490885
 20
-4435.488554547007
 42
0.4142135623731
  0
LINE
  5
303
330
1F
100
AcDbEntity
  8
0-B_寸法
  6
Continuous
 62
     3
370
     5
100
AcDbLine
 10
-14134.26824490885
 20
-4430.488554547007
 30
0.0
 11
-14134.26824490885
 21
-2833.980612042166
 31
0.0
  0
TEXT
  5
304
330
1F
100
AcDbEntity
  8
0-B_寸法
  6
Continuous
 62
     7
370
     0
100
AcDbText
 10
-14824.65502343484
 20
-4723.733882328297
 30
0.0
 40
228.6
  1
51
 41
1.083333333333333
  7
ＭＳ ゴシック
100
AcDbText
  0
TEXT
  5
305
330
1F
100
AcDbEntity
  8
0-B_寸法
  6
Continuous
 62
     7
370
     0
100
AcDbText
 10
-15546.96132596685
 20
3410.145914349378
 30
0.0
 40
228.6
  1
94.5
 41
1.125
  7
ＭＳ ゴシック
100
AcDbText
  0
LINE
  5
306
330
1F
100
AcDbEntity
  8
0-3_仕上
  6
Continuous
 62
     7
370
     5
100
AcDbLine
 10
-4808.107092301161
 20
-1857.297694749337
 30
0.0
 11
-14134.26824490885
 21
-1857.297694749337
 31
0.0
  0
LINE
  5
307
330
1F
100
AcDbEntity
  8
0-3_仕上
  6
Continuous
 62
     7
370
     5
100
AcDbLine
 10
-4808.107092301161
 20
-2607.297694749337
 30
0.0
 11
-14134.26824490885
 21
-2607.297694749337
 31
0.0
  0
LWPOLYLINE
  5
308
330
1F
100
AcDbEntity
  8
0-B_寸法
  6
Continuous
 62
     3
370
     5
100
AcDbPolyline
 90
        4
 70
     1
 43
10.0
 10
-4803.107092301162
 20
-4085.524288993464
 42
0.4142135623731
 10
-4808.107092301161
 20
-4080.524288993465
 42
0.4142135623731
 10
-4813.107092301161
 20
-4085.524288993464
 42
0.4142135623731
 10
-4808.107092301161
 20
-4090.524288993464
 42
0.4142135623731
  0
LINE
  5
309
330
1F
100
AcDbEntity
  8
0-2_柱
  6
Continuous
 62
     7
370
     5
100
AcDbLine
 10
-4808.107092301161
 20
-2607.297694749337
 30
0.0
 11
-4808.107092301161
 21
-1857.297694749337
 31
0.0
  0
LINE
  5
30A
330
1F
100
AcDbEntity
  8
0-B_寸法
  6
Continuous
 62
     3
370
     5
100
AcDbLine
 10
-4808.107092301161
 20
-4085.524288993464
 30
0.0
 11
-4808.107092301161
 21
-2744.426370055504
 31
0.0
  0
LINE
  5
30B
330
1F
100
AcDbEntity
  8
0-0_補助線
  6
JWW_HOJO
 62
     3
370
     5
100
AcDbLine
 10
-4733.107587180807
 20
-1857.296210110403
 30
0.0
 11
-1299.447513812154
 21
-1857.296210110403
 31
0.0
  0
LINE
  5
30C
330
1F
100
AcDbEntity
  8
0-0_補助線
  6
JWW_HOJO
 62
     3
370
     5
100
AcDbLine
 10
-4733.107587180807
 20
-2607.296210110403
 30
0.0
 11
-1299.447513812154
 21
-2607.296210110403
 31
0.0
  0
LINE
  5
30D
330
1F
100
AcDbEntity
  8
0-E
  6
JWW_DASHED1
 62
     7
370
     5
100
AcDbLine
 10
-4808.107092301161
 20
-1857.297694749337
 30
0.0
 11
4393.455633222429
 21
-1857.297694749337
 31
0.0
  0
LINE
  5
30E
330
1F
100
AcDbEntity
  8
0-E
  6
JWW_DASHED1
 62
     7
370
     5
100
AcDbLine
 10
-4733.107587180807
 20
-2607.296210110403
 30
0.0
 11
4393.455633222429
 21
-2607.296210110403
 31
0.0
  0
LINE
  5
30F
330
1F
100
AcDbEntity
  8
0-3_仕上
  6
Continuous
 62
     7
370
     5
100
AcDbLine
 10
-4808.107092301162
 20
-2344.796210110403
 30
0.0
 11
-1299.447513812155
 21
-2344.796210110403
 31
0.0
  0
LINE
  5
310
330
1F
100
AcDbEntity
  8
0-3_仕上
  6
Continuous
 62
     7
370
     5
100
AcDbLine
 10
-4808.107092301162
 20
-2119.796704990049
 30
0.0
 11
-1299.447513812155
 21
-2119.796704990049
 31
0.0
  0
TEXT
  5
311
330
1F
100
AcDbEntity
  8
0-B_寸法
  6
Continuous
 62
     7
370
     0
100
AcDbText
 10
-5253.440319094009
 20
-3986.791968530025
 30
0.0
 40
228.6
  1
22
 41
1.083333333333333
  7
ＭＳ ゴシック
100
AcDbText
  0
LINE
  5
312
330
1F
100
AcDbEntity
  8
0-A_文字
  6
Continuous
 62
     7
370
     5
100
AcDbLine
 10
-15434.26865730855
 20
-2269.79703490981
 30
0.0
 11
-17659.26865730855
 21
-2269.79703490981
 31
0.0
  0
LINE
  5
313
330
1F
100
AcDbEntity
  8
0-A_文字
  6
Continuous
 62
     7
370
     5
100
AcDbLine
 10
-15434.26865730855
 20
-1319.797034909811
 30
0.0
 11
-17659.26865730855
 21
-2269.79703490981
 31
0.0
  0
LINE
  5
314
330
1F
100
AcDbEntity
  8
0-A_文字
  6
Continuous
 62
     7
370
     5
100
AcDbLine
 10
-15434.26865730855
 20
1855.202965090187
 30
0.0
 11
-17659.26865730855
 21
1855.202965090187
 31
0.0
  0
LINE
  5
315
330
1F
100
AcDbEntity
  8
0-A_文字
  6
Continuous
 62
     7
370
     5
100
AcDbLine
 10
-15434.26865730855
 20
1855.202965090187
 30
0.0
 11
-17659.26865730855
 21
905.2029650901876
 31
0.0
  0
LINE
  5
316
330
1F
100
AcDbEntity
  8
0-B_寸法
  6
Continuous
 62
     3
370
     5
100
AcDbLine
 10
-14159.26824490885
 20
-3196.292220903637
 30
0.0
 11
-14134.26824490885
 21
-3196.292220903637
 31
0.0
  0
LWPOLYLINE
  5
317
330
1F
100
AcDbEntity
  8
0-B_寸法
  6
Continuous
 62
     3
370
     5
100
AcDbPolyline
 90
        4
 70
     1
 43
10.0
 10
-14154.26824490885
 20
-3196.292220903637
 42
0.4142135623731
 10
-14159.26824490885
 20
-3191.292220903637
 42
0.4142135623731
 10
-14164.26824490885
 20
-3196.292220903637
 42
0.4142135623731
 10
-14159.26824490885
 20
-3201.292220903637
 42
0.4142135623731
  0
LWPOLYLINE
  5
318
330
1F
100
AcDbEntity
  8
0-B_寸法
  6
Continuous
 62
     3
370
     5
100
AcDbPolyline
 90
        4
 70
     1
 43
10.0
 10
-14129.26824490885
 20
-3196.292220903637
 42
0.4142135623731
 10
-14134.26824490885
 20
-3191.292220903637
 42
0.4142135623731
 10
-14139.26824490885
 20
-3196.292220903637
 42
0.4142135623731
 10
-14134.26824490885
 20
-3201.292220903637
 42
0.4142135623731
  0
LINE
  5
319
330
1F
100
AcDbEntity
  8
0-B_寸法
  6
Continuous
 62
     3
370
     5
100
AcDbLine
 10
-14159.26824490885
 20
-3196.292220903637
 30
0.0
 11
-14159.26824490885
 21
-2833.980612042166
 31
0.0
  0
LINE
  5
31A
330
1F
100
AcDbEntity
  8
0-B_寸法
  6
Continuous
 62
     3
370
     5
100
AcDbLine
 10
-14134.26824490885
 20
-3196.292220903637
 30
0.0
 11
-13934.2687397885
 21
-3196.292220903637
 31
0.0
  0
LWPOLYLINE
  5
31B
330
1F
100
AcDbEntity
  8
0-B_寸法
  6
Continuous
 62
     3
370
     5
100
AcDbPolyline
 90
        4
 70
     1
 43
10.0
 10
-13929.26873978849
 20
-3196.292220903637
 42
0.4142135623731
 10
-13934.2687397885
 20
-3191.292220903637
 42
0.4142135623731
 10
-13939.2687397885
 20
-3196.292220903637
 42
0.4142135623731
 10
-13934.2687397885
 20
-3201.292220903637
 42
0.4142135623731
  0
LINE
  5
31C
330
1F
100
AcDbEntity
  8
0-B_寸法
  6
Continuous
 62
     3
370
     5
100
AcDbLine
 10
-13934.2687397885
 20
-3196.292220903637
 30
0.0
 11
-13934.2687397885
 21
-2833.980612042166
 31
0.0
  0
TEXT
  5
31D
330
1F
100
AcDbEntity
  8
0-B_寸法
  6
Continuous
 62
     7
370
   211
100
AcDbText
 10
-14387.62011992354
 20
-3118.779835563353
 30
0.0
 40
228.6
  1
1
 41
0.9999999999999998
  7
ＭＳ ゴシック
100
AcDbText
  0
TEXT
  5
31E
330
1F
100
AcDbEntity
  8
0-B_寸法
  6
Continuous
 62
     7
370
   211
100
AcDbText
 10
-13898.01785761043
 20
-3469.815419863318
 30
0.0
 40
228.6
  1
8
 41
0.9999999999999998
  7
ＭＳ ゴシック
100
AcDbText
  0
LINE
  5
31F
330
1F
100
AcDbEntity
  8
0-C_ハッチ
  6
JWW_DASHED1
 62
     3
370
     5
100
AcDbLine
 10
-4758.107587180807
 20
1020.269905810207
 30
0.0
 11
-4560.675352700232
 21
1217.70214029078
 31
0.0
  0
LINE
  5
320
330
1F
100
AcDbEntity
  8
0-C_ハッチ
  6
JWW_DASHED1
 62
     3
370
     5
100
AcDbLine
 10
-4758.107587180807
 20
1161.69166203909
 30
0.0
 11
-4702.097108929117
 21
1217.70214029078
 31
0.0
  0
LINE
  5
321
330
1F
100
AcDbEntity
  8
0-C_ハッチ
  6
JWW_DASHED1
 62
     3
370
     5
100
AcDbLine
 10
-4758.107587180807
 20
-1408.157795572819
 30
0.0
 11
-4669.749300916026
 21
-1319.797034909811
 31
0.0
  0
LINE
  5
322
330
1F
100
AcDbEntity
  8
0-C_ハッチ
  6
JWW_DASHED1
 62
     3
370
     5
100
AcDbLine
 10
-4758.107587180807
 20
-1549.577077403478
 30
0.0
 11
-4528.32754468714
 21
-1319.797034909811
 31
0.0
  0
LINE
  5
323
330
1F
100
AcDbEntity
  8
0-C_ハッチ
  6
Continuous
 62
     3
370
     5
100
AcDbLine
 10
-4795.607587180807
 20
1217.70214029078
 30
0.0
 11
-4795.607587180807
 21
-1632.296210110403
 31
0.0
  0
LINE
  5
324
330
1F
100
AcDbEntity
  8
0-C_ハッチ
  6
Continuous
 62
     3
370
     5
100
AcDbLine
 10
-4833.107587180807
 20
1217.70214029078
 30
0.0
 11
-4833.107587180807
 21
-1632.296210110403
 31
0.0
  0
LINE
  5
325
330
1F
100
AcDbEntity
  8
0-C_ハッチ
  6
Continuous
 62
     3
370
     5
100
AcDbLine
 10
-4870.607587180807
 20
1217.70214029078
 30
0.0
 11
-4870.607587180807
 21
-1632.296210110403
 31
0.0
  0
LINE
  5
326
330
1F
100
AcDbEntity
  8
0-C_ハッチ
  6
Continuous
 62
     3
370
     5
100
AcDbLine
 10
-4908.107587180807
 20
1217.70214029078
 30
0.0
 11
-4908.107587180807
 21
-1632.296210110403
 31
0.0
  0
LINE
  5
327
330
1F
100
AcDbEntity
  8
0-C_ハッチ
  6
Continuous
 62
     3
370
     5
100
AcDbLine
 10
-4945.607587180807
 20
1217.70214029078
 30
0.0
 11
-4945.607587180807
 21
-1632.296210110403
 31
0.0
  0
LINE
  5
328
330
1F
100
AcDbEntity
  8
0-C_ハッチ
  6
Continuous
 62
     3
370
     5
100
AcDbLine
 10
-4983.107587180807
 20
1217.70214029078
 30
0.0
 11
-4983.107587180807
 21
-1632.296210110403
 31
0.0
  0
LINE
  5
329
330
1F
100
AcDbEntity
  8
0-C_ハッチ
  6
Continuous
 62
     3
370
     5
100
AcDbLine
 10
-5020.607587180807
 20
1217.70214029078
 30
0.0
 11
-5020.607587180807
 21
-1632.296210110403
 31
0.0
  0
LINE
  5
32A
330
1F
100
AcDbEntity
  8
0-C_ハッチ
  6
JWW_DASHED1
 62
     3
370
     5
100
AcDbLine
 10
-14628.80298691975
 20
905.2029650901886
 30
0.0
 11
-14471.76865730855
 21
1062.236672997465
 31
0.0
  0
LINE
  5
32B
330
1F
100
AcDbEntity
  8
0-C_ハッチ
  6
JWW_DASHED1
 62
     3
370
     5
100
AcDbLine
 10
-14758.73936800064
 20
-1628.90275745947
 30
0.0
 11
-14471.76865730855
 21
-1341.933182893588
 31
0.0
  0
LINE
  5
32C
330
1F
100
AcDbEntity
  8
0-C_ハッチ
  6
JWW_DASHED1
 62
     3
370
     5
100
AcDbLine
 10
-14617.31705187629
 20
-1628.90275745947
 30
0.0
 11
-14471.76865730855
 21
-1483.354939122475
 31
0.0
  0
LINE
  5
32D
330
1F
100
AcDbEntity
  8
0-C_ハッチ
  6
Continuous
 62
     3
370
     5
100
AcDbLine
 10
-14434.26865730855
 20
1217.70214029078
 30
0.0
 11
-14434.26865730855
 21
-1632.296210110403
 31
0.0
  0
LINE
  5
32E
330
1F
100
AcDbEntity
  8
0-C_ハッチ
  6
Continuous
 62
     3
370
     5
100
AcDbLine
 10
-14396.76865730855
 20
1217.70214029078
 30
0.0
 11
-14396.76865730855
 21
-1632.296210110403
 31
0.0
  0
LINE
  5
32F
330
1F
100
AcDbEntity
  8
0-C_ハッチ
  6
Continuous
 62
     3
370
     5
100
AcDbLine
 10
-14359.26865730855
 20
1217.70214029078
 30
0.0
 11
-14359.26865730855
 21
-1632.296210110403
 31
0.0
  0
LINE
  5
330
330
1F
100
AcDbEntity
  8
0-C_ハッチ
  6
Continuous
 62
     3
370
     5
100
AcDbLine
 10
-14321.76865730855
 20
1217.70214029078
 30
0.0
 11
-14321.76865730855
 21
-1632.296210110403
 31
0.0
  0
LINE
  5
331
330
1F
100
AcDbEntity
  8
0-C_ハッチ
  6
Continuous
 62
     3
370
     5
100
AcDbLine
 10
-14284.26865730855
 20
1217.70214029078
 30
0.0
 11
-14284.26865730855
 21
-1632.296210110403
 31
0.0
  0
LINE
  5
332
330
1F
100
AcDbEntity
  8
0-C_ハッチ
  6
Continuous
 62
     3
370
     5
100
AcDbLine
 10
-14246.76865730855
 20
1217.70214029078
 30
0.0
 11
-14246.76865730855
 21
-1632.296210110403
 31
0.0
  0
LINE
  5
333
330
1F
100
AcDbEntity
  8
0-C_ハッチ
  6
Continuous
 62
     3
370
     5
100
AcDbLine
 10
-14209.26865730855
 20
1217.70214029078
 30
0.0
 11
-14209.26865730855
 21
-1632.296210110403
 31
0.0
  0
LINE
  5
334
330
1F
100
AcDbEntity
  8
0-C_ハッチ
  6
Continuous
 62
     3
370
     5
100
AcDbLine
 10
-14171.76865730855
 20
1217.70214029078
 30
0.0
 11
-14171.76865730855
 21
-1632.296210110403
 31
0.0
  0
LINE
  5
335
330
1F
100
AcDbEntity
  8
0-B_寸法
  6
Continuous
 62
     3
370
     5
100
AcDbLine
 10
-6180.876669739931
 20
-1707.297199869694
 30
0.0
 11
-5460.89854342025
 21
-1707.297199869694
 31
0.0
  0
LINE
  5
336
330
1F
100
AcDbEntity
  8
0-0_補助線
  6
JWW_HOJO
 62
     7
370
     5
100
AcDbLine
 10
-6180.876669739931
 20
-957.2971998696943
 30
0.0
 11
-5460.89854342025
 21
-957.2971998696943
 31
0.0
  0
LINE
  5
337
330
1F
100
AcDbEntity
  8
0-B_寸法
  6
Continuous
 62
     3
370
     5
100
AcDbLine
 10
-6180.876669739931
 20
-957.2971998696943
 30
0.0
 11
-6180.876669739931
 21
-1707.297199869694
 31
0.0
  0
LINE
  5
338
330
1F
100
AcDbEntity
  8
0-B_寸法
  6
Continuous
 62
     3
370
     5
100
AcDbLine
 10
-6180.876669739931
 20
-957.2971998696943
 30
0.0
 11
-5460.89854342025
 21
-957.2971998696943
 31
0.0
  0
LINE
  5
339
330
1F
100
AcDbEntity
  8
0-A_文字
  6
Continuous
 62
     7
370
     5
100
AcDbLine
 10
-5283.108082060453
 20
-982.2960451505196
 30
0.0
 11
-5283.108082060453
 21
-1657.297034909811
 31
0.0
  0
ARC
  5
33A
330
1F
100
AcDbEntity
  8
0-A_文字
  6
Continuous
 62
     7
370
     5
100
AcDbCircle
 10
-5233.107917100573
 20
-1657.297034909811
 30
0.0
 40
50.00000064437454
100
AcDbArc
 50
180.0
 51
270.0
  0
ARC
  5
33B
330
1F
100
AcDbEntity
  8
0-A_文字
  6
Continuous
 62
     7
370
     5
100
AcDbCircle
 10
-5258.109236779625
 20
-982.2960451505196
 30
0.0
 40
25.00000032218727
100
AcDbArc
 50
90.0
 51
180.0
  0
TEXT
  5
33C
330
1F
100
AcDbEntity
  8
0-B_寸法
  6
Continuous
 62
     7
370
     0
100
AcDbText
 10
-5873.176752219871
 20
-1532.297942189162
 30
0.0
 40
228.6
  1
30
 50
90.0
 41
1.083333333333333
  7
ＭＳ ゴシック
100
AcDbText
  0
LWPOLYLINE
  5
33D
330
1F
100
AcDbEntity
  8
0-B_寸法
  6
Continuous
 62
     3
370
     5
100
AcDbPolyline
 90
        4
 70
     1
 43
10.0
 10
-6175.876669739931
 20
-1707.297199869694
 42
0.4142135623731
 10
-6180.876669739931
 20
-1702.297199869694
 42
0.4142135623731
 10
-6185.876669739931
 20
-1707.297199869694
 42
0.4142135623731
 10
-6180.876669739931
 20
-1712.297199869694
 42
0.4142135623731
  0
LWPOLYLINE
  5
33E
330
1F
100
AcDbEntity
  8
0-B_寸法
  6
Continuous
 62
     3
370
     5
100
AcDbPolyline
 90
        4
 70
     1
 43
10.0
 10
-6175.876669739931
 20
-957.2971998696943
 42
0.4142135623731
 10
-6180.876669739931
 20
-952.2971998696942
 42
0.4142135623731
 10
-6185.876669739931
 20
-957.2971998696943
 42
0.4142135623731
 10
-6180.876669739931
 20
-962.2971998696944
 42
0.4142135623731
  0
LINE
  5
33F
330
1F
100
AcDbEntity
  8
0-A_文字
  6
Continuous
 62
     7
370
     5
100
AcDbLine
 10
-5058.108576940099
 20
-957.2971998696943
 30
0.0
 11
-5256.327258065938
 21
-957.2971998696943
 31
0.0
  0
LINE
  5
340
330
1F
100
AcDbEntity
  8
0-A_文字
  6
Continuous
 62
     7
370
     5
100
AcDbLine
 10
-5058.108576940099
 20
-1707.297199869694
 30
0.0
 11
-5243.574842885616
 21
-1707.297199869694
 31
0.0
  0
LINE
  5
341
330
1F
100
AcDbEntity
  8
0-C_ハッチ
  6
Continuous
 62
     3
370
     5
100
AcDbLine
 10
-5058.108576940099
 20
-1216.384014956265
 30
0.0
 11
-5283.108082060453
 21
-991.3845098359104
 31
0.0
  0
LINE
  5
342
330
1F
100
AcDbEntity
  8
0-C_ハッチ
  6
Continuous
 62
     3
370
     5
100
AcDbLine
 10
-5058.108576940099
 20
-1357.80577118515
 30
0.0
 11
-5283.108082060453
 21
-1132.806266064794
 31
0.0
  0
LINE
  5
343
330
1F
100
AcDbEntity
  8
0-C_ハッチ
  6
Continuous
 62
     3
370
     5
100
AcDbLine
 10
-5058.108576940099
 20
-1499.227527414035
 30
0.0
 11
-5283.108082060453
 21
-1274.226166489907
 31
0.0
  0
LINE
  5
344
330
1F
100
AcDbEntity
  8
0-C_ハッチ
  6
Continuous
 62
     3
370
     5
100
AcDbLine
 10
-5058.108576940099
 20
-1640.649283642918
 30
0.0
 11
-5283.108082060453
 21
-1415.647922718792
 31
0.0
  0
LINE
  5
345
330
1F
100
AcDbEntity
  8
0-C_ハッチ
  6
Continuous
 62
     3
370
     5
100
AcDbLine
 10
-5132.882416942209
 20
-1707.297199869694
 30
0.0
 11
-5283.108082060453
 21
-1557.06988431897
 31
0.0
  0
LINE
  5
346
330
1F
100
AcDbEntity
  8
0-A_文字
  6
Continuous
 62
     7
370
     5
100
AcDbLine
 10
17077.97419277312
 20
3692.400456547053
 30
0.0
 11
15778.00430457956
 21
3692.400456547053
 31
0.0
  0
LINE
  5
347
330
1F
100
AcDbEntity
  8
0-A_文字
  6
Continuous
 62
     7
370
     5
100
AcDbLine
 10
13589.16278942233
 20
2992.400456547053
 30
0.0
 11
13589.16278942233
 21
2867.400456547053
 31
0.0
  0
LINE
  5
348
330
1F
100
AcDbEntity
  8
0-A_文字
  6
Continuous
 62
     7
370
     5
100
AcDbLine
 10
13189.16278942233
 20
2992.400456547053
 30
0.0
 11
13189.16278942233
 21
2867.400456547053
 31
0.0
  0
LINE
  5
349
330
1F
100
AcDbEntity
  8
0-A_文字
  6
Continuous
 62
     7
370
     5
100
AcDbLine
 10
13764.16278942233
 20
2867.400456547053
 30
0.0
 11
13014.16278942233
 21
2867.400456547053
 31
0.0
  0
LINE
  5
34A
330
1F
100
AcDbEntity
  8
0-A_文字
  6
Continuous
 62
     7
370
     5
100
AcDbLine
 10
13014.16278942233
 20
2867.400456547053
 30
0.0
 11
13014.16278942233
 21
-6768.734606497267
 31
0.0
  0
LINE
  5
34B
330
1F
100
AcDbEntity
  8
0-A_文字
  6
Continuous
 62
     7
370
     5
100
AcDbLine
 10
13764.16278942233
 20
2867.400456547053
 30
0.0
 11
13764.16278942233
 21
-6768.734606497267
 31
0.0
  0
LINE
  5
34C
330
1F
100
AcDbEntity
  8
0-A_文字
  6
Continuous
 62
     7
370
     5
100
AcDbLine
 10
17077.97419277312
 20
2867.400456547053
 30
0.0
 11
15778.00430457956
 21
2867.400456547053
 31
0.0
  0
LINE
  5
34D
330
1F
100
AcDbEntity
  8
0-B_寸法
  6
Continuous
 62
     3
370
     5
100
AcDbLine
 10
-15434.26865730855
 20
250.9666982082353
 30
0.0
 11
-14159.26824490885
 21
250.9666982082353
 31
0.0
  0
LWPOLYLINE
  5
34E
330
1F
100
AcDbEntity
  8
0-B_寸法
  6
Continuous
 62
     3
370
     5
100
AcDbPolyline
 90
        4
 70
     1
 43
10.0
 10
-15429.26865730855
 20
250.9666982082353
 42
0.4142135623731
 10
-15434.26865730855
 20
255.9666982082353
 42
0.4142135623731
 10
-15439.26865730855
 20
250.9666982082353
 42
0.4142135623731
 10
-15434.26865730855
 20
245.9666982082354
 42
0.4142135623731
  0
LWPOLYLINE
  5
34F
330
1F
100
AcDbEntity
  8
0-B_寸法
  6
Continuous
 62
     3
370
     5
100
AcDbPolyline
 90
        4
 70
     1
 43
10.0
 10
-14154.26824490885
 20
250.9666982082353
 42
0.4142135623731
 10
-14159.26824490885
 20
255.9666982082353
 42
0.4142135623731
 10
-14164.26824490885
 20
250.9666982082353
 42
0.4142135623731
 10
-14159.26824490885
 20
245.9666982082354
 42
0.4142135623731
  0
LINE
  5
350
330
1F
100
AcDbEntity
  8
0-B_寸法
  6
Continuous
 62
     3
370
     5
100
AcDbLine
 10
-14598.68257989683
 20
261.1202344250786
 30
0.0
 11
-14558.68257989683
 21
411.1202344250786
 31
0.0
  0
LINE
  5
351
330
1F
100
AcDbEntity
  8
0-B_寸法
  6
Continuous
 62
     3
370
     5
100
AcDbLine
 10
-14598.68257989683
 20
261.1202344250786
 30
0.0
 11
-14222.68257989683
 21
912.1202344250786
 31
0.0
  0
LINE
  5
352
330
1F
100
AcDbEntity
  8
0-B_寸法
  6
Continuous
 62
     3
370
     5
100
AcDbLine
 10
-14222.68257989683
 20
912.1202344250786
 30
0.0
 11
-14022.68257989683
 21
912.1202344250786
 31
0.0
  0
TEXT
  5
353
330
1F
100
AcDbEntity
  8
0-B_寸法
  6
Continuous
 62
     7
370
     5
100
AcDbText
 10
-13992.68257989683
 20
804.4202344250785
 30
0.0
 40
228.6
  1
※50mmふかす
 41
1.138888888888889
  7
ＭＳ ゴシック
100
AcDbText
  0
LWPOLYLINE
  5
354
330
1F
100
AcDbEntity
  8
0-A_文字
  6
Continuous
 62
     7
370
     5
100
AcDbPolyline
 90
        4
 70
     1
 43
10.0
 10
-15429.26865730855
 20
250.9666982082354
 42
0.4142135623731
 10
-15434.26865730855
 20
255.9666982082354
 42
0.4142135623731
 10
-15439.26865730855
 20
250.9666982082354
 42
0.4142135623731
 10
-15434.26865730855
 20
245.9666982082354
 42
0.4142135623731
  0
LWPOLYLINE
  5
355
330
1F
100
AcDbEntity
  8
0-B_寸法
  6
Continuous
 62
     7
370
     5
100
AcDbPolyline
 90
        4
 70
     1
 43
10.0
 10
-15429.26865730855
 20
250.9666982082354
 42
0.4142135623731
 10
-15434.26865730855
 20
255.9666982082354
 42
0.4142135623731
 10
-15439.26865730855
 20
250.9666982082354
 42
0.4142135623731
 10
-15434.26865730855
 20
245.9666982082354
 42
0.4142135623731
  0
LINE
  5
356
330
1F
100
AcDbEntity
  8
0-A_文字
  6
Continuous
 62
     7
370
     5
100
AcDbLine
 10
-15321.76865730855
 20
186.0147929244025
 30
0.0
 11
-15321.76865730855
 21
315.9186034920683
 31
0.0
  0
LINE
  5
357
330
1F
100
AcDbEntity
  8
0-A_文字
  6
Continuous
 62
     7
370
     5
100
AcDbLine
 10
-15321.76865730855
 20
315.9186034920683
 30
0.0
 11
-15434.26865730855
 21
250.9666982082354
 31
0.0
  0
LINE
  5
358
330
1F
100
AcDbEntity
  8
0-A_文字
  6
Continuous
 62
     7
370
     5
100
AcDbLine
 10
-15434.26865730855
 20
250.9666982082354
 30
0.0
 11
-15321.76865730855
 21
186.0147929244025
 31
0.0
  0
LWPOLYLINE
  5
359
330
1F
100
AcDbEntity
  8
0-A_文字
  6
Continuous
 62
     7
370
     5
100
AcDbPolyline
 90
        4
 70
     1
 43
10.0
 10
-14154.26824490885
 20
250.9666982082354
 42
0.4142135623731
 10
-14159.26824490885
 20
255.9666982082354
 42
0.4142135623731
 10
-14164.26824490885
 20
250.9666982082354
 42
0.4142135623731
 10
-14159.26824490885
 20
245.9666982082354
 42
0.4142135623731
  0
LWPOLYLINE
  5
35A
330
1F
100
AcDbEntity
  8
0-B_寸法
  6
Continuous
 62
     7
370
     5
100
AcDbPolyline
 90
        4
 70
     1
 43
10.0
 10
-14154.26824490885
 20
250.9666982082354
 42
0.4142135623731
 10
-14159.26824490885
 20
255.9666982082354
 42
0.4142135623731
 10
-14164.26824490885
 20
250.9666982082354
 42
0.4142135623731
 10
-14159.26824490885
 20
245.9666982082354
 42
0.4142135623731
  0
LINE
  5
35B
330
1F
100
AcDbEntity
  8
0-A_文字
  6
Continuous
 62
     7
370
     5
100
AcDbLine
 10
-14271.76824490885
 20
315.9186034920683
 30
0.0
 11
-14271.76824490885
 21
186.0147929244025
 31
0.0
  0
LINE
  5
35C
330
1F
100
AcDbEntity
  8
0-A_文字
  6
Continuous
 62
     7
370
     5
100
AcDbLine
 10
-14271.76824490885
 20
186.0147929244025
 30
0.0
 11
-14159.26824490885
 21
250.9666982082354
 31
0.0
  0
LINE
  5
35D
330
1F
100
AcDbEntity
  8
0-A_文字
  6
Continuous
 62
     7
370
     5
100
AcDbLine
 10
-14159.26824490885
 20
250.9666982082354
 30
0.0
 11
-14271.76824490885
 21
315.9186034920683
 31
0.0
  0
LINE
  5
35E
330
1F
100
AcDbEntity
  8
0-A_文字
  6
JWW_DASHED1
 62
     7
370
     5
100
AcDbLine
 10
10015.42964638569
 20
3242.400456547053
 30
0.0
 11
10251.66278942235
 21
3478.633599583706
 31
0.0
  0
LINE
  5
35F
330
1F
100
AcDbEntity
  8
0-A_文字
  6
JWW_DASHED1
 62
     7
370
     5
100
AcDbLine
 10
10156.85100262303
 20
3242.400456547053
 30
0.0
 11
10251.66278942236
 21
3337.212243346384
 31
0.0
  0
LINE
  5
360
330
1F
100
AcDbEntity
  8
0-A_文字
  6
JWW_DASHED1
 62
     7
370
     5
100
AcDbLine
 10
12585.27812736915
 20
3242.400456547053
 30
0.0
 11
12789.16278942233
 21
3446.285118600238
 31
0.0
  0
LINE
  5
361
330
1F
100
AcDbEntity
  8
0-A_文字
  6
JWW_DASHED1
 62
     7
370
     5
100
AcDbLine
 10
12726.69948360649
 20
3242.400456547053
 30
0.0
 11
12789.16278942234
 21
3304.863762362913
 31
0.0
  0
LINE
  5
362
330
1F
100
AcDbEntity
  8
0-C_ハッチ
  6
Continuous
 62
     3
370
     5
100
AcDbLine
 10
9939.162789422331
 20
3204.900456547053
 30
0.0
 11
12789.16278942233
 21
3204.900456547053
 31
0.0
  0
LINE
  5
363
330
1F
100
AcDbEntity
  8
0-C_ハッチ
  6
Continuous
 62
     3
370
     5
100
AcDbLine
 10
9939.162789422331
 20
3167.400456547053
 30
0.0
 11
12789.16278942233
 21
3167.400456547053
 31
0.0
  0
LINE
  5
364
330
1F
100
AcDbEntity
  8
0-C_ハッチ
  6
Continuous
 62
     3
370
     5
100
AcDbLine
 10
9939.162789422331
 20
3129.900456547053
 30
0.0
 11
12789.16278942233
 21
3129.900456547053
 31
0.0
  0
LINE
  5
365
330
1F
100
AcDbEntity
  8
0-C_ハッチ
  6
Continuous
 62
     3
370
     5
100
AcDbLine
 10
9939.162789422331
 20
3092.400456547053
 30
0.0
 11
12789.16278942233
 21
3092.400456547053
 31
0.0
  0
LINE
  5
366
330
1F
100
AcDbEntity
  8
0-C_ハッチ
  6
Continuous
 62
     3
370
     5
100
AcDbLine
 10
9939.162789422331
 20
3054.900456547053
 30
0.0
 11
12789.16278942233
 21
3054.900456547053
 31
0.0
  0
LINE
  5
367
330
1F
100
AcDbEntity
  8
0-C_ハッチ
  6
Continuous
 62
     3
370
     5
100
AcDbLine
 10
9939.162789422331
 20
3017.400456547053
 30
0.0
 11
12789.16278942233
 21
3017.400456547053
 31
0.0
  0
LINE
  5
368
330
1F
100
AcDbEntity
  8
0-C_ハッチ
  6
Continuous
 62
     3
370
     5
100
AcDbLine
 10
9939.162789422331
 20
2979.900456547053
 30
0.0
 11
12789.16278942233
 21
2979.900456547053
 31
0.0
  0
LWPOLYLINE
  5
369
330
1F
100
AcDbEntity
  8
0-A_文字
  6
Continuous
 62
     3
370
     5
100
AcDbPolyline
 90
        4
 70
     1
 43
10.0
 10
12481.66278942233
 20
7063.101668874565
 42
0.4142135623731
 10
12476.66278942233
 20
7068.101668874564
 42
0.4142135623731
 10
12471.66278942233
 20
7063.101668874565
 42
0.4142135623731
 10
12476.66278942233
 20
7058.101668874565
 42
0.4142135623731
  0
LINE
  5
36A
330
1F
100
AcDbEntity
  8
0-A_文字
  6
Continuous
 62
     3
370
     5
100
AcDbLine
 10
12476.66278942233
 20
7063.101668874565
 30
0.0
 11
12476.66278942233
 21
5954.2749819588
 31
0.0
  0
LINE
  5
36B
330
1F
100
AcDbEntity
  8
0-A_文字
  6
Continuous
 62
     3
370
     5
100
AcDbLine
 10
12476.66278942233
 20
7063.101668874565
 30
0.0
 11
12789.16278942233
 21
7063.101668874565
 31
0.0
  0
LWPOLYLINE
  5
36C
330
1F
100
AcDbEntity
  8
0-A_文字
  6
Continuous
 62
     3
370
     5
100
AcDbPolyline
 90
        4
 70
     1
 43
10.0
 10
12794.16278942233
 20
7063.101668874565
 42
0.4142135623731
 10
12789.16278942233
 20
7068.101668874564
 42
0.4142135623731
 10
12784.16278942233
 20
7063.101668874565
 42
0.4142135623731
 10
12789.16278942233
 20
7058.101668874565
 42
0.4142135623731
  0
LINE
  5
36D
330
1F
100
AcDbEntity
  8
0-A_文字
  6
Continuous
 62
     3
370
     5
100
AcDbLine
 10
12789.16278942233
 20
7063.101668874565
 30
0.0
 11
12789.16278942233
 21
5954.2749819588
 31
0.0
  0
LWPOLYLINE
  5
36E
330
1F
100
AcDbEntity
  8
0-A_文字
  6
Continuous
 62
     3
370
     5
100
AcDbPolyline
 90
        4
 70
     1
 43
10.0
 10
12794.16278942233
 20
7763.101668874565
 42
0.4142135623731
 10
12789.16278942233
 20
7768.101668874564
 42
0.4142135623731
 10
12784.16278942233
 20
7763.101668874565
 42
0.4142135623731
 10
12789.16278942233
 20
7758.101668874565
 42
0.4142135623731
  0
LINE
  5
36F
330
1F
100
AcDbEntity
  8
0-A_文字
  6
Continuous
 62
     3
370
     5
100
AcDbLine
 10
12789.16278942233
 20
7763.101668874565
 30
0.0
 11
12789.16278942233
 21
7063.101668874565
 31
0.0
  0
TEXT
  5
370
330
1F
100
AcDbEntity
  8
0-A_文字
  6
Continuous
 62
     7
370
     0
100
AcDbText
 10
9627.612293232127
 20
7178.350793013758
 30
0.0
 40
228.6
  1
12.5
 41
1.125
  7
ＭＳ ゴシック
100
AcDbText
  0
LINE
  5
371
330
1F
100
AcDbEntity
  8
0-0_補助線
  6
JWW_HOJO
 62
     3
370
     5
100
AcDbLine
 10
14839.16278942233
 20
7763.101668874565
 30
0.0
 11
14839.16278942233
 21
7063.101668874565
 31
0.0
  0
LWPOLYLINE
  5
372
330
1F
100
AcDbEntity
  8
0-A_文字
  6
Continuous
 62
     3
370
     5
100
AcDbPolyline
 90
        4
 70
     1
 43
10.0
 10
14844.16278942233
 20
7063.101668874565
 42
0.4142135623731
 10
14839.16278942233
 20
7068.101668874564
 42
0.4142135623731
 10
14834.16278942233
 20
7063.101668874565
 42
0.4142135623731
 10
14839.16278942233
 20
7058.101668874565
 42
0.4142135623731
  0
LINE
  5
373
330
1F
100
AcDbEntity
  8
0-A_文字
  6
Continuous
 62
     3
370
     5
100
AcDbLine
 10
14839.16278942233
 20
7063.101668874565
 30
0.0
 11
14839.16278942233
 21
5954.2749819588
 31
0.0
  0
LINE
  5
374
330
1F
100
AcDbEntity
  8
0-A_文字
  6
Continuous
 62
     3
370
     5
100
AcDbLine
 10
12789.16278942233
 20
7763.101668874565
 30
0.0
 11
14839.16278942233
 21
7763.101668874565
 31
0.0
  0
LWPOLYLINE
  5
375
330
1F
100
AcDbEntity
  8
0-A_文字
  6
Continuous
 62
     3
370
     5
100
AcDbPolyline
 90
        4
 70
     1
 43
10.0
 10
14844.16278942233
 20
7763.101668874565
 42
0.4142135623731
 10
14839.16278942233
 20
7768.101668874564
 42
0.4142135623731
 10
14834.16278942233
 20
7763.101668874565
 42
0.4142135623731
 10
14839.16278942233
 20
7758.101668874565
 42
0.4142135623731
  0
LINE
  5
376
330
1F
100
AcDbEntity
  8
0-A_文字
  6
Continuous
 62
     3
370
     5
100
AcDbLine
 10
14839.16278942233
 20
7763.101668874565
 30
0.0
 11
14839.16278942233
 21
7063.101668874565
 31
0.0
  0
TEXT
  5
377
330
1F
100
AcDbEntity
  8
0-A_文字
  6
Continuous
 62
     7
370
     0
100
AcDbText
 10
13464.16278942234
 20
7855.401668874565
 30
0.0
 40
228.6
  1
82
 41
1.083333333333333
  7
ＭＳ ゴシック
100
AcDbText
  0
LINE
  5
378
330
1F
100
AcDbEntity
  8
0-0_補助線
  6
JWW_HOJO
 62
     3
370
     5
100
AcDbLine
 10
13126.66278942233
 20
7063.101668874565
 30
0.0
 11
13126.66278942233
 21
5954.2749819588
 31
0.0
  0
LINE
  5
379
330
1F
100
AcDbEntity
  8
0-0_補助線
  6
JWW_HOJO
 62
     3
370
     5
100
AcDbLine
 10
13651.66278942233
 20
7063.101668874565
 30
0.0
 11
13651.66278942233
 21
5954.2749819588
 31
0.0
  0
LINE
  5
37A
330
1F
100
AcDbEntity
  8
0-A_文字
  6
Continuous
 62
     3
370
     5
100
AcDbLine
 10
12789.16278942233
 20
7063.101668874565
 30
0.0
 11
13126.66278942233
 21
7063.101668874565
 31
0.0
  0
LWPOLYLINE
  5
37B
330
1F
100
AcDbEntity
  8
0-A_文字
  6
Continuous
 62
     3
370
     5
100
AcDbPolyline
 90
        4
 70
     1
 43
10.0
 10
13131.66278942233
 20
7063.101668874565
 42
0.4142135623731
 10
13126.66278942233
 20
7068.101668874564
 42
0.4142135623731
 10
13121.66278942233
 20
7063.101668874565
 42
0.4142135623731
 10
13126.66278942233
 20
7058.101668874565
 42
0.4142135623731
  0
LINE
  5
37C
330
1F
100
AcDbEntity
  8
0-A_文字
  6
Continuous
 62
     3
370
     5
100
AcDbLine
 10
13126.66278942233
 20
7063.101668874565
 30
0.0
 11
13126.66278942233
 21
5954.2749819588
 31
0.0
  0
LWPOLYLINE
  5
37D
330
1F
100
AcDbEntity
  8
0-A_文字
  6
Continuous
 62
     3
370
     5
100
AcDbPolyline
 90
        4
 70
     1
 43
10.0
 10
13656.66278942233
 20
7063.101668874565
 42
0.4142135623731
 10
13651.66278942233
 20
7068.101668874564
 42
0.4142135623731
 10
13646.66278942233
 20
7063.101668874565
 42
0.4142135623731
 10
13651.66278942233
 20
7058.101668874565
 42
0.4142135623731
  0
LINE
  5
37E
330
1F
100
AcDbEntity
  8
0-A_文字
  6
Continuous
 62
     3
370
     5
100
AcDbLine
 10
13651.66278942233
 20
7063.101668874565
 30
0.0
 11
13651.66278942233
 21
5954.2749819588
 31
0.0
  0
LINE
  5
37F
330
1F
100
AcDbEntity
  8
0-A_文字
  6
Continuous
 62
     3
370
     5
100
AcDbLine
 10
13651.66278942233
 20
7063.101668874565
 30
0.0
 11
14839.16278942233
 21
7063.101668874565
 31
0.0
  0
LINE
  5
380
330
1F
100
AcDbEntity
  8
0-A_文字
  6
Continuous
 62
     3
370
     5
100
AcDbLine
 10
13126.66278942233
 20
7063.101668874565
 30
0.0
 11
13651.66278942233
 21
7063.101668874565
 31
0.0
  0
TEXT
  5
381
330
1F
100
AcDbEntity
  8
0-A_文字
  6
Continuous
 62
     7
370
     0
100
AcDbText
 10
13269.90599988012
 20
7150.746029958155
 30
0.0
 40
228.6
  1
21
 41
1.083333333333333
  7
ＭＳ ゴシック
100
AcDbText
  0
TEXT
  5
382
330
1F
100
AcDbEntity
  8
0-A_文字
  6
Continuous
 62
     7
370
     0
100
AcDbText
 10
12096.55700428506
 20
7128.16974079812
 30
0.0
 40
228.6
  1
12.5
 41
1.125
  7
ＭＳ ゴシック
100
AcDbText
  0
TEXT
  5
383
330
1F
100
AcDbEntity
  8
0-A_文字
  6
Continuous
 62
     7
370
     0
100
AcDbText
 10
12839.30356269292
 20
6691.260000558199
 30
0.0
 40
228.6
  1
13.5
 41
1.125
  7
ＭＳ ゴシック
100
AcDbText
  0
TEXT
  5
384
330
1F
100
AcDbEntity
  8
0-A_文字
  6
Continuous
 62
     7
370
     0
100
AcDbText
 10
13902.45059727673
 20
6749.514632590189
 30
0.0
 40
228.6
  1
47.5
 41
1.125
  7
ＭＳ ゴシック
100
AcDbText
  0
LINE
  5
385
330
1F
100
AcDbEntity
  8
0-A_文字
  6
Continuous
 62
     3
370
     5
100
AcDbLine
 10
9939.162789422331
 20
7063.101668874565
 30
0.0
 11
10251.66278942233
 21
7063.101668874565
 31
0.0
  0
LWPOLYLINE
  5
386
330
1F
100
AcDbEntity
  8
0-A_文字
  6
Continuous
 62
     3
370
     5
100
AcDbPolyline
 90
        4
 70
     1
 43
10.0
 10
9944.162789422331
 20
7063.101668874565
 42
0.4142135623731
 10
9939.162789422331
 20
7068.101668874564
 42
0.4142135623731
 10
9934.162789422333
 20
7063.101668874565
 42
0.4142135623731
 10
9939.162789422331
 20
7058.101668874565
 42
0.4142135623731
  0
LWPOLYLINE
  5
387
330
1F
100
AcDbEntity
  8
0-A_文字
  6
Continuous
 62
     3
370
     5
100
AcDbPolyline
 90
        4
 70
     1
 43
10.0
 10
10256.66278942233
 20
7063.101668874565
 42
0.4142135623731
 10
10251.66278942233
 20
7068.101668874564
 42
0.4142135623731
 10
10246.66278942233
 20
7063.101668874565
 42
0.4142135623731
 10
10251.66278942233
 20
7058.101668874565
 42
0.4142135623731
  0
LINE
  5
388
330
1F
100
AcDbEntity
  8
0-A_文字
  6
Continuous
 62
     3
370
     5
100
AcDbLine
 10
9939.162789422331
 20
7063.101668874565
 30
0.0
 11
9939.162789422331
 21
5954.2749819588
 31
0.0
  0
LINE
  5
389
330
1F
100
AcDbEntity
  8
0-A_文字
  6
Continuous
 62
     3
370
     5
100
AcDbLine
 10
10251.66278942233
 20
7063.101668874565
 30
0.0
 11
10251.66278942233
 21
5954.2749819588
 31
0.0
  0
LINE
  5
38A
330
1F
100
AcDbEntity
  8
0-A_文字
  6
Continuous
 62
     3
370
     5
100
AcDbLine
 10
10251.66278942233
 20
7063.101668874565
 30
0.0
 11
12476.66278942233
 21
7063.101668874565
 31
0.0
  0
LINE
  5
38B
330
1F
100
AcDbEntity
  8
0-A_文字
  6
JWW_HOJO
 62
     3
370
     5
100
AcDbLine
 10
10251.66278942233
 20
7763.101668874565
 30
0.0
 11
12476.66278942233
 21
7763.101668874565
 31
0.0
  0
LINE
  5
38C
330
1F
100
AcDbEntity
  8
0-A_文字
  6
Continuous
 62
     3
370
     5
100
AcDbLine
 10
9939.162789422331
 20
7763.101668874565
 30
0.0
 11
12789.16278942233
 21
7763.101668874565
 31
0.0
  0
LWPOLYLINE
  5
38D
330
1F
100
AcDbEntity
  8
0-A_文字
  6
Continuous
 62
     3
370
     5
100
AcDbPolyline
 90
        4
 70
     1
 43
10.0
 10
9944.162789422331
 20
7763.101668874565
 42
0.4142135623731
 10
9939.162789422331
 20
7768.101668874564
 42
0.4142135623731
 10
9934.162789422333
 20
7763.101668874565
 42
0.4142135623731
 10
9939.162789422331
 20
7758.101668874565
 42
0.4142135623731
  0
LINE
  5
38E
330
1F
100
AcDbEntity
  8
0-A_文字
  6
Continuous
 62
     3
370
     5
100
AcDbLine
 10
9939.162789422331
 20
7763.101668874565
 30
0.0
 11
9939.162789422331
 21
7063.101668874565
 31
0.0
  0
TEXT
  5
38F
330
1F
100
AcDbEntity
  8
0-A_文字
  6
Continuous
 62
     7
370
     0
100
AcDbText
 10
11170.89366604697
 20
7090.944968709906
 30
0.0
 40
228.6
  1
89
 41
1.083333333333333
  7
ＭＳ ゴシック
100
AcDbText
  0
TEXT
  5
390
330
1F
100
AcDbEntity
  8
0-A_文字
  6
Continuous
 62
     7
370
     0
100
AcDbText
 10
11182.99075698463
 20
7792.576243093921
 30
0.0
 40
228.6
  1
114
 41
1.111111111111111
  7
ＭＳ ゴシック
100
AcDbText
  0
LINE
  5
391
330
1F
100
AcDbEntity
  8
0-A_文字
  6
Continuous
 62
     3
370
     5
100
AcDbLine
 10
9079.952375621584
 20
2942.400456547053
 30
0.0
 11
9079.952375621584
 21
-6993.735870115736
 31
0.0
  0
LWPOLYLINE
  5
392
330
1F
100
AcDbEntity
  8
0-A_文字
  6
Continuous
 62
     3
370
     5
100
AcDbPolyline
 90
        4
 70
     1
 43
10.0
 10
9084.952375621584
 20
2942.400456547053
 42
0.4142135623731
 10
9079.952375621584
 20
2947.400456547053
 42
0.4142135623731
 10
9074.952375621586
 20
2942.400456547053
 42
0.4142135623731
 10
9079.952375621584
 20
2937.400456547052
 42
0.4142135623731
  0
LWPOLYLINE
  5
393
330
1F
100
AcDbEntity
  8
0-A_文字
  6
Continuous
 62
     3
370
     5
100
AcDbPolyline
 90
        4
 70
     1
 43
10.0
 10
9084.952375621584
 20
-6993.735870115736
 42
0.4142135623731
 10
9079.952375621584
 20
-6988.735870115736
 42
0.4142135623731
 10
9074.952375621586
 20
-6993.735870115736
 42
0.4142135623731
 10
9079.952375621584
 20
-6998.735870115736
 42
0.4142135623731
  0
LINE
  5
394
330
1F
100
AcDbEntity
  8
0-A_文字
  6
Continuous
 62
     3
370
     5
100
AcDbLine
 10
9079.952375621584
 20
2942.400456547053
 30
0.0
 11
9410.132693243142
 21
2942.400456547053
 31
0.0
  0
LINE
  5
395
330
1F
100
AcDbEntity
  8
0-A_文字
  6
Continuous
 62
     3
370
     5
100
AcDbLine
 10
9079.952375621584
 20
-6993.735870115736
 30
0.0
 11
9410.132693243142
 21
-6993.735870115736
 31
0.0
  0
TEXT
  5
396
330
1F
100
AcDbEntity
  8
0-A_文字
  6
Continuous
 62
     7
370
     0
100
AcDbText
 10
8987.652375621585
 20
-2338.167706784341
 30
0.0
 40
228.6
  1
2,006
 50
90.0
 41
1.133333333333333
  7
ＭＳ ゴシック
100
AcDbText
  0
LWPOLYLINE
  5
397
330
1F
100
AcDbEntity
  8
0-B_寸法
  6
Continuous
 62
     3
370
     5
100
AcDbPolyline
 90
        4
 70
     1
 43
10.0
 10
9084.952375621584
 20
2942.400456547053
 42
0.4142135623731
 10
9079.952375621584
 20
2947.400456547053
 42
0.4142135623731
 10
9074.952375621586
 20
2942.400456547053
 42
0.4142135623731
 10
9079.952375621584
 20
2937.400456547052
 42
0.4142135623731
  0
LINE
  5
398
330
1F
100
AcDbEntity
  8
0-A_文字
  6
Continuous
 62
     3
370
     5
100
AcDbLine
 10
9015.000470337753
 20
2829.900456547053
 30
0.0
 11
9144.904280905417
 21
2829.900456547053
 31
0.0
  0
LINE
  5
399
330
1F
100
AcDbEntity
  8
0-A_文字
  6
Continuous
 62
     3
370
     5
100
AcDbLine
 10
9144.904280905417
 20
2829.900456547053
 30
0.0
 11
9079.952375621584
 21
2942.400456547053
 31
0.0
  0
LINE
  5
39A
330
1F
100
AcDbEntity
  8
0-A_文字
  6
Continuous
 62
     3
370
     5
100
AcDbLine
 10
9079.952375621584
 20
2942.400456547053
 30
0.0
 11
9015.000470337753
 21
2829.900456547053
 31
0.0
  0
LWPOLYLINE
  5
39B
330
1F
100
AcDbEntity
  8
0-B_寸法
  6
Continuous
 62
     3
370
     5
100
AcDbPolyline
 90
        4
 70
     1
 43
10.0
 10
9084.952375621584
 20
-6993.735870115736
 42
0.4142135623731
 10
9079.952375621584
 20
-6988.735870115736
 42
0.4142135623731
 10
9074.952375621586
 20
-6993.735870115736
 42
0.4142135623731
 10
9079.952375621584
 20
-6998.735870115736
 42
0.4142135623731
  0
LINE
  5
39C
330
1F
100
AcDbEntity
  8
0-A_文字
  6
Continuous
 62
     3
370
     5
100
AcDbLine
 10
9144.904280905417
 20
-6881.235870115736
 30
0.0
 11
9015.000470337753
 21
-6881.235870115736
 31
0.0
  0
LINE
  5
39D
330
1F
100
AcDbEntity
  8
0-A_文字
  6
Continuous
 62
     3
370
     5
100
AcDbLine
 10
9015.000470337753
 20
-6881.235870115736
 30
0.0
 11
9079.952375621584
 21
-6993.735870115736
 31
0.0
  0
LINE
  5
39E
330
1F
100
AcDbEntity
  8
0-A_文字
  6
Continuous
 62
     3
370
     5
100
AcDbLine
 10
9079.952375621584
 20
-6993.735870115736
 30
0.0
 11
9144.904280905417
 21
-6881.235870115736
 31
0.0
  0
LWPOLYLINE
  5
39F
330
1F
100
AcDbEntity
  8
0-A_文字
  6
Continuous
 62
     3
370
     5
100
AcDbPolyline
 90
        4
 70
     1
 43
10.0
 10
11671.23033925292
 20
2942.400456547053
 42
0.4142135623731
 10
11666.23033925292
 20
2947.400456547053
 42
0.4142135623731
 10
11661.23033925292
 20
2942.400456547053
 42
0.4142135623731
 10
11666.23033925292
 20
2937.400456547052
 42
0.4142135623731
  0
LWPOLYLINE
  5
3A0
330
1F
100
AcDbEntity
  8
0-A_文字
  6
Continuous
 62
     3
370
     5
100
AcDbPolyline
 90
        4
 70
     1
 43
10.0
 10
11671.23033925292
 20
2717.400456547053
 42
0.4142135623731
 10
11666.23033925292
 20
2722.400456547053
 42
0.4142135623731
 10
11661.23033925292
 20
2717.400456547053
 42
0.4142135623731
 10
11666.23033925292
 20
2712.400456547052
 42
0.4142135623731
  0
LINE
  5
3A1
330
1F
100
AcDbEntity
  8
0-A_文字
  6
Continuous
 62
     3
370
     5
100
AcDbLine
 10
11666.23033925292
 20
2942.400456547053
 30
0.0
 11
11666.23033925292
 21
2717.400456547053
 31
0.0
  0
TEXT
  5
3A2
330
1F
100
AcDbEntity
  8
0-A_文字
  6
Continuous
 62
     7
370
     0
100
AcDbText
 10
11582.94782739461
 20
2738.503334730641
 30
0.0
 40
228.6
  1
9
 50
90.0
 41
0.9999999999999998
  7
ＭＳ ゴシック
100
AcDbText
  0
LINE
  5
3A3
330
1F
100
AcDbEntity
  8
0-A_文字
  6
Continuous
 62
     3
370
     5
100
AcDbLine
 10
11666.23033925292
 20
2717.400456547053
 30
0.0
 11
11987.33733078474
 21
2717.400456547053
 31
0.0
  0
LWPOLYLINE
  5
3A4
330
1F
100
AcDbEntity
  8
0-A_文字
  6
Continuous
 62
     3
370
     5
100
AcDbPolyline
 90
        4
 70
     1
 43
10.0
 10
13506.66278942233
 20
-5825.885430343547
 42
0.4142135623731
 10
13501.66278942233
 20
-5820.885430343547
 42
0.4142135623731
 10
13496.66278942233
 20
-5825.885430343547
 42
0.4142135623731
 10
13501.66278942233
 20
-5830.885430343546
 42
0.4142135623731
  0
LINE
  5
3A5
330
1F
100
AcDbEntity
  8
0-A_文字
  6
Continuous
 62
     3
370
     5
100
AcDbLine
 10
12789.16278942233
 20
-5825.885430343547
 30
0.0
 11
13501.66278942233
 21
-5825.885430343547
 31
0.0
  0
TEXT
  5
3A6
330
1F
100
AcDbEntity
  8
0-A_文字
  6
Continuous
 62
     7
370
     0
100
AcDbText
 10
13301.66278942233
 20
-5733.585430343547
 30
0.0
 40
228.6
  1
9
 41
0.9999999999999998
  7
ＭＳ ゴシック
100
AcDbText
  0
LINE
  5
3A7
330
1F
100
AcDbEntity
  8
0-A_文字
  6
Continuous
 62
     3
370
     5
100
AcDbLine
 10
13276.66278942233
 20
-5825.885430343547
 30
0.0
 11
13276.66278942233
 21
-6553.177200655927
 31
0.0
  0
LWPOLYLINE
  5
3A8
330
1F
100
AcDbEntity
  8
0-A_文字
  6
Continuous
 62
     3
370
     5
100
AcDbPolyline
 90
        4
 70
     1
 43
10.0
 10
13281.66278942233
 20
-5825.885430343547
 42
0.4142135623731
 10
13276.66278942233
 20
-5820.885430343547
 42
0.4142135623731
 10
13271.66278942233
 20
-5825.885430343547
 42
0.4142135623731
 10
13276.66278942233
 20
-5830.885430343546
 42
0.4142135623731
  0
LWPOLYLINE
  5
3A9
330
1F
100
AcDbEntity
  8
0-A_文字
  6
Continuous
 62
     3
370
     5
100
AcDbPolyline
 90
        4
 70
     1
 43
10.0
 10
12794.16278942233
 20
-5825.885430343547
 42
0.4142135623731
 10
12789.16278942233
 20
-5820.885430343547
 42
0.4142135623731
 10
12784.16278942233
 20
-5825.885430343547
 42
0.4142135623731
 10
12789.16278942233
 20
-5830.885430343546
 42
0.4142135623731
  0
LINE
  5
3AA
330
1F
100
AcDbEntity
  8
0-A_文字
  6
Continuous
 62
     3
370
     5
100
AcDbLine
 10
12789.16278942233
 20
-5825.885430343547
 30
0.0
 11
12789.16278942233
 21
-6553.177200655927
 31
0.0
  0
LWPOLYLINE
  5
3AB
330
1F
100
AcDbEntity
  8
0-A_文字
  6
Continuous
 62
     3
370
     5
100
AcDbPolyline
 90
        4
 70
     1
 43
10.0
 10
12794.16278942233
 20
-5171.322837062408
 42
0.4142135623731
 10
12789.16278942233
 20
-5166.322837062408
 42
0.4142135623731
 10
12784.16278942233
 20
-5171.322837062408
 42
0.4142135623731
 10
12789.16278942233
 20
-5176.322837062407
 42
0.4142135623731
  0
LINE
  5
3AC
330
1F
100
AcDbEntity
  8
0-A_文字
  6
Continuous
 62
     3
370
     5
100
AcDbLine
 10
12789.16278942233
 20
-5171.322837062408
 30
0.0
 11
12789.16278942233
 21
-5825.885430343547
 31
0.0
  0
LINE
  5
3AD
330
1F
100
AcDbEntity
  8
0-0_補助線
  6
JWW_HOJO
 62
     3
370
     5
100
AcDbLine
 10
14839.16278942233
 20
-5825.885430343547
 30
0.0
 11
14839.16278942233
 21
-6553.177200655927
 31
0.0
  0
LINE
  5
3AE
330
1F
100
AcDbEntity
  8
0-0_補助線
  6
JWW_HOJO
 62
     3
370
     5
100
AcDbLine
 10
14839.16278942233
 20
-5171.322837062408
 30
0.0
 11
14839.16278942233
 21
-5825.885430343547
 31
0.0
  0
LWPOLYLINE
  5
3AF
330
1F
100
AcDbEntity
  8
0-A_文字
  6
Continuous
 62
     3
370
     5
100
AcDbPolyline
 90
        4
 70
     1
 43
10.0
 10
14844.16278942233
 20
-5825.885430343547
 42
0.4142135623731
 10
14839.16278942233
 20
-5820.885430343547
 42
0.4142135623731
 10
14834.16278942233
 20
-5825.885430343547
 42
0.4142135623731
 10
14839.16278942233
 20
-5830.885430343546
 42
0.4142135623731
  0
LINE
  5
3B0
330
1F
100
AcDbEntity
  8
0-A_文字
  6
Continuous
 62
     3
370
     5
100
AcDbLine
 10
14839.16278942233
 20
-5825.885430343547
 30
0.0
 11
14839.16278942233
 21
-6553.177200655927
 31
0.0
  0
LWPOLYLINE
  5
3B1
330
1F
100
AcDbEntity
  8
0-A_文字
  6
Continuous
 62
     3
370
     5
100
AcDbPolyline
 90
        4
 70
     1
 43
10.0
 10
14844.16278942233
 20
-5171.322837062408
 42
0.4142135623731
 10
14839.16278942233
 20
-5166.322837062408
 42
0.4142135623731
 10
14834.16278942233
 20
-5171.322837062408
 42
0.4142135623731
 10
14839.16278942233
 20
-5176.322837062407
 42
0.4142135623731
  0
LINE
  5
3B2
330
1F
100
AcDbEntity
  8
0-A_文字
  6
Continuous
 62
     3
370
     5
100
AcDbLine
 10
14839.16278942233
 20
-5171.322837062408
 30
0.0
 11
14839.16278942233
 21
-5825.885430343547
 31
0.0
  0
LINE
  5
3B3
330
1F
100
AcDbEntity
  8
0-A_文字
  6
Continuous
 62
     3
370
     5
100
AcDbLine
 10
12789.16278942233
 20
-5171.322837062408
 30
0.0
 11
14839.16278942233
 21
-5171.322837062408
 31
0.0
  0
TEXT
  5
3B4
330
1F
100
AcDbEntity
  8
0-A_文字
  6
Continuous
 62
     7
370
     0
100
AcDbText
 10
13888.49057381683
 20
-5739.680907964015
 30
0.0
 40
228.6
  1
53.5
 41
1.125
  7
ＭＳ ゴシック
100
AcDbText
  0
LINE
  5
3B5
330
1F
100
AcDbEntity
  8
0-A_文字
  6
Continuous
 62
     3
370
     5
100
AcDbLine
 10
13501.66278942233
 20
-5825.885430343547
 30
0.0
 11
13501.66278942233
 21
-6553.177200655927
 31
0.0
  0
LINE
  5
3B6
330
1F
100
AcDbEntity
  8
0-A_文字
  6
Continuous
 62
     3
370
     5
100
AcDbLine
 10
13501.66278942233
 20
-5825.885430343547
 30
0.0
 11
14839.16278942233
 21
-5825.885430343547
 31
0.0
  0
TEXT
  5
3B7
330
1F
100
AcDbEntity
  8
0-A_文字
  6
Continuous
 62
     7
370
     0
100
AcDbText
 10
13534.128832808
 20
-5099.103914601905
 30
0.0
 40
228.6
  1
82
 41
1.083333333333333
  7
ＭＳ ゴシック
100
AcDbText
  0
TEXT
  5
3B8
330
1F
100
AcDbEntity
  8
0-A_文字
  6
Continuous
 62
     7
370
     0
100
AcDbText
 10
12485.86111703848
 20
-6142.295028388338
 30
0.0
 40
228.6
  1
19.5
 41
1.125
  7
ＭＳ ゴシック
100
AcDbText
  0
TEXT
  5
3B9
330
1F
100
AcDbEntity
  8
0-A_文字
  6
Continuous
 62
     7
370
     0
100
AcDbText
 10
16964.03558681883
 20
-1882.597120148466
 30
0.0
 40
228.6
  1
DH=1,995
 50
90.0
 41
1.145833333333333
  7
ＭＳ ゴシック
100
AcDbText
  0
LINE
  5
3BA
330
1F
100
AcDbEntity
  8
0-A_文字
  6
Continuous
 62
     3
370
     5
100
AcDbLine
 10
17077.97419277312
 20
-6918.734606497267
 30
0.0
 11
17077.97419277312
 21
-6993.735870115736
 31
0.0
  0
LWPOLYLINE
  5
3BB
330
1F
100
AcDbEntity
  8
0-A_文字
  6
Continuous
 62
     3
370
     5
100
AcDbPolyline
 90
        4
 70
     1
 43
10.0
 10
17082.97419277312
 20
-6993.735870115736
 42
0.4142135623731
 10
17077.97419277312
 20
-6988.735870115736
 42
0.4142135623731
 10
17072.97419277312
 20
-6993.735870115736
 42
0.4142135623731
 10
17077.97419277312
 20
-6998.735870115736
 42
0.4142135623731
  0
LINE
  5
3BC
330
1F
100
AcDbEntity
  8
0-A_文字
  6
Continuous
 62
     3
370
     5
100
AcDbLine
 10
17077.97419277312
 20
-6993.735870115736
 30
0.0
 11
17077.97419277312
 21
-7293.735870115736
 31
0.0
  0
LWPOLYLINE
  5
3BD
330
1F
100
AcDbEntity
  8
0-A_文字
  6
Continuous
 62
     3
370
     5
100
AcDbPolyline
 90
        4
 70
     1
 43
10.0
 10
17082.97419277312
 20
-7293.735870115736
 42
0.4142135623731
 10
17077.97419277312
 20
-7288.735870115736
 42
0.4142135623731
 10
17072.97419277312
 20
-7293.735870115736
 42
0.4142135623731
 10
17077.97419277312
 20
-7298.735870115736
 42
0.4142135623731
  0
LWPOLYLINE
  5
3BE
330
1F
100
AcDbEntity
  8
0-A_文字
  6
Continuous
 62
     3
370
     5
100
AcDbPolyline
 90
        4
 70
     1
 43
10.0
 10
17782.97419277312
 20
-6918.734606497267
 42
0.4142135623731
 10
17777.97419277312
 20
-6913.734606497267
 42
0.4142135623731
 10
17772.97419277312
 20
-6918.734606497267
 42
0.4142135623731
 10
17777.97419277312
 20
-6923.734606497267
 42
0.4142135623731
  0
LINE
  5
3BF
330
1F
100
AcDbEntity
  8
0-A_文字
  6
Continuous
 62
     3
370
     5
100
AcDbLine
 10
17777.97419277312
 20
-6918.734606497267
 30
0.0
 11
17077.97419277312
 21
-6918.734606497267
 31
0.0
  0
LINE
  5
3C0
330
1F
100
AcDbEntity
  8
0-A_文字
  6
Continuous
 62
     3
370
     5
100
AcDbLine
 10
17777.97419277312
 20
-6918.734606497267
 30
0.0
 11
17777.97419277312
 21
-7293.735870115736
 31
0.0
  0
LWPOLYLINE
  5
3C1
330
1F
100
AcDbEntity
  8
0-A_文字
  6
Continuous
 62
     3
370
     5
100
AcDbPolyline
 90
        4
 70
     1
 43
10.0
 10
17782.97419277312
 20
-7293.735870115736
 42
0.4142135623731
 10
17777.97419277312
 20
-7288.735870115736
 42
0.4142135623731
 10
17772.97419277312
 20
-7293.735870115736
 42
0.4142135623731
 10
17777.97419277312
 20
-7298.735870115736
 42
0.4142135623731
  0
LINE
  5
3C2
330
1F
100
AcDbEntity
  8
0-A_文字
  6
Continuous
 62
     3
370
     5
100
AcDbLine
 10
18477.97419277312
 20
-7293.735870115736
 30
0.0
 11
17077.97419277312
 21
-7293.735870115736
 31
0.0
  0
LWPOLYLINE
  5
3C3
330
1F
100
AcDbEntity
  8
0-A_文字
  6
Continuous
 62
     3
370
     5
100
AcDbPolyline
 90
        4
 70
     1
 43
10.0
 10
18482.97419277312
 20
-7293.735870115736
 42
0.4142135623731
 10
18477.97419277312
 20
-7288.735870115736
 42
0.4142135623731
 10
18472.97419277312
 20
-7293.735870115736
 42
0.4142135623731
 10
18477.97419277312
 20
-7298.735870115736
 42
0.4142135623731
  0
TEXT
  5
3C4
330
1F
100
AcDbEntity
  8
0-A_文字
  6
Continuous
 62
     7
370
     0
100
AcDbText
 10
16984.01337736946
 20
-7664.756918949752
 30
0.0
 40
228.6
  1
12
 50
90.0
 41
1.083333333333333
  7
ＭＳ ゴシック
100
AcDbText
  0
TEXT
  5
3C5
330
1F
100
AcDbEntity
  8
0-A_文字
  6
Continuous
 62
     7
370
     0
100
AcDbText
 10
18122.3888848326
 20
-6944.266091441434
 30
0.0
 40
228.6
  1
15
 50
90.0
 41
1.083333333333333
  7
ＭＳ ゴシック
100
AcDbText
  0
LINE
  5
3C6
330
1F
100
AcDbEntity
  8
0-A_文字
  6
Continuous
 62
     3
370
     5
100
AcDbLine
 10
17077.97419277312
 20
3692.400456547053
 30
0.0
 11
17077.97419277312
 21
-6793.734606497267
 31
0.0
  0
TEXT
  5
3C7
330
1F
100
AcDbEntity
  8
0-A_文字
  6
Continuous
 62
     7
370
     0
100
AcDbText
 10
17385.7939385245
 20
-6905.246258403829
 30
0.0
 40
228.6
  1
3
 50
90.0
 41
0.9999999999999998
  7
ＭＳ ゴシック
100
AcDbText
  0
TEXT
  5
3C8
330
1F
100
AcDbEntity
  8
0-A_文字
  6
Continuous
 62
     7
370
     0
100
AcDbText
 10
17385.67419277312
 20
3192.400456547053
 30
0.0
 40
228.6
  1
30
 50
90.0
 41
1.083333333333333
  7
ＭＳ ゴシック
100
AcDbText
  0
LWPOLYLINE
  5
3C9
330
1F
100
AcDbEntity
  8
0-A_文字
  6
Continuous
 62
     3
370
     5
100
AcDbPolyline
 90
        4
 70
     1
 43
10.0
 10
17082.97419277312
 20
3692.400456547053
 42
0.4142135623731
 10
17077.97419277312
 20
3697.400456547052
 42
0.4142135623731
 10
17072.97419277312
 20
3692.400456547053
 42
0.4142135623731
 10
17077.97419277312
 20
3687.400456547053
 42
0.4142135623731
  0
LWPOLYLINE
  5
3CA
330
1F
100
AcDbEntity
  8
0-A_文字
  6
Continuous
 62
     3
370
     5
100
AcDbPolyline
 90
        4
 70
     1
 43
10.0
 10
17082.97419277312
 20
2942.400456547053
 42
0.4142135623731
 10
17077.97419277312
 20
2947.400456547053
 42
0.4142135623731
 10
17072.97419277312
 20
2942.400456547053
 42
0.4142135623731
 10
17077.97419277312
 20
2937.400456547052
 42
0.4142135623731
  0
LWPOLYLINE
  5
3CB
330
1F
100
AcDbEntity
  8
0-A_文字
  6
Continuous
 62
     3
370
     5
100
AcDbPolyline
 90
        4
 70
     1
 43
10.0
 10
17782.97419277312
 20
2942.400456547053
 42
0.4142135623731
 10
17777.97419277312
 20
2947.400456547053
 42
0.4142135623731
 10
17772.97419277312
 20
2942.400456547053
 42
0.4142135623731
 10
17777.97419277312
 20
2937.400456547052
 42
0.4142135623731
  0
LINE
  5
3CC
330
1F
100
AcDbEntity
  8
0-A_文字
  6
Continuous
 62
     3
370
     5
100
AcDbLine
 10
17777.97419277312
 20
2942.400456547053
 30
0.0
 11
17077.97419277312
 21
2942.400456547053
 31
0.0
  0
LWPOLYLINE
  5
3CD
330
1F
100
AcDbEntity
  8
0-A_文字
  6
Continuous
 62
     3
370
     5
100
AcDbPolyline
 90
        4
 70
     1
 43
10.0
 10
18482.97419277312
 20
3692.400456547053
 42
0.4142135623731
 10
18477.97419277312
 20
3697.400456547052
 42
0.4142135623731
 10
18472.97419277312
 20
3692.400456547053
 42
0.4142135623731
 10
18477.97419277312
 20
3687.400456547053
 42
0.4142135623731
  0
LINE
  5
3CE
330
1F
100
AcDbEntity
  8
0-A_文字
  6
Continuous
 62
     3
370
     5
100
AcDbLine
 10
18477.97419277312
 20
3692.400456547053
 30
0.0
 11
17077.97419277312
 21
3692.400456547053
 31
0.0
  0
LINE
  5
3CF
330
1F
100
AcDbEntity
  8
0-A_文字
  6
Continuous
 62
     3
370
     5
100
AcDbLine
 10
18477.97419277312
 20
3692.400456547053
 30
0.0
 11
18477.97419277312
 21
-7293.735870115736
 31
0.0
  0
LINE
  5
3D0
330
1F
100
AcDbEntity
  8
0-A_文字
  6
Continuous
 62
     3
370
     5
100
AcDbLine
 10
17777.97419277312
 20
2942.400456547053
 30
0.0
 11
17777.97419277312
 21
-6918.734606497267
 31
0.0
  0
TEXT
  5
3D1
330
1F
100
AcDbEntity
  8
0-A_文字
  6
Continuous
 62
     7
370
     0
100
AcDbText
 10
17704.37755220335
 20
-2263.98540534655
 30
0.0
 40
228.6
  1
枠内寸法＝2,003
 50
90.0
 41
1.155555555555555
  7
ＭＳ ゴシック
100
AcDbText
  0
TEXT
  5
3D2
330
1F
100
AcDbEntity
  8
0-A_文字
  6
Continuous
 62
     7
370
     0
100
AcDbText
 10
18419.42560017277
 20
-2261.346040051062
 30
0.0
 40
228.6
  1
枠外寸法＝2,048
 50
90.0
 41
1.155555555555555
  7
ＭＳ ゴシック
100
AcDbText
  0
TEXT
  5
3D3
330
1F
100
AcDbEntity
  8
0-A_文字
  6
Continuous
 62
     7
370
     0
100
AcDbText
 10
16956.76893988264
 20
2591.18642832292
 30
0.0
 40
228.6
  1
3
 50
90.0
 41
0.9999999999999998
  7
ＭＳ ゴシック
100
AcDbText
  0
LWPOLYLINE
  5
3D4
330
1F
100
AcDbEntity
  8
0-A_文字
  6
Continuous
 62
     3
370
     5
100
AcDbPolyline
 90
        4
 70
     1
 43
10.0
 10
17082.97419277312
 20
2867.400456547053
 42
0.4142135623731
 10
17077.97419277312
 20
2872.400456547053
 42
0.4142135623731
 10
17072.97419277312
 20
2867.400456547053
 42
0.4142135623731
 10
17077.97419277312
 20
2862.400456547052
 42
0.4142135623731
  0
LINE
  5
3D5
330
1F
100
AcDbEntity
  8
0-A_文字
  6
Continuous
 62
     3
370
     5
100
AcDbLine
 10
11733.44381365256
 20
-7293.735870115736
 30
0.0
 11
11733.44381365256
 21
-6918.734606497267
 31
0.0
  0
LWPOLYLINE
  5
3D6
330
1F
100
AcDbEntity
  8
0-A_文字
  6
Continuous
 62
     3
370
     5
100
AcDbPolyline
 90
        4
 70
     1
 43
10.0
 10
11738.44381365256
 20
-7293.735870115736
 42
0.4142135623731
 10
11733.44381365256
 20
-7288.735870115736
 42
0.4142135623731
 10
11728.44381365256
 20
-7293.735870115736
 42
0.4142135623731
 10
11733.44381365256
 20
-7298.735870115736
 42
0.4142135623731
  0
LWPOLYLINE
  5
3D7
330
1F
100
AcDbEntity
  8
0-A_文字
  6
Continuous
 62
     3
370
     5
100
AcDbPolyline
 90
        4
 70
     1
 43
10.0
 10
11738.44381365256
 20
-6918.734606497267
 42
0.4142135623731
 10
11733.44381365256
 20
-6913.734606497267
 42
0.4142135623731
 10
11728.44381365256
 20
-6918.734606497267
 42
0.4142135623731
 10
11733.44381365256
 20
-6923.734606497267
 42
0.4142135623731
  0
LINE
  5
3D8
330
1F
100
AcDbEntity
  8
0-A_文字
  6
Continuous
 62
     3
370
     5
100
AcDbLine
 10
11733.44381365256
 20
-7293.735870115736
 30
0.0
 11
12242.54805287122
 21
-7293.735870115736
 31
0.0
  0
LINE
  5
3D9
330
1F
100
AcDbEntity
  8
0-A_文字
  6
Continuous
 62
     3
370
     5
100
AcDbLine
 10
11733.44381365256
 20
-6918.734606497267
 30
0.0
 11
12242.54805287122
 21
-6918.734606497267
 31
0.0
  0
TEXT
  5
3DA
330
1F
100
AcDbEntity
  8
0-A_文字
  6
Continuous
 62
     7
370
     0
100
AcDbText
 10
11657.81243472859
 20
-6958.675907991599
 30
0.0
 40
228.6
  1
15
 50
90.0
 41
1.083333333333333
  7
ＭＳ ゴシック
100
AcDbText
  0
LINE
  5
3DB
330
1F
100
AcDbEntity
  8
0-A_文字
  6
Continuous
 62
     3
370
     5
100
AcDbLine
 10
17077.97419277312
 20
-6918.734606497267
 30
0.0
 11
15328.45835039782
 21
-6918.734606497267
 31
0.0
  0
LWPOLYLINE
  5
3DC
330
1F
100
AcDbEntity
  8
0-A_文字
  6
Continuous
 62
     3
370
     5
100
AcDbPolyline
 90
        4
 70
     1
 43
10.0
 10
15837.08813935208
 20
-6918.734606497267
 42
0.4142135623731
 10
15832.08813935208
 20
-6913.734606497267
 42
0.4142135623731
 10
15827.08813935208
 20
-6918.734606497267
 42
0.4142135623731
 10
15832.08813935208
 20
-6923.734606497267
 42
0.4142135623731
  0
LINE
  5
3DD
330
1F
100
AcDbEntity
  8
0-0_補助線
  6
JWW_HOJO
 62
     3
370
     5
100
AcDbLine
 10
17077.97419277312
 20
-6768.734606497267
 30
0.0
 11
15778.00430457956
 21
-6768.734606497267
 31
0.0
  0
LINE
  5
3DE
330
1F
100
AcDbEntity
  8
0-A_文字
  6
Continuous
 62
     3
370
     5
100
AcDbLine
 10
17077.97419277312
 20
-6768.734606497267
 30
0.0
 11
15778.00430457956
 21
-6768.734606497267
 31
0.0
  0
TEXT
  5
3DF
330
1F
100
AcDbEntity
  8
0-A_文字
  6
Continuous
 62
     7
370
     0
100
AcDbText
 10
15761.10486641417
 20
-6907.487856541567
 30
0.0
 40
228.6
  1
6
 50
90.0
 41
0.9999999999999998
  7
ＭＳ ゴシック
100
AcDbText
  0
LINE
  5
3E0
330
1F
100
AcDbEntity
  8
0-A_文字
  6
Continuous
 62
     3
370
     5
100
AcDbLine
 10
17077.97419277312
 20
-6793.734606497267
 30
0.0
 11
17077.97419277312
 21
-6918.734606497267
 31
0.0
  0
LWPOLYLINE
  5
3E1
330
1F
100
AcDbEntity
  8
0-A_文字
  6
Continuous
 62
     3
370
     5
100
AcDbPolyline
 90
        4
 70
     1
 43
10.0
 10
17082.97419277312
 20
-6918.734606497267
 42
0.4142135623731
 10
17077.97419277312
 20
-6913.734606497267
 42
0.4142135623731
 10
17072.97419277312
 20
-6918.734606497267
 42
0.4142135623731
 10
17077.97419277312
 20
-6923.734606497267
 42
0.4142135623731
  0
LWPOLYLINE
  5
3E2
330
1F
100
AcDbEntity
  8
0-A_文字
  6
Continuous
 62
     3
370
     5
100
AcDbPolyline
 90
        4
 70
     1
 43
10.0
 10
17082.97419277312
 20
-6768.734606497267
 42
0.4142135623731
 10
17077.97419277312
 20
-6763.734606497267
 42
0.4142135623731
 10
17072.97419277312
 20
-6768.734606497267
 42
0.4142135623731
 10
17077.97419277312
 20
-6773.734606497267
 42
0.4142135623731
  0
TEXT
  5
3E3
330
1F
100
AcDbEntity
  8
0-A_文字
  6
Continuous
 62
     7
370
     0
100
AcDbText
 10
16981.34465460273
 20
-6752.910397220052
 30
0.0
 40
228.6
  1
5
 50
90.0
 41
0.9999999999999998
  7
ＭＳ ゴシック
100
AcDbText
  0
LINE
  5
3E4
330
1F
100
AcDbEntity
  8
0-B_寸法
  6
Continuous
 62
     3
370
     5
100
AcDbLine
 10
15832.08813935208
 20
-7068.734606497267
 30
0.0
 11
15450.25995993808
 21
-7068.734606497267
 31
0.0
  0
LINE
  5
3E5
330
1F
100
AcDbEntity
  8
0-B_寸法
  6
Continuous
 62
     3
370
     5
100
AcDbLine
 10
15832.08813935208
 20
-6918.734606497267
 30
0.0
 11
15832.08813935208
 21
-7068.734606497267
 31
0.0
  0
LWPOLYLINE
  5
3E6
330
1F
100
AcDbEntity
  8
0-B_寸法
  6
Continuous
 62
     3
370
     5
100
AcDbPolyline
 90
        4
 70
     1
 43
10.0
 10
-5278.108082060454
 20
-4085.524288993464
 42
0.4142135623731
 10
-5283.108082060453
 20
-4080.524288993465
 42
0.4142135623731
 10
-5288.108082060453
 20
-4085.524288993464
 42
0.4142135623731
 10
-5283.108082060453
 20
-4090.524288993464
 42
0.4142135623731
  0
LINE
  5
3E7
330
1F
100
AcDbEntity
  8
0-B_寸法
  6
Continuous
 62
     3
370
     5
100
AcDbLine
 10
-5283.108082060453
 20
-4085.524288993464
 30
0.0
 11
-5283.108082060453
 21
-2744.426370055504
 31
0.0
  0
LINE
  5
3E8
330
1F
100
AcDbEntity
  8
0-B_寸法
  6
Continuous
 62
     3
370
     5
100
AcDbLine
 10
-5283.108082060453
 20
-4085.524288993464
 30
0.0
 11
-4808.107092301161
 21
-4085.524288993464
 31
0.0
  0
TEXT
  5
3E9
330
1F
100
AcDbEntity
  8
F-Aﾚｲﾔ
  6
Continuous
 62
     7
370
     5
100
AcDbText
 10
10404.16325749578
 20
-13757.71093616599
 30
0.0
 40
228.6
  1
SJ05-846-T_S01
 41
1.154761904761906
  7
ＭＳ ゴシック
100
AcDbText
  0
TEXT
  5
3EA
330
1F
100
AcDbEntity
  8
F-Aﾚｲﾔ
  6
Continuous
 62
     7
370
     0
100
AcDbText
 10
3934.725673012397
 20
-13091.03441327408
 30
0.0
 40
228.6
  1
建具納まり図
 41
1.138888888888889
  7
ＭＳ ゴシック
100
AcDbText
  0
TEXT
  5
3EB
330
1F
100
AcDbEntity
  8
F-Aﾚｲﾔ
  6
Continuous
 62
     7
370
     0
100
AcDbText
 10
-17466.66663401835
 20
-13424.36699486925
 30
0.0
 40
228.6
  1
ジュピーノ・Ｊ　片引き戸　２×４工法　ＤＷ846
 41
1.162962962962963
  7
ＭＳ ゴシック
100
AcDbText
  0
TEXT
  5
3EC
330
1F
100
AcDbEntity
  8
F-Aﾚｲﾔ
  6
Continuous
 62
     7
370
     0
100
AcDbText
 10
11366.66325749578
 20
-13091.0442609657
 30
0.0
 40
228.6
  1
1/4
 41
1.111111111111111
  7
ＭＳ ゴシック
100
AcDbText
  0
ENDSEC
  0
SECTION
  2
OBJECTS
  0
DICTIONARY
  5
C
330
0
100
AcDbDictionary
281
     1
  3
ACAD_GROUP
350
D
  3
ACAD_LAYOUT
350
1A
  3
ACAD_MATERIAL
350
3B
  3
ACAD_MLEADERSTYLE
350
3EE
  3
ACAD_MLINESTYLE
350
17
  3
ACAD_PLOTSETTINGS
350
19
  3
ACAD_PLOTSTYLENAME
350
E
  3
ACAD_TABLESTYLE
350
3ED
  3
ACAD_VISUALSTYLE
350
2A
  0
DICTIONARY
  5
D
102
{ACAD_REACTORS
330
C
102
}
330
C
100
AcDbDictionary
281
     1
  0
DICTIONARY
  5
1A
102
{ACAD_REACTORS
330
C
102
}
330
C
100
AcDbDictionary
281
     1
  3
Layout1
350
1E
  3
Layout2
350
26
  3
Model
350
22
  0
DICTIONARY
  5
3B
102
{ACAD_REACTORS
330
C
102
}
330
C
100
AcDbDictionary
281
     1
  3
ByBlock
350
3D
  3
ByLayer
350
3C
  3
Global
350
3E
  0
DICTIONARY
  5
3EE
102
{ACAD_REACTORS
330
C
102
}
330
C
100
AcDbDictionary
281
     1
  0
DICTIONARY
  5
17
102
{ACAD_REACTORS
330
C
102
}
330
C
100
AcDbDictionary
281
     1
  3
Standard
350
18
  0
DICTIONARY
  5
19
102
{ACAD_REACTORS
330
C
102
}
330
C
100
AcDbDictionary
281
     1
  0
ACDBDICTIONARYWDFLT
  5
E
102
{ACAD_REACTORS
330
C
102
}
330
C
100
AcDbDictionary
281
     1
  3
Normal
350
F
100
AcDbDictionaryWithDefault
340
F
  0
DICTIONARY
  5
3ED
102
{ACAD_REACTORS
330
C
102
}
330
C
100
AcDbDictionary
281
     1
  0
DICTIONARY
  5
2A
102
{ACAD_REACTORS
330
C
102
}
330
C
100
AcDbDictionary
281
     1
  3
2dWireframe
350
2F
  3
3D Hidden
350
31
  3
3dWireframe
350
30
  3
Basic
350
32
  3
Brighten
350
36
  3
ColorChange
350
3A
  3
Conceptual
350
34
  3
Dim
350
35
  3
Facepattern
350
39
  3
Flat
350
2B
  3
FlatWithEdges
350
2C
  3
Gouraud
350
2D
  3
GouraudWithEdges
350
2E
  3
Linepattern
350
38
  3
Realistic
350
33
  3
Thicken
350
37
  0
LAYOUT
  5
1E
102
{ACAD_REACTORS
330
1A
102
}
330
1A
100
AcDbPlotSettings
  1

  2
none_device
  4

  6

 40
0.0
 41
0.0
 42
0.0
 43
0.0
 44
0.0
 45
0.0
 46
0.0
 47
0.0
 48
0.0
 49
0.0
140
0.0
141
0.0
142
1.0
143
1.0
 70
   688
 72
     0
 73
     0
 74
     5
  7

 75
    16
 76
     0
 77
     5
 78
   300
147
1.0
148
0.0
149
0.0
100
AcDbLayout
  1
Layout1
 70
     1
 71
     1
 10
0.0
 20
0.0
 11
420.0
 21
297.0
 12
0.0
 22
0.0
 32
0.0
 14
1.000000000000000E+20
 24
1.000000000000000E+20
 34
1.000000000000000E+20
 15
-1.000000000000000E+20
 25
-1.000000000000000E+20
 35
-1.000000000000000E+20
146
0.0
 13
0.0
 23
0.0
 33
0.0
 16
1.0
 26
0.0
 36
0.0
 17
0.0
 27
1.0
 37
0.0
 76
     0
330
1B
  0
LAYOUT
  5
26
102
{ACAD_REACTORS
330
1A
102
}
330
1A
100
AcDbPlotSettings
  1

  2
none_device
  4

  6

 40
0.0
 41
0.0
 42
0.0
 43
0.0
 44
0.0
 45
0.0
 46
0.0
 47
0.0
 48
0.0
 49
0.0
140
0.0
141
0.0
142
1.0
143
1.0
 70
   688
 72
     0
 73
     0
 74
     5
  7

 75
    16
 76
     0
 77
     5
 78
   300
147
1.0
148
0.0
149
0.0
100
AcDbLayout
  1
Layout2
 70
     1
 71
     2
 10
0.0
 20
0.0
 11
0.0
 21
0.0
 12
0.0
 22
0.0
 32
0.0
 14
0.0
 24
0.0
 34
0.0
 15
0.0
 25
0.0
 35
0.0
146
0.0
 13
0.0
 23
0.0
 33
0.0
 16
1.0
 26
0.0
 36
0.0
 17
0.0
 27
1.0
 37
0.0
 76
     0
330
23
  0
LAYOUT
  5
22
102
{ACAD_REACTORS
330
1A
102
}
330
1A
100
AcDbPlotSettings
  1

  2
none_device
  4

  6

 40
0.0
 41
0.0
 42
0.0
 43
0.0
 44
0.0
 45
0.0
 46
0.0
 47
0.0
 48
0.0
 49
0.0
140
0.0
141
0.0
142
1.0
143
1.0
 70
  1712
 72
     0
 73
     0
 74
     0
  7

 75
     0
 76
     0
 77
     5
 78
   300
147
1.0
148
0.0
149
0.0
100
AcDbLayout
  1
Model
 70
     1
 71
     0
 10
-21000.0
 20
-14850.0
 11
21000.0
 21
14850.0
 12
0.0
 22
0.0
 32
0.0
 14
-21000.0
 24
-14850.0
 34
0.0
 15
21000.0
 25
14850.0
 35
0.0
146
0.0
 13
0.0
 23
0.0
 33
0.0
 16
1.0
 26
0.0
 36
0.0
 17
0.0
 27
1.0
 37
0.0
 76
     0
330
1F
331
29
  0
MATERIAL
  5
3D
102
{ACAD_REACTORS
330
3B
102
}
330
3B
100
AcDbMaterial
  1
ByBlock
 72
     1
 94
      127
  0
MATERIAL
  5
3C
102
{ACAD_REACTORS
330
3B
102
}
330
3B
100
AcDbMaterial
  1
ByLayer
 72
     1
 94
      127
  0
MATERIAL
  5
3E
102
{ACAD_REACTORS
330
3B
102
}
330
3B
100
AcDbMaterial
  1
Global
 72
     1
 94
      127
  0
MLINESTYLE
  5
18
102
{ACAD_REACTORS
330
17
102
}
330
17
100
AcDbMlineStyle
  2
Standard
 70
     0
  3

 62
   256
 51
90.0
 52
90.0
 71
     2
 49
0.5
 62
   256
  6
BYLAYER
 49
-0.5
 62
   256
  6
BYLAYER
  0
ACDBPLACEHOLDER
  5
F
102
{ACAD_REACTORS
330
E
102
}
330
E
  0
VISUALSTYLE
  5
2F
102
{ACAD_REACTORS
330
2A
102
}
330
2A
100
AcDbVisualStyle
  2
2dWireframe
 70
     4
177
     2
291
     0
 71
     0
176
     1
 72
     2
176
     1
 73
     0
176
     1
 90
        0
176
     1
 40
-0.6
176
     1
 41
-30.0
176
     1
 62
     5
 63
     7
421
 16777215
176
     1
 74
     1
176
     1
 91
        4
176
     1
 64
     7
176
     1
 65
   257
176
     1
 75
     1
176
     1
175
     1
176
     1
 42
1.0
176
     1
 92
        0
176
     1
 66
   257
176
     1
 43
1.0
176
     1
 76
     1
176
     1
 77
     6
176
     1
 78
     2
176
     1
 67
     7
176
     1
 79
     5
176
     1
170
     0
176
     1
171
     0
176
     1
290
     0
176
     1
 93
        1
176
     1
 44
0.0
176
     1
173
     0
176
     1
  0
VISUALSTYLE
  5
31
102
{ACAD_REACTORS
330
2A
102
}
330
2A
100
AcDbVisualStyle
  2
3D Hidden
 70
     6
177
     2
291
     0
 71
     1
176
     1
 72
     2
176
     1
 73
     2
176
     1
 90
        0
176
     1
 40
-0.6
176
     1
 41
-30.0
176
     1
 62
     5
 63
     7
421
 16777215
176
     1
 74
     2
176
     1
 91
        2
176
     1
 64
     7
176
     1
 65
   257
176
     1
 75
     2
176
     1
175
     1
176
     1
 42
40.0
176
     1
 92
        0
176
     1
 66
   257
176
     1
 43
1.0
176
     1
 76
     1
176
     1
 77
     6
176
     1
 78
     2
176
     1
 67
     7
176
     1
 79
     3
176
     1
170
     0
176
     1
171
     0
176
     1
290
     0
176
     1
 93
        1
176
     1
 44
0.0
176
     1
173
     0
176
     1
  0
VISUALSTYLE
  5
30
102
{ACAD_REACTORS
330
2A
102
}
330
2A
100
AcDbVisualStyle
  2
3dWireframe
 70
     5
177
     2
291
     0
 71
     0
176
     1
 72
     2
176
     1
 73
     0
176
     1
 90
        0
176
     1
 40
-0.6
176
     1
 41
-30.0
176
     1
 62
     5
 63
     7
421
 16777215
176
     1
 74
     1
176
     1
 91
        4
176
     1
 64
     7
176
     1
 65
   257
176
     1
 75
     1
176
     1
175
     1
176
     1
 42
1.0
176
     1
 92
        0
176
     1
 66
   257
176
     1
 43
1.0
176
     1
 76
     1
176
     1
 77
     6
176
     1
 78
     2
176
     1
 67
     7
176
     1
 79
     5
176
     1
170
     0
176
     1
171
     0
176
     1
290
     0
176
     1
 93
        1
176
     1
 44
0.0
176
     1
173
     0
176
     1
  0
VISUALSTYLE
  5
32
102
{ACAD_REACTORS
330
2A
102
}
330
2A
100
AcDbVisualStyle
  2
Basic
 70
     7
177
     2
291
     1
 71
     1
176
     1
 72
     0
176
     1
 73
     1
176
     1
 90
        0
176
     1
 40
-0.6
176
     1
 41
-30.0
176
     1
 62
     5
 63
     7
421
 16777215
176
     1
 74
     0
176
     1
 91
        4
176
     1
 64
     7
176
     1
 65
   257
176
     1
 75
     1
176
     1
175
     1
176
     1
 42
1.0
176
     1
 92
        8
176
     1
 66
     7
176
     1
 43
1.0
176
     1
 76
     1
176
     1
 77
     6
176
     1
 78
     2
176
     1
 67
     7
176
     1
 79
     5
176
     1
170
     0
176
     1
171
     0
176
     1
290
     0
176
     1
 93
        1
176
     1
 44
0.0
176
     1
173
     0
176
     1
  0
VISUALSTYLE
  5
36
102
{ACAD_REACTORS
330
2A
102
}
330
2A
100
AcDbVisualStyle
  2
Brighten
 70
    12
177
     2
291
     1
 71
     2
176
     1
 72
     2
176
     1
 73
     0
176
     1
 90
        0
176
     1
 40
-0.6
176
     1
 41
-30.0
176
     1
 62
     5
 63
     7
421
 16777215
176
     1
 74
     1
176
     1
 91
        4
176
     1
 64
     7
176
     1
 65
   257
176
     1
 75
     1
176
     1
175
     1
176
     1
 42
1.0
176
     1
 92
        8
176
     1
 66
     7
176
     1
 43
1.0
176
     1
 76
     1
176
     1
 77
     6
176
     1
 78
     2
176
     1
 67
     7
176
     1
 79
     5
176
     1
170
     0
176
     1
171
     0
176
     1
290
     0
176
     1
 93
        1
176
     1
 44
50.0
176
     1
173
     0
176
     1
  0
VISUALSTYLE
  5
3A
102
{ACAD_REACTORS
330
2A
102
}
330
2A
100
AcDbVisualStyle
  2
ColorChange
 70
    16
177
     2
291
     1
 71
     2
176
     1
 72
     2
176
     1
 73
     3
176
     1
 90
        0
176
     1
 40
-0.6
176
     1
 41
-30.0
176
     1
 62
     5
 63
     8
421
  8421504
176
     1
 74
     1
176
     1
 91
        4
176
     1
 64
     7
176
     1
 65
   257
176
     1
 75
     1
176
     1
175
     1
176
     1
 42
1.0
176
     1
 92
        8
176
     1
 66
     8
424
  8421504
176
     1
 43
1.0
176
     1
 76
     1
176
     1
 77
     6
176
     1
 78
     2
176
     1
 67
     7
176
     1
 79
     5
176
     1
170
     0
176
     1
171
     0
176
     1
290
     0
176
     1
 93
        1
176
     1
 44
0.0
176
     1
173
     0
176
     1
  0
VISUALSTYLE
  5
34
102
{ACAD_REACTORS
330
2A
102
}
330
2A
100
AcDbVisualStyle
  2
Conceptual
 70
     9
177
     2
291
     0
 71
     3
176
     1
 72
     2
176
     1
 73
     0
176
     1
 90
        0
176
     1
 40
-0.6
176
     1
 41
-30.0
176
     1
 62
     5
 63
     7
421
 16777215
176
     1
 74
     2
176
     1
 91
        2
176
     1
 64
     7
176
     1
 65
   257
176
     1
 75
     1
176
     1
175
     1
176
     1
 42
40.0
176
     1
 92
        8
176
     1
 66
     7
176
     1
 43
1.0
176
     1
 76
     1
176
     1
 77
     6
176
     1
 78
     2
176
     1
 67
     7
176
     1
 79
     3
176
     1
170
     0
176
     1
171
     0
176
     1
290
     0
176
     1
 93
        1
176
     1
 44
0.0
176
     1
173
     0
176
     1
  0
VISUALSTYLE
  5
35
102
{ACAD_REACTORS
330
2A
102
}
330
2A
100
AcDbVisualStyle
  2
Dim
 70
    11
177
     2
291
     1
 71
     2
176
     1
 72
     2
176
     1
 73
     0
176
     1
 90
        0
176
     1
 40
-0.6
176
     1
 41
-30.0
176
     1
 62
     5
 63
     7
421
 16777215
176
     1
 74
     1
176
     1
 91
        4
176
     1
 64
     7
176
     1
 65
   257
176
     1
 75
     1
176
     1
175
     1
176
     1
 42
1.0
176
     1
 92
        8
176
     1
 66
     7
176
     1
 43
1.0
176
     1
 76
     1
176
     1
 77
     6
176
     1
 78
     2
176
     1
 67
     7
176
     1
 79
     5
176
     1
170
     0
176
     1
171
     0
176
     1
290
     0
176
     1
 93
        1
176
     1
 44
-50.0
176
     1
173
     0
176
     1
  0
VISUALSTYLE
  5
39
102
{ACAD_REACTORS
330
2A
102
}
330
2A
100
AcDbVisualStyle
  2
Facepattern
 70
    15
177
     2
291
     1
 71
     2
176
     1
 72
     2
176
     1
 73
     0
176
     1
 90
        0
176
     1
 40
-0.6
176
     1
 41
-30.0
176
     1
 62
     5
 63
     7
421
 16777215
176
     1
 74
     1
176
     1
 91
        4
176
     1
 64
     7
176
     1
 65
   257
176
     1
 75
     1
176
     1
175
     1
176
     1
 42
1.0
176
     1
 92
        8
176
     1
 66
     7
176
     1
 43
1.0
176
     1
 76
     1
176
     1
 77
     6
176
     1
 78
     2
176
     1
 67
     7
176
     1
 79
     5
176
     1
170
     0
176
     1
171
     0
176
     1
290
     0
176
     1
 93
        1
176
     1
 44
0.0
176
     1
173
     0
176
     1
  0
VISUALSTYLE
  5
2B
102
{ACAD_REACTORS
330
2A
102
}
330
2A
100
AcDbVisualStyle
  2
Flat
 70
     0
177
     2
291
     1
 71
     2
176
     1
 72
     1
176
     1
 73
     1
176
     1
 90
        2
176
     1
 40
-0.6
176
     1
 41
30.0
176
     1
 62
     5
 63
     7
421
 16777215
176
     1
 74
     0
176
     1
 91
        4
176
     1
 64
     7
176
     1
 65
   257
176
     1
 75
     1
176
     1
175
     1
176
     1
 42
1.0
176
     1
 92
        8
176
     1
 66
     7
176
     1
 43
1.0
176
     1
 76
     1
176
     1
 77
     6
176
     1
 78
     2
176
     1
 67
     7
176
     1
 79
     5
176
     1
170
     0
176
     1
171
     0
176
     1
290
     0
176
     1
 93
       13
176
     1
 44
0.0
176
     1
173
     0
176
     1
  0
VISUALSTYLE
  5
2C
102
{ACAD_REACTORS
330
2A
102
}
330
2A
100
AcDbVisualStyle
  2
FlatWithEdges
 70
     1
177
     2
291
     1
 71
     2
176
     1
 72
     1
176
     1
 73
     1
176
     1
 90
        2
176
     1
 40
-0.6
176
     1
 41
30.0
176
     1
 62
     5
 63
     7
421
 16777215
176
     1
 74
     1
176
     1
 91
        4
176
     1
 64
     7
176
     1
 65
   257
176
     1
 75
     1
176
     1
175
     1
176
     1
 42
1.0
176
     1
 92
        0
176
     1
 66
   257
176
     1
 43
1.0
176
     1
 76
     1
176
     1
 77
     6
176
     1
 78
     2
176
     1
 67
     7
176
     1
 79
     5
176
     1
170
     0
176
     1
171
     0
176
     1
290
     0
176
     1
 93
       13
176
     1
 44
0.0
176
     1
173
     0
176
     1
  0
VISUALSTYLE
  5
2D
102
{ACAD_REACTORS
330
2A
102
}
330
2A
100
AcDbVisualStyle
  2
Gouraud
 70
     2
177
     2
291
     1
 71
     2
176
     1
 72
     2
176
     1
 73
     1
176
     1
 90
        2
176
     1
 40
-0.6
176
     1
 41
30.0
176
     1
 62
     5
 63
     7
421
 16777215
176
     1
 74
     0
176
     1
 91
        4
176
     1
 64
     7
176
     1
 65
   257
176
     1
 75
     1
176
     1
175
     1
176
     1
 42
1.0
176
     1
 92
        0
176
     1
 66
     7
176
     1
 43
1.0
176
     1
 76
     1
176
     1
 77
     6
176
     1
 78
     2
176
     1
 67
     7
176
     1
 79
     5
176
     1
170
     0
176
     1
171
     0
176
     1
290
     0
176
     1
 93
       13
176
     1
 44
0.0
176
     1
173
     0
176
     1
  0
VISUALSTYLE
  5
2E
102
{ACAD_REACTORS
330
2A
102
}
330
2A
100
AcDbVisualStyle
  2
GouraudWithEdges
 70
     3
177
     2
291
     1
 71
     2
176
     1
 72
     2
176
     1
 73
     1
176
     1
 90
        2
176
     1
 40
-0.6
176
     1
 41
30.0
176
     1
 62
     5
 63
     7
421
 16777215
176
     1
 74
     1
176
     1
 91
        4
176
     1
 64
     7
176
     1
 65
   257
176
     1
 75
     1
176
     1
175
     1
176
     1
 42
1.0
176
     1
 92
        0
176
     1
 66
   257
176
     1
 43
1.0
176
     1
 76
     1
176
     1
 77
     6
176
     1
 78
     2
176
     1
 67
     7
176
     1
 79
     5
176
     1
170
     0
176
     1
171
     0
176
     1
290
     0
176
     1
 93
       13
176
     1
 44
0.0
176
     1
173
     0
176
     1
  0
VISUALSTYLE
  5
38
102
{ACAD_REACTORS
330
2A
102
}
330
2A
100
AcDbVisualStyle
  2
Linepattern
 70
    14
177
     2
291
     1
 71
     2
176
     1
 72
     2
176
     1
 73
     0
176
     1
 90
        0
176
     1
 40
-0.6
176
     1
 41
-30.0
176
     1
 62
     5
 63
     7
421
 16777215
176
     1
 74
     1
176
     1
 91
        4
176
     1
 64
     7
176
     1
 65
   257
176
     1
 75
     7
176
     1
175
     7
176
     1
 42
1.0
176
     1
 92
        8
176
     1
 66
     7
176
     1
 43
1.0
176
     1
 76
     1
176
     1
 77
     6
176
     1
 78
     2
176
     1
 67
     7
176
     1
 79
     5
176
     1
170
     0
176
     1
171
     0
176
     1
290
     0
176
     1
 93
        1
176
     1
 44
0.0
176
     1
173
     0
176
     1
  0
VISUALSTYLE
  5
33
102
{ACAD_REACTORS
330
2A
102
}
330
2A
100
AcDbVisualStyle
  2
Realistic
 70
     8
177
     2
291
     0
 71
     2
176
     1
 72
     2
176
     1
 73
     0
176
     1
 90
        0
176
     1
 40
-0.6
176
     1
 41
-30.0
176
     1
 62
     5
 63
     7
421
 16777215
176
     1
 74
     1
176
     1
 91
        0
176
     1
 64
     7
176
     1
 65
   257
176
     1
 75
     1
176
     1
175
     1
176
     1
 42
1.0
176
     1
 92
        8
176
     1
 66
     8
424
  7895160
176
     1
 43
1.0
176
     1
 76
     1
176
     1
 77
     6
176
     1
 78
     2
176
     1
 67
     7
176
     1
 79
     5
176
     1
170
     0
176
     1
171
     0
176
     1
290
     0
176
     1
 93
       13
176
     1
 44
0.0
176
     1
173
     0
176
     1
  0
VISUALSTYLE
  5
37
102
{ACAD_REACTORS
330
2A
102
}
330
2A
100
AcDbVisualStyle
  2
Thicken
 70
    13
177
     2
291
     1
 71
     2
176
     1
 72
     2
176
     1
 73
     0
176
     1
 90
        0
176
     1
 40
-0.6
176
     1
 41
-30.0
176
     1
 62
     5
 63
     7
421
 16777215
176
     1
 74
     1
176
     1
 91
        4
176
     1
 64
     7
176
     1
 65
   257
176
     1
 75
     1
176
     1
175
     1
176
     1
 42
1.0
176
     1
 92
       12
176
     1
 66
     7
176
     1
 43
1.0
176
     1
 76
     1
176
     1
 77
     6
176
     1
 78
     2
176
     1
 67
     7
176
     1
 79
     5
176
     1
170
     0
176
     1
171
     0
176
     1
290
     0
176
     1
 93
        1
176
     1
 44
0.0
176
     1
173
     0
176
     1
  0
ENDSEC
  0
EOF
