  0
SECTION
  2
HEADER
  9
$ACADVER
  1
AC1024
  9
$ACADMAINTVER
 70
     6
  9
$DWGCODEPAGE
  3
ANSI_932
  9
$INSBASE
 10
0.0
 20
0.0
 30
0.0
  9
$EXTMIN
 10
-6300.0
 20
-4455.0
 30
0.0
  9
$EXTMAX
 10
6300.0
 20
4455.0
 30
0.0
  9
$LIMMIN
 10
-6300.0
 20
-4455.0
  9
$LIMMAX
 10
6300.0
 20
4455.0
  9
$ORTHOMODE
 70
     0
  9
$REGENMODE
 70
     1
  9
$FILLMODE
 70
     1
  9
$QTEXTMODE
 70
     0
  9
$MIRRTEXT
 70
     1
  9
$LTSCALE
 40
30.0
  9
$ATTMODE
 70
     1
  9
$TEXTSIZE
 40
2.5
  9
$TRACEWID
 40
1.0
  9
$TEXTSTYLE
  7
Standard
  9
$CLAYER
  8
0
  9
$CELTYPE
  6
ByLayer
  9
$CECOLOR
 62
   256
  9
$CELTSCALE
 40
1.0
  9
$DISPSILH
 70
     0
  9
$DIMSCALE
 40
1.0
  9
$DIMASZ
 40
2.5
  9
$DIMEXO
 40
0.625
  9
$DIMDLI
 40
3.75
  9
$DIMRND
 40
0.0
  9
$DIMDLE
 40
0.0
  9
$DIMEXE
 40
1.25
  9
$DIMTP
 40
0.0
  9
$DIMTM
 40
0.0
  9
$DIMTXT
 40
2.5
  9
$DIMCEN
 40
2.5
  9
$DIMTSZ
 40
0.0
  9
$DIMTOL
 70
     0
  9
$DIMLIM
 70
     0
  9
$DIMTIH
 70
     0
  9
$DIMTOH
 70
     0
  9
$DIMSE1
 70
     0
  9
$DIMSE2
 70
     0
  9
$DIMTAD
 70
     1
  9
$DIMZIN
 70
     8
  9
$DIMBLK
  1

  9
$DIMASO
 70
     1
  9
$DIMSHO
 70
     1
  9
$DIMPOST
  1

  9
$DIMAPOST
  1

  9
$DIMALT
 70
     0
  9
$DIMALTD
 70
     3
  9
$DIMALTF
 40
0.03937007874016
  9
$DIMLFAC
 40
1.0
  9
$DIMTOFL
 70
     1
  9
$DIMTVP
 40
0.0
  9
$DIMTIX
 70
     0
  9
$DIMSOXD
 70
     0
  9
$DIMSAH
 70
     0
  9
$DIMBLK1
  1

  9
$DIMBLK2
  1

  9
$DIMSTYLE
  2
ISO-25
  9
$DIMCLRD
 70
     0
  9
$DIMCLRE
 70
     0
  9
$DIMCLRT
 70
     0
  9
$DIMTFAC
 40
1.0
  9
$DIMGAP
 40
0.625
  9
$DIMJUST
 70
     0
  9
$DIMSD1
 70
     0
  9
$DIMSD2
 70
     0
  9
$DIMTOLJ
 70
     0
  9
$DIMTZIN
 70
     8
  9
$DIMALTZ
 70
     0
  9
$DIMALTTZ
 70
     0
  9
$DIMUPT
 70
     0
  9
$DIMDEC
 70
     2
  9
$DIMTDEC
 70
     2
  9
$DIMALTU
 70
     2
  9
$DIMALTTD
 70
     3
  9
$DIMTXSTY
  7
Standard
  9
$DIMAUNIT
 70
     0
  9
$DIMADEC
 70
     0
  9
$DIMALTRND
 40
0.0
  9
$DIMAZIN
 70
     0
  9
$DIMDSEP
 70
    44
  9
$DIMATFIT
 70
     3
  9
$DIMFRAC
 70
     0
  9
$DIMLDRBLK
  1

  9
$DIMLUNIT
 70
     2
  9
$DIMLWD
 70
    -2
  9
$DIMLWE
 70
    -2
  9
$DIMTMOVE
 70
     0
  9
$DIMFXL
 40
1.0
  9
$DIMFXLON
 70
     0
  9
$DIMJOGANG
 40
0.7853981633974483
  9
$DIMTFILL
 70
     0
  9
$DIMTFILLCLR
 70
     0
  9
$DIMARCSYM
 70
     0
  9
$DIMLTYPE
  6

  9
$DIMLTEX1
  6

  9
$DIMLTEX2
  6

  9
$DIMTXTDIRECTION
 70
     0
  9
$LUNITS
 70
     2
  9
$LUPREC
 70
     4
  9
$SKETCHINC
 40
1.0
  9
$FILLETRAD
 40
10.0
  9
$AUNITS
 70
     0
  9
$AUPREC
 70
     0
  9
$MENU
  1
.
  9
$ELEVATION
 40
0.0
  9
$PELEVATION
 40
0.0
  9
$THICKNESS
 40
0.0
  9
$LIMCHECK
 70
     0
  9
$CHAMFERA
 40
0.0
  9
$CHAMFERB
 40
0.0
  9
$CHAMFERC
 40
0.0
  9
$CHAMFERD
 40
0.0
  9
$SKPOLY
 70
     0
  9
$TDCREATE
 40
2458214.429622234
  9
$TDUCREATE
 40
2458214.054622234
  9
$TDUPDATE
 40
2458214.429622245
  9
$TDUUPDATE
 40
2458214.054622245
  9
$TDINDWG
 40
0.0000000116
  9
$TDUSRTIMER
 40
0.0000000116
  9
$USRTIMER
 70
     1
  9
$ANGBASE
 50
0.0
  9
$ANGDIR
 70
     0
  9
$PDMODE
 70
     0
  9
$PDSIZE
 40
0.0
  9
$PLINEWID
 40
0.0
  9
$SPLFRAME
 70
     0
  9
$SPLINETYPE
 70
     6
  9
$SPLINESEGS
 70
     8
  9
$HANDSEED
  5
322
  9
$SURFTAB1
 70
     6
  9
$SURFTAB2
 70
     6
  9
$SURFTYPE
 70
     6
  9
$SURFU
 70
     6
  9
$SURFV
 70
     6
  9
$UCSBASE
  2

  9
$UCSNAME
  2

  9
$UCSORG
 10
0.0
 20
0.0
 30
0.0
  9
$UCSXDIR
 10
1.0
 20
0.0
 30
0.0
  9
$UCSYDIR
 10
0.0
 20
1.0
 30
0.0
  9
$UCSORTHOREF
  2

  9
$UCSORTHOVIEW
 70
     0
  9
$UCSORGTOP
 10
0.0
 20
0.0
 30
0.0
  9
$UCSORGBOTTOM
 10
0.0
 20
0.0
 30
0.0
  9
$UCSORGLEFT
 10
0.0
 20
0.0
 30
0.0
  9
$UCSORGRIGHT
 10
0.0
 20
0.0
 30
0.0
  9
$UCSORGFRONT
 10
0.0
 20
0.0
 30
0.0
  9
$UCSORGBACK
 10
0.0
 20
0.0
 30
0.0
  9
$PUCSBASE
  2

  9
$PUCSNAME
  2

  9
$PUCSORG
 10
0.0
 20
0.0
 30
0.0
  9
$PUCSXDIR
 10
1.0
 20
0.0
 30
0.0
  9
$PUCSYDIR
 10
0.0
 20
1.0
 30
0.0
  9
$PUCSORTHOREF
  2

  9
$PUCSORTHOVIEW
 70
     0
  9
$PUCSORGTOP
 10
0.0
 20
0.0
 30
0.0
  9
$PUCSORGBOTTOM
 10
0.0
 20
0.0
 30
0.0
  9
$PUCSORGLEFT
 10
0.0
 20
0.0
 30
0.0
  9
$PUCSORGRIGHT
 10
0.0
 20
0.0
 30
0.0
  9
$PUCSORGFRONT
 10
0.0
 20
0.0
 30
0.0
  9
$PUCSORGBACK
 10
0.0
 20
0.0
 30
0.0
  9
$USERI1
 70
     0
  9
$USERI2
 70
     0
  9
$USERI3
 70
     0
  9
$USERI4
 70
     0
  9
$USERI5
 70
     0
  9
$USERR1
 40
0.0
  9
$USERR2
 40
0.0
  9
$USERR3
 40
0.0
  9
$USERR4
 40
0.0
  9
$USERR5
 40
0.0
  9
$WORLDVIEW
 70
     1
  9
$SHADEDGE
 70
     3
  9
$SHADEDIF
 70
    70
  9
$TILEMODE
 70
     1
  9
$MAXACTVP
 70
    64
  9
$PINSBASE
 10
0.0
 20
0.0
 30
0.0
  9
$PLIMCHECK
 70
     0
  9
$PEXTMIN
 10
1.000000000000000E+20
 20
1.000000000000000E+20
 30
1.000000000000000E+20
  9
$PEXTMAX
 10
-1.000000000000000E+20
 20
-1.000000000000000E+20
 30
-1.000000000000000E+20
  9
$PLIMMIN
 10
0.0
 20
0.0
  9
$PLIMMAX
 10
420.0
 20
297.0
  9
$UNITMODE
 70
     0
  9
$VISRETAIN
 70
     1
  9
$PLINEGEN
 70
     0
  9
$PSLTSCALE
 70
     1
  9
$TREEDEPTH
 70
  3020
  9
$CMLSTYLE
  2
Standard
  9
$CMLJUST
 70
     0
  9
$CMLSCALE
 40
20.0
  9
$PROXYGRAPHICS
 70
     1
  9
$MEASUREMENT
 70
     1
  9
$CELWEIGHT
370
    -1
  9
$ENDCAPS
280
     0
  9
$JOINSTYLE
280
     0
  9
$LWDISPLAY
290
     0
  9
$INSUNITS
 70
     4
  9
$HYPERLINKBASE
  1

  9
$STYLESHEET
  1

  9
$XEDIT
290
     1
  9
$CEPSNTYPE
380
     0
  9
$PSTYLEMODE
290
     1
  9
$FINGERPRINTGUID
  2
{473FA9E3-966F-4F6E-BFE8-A3A521E19CC4}
  9
$VERSIONGUID
  2
{FAEB1C32-E019-11D5-929B-00C0DF256EC4}
  9
$EXTNAMES
290
     1
  9
$PSVPSCALE
 40
0.0
  9
$OLESTARTUP
290
     0
  9
$SORTENTS
280
   127
  9
$INDEXCTL
280
     0
  9
$HIDETEXT
280
     1
  9
$XCLIPFRAME
280
     2
  9
$HALOGAP
280
     0
  9
$OBSCOLOR
 70
   257
  9
$OBSLTYPE
280
     0
  9
$INTERSECTIONDISPLAY
280
     0
  9
$INTERSECTIONCOLOR
 70
   257
  9
$DIMASSOC
280
     2
  9
$PROJECTNAME
  1

  9
$CAMERADISPLAY
290
     0
  9
$LENSLENGTH
 40
50.0
  9
$CAMERAHEIGHT
 40
0.0
  9
$STEPSPERSEC
 40
2.0
  9
$STEPSIZE
 40
6.0
  9
$3DDWFPREC
 40
2.0
  9
$PSOLWIDTH
 40
5.0
  9
$PSOLHEIGHT
 40
80.0
  9
$LOFTANG1
 40
1.570796326794897
  9
$LOFTANG2
 40
1.570796326794897
  9
$LOFTMAG1
 40
0.0
  9
$LOFTMAG2
 40
0.0
  9
$LOFTPARAM
 70
     7
  9
$LOFTNORMALS
280
     1
  9
$LATITUDE
 40
37.795
  9
$LONGITUDE
 40
-122.394
  9
$NORTHDIRECTION
 40
0.0
  9
$TIMEZONE
 70
 -8000
  9
$LIGHTGLYPHDISPLAY
280
     1
  9
$TILEMODELIGHTSYNCH
280
     1
  9
$CMATERIAL
347
44
  9
$SOLIDHIST
280
     0
  9
$SHOWHIST
280
     1
  9
$DWFFRAME
280
     2
  9
$DGNFRAME
280
     2
  9
$REALWORLDSCALE
290
     1
  9
$INTERFERECOLOR
 62
   256
  9
$CSHADOW
280
     0
  9
$SHADOWPLANELOCATION
 40
0.0
  0
ENDSEC
  0
SECTION
  2
CLASSES
  0
CLASS
  1
ACDBDICTIONARYWDFLT
  2
AcDbDictionaryWithDefault
  3
ObjectDBX Classes
 90
        0
 91
        4
280
     0
281
     0
  0
CLASS
  1
VISUALSTYLE
  2
AcDbVisualStyle
  3
ObjectDBX Classes
 90
     4095
 91
        4
280
     0
281
     0
  0
CLASS
  1
MATERIAL
  2
AcDbMaterial
  3
ObjectDBX Classes
 90
     1153
 91
        4
280
     0
281
     0
  0
CLASS
  1
SCALE
  2
AcDbScale
  3
ObjectDBX Classes
 90
     1153
 91
        4
280
     0
281
     0
  0
CLASS
  1
TABLESTYLE
  2
AcDbTableStyle
  3
ObjectDBX Classes
 90
     4095
 91
        4
280
     0
281
     0
  0
CLASS
  1
MLEADERSTYLE
  2
AcDbMLeaderStyle
  3
ACDB_MLEADERSTYLE_CLASS
 90
     4095
 91
        4
280
     0
281
     0
  0
CLASS
  1
SUN
  2
AcDbSun
  3
SCENEOE
 90
     1153
 91
        4
280
     0
281
     0
  0
CLASS
  1
DICTIONARYVAR
  2
AcDbDictionaryVar
  3
ObjectDBX Classes
 90
        0
 91
        4
280
     0
281
     0
  0
CLASS
  1
CELLSTYLEMAP
  2
AcDbCellStyleMap
  3
ObjectDBX Classes
 90
     1152
 91
        4
280
     0
281
     0
  0
ENDSEC
  0
SECTION
  2
TABLES
  0
TABLE
  2
VPORT
  5
8
330
0
100
AcDbSymbolTable
 70
     1
  0
VPORT
  5
29
330
8
100
AcDbSymbolTableRecord
100
AcDbViewportTableRecord
  2
*Active
 70
     0
 10
0.0
 20
0.0
 11
1.0
 21
1.0
 12
0.0
 22
0.0
 13
0.0
 23
0.0
 14
10.0
 24
10.0
 15
10.0
 25
10.0
 16
0.0
 26
0.0
 36
1.0
 17
0.0
 27
0.0
 37
0.0
 40
9801.0
 41
1.414141414141414
 42
50.0
 43
0.0
 44
0.0
 50
0.0
 51
0.0
 71
     0
 72
 10000
 73
     1
 74
     3
 75
     0
 76
     0
 77
     0
 78
     0
281
     0
 65
     1
110
0.0
120
0.0
130
0.0
111
1.0
121
0.0
131
0.0
112
0.0
122
1.0
132
0.0
 79
     0
146
0.0
348
2F
 60
     3
 61
     5
292
     1
282
     1
141
0.0
142
0.0
 63
   250
361
6D
  0
ENDTAB
  0
TABLE
  2
LTYPE
  5
5
330
0
100
AcDbSymbolTable
 70
     4
  0
LTYPE
  5
14
330
5
100
AcDbSymbolTableRecord
100
AcDbLinetypeTableRecord
  2
ByBlock
 70
     0
  3

 72
    65
 73
     0
 40
0.0
  0
LTYPE
  5
15
330
5
100
AcDbSymbolTableRecord
100
AcDbLinetypeTableRecord
  2
ByLayer
 70
     0
  3

 72
    65
 73
     0
 40
0.0
  0
LTYPE
  5
16
330
5
100
AcDbSymbolTableRecord
100
AcDbLinetypeTableRecord
  2
Continuous
 70
     0
  3
Solid line
 72
    65
 73
     0
 40
0.0
  0
LTYPE
  5
6F
330
5
100
AcDbSymbolTableRecord
100
AcDbLinetypeTableRecord
  2
JWW_DASHED1
 70
     0
  3
-  --  --  --  --  --  --  --  -
 72
    65
 73
     2
 40
1.693333333333333
 49
0.8466666666666667
 74
     0
 49
-0.8466666666666667
 74
     0
  0
LTYPE
  5
70
330
5
100
AcDbSymbolTableRecord
100
AcDbLinetypeTableRecord
  2
JWW_CENTER1
 70
     0
  3
-----  --  ----------  --  -----
 72
    65
 73
     4
 40
6.773333333333333
 49
4.233333333333333
 74
     0
 49
-0.8466666666666667
 74
     0
 49
0.8466666666666667
 74
     0
 49
-0.8466666666666667
 74
     0
  0
LTYPE
  5
71
330
5
100
AcDbSymbolTableRecord
100
AcDbLinetypeTableRecord
  2
JWW_HOJO
 70
     0
  3
  -   -   -   -   -   -   -   - 
 72
    65
 73
     2
 40
1.693333333333333
 49
-1.27
 74
     0
 49
0.4233333333333333
 74
     0
  0
ENDTAB
  0
TABLE
  2
LAYER
  5
2
330
0
100
AcDbSymbolTable
 70
     6
  0
LAYER
  5
10
330
2
100
AcDbSymbolTableRecord
100
AcDbLayerTableRecord
  2
0
 70
     0
 62
     7
  6
Continuous
370
    -3
390
F
347
46
  0
LAYER
  5
72
330
2
100
AcDbSymbolTableRecord
100
AcDbLayerTableRecord
  2
4-4
 70
     0
 62
     7
  6
Continuous
370
    -3
390
F
347
46
  0
LAYER
  5
73
330
2
100
AcDbSymbolTableRecord
100
AcDbLayerTableRecord
  2
2-2
 70
     0
 62
     7
  6
Continuous
370
    -3
390
F
347
46
  0
LAYER
  5
74
330
2
100
AcDbSymbolTableRecord
100
AcDbLayerTableRecord
  2
F-A
 70
     0
 62
     7
  6
Continuous
370
    -3
390
F
347
46
  0
LAYER
  5
75
330
2
100
AcDbSymbolTableRecord
100
AcDbLayerTableRecord
  2
F-0
 70
     0
 62
     7
  6
Continuous
370
    -3
390
F
347
46
  0
LAYER
  5
76
330
2
100
AcDbSymbolTableRecord
100
AcDbLayerTableRecord
  2
F-1
 70
     0
 62
     7
  6
Continuous
370
    -3
390
F
347
46
  0
ENDTAB
  0
TABLE
  2
STYLE
  5
3
330
0
100
AcDbSymbolTable
 70
     2
  0
STYLE
  5
11
330
3
100
AcDbSymbolTableRecord
100
AcDbTextStyleTableRecord
  2
Standard
 70
     0
 40
0.0
 41
1.0
 50
0.0
 71
     0
 42
2.5
  3
txt
  4

  0
STYLE
  5
6E
330
3
100
AcDbSymbolTableRecord
100
AcDbTextStyleTableRecord
  2
ＭＳ ゴシック
 70
     0
 40
1.0
 41
1.0
 50
0.0
 71
     0
 42
2.5
  3

  4

1001
ACAD
1000
MS Gothic
1071
    32817
  0
ENDTAB
  0
TABLE
  2
VIEW
  5
6
330
0
100
AcDbSymbolTable
 70
     0
  0
ENDTAB
  0
TABLE
  2
UCS
  5
7
330
0
100
AcDbSymbolTable
 70
     0
  0
ENDTAB
  0
TABLE
  2
APPID
  5
9
330
0
100
AcDbSymbolTable
 70
     1
  0
APPID
  5
12
330
9
100
AcDbSymbolTableRecord
100
AcDbRegAppTableRecord
  2
ACAD
 70
     0
  0
ENDTAB
  0
TABLE
  2
DIMSTYLE
  5
A
330
0
100
AcDbSymbolTable
 70
     1
100
AcDbDimStyleTable
  0
DIMSTYLE
105
27
330
A
100
AcDbSymbolTableRecord
100
AcDbDimStyleTableRecord
  2
ISO-25
 70
     0
 41
2.5
 42
0.625
 43
3.75
 44
1.25
 73
     0
 74
     0
 77
     1
 78
     8
140
2.5
141
2.5
143
0.03937007874016
147
0.625
171
     3
172
     1
178
     0
271
     2
272
     2
274
     3
278
    44
283
     0
284
     8
340
11
  0
ENDTAB
  0
TABLE
  2
BLOCK_RECORD
  5
1
330
0
100
AcDbSymbolTable
 70
     1
  0
BLOCK_RECORD
  5
1F
330
1
100
AcDbSymbolTableRecord
100
AcDbBlockTableRecord
  2
*Model_Space
340
22
 70
     0
280
     1
281
     0
  0
BLOCK_RECORD
  5
1B
330
1
100
AcDbSymbolTableRecord
100
AcDbBlockTableRecord
  2
*Paper_Space
340
1E
 70
     0
280
     1
281
     0
  0
BLOCK_RECORD
  5
23
330
1
100
AcDbSymbolTableRecord
100
AcDbBlockTableRecord
  2
*Paper_Space0
340
26
 70
     0
280
     1
281
     0
  0
ENDTAB
  0
ENDSEC
  0
SECTION
  2
BLOCKS
  0
BLOCK
  5
20
330
1F
100
AcDbEntity
  8
0
100
AcDbBlockBegin
  2
*Model_Space
 70
     0
 10
0.0
 20
0.0
 30
0.0
  3
*Model_Space
  1

  0
ENDBLK
  5
21
330
1F
100
AcDbEntity
  8
0
100
AcDbBlockEnd
  0
BLOCK
  5
1C
330
1B
100
AcDbEntity
 67
     1
  8
0
100
AcDbBlockBegin
  2
*Paper_Space
 70
     0
 10
0.0
 20
0.0
 30
0.0
  3
*Paper_Space
  1

  0
ENDBLK
  5
1D
330
1B
100
AcDbEntity
 67
     1
  8
0
100
AcDbBlockEnd
  0
BLOCK
  5
24
330
23
100
AcDbEntity
  8
0
100
AcDbBlockBegin
  2
*Paper_Space0
 70
     0
 10
0.0
 20
0.0
 30
0.0
  3
*Paper_Space0
  1

  0
ENDBLK
  5
25
330
23
100
AcDbEntity
  8
0
100
AcDbBlockEnd
  0
ENDSEC
  0
SECTION
  2
ENTITIES
  0
LINE
  5
77
330
1F
100
AcDbEntity
  8
4-4
  6
Continuous
 62
     7
370
     9
100
AcDbLine
 10
551.0189227926667
 20
108.0314029384425
 30
0.0
 11
-1476.981077207334
 21
108.0314029384425
 31
0.0
  0
LINE
  5
78
330
1F
100
AcDbEntity
  8
4-4
  6
Continuous
 62
     7
370
     9
100
AcDbLine
 10
551.0189227926667
 20
-1751.368597061558
 30
0.0
 11
-1476.981077207334
 21
-1751.368597061558
 31
0.0
  0
LINE
  5
79
330
1F
100
AcDbEntity
  8
4-4
  6
Continuous
 62
     7
370
     9
100
AcDbLine
 10
851.0189227926672
 20
264.0314029384422
 30
0.0
 11
-3954.981077207334
 21
264.0314029384422
 31
0.0
  0
LINE
  5
7A
330
1F
100
AcDbEntity
  8
4-4
  6
Continuous
 62
     7
370
     9
100
AcDbLine
 10
-4876.787700733714
 20
-2453.968597061558
 30
0.0
 11
3963.315286878625
 21
-2453.968597061558
 31
0.0
  0
LINE
  5
7B
330
1F
100
AcDbEntity
  8
4-4
  6
Continuous
 62
     7
370
     9
100
AcDbLine
 10
3963.315286878625
 20
668.7150837988821
 30
0.0
 11
3963.315286878625
 21
-3022.793296089385
 31
0.0
  0
LWPOLYLINE
  5
7C
330
1F
100
AcDbEntity
  8
4-4
  6
Continuous
 62
     4
370
     5
100
AcDbPolyline
 90
        4
 70
     1
 43
6.0
 10
3966.315286878625
 20
-3022.793296089385
 42
0.4142135623731
 10
3963.315286878625
 20
-3019.793296089385
 42
0.4142135623731
 10
3960.315286878625
 20
-3022.793296089385
 42
0.4142135623731
 10
3963.315286878625
 20
-3025.793296089385
 42
0.4142135623731
  0
TEXT
  5
7D
330
1F
100
AcDbEntity
  8
4-4
  6
Continuous
 62
     7
370
     9
100
AcDbText
 10
556.6565115833478
 20
-2437.535498543999
 30
0.0
 40
68.58
  1
▼ＦＬ
 41
1.111111111111111
  7
ＭＳ ゴシック
100
AcDbText
  0
TEXT
  5
7E
330
1F
100
AcDbEntity
  8
4-4
  6
Continuous
 62
     7
370
     9
100
AcDbText
 10
-1799.509161002073
 20
-2191.398232742093
 30
0.0
 40
91.44
  1
←引戸→
 41
1.09375
  7
ＭＳ ゴシック
100
AcDbText
  0
LWPOLYLINE
  5
7F
330
1F
100
AcDbEntity
  8
4-4
  6
Continuous
 62
     4
370
     5
100
AcDbPolyline
 90
        4
 70
     1
 43
6.0
 10
3966.315286878625
 20
-2682.569832402235
 42
0.4142135623731
 10
3963.315286878625
 20
-2679.569832402235
 42
0.4142135623731
 10
3960.315286878625
 20
-2682.569832402235
 42
0.4142135623731
 10
3963.315286878625
 20
-2685.569832402235
 42
0.4142135623731
  0
TEXT
  5
80
330
1F
100
AcDbEntity
  8
4-4
  6
Continuous
 62
     7
370
     9
100
AcDbText
 10
3227.690209185764
 20
-2773.939630785556
 30
0.0
 40
68.58
  1
(左側板)
 41
1.145833333333333
  7
ＭＳ ゴシック
100
AcDbText
  0
LINE
  5
81
330
1F
100
AcDbEntity
  8
4-4
  6
Continuous
 62
     7
370
     9
100
AcDbLine
 10
3948.315286878625
 20
270.0314029384435
 30
0.0
 11
3948.315286878625
 21
-1913.968597061558
 31
0.0
  0
LINE
  5
82
330
1F
100
AcDbEntity
  8
4-4
  6
Continuous
 62
     7
370
     9
100
AcDbLine
 10
2763.315286878624
 20
-2682.569832402235
 30
0.0
 11
2763.315286878624
 21
-2530.055865921789
 31
0.0
  0
LINE
  5
83
330
1F
100
AcDbEntity
  8
4-4
  6
Continuous
 62
     7
370
     9
100
AcDbLine
 10
3843.315286878625
 20
-2003.968597061558
 30
0.0
 11
3843.315286878625
 21
-2453.968597061558
 31
0.0
  0
LINE
  5
84
330
1F
100
AcDbEntity
  8
4-4
  6
Continuous
 62
     7
370
     9
100
AcDbLine
 10
2913.315286878624
 20
-2003.968597061558
 30
0.0
 11
2913.315286878624
 21
-2453.968597061558
 31
0.0
  0
LINE
  5
85
330
1F
100
AcDbEntity
  8
2-2
  6
Continuous
 62
     7
370
     9
100
AcDbLine
 10
3871.985471949637
 20
3128.00332379887
 30
0.0
 11
4957.348600441257
 21
3128.00332379887
 31
0.0
  0
LINE
  5
86
330
1F
100
AcDbEntity
  8
2-2
  6
Continuous
 62
     7
370
     9
100
AcDbLine
 10
3316.985471949637
 20
3308.00332379887
 30
0.0
 11
3496.985471949637
 21
3308.00332379887
 31
0.0
  0
LINE
  5
87
330
1F
100
AcDbEntity
  8
2-2
  6
Continuous
 62
     7
370
     9
100
AcDbLine
 10
3316.985471949637
 20
3308.00332379887
 30
0.0
 11
3316.985471949637
 21
3128.00332379887
 31
0.0
  0
LINE
  5
88
330
1F
100
AcDbEntity
  8
2-2
  6
Continuous
 62
     7
370
     9
100
AcDbLine
 10
3496.985471949637
 20
3308.00332379887
 30
0.0
 11
3496.985471949637
 21
3128.00332379887
 31
0.0
  0
LINE
  5
89
330
1F
100
AcDbEntity
  8
2-2
  6
Continuous
 62
     7
370
     9
100
AcDbLine
 10
3691.985471949637
 20
3308.00332379887
 30
0.0
 11
3691.985471949637
 21
3128.00332379887
 31
0.0
  0
LINE
  5
8A
330
1F
100
AcDbEntity
  8
2-2
  6
Continuous
 62
     7
370
     9
100
AcDbLine
 10
3871.985471949637
 20
3308.00332379887
 30
0.0
 11
3871.985471949637
 21
3128.00332379887
 31
0.0
  0
LINE
  5
8B
330
1F
100
AcDbEntity
  8
2-2
  6
Continuous
 62
     7
370
     9
100
AcDbLine
 10
3691.985471949637
 20
3308.00332379887
 30
0.0
 11
3871.985471949637
 21
3308.00332379887
 31
0.0
  0
LINE
  5
8C
330
1F
100
AcDbEntity
  8
2-2
  6
Continuous
 62
     7
370
     9
100
AcDbLine
 10
3496.985471949637
 20
3128.00332379887
 30
0.0
 11
3691.985471949637
 21
3128.00332379887
 31
0.0
  0
TEXT
  5
8D
330
1F
100
AcDbEntity
  8
2-2
  6
Continuous
 62
     7
370
     9
100
AcDbText
 10
3350.086030608855
 20
1068.722206480435
 30
0.0
 40
91.44
  1
【天板溝加工　SCL=1/2】
 41
1.114130434782609
  7
ＭＳ ゴシック
100
AcDbText
  0
LINE
  5
8E
330
1F
100
AcDbEntity
  8
2-2
  6
Continuous
 62
     4
370
     5
100
AcDbLine
 10
3196.985471949637
 20
2114.899971843563
 30
0.0
 11
3496.985471949637
 21
2114.899971843563
 31
0.0
  0
LWPOLYLINE
  5
8F
330
1F
100
AcDbEntity
  8
2-2
  6
Continuous
 62
     4
370
     5
100
AcDbPolyline
 90
        4
 70
     1
 43
6.0
 10
3199.985471949637
 20
2114.899971843563
 42
0.4142135623731
 10
3196.985471949637
 20
2117.899971843563
 42
0.4142135623731
 10
3193.985471949637
 20
2114.899971843563
 42
0.4142135623731
 10
3196.985471949637
 20
2111.899971843563
 42
0.4142135623731
  0
LWPOLYLINE
  5
90
330
1F
100
AcDbEntity
  8
2-2
  6
Continuous
 62
     4
370
     5
100
AcDbPolyline
 90
        4
 70
     1
 43
6.0
 10
3499.985471949637
 20
2114.899971843563
 42
0.4142135623731
 10
3496.985471949637
 20
2117.899971843563
 42
0.4142135623731
 10
3493.985471949637
 20
2114.899971843563
 42
0.4142135623731
 10
3496.985471949637
 20
2111.899971843563
 42
0.4142135623731
  0
TEXT
  5
91
330
1F
100
AcDbEntity
  8
2-2
  6
Continuous
 62
     7
370
   211
100
AcDbText
 10
3283.235471949637
 20
2146.819971843563
 30
0.0
 40
91.44
  1
20
 41
1.0625
  7
ＭＳ ゴシック
100
AcDbText
  0
LINE
  5
92
330
1F
100
AcDbEntity
  8
2-2
  6
Continuous
 62
     4
370
     5
100
AcDbLine
 10
3496.985471949637
 20
2114.899971843563
 30
0.0
 11
3571.985471949637
 21
2114.899971843563
 31
0.0
  0
LWPOLYLINE
  5
93
330
1F
100
AcDbEntity
  8
2-2
  6
Continuous
 62
     4
370
     5
100
AcDbPolyline
 90
        4
 70
     1
 43
6.0
 10
3574.985471949637
 20
2114.899971843563
 42
0.4142135623731
 10
3571.985471949637
 20
2117.899971843563
 42
0.4142135623731
 10
3568.985471949637
 20
2114.899971843563
 42
0.4142135623731
 10
3571.985471949637
 20
2111.899971843563
 42
0.4142135623731
  0
TEXT
  5
94
330
1F
100
AcDbEntity
  8
2-2
  6
Continuous
 62
     7
370
   211
100
AcDbText
 10
3504.485471949637
 20
2146.819971843563
 30
0.0
 40
91.44
  1
5
  7
ＭＳ ゴシック
100
AcDbText
  0
LINE
  5
95
330
1F
100
AcDbEntity
  8
2-2
  6
Continuous
 62
     4
370
     5
100
AcDbLine
 10
3571.985471949637
 20
2114.899971843563
 30
0.0
 11
3871.985471949637
 21
2114.899971843563
 31
0.0
  0
LWPOLYLINE
  5
96
330
1F
100
AcDbEntity
  8
2-2
  6
Continuous
 62
     4
370
     5
100
AcDbPolyline
 90
        4
 70
     1
 43
6.0
 10
3874.985471949637
 20
2114.899971843563
 42
0.4142135623731
 10
3871.985471949637
 20
2117.899971843563
 42
0.4142135623731
 10
3868.985471949637
 20
2114.899971843563
 42
0.4142135623731
 10
3871.985471949637
 20
2111.899971843563
 42
0.4142135623731
  0
TEXT
  5
97
330
1F
100
AcDbEntity
  8
2-2
  6
Continuous
 62
     7
370
   211
100
AcDbText
 10
3658.235471949637
 20
2146.819971843563
 30
0.0
 40
91.44
  1
20
 41
1.0625
  7
ＭＳ ゴシック
100
AcDbText
  0
LINE
  5
98
330
1F
100
AcDbEntity
  8
2-2
  6
JWW_DASHED1
 62
     3
370
    13
100
AcDbLine
 10
3196.985471949637
 20
2512.919524916188
 30
0.0
 11
3196.985471949637
 21
3098.00332379887
 31
0.0
  0
LINE
  5
99
330
1F
100
AcDbEntity
  8
2-2
  6
JWW_DASHED1
 62
     3
370
    13
100
AcDbLine
 10
3196.985471949637
 20
3098.00332379887
 30
0.0
 11
3496.985471949637
 21
3098.00332379887
 31
0.0
  0
LINE
  5
9A
330
1F
100
AcDbEntity
  8
2-2
  6
JWW_DASHED1
 62
     3
370
    13
100
AcDbLine
 10
3496.985471949637
 20
3098.00332379887
 30
0.0
 11
3496.985471949637
 21
2512.919524916188
 31
0.0
  0
LINE
  5
9B
330
1F
100
AcDbEntity
  8
2-2
  6
JWW_DASHED1
 62
     3
370
    13
100
AcDbLine
 10
3571.985471949637
 20
2512.919524916188
 30
0.0
 11
3571.985471949637
 21
3098.00332379887
 31
0.0
  0
LINE
  5
9C
330
1F
100
AcDbEntity
  8
2-2
  6
JWW_DASHED1
 62
     3
370
    13
100
AcDbLine
 10
3571.985471949637
 20
3098.00332379887
 30
0.0
 11
3871.985471949637
 21
3098.00332379887
 31
0.0
  0
LINE
  5
9D
330
1F
100
AcDbEntity
  8
2-2
  6
JWW_DASHED1
 62
     3
370
    13
100
AcDbLine
 10
3871.985471949637
 20
3098.00332379887
 30
0.0
 11
3871.985471949637
 21
2512.919524916188
 31
0.0
  0
LINE
  5
9E
330
1F
100
AcDbEntity
  8
2-2
  6
JWW_DASHED1
 62
     3
370
    13
100
AcDbLine
 10
3871.985471949637
 20
2452.919524916188
 30
0.0
 11
3871.985471949637
 21
1882.835726033507
 31
0.0
  0
LINE
  5
9F
330
1F
100
AcDbEntity
  8
2-2
  6
JWW_DASHED1
 62
     3
370
    13
100
AcDbLine
 10
3871.985471949637
 20
1882.835726033507
 30
0.0
 11
3571.985471949637
 21
1882.835726033507
 31
0.0
  0
LINE
  5
A0
330
1F
100
AcDbEntity
  8
2-2
  6
JWW_DASHED1
 62
     3
370
    13
100
AcDbLine
 10
3571.985471949637
 20
1882.835726033507
 30
0.0
 11
3571.985471949637
 21
2452.919524916188
 31
0.0
  0
LINE
  5
A1
330
1F
100
AcDbEntity
  8
2-2
  6
JWW_DASHED1
 62
     3
370
    13
100
AcDbLine
 10
3496.985471949637
 20
2452.919524916188
 30
0.0
 11
3496.985471949637
 21
1882.835726033507
 31
0.0
  0
LINE
  5
A2
330
1F
100
AcDbEntity
  8
2-2
  6
JWW_DASHED1
 62
     3
370
    13
100
AcDbLine
 10
3496.985471949637
 20
1882.835726033507
 30
0.0
 11
3196.985471949637
 21
1882.835726033507
 31
0.0
  0
LINE
  5
A3
330
1F
100
AcDbEntity
  8
2-2
  6
JWW_CENTER1
 62
     3
370
    13
100
AcDbLine
 10
4957.348600441257
 20
3855.712821005573
 30
0.0
 11
4957.348600441257
 21
2481.159748379876
 31
0.0
  0
LINE
  5
A4
330
1F
100
AcDbEntity
  8
2-2
  6
JWW_CENTER1
 62
     3
370
    13
100
AcDbLine
 10
4957.348600441257
 20
2481.159748379876
 30
0.0
 11
4987.348600441257
 21
2451.159748379876
 31
0.0
  0
LINE
  5
A5
330
1F
100
AcDbEntity
  8
2-2
  6
JWW_CENTER1
 62
     3
370
    13
100
AcDbLine
 10
4987.348600441257
 20
2451.159748379876
 30
0.0
 11
4927.348600441257
 21
2421.159748379876
 31
0.0
  0
LINE
  5
A6
330
1F
100
AcDbEntity
  8
2-2
  6
JWW_CENTER1
 62
     3
370
    13
100
AcDbLine
 10
4927.348600441257
 20
2421.159748379876
 30
0.0
 11
4957.348600441257
 21
2391.159748379876
 31
0.0
  0
LINE
  5
A7
330
1F
100
AcDbEntity
  8
2-2
  6
JWW_CENTER1
 62
     3
370
    13
100
AcDbLine
 10
4957.348600441257
 20
2391.159748379876
 30
0.0
 11
4957.348600441257
 21
1086.997737206691
 31
0.0
  0
LINE
  5
A8
330
1F
100
AcDbEntity
  8
2-2
  6
Continuous
 62
     4
370
     5
100
AcDbLine
 10
3196.985471949637
 20
2114.899971843563
 30
0.0
 11
2596.985471949637
 21
2114.899971843563
 31
0.0
  0
LINE
  5
A9
330
1F
100
AcDbEntity
  8
2-2
  6
Continuous
 62
     7
370
     9
100
AcDbLine
 10
3196.985471949637
 20
2114.899971843563
 30
0.0
 11
3196.985471949637
 21
1882.835726033507
 31
0.0
  0
LINE
  5
AA
330
1F
100
AcDbEntity
  8
2-2
  6
Continuous
 62
     4
370
     5
100
AcDbLine
 10
3871.985471949637
 20
2916.944341533335
 30
0.0
 11
3691.985471949637
 21
2916.944341533335
 31
0.0
  0
LWPOLYLINE
  5
AB
330
1F
100
AcDbEntity
  8
2-2
  6
Continuous
 62
     4
370
     5
100
AcDbPolyline
 90
        4
 70
     1
 43
6.0
 10
3874.985471949637
 20
2916.944341533335
 42
0.4142135623731
 10
3871.985471949637
 20
2919.944341533335
 42
0.4142135623731
 10
3868.985471949637
 20
2916.944341533335
 42
0.4142135623731
 10
3871.985471949637
 20
2913.944341533336
 42
0.4142135623731
  0
LWPOLYLINE
  5
AC
330
1F
100
AcDbEntity
  8
2-2
  6
Continuous
 62
     4
370
     5
100
AcDbPolyline
 90
        4
 70
     1
 43
6.0
 10
3694.985471949637
 20
2916.944341533335
 42
0.4142135623731
 10
3691.985471949637
 20
2919.944341533335
 42
0.4142135623731
 10
3688.985471949637
 20
2916.944341533335
 42
0.4142135623731
 10
3691.985471949637
 20
2913.944341533336
 42
0.4142135623731
  0
LINE
  5
AD
330
1F
100
AcDbEntity
  8
2-2
  6
Continuous
 62
     7
370
     9
100
AcDbLine
 10
3871.985471949637
 20
2916.944341533335
 30
0.0
 11
3871.985471949637
 21
3032.210099407573
 31
0.0
  0
LINE
  5
AE
330
1F
100
AcDbEntity
  8
2-2
  6
Continuous
 62
     7
370
     9
100
AcDbLine
 10
3691.985471949637
 20
2916.944341533335
 30
0.0
 11
3691.985471949637
 21
3032.210099407573
 31
0.0
  0
TEXT
  5
AF
330
1F
100
AcDbEntity
  8
2-2
  6
Continuous
 62
     7
370
   211
100
AcDbText
 10
3718.235471949637
 20
2948.864341533335
 30
0.0
 40
91.44
  1
12
 41
1.0625
  7
ＭＳ ゴシック
100
AcDbText
  0
LINE
  5
B0
330
1F
100
AcDbEntity
  8
2-2
  6
Continuous
 62
     4
370
     5
100
AcDbLine
 10
3691.985471949637
 20
2916.944341533335
 30
0.0
 11
3496.985471949637
 21
2916.944341533335
 31
0.0
  0
LWPOLYLINE
  5
B1
330
1F
100
AcDbEntity
  8
2-2
  6
Continuous
 62
     4
370
     5
100
AcDbPolyline
 90
        4
 70
     1
 43
6.0
 10
3499.985471949637
 20
2916.944341533335
 42
0.4142135623731
 10
3496.985471949637
 20
2919.944341533335
 42
0.4142135623731
 10
3493.985471949637
 20
2916.944341533335
 42
0.4142135623731
 10
3496.985471949637
 20
2913.944341533336
 42
0.4142135623731
  0
LINE
  5
B2
330
1F
100
AcDbEntity
  8
2-2
  6
Continuous
 62
     7
370
     9
100
AcDbLine
 10
3496.985471949637
 20
2916.944341533335
 30
0.0
 11
3496.985471949637
 21
3032.210099407573
 31
0.0
  0
TEXT
  5
B3
330
1F
100
AcDbEntity
  8
2-2
  6
Continuous
 62
     7
370
   211
100
AcDbText
 10
3530.735471949637
 20
2948.864341533335
 30
0.0
 40
91.44
  1
13
 41
1.0625
  7
ＭＳ ゴシック
100
AcDbText
  0
LINE
  5
B4
330
1F
100
AcDbEntity
  8
2-2
  6
Continuous
 62
     4
370
     5
100
AcDbLine
 10
3496.985471949637
 20
2916.944341533335
 30
0.0
 11
3316.985471949637
 21
2916.944341533335
 31
0.0
  0
LWPOLYLINE
  5
B5
330
1F
100
AcDbEntity
  8
2-2
  6
Continuous
 62
     4
370
     5
100
AcDbPolyline
 90
        4
 70
     1
 43
6.0
 10
3319.985471949637
 20
2916.944341533335
 42
0.4142135623731
 10
3316.985471949637
 20
2919.944341533335
 42
0.4142135623731
 10
3313.985471949637
 20
2916.944341533335
 42
0.4142135623731
 10
3316.985471949637
 20
2913.944341533336
 42
0.4142135623731
  0
LINE
  5
B6
330
1F
100
AcDbEntity
  8
2-2
  6
Continuous
 62
     7
370
     9
100
AcDbLine
 10
3316.985471949637
 20
2916.944341533335
 30
0.0
 11
3316.985471949637
 21
3032.210099407573
 31
0.0
  0
TEXT
  5
B7
330
1F
100
AcDbEntity
  8
2-2
  6
Continuous
 62
     7
370
   211
100
AcDbText
 10
3343.235471949637
 20
2948.864341533335
 30
0.0
 40
91.44
  1
12
 41
1.0625
  7
ＭＳ ゴシック
100
AcDbText
  0
LINE
  5
B8
330
1F
100
AcDbEntity
  8
2-2
  6
Continuous
 62
     4
370
     5
100
AcDbLine
 10
3316.985471949637
 20
2916.944341533335
 30
0.0
 11
3166.985471949637
 21
2916.944341533335
 31
0.0
  0
LWPOLYLINE
  5
B9
330
1F
100
AcDbEntity
  8
2-2
  6
Continuous
 62
     4
370
     5
100
AcDbPolyline
 90
        4
 70
     1
 43
6.0
 10
3169.985471949637
 20
2916.944341533335
 42
0.4142135623731
 10
3166.985471949637
 20
2919.944341533335
 42
0.4142135623731
 10
3163.985471949637
 20
2916.944341533335
 42
0.4142135623731
 10
3166.985471949637
 20
2913.944341533336
 42
0.4142135623731
  0
LINE
  5
BA
330
1F
100
AcDbEntity
  8
2-2
  6
Continuous
 62
     7
370
     9
100
AcDbLine
 10
3166.985471949637
 20
2916.944341533335
 30
0.0
 11
3166.985471949637
 21
3032.210099407573
 31
0.0
  0
TEXT
  5
BB
330
1F
100
AcDbEntity
  8
2-2
  6
Continuous
 62
     7
370
   211
100
AcDbText
 10
3178.235471949637
 20
2948.864341533335
 30
0.0
 40
91.44
  1
10
 41
1.0625
  7
ＭＳ ゴシック
100
AcDbText
  0
LINE
  5
BC
330
1F
100
AcDbEntity
  8
2-2
  6
Continuous
 62
     4
370
     5
100
AcDbLine
 10
2090.881589907186
 20
3128.00332379887
 30
0.0
 11
2090.881589907186
 21
3098.00332379887
 31
0.0
  0
LWPOLYLINE
  5
BD
330
1F
100
AcDbEntity
  8
2-2
  6
Continuous
 62
     4
370
     5
100
AcDbPolyline
 90
        4
 70
     1
 43
6.0
 10
2093.881589907186
 20
3128.00332379887
 42
0.4142135623731
 10
2090.881589907186
 20
3131.00332379887
 42
0.4142135623731
 10
2087.881589907186
 20
3128.00332379887
 42
0.4142135623731
 10
2090.881589907186
 20
3125.00332379887
 42
0.4142135623731
  0
LWPOLYLINE
  5
BE
330
1F
100
AcDbEntity
  8
2-2
  6
Continuous
 62
     4
370
     5
100
AcDbPolyline
 90
        4
 70
     1
 43
6.0
 10
2093.881589907186
 20
3098.00332379887
 42
0.4142135623731
 10
2090.881589907186
 20
3101.00332379887
 42
0.4142135623731
 10
2087.881589907186
 20
3098.00332379887
 42
0.4142135623731
 10
2090.881589907186
 20
3095.00332379887
 42
0.4142135623731
  0
LINE
  5
BF
330
1F
100
AcDbEntity
  8
2-2
  6
Continuous
 62
     7
370
     9
100
AcDbLine
 10
2090.881589907186
 20
3128.00332379887
 30
0.0
 11
2279.285839627104
 21
3128.00332379887
 31
0.0
  0
LINE
  5
C0
330
1F
100
AcDbEntity
  8
2-2
  6
Continuous
 62
     7
370
     9
100
AcDbLine
 10
2090.881589907186
 20
3098.00332379887
 30
0.0
 11
2279.285839627104
 21
3098.00332379887
 31
0.0
  0
TEXT
  5
C1
330
1F
100
AcDbEntity
  8
2-2
  6
Continuous
 62
     7
370
   211
100
AcDbText
 10
2058.961589907186
 20
3083.00332379887
 30
0.0
 40
91.44
  1
2
 50
90.0
  7
ＭＳ ゴシック
100
AcDbText
  0
LINE
  5
C2
330
1F
100
AcDbEntity
  8
2-2
  6
Continuous
 62
     4
370
     5
100
AcDbLine
 10
2090.881589907186
 20
1882.835726033507
 30
0.0
 11
2090.881589907186
 21
1837.835726033507
 31
0.0
  0
LWPOLYLINE
  5
C3
330
1F
100
AcDbEntity
  8
2-2
  6
Continuous
 62
     4
370
     5
100
AcDbPolyline
 90
        4
 70
     1
 43
6.0
 10
2093.881589907186
 20
1882.835726033507
 42
0.4142135623731
 10
2090.881589907186
 20
1885.835726033507
 42
0.4142135623731
 10
2087.881589907186
 20
1882.835726033507
 42
0.4142135623731
 10
2090.881589907186
 20
1879.835726033506
 42
0.4142135623731
  0
LWPOLYLINE
  5
C4
330
1F
100
AcDbEntity
  8
2-2
  6
Continuous
 62
     4
370
     5
100
AcDbPolyline
 90
        4
 70
     1
 43
6.0
 10
2093.881589907186
 20
1837.835726033507
 42
0.4142135623731
 10
2090.881589907186
 20
1840.835726033507
 42
0.4142135623731
 10
2087.881589907186
 20
1837.835726033507
 42
0.4142135623731
 10
2090.881589907186
 20
1834.835726033506
 42
0.4142135623731
  0
LINE
  5
C5
330
1F
100
AcDbEntity
  8
2-2
  6
Continuous
 62
     7
370
     9
100
AcDbLine
 10
2090.881589907186
 20
1882.835726033507
 30
0.0
 11
2279.285839627104
 21
1882.835726033507
 31
0.0
  0
LINE
  5
C6
330
1F
100
AcDbEntity
  8
2-2
  6
Continuous
 62
     7
370
     9
100
AcDbLine
 10
1831.949892535761
 20
1837.835726033507
 30
0.0
 11
2279.285839627104
 21
1837.835726033507
 31
0.0
  0
TEXT
  5
C7
330
1F
100
AcDbEntity
  8
2-2
  6
Continuous
 62
     7
370
   211
100
AcDbText
 10
2058.961589907186
 20
1830.335726033507
 30
0.0
 40
91.44
  1
3
 50
90.0
  7
ＭＳ ゴシック
100
AcDbText
  0
LINE
  5
C8
330
1F
100
AcDbEntity
  8
2-2
  6
Continuous
 62
     4
370
     5
100
AcDbLine
 10
2090.881589907186
 20
3128.00332379887
 30
0.0
 11
2090.881589907186
 21
3308.00332379887
 31
0.0
  0
LWPOLYLINE
  5
C9
330
1F
100
AcDbEntity
  8
2-2
  6
Continuous
 62
     4
370
     5
100
AcDbPolyline
 90
        4
 70
     1
 43
6.0
 10
2093.881589907186
 20
3308.00332379887
 42
0.4142135623731
 10
2090.881589907186
 20
3311.00332379887
 42
0.4142135623731
 10
2087.881589907186
 20
3308.00332379887
 42
0.4142135623731
 10
2090.881589907186
 20
3305.00332379887
 42
0.4142135623731
  0
LINE
  5
CA
330
1F
100
AcDbEntity
  8
2-2
  6
Continuous
 62
     7
370
     9
100
AcDbLine
 10
2090.881589907186
 20
3308.00332379887
 30
0.0
 11
2279.285839627104
 21
3308.00332379887
 31
0.0
  0
TEXT
  5
CB
330
1F
100
AcDbEntity
  8
2-2
  6
Continuous
 62
     7
370
   211
100
AcDbText
 10
2212.785773911336
 20
3159.255006167645
 30
0.0
 40
91.44
  1
12
 50
90.0
 41
1.0625
  7
ＭＳ ゴシック
100
AcDbText
  0
LINE
  5
CC
330
1F
100
AcDbEntity
  8
2-2
  6
Continuous
 62
     4
370
     5
100
AcDbLine
 10
2090.881589907186
 20
3098.00332379887
 30
0.0
 11
2090.881589907186
 21
1882.835726033507
 31
0.0
  0
TEXT
  5
CD
330
1F
100
AcDbEntity
  8
2-2
  6
Continuous
 62
     7
370
   211
100
AcDbText
 10
2064.235054722182
 20
2178.059189720658
 30
0.0
 40
91.44
  1
引戸H=723
 50
90.0
 41
1.111111111111111
  7
ＭＳ ゴシック
100
AcDbText
  0
LINE
  5
CE
330
1F
100
AcDbEntity
  8
2-2
  6
Continuous
 62
     7
370
     9
100
AcDbLine
 10
1831.949892535761
 20
1387.835726033507
 30
0.0
 11
2279.285839627104
 21
1387.835726033507
 31
0.0
  0
LINE
  5
CF
330
1F
100
AcDbEntity
  8
2-2
  6
Continuous
 62
     4
370
     5
100
AcDbLine
 10
1831.949892535761
 20
1837.835726033507
 30
0.0
 11
1831.949892535761
 21
1387.835726033507
 31
0.0
  0
LWPOLYLINE
  5
D0
330
1F
100
AcDbEntity
  8
2-2
  6
Continuous
 62
     4
370
     5
100
AcDbPolyline
 90
        4
 70
     1
 43
6.0
 10
1834.949892535761
 20
1837.835726033507
 42
0.4142135623731
 10
1831.949892535761
 20
1840.835726033507
 42
0.4142135623731
 10
1828.949892535761
 20
1837.835726033507
 42
0.4142135623731
 10
1831.949892535761
 20
1834.835726033506
 42
0.4142135623731
  0
LWPOLYLINE
  5
D1
330
1F
100
AcDbEntity
  8
2-2
  6
Continuous
 62
     4
370
     5
100
AcDbPolyline
 90
        4
 70
     1
 43
6.0
 10
1834.949892535761
 20
1387.835726033507
 42
0.4142135623731
 10
1831.949892535761
 20
1390.835726033507
 42
0.4142135623731
 10
1828.949892535761
 20
1387.835726033507
 42
0.4142135623731
 10
1831.949892535761
 20
1384.835726033506
 42
0.4142135623731
  0
TEXT
  5
D2
330
1F
100
AcDbEntity
  8
2-2
  6
Continuous
 62
     7
370
   211
100
AcDbText
 10
1798.153078453804
 20
1286.930635680522
 30
0.0
 40
91.44
  1
30(ｶｳﾝﾀｰ厚)
 50
90.0
 41
1.113636363636362
  7
ＭＳ ゴシック
100
AcDbText
  0
LINE
  5
D3
330
1F
100
AcDbEntity
  8
4-4
  6
Continuous
 62
     4
370
     5
100
AcDbLine
 10
-4740.707058719162
 20
264.031402938443
 30
0.0
 11
-4740.707058719162
 21
-1910.968597061558
 31
0.0
  0
LINE
  5
D4
330
1F
100
AcDbEntity
  8
4-4
  6
Continuous
 62
     4
370
     5
100
AcDbLine
 10
-4740.707058719162
 20
-2003.968597061558
 30
0.0
 11
-4740.707058719162
 21
-2453.968597061558
 31
0.0
  0
LWPOLYLINE
  5
D5
330
1F
100
AcDbEntity
  8
4-4
  6
Continuous
 62
     4
370
     5
100
AcDbPolyline
 90
        4
 70
     1
 43
6.0
 10
-4737.707058719162
 20
-2453.968597061558
 42
0.4142135623731
 10
-4740.707058719162
 20
-2450.968597061558
 42
0.4142135623731
 10
-4743.707058719162
 20
-2453.968597061558
 42
0.4142135623731
 10
-4740.707058719162
 20
-2456.968597061557
 42
0.4142135623731
  0
TEXT
  5
D6
330
1F
100
AcDbEntity
  8
4-4
  6
Continuous
 62
     7
370
   211
100
AcDbText
 10
-4772.627058719162
 20
-2326.468597061558
 30
0.0
 40
91.44
  1
150
 50
90.0
 41
1.083333333333333
  7
ＭＳ ゴシック
100
AcDbText
  0
TEXT
  5
D7
330
1F
100
AcDbEntity
  8
4-4
  6
Continuous
 62
     7
370
   211
100
AcDbText
 10
-4845.096261946375
 20
145.6824317807346
 30
0.0
 40
91.44
  1
2
 50
90.0
  7
ＭＳ ゴシック
100
AcDbText
  0
TEXT
  5
D8
330
1F
100
AcDbEntity
  8
4-4
  6
Continuous
 62
     7
370
   211
100
AcDbText
 10
-4859.460544300835
 20
-1858.134956666414
 30
0.0
 40
91.44
  1
3
 50
90.0
  7
ＭＳ ゴシック
100
AcDbText
  0
LINE
  5
D9
330
1F
100
AcDbEntity
  8
4-4
  6
Continuous
 62
     3
370
    13
100
AcDbLine
 10
-4821.473285539295
 20
180.8816307571607
 30
0.0
 11
-4727.564992652611
 21
266.3622563335011
 31
0.0
  0
LINE
  5
DA
330
1F
100
AcDbEntity
  8
4-4
  6
Continuous
 62
     3
370
    13
100
AcDbLine
 10
-4838.961757052261
 20
-1842.420505725693
 30
0.0
 11
-4723.853897476482
 21
-1908.927269036144
 31
0.0
  0
LINE
  5
DB
330
1F
100
AcDbEntity
  8
4-4
  6
Continuous
 62
     4
370
     5
100
AcDbLine
 10
-4986.978587014454
 20
360.0314029384418
 30
0.0
 11
-4986.978587014454
 21
-2003.968597061558
 31
0.0
  0
LINE
  5
DC
330
1F
100
AcDbEntity
  8
4-4
  6
Continuous
 62
     4
370
     5
100
AcDbLine
 10
-4740.707058719162
 20
354.0314029384422
 30
0.0
 11
-4740.707058719162
 21
264.0314029384422
 31
0.0
  0
LWPOLYLINE
  5
DD
330
1F
100
AcDbEntity
  8
4-4
  6
Continuous
 62
     4
370
     5
100
AcDbPolyline
 90
        4
 70
     1
 43
6.0
 10
-4737.707058719162
 20
354.0314029384422
 42
0.4142135623731
 10
-4740.707058719162
 20
357.0314029384422
 42
0.4142135623731
 10
-4743.707058719162
 20
354.0314029384422
 42
0.4142135623731
 10
-4740.707058719162
 20
351.0314029384422
 42
0.4142135623731
  0
LWPOLYLINE
  5
DE
330
1F
100
AcDbEntity
  8
4-4
  6
Continuous
 62
     4
370
     5
100
AcDbPolyline
 90
        4
 70
     1
 43
6.0
 10
-4737.707058719162
 20
264.0314029384422
 42
0.4142135623731
 10
-4740.707058719162
 20
267.0314029384422
 42
0.4142135623731
 10
-4743.707058719162
 20
264.0314029384422
 42
0.4142135623731
 10
-4740.707058719162
 20
261.0314029384422
 42
0.4142135623731
  0
LINE
  5
DF
330
1F
100
AcDbEntity
  8
4-4
  6
Continuous
 62
     7
370
     9
100
AcDbLine
 10
-4986.978587014454
 20
354.0314029384422
 30
0.0
 11
-4443.981077207334
 21
354.0314029384422
 31
0.0
  0
LINE
  5
E0
330
1F
100
AcDbEntity
  8
4-4
  6
Continuous
 62
     7
370
     9
100
AcDbLine
 10
-4740.707058719162
 20
264.0314029384422
 30
0.0
 11
-4443.981077207334
 21
264.0314029384422
 31
0.0
  0
LWPOLYLINE
  5
E1
330
1F
100
AcDbEntity
  8
4-4
  6
Continuous
 62
     4
370
     5
100
AcDbPolyline
 90
        4
 70
     1
 43
6.0
 10
-4737.707058719162
 20
258.0314029384425
 42
0.4142135623731
 10
-4740.707058719162
 20
261.0314029384425
 42
0.4142135623731
 10
-4743.707058719162
 20
258.0314029384425
 42
0.4142135623731
 10
-4740.707058719162
 20
255.0314029384425
 42
0.4142135623731
  0
LINE
  5
E2
330
1F
100
AcDbEntity
  8
4-4
  6
Continuous
 62
     7
370
     9
100
AcDbLine
 10
-4740.707058719162
 20
258.0314029384425
 30
0.0
 11
-4443.981077207334
 21
258.0314029384425
 31
0.0
  0
LWPOLYLINE
  5
E3
330
1F
100
AcDbEntity
  8
4-4
  6
Continuous
 62
     4
370
     5
100
AcDbPolyline
 90
        4
 70
     1
 43
6.0
 10
-4983.978587014454
 20
354.0314029384422
 42
0.4142135623731
 10
-4986.978587014454
 20
357.0314029384422
 42
0.4142135623731
 10
-4989.978587014454
 20
354.0314029384422
 42
0.4142135623731
 10
-4986.978587014454
 20
351.0314029384422
 42
0.4142135623731
  0
TEXT
  5
E4
330
1F
100
AcDbEntity
  8
4-4
  6
Continuous
 62
     7
370
   211
100
AcDbText
 10
-4773.807103627266
 20
221.4928997222316
 30
0.0
 40
91.44
  1
30
 50
90.0
 41
1.0625
  7
ＭＳ ゴシック
100
AcDbText
  0
LWPOLYLINE
  5
E5
330
1F
100
AcDbEntity
  8
4-4
  6
Continuous
 62
     4
370
     5
100
AcDbPolyline
 90
        4
 70
     1
 43
6.0
 10
-4737.707058719162
 20
-1901.968597061557
 42
0.4142135623731
 10
-4740.707058719162
 20
-1898.968597061557
 42
0.4142135623731
 10
-4743.707058719162
 20
-1901.968597061557
 42
0.4142135623731
 10
-4740.707058719162
 20
-1904.968597061558
 42
0.4142135623731
  0
LINE
  5
E6
330
1F
100
AcDbEntity
  8
4-4
  6
Continuous
 62
     7
370
     9
100
AcDbLine
 10
-4740.707058719162
 20
-1901.968597061557
 30
0.0
 11
-4443.981077207334
 21
-1901.968597061557
 31
0.0
  0
LWPOLYLINE
  5
E7
330
1F
100
AcDbEntity
  8
4-4
  6
Continuous
 62
     4
370
     5
100
AcDbPolyline
 90
        4
 70
     1
 43
6.0
 10
-4737.707058719162
 20
-1910.968597061558
 42
0.4142135623731
 10
-4740.707058719162
 20
-1907.968597061558
 42
0.4142135623731
 10
-4743.707058719162
 20
-1910.968597061558
 42
0.4142135623731
 10
-4740.707058719162
 20
-1913.968597061558
 42
0.4142135623731
  0
LINE
  5
E8
330
1F
100
AcDbEntity
  8
4-4
  6
Continuous
 62
     7
370
     9
100
AcDbLine
 10
-4740.707058719162
 20
-1910.968597061558
 30
0.0
 11
-4443.981077207334
 21
-1910.968597061558
 31
0.0
  0
LINE
  5
E9
330
1F
100
AcDbEntity
  8
4-4
  6
Continuous
 62
     4
370
     5
100
AcDbLine
 10
-4740.707058719162
 20
-1910.968597061558
 30
0.0
 11
-4740.707058719162
 21
-2000.968597061558
 31
0.0
  0
LWPOLYLINE
  5
EA
330
1F
100
AcDbEntity
  8
4-4
  6
Continuous
 62
     4
370
     5
100
AcDbPolyline
 90
        4
 70
     1
 43
6.0
 10
-4737.707058719162
 20
-2000.968597061558
 42
0.4142135623731
 10
-4740.707058719162
 20
-1997.968597061558
 42
0.4142135623731
 10
-4743.707058719162
 20
-2000.968597061558
 42
0.4142135623731
 10
-4740.707058719162
 20
-2003.968597061558
 42
0.4142135623731
  0
LINE
  5
EB
330
1F
100
AcDbEntity
  8
4-4
  6
Continuous
 62
     7
370
     9
100
AcDbLine
 10
-4986.978587014454
 20
-2000.968597061558
 30
0.0
 11
-4443.981077207334
 21
-2000.968597061558
 31
0.0
  0
LWPOLYLINE
  5
EC
330
1F
100
AcDbEntity
  8
4-4
  6
Continuous
 62
     4
370
     5
100
AcDbPolyline
 90
        4
 70
     1
 43
6.0
 10
-4983.978587014454
 20
-2000.968597061558
 42
0.4142135623731
 10
-4986.978587014454
 20
-1997.968597061558
 42
0.4142135623731
 10
-4989.978587014454
 20
-2000.968597061558
 42
0.4142135623731
 10
-4986.978587014454
 20
-2003.968597061558
 42
0.4142135623731
  0
TEXT
  5
ED
330
1F
100
AcDbEntity
  8
4-4
  6
Continuous
 62
     7
370
   211
100
AcDbText
 10
-4783.048388231366
 20
-1998.459068069037
 30
0.0
 40
91.44
  1
30
 50
90.0
 41
1.0625
  7
ＭＳ ゴシック
100
AcDbText
  0
TEXT
  5
EE
330
1F
100
AcDbEntity
  8
4-4
  6
Continuous
 62
     7
370
   211
100
AcDbText
 10
-4772.627058719162
 20
-919.4685970615575
 30
0.0
 40
91.44
  1
720
 50
90.0
 41
1.083333333333333
  7
ＭＳ ゴシック
100
AcDbText
  0
TEXT
  5
EF
330
1F
100
AcDbEntity
  8
4-4
  6
Continuous
 62
     7
370
   211
100
AcDbText
 10
-5018.898587014454
 20
-920.9685970615574
 30
0.0
 40
91.44
  1
785(ﾎﾞｯｸｽH）
 50
90.0
 41
1.104166666666667
  7
ＭＳ ゴシック
100
AcDbText
  0
LINE
  5
F0
330
1F
100
AcDbEntity
  8
4-4
  6
Continuous
 62
     3
370
    13
100
AcDbLine
 10
2937.315286878624
 20
306.0314029384423
 30
0.0
 11
2973.315286878624
 21
306.0314029384423
 31
0.0
  0
LINE
  5
F1
330
1F
100
AcDbEntity
  8
4-4
  6
Continuous
 62
     3
370
    13
100
AcDbLine
 10
2937.315286878624
 20
270.0314029384435
 30
0.0
 11
2937.315286878624
 21
306.0314029384423
 31
0.0
  0
LINE
  5
F2
330
1F
100
AcDbEntity
  8
4-4
  6
Continuous
 62
     3
370
    13
100
AcDbLine
 10
2973.315286878624
 20
270.0314029384435
 30
0.0
 11
2973.315286878624
 21
306.0314029384423
 31
0.0
  0
LINE
  5
F3
330
1F
100
AcDbEntity
  8
4-4
  6
Continuous
 62
     3
370
    13
100
AcDbLine
 10
2862.315286878624
 20
306.0314029384423
 30
0.0
 11
2898.315286878624
 21
306.0314029384423
 31
0.0
  0
LINE
  5
F4
330
1F
100
AcDbEntity
  8
4-4
  6
Continuous
 62
     3
370
    13
100
AcDbLine
 10
2862.315286878624
 20
270.0314029384435
 30
0.0
 11
2862.315286878624
 21
306.0314029384423
 31
0.0
  0
LINE
  5
F5
330
1F
100
AcDbEntity
  8
4-4
  6
Continuous
 62
     3
370
    13
100
AcDbLine
 10
2898.315286878624
 20
270.0314029384435
 30
0.0
 11
2898.315286878624
 21
306.0314029384423
 31
0.0
  0
LINE
  5
F6
330
1F
100
AcDbEntity
  8
4-4
  6
Continuous
 62
     7
370
     9
100
AcDbLine
 10
2838.315286878624
 20
264.031402938443
 30
0.0
 11
2898.315286878624
 21
264.031402938443
 31
0.0
  0
LINE
  5
F7
330
1F
100
AcDbEntity
  8
4-4
  6
Continuous
 62
     7
370
     9
100
AcDbLine
 10
2913.315286878624
 20
264.031402938443
 30
0.0
 11
2973.315286878624
 21
264.031402938443
 31
0.0
  0
LINE
  5
F8
330
1F
100
AcDbEntity
  8
4-4
  6
Continuous
 62
     7
370
     9
100
AcDbLine
 10
2898.315286878624
 20
270.0314029384435
 30
0.0
 11
2937.315286878624
 21
270.0314029384435
 31
0.0
  0
LINE
  5
F9
330
1F
100
AcDbEntity
  8
4-4
  6
Continuous
 62
     7
370
     9
100
AcDbLine
 10
2973.315286878624
 20
264.031402938443
 30
0.0
 11
2973.315286878624
 21
-1904.968597061558
 31
0.0
  0
LINE
  5
FA
330
1F
100
AcDbEntity
  8
4-4
  6
Continuous
 62
     7
370
     9
100
AcDbLine
 10
2913.315286878624
 20
264.031402938443
 30
0.0
 11
2913.315286878624
 21
-1904.968597061558
 31
0.0
  0
LINE
  5
FB
330
1F
100
AcDbEntity
  8
4-4
  6
Continuous
 62
     7
370
     9
100
AcDbLine
 10
2898.315286878624
 20
264.031402938443
 30
0.0
 11
2898.315286878624
 21
-1904.968597061558
 31
0.0
  0
LINE
  5
FC
330
1F
100
AcDbEntity
  8
4-4
  6
Continuous
 62
     7
370
     9
100
AcDbLine
 10
2838.315286878624
 20
264.031402938443
 30
0.0
 11
2838.315286878624
 21
-1904.968597061558
 31
0.0
  0
LINE
  5
FD
330
1F
100
AcDbEntity
  8
4-4
  6
Continuous
 62
     7
370
     9
100
AcDbLine
 10
2838.315286878624
 20
-1904.968597061558
 30
0.0
 11
2898.315286878624
 21
-1904.968597061558
 31
0.0
  0
LINE
  5
FE
330
1F
100
AcDbEntity
  8
4-4
  6
Continuous
 62
     7
370
     9
100
AcDbLine
 10
2913.315286878624
 20
-1904.968597061558
 30
0.0
 11
2973.315286878624
 21
-1904.968597061558
 31
0.0
  0
LINE
  5
FF
330
1F
100
AcDbEntity
  8
4-4
  6
Continuous
 62
     7
370
     9
100
AcDbLine
 10
2988.315286878624
 20
270.0314029384435
 30
0.0
 11
2988.315286878624
 21
-1913.968597061558
 31
0.0
  0
LINE
  5
100
330
1F
100
AcDbEntity
  8
4-4
  6
Continuous
 62
     7
370
     9
100
AcDbLine
 10
2973.315286878624
 20
270.0314029384435
 30
0.0
 11
3963.315286878625
 21
270.0314029384435
 31
0.0
  0
LINE
  5
101
330
1F
100
AcDbEntity
  8
4-4
  6
Continuous
 62
     7
370
     9
100
AcDbLine
 10
2718.315286878624
 20
360.0314029384435
 30
0.0
 11
3963.315286878625
 21
360.0314029384435
 31
0.0
  0
LINE
  5
102
330
1F
100
AcDbEntity
  8
4-4
  6
Continuous
 62
     7
370
     9
100
AcDbLine
 10
2718.315286878624
 20
270.0314029384435
 30
0.0
 11
2718.315286878624
 21
360.0314029384435
 31
0.0
  0
LINE
  5
103
330
1F
100
AcDbEntity
  8
4-4
  6
Continuous
 62
     7
370
     9
100
AcDbLine
 10
2718.315286878624
 20
270.0314029384435
 30
0.0
 11
2862.315286878624
 21
270.0314029384435
 31
0.0
  0
LINE
  5
104
330
1F
100
AcDbEntity
  8
4-4
  6
Continuous
 62
     7
370
     9
100
AcDbLine
 10
2718.315286878624
 20
-1913.968597061558
 30
0.0
 11
3963.315286878625
 21
-1913.968597061558
 31
0.0
  0
LINE
  5
105
330
1F
100
AcDbEntity
  8
4-4
  6
Continuous
 62
     7
370
     9
100
AcDbLine
 10
2718.315286878624
 20
-1913.968597061558
 30
0.0
 11
2718.315286878624
 21
-2003.968597061558
 31
0.0
  0
LINE
  5
106
330
1F
100
AcDbEntity
  8
4-4
  6
Continuous
 62
     7
370
     9
100
AcDbLine
 10
2718.315286878624
 20
-2003.968597061558
 30
0.0
 11
3963.315286878625
 21
-2003.968597061558
 31
0.0
  0
LINE
  5
107
330
1F
100
AcDbEntity
  8
4-4
  6
Continuous
 62
     4
370
     5
100
AcDbLine
 10
2718.315286878624
 20
-2682.569832402235
 30
0.0
 11
2838.315286878624
 21
-2682.569832402235
 31
0.0
  0
LWPOLYLINE
  5
108
330
1F
100
AcDbEntity
  8
4-4
  6
Continuous
 62
     4
370
     5
100
AcDbPolyline
 90
        4
 70
     1
 43
6.0
 10
2721.315286878624
 20
-2682.569832402235
 42
0.4142135623731
 10
2718.315286878624
 20
-2679.569832402235
 42
0.4142135623731
 10
2715.315286878624
 20
-2682.569832402235
 42
0.4142135623731
 10
2718.315286878624
 20
-2685.569832402235
 42
0.4142135623731
  0
LWPOLYLINE
  5
109
330
1F
100
AcDbEntity
  8
4-4
  6
Continuous
 62
     4
370
     5
100
AcDbPolyline
 90
        4
 70
     1
 43
6.0
 10
2841.315286878624
 20
-2682.569832402235
 42
0.4142135623731
 10
2838.315286878624
 20
-2679.569832402235
 42
0.4142135623731
 10
2835.315286878624
 20
-2682.569832402235
 42
0.4142135623731
 10
2838.315286878624
 20
-2685.569832402235
 42
0.4142135623731
  0
LINE
  5
10A
330
1F
100
AcDbEntity
  8
4-4
  6
Continuous
 62
     7
370
     9
100
AcDbLine
 10
2718.315286878624
 20
-2682.569832402235
 30
0.0
 11
2718.315286878624
 21
-2530.055865921789
 31
0.0
  0
LINE
  5
10B
330
1F
100
AcDbEntity
  8
4-4
  6
Continuous
 62
     7
370
     9
100
AcDbLine
 10
2838.315286878624
 20
-2682.569832402235
 30
0.0
 11
2838.315286878624
 21
-2530.055865921789
 31
0.0
  0
TEXT
  5
10C
330
1F
100
AcDbEntity
  8
4-4
  6
Continuous
 62
     7
370
   211
100
AcDbText
 10
2714.565286878624
 20
-2650.649832402235
 30
0.0
 40
91.44
  1
40
 41
1.0625
  7
ＭＳ ゴシック
100
AcDbText
  0
LINE
  5
10D
330
1F
100
AcDbEntity
  8
4-4
  6
Continuous
 62
     4
370
     5
100
AcDbLine
 10
2838.315286878624
 20
-2682.569832402235
 30
0.0
 11
2898.315286878624
 21
-2682.569832402235
 31
0.0
  0
LWPOLYLINE
  5
10E
330
1F
100
AcDbEntity
  8
4-4
  6
Continuous
 62
     4
370
     5
100
AcDbPolyline
 90
        4
 70
     1
 43
6.0
 10
2901.315286878624
 20
-2682.569832402235
 42
0.4142135623731
 10
2898.315286878624
 20
-2679.569832402235
 42
0.4142135623731
 10
2895.315286878624
 20
-2682.569832402235
 42
0.4142135623731
 10
2898.315286878624
 20
-2685.569832402235
 42
0.4142135623731
  0
LINE
  5
10F
330
1F
100
AcDbEntity
  8
4-4
  6
Continuous
 62
     7
370
     9
100
AcDbLine
 10
2898.315286878624
 20
-2682.569832402235
 30
0.0
 11
2898.315286878624
 21
-2530.055865921789
 31
0.0
  0
LINE
  5
110
330
1F
100
AcDbEntity
  8
4-4
  6
Continuous
 62
     4
370
     5
100
AcDbLine
 10
2898.315286878624
 20
-2682.569832402235
 30
0.0
 11
2913.315286878624
 21
-2682.569832402235
 31
0.0
  0
LWPOLYLINE
  5
111
330
1F
100
AcDbEntity
  8
4-4
  6
Continuous
 62
     4
370
     5
100
AcDbPolyline
 90
        4
 70
     1
 43
6.0
 10
2916.315286878624
 20
-2682.569832402235
 42
0.4142135623731
 10
2913.315286878624
 20
-2679.569832402235
 42
0.4142135623731
 10
2910.315286878624
 20
-2682.569832402235
 42
0.4142135623731
 10
2913.315286878624
 20
-2685.569832402235
 42
0.4142135623731
  0
LINE
  5
112
330
1F
100
AcDbEntity
  8
4-4
  6
Continuous
 62
     7
370
     9
100
AcDbLine
 10
2913.315286878624
 20
-2682.569832402235
 30
0.0
 11
2913.315286878624
 21
-2530.055865921789
 31
0.0
  0
LINE
  5
113
330
1F
100
AcDbEntity
  8
4-4
  6
Continuous
 62
     4
370
     5
100
AcDbLine
 10
2913.315286878624
 20
-2682.569832402235
 30
0.0
 11
2973.315286878624
 21
-2682.569832402235
 31
0.0
  0
LWPOLYLINE
  5
114
330
1F
100
AcDbEntity
  8
4-4
  6
Continuous
 62
     4
370
     5
100
AcDbPolyline
 90
        4
 70
     1
 43
6.0
 10
2976.315286878624
 20
-2682.569832402235
 42
0.4142135623731
 10
2973.315286878624
 20
-2679.569832402235
 42
0.4142135623731
 10
2970.315286878624
 20
-2682.569832402235
 42
0.4142135623731
 10
2973.315286878624
 20
-2685.569832402235
 42
0.4142135623731
  0
LINE
  5
115
330
1F
100
AcDbEntity
  8
4-4
  6
Continuous
 62
     7
370
     9
100
AcDbLine
 10
2973.315286878624
 20
-2682.569832402235
 30
0.0
 11
2973.315286878624
 21
-2530.055865921789
 31
0.0
  0
LINE
  5
116
330
1F
100
AcDbEntity
  8
4-4
  6
Continuous
 62
     4
370
     5
100
AcDbLine
 10
2973.315286878624
 20
-2682.569832402235
 30
0.0
 11
2988.315286878624
 21
-2682.569832402235
 31
0.0
  0
LWPOLYLINE
  5
117
330
1F
100
AcDbEntity
  8
4-4
  6
Continuous
 62
     4
370
     5
100
AcDbPolyline
 90
        4
 70
     1
 43
6.0
 10
2991.315286878624
 20
-2682.569832402235
 42
0.4142135623731
 10
2988.315286878624
 20
-2679.569832402235
 42
0.4142135623731
 10
2985.315286878624
 20
-2682.569832402235
 42
0.4142135623731
 10
2988.315286878624
 20
-2685.569832402235
 42
0.4142135623731
  0
LINE
  5
118
330
1F
100
AcDbEntity
  8
4-4
  6
Continuous
 62
     7
370
     9
100
AcDbLine
 10
2988.315286878624
 20
-2682.569832402235
 30
0.0
 11
2988.315286878624
 21
-2530.055865921789
 31
0.0
  0
LINE
  5
119
330
1F
100
AcDbEntity
  8
4-4
  6
Continuous
 62
     4
370
     5
100
AcDbLine
 10
2988.315286878624
 20
-2682.569832402235
 30
0.0
 11
3963.315286878625
 21
-2682.569832402235
 31
0.0
  0
TEXT
  5
11A
330
1F
100
AcDbEntity
  8
4-4
  6
Continuous
 62
     7
370
   211
100
AcDbText
 10
3378.315286878624
 20
-2650.649832402235
 30
0.0
 40
91.44
  1
325
 41
1.083333333333333
  7
ＭＳ ゴシック
100
AcDbText
  0
TEXT
  5
11B
330
1F
100
AcDbEntity
  8
4-4
  6
Continuous
 62
     7
370
   211
100
AcDbText
 10
3023.748821118407
 20
-2651.489549052648
 30
0.0
 40
91.44
  1
5
  7
ＭＳ ゴシック
100
AcDbText
  0
TEXT
  5
11C
330
1F
100
AcDbEntity
  8
4-4
  6
Continuous
 62
     7
370
   211
100
AcDbText
 10
2777.863844204372
 20
-2801.521060390025
 30
0.0
 40
91.44
  1
20
 41
1.0625
  7
ＭＳ ゴシック
100
AcDbText
  0
TEXT
  5
11D
330
1F
100
AcDbEntity
  8
4-4
  6
Continuous
 62
     7
370
   211
100
AcDbText
 10
2875.815286878624
 20
-2650.649832402235
 30
0.0
 40
91.44
  1
5
  7
ＭＳ ゴシック
100
AcDbText
  0
TEXT
  5
11E
330
1F
100
AcDbEntity
  8
4-4
  6
Continuous
 62
     7
370
   211
100
AcDbText
 10
2861.214683836248
 20
-2893.206983985089
 30
0.0
 40
91.44
  1
20
 41
1.0625
  7
ＭＳ ゴシック
100
AcDbText
  0
LINE
  5
11F
330
1F
100
AcDbEntity
  8
4-4
  6
Continuous
 62
     4
370
     5
100
AcDbLine
 10
2718.315286878624
 20
-3022.793296089385
 30
0.0
 11
3963.315286878625
 21
-3022.793296089385
 31
0.0
  0
LWPOLYLINE
  5
120
330
1F
100
AcDbEntity
  8
4-4
  6
Continuous
 62
     4
370
     5
100
AcDbPolyline
 90
        4
 70
     1
 43
6.0
 10
2721.315286878624
 20
-3022.793296089385
 42
0.4142135623731
 10
2718.315286878624
 20
-3019.793296089385
 42
0.4142135623731
 10
2715.315286878624
 20
-3022.793296089385
 42
0.4142135623731
 10
2718.315286878624
 20
-3025.793296089385
 42
0.4142135623731
  0
LINE
  5
121
330
1F
100
AcDbEntity
  8
4-4
  6
Continuous
 62
     7
370
     9
100
AcDbLine
 10
2718.315286878624
 20
-3022.793296089385
 30
0.0
 11
2718.315286878624
 21
-2682.569832402235
 31
0.0
  0
TEXT
  5
122
330
1F
100
AcDbEntity
  8
4-4
  6
Continuous
 62
     7
370
   211
100
AcDbText
 10
2874.432758028776
 20
-3002.139954433382
 30
0.0
 40
91.44
  1
415(ｶｳﾝﾀｰ奥行)
 41
1.116071428571429
  7
ＭＳ ゴシック
100
AcDbText
  0
LINE
  5
123
330
1F
100
AcDbEntity
  8
2-2
  6
Continuous
 62
     7
370
     9
100
AcDbLine
 10
2619.485471949637
 20
3578.00332379887
 30
0.0
 11
4957.348600441257
 21
3578.00332379887
 31
0.0
  0
LINE
  5
124
330
1F
100
AcDbEntity
  8
4-4
  6
Continuous
 62
     7
370
     9
100
AcDbLine
 10
2619.485471949637
 20
3578.00332379887
 30
0.0
 11
2596.985471949637
 21
3555.50332379887
 31
0.0
  0
LINE
  5
125
330
1F
100
AcDbEntity
  8
4-4
  6
Continuous
 62
     7
370
     9
100
AcDbLine
 10
2596.985471949637
 20
3150.50332379887
 30
0.0
 11
2596.985471949637
 21
3555.50332379887
 31
0.0
  0
LINE
  5
126
330
1F
100
AcDbEntity
  8
2-2
  6
Continuous
 62
     7
370
     9
100
AcDbLine
 10
2619.485471949637
 20
3128.00332379887
 30
0.0
 11
3316.985471949637
 21
3128.00332379887
 31
0.0
  0
LINE
  5
127
330
1F
100
AcDbEntity
  8
4-4
  6
Continuous
 62
     7
370
     9
100
AcDbLine
 10
2596.985471949637
 20
3150.50332379887
 30
0.0
 11
2619.485471949637
 21
3128.00332379887
 31
0.0
  0
LINE
  5
128
330
1F
100
AcDbEntity
  8
2-2
  6
Continuous
 62
     7
370
     9
100
AcDbLine
 10
2619.485471949637
 20
1837.835726033507
 30
0.0
 11
4957.348600441257
 21
1837.835726033507
 31
0.0
  0
LINE
  5
129
330
1F
100
AcDbEntity
  8
4-4
  6
Continuous
 62
     7
370
     9
100
AcDbLine
 10
2619.485471949637
 20
1837.835726033507
 30
0.0
 11
2596.985471949637
 21
1815.335726033507
 31
0.0
  0
LINE
  5
12A
330
1F
100
AcDbEntity
  8
4-4
  6
Continuous
 62
     7
370
     9
100
AcDbLine
 10
2596.985471949637
 20
1410.335726033507
 30
0.0
 11
2596.985471949637
 21
1815.335726033507
 31
0.0
  0
LINE
  5
12B
330
1F
100
AcDbEntity
  8
2-2
  6
Continuous
 62
     7
370
     9
100
AcDbLine
 10
2619.485471949637
 20
1387.835726033507
 30
0.0
 11
4957.348600441257
 21
1387.835726033507
 31
0.0
  0
LINE
  5
12C
330
1F
100
AcDbEntity
  8
4-4
  6
Continuous
 62
     7
370
     9
100
AcDbLine
 10
2596.985471949637
 20
1410.335726033507
 30
0.0
 11
2619.485471949637
 21
1387.835726033507
 31
0.0
  0
LINE
  5
12D
330
1F
100
AcDbEntity
  8
4-4
  6
Continuous
 62
     4
370
     5
100
AcDbLine
 10
2596.985471949637
 20
2114.899971843563
 30
0.0
 11
3196.985471949637
 21
2114.899971843563
 31
0.0
  0
LWPOLYLINE
  5
12E
330
1F
100
AcDbEntity
  8
4-4
  6
Continuous
 62
     4
370
     5
100
AcDbPolyline
 90
        4
 70
     1
 43
6.0
 10
2599.985471949637
 20
2114.899971843563
 42
0.4142135623731
 10
2596.985471949637
 20
2117.899971843563
 42
0.4142135623731
 10
2593.985471949637
 20
2114.899971843563
 42
0.4142135623731
 10
2596.985471949637
 20
2111.899971843563
 42
0.4142135623731
  0
LWPOLYLINE
  5
12F
330
1F
100
AcDbEntity
  8
4-4
  6
Continuous
 62
     4
370
     5
100
AcDbPolyline
 90
        4
 70
     1
 43
6.0
 10
3199.985471949637
 20
2114.899971843563
 42
0.4142135623731
 10
3196.985471949637
 20
2117.899971843563
 42
0.4142135623731
 10
3193.985471949637
 20
2114.899971843563
 42
0.4142135623731
 10
3196.985471949637
 20
2111.899971843563
 42
0.4142135623731
  0
LINE
  5
130
330
1F
100
AcDbEntity
  8
4-4
  6
Continuous
 62
     7
370
     9
100
AcDbLine
 10
2596.985471949637
 20
2114.899971843563
 30
0.0
 11
2596.985471949637
 21
1882.835726033507
 31
0.0
  0
LINE
  5
131
330
1F
100
AcDbEntity
  8
4-4
  6
Continuous
 62
     7
370
     9
100
AcDbLine
 10
3196.985471949637
 20
2114.899971843563
 30
0.0
 11
3196.985471949637
 21
1882.835726033507
 31
0.0
  0
TEXT
  5
132
330
1F
100
AcDbEntity
  8
4-4
  6
Continuous
 62
     7
370
   211
100
AcDbText
 10
2799.485471949637
 20
2146.819971843563
 30
0.0
 40
91.44
  1
40
 41
1.0625
  7
ＭＳ ゴシック
100
AcDbText
  0
LINE
  5
133
330
1F
100
AcDbEntity
  8
4-4
  6
Continuous
 62
     4
370
     5
100
AcDbLine
 10
2988.315286878624
 20
499.7493717956677
 30
0.0
 11
3168.315286878625
 21
499.7493717956677
 31
0.0
  0
LWPOLYLINE
  5
134
330
1F
100
AcDbEntity
  8
4-4
  6
Continuous
 62
     4
370
     5
100
AcDbPolyline
 90
        4
 70
     1
 43
6.0
 10
2991.315286878624
 20
499.7493717956677
 42
0.4142135623731
 10
2988.315286878624
 20
502.7493717956678
 42
0.4142135623731
 10
2985.315286878624
 20
499.7493717956677
 42
0.4142135623731
 10
2988.315286878624
 20
496.7493717956677
 42
0.4142135623731
  0
LWPOLYLINE
  5
135
330
1F
100
AcDbEntity
  8
4-4
  6
Continuous
 62
     4
370
     5
100
AcDbPolyline
 90
        4
 70
     1
 43
6.0
 10
3171.315286878625
 20
499.7493717956677
 42
0.4142135623731
 10
3168.315286878625
 20
502.7493717956678
 42
0.4142135623731
 10
3165.315286878625
 20
499.7493717956677
 42
0.4142135623731
 10
3168.315286878625
 20
496.7493717956677
 42
0.4142135623731
  0
LINE
  5
136
330
1F
100
AcDbEntity
  8
4-4
  6
Continuous
 62
     7
370
     9
100
AcDbLine
 10
2988.315286878624
 20
499.7493717956677
 30
0.0
 11
2988.315286878624
 21
427.1831938594456
 31
0.0
  0
LINE
  5
137
330
1F
100
AcDbEntity
  8
4-4
  6
Continuous
 62
     7
370
     9
100
AcDbLine
 10
3168.315286878625
 20
499.7493717956677
 30
0.0
 11
3168.315286878625
 21
427.1831938594456
 31
0.0
  0
TEXT
  5
138
330
1F
100
AcDbEntity
  8
4-4
  6
Continuous
 62
     7
370
   211
100
AcDbText
 10
3014.565286878624
 20
531.6693717956678
 30
0.0
 40
91.44
  1
60
 41
1.0625
  7
ＭＳ ゴシック
100
AcDbText
  0
LINE
  5
139
330
1F
100
AcDbEntity
  8
4-4
  6
Continuous
 62
     4
370
     5
100
AcDbLine
 10
3168.315286878625
 20
499.7493717956677
 30
0.0
 11
3858.315286878625
 21
499.7493717956677
 31
0.0
  0
LWPOLYLINE
  5
13A
330
1F
100
AcDbEntity
  8
4-4
  6
Continuous
 62
     4
370
     5
100
AcDbPolyline
 90
        4
 70
     1
 43
6.0
 10
3861.315286878625
 20
499.7493717956677
 42
0.4142135623731
 10
3858.315286878625
 20
502.7493717956678
 42
0.4142135623731
 10
3855.315286878625
 20
499.7493717956677
 42
0.4142135623731
 10
3858.315286878625
 20
496.7493717956677
 42
0.4142135623731
  0
LINE
  5
13B
330
1F
100
AcDbEntity
  8
4-4
  6
Continuous
 62
     7
370
     9
100
AcDbLine
 10
3858.315286878625
 20
499.7493717956677
 30
0.0
 11
3858.315286878625
 21
427.1831938594456
 31
0.0
  0
TEXT
  5
13C
330
1F
100
AcDbEntity
  8
4-4
  6
Continuous
 62
     7
370
   211
100
AcDbText
 10
3415.815286878625
 20
531.6693717956678
 30
0.0
 40
91.44
  1
230
 41
1.083333333333333
  7
ＭＳ ゴシック
100
AcDbText
  0
LINE
  5
13D
330
1F
100
AcDbEntity
  8
4-4
  6
Continuous
 62
     4
370
     5
100
AcDbLine
 10
3858.315286878625
 20
499.7493717956677
 30
0.0
 11
3948.315286878625
 21
499.7493717956677
 31
0.0
  0
LWPOLYLINE
  5
13E
330
1F
100
AcDbEntity
  8
4-4
  6
Continuous
 62
     4
370
     5
100
AcDbPolyline
 90
        4
 70
     1
 43
6.0
 10
3951.315286878625
 20
499.7493717956677
 42
0.4142135623731
 10
3948.315286878625
 20
502.7493717956678
 42
0.4142135623731
 10
3945.315286878625
 20
499.7493717956677
 42
0.4142135623731
 10
3948.315286878625
 20
496.7493717956677
 42
0.4142135623731
  0
LINE
  5
13F
330
1F
100
AcDbEntity
  8
4-4
  6
Continuous
 62
     7
370
     9
100
AcDbLine
 10
3948.315286878625
 20
499.7493717956677
 30
0.0
 11
3948.315286878625
 21
427.1831938594456
 31
0.0
  0
TEXT
  5
140
330
1F
100
AcDbEntity
  8
4-4
  6
Continuous
 62
     7
370
   211
100
AcDbText
 10
3839.565286878625
 20
531.6693717956678
 30
0.0
 40
91.44
  1
30
 41
1.0625
  7
ＭＳ ゴシック
100
AcDbText
  0
LINE
  5
141
330
1F
100
AcDbEntity
  8
4-4
  6
Continuous
 62
     4
370
     5
100
AcDbLine
 10
4193.625155621489
 20
-1913.968597061558
 30
0.0
 11
4193.625155621489
 21
-1406.968597061556
 31
0.0
  0
LWPOLYLINE
  5
142
330
1F
100
AcDbEntity
  8
4-4
  6
Continuous
 62
     4
370
     5
100
AcDbPolyline
 90
        4
 70
     1
 43
6.0
 10
4196.625155621489
 20
-1913.968597061558
 42
0.4142135623731
 10
4193.625155621489
 20
-1910.968597061558
 42
0.4142135623731
 10
4190.625155621489
 20
-1913.968597061558
 42
0.4142135623731
 10
4193.625155621489
 20
-1916.968597061558
 42
0.4142135623731
  0
LWPOLYLINE
  5
143
330
1F
100
AcDbEntity
  8
4-4
  6
Continuous
 62
     4
370
     5
100
AcDbPolyline
 90
        4
 70
     1
 43
6.0
 10
4196.625155621489
 20
-1406.968597061556
 42
0.4142135623731
 10
4193.625155621489
 20
-1403.968597061556
 42
0.4142135623731
 10
4190.625155621489
 20
-1406.968597061556
 42
0.4142135623731
 10
4193.625155621489
 20
-1409.968597061556
 42
0.4142135623731
  0
LINE
  5
144
330
1F
100
AcDbEntity
  8
4-4
  6
Continuous
 62
     7
370
     9
100
AcDbLine
 10
4193.625155621489
 20
-1913.968597061558
 30
0.0
 11
4033.979564161801
 21
-1913.968597061558
 31
0.0
  0
LINE
  5
145
330
1F
100
AcDbEntity
  8
4-4
  6
Continuous
 62
     7
370
     9
100
AcDbLine
 10
4193.625155621489
 20
-1406.968597061556
 30
0.0
 11
4033.979564161801
 21
-1406.968597061556
 31
0.0
  0
TEXT
  5
146
330
1F
100
AcDbEntity
  8
4-4
  6
Continuous
 62
     7
370
   211
100
AcDbText
 10
4161.705155621489
 20
-1757.968597061557
 30
0.0
 40
91.44
  1
169
 50
90.0
 41
1.083333333333333
  7
ＭＳ ゴシック
100
AcDbText
  0
LINE
  5
147
330
1F
100
AcDbEntity
  8
4-4
  6
Continuous
 62
     4
370
     5
100
AcDbLine
 10
4193.625155621489
 20
-1406.968597061556
 30
0.0
 11
4193.625155621489
 21
-1316.968597061556
 31
0.0
  0
LWPOLYLINE
  5
148
330
1F
100
AcDbEntity
  8
4-4
  6
Continuous
 62
     4
370
     5
100
AcDbPolyline
 90
        4
 70
     1
 43
6.0
 10
4196.625155621489
 20
-1316.968597061556
 42
0.4142135623731
 10
4193.625155621489
 20
-1313.968597061556
 42
0.4142135623731
 10
4190.625155621489
 20
-1316.968597061556
 42
0.4142135623731
 10
4193.625155621489
 20
-1319.968597061556
 42
0.4142135623731
  0
LINE
  5
149
330
1F
100
AcDbEntity
  8
4-4
  6
Continuous
 62
     7
370
     9
100
AcDbLine
 10
4193.625155621489
 20
-1316.968597061556
 30
0.0
 11
4033.979564161801
 21
-1316.968597061556
 31
0.0
  0
TEXT
  5
14A
330
1F
100
AcDbEntity
  8
4-4
  6
Continuous
 62
     7
370
   211
100
AcDbText
 10
4161.705155621489
 20
-1425.718597061556
 30
0.0
 40
91.44
  1
30
 50
90.0
 41
1.0625
  7
ＭＳ ゴシック
100
AcDbText
  0
LINE
  5
14B
330
1F
100
AcDbEntity
  8
4-4
  6
Continuous
 62
     4
370
     5
100
AcDbLine
 10
4193.625155621489
 20
-1316.968597061556
 30
0.0
 11
4193.625155621489
 21
-1226.968597061556
 31
0.0
  0
LWPOLYLINE
  5
14C
330
1F
100
AcDbEntity
  8
4-4
  6
Continuous
 62
     4
370
     5
100
AcDbPolyline
 90
        4
 70
     1
 43
6.0
 10
4196.625155621489
 20
-1226.968597061556
 42
0.4142135623731
 10
4193.625155621489
 20
-1223.968597061556
 42
0.4142135623731
 10
4190.625155621489
 20
-1226.968597061556
 42
0.4142135623731
 10
4193.625155621489
 20
-1229.968597061556
 42
0.4142135623731
  0
LINE
  5
14D
330
1F
100
AcDbEntity
  8
4-4
  6
Continuous
 62
     7
370
     9
100
AcDbLine
 10
4193.625155621489
 20
-1226.968597061556
 30
0.0
 11
4033.979564161801
 21
-1226.968597061556
 31
0.0
  0
LINE
  5
14E
330
1F
100
AcDbEntity
  8
4-4
  6
Continuous
 62
     4
370
     5
100
AcDbLine
 10
4193.625155621489
 20
-1226.968597061556
 30
0.0
 11
4193.625155621489
 21
-1136.968597061556
 31
0.0
  0
LWPOLYLINE
  5
14F
330
1F
100
AcDbEntity
  8
4-4
  6
Continuous
 62
     4
370
     5
100
AcDbPolyline
 90
        4
 70
     1
 43
6.0
 10
4196.625155621489
 20
-1136.968597061556
 42
0.4142135623731
 10
4193.625155621489
 20
-1133.968597061556
 42
0.4142135623731
 10
4190.625155621489
 20
-1136.968597061556
 42
0.4142135623731
 10
4193.625155621489
 20
-1139.968597061556
 42
0.4142135623731
  0
LINE
  5
150
330
1F
100
AcDbEntity
  8
4-4
  6
Continuous
 62
     7
370
     9
100
AcDbLine
 10
4193.625155621489
 20
-1136.968597061556
 30
0.0
 11
4033.979564161801
 21
-1136.968597061556
 31
0.0
  0
TEXT
  5
151
330
1F
100
AcDbEntity
  8
4-4
  6
Continuous
 62
     7
370
   211
100
AcDbText
 10
4161.705155621489
 20
-1245.718597061556
 30
0.0
 40
91.44
  1
30
 50
90.0
 41
1.0625
  7
ＭＳ ゴシック
100
AcDbText
  0
LINE
  5
152
330
1F
100
AcDbEntity
  8
4-4
  6
Continuous
 62
     4
370
     5
100
AcDbLine
 10
4193.625155621489
 20
-1136.968597061556
 30
0.0
 11
4193.625155621489
 21
-1046.968597061556
 31
0.0
  0
LWPOLYLINE
  5
153
330
1F
100
AcDbEntity
  8
4-4
  6
Continuous
 62
     4
370
     5
100
AcDbPolyline
 90
        4
 70
     1
 43
6.0
 10
4196.625155621489
 20
-1046.968597061556
 42
0.4142135623731
 10
4193.625155621489
 20
-1043.968597061556
 42
0.4142135623731
 10
4190.625155621489
 20
-1046.968597061556
 42
0.4142135623731
 10
4193.625155621489
 20
-1049.968597061556
 42
0.4142135623731
  0
LINE
  5
154
330
1F
100
AcDbEntity
  8
4-4
  6
Continuous
 62
     7
370
     9
100
AcDbLine
 10
4193.625155621489
 20
-1046.968597061556
 30
0.0
 11
4033.979564161801
 21
-1046.968597061556
 31
0.0
  0
LINE
  5
155
330
1F
100
AcDbEntity
  8
4-4
  6
Continuous
 62
     4
370
     5
100
AcDbLine
 10
4193.625155621489
 20
-1046.968597061556
 30
0.0
 11
4193.625155621489
 21
-956.9685970615565
 31
0.0
  0
LWPOLYLINE
  5
156
330
1F
100
AcDbEntity
  8
4-4
  6
Continuous
 62
     4
370
     5
100
AcDbPolyline
 90
        4
 70
     1
 43
6.0
 10
4196.625155621489
 20
-956.9685970615565
 42
0.4142135623731
 10
4193.625155621489
 20
-953.9685970615564
 42
0.4142135623731
 10
4190.625155621489
 20
-956.9685970615565
 42
0.4142135623731
 10
4193.625155621489
 20
-959.9685970615565
 42
0.4142135623731
  0
LINE
  5
157
330
1F
100
AcDbEntity
  8
4-4
  6
Continuous
 62
     7
370
     9
100
AcDbLine
 10
4193.625155621489
 20
-956.9685970615565
 30
0.0
 11
4033.979564161801
 21
-956.9685970615565
 31
0.0
  0
LINE
  5
158
330
1F
100
AcDbEntity
  8
4-4
  6
Continuous
 62
     4
370
     5
100
AcDbLine
 10
4193.625155621489
 20
-956.9685970615565
 30
0.0
 11
4193.625155621489
 21
-866.9685970615565
 31
0.0
  0
LWPOLYLINE
  5
159
330
1F
100
AcDbEntity
  8
4-4
  6
Continuous
 62
     4
370
     5
100
AcDbPolyline
 90
        4
 70
     1
 43
6.0
 10
4196.625155621489
 20
-866.9685970615565
 42
0.4142135623731
 10
4193.625155621489
 20
-863.9685970615564
 42
0.4142135623731
 10
4190.625155621489
 20
-866.9685970615565
 42
0.4142135623731
 10
4193.625155621489
 20
-869.9685970615565
 42
0.4142135623731
  0
LINE
  5
15A
330
1F
100
AcDbEntity
  8
4-4
  6
Continuous
 62
     7
370
     9
100
AcDbLine
 10
4193.625155621489
 20
-866.9685970615565
 30
0.0
 11
4033.979564161801
 21
-866.9685970615565
 31
0.0
  0
LINE
  5
15B
330
1F
100
AcDbEntity
  8
4-4
  6
Continuous
 62
     4
370
     5
100
AcDbLine
 10
4193.625155621489
 20
-866.9685970615565
 30
0.0
 11
4193.625155621489
 21
-776.9685970615565
 31
0.0
  0
LWPOLYLINE
  5
15C
330
1F
100
AcDbEntity
  8
4-4
  6
Continuous
 62
     4
370
     5
100
AcDbPolyline
 90
        4
 70
     1
 43
6.0
 10
4196.625155621489
 20
-776.9685970615565
 42
0.4142135623731
 10
4193.625155621489
 20
-773.9685970615564
 42
0.4142135623731
 10
4190.625155621489
 20
-776.9685970615565
 42
0.4142135623731
 10
4193.625155621489
 20
-779.9685970615565
 42
0.4142135623731
  0
LINE
  5
15D
330
1F
100
AcDbEntity
  8
4-4
  6
Continuous
 62
     7
370
     9
100
AcDbLine
 10
4193.625155621489
 20
-776.9685970615565
 30
0.0
 11
4033.979564161801
 21
-776.9685970615565
 31
0.0
  0
LINE
  5
15E
330
1F
100
AcDbEntity
  8
4-4
  6
Continuous
 62
     4
370
     5
100
AcDbLine
 10
4193.625155621489
 20
-776.9685970615565
 30
0.0
 11
4193.625155621489
 21
-686.9685970615565
 31
0.0
  0
LWPOLYLINE
  5
15F
330
1F
100
AcDbEntity
  8
4-4
  6
Continuous
 62
     4
370
     5
100
AcDbPolyline
 90
        4
 70
     1
 43
6.0
 10
4196.625155621489
 20
-686.9685970615565
 42
0.4142135623731
 10
4193.625155621489
 20
-683.9685970615564
 42
0.4142135623731
 10
4190.625155621489
 20
-686.9685970615565
 42
0.4142135623731
 10
4193.625155621489
 20
-689.9685970615565
 42
0.4142135623731
  0
LINE
  5
160
330
1F
100
AcDbEntity
  8
4-4
  6
Continuous
 62
     7
370
     9
100
AcDbLine
 10
4193.625155621489
 20
-686.9685970615565
 30
0.0
 11
4033.979564161801
 21
-686.9685970615565
 31
0.0
  0
LINE
  5
161
330
1F
100
AcDbEntity
  8
4-4
  6
Continuous
 62
     4
370
     5
100
AcDbLine
 10
4193.625155621489
 20
-686.9685970615565
 30
0.0
 11
4193.625155621489
 21
-596.9685970615565
 31
0.0
  0
LWPOLYLINE
  5
162
330
1F
100
AcDbEntity
  8
4-4
  6
Continuous
 62
     4
370
     5
100
AcDbPolyline
 90
        4
 70
     1
 43
6.0
 10
4196.625155621489
 20
-596.9685970615565
 42
0.4142135623731
 10
4193.625155621489
 20
-593.9685970615564
 42
0.4142135623731
 10
4190.625155621489
 20
-596.9685970615565
 42
0.4142135623731
 10
4193.625155621489
 20
-599.9685970615565
 42
0.4142135623731
  0
LINE
  5
163
330
1F
100
AcDbEntity
  8
4-4
  6
Continuous
 62
     7
370
     9
100
AcDbLine
 10
4193.625155621489
 20
-596.9685970615565
 30
0.0
 11
4033.979564161801
 21
-596.9685970615565
 31
0.0
  0
TEXT
  5
164
330
1F
100
AcDbEntity
  8
4-4
  6
Continuous
 62
     7
370
   211
100
AcDbText
 10
4161.705155621489
 20
-705.7185970615565
 30
0.0
 40
91.44
  1
30
 50
90.0
 41
1.0625
  7
ＭＳ ゴシック
100
AcDbText
  0
LINE
  5
165
330
1F
100
AcDbEntity
  8
4-4
  6
Continuous
 62
     4
370
     5
100
AcDbLine
 10
4193.625155621489
 20
-596.9685970615565
 30
0.0
 11
4193.625155621489
 21
-506.9685970615564
 31
0.0
  0
LWPOLYLINE
  5
166
330
1F
100
AcDbEntity
  8
4-4
  6
Continuous
 62
     4
370
     5
100
AcDbPolyline
 90
        4
 70
     1
 43
6.0
 10
4196.625155621489
 20
-506.9685970615564
 42
0.4142135623731
 10
4193.625155621489
 20
-503.9685970615564
 42
0.4142135623731
 10
4190.625155621489
 20
-506.9685970615564
 42
0.4142135623731
 10
4193.625155621489
 20
-509.9685970615565
 42
0.4142135623731
  0
LINE
  5
167
330
1F
100
AcDbEntity
  8
4-4
  6
Continuous
 62
     7
370
     9
100
AcDbLine
 10
4193.625155621489
 20
-506.9685970615564
 30
0.0
 11
4033.979564161801
 21
-506.9685970615564
 31
0.0
  0
LINE
  5
168
330
1F
100
AcDbEntity
  8
4-4
  6
Continuous
 62
     4
370
     5
100
AcDbLine
 10
4193.625155621489
 20
-506.9685970615564
 30
0.0
 11
4193.625155621489
 21
-416.9685970615564
 31
0.0
  0
LWPOLYLINE
  5
169
330
1F
100
AcDbEntity
  8
4-4
  6
Continuous
 62
     4
370
     5
100
AcDbPolyline
 90
        4
 70
     1
 43
6.0
 10
4196.625155621489
 20
-416.9685970615564
 42
0.4142135623731
 10
4193.625155621489
 20
-413.9685970615564
 42
0.4142135623731
 10
4190.625155621489
 20
-416.9685970615564
 42
0.4142135623731
 10
4193.625155621489
 20
-419.9685970615564
 42
0.4142135623731
  0
LINE
  5
16A
330
1F
100
AcDbEntity
  8
4-4
  6
Continuous
 62
     7
370
     9
100
AcDbLine
 10
4193.625155621489
 20
-416.9685970615564
 30
0.0
 11
4033.979564161801
 21
-416.9685970615564
 31
0.0
  0
TEXT
  5
16B
330
1F
100
AcDbEntity
  8
4-4
  6
Continuous
 62
     7
370
   211
100
AcDbText
 10
4161.705155621489
 20
-525.7185970615565
 30
0.0
 40
91.44
  1
30
 50
90.0
 41
1.0625
  7
ＭＳ ゴシック
100
AcDbText
  0
LINE
  5
16C
330
1F
100
AcDbEntity
  8
4-4
  6
Continuous
 62
     4
370
     5
100
AcDbLine
 10
4193.625155621489
 20
-416.9685970615564
 30
0.0
 11
4193.625155621489
 21
-326.9685970615564
 31
0.0
  0
LWPOLYLINE
  5
16D
330
1F
100
AcDbEntity
  8
4-4
  6
Continuous
 62
     4
370
     5
100
AcDbPolyline
 90
        4
 70
     1
 43
6.0
 10
4196.625155621489
 20
-326.9685970615564
 42
0.4142135623731
 10
4193.625155621489
 20
-323.9685970615564
 42
0.4142135623731
 10
4190.625155621489
 20
-326.9685970615564
 42
0.4142135623731
 10
4193.625155621489
 20
-329.9685970615564
 42
0.4142135623731
  0
LINE
  5
16E
330
1F
100
AcDbEntity
  8
4-4
  6
Continuous
 62
     7
370
     9
100
AcDbLine
 10
4193.625155621489
 20
-326.9685970615564
 30
0.0
 11
4033.979564161801
 21
-326.9685970615564
 31
0.0
  0
LINE
  5
16F
330
1F
100
AcDbEntity
  8
4-4
  6
Continuous
 62
     4
370
     5
100
AcDbLine
 10
4193.625155621489
 20
-326.9685970615564
 30
0.0
 11
4193.625155621489
 21
-236.9685970615564
 31
0.0
  0
LWPOLYLINE
  5
170
330
1F
100
AcDbEntity
  8
4-4
  6
Continuous
 62
     4
370
     5
100
AcDbPolyline
 90
        4
 70
     1
 43
6.0
 10
4196.625155621489
 20
-236.9685970615564
 42
0.4142135623731
 10
4193.625155621489
 20
-233.9685970615564
 42
0.4142135623731
 10
4190.625155621489
 20
-236.9685970615564
 42
0.4142135623731
 10
4193.625155621489
 20
-239.9685970615564
 42
0.4142135623731
  0
LINE
  5
171
330
1F
100
AcDbEntity
  8
4-4
  6
Continuous
 62
     7
370
     9
100
AcDbLine
 10
4193.625155621489
 20
-236.9685970615564
 30
0.0
 11
4033.979564161801
 21
-236.9685970615564
 31
0.0
  0
TEXT
  5
172
330
1F
100
AcDbEntity
  8
4-4
  6
Continuous
 62
     7
370
   211
100
AcDbText
 10
4161.705155621489
 20
-345.7185970615564
 30
0.0
 40
91.44
  1
30
 50
90.0
 41
1.0625
  7
ＭＳ ゴシック
100
AcDbText
  0
LINE
  5
173
330
1F
100
AcDbEntity
  8
4-4
  6
Continuous
 62
     4
370
     5
100
AcDbLine
 10
4193.625155621489
 20
-236.9685970615564
 30
0.0
 11
4193.625155621489
 21
270.0314029384435
 31
0.0
  0
LWPOLYLINE
  5
174
330
1F
100
AcDbEntity
  8
4-4
  6
Continuous
 62
     4
370
     5
100
AcDbPolyline
 90
        4
 70
     1
 43
6.0
 10
4196.625155621489
 20
270.0314029384435
 42
0.4142135623731
 10
4193.625155621489
 20
273.0314029384435
 42
0.4142135623731
 10
4190.625155621489
 20
270.0314029384435
 42
0.4142135623731
 10
4193.625155621489
 20
267.0314029384435
 42
0.4142135623731
  0
LINE
  5
175
330
1F
100
AcDbEntity
  8
4-4
  6
Continuous
 62
     7
370
     9
100
AcDbLine
 10
4193.625155621489
 20
270.0314029384435
 30
0.0
 11
4033.979564161801
 21
270.0314029384435
 31
0.0
  0
TEXT
  5
176
330
1F
100
AcDbEntity
  8
4-4
  6
Continuous
 62
     7
370
   211
100
AcDbText
 10
4161.705155621489
 20
-80.96859706155644
 30
0.0
 40
91.44
  1
169
 50
90.0
 41
1.083333333333333
  7
ＭＳ ゴシック
100
AcDbText
  0
TEXT
  5
177
330
1F
100
AcDbEntity
  8
4-4
  6
Continuous
 62
     7
370
   211
100
AcDbText
 10
4330.997075427151
 20
-1152.650916146795
 30
0.0
 40
91.44
  1
30
 50
90.0
 41
1.0625
  7
ＭＳ ゴシック
100
AcDbText
  0
TEXT
  5
178
330
1F
100
AcDbEntity
  8
4-4
  6
Continuous
 62
     7
370
   211
100
AcDbText
 10
4161.705155621489
 20
-885.7185970615565
 30
0.0
 40
91.44
  1
30
 50
90.0
 41
1.0625
  7
ＭＳ ゴシック
100
AcDbText
  0
TEXT
  5
179
330
1F
100
AcDbEntity
  8
4-4
  6
Continuous
 62
     7
370
   211
100
AcDbText
 10
4161.705155621489
 20
-1065.718597061556
 30
0.0
 40
91.44
  1
30
 50
90.0
 41
1.0625
  7
ＭＳ ゴシック
100
AcDbText
  0
TEXT
  5
17A
330
1F
100
AcDbEntity
  8
4-4
  6
Continuous
 62
     7
370
   211
100
AcDbText
 10
4335.617981966519
 20
-974.7460143810524
 30
0.0
 40
91.44
  1
30
 50
90.0
 41
1.0625
  7
ＭＳ ゴシック
100
AcDbText
  0
TEXT
  5
17B
330
1F
100
AcDbEntity
  8
4-4
  6
Continuous
 62
     7
370
   211
100
AcDbText
 10
4335.617981966519
 20
-1330.555817912538
 30
0.0
 40
91.44
  1
30
 50
90.0
 41
1.0625
  7
ＭＳ ゴシック
100
AcDbText
  0
TEXT
  5
17C
330
1F
100
AcDbEntity
  8
4-4
  6
Continuous
 62
     7
370
   211
100
AcDbText
 10
4333.307528696835
 20
-794.5306593456248
 30
0.0
 40
91.44
  1
30
 50
90.0
 41
1.0625
  7
ＭＳ ゴシック
100
AcDbText
  0
TEXT
  5
17D
330
1F
100
AcDbEntity
  8
4-4
  6
Continuous
 62
     7
370
   211
100
AcDbText
 10
4333.307528696835
 20
-614.315304310197
 30
0.0
 40
91.44
  1
30
 50
90.0
 41
1.0625
  7
ＭＳ ゴシック
100
AcDbText
  0
TEXT
  5
17E
330
1F
100
AcDbEntity
  8
4-4
  6
Continuous
 62
     7
370
   211
100
AcDbText
 10
4335.617981966519
 20
-431.7894960050843
 30
0.0
 40
91.44
  1
30
 50
90.0
 41
1.0625
  7
ＭＳ ゴシック
100
AcDbText
  0
CIRCLE
  5
17F
330
1F
100
AcDbEntity
  8
4-4
  6
JWW_DASHED1
 62
     7
370
     9
100
AcDbCircle
 10
3168.315286878625
 20
-236.9685970615564
 30
0.0
 40
7.5
  0
CIRCLE
  5
180
330
1F
100
AcDbEntity
  8
4-4
  6
JWW_DASHED1
 62
     7
370
     9
100
AcDbCircle
 10
3858.315286878625
 20
-236.9685970615564
 30
0.0
 40
7.5
  0
CIRCLE
  5
181
330
1F
100
AcDbEntity
  8
4-4
  6
JWW_DASHED1
 62
     7
370
     9
100
AcDbCircle
 10
3858.315286878625
 20
-326.9685970615564
 30
0.0
 40
7.5
  0
CIRCLE
  5
182
330
1F
100
AcDbEntity
  8
4-4
  6
JWW_DASHED1
 62
     7
370
     9
100
AcDbCircle
 10
3168.315286878625
 20
-326.9685970615564
 30
0.0
 40
7.5
  0
CIRCLE
  5
183
330
1F
100
AcDbEntity
  8
4-4
  6
JWW_DASHED1
 62
     7
370
     9
100
AcDbCircle
 10
3168.315286878625
 20
-416.9685970615564
 30
0.0
 40
7.5
  0
CIRCLE
  5
184
330
1F
100
AcDbEntity
  8
4-4
  6
JWW_DASHED1
 62
     7
370
     9
100
AcDbCircle
 10
3858.315286878625
 20
-416.9685970615564
 30
0.0
 40
7.5
  0
CIRCLE
  5
185
330
1F
100
AcDbEntity
  8
4-4
  6
JWW_DASHED1
 62
     7
370
     9
100
AcDbCircle
 10
3168.315286878625
 20
-506.9685970615564
 30
0.0
 40
7.5
  0
CIRCLE
  5
186
330
1F
100
AcDbEntity
  8
4-4
  6
JWW_DASHED1
 62
     7
370
     9
100
AcDbCircle
 10
3858.315286878625
 20
-506.9685970615564
 30
0.0
 40
7.5
  0
CIRCLE
  5
187
330
1F
100
AcDbEntity
  8
4-4
  6
JWW_DASHED1
 62
     7
370
     9
100
AcDbCircle
 10
3858.315286878625
 20
-596.9685970615565
 30
0.0
 40
7.5
  0
CIRCLE
  5
188
330
1F
100
AcDbEntity
  8
4-4
  6
JWW_DASHED1
 62
     7
370
     9
100
AcDbCircle
 10
3168.315286878625
 20
-596.9685970615565
 30
0.0
 40
7.5
  0
CIRCLE
  5
189
330
1F
100
AcDbEntity
  8
4-4
  6
JWW_DASHED1
 62
     7
370
     9
100
AcDbCircle
 10
3168.315286878625
 20
-686.9685970615565
 30
0.0
 40
7.5
  0
CIRCLE
  5
18A
330
1F
100
AcDbEntity
  8
4-4
  6
JWW_DASHED1
 62
     7
370
     9
100
AcDbCircle
 10
3858.315286878625
 20
-686.9685970615565
 30
0.0
 40
7.5
  0
CIRCLE
  5
18B
330
1F
100
AcDbEntity
  8
4-4
  6
JWW_DASHED1
 62
     7
370
     9
100
AcDbCircle
 10
3858.315286878625
 20
-776.9685970615565
 30
0.0
 40
7.5
  0
CIRCLE
  5
18C
330
1F
100
AcDbEntity
  8
4-4
  6
JWW_DASHED1
 62
     7
370
     9
100
AcDbCircle
 10
3168.315286878625
 20
-776.9685970615565
 30
0.0
 40
7.5
  0
CIRCLE
  5
18D
330
1F
100
AcDbEntity
  8
4-4
  6
JWW_DASHED1
 62
     7
370
     9
100
AcDbCircle
 10
3168.315286878625
 20
-866.9685970615565
 30
0.0
 40
7.5
  0
CIRCLE
  5
18E
330
1F
100
AcDbEntity
  8
4-4
  6
JWW_DASHED1
 62
     7
370
     9
100
AcDbCircle
 10
3858.315286878625
 20
-866.9685970615565
 30
0.0
 40
7.5
  0
CIRCLE
  5
18F
330
1F
100
AcDbEntity
  8
4-4
  6
JWW_DASHED1
 62
     7
370
     9
100
AcDbCircle
 10
3858.315286878625
 20
-956.9685970615565
 30
0.0
 40
7.5
  0
CIRCLE
  5
190
330
1F
100
AcDbEntity
  8
4-4
  6
JWW_DASHED1
 62
     7
370
     9
100
AcDbCircle
 10
3168.315286878625
 20
-956.9685970615565
 30
0.0
 40
7.5
  0
CIRCLE
  5
191
330
1F
100
AcDbEntity
  8
4-4
  6
JWW_DASHED1
 62
     7
370
     9
100
AcDbCircle
 10
3168.315286878625
 20
-1046.968597061556
 30
0.0
 40
7.5
  0
CIRCLE
  5
192
330
1F
100
AcDbEntity
  8
4-4
  6
JWW_DASHED1
 62
     7
370
     9
100
AcDbCircle
 10
3858.315286878625
 20
-1046.968597061556
 30
0.0
 40
7.5
  0
CIRCLE
  5
193
330
1F
100
AcDbEntity
  8
4-4
  6
JWW_DASHED1
 62
     7
370
     9
100
AcDbCircle
 10
3858.315286878625
 20
-1136.968597061556
 30
0.0
 40
7.5
  0
CIRCLE
  5
194
330
1F
100
AcDbEntity
  8
4-4
  6
JWW_DASHED1
 62
     7
370
     9
100
AcDbCircle
 10
3168.315286878625
 20
-1136.968597061556
 30
0.0
 40
7.5
  0
CIRCLE
  5
195
330
1F
100
AcDbEntity
  8
4-4
  6
JWW_DASHED1
 62
     7
370
     9
100
AcDbCircle
 10
3168.315286878625
 20
-1226.968597061556
 30
0.0
 40
7.5
  0
CIRCLE
  5
196
330
1F
100
AcDbEntity
  8
4-4
  6
JWW_DASHED1
 62
     7
370
     9
100
AcDbCircle
 10
3858.315286878625
 20
-1226.968597061556
 30
0.0
 40
7.5
  0
CIRCLE
  5
197
330
1F
100
AcDbEntity
  8
4-4
  6
JWW_DASHED1
 62
     7
370
     9
100
AcDbCircle
 10
3858.315286878625
 20
-1316.968597061556
 30
0.0
 40
7.5
  0
CIRCLE
  5
198
330
1F
100
AcDbEntity
  8
4-4
  6
JWW_DASHED1
 62
     7
370
     9
100
AcDbCircle
 10
3168.315286878625
 20
-1316.968597061556
 30
0.0
 40
7.5
  0
CIRCLE
  5
199
330
1F
100
AcDbEntity
  8
4-4
  6
JWW_DASHED1
 62
     7
370
     9
100
AcDbCircle
 10
3168.315286878625
 20
-1406.968597061556
 30
0.0
 40
7.5
  0
CIRCLE
  5
19A
330
1F
100
AcDbEntity
  8
4-4
  6
JWW_DASHED1
 62
     7
370
     9
100
AcDbCircle
 10
3858.315286878625
 20
-1406.968597061556
 30
0.0
 40
7.5
  0
LINE
  5
19B
330
1F
100
AcDbEntity
  8
4-4
  6
Continuous
 62
     4
370
     5
100
AcDbLine
 10
3163.011986019726
 20
-242.2718979204555
 30
0.0
 11
3173.618587737524
 21
-231.6652962026573
 31
0.0
  0
TEXT
  5
19C
330
1F
100
AcDbEntity
  8
4-4
  6
Continuous
 62
     7
370
   211
100
AcDbText
 10
3257.113756460032
 20
-103.028430569201
 30
0.0
 40
91.44
  1
5φ
 50
44.99999999999974
 41
1.041666666666667
  7
ＭＳ ゴシック
100
AcDbText
  0
LINE
  5
19D
330
1F
100
AcDbEntity
  8
4-4
  6
Continuous
 62
     4
370
     5
100
AcDbLine
 10
3173.618587737524
 20
-231.6652962026573
 30
0.0
 11
3412.267126387985
 21
6.983242447801246
 31
0.0
  0
LINE
  5
19E
330
1F
100
AcDbEntity
  8
4-4
  6
Continuous
 62
     4
370
     5
100
AcDbLine
 10
3056.945968841743
 20
-348.3379150984371
 30
0.0
 11
3163.011986019726
 21
-242.2718979204555
 31
0.0
  0
LINE
  5
19F
330
1F
100
AcDbEntity
  8
4-4
  6
Continuous
 62
     4
370
     5
100
AcDbLine
 10
3163.011986019726
 20
-242.2718979204555
 30
0.0
 11
3118.011986019725
 21
-320.2141842610548
 31
0.0
  0
LINE
  5
1A0
330
1F
100
AcDbEntity
  8
4-4
  6
Continuous
 62
     4
370
     5
100
AcDbLine
 10
3163.011986019726
 20
-242.2718979204555
 30
0.0
 11
3085.069699679126
 21
-287.2718979204552
 31
0.0
  0
LINE
  5
1A1
330
1F
100
AcDbEntity
  8
4-4
  6
Continuous
 62
     4
370
     5
100
AcDbLine
 10
3173.618587737524
 20
-231.6652962026573
 30
0.0
 11
3218.618587737524
 21
-153.7230098620581
 31
0.0
  0
LINE
  5
1A2
330
1F
100
AcDbEntity
  8
4-4
  6
Continuous
 62
     4
370
     5
100
AcDbLine
 10
3173.618587737524
 20
-231.6652962026573
 30
0.0
 11
3251.560874078123
 21
-186.6652962026577
 31
0.0
  0
LWPOLYLINE
  5
1A3
330
1F
100
AcDbEntity
  8
4-4
  6
Continuous
 62
     4
370
     5
100
AcDbPolyline
 90
        4
 70
     1
 43
6.0
 10
-4968.723454923659
 20
1052.990908822615
 42
0.4142135623731
 10
-4971.723454923659
 20
1055.990908822615
 42
0.4142135623731
 10
-4974.723454923659
 20
1052.990908822615
 42
0.4142135623731
 10
-4971.723454923659
 20
1049.990908822615
 42
0.4142135623731
  0
LWPOLYLINE
  5
1A4
330
1F
100
AcDbEntity
  8
4-4
  6
Continuous
 62
     4
370
     5
100
AcDbPolyline
 90
        4
 70
     1
 43
6.0
 10
-4542.91954058862
 20
1052.990908822615
 42
0.4142135623731
 10
-4545.91954058862
 20
1055.990908822615
 42
0.4142135623731
 10
-4548.91954058862
 20
1052.990908822615
 42
0.4142135623731
 10
-4545.91954058862
 20
1049.990908822615
 42
0.4142135623731
  0
TEXT
  5
1A5
330
1F
100
AcDbEntity
  8
4-4
  6
Continuous
 62
     7
370
   211
100
AcDbText
 10
-4577.83954058862
 20
1124.240908822615
 30
0.0
 40
91.44
  1
90
 50
90.0
 41
1.0625
  7
ＭＳ ゴシック
100
AcDbText
  0
LINE
  5
1A6
330
1F
100
AcDbEntity
  8
4-4
  6
JWW_CENTER1
 62
     3
370
    13
100
AcDbLine
 10
-1551.981077207334
 20
915.7779629095662
 30
0.0
 11
-1551.981077207334
 21
2534.772376317388
 31
0.0
  0
LINE
  5
1A7
330
1F
100
AcDbEntity
  8
4-4
  6
JWW_DASHED1
 62
     7
370
     9
100
AcDbLine
 10
-1626.981077207334
 20
1232.990908822615
 30
0.0
 11
-1626.981077207334
 21
1172.990908822615
 31
0.0
  0
LINE
  5
1A8
330
1F
100
AcDbEntity
  8
4-4
  6
Continuous
 62
     4
370
     5
100
AcDbLine
 10
-4545.91954058862
 20
2297.990908822615
 30
0.0
 11
-4545.91954058862
 21
1322.990908822615
 31
0.0
  0
LINE
  5
1A9
330
1F
100
AcDbEntity
  8
4-4
  6
JWW_DASHED1
 62
     7
370
     9
100
AcDbLine
 10
-1476.981077207334
 20
1307.990908822615
 30
0.0
 11
-1476.981077207334
 21
1247.990908822615
 31
0.0
  0
LINE
  5
1AA
330
1F
100
AcDbEntity
  8
4-4
  6
JWW_DASHED1
 62
     7
370
     9
100
AcDbLine
 10
-1581.981077207334
 20
1322.990908822615
 30
0.0
 11
-1581.981077207334
 21
2297.990908822615
 31
0.0
  0
LINE
  5
1AB
330
1F
100
AcDbEntity
  8
4-4
  6
JWW_DASHED1
 62
     7
370
     9
100
AcDbLine
 10
-1581.981077207334
 20
1322.990908822615
 30
0.0
 11
-1521.981077207334
 21
1322.990908822615
 31
0.0
  0
LINE
  5
1AC
330
1F
100
AcDbEntity
  8
4-4
  6
JWW_DASHED1
 62
     7
370
     9
100
AcDbLine
 10
-1521.981077207334
 20
1322.990908822615
 30
0.0
 11
-1521.981077207334
 21
2297.990908822615
 31
0.0
  0
LINE
  5
1AD
330
1F
100
AcDbEntity
  8
4-4
  6
Continuous
 62
     4
370
     5
100
AcDbLine
 10
-4545.91954058862
 20
1052.990908822615
 30
0.0
 11
-4545.91954058862
 21
1322.990908822615
 31
0.0
  0
LWPOLYLINE
  5
1AE
330
1F
100
AcDbEntity
  8
4-4
  6
Continuous
 62
     4
370
     5
100
AcDbPolyline
 90
        4
 70
     1
 43
6.0
 10
-4542.91954058862
 20
1322.990908822615
 42
0.4142135623731
 10
-4545.91954058862
 20
1325.990908822615
 42
0.4142135623731
 10
-4548.91954058862
 20
1322.990908822615
 42
0.4142135623731
 10
-4545.91954058862
 20
1319.990908822615
 42
0.4142135623731
  0
LINE
  5
1AF
330
1F
100
AcDbEntity
  8
4-4
  6
Continuous
 62
     7
370
     9
100
AcDbLine
 10
-4971.723454923659
 20
1052.990908822615
 30
0.0
 11
-4428.725945116539
 21
1052.990908822615
 31
0.0
  0
LINE
  5
1B0
330
1F
100
AcDbEntity
  8
4-4
  6
Continuous
 62
     7
370
     9
100
AcDbLine
 10
-4545.91954058862
 20
1322.990908822615
 30
0.0
 11
-4428.725945116539
 21
1322.990908822615
 31
0.0
  0
LWPOLYLINE
  5
1B1
330
1F
100
AcDbEntity
  8
4-4
  6
Continuous
 62
     4
370
     5
100
AcDbPolyline
 90
        4
 70
     1
 43
6.0
 10
-4542.91954058862
 20
2177.990908822615
 42
0.4142135623731
 10
-4545.91954058862
 20
2180.990908822615
 42
0.4142135623731
 10
-4548.91954058862
 20
2177.990908822615
 42
0.4142135623731
 10
-4545.91954058862
 20
2174.990908822615
 42
0.4142135623731
  0
LINE
  5
1B2
330
1F
100
AcDbEntity
  8
4-4
  6
Continuous
 62
     7
370
     9
100
AcDbLine
 10
-4545.91954058862
 20
2177.990908822615
 30
0.0
 11
-4428.725945116539
 21
2177.990908822615
 31
0.0
  0
LWPOLYLINE
  5
1B3
330
1F
100
AcDbEntity
  8
4-4
  6
Continuous
 62
     4
370
     5
100
AcDbPolyline
 90
        4
 70
     1
 43
6.0
 10
-4542.91954058862
 20
2297.990908822615
 42
0.4142135623731
 10
-4545.91954058862
 20
2300.990908822615
 42
0.4142135623731
 10
-4548.91954058862
 20
2297.990908822615
 42
0.4142135623731
 10
-4545.91954058862
 20
2294.990908822615
 42
0.4142135623731
  0
LINE
  5
1B4
330
1F
100
AcDbEntity
  8
4-4
  6
Continuous
 62
     7
370
     9
100
AcDbLine
 10
-4971.723454923659
 20
2297.990908822615
 30
0.0
 11
-4428.725945116539
 21
2297.990908822615
 31
0.0
  0
TEXT
  5
1B5
330
1F
100
AcDbEntity
  8
4-4
  6
Continuous
 62
     7
370
   211
100
AcDbText
 10
-4577.83954058862
 20
2174.240908822615
 30
0.0
 40
91.44
  1
40
 50
90.0
 41
1.0625
  7
ＭＳ ゴシック
100
AcDbText
  0
TEXT
  5
1B6
330
1F
100
AcDbEntity
  8
4-4
  6
Continuous
 62
     7
370
   211
100
AcDbText
 10
-4577.83954058862
 20
1652.990908822615
 30
0.0
 40
91.44
  1
285
 50
90.0
 41
1.083333333333333
  7
ＭＳ ゴシック
100
AcDbText
  0
LINE
  5
1B7
330
1F
100
AcDbEntity
  8
4-4
  6
Continuous
 62
     4
370
     5
100
AcDbLine
 10
-4725.451926628367
 20
1322.990908822615
 30
0.0
 11
-4725.451926628367
 21
2297.990908822615
 31
0.0
  0
LWPOLYLINE
  5
1B8
330
1F
100
AcDbEntity
  8
4-4
  6
Continuous
 62
     4
370
     5
100
AcDbPolyline
 90
        4
 70
     1
 43
6.0
 10
-4722.451926628367
 20
1322.990908822615
 42
0.4142135623731
 10
-4725.451926628367
 20
1325.990908822615
 42
0.4142135623731
 10
-4728.451926628367
 20
1322.990908822615
 42
0.4142135623731
 10
-4725.451926628367
 20
1319.990908822615
 42
0.4142135623731
  0
LWPOLYLINE
  5
1B9
330
1F
100
AcDbEntity
  8
4-4
  6
Continuous
 62
     4
370
     5
100
AcDbPolyline
 90
        4
 70
     1
 43
6.0
 10
-4722.451926628367
 20
2297.990908822615
 42
0.4142135623731
 10
-4725.451926628367
 20
2300.990908822615
 42
0.4142135623731
 10
-4728.451926628367
 20
2297.990908822615
 42
0.4142135623731
 10
-4725.451926628367
 20
2294.990908822615
 42
0.4142135623731
  0
LINE
  5
1BA
330
1F
100
AcDbEntity
  8
4-4
  6
Continuous
 62
     7
370
     9
100
AcDbLine
 10
-4725.451926628367
 20
1322.990908822615
 30
0.0
 11
-4569.420679987486
 21
1322.990908822615
 31
0.0
  0
TEXT
  5
1BB
330
1F
100
AcDbEntity
  8
4-4
  6
Continuous
 62
     7
370
   211
100
AcDbText
 10
-4757.371926628367
 20
1712.990908822615
 30
0.0
 40
91.44
  1
325
 50
90.0
 41
1.083333333333333
  7
ＭＳ ゴシック
100
AcDbText
  0
LINE
  5
1BC
330
1F
100
AcDbEntity
  8
4-4
  6
Continuous
 62
     4
370
     5
100
AcDbLine
 10
-4971.723454923659
 20
1052.990908822615
 30
0.0
 11
-4971.723454923659
 21
2297.990908822615
 31
0.0
  0
LWPOLYLINE
  5
1BD
330
1F
100
AcDbEntity
  8
4-4
  6
Continuous
 62
     4
370
     5
100
AcDbPolyline
 90
        4
 70
     1
 43
6.0
 10
-4968.723454923659
 20
2297.990908822615
 42
0.4142135623731
 10
-4971.723454923659
 20
2300.990908822615
 42
0.4142135623731
 10
-4974.723454923659
 20
2297.990908822615
 42
0.4142135623731
 10
-4971.723454923659
 20
2294.990908822615
 42
0.4142135623731
  0
TEXT
  5
1BE
330
1F
100
AcDbEntity
  8
4-4
  6
Continuous
 62
     7
370
   211
100
AcDbText
 10
-5023.39390542644
 20
1239.54842389741
 30
0.0
 40
91.44
  1
415(ｶｳﾝﾀｰ奥行)
 50
90.0
 41
1.116071428571429
  7
ＭＳ ゴシック
100
AcDbText
  0
LINE
  5
1BF
330
1F
100
AcDbEntity
  8
4-4
  6
Continuous
 62
     7
370
     9
100
AcDbLine
 10
-1521.981077207334
 20
2583.341006306737
 30
0.0
 11
-1521.981077207334
 21
3453.341006306737
 31
0.0
  0
LINE
  5
1C0
330
1F
100
AcDbEntity
  8
4-4
  6
JWW_DASHED1
 62
     7
370
     9
100
AcDbLine
 10
-1521.981077207334
 20
3378.341006306737
 30
0.0
 11
-1491.981077207334
 21
3378.341006306737
 31
0.0
  0
LINE
  5
1C1
330
1F
100
AcDbEntity
  8
4-4
  6
JWW_DASHED1
 62
     7
370
     9
100
AcDbLine
 10
-1521.981077207334
 20
3348.341006306737
 30
0.0
 11
-1491.981077207334
 21
3348.341006306737
 31
0.0
  0
LINE
  5
1C2
330
1F
100
AcDbEntity
  8
4-4
  6
JWW_DASHED1
 62
     7
370
     9
100
AcDbLine
 10
-1491.981077207334
 20
3348.341006306737
 30
0.0
 11
-1491.981077207334
 21
3378.341006306737
 31
0.0
  0
LINE
  5
1C3
330
1F
100
AcDbEntity
  8
4-4
  6
JWW_DASHED1
 62
     7
370
     9
100
AcDbLine
 10
-1521.981077207334
 20
2688.341006306737
 30
0.0
 11
-1491.981077207334
 21
2688.341006306737
 31
0.0
  0
LINE
  5
1C4
330
1F
100
AcDbEntity
  8
4-4
  6
JWW_DASHED1
 62
     7
370
     9
100
AcDbLine
 10
-1491.981077207334
 20
2658.341006306737
 30
0.0
 11
-1491.981077207334
 21
2688.341006306737
 31
0.0
  0
LINE
  5
1C5
330
1F
100
AcDbEntity
  8
4-4
  6
JWW_DASHED1
 62
     7
370
     9
100
AcDbLine
 10
-1521.981077207334
 20
2658.341006306737
 30
0.0
 11
-1491.981077207334
 21
2658.341006306737
 31
0.0
  0
LINE
  5
1C6
330
1F
100
AcDbEntity
  8
4-4
  6
JWW_CENTER1
 62
     7
370
     9
100
AcDbLine
 10
-1546.247218027639
 20
3363.341006306737
 30
0.0
 11
-1458.666164261112
 21
3363.341006306737
 31
0.0
  0
LINE
  5
1C7
330
1F
100
AcDbEntity
  8
4-4
  6
JWW_CENTER1
 62
     7
370
     9
100
AcDbLine
 10
-1546.247218027639
 20
2673.341006306737
 30
0.0
 11
-1458.666164261112
 21
2673.341006306737
 31
0.0
  0
LWPOLYLINE
  5
1C8
330
1F
100
AcDbEntity
  8
4-4
  6
Continuous
 62
     4
370
     5
100
AcDbPolyline
 90
        4
 70
     1
 43
6.0
 10
-1518.981077207333
 20
3822.621564482029
 42
0.4142135623731
 10
-1521.981077207334
 20
3825.621564482029
 42
0.4142135623731
 10
-1524.981077207334
 20
3822.621564482029
 42
0.4142135623731
 10
-1521.981077207334
 20
3819.621564482029
 42
0.4142135623731
  0
LINE
  5
1C9
330
1F
100
AcDbEntity
  8
4-4
  6
Continuous
 62
     7
370
     9
100
AcDbLine
 10
-1521.981077207334
 20
3822.621564482029
 30
0.0
 11
-1521.981077207334
 21
3518.306522623352
 31
0.0
  0
LINE
  5
1CA
330
1F
100
AcDbEntity
  8
4-4
  6
Continuous
 62
     4
370
     5
100
AcDbLine
 10
-1700.518901679895
 20
2658.341006306737
 30
0.0
 11
-1700.518901679895
 21
2688.341006306737
 31
0.0
  0
LWPOLYLINE
  5
1CB
330
1F
100
AcDbEntity
  8
4-4
  6
Continuous
 62
     4
370
     5
100
AcDbPolyline
 90
        4
 70
     1
 43
6.0
 10
-1697.518901679895
 20
2658.341006306737
 42
0.4142135623731
 10
-1700.518901679895
 20
2661.341006306737
 42
0.4142135623731
 10
-1703.518901679895
 20
2658.341006306737
 42
0.4142135623731
 10
-1700.518901679895
 20
2655.341006306737
 42
0.4142135623731
  0
LWPOLYLINE
  5
1CC
330
1F
100
AcDbEntity
  8
4-4
  6
Continuous
 62
     4
370
     5
100
AcDbPolyline
 90
        4
 70
     1
 43
6.0
 10
-1697.518901679895
 20
2688.341006306737
 42
0.4142135623731
 10
-1700.518901679895
 20
2691.341006306737
 42
0.4142135623731
 10
-1703.518901679895
 20
2688.341006306737
 42
0.4142135623731
 10
-1700.518901679895
 20
2685.341006306737
 42
0.4142135623731
  0
LINE
  5
1CD
330
1F
100
AcDbEntity
  8
4-4
  6
Continuous
 62
     7
370
     9
100
AcDbLine
 10
-1700.518901679895
 20
2658.341006306737
 30
0.0
 11
-1595.282504060046
 21
2658.341006306737
 31
0.0
  0
LINE
  5
1CE
330
1F
100
AcDbEntity
  8
4-4
  6
Continuous
 62
     7
370
     9
100
AcDbLine
 10
-1700.518901679895
 20
2688.341006306737
 30
0.0
 11
-1595.282504060046
 21
2688.341006306737
 31
0.0
  0
TEXT
  5
1CF
330
1F
100
AcDbEntity
  8
4-4
  6
Continuous
 62
     7
370
   211
100
AcDbText
 10
-1732.438901679895
 20
2609.591006306737
 30
0.0
 40
91.44
  1
10
 50
90.0
 41
1.0625
  7
ＭＳ ゴシック
100
AcDbText
  0
LWPOLYLINE
  5
1D0
330
1F
100
AcDbEntity
  8
4-4
  6
Continuous
 62
     4
370
     5
100
AcDbPolyline
 90
        4
 70
     1
 43
6.0
 10
-1697.518901679895
 20
3348.341006306737
 42
0.4142135623731
 10
-1700.518901679895
 20
3351.341006306737
 42
0.4142135623731
 10
-1703.518901679895
 20
3348.341006306737
 42
0.4142135623731
 10
-1700.518901679895
 20
3345.341006306737
 42
0.4142135623731
  0
LINE
  5
1D1
330
1F
100
AcDbEntity
  8
4-4
  6
Continuous
 62
     7
370
     9
100
AcDbLine
 10
-1700.518901679895
 20
3348.341006306737
 30
0.0
 11
-1595.282504060046
 21
3348.341006306737
 31
0.0
  0
LINE
  5
1D2
330
1F
100
AcDbEntity
  8
4-4
  6
Continuous
 62
     4
370
     5
100
AcDbLine
 10
-1700.518901679895
 20
3348.341006306737
 30
0.0
 11
-1700.518901679895
 21
3378.341006306737
 31
0.0
  0
LWPOLYLINE
  5
1D3
330
1F
100
AcDbEntity
  8
4-4
  6
Continuous
 62
     4
370
     5
100
AcDbPolyline
 90
        4
 70
     1
 43
6.0
 10
-1697.518901679895
 20
3378.341006306737
 42
0.4142135623731
 10
-1700.518901679895
 20
3381.341006306737
 42
0.4142135623731
 10
-1703.518901679895
 20
3378.341006306737
 42
0.4142135623731
 10
-1700.518901679895
 20
3375.341006306737
 42
0.4142135623731
  0
LINE
  5
1D4
330
1F
100
AcDbEntity
  8
4-4
  6
Continuous
 62
     7
370
     9
100
AcDbLine
 10
-1700.518901679895
 20
3378.341006306737
 30
0.0
 11
-1595.282504060046
 21
3378.341006306737
 31
0.0
  0
TEXT
  5
1D5
330
1F
100
AcDbEntity
  8
4-4
  6
Continuous
 62
     7
370
   211
100
AcDbText
 10
-1732.438901679895
 20
3299.591006306737
 30
0.0
 40
91.44
  1
10
 50
90.0
 41
1.0625
  7
ＭＳ ゴシック
100
AcDbText
  0
LINE
  5
1D6
330
1F
100
AcDbEntity
  8
4-4
  6
Continuous
 62
     4
370
     5
100
AcDbLine
 10
-1521.981077207334
 20
3596.194503171247
 30
0.0
 11
-1491.981077207334
 21
3596.194503171247
 31
0.0
  0
LWPOLYLINE
  5
1D7
330
1F
100
AcDbEntity
  8
4-4
  6
Continuous
 62
     4
370
     5
100
AcDbPolyline
 90
        4
 70
     1
 43
6.0
 10
-1518.981077207333
 20
3596.194503171247
 42
0.4142135623731
 10
-1521.981077207334
 20
3599.194503171247
 42
0.4142135623731
 10
-1524.981077207334
 20
3596.194503171247
 42
0.4142135623731
 10
-1521.981077207334
 20
3593.194503171247
 42
0.4142135623731
  0
LWPOLYLINE
  5
1D8
330
1F
100
AcDbEntity
  8
4-4
  6
Continuous
 62
     4
370
     5
100
AcDbPolyline
 90
        4
 70
     1
 43
6.0
 10
-1488.981077207333
 20
3596.194503171247
 42
0.4142135623731
 10
-1491.981077207334
 20
3599.194503171247
 42
0.4142135623731
 10
-1494.981077207334
 20
3596.194503171247
 42
0.4142135623731
 10
-1491.981077207334
 20
3593.194503171247
 42
0.4142135623731
  0
LINE
  5
1D9
330
1F
100
AcDbEntity
  8
4-4
  6
Continuous
 62
     7
370
     9
100
AcDbLine
 10
-1491.981077207334
 20
3596.194503171247
 30
0.0
 11
-1491.981077207334
 21
3518.306522623352
 31
0.0
  0
TEXT
  5
1DA
330
1F
100
AcDbEntity
  8
4-4
  6
Continuous
 62
     7
370
   211
100
AcDbText
 10
-1570.731077207334
 20
3628.114503171247
 30
0.0
 40
91.44
  1
10
 41
1.0625
  7
ＭＳ ゴシック
100
AcDbText
  0
TEXT
  5
1DB
330
1F
100
AcDbEntity
  8
4-4
  6
Continuous
 62
     7
370
     9
100
AcDbText
 10
-799.1543340380549
 20
2947.152558139534
 30
0.0
 40
91.44
  1
棚板　厚み15ｍｍ
 41
1.109375
  7
ＭＳ ゴシック
100
AcDbText
  0
LWPOLYLINE
  5
1DC
330
1F
100
AcDbEntity
  8
4-4
  6
Continuous
 62
     4
370
     5
100
AcDbPolyline
 90
        4
 70
     1
 43
6.0
 10
-3951.981077207333
 20
-2682.569832402235
 42
0.4142135623731
 10
-3954.981077207333
 20
-2679.569832402235
 42
0.4142135623731
 10
-3957.981077207333
 20
-2682.569832402235
 42
0.4142135623731
 10
-3954.981077207333
 20
-2685.569832402235
 42
0.4142135623731
  0
LINE
  5
1DD
330
1F
100
AcDbEntity
  8
4-4
  6
Continuous
 62
     7
370
     9
100
AcDbLine
 10
-3954.981077207334
 20
-3022.793296089385
 30
0.0
 11
-3954.981077207333
 21
-2530.055865921789
 31
0.0
  0
LWPOLYLINE
  5
1DE
330
1F
100
AcDbEntity
  8
4-4
  6
Continuous
 62
     4
370
     5
100
AcDbPolyline
 90
        4
 70
     1
 43
6.0
 10
854.0189227926668
 20
-2682.569832402235
 42
0.4142135623731
 10
851.0189227926668
 20
-2679.569832402235
 42
0.4142135623731
 10
848.0189227926668
 20
-2682.569832402235
 42
0.4142135623731
 10
851.0189227926668
 20
-2685.569832402235
 42
0.4142135623731
  0
LINE
  5
1DF
330
1F
100
AcDbEntity
  8
4-4
  6
Continuous
 62
     7
370
     9
100
AcDbLine
 10
851.0189227926676
 20
-3022.793296089385
 30
0.0
 11
851.0189227926668
 21
-2530.055865921789
 31
0.0
  0
LINE
  5
1E0
330
1F
100
AcDbEntity
  8
4-4
  6
Continuous
 62
     7
370
     9
100
AcDbLine
 10
-1626.981077207334
 20
754.4318217284103
 30
0.0
 11
-1626.981077207334
 21
416.5459879529353
 31
0.0
  0
LINE
  5
1E1
330
1F
100
AcDbEntity
  8
2-2
  6
Continuous
 62
     3
370
    13
100
AcDbLine
 10
2388.99995382879
 20
3784.790634375212
 30
0.0
 11
3401.522792689816
 21
3784.790634375212
 31
0.0
  0
TEXT
  5
1E2
330
1F
100
AcDbEntity
  8
2-2
  6
Continuous
 62
     7
370
     9
100
AcDbText
 10
2402.500258346937
 20
3808.280877989729
 30
0.0
 40
68.58
  1
1.5C面（ｶｳﾝﾀｰ前/側面）
 41
1.151515151515152
  7
ＭＳ ゴシック
100
AcDbText
  0
LINE
  5
1E3
330
1F
100
AcDbEntity
  8
2-2
  6
Continuous
 62
     3
370
    13
100
AcDbLine
 10
2601.894001992624
 20
3559.936246426892
 30
0.0
 11
2540.203364432036
 21
3665.987954615518
 31
0.0
  0
LINE
  5
1E4
330
1F
100
AcDbEntity
  8
2-2
  6
Continuous
 62
     3
370
    13
100
AcDbLine
 10
2388.99995382879
 20
3784.790634375212
 30
0.0
 11
2601.894001992624
 21
3559.936246426892
 31
0.0
  0
LINE
  5
1E5
330
1F
100
AcDbEntity
  8
4-4
  6
Continuous
 62
     7
370
     9
100
AcDbLine
 10
-3654.981077207333
 20
258.0314029384425
 30
0.0
 11
-3654.981077207333
 21
-1901.968597061558
 31
0.0
  0
LINE
  5
1E6
330
1F
100
AcDbEntity
  8
4-4
  6
Continuous
 62
     7
370
     9
100
AcDbLine
 10
-3954.981077207334
 20
354.0314029384422
 30
0.0
 11
-3954.981077207334
 21
264.0314029384422
 31
0.0
  0
LINE
  5
1E7
330
1F
100
AcDbEntity
  8
4-4
  6
Continuous
 62
     7
370
     9
100
AcDbLine
 10
-3954.981077207334
 20
-1910.968597061558
 30
0.0
 11
-3954.981077207334
 21
-2000.968597061558
 31
0.0
  0
LINE
  5
1E8
330
1F
100
AcDbEntity
  8
4-4
  6
Continuous
 62
     7
370
     9
100
AcDbLine
 10
701.0189227926667
 20
-1901.968597061558
 30
0.0
 11
-3804.981077207333
 21
-1901.968597061558
 31
0.0
  0
LINE
  5
1E9
330
1F
100
AcDbEntity
  8
4-4
  6
Continuous
 62
     7
370
     9
100
AcDbLine
 10
701.0189227926667
 20
258.0314029384425
 30
0.0
 11
-3804.981077207333
 21
258.0314029384425
 31
0.0
  0
LINE
  5
1EA
330
1F
100
AcDbEntity
  8
4-4
  6
Continuous
 62
     7
370
     9
100
AcDbLine
 10
-3804.981077207333
 20
258.0314029384425
 30
0.0
 11
-3804.981077207333
 21
-1901.968597061558
 31
0.0
  0
LINE
  5
1EB
330
1F
100
AcDbEntity
  8
4-4
  6
Continuous
 62
     7
370
     9
100
AcDbLine
 10
551.0189227926667
 20
258.0314029384425
 30
0.0
 11
551.0189227926667
 21
-1901.968597061558
 31
0.0
  0
LINE
  5
1EC
330
1F
100
AcDbEntity
  8
4-4
  6
Continuous
 62
     7
370
     9
100
AcDbLine
 10
-3954.981077207334
 20
354.0314029384422
 30
0.0
 11
851.0189227926672
 21
354.0314029384422
 31
0.0
  0
LINE
  5
1ED
330
1F
100
AcDbEntity
  8
4-4
  6
Continuous
 62
     7
370
     9
100
AcDbLine
 10
851.0189227926672
 20
354.0314029384422
 30
0.0
 11
851.0189227926672
 21
264.0314029384422
 31
0.0
  0
LINE
  5
1EE
330
1F
100
AcDbEntity
  8
4-4
  6
Continuous
 62
     7
370
     9
100
AcDbLine
 10
-3954.981077207334
 20
-2000.968597061558
 30
0.0
 11
851.0189227926672
 21
-2000.968597061558
 31
0.0
  0
LINE
  5
1EF
330
1F
100
AcDbEntity
  8
4-4
  6
Continuous
 62
     7
370
     9
100
AcDbLine
 10
851.0189227926672
 20
-1910.968597061558
 30
0.0
 11
851.0189227926672
 21
-2000.968597061558
 31
0.0
  0
LINE
  5
1F0
330
1F
100
AcDbEntity
  8
4-4
  6
Continuous
 62
     7
370
     9
100
AcDbLine
 10
-3954.981077207334
 20
-1910.968597061558
 30
0.0
 11
851.0189227926672
 21
-1910.968597061558
 31
0.0
  0
LINE
  5
1F1
330
1F
100
AcDbEntity
  8
4-4
  6
Continuous
 62
     7
370
     9
100
AcDbLine
 10
701.0189227926667
 20
258.0314029384425
 30
0.0
 11
701.0189227926667
 21
-1901.968597061558
 31
0.0
  0
LINE
  5
1F2
330
1F
100
AcDbEntity
  8
4-4
  6
Continuous
 62
     7
370
     9
100
AcDbLine
 10
-1476.981077207334
 20
258.0314029384425
 30
0.0
 11
-1476.981077207334
 21
-1901.968597061558
 31
0.0
  0
LINE
  5
1F3
330
1F
100
AcDbEntity
  8
4-4
  6
Continuous
 62
     7
370
     9
100
AcDbLine
 10
-1626.981077207334
 20
258.0314029384425
 30
0.0
 11
-1626.981077207334
 21
-1901.968597061558
 31
0.0
  0
LINE
  5
1F4
330
1F
100
AcDbEntity
  8
4-4
  6
Continuous
 62
     7
370
     9
100
AcDbLine
 10
-1626.981077207334
 20
108.0314029384425
 30
0.0
 11
-3654.981077207333
 21
108.0314029384425
 31
0.0
  0
LINE
  5
1F5
330
1F
100
AcDbEntity
  8
4-4
  6
Continuous
 62
     7
370
     9
100
AcDbLine
 10
-1626.981077207334
 20
-1751.368597061558
 30
0.0
 11
-3654.981077207333
 21
-1751.368597061558
 31
0.0
  0
LINE
  5
1F6
330
1F
100
AcDbEntity
  8
4-4
  6
JWW_DASHED1
 62
     7
370
     9
100
AcDbLine
 10
-3744.981077207334
 20
1322.990908822615
 30
0.0
 11
-3744.981077207334
 21
2297.990908822615
 31
0.0
  0
LINE
  5
1F7
330
1F
100
AcDbEntity
  8
4-4
  6
JWW_DASHED1
 62
     7
370
     9
100
AcDbLine
 10
-3804.981077207334
 20
1322.990908822615
 30
0.0
 11
-3804.981077207334
 21
2297.990908822615
 31
0.0
  0
LINE
  5
1F8
330
1F
100
AcDbEntity
  8
4-4
  6
JWW_DASHED1
 62
     7
370
     9
100
AcDbLine
 10
-3804.981077207334
 20
1322.990908822615
 30
0.0
 11
-3744.981077207334
 21
1322.990908822615
 31
0.0
  0
LINE
  5
1F9
330
1F
100
AcDbEntity
  8
4-4
  6
JWW_DASHED1
 62
     7
370
     9
100
AcDbLine
 10
-3804.981077207334
 20
1307.990908822615
 30
0.0
 11
-1476.981077207334
 21
1307.990908822615
 31
0.0
  0
LINE
  5
1FA
330
1F
100
AcDbEntity
  8
4-4
  6
JWW_DASHED1
 62
     7
370
     9
100
AcDbLine
 10
-3804.981077207334
 20
1307.990908822615
 30
0.0
 11
-3804.981077207334
 21
1247.990908822615
 31
0.0
  0
LINE
  5
1FB
330
1F
100
AcDbEntity
  8
4-4
  6
JWW_DASHED1
 62
     7
370
     9
100
AcDbLine
 10
-3804.981077207334
 20
1247.990908822615
 30
0.0
 11
-1476.981077207334
 21
1247.990908822615
 31
0.0
  0
LINE
  5
1FC
330
1F
100
AcDbEntity
  8
4-4
  6
Continuous
 62
     7
370
     9
100
AcDbLine
 10
-3954.981077207334
 20
1052.990908822615
 30
0.0
 11
-3954.981077207334
 21
2297.990908822615
 31
0.0
  0
LINE
  5
1FD
330
1F
100
AcDbEntity
  8
4-4
  6
Continuous
 62
     4
370
     5
100
AcDbLine
 10
-3954.981077207334
 20
2557.951846531001
 30
0.0
 11
-3204.981077207334
 21
2557.951846531001
 31
0.0
  0
LWPOLYLINE
  5
1FE
330
1F
100
AcDbEntity
  8
4-4
  6
Continuous
 62
     4
370
     5
100
AcDbPolyline
 90
        4
 70
     1
 43
6.0
 10
-3951.981077207334
 20
2557.951846531001
 42
0.4142135623731
 10
-3954.981077207334
 20
2560.951846531001
 42
0.4142135623731
 10
-3957.981077207333
 20
2557.951846531001
 42
0.4142135623731
 10
-3954.981077207334
 20
2554.951846531001
 42
0.4142135623731
  0
LWPOLYLINE
  5
1FF
330
1F
100
AcDbEntity
  8
4-4
  6
Continuous
 62
     4
370
     5
100
AcDbPolyline
 90
        4
 70
     1
 43
6.0
 10
-3201.981077207334
 20
2557.951846531001
 42
0.4142135623731
 10
-3204.981077207334
 20
2560.951846531001
 42
0.4142135623731
 10
-3207.981077207333
 20
2557.951846531001
 42
0.4142135623731
 10
-3204.981077207334
 20
2554.951846531001
 42
0.4142135623731
  0
LINE
  5
200
330
1F
100
AcDbEntity
  8
4-4
  6
Continuous
 62
     7
370
     9
100
AcDbLine
 10
-3954.981077207334
 20
2557.951846531001
 30
0.0
 11
-3954.981077207334
 21
2413.569642421135
 31
0.0
  0
LINE
  5
201
330
1F
100
AcDbEntity
  8
4-4
  6
Continuous
 62
     7
370
     9
100
AcDbLine
 10
-3204.981077207334
 20
2557.951846531001
 30
0.0
 11
-3204.981077207334
 21
2413.569642421135
 31
0.0
  0
TEXT
  5
202
330
1F
100
AcDbEntity
  8
4-4
  6
Continuous
 62
     7
370
   211
100
AcDbText
 10
-3677.481077207334
 20
2589.871846531001
 30
0.0
 40
91.44
  1
250
 41
1.083333333333333
  7
ＭＳ ゴシック
100
AcDbText
  0
LINE
  5
203
330
1F
100
AcDbEntity
  8
4-4
  6
Continuous
 62
     4
370
     5
100
AcDbLine
 10
-3204.981077207334
 20
2557.951846531001
 30
0.0
 11
-3114.981077207339
 21
2557.951846531001
 31
0.0
  0
LWPOLYLINE
  5
204
330
1F
100
AcDbEntity
  8
4-4
  6
Continuous
 62
     4
370
     5
100
AcDbPolyline
 90
        4
 70
     1
 43
6.0
 10
-3111.981077207339
 20
2557.951846531001
 42
0.4142135623731
 10
-3114.981077207339
 20
2560.951846531001
 42
0.4142135623731
 10
-3117.981077207339
 20
2557.951846531001
 42
0.4142135623731
 10
-3114.981077207339
 20
2554.951846531001
 42
0.4142135623731
  0
LINE
  5
205
330
1F
100
AcDbEntity
  8
4-4
  6
Continuous
 62
     7
370
     9
100
AcDbLine
 10
-3114.981077207339
 20
2557.951846531001
 30
0.0
 11
-3114.981077207339
 21
2413.569642421135
 31
0.0
  0
TEXT
  5
206
330
1F
100
AcDbEntity
  8
4-4
  6
Continuous
 62
     7
370
   211
100
AcDbText
 10
-3223.731077207336
 20
2589.871846531001
 30
0.0
 40
91.44
  1
30
 41
1.0625
  7
ＭＳ ゴシック
100
AcDbText
  0
LINE
  5
207
330
1F
100
AcDbEntity
  8
4-4
  6
JWW_DASHED1
 62
     7
370
     9
100
AcDbLine
 10
-3204.981077207334
 20
1322.990908822615
 30
0.0
 11
-3114.981077207334
 21
1322.990908822615
 31
0.0
  0
LINE
  5
208
330
1F
100
AcDbEntity
  8
4-4
  6
JWW_DASHED1
 62
     7
370
     9
100
AcDbLine
 10
-3138.655810527316
 20
1322.990908822607
 30
0.0
 11
-3114.981077207327
 21
1346.665642142597
 31
0.0
  0
LINE
  5
209
330
1F
100
AcDbEntity
  8
4-4
  6
JWW_DASHED1
 62
     7
370
     9
100
AcDbLine
 10
-3181.082217398517
 20
1322.990908822607
 30
0.0
 11
-3114.981077207331
 21
1389.092049013792
 31
0.0
  0
LINE
  5
20A
330
1F
100
AcDbEntity
  8
4-4
  6
JWW_DASHED1
 62
     7
370
     9
100
AcDbLine
 10
-3204.981077207326
 20
1341.518455884997
 30
0.0
 11
-3114.981077207335
 21
1431.518455884989
 31
0.0
  0
LINE
  5
20B
330
1F
100
AcDbEntity
  8
4-4
  6
JWW_DASHED1
 62
     7
370
     9
100
AcDbLine
 10
-3204.98107720733
 20
1383.944862756194
 30
0.0
 11
-3114.981077207338
 21
1473.944862756185
 31
0.0
  0
LINE
  5
20C
330
1F
100
AcDbEntity
  8
4-4
  6
JWW_DASHED1
 62
     7
370
     9
100
AcDbLine
 10
-3204.981077207333
 20
1426.37126962739
 30
0.0
 11
-3114.981077207326
 21
1516.371269627397
 31
0.0
  0
LINE
  5
20D
330
1F
100
AcDbEntity
  8
4-4
  6
JWW_DASHED1
 62
     7
370
     9
100
AcDbLine
 10
-3204.981077207336
 20
1468.797676498587
 30
0.0
 11
-3114.98107720733
 21
1558.797676498594
 31
0.0
  0
LINE
  5
20E
330
1F
100
AcDbEntity
  8
4-4
  6
JWW_DASHED1
 62
     7
370
     9
100
AcDbLine
 10
-3204.98107720734
 20
1511.224083369783
 30
0.0
 11
-3114.981077207333
 21
1601.22408336979
 31
0.0
  0
LINE
  5
20F
330
1F
100
AcDbEntity
  8
4-4
  6
JWW_DASHED1
 62
     7
370
     9
100
AcDbLine
 10
-3204.981077207332
 20
1553.650490240937
 30
0.0
 11
-3114.981077207325
 21
1643.650490240944
 31
0.0
  0
LINE
  5
210
330
1F
100
AcDbEntity
  8
4-4
  6
JWW_DASHED1
 62
     7
370
     9
100
AcDbLine
 10
-3204.98107720732
 20
1596.076897112149
 30
0.0
 11
-3114.981077207329
 21
1686.07689711214
 31
0.0
  0
LINE
  5
211
330
1F
100
AcDbEntity
  8
4-4
  6
JWW_DASHED1
 62
     7
370
     9
100
AcDbLine
 10
-3204.981077207323
 20
1638.503303983346
 30
0.0
 11
-3114.981077207332
 21
1728.503303983337
 31
0.0
  0
LINE
  5
212
330
1F
100
AcDbEntity
  8
4-4
  6
JWW_DASHED1
 62
     7
370
     9
100
AcDbLine
 10
-3204.981077207327
 20
1680.929710854542
 30
0.0
 11
-3114.981077207336
 21
1770.929710854532
 31
0.0
  0
LINE
  5
213
330
1F
100
AcDbEntity
  8
4-4
  6
JWW_DASHED1
 62
     7
370
     9
100
AcDbLine
 10
-3204.981077207331
 20
1723.356117725737
 30
0.0
 11
-3114.98107720734
 21
1813.356117725729
 31
0.0
  0
LINE
  5
214
330
1F
100
AcDbEntity
  8
4-4
  6
JWW_DASHED1
 62
     7
370
     9
100
AcDbLine
 10
-3204.981077207335
 20
1765.782524596935
 30
0.0
 11
-3114.981077207328
 21
1855.782524596942
 31
0.0
  0
LINE
  5
215
330
1F
100
AcDbEntity
  8
4-4
  6
JWW_DASHED1
 62
     7
370
     9
100
AcDbLine
 10
-3204.981077207338
 20
1808.208931468131
 30
0.0
 11
-3114.981077207331
 21
1898.208931468138
 31
0.0
  0
LINE
  5
216
330
1F
100
AcDbEntity
  8
4-4
  6
JWW_DASHED1
 62
     7
370
     9
100
AcDbLine
 10
-3204.981077207346
 20
1850.635338339269
 30
0.0
 11
-3114.981077207339
 21
1940.635338339276
 31
0.0
  0
LINE
  5
217
330
1F
100
AcDbEntity
  8
4-4
  6
JWW_DASHED1
 62
     7
370
     9
100
AcDbLine
 10
-3204.981077207334
 20
1893.06174521048
 30
0.0
 11
-3114.981077207327
 21
1983.061745210488
 31
0.0
  0
LINE
  5
218
330
1F
100
AcDbEntity
  8
4-4
  6
JWW_DASHED1
 62
     7
370
     9
100
AcDbLine
 10
-3204.981077207322
 20
1935.488152081694
 30
0.0
 11
-3114.98107720733
 21
2025.488152081685
 31
0.0
  0
LINE
  5
219
330
1F
100
AcDbEntity
  8
4-4
  6
JWW_DASHED1
 62
     7
370
     9
100
AcDbLine
 10
-3204.981077207326
 20
1977.91455895289
 30
0.0
 11
-3114.981077207334
 21
2067.91455895288
 31
0.0
  0
LINE
  5
21A
330
1F
100
AcDbEntity
  8
4-4
  6
JWW_DASHED1
 62
     7
370
     9
100
AcDbLine
 10
-3204.981077207329
 20
2020.340965824086
 30
0.0
 11
-3114.981077207337
 21
2110.340965824078
 31
0.0
  0
LINE
  5
21B
330
1F
100
AcDbEntity
  8
4-4
  6
JWW_DASHED1
 62
     7
370
     9
100
AcDbLine
 10
-3204.981077207332
 20
2062.767372695283
 30
0.0
 11
-3114.981077207342
 21
2152.767372695273
 31
0.0
  0
LINE
  5
21C
330
1F
100
AcDbEntity
  8
4-4
  6
JWW_DASHED1
 62
     7
370
     9
100
AcDbLine
 10
-3204.981077207334
 20
1322.990908822615
 30
0.0
 11
-3204.981077207334
 21
2177.990908822615
 31
0.0
  0
LINE
  5
21D
330
1F
100
AcDbEntity
  8
4-4
  6
JWW_DASHED1
 62
     7
370
     9
100
AcDbLine
 10
-3114.981077207334
 20
1322.990908822615
 30
0.0
 11
-3114.981077207334
 21
2177.990908822615
 31
0.0
  0
LINE
  5
21E
330
1F
100
AcDbEntity
  8
4-4
  6
JWW_DASHED1
 62
     7
370
     9
100
AcDbLine
 10
-3204.981077207334
 20
2177.990908822615
 30
0.0
 11
-3114.981077207334
 21
2177.990908822615
 31
0.0
  0
LINE
  5
21F
330
1F
100
AcDbEntity
  8
4-4
  6
JWW_DASHED1
 62
     7
370
     9
100
AcDbLine
 10
-3204.98107720734
 20
2147.620186437674
 30
0.0
 11
-3174.610354822399
 21
2177.990908822615
 31
0.0
  0
LINE
  5
220
330
1F
100
AcDbEntity
  8
4-4
  6
JWW_DASHED1
 62
     7
370
     9
100
AcDbLine
 10
-3204.981077207336
 20
2105.193779566478
 30
0.0
 11
-3132.183947951199
 21
2177.990908822615
 31
0.0
  0
LINE
  5
221
330
1F
100
AcDbEntity
  8
4-4
  6
JWW_DASHED1
 62
     7
370
     9
100
AcDbLine
 10
641.0189227926674
 20
1247.990908822615
 30
0.0
 11
641.0189227926674
 21
2297.990908822615
 31
0.0
  0
LINE
  5
222
330
1F
100
AcDbEntity
  8
4-4
  6
JWW_DASHED1
 62
     7
370
     9
100
AcDbLine
 10
701.0189227926674
 20
1247.990908822615
 30
0.0
 11
701.0189227926674
 21
2297.990908822615
 31
0.0
  0
LINE
  5
223
330
1F
100
AcDbEntity
  8
4-4
  6
JWW_DASHED1
 62
     7
370
     9
100
AcDbLine
 10
-1626.981077207334
 20
1232.990908822615
 30
0.0
 11
701.0189227926674
 21
1232.990908822615
 31
0.0
  0
LINE
  5
224
330
1F
100
AcDbEntity
  8
4-4
  6
JWW_DASHED1
 62
     7
370
     9
100
AcDbLine
 10
-1626.981077207334
 20
1172.990908822615
 30
0.0
 11
701.0189227926674
 21
1172.990908822615
 31
0.0
  0
LINE
  5
225
330
1F
100
AcDbEntity
  8
4-4
  6
JWW_DASHED1
 62
     7
370
     9
100
AcDbLine
 10
701.0189227926674
 20
1232.990908822615
 30
0.0
 11
701.0189227926674
 21
1172.990908822615
 31
0.0
  0
LINE
  5
226
330
1F
100
AcDbEntity
  8
4-4
  6
JWW_DASHED1
 62
     7
370
     9
100
AcDbLine
 10
641.0189227926674
 20
1247.990908822615
 30
0.0
 11
701.0189227926674
 21
1247.990908822615
 31
0.0
  0
LINE
  5
227
330
1F
100
AcDbEntity
  8
4-4
  6
JWW_DASHED1
 62
     7
370
     9
100
AcDbLine
 10
-3744.981077207334
 20
2282.990908822615
 30
0.0
 11
641.0189227926676
 21
2282.990908822615
 31
0.0
  0
LINE
  5
228
330
1F
100
AcDbEntity
  8
4-4
  6
Continuous
 62
     7
370
     9
100
AcDbLine
 10
-3954.981077207334
 20
2297.990908822615
 30
0.0
 11
851.0189227926672
 21
2297.990908822615
 31
0.0
  0
LINE
  5
229
330
1F
100
AcDbEntity
  8
4-4
  6
Continuous
 62
     7
370
     9
100
AcDbLine
 10
851.0189227926672
 20
1052.990908822615
 30
0.0
 11
851.0189227926672
 21
2297.990908822615
 31
0.0
  0
LINE
  5
22A
330
1F
100
AcDbEntity
  8
4-4
  6
Continuous
 62
     7
370
     9
100
AcDbLine
 10
-3954.981077207334
 20
1052.990908822615
 30
0.0
 11
851.0189227926672
 21
1052.990908822615
 31
0.0
  0
LINE
  5
22B
330
1F
100
AcDbEntity
  8
4-4
  6
JWW_DASHED1
 62
     7
370
     9
100
AcDbLine
 10
101.0189227926672
 20
1322.990908822615
 30
0.0
 11
11.01892279266721
 21
1322.990908822615
 31
0.0
  0
LINE
  5
22C
330
1F
100
AcDbEntity
  8
4-4
  6
JWW_DASHED1
 62
     7
370
     9
100
AcDbLine
 10
34.69365611264983
 20
1322.990908822607
 30
0.0
 11
11.01892279266039
 21
1346.665642142597
 31
0.0
  0
LINE
  5
22D
330
1F
100
AcDbEntity
  8
4-4
  6
JWW_DASHED1
 62
     7
370
     9
100
AcDbLine
 10
77.12006298385049
 20
1322.990908822607
 30
0.0
 11
11.01892279266423
 21
1389.092049013792
 31
0.0
  0
LINE
  5
22E
330
1F
100
AcDbEntity
  8
4-4
  6
JWW_DASHED1
 62
     7
370
     9
100
AcDbLine
 10
101.0189227926591
 20
1341.518455884997
 30
0.0
 11
11.01892279266764
 21
1431.518455884989
 31
0.0
  0
LINE
  5
22F
330
1F
100
AcDbEntity
  8
4-4
  6
JWW_DASHED1
 62
     7
370
     9
100
AcDbLine
 10
101.0189227926632
 20
1383.944862756194
 30
0.0
 11
11.01892279267148
 21
1473.944862756185
 31
0.0
  0
LINE
  5
230
330
1F
100
AcDbEntity
  8
4-4
  6
JWW_DASHED1
 62
     7
370
     9
100
AcDbLine
 10
101.0189227926666
 20
1426.37126962739
 30
0.0
 11
11.01892279265911
 21
1516.371269627397
 31
0.0
  0
LINE
  5
231
330
1F
100
AcDbEntity
  8
4-4
  6
JWW_DASHED1
 62
     7
370
     9
100
AcDbLine
 10
101.01892279267
 20
1468.797676498587
 30
0.0
 11
11.01892279266295
 21
1558.797676498594
 31
0.0
  0
LINE
  5
232
330
1F
100
AcDbEntity
  8
4-4
  6
JWW_DASHED1
 62
     7
370
     9
100
AcDbLine
 10
101.0189227926738
 20
1511.224083369783
 30
0.0
 11
11.01892279266636
 21
1601.22408336979
 31
0.0
  0
LINE
  5
233
330
1F
100
AcDbEntity
  8
4-4
  6
JWW_DASHED1
 62
     7
370
     9
100
AcDbLine
 10
101.0189227926655
 20
1553.650490240937
 30
0.0
 11
11.01892279265847
 21
1643.650490240944
 31
0.0
  0
LINE
  5
234
330
1F
100
AcDbEntity
  8
4-4
  6
JWW_DASHED1
 62
     7
370
     9
100
AcDbLine
 10
101.0189227926536
 20
1596.076897112149
 30
0.0
 11
11.0189227926621
 21
1686.07689711214
 31
0.0
  0
LINE
  5
235
330
1F
100
AcDbEntity
  8
4-4
  6
JWW_DASHED1
 62
     7
370
     9
100
AcDbLine
 10
101.018922792657
 20
1638.503303983346
 30
0.0
 11
11.01892279266551
 21
1728.503303983337
 31
0.0
  0
LINE
  5
236
330
1F
100
AcDbEntity
  8
4-4
  6
JWW_DASHED1
 62
     7
370
     9
100
AcDbLine
 10
101.0189227926604
 20
1680.929710854542
 30
0.0
 11
11.01892279266934
 21
1770.929710854532
 31
0.0
  0
LINE
  5
237
330
1F
100
AcDbEntity
  8
4-4
  6
JWW_DASHED1
 62
     7
370
     9
100
AcDbLine
 10
101.0189227926642
 20
1723.356117725737
 30
0.0
 11
11.01892279267275
 21
1813.356117725729
 31
0.0
  0
LINE
  5
238
330
1F
100
AcDbEntity
  8
4-4
  6
JWW_DASHED1
 62
     7
370
     9
100
AcDbLine
 10
101.0189227926676
 20
1765.782524596935
 30
0.0
 11
11.01892279266082
 21
1855.782524596942
 31
0.0
  0
LINE
  5
239
330
1F
100
AcDbEntity
  8
4-4
  6
JWW_DASHED1
 62
     7
370
     9
100
AcDbLine
 10
101.0189227926715
 20
1808.208931468131
 30
0.0
 11
11.01892279266423
 21
1898.208931468138
 31
0.0
  0
LINE
  5
23A
330
1F
100
AcDbEntity
  8
4-4
  6
JWW_DASHED1
 62
     7
370
     9
100
AcDbLine
 10
101.0189227926791
 20
1850.635338339269
 30
0.0
 11
11.01892279267233
 21
1940.635338339276
 31
0.0
  0
LINE
  5
23B
330
1F
100
AcDbEntity
  8
4-4
  6
JWW_DASHED1
 62
     7
370
     9
100
AcDbLine
 10
101.0189227926672
 20
1893.06174521048
 30
0.0
 11
11.01892279266018
 21
1983.061745210488
 31
0.0
  0
LINE
  5
23C
330
1F
100
AcDbEntity
  8
4-4
  6
JWW_DASHED1
 62
     7
370
     9
100
AcDbLine
 10
101.0189227926551
 20
1935.488152081694
 30
0.0
 11
11.01892279266359
 21
2025.488152081685
 31
0.0
  0
LINE
  5
23D
330
1F
100
AcDbEntity
  8
4-4
  6
JWW_DASHED1
 62
     7
370
     9
100
AcDbLine
 10
101.0189227926587
 20
1977.91455895289
 30
0.0
 11
11.01892279266721
 21
2067.91455895288
 31
0.0
  0
LINE
  5
23E
330
1F
100
AcDbEntity
  8
4-4
  6
JWW_DASHED1
 62
     7
370
     9
100
AcDbLine
 10
101.0189227926621
 20
2020.340965824086
 30
0.0
 11
11.01892279267062
 21
2110.340965824078
 31
0.0
  0
LINE
  5
23F
330
1F
100
AcDbEntity
  8
4-4
  6
JWW_DASHED1
 62
     7
370
     9
100
AcDbLine
 10
101.0189227926655
 20
2062.767372695283
 30
0.0
 11
11.01892279267446
 21
2152.767372695273
 31
0.0
  0
LINE
  5
240
330
1F
100
AcDbEntity
  8
4-4
  6
JWW_DASHED1
 62
     7
370
     9
100
AcDbLine
 10
11.01892279266721
 20
1322.990908822615
 30
0.0
 11
11.01892279266721
 21
2177.990908822615
 31
0.0
  0
LINE
  5
241
330
1F
100
AcDbEntity
  8
4-4
  6
JWW_DASHED1
 62
     7
370
     9
100
AcDbLine
 10
11.01892279266721
 20
2177.990908822615
 30
0.0
 11
101.0189227926672
 21
2177.990908822615
 31
0.0
  0
LINE
  5
242
330
1F
100
AcDbEntity
  8
4-4
  6
JWW_DASHED1
 62
     7
370
     9
100
AcDbLine
 10
101.0189227926672
 20
1322.990908822615
 30
0.0
 11
101.0189227926672
 21
2177.990908822615
 31
0.0
  0
LINE
  5
243
330
1F
100
AcDbEntity
  8
4-4
  6
JWW_DASHED1
 62
     7
370
     9
100
AcDbLine
 10
101.0189227926693
 20
2105.193779566478
 30
0.0
 11
28.22179353653215
 21
2177.990908822615
 31
0.0
  0
LINE
  5
244
330
1F
100
AcDbEntity
  8
4-4
  6
JWW_DASHED1
 62
     7
370
     9
100
AcDbLine
 10
101.0189227926734
 20
2147.620186437674
 30
0.0
 11
70.64820040773228
 21
2177.990908822615
 31
0.0
  0
LINE
  5
245
330
1F
100
AcDbEntity
  8
4-4
  6
Continuous
 62
     7
370
     9
100
AcDbLine
 10
-3069.981077207334
 20
-2000.968597061558
 30
0.0
 11
-3069.981077207334
 21
-2453.968597061558
 31
0.0
  0
LINE
  5
246
330
1F
100
AcDbEntity
  8
4-4
  6
Continuous
 62
     7
370
     9
100
AcDbLine
 10
-3159.981077207334
 20
-2000.968597061558
 30
0.0
 11
-3159.981077207334
 21
-2453.968597061558
 31
0.0
  0
LINE
  5
247
330
1F
100
AcDbEntity
  8
4-4
  6
Continuous
 62
     7
370
     9
100
AcDbLine
 10
101.0189227926672
 20
-2000.968597061558
 30
0.0
 11
101.0189227926672
 21
-2453.968597061558
 31
0.0
  0
LINE
  5
248
330
1F
100
AcDbEntity
  8
4-4
  6
Continuous
 62
     7
370
     9
100
AcDbLine
 10
11.01892279266721
 20
-2000.968597061558
 30
0.0
 11
11.01892279266721
 21
-2453.968597061558
 31
0.0
  0
LINE
  5
249
330
1F
100
AcDbEntity
  8
4-4
  6
JWW_DASHED1
 62
     7
370
     9
100
AcDbLine
 10
611.0189227926674
 20
3378.341006306737
 30
0.0
 11
641.0189227926671
 21
3378.341006306737
 31
0.0
  0
LINE
  5
24A
330
1F
100
AcDbEntity
  8
4-4
  6
JWW_DASHED1
 62
     7
370
     9
100
AcDbLine
 10
611.0189227926674
 20
3348.341006306737
 30
0.0
 11
641.0189227926671
 21
3348.341006306737
 31
0.0
  0
LINE
  5
24B
330
1F
100
AcDbEntity
  8
4-4
  6
JWW_DASHED1
 62
     7
370
     9
100
AcDbLine
 10
611.0189227926674
 20
3348.341006306737
 30
0.0
 11
611.0189227926674
 21
3378.341006306737
 31
0.0
  0
LINE
  5
24C
330
1F
100
AcDbEntity
  8
4-4
  6
JWW_DASHED1
 62
     7
370
     9
100
AcDbLine
 10
611.0189227926674
 20
2688.341006306737
 30
0.0
 11
641.0189227926676
 21
2688.341006306737
 31
0.0
  0
LINE
  5
24D
330
1F
100
AcDbEntity
  8
4-4
  6
JWW_DASHED1
 62
     7
370
     9
100
AcDbLine
 10
611.0189227926674
 20
2658.341006306737
 30
0.0
 11
611.0189227926674
 21
2688.341006306737
 31
0.0
  0
LINE
  5
24E
330
1F
100
AcDbEntity
  8
4-4
  6
JWW_DASHED1
 62
     7
370
     9
100
AcDbLine
 10
611.0189227926674
 20
2658.341006306737
 30
0.0
 11
641.0189227926676
 21
2658.341006306737
 31
0.0
  0
LINE
  5
24F
330
1F
100
AcDbEntity
  8
4-4
  6
JWW_CENTER1
 62
     7
370
     9
100
AcDbLine
 10
568.0305036275456
 20
3363.341006306737
 30
0.0
 11
670.5997380471656
 21
3363.341006306737
 31
0.0
  0
LINE
  5
250
330
1F
100
AcDbEntity
  8
4-4
  6
JWW_CENTER1
 62
     7
370
     9
100
AcDbLine
 10
568.0305036275456
 20
2673.341006306737
 30
0.0
 11
670.5997380471656
 21
2673.341006306737
 31
0.0
  0
LINE
  5
251
330
1F
100
AcDbEntity
  8
4-4
  6
Continuous
 62
     4
370
     5
100
AcDbLine
 10
828.9183744619604
 20
2583.341006306737
 30
0.0
 11
828.9183744619604
 21
2673.341006306737
 31
0.0
  0
LWPOLYLINE
  5
252
330
1F
100
AcDbEntity
  8
4-4
  6
Continuous
 62
     4
370
     5
100
AcDbPolyline
 90
        4
 70
     1
 43
6.0
 10
831.9183744619605
 20
2583.341006306737
 42
0.4142135623731
 10
828.9183744619604
 20
2586.341006306737
 42
0.4142135623731
 10
825.9183744619604
 20
2583.341006306737
 42
0.4142135623731
 10
828.9183744619604
 20
2580.341006306737
 42
0.4142135623731
  0
LWPOLYLINE
  5
253
330
1F
100
AcDbEntity
  8
4-4
  6
Continuous
 62
     4
370
     5
100
AcDbPolyline
 90
        4
 70
     1
 43
6.0
 10
831.9183744619605
 20
2673.341006306737
 42
0.4142135623731
 10
828.9183744619604
 20
2676.341006306737
 42
0.4142135623731
 10
825.9183744619604
 20
2673.341006306737
 42
0.4142135623731
 10
828.9183744619604
 20
2670.341006306737
 42
0.4142135623731
  0
LINE
  5
254
330
1F
100
AcDbEntity
  8
4-4
  6
Continuous
 62
     7
370
     9
100
AcDbLine
 10
1153.500233841672
 20
2583.341006306737
 30
0.0
 11
706.271556213097
 21
2583.341006306737
 31
0.0
  0
LINE
  5
255
330
1F
100
AcDbEntity
  8
4-4
  6
Continuous
 62
     7
370
     9
100
AcDbLine
 10
828.9183744619604
 20
2673.341006306737
 30
0.0
 11
706.271556213097
 21
2673.341006306737
 31
0.0
  0
TEXT
  5
256
330
1F
100
AcDbEntity
  8
4-4
  6
Continuous
 62
     7
370
   211
100
AcDbText
 10
796.9983744619605
 20
2564.591006306737
 30
0.0
 40
91.44
  1
30
 50
90.0
 41
1.0625
  7
ＭＳ ゴシック
100
AcDbText
  0
LWPOLYLINE
  5
257
330
1F
100
AcDbEntity
  8
4-4
  6
Continuous
 62
     4
370
     5
100
AcDbPolyline
 90
        4
 70
     1
 43
6.0
 10
831.9183744619605
 20
3363.341006306737
 42
0.4142135623731
 10
828.9183744619604
 20
3366.341006306737
 42
0.4142135623731
 10
825.9183744619604
 20
3363.341006306737
 42
0.4142135623731
 10
828.9183744619604
 20
3360.341006306737
 42
0.4142135623731
  0
LINE
  5
258
330
1F
100
AcDbEntity
  8
4-4
  6
Continuous
 62
     7
370
     9
100
AcDbLine
 10
828.9183744619604
 20
3363.341006306737
 30
0.0
 11
706.271556213097
 21
3363.341006306737
 31
0.0
  0
LINE
  5
259
330
1F
100
AcDbEntity
  8
4-4
  6
Continuous
 62
     4
370
     5
100
AcDbLine
 10
828.9183744619604
 20
3363.341006306737
 30
0.0
 11
828.9183744619604
 21
3453.341006306737
 31
0.0
  0
LWPOLYLINE
  5
25A
330
1F
100
AcDbEntity
  8
4-4
  6
Continuous
 62
     4
370
     5
100
AcDbPolyline
 90
        4
 70
     1
 43
6.0
 10
831.9183744619605
 20
3453.341006306737
 42
0.4142135623731
 10
828.9183744619604
 20
3456.341006306737
 42
0.4142135623731
 10
825.9183744619604
 20
3453.341006306737
 42
0.4142135623731
 10
828.9183744619604
 20
3450.341006306737
 42
0.4142135623731
  0
LINE
  5
25B
330
1F
100
AcDbEntity
  8
4-4
  6
Continuous
 62
     7
370
     9
100
AcDbLine
 10
1153.500233841672
 20
3453.341006306737
 30
0.0
 11
706.271556213097
 21
3453.341006306737
 31
0.0
  0
TEXT
  5
25C
330
1F
100
AcDbEntity
  8
4-4
  6
Continuous
 62
     7
370
   211
100
AcDbText
 10
796.9983744619605
 20
3344.591006306737
 30
0.0
 40
91.44
  1
30
 50
90.0
 41
1.0625
  7
ＭＳ ゴシック
100
AcDbText
  0
LINE
  5
25D
330
1F
100
AcDbEntity
  8
4-4
  6
Continuous
 62
     4
370
     5
100
AcDbLine
 10
1153.500233841672
 20
2583.341006306737
 30
0.0
 11
1153.500233841672
 21
3453.341006306737
 31
0.0
  0
LWPOLYLINE
  5
25E
330
1F
100
AcDbEntity
  8
4-4
  6
Continuous
 62
     4
370
     5
100
AcDbPolyline
 90
        4
 70
     1
 43
6.0
 10
1156.500233841672
 20
2583.341006306737
 42
0.4142135623731
 10
1153.500233841672
 20
2586.341006306737
 42
0.4142135623731
 10
1150.500233841672
 20
2583.341006306737
 42
0.4142135623731
 10
1153.500233841672
 20
2580.341006306737
 42
0.4142135623731
  0
LWPOLYLINE
  5
25F
330
1F
100
AcDbEntity
  8
4-4
  6
Continuous
 62
     4
370
     5
100
AcDbPolyline
 90
        4
 70
     1
 43
6.0
 10
1156.500233841672
 20
3453.341006306737
 42
0.4142135623731
 10
1153.500233841672
 20
3456.341006306737
 42
0.4142135623731
 10
1150.500233841672
 20
3453.341006306737
 42
0.4142135623731
 10
1153.500233841672
 20
3450.341006306737
 42
0.4142135623731
  0
TEXT
  5
260
330
1F
100
AcDbEntity
  8
4-4
  6
Continuous
 62
     7
370
   211
100
AcDbText
 10
1121.580233841672
 20
2920.841006306737
 30
0.0
 40
91.44
  1
290
 50
90.0
 41
1.083333333333333
  7
ＭＳ ゴシック
100
AcDbText
  0
LWPOLYLINE
  5
261
330
1F
100
AcDbEntity
  8
4-4
  6
Continuous
 62
     4
370
     5
100
AcDbPolyline
 90
        4
 70
     1
 43
6.0
 10
644.0189227926674
 20
3822.621564482029
 42
0.4142135623731
 10
641.0189227926674
 20
3825.621564482029
 42
0.4142135623731
 10
638.0189227926672
 20
3822.621564482029
 42
0.4142135623731
 10
641.0189227926674
 20
3819.621564482029
 42
0.4142135623731
  0
LINE
  5
262
330
1F
100
AcDbEntity
  8
4-4
  6
Continuous
 62
     7
370
     9
100
AcDbLine
 10
641.0189227926674
 20
3822.621564482029
 30
0.0
 11
641.0189227926674
 21
3518.306522623352
 31
0.0
  0
LWPOLYLINE
  5
263
330
1F
100
AcDbEntity
  8
4-4
  6
Continuous
 62
     4
370
     5
100
AcDbPolyline
 90
        4
 70
     1
 43
6.0
 10
614.0189227926678
 20
3596.194503171247
 42
0.4142135623731
 10
611.0189227926677
 20
3599.194503171247
 42
0.4142135623731
 10
608.0189227926677
 20
3596.194503171247
 42
0.4142135623731
 10
611.0189227926677
 20
3593.194503171247
 42
0.4142135623731
  0
LINE
  5
264
330
1F
100
AcDbEntity
  8
4-4
  6
Continuous
 62
     7
370
     9
100
AcDbLine
 10
611.0189227926677
 20
3596.194503171247
 30
0.0
 11
611.0189227926677
 21
3518.306522623352
 31
0.0
  0
LINE
  5
265
330
1F
100
AcDbEntity
  8
4-4
  6
Continuous
 62
     4
370
     5
100
AcDbLine
 10
611.0189227926677
 20
3596.194503171247
 30
0.0
 11
641.0189227926674
 21
3596.194503171247
 31
0.0
  0
LWPOLYLINE
  5
266
330
1F
100
AcDbEntity
  8
4-4
  6
Continuous
 62
     4
370
     5
100
AcDbPolyline
 90
        4
 70
     1
 43
6.0
 10
644.0189227926674
 20
3596.194503171247
 42
0.4142135623731
 10
641.0189227926674
 20
3599.194503171247
 42
0.4142135623731
 10
638.0189227926672
 20
3596.194503171247
 42
0.4142135623731
 10
641.0189227926674
 20
3593.194503171247
 42
0.4142135623731
  0
TEXT
  5
267
330
1F
100
AcDbEntity
  8
4-4
  6
Continuous
 62
     7
370
   211
100
AcDbText
 10
562.2689227926676
 20
3628.114503171247
 30
0.0
 40
91.44
  1
10
 41
1.0625
  7
ＭＳ ゴシック
100
AcDbText
  0
LINE
  5
268
330
1F
100
AcDbEntity
  8
4-4
  6
Continuous
 62
     7
370
     9
100
AcDbLine
 10
-1521.981077207334
 20
3453.341006306737
 30
0.0
 11
641.0189227926674
 21
3453.341006306737
 31
0.0
  0
LINE
  5
269
330
1F
100
AcDbEntity
  8
4-4
  6
Continuous
 62
     7
370
     9
100
AcDbLine
 10
641.0189227926674
 20
2583.341006306737
 30
0.0
 11
641.0189227926674
 21
3453.341006306737
 31
0.0
  0
LINE
  5
26A
330
1F
100
AcDbEntity
  8
4-4
  6
Continuous
 62
     7
370
     9
100
AcDbLine
 10
-1521.981077207334
 20
2583.341006306737
 30
0.0
 11
641.0189227926674
 21
2583.341006306737
 31
0.0
  0
LINE
  5
26B
330
1F
100
AcDbEntity
  8
4-4
  6
Continuous
 62
     4
370
     5
100
AcDbLine
 10
-1521.981077207334
 20
3822.621564482029
 30
0.0
 11
641.0189227926672
 21
3822.621564482029
 31
0.0
  0
TEXT
  5
26C
330
1F
100
AcDbEntity
  8
4-4
  6
Continuous
 62
     7
370
   211
100
AcDbText
 10
-537.9810772073331
 20
3854.54156448203
 30
0.0
 40
91.44
  1
721
 41
1.083333333333333
  7
ＭＳ ゴシック
100
AcDbText
  0
LINE
  5
26D
330
1F
100
AcDbEntity
  8
4-4
  6
Continuous
 62
     4
370
     5
100
AcDbLine
 10
1190.740618557089
 20
2297.990908822615
 30
0.0
 11
1190.740618557089
 21
1247.990908822615
 31
0.0
  0
LWPOLYLINE
  5
26E
330
1F
100
AcDbEntity
  8
4-4
  6
Continuous
 62
     4
370
     5
100
AcDbPolyline
 90
        4
 70
     1
 43
6.0
 10
1193.740618557089
 20
2297.990908822615
 42
0.4142135623731
 10
1190.740618557089
 20
2300.990908822615
 42
0.4142135623731
 10
1187.740618557088
 20
2297.990908822615
 42
0.4142135623731
 10
1190.740618557089
 20
2294.990908822615
 42
0.4142135623731
  0
LWPOLYLINE
  5
26F
330
1F
100
AcDbEntity
  8
4-4
  6
Continuous
 62
     4
370
     5
100
AcDbPolyline
 90
        4
 70
     1
 43
6.0
 10
1193.740618557089
 20
1247.990908822615
 42
0.4142135623731
 10
1190.740618557089
 20
1250.990908822615
 42
0.4142135623731
 10
1187.740618557088
 20
1247.990908822615
 42
0.4142135623731
 10
1190.740618557089
 20
1244.990908822615
 42
0.4142135623731
  0
LINE
  5
270
330
1F
100
AcDbEntity
  8
4-4
  6
Continuous
 62
     7
370
     9
100
AcDbLine
 10
1190.740618557089
 20
2297.990908822615
 30
0.0
 11
982.2983102645892
 21
2297.990908822615
 31
0.0
  0
LINE
  5
271
330
1F
100
AcDbEntity
  8
4-4
  6
Continuous
 62
     7
370
     9
100
AcDbLine
 10
1190.740618557089
 20
1247.990908822615
 30
0.0
 11
982.2983102645892
 21
1247.990908822615
 31
0.0
  0
TEXT
  5
272
330
1F
100
AcDbEntity
  8
4-4
  6
Continuous
 62
     7
370
   211
100
AcDbText
 10
1158.820618557088
 20
1675.490908822615
 30
0.0
 40
91.44
  1
350
 50
90.0
 41
1.083333333333333
  7
ＭＳ ゴシック
100
AcDbText
  0
LINE
  5
273
330
1F
100
AcDbEntity
  8
4-4
  6
Continuous
 62
     4
370
     5
100
AcDbLine
 10
1228.788788816568
 20
258.0314029384425
 30
0.0
 11
1228.788788816568
 21
-1901.968597061558
 31
0.0
  0
LWPOLYLINE
  5
274
330
1F
100
AcDbEntity
  8
4-4
  6
Continuous
 62
     4
370
     5
100
AcDbPolyline
 90
        4
 70
     1
 43
6.0
 10
1231.788788816568
 20
258.0314029384425
 42
0.4142135623731
 10
1228.788788816568
 20
261.0314029384425
 42
0.4142135623731
 10
1225.788788816568
 20
258.0314029384425
 42
0.4142135623731
 10
1228.788788816568
 20
255.0314029384425
 42
0.4142135623731
  0
LWPOLYLINE
  5
275
330
1F
100
AcDbEntity
  8
4-4
  6
Continuous
 62
     4
370
     5
100
AcDbPolyline
 90
        4
 70
     1
 43
6.0
 10
1231.788788816568
 20
-1901.968597061558
 42
0.4142135623731
 10
1228.788788816568
 20
-1898.968597061558
 42
0.4142135623731
 10
1225.788788816568
 20
-1901.968597061558
 42
0.4142135623731
 10
1228.788788816568
 20
-1904.968597061558
 42
0.4142135623731
  0
LINE
  5
276
330
1F
100
AcDbEntity
  8
4-4
  6
Continuous
 62
     7
370
     9
100
AcDbLine
 10
1228.788788816568
 20
258.0314029384425
 30
0.0
 11
1015.499767259691
 21
258.0314029384425
 31
0.0
  0
LINE
  5
277
330
1F
100
AcDbEntity
  8
4-4
  6
Continuous
 62
     7
370
     9
100
AcDbLine
 10
1228.788788816568
 20
-1901.968597061558
 30
0.0
 11
1015.499767259691
 21
-1901.968597061558
 31
0.0
  0
TEXT
  5
278
330
1F
100
AcDbEntity
  8
4-4
  6
Continuous
 62
     7
370
   211
100
AcDbText
 10
1196.868788816568
 20
-919.4685970615575
 30
0.0
 40
91.44
  1
720(引戸H）
 50
90.0
 41
1.102272727272727
  7
ＭＳ ゴシック
100
AcDbText
  0
LINE
  5
279
330
1F
100
AcDbEntity
  8
4-4
  6
Continuous
 62
     4
370
     5
100
AcDbLine
 10
-3954.981077207334
 20
-2682.569832402235
 30
0.0
 11
-3804.981077207333
 21
-2682.569832402235
 31
0.0
  0
LWPOLYLINE
  5
27A
330
1F
100
AcDbEntity
  8
4-4
  6
Continuous
 62
     4
370
     5
100
AcDbPolyline
 90
        4
 70
     1
 43
6.0
 10
-3801.981077207333
 20
-2682.569832402235
 42
0.4142135623731
 10
-3804.981077207333
 20
-2679.569832402235
 42
0.4142135623731
 10
-3807.981077207333
 20
-2682.569832402235
 42
0.4142135623731
 10
-3804.981077207333
 20
-2685.569832402235
 42
0.4142135623731
  0
LINE
  5
27B
330
1F
100
AcDbEntity
  8
4-4
  6
Continuous
 62
     7
370
     9
100
AcDbLine
 10
-3804.981077207333
 20
-2682.569832402235
 30
0.0
 11
-3804.981077207333
 21
-2530.055865921789
 31
0.0
  0
TEXT
  5
27C
330
1F
100
AcDbEntity
  8
4-4
  6
Continuous
 62
     7
370
   211
100
AcDbText
 10
-3943.731077207334
 20
-2650.649832402235
 30
0.0
 40
91.44
  1
50
 41
1.0625
  7
ＭＳ ゴシック
100
AcDbText
  0
LINE
  5
27D
330
1F
100
AcDbEntity
  8
4-4
  6
Continuous
 62
     4
370
     5
100
AcDbLine
 10
-3804.981077207333
 20
-2682.569832402235
 30
0.0
 11
701.0189227926668
 21
-2682.569832402235
 31
0.0
  0
LWPOLYLINE
  5
27E
330
1F
100
AcDbEntity
  8
4-4
  6
Continuous
 62
     4
370
     5
100
AcDbPolyline
 90
        4
 70
     1
 43
6.0
 10
704.0189227926668
 20
-2682.569832402235
 42
0.4142135623731
 10
701.0189227926668
 20
-2679.569832402235
 42
0.4142135623731
 10
698.0189227926668
 20
-2682.569832402235
 42
0.4142135623731
 10
701.0189227926668
 20
-2685.569832402235
 42
0.4142135623731
  0
LINE
  5
27F
330
1F
100
AcDbEntity
  8
4-4
  6
Continuous
 62
     7
370
     9
100
AcDbLine
 10
701.0189227926668
 20
-2682.569832402235
 30
0.0
 11
701.0189227926668
 21
-2530.055865921789
 31
0.0
  0
TEXT
  5
280
330
1F
100
AcDbEntity
  8
4-4
  6
Continuous
 62
     7
370
   211
100
AcDbText
 10
-1716.981077207334
 20
-2650.649832402235
 30
0.0
 40
91.44
  1
1,502
 41
1.1
  7
ＭＳ ゴシック
100
AcDbText
  0
LINE
  5
281
330
1F
100
AcDbEntity
  8
4-4
  6
Continuous
 62
     4
370
     5
100
AcDbLine
 10
701.0189227926668
 20
-2682.569832402235
 30
0.0
 11
851.0189227926668
 21
-2682.569832402235
 31
0.0
  0
TEXT
  5
282
330
1F
100
AcDbEntity
  8
4-4
  6
Continuous
 62
     7
370
   211
100
AcDbText
 10
712.2689227926668
 20
-2650.649832402235
 30
0.0
 40
91.44
  1
50
 41
1.0625
  7
ＭＳ ゴシック
100
AcDbText
  0
LINE
  5
283
330
1F
100
AcDbEntity
  8
4-4
  6
Continuous
 62
     4
370
     5
100
AcDbLine
 10
-3954.981077207334
 20
-3022.793296089385
 30
0.0
 11
851.0189227926676
 21
-3022.793296089385
 31
0.0
  0
LWPOLYLINE
  5
284
330
1F
100
AcDbEntity
  8
4-4
  6
Continuous
 62
     4
370
     5
100
AcDbPolyline
 90
        4
 70
     1
 43
6.0
 10
-3951.981077207334
 20
-3022.793296089385
 42
0.4142135623731
 10
-3954.981077207334
 20
-3019.793296089385
 42
0.4142135623731
 10
-3957.981077207333
 20
-3022.793296089385
 42
0.4142135623731
 10
-3954.981077207334
 20
-3025.793296089385
 42
0.4142135623731
  0
LWPOLYLINE
  5
285
330
1F
100
AcDbEntity
  8
4-4
  6
Continuous
 62
     4
370
     5
100
AcDbPolyline
 90
        4
 70
     1
 43
6.0
 10
854.0189227926677
 20
-3022.793296089385
 42
0.4142135623731
 10
851.0189227926676
 20
-3019.793296089385
 42
0.4142135623731
 10
848.0189227926676
 20
-3022.793296089385
 42
0.4142135623731
 10
851.0189227926676
 20
-3025.793296089385
 42
0.4142135623731
  0
TEXT
  5
286
330
1F
100
AcDbEntity
  8
4-4
  6
Continuous
 62
     7
370
   211
100
AcDbText
 10
-1991.680532445924
 20
-2970.600798668885
 30
0.0
 40
91.44
  1
1,602（ﾎﾞｯｸｽＷ）
 41
1.109375
  7
ＭＳ ゴシック
100
AcDbText
  0
LINE
  5
287
330
1F
100
AcDbEntity
  8
4-4
  6
JWW_CENTER1
 62
     3
370
    13
100
AcDbLine
 10
-1551.981077207334
 20
457.5418994413407
 30
0.0
 11
-1551.981077207334
 21
-1965.166582827071
 31
0.0
  0
LINE
  5
288
330
1F
100
AcDbEntity
  8
4-4
  6
Continuous
 62
     3
370
    13
100
AcDbLine
 10
-1626.981077207334
 20
-179.3685970615575
 30
0.0
 11
-3654.981077207333
 21
-179.3685970615575
 31
0.0
  0
LINE
  5
289
330
1F
100
AcDbEntity
  8
4-4
  6
Continuous
 62
     3
370
    13
100
AcDbLine
 10
-1626.981077207334
 20
-206.3685970615575
 30
0.0
 11
-3654.981077207333
 21
-206.3685970615575
 31
0.0
  0
LINE
  5
28A
330
1F
100
AcDbEntity
  8
4-4
  6
Continuous
 62
     3
370
    13
100
AcDbLine
 10
-1626.981077207334
 20
-493.7685970615576
 30
0.0
 11
-3654.981077207333
 21
-493.7685970615576
 31
0.0
  0
LINE
  5
28B
330
1F
100
AcDbEntity
  8
4-4
  6
Continuous
 62
     3
370
    13
100
AcDbLine
 10
-1626.981077207334
 20
-520.7685970615576
 30
0.0
 11
-3654.981077207333
 21
-520.7685970615576
 31
0.0
  0
LINE
  5
28C
330
1F
100
AcDbEntity
  8
4-4
  6
Continuous
 62
     3
370
    13
100
AcDbLine
 10
-1626.981077207334
 20
-808.1685970615574
 30
0.0
 11
-3654.981077207333
 21
-808.1685970615574
 31
0.0
  0
LINE
  5
28D
330
1F
100
AcDbEntity
  8
4-4
  6
Continuous
 62
     3
370
    13
100
AcDbLine
 10
-1626.981077207334
 20
-835.1685970615574
 30
0.0
 11
-3654.981077207333
 21
-835.1685970615574
 31
0.0
  0
LINE
  5
28E
330
1F
100
AcDbEntity
  8
4-4
  6
Continuous
 62
     3
370
    13
100
AcDbLine
 10
-1626.981077207334
 20
-1122.568597061557
 30
0.0
 11
-3654.981077207333
 21
-1122.568597061557
 31
0.0
  0
LINE
  5
28F
330
1F
100
AcDbEntity
  8
4-4
  6
Continuous
 62
     3
370
    13
100
AcDbLine
 10
-1626.981077207334
 20
-1149.568597061557
 30
0.0
 11
-3654.981077207333
 21
-1149.568597061557
 31
0.0
  0
LINE
  5
290
330
1F
100
AcDbEntity
  8
4-4
  6
Continuous
 62
     3
370
    13
100
AcDbLine
 10
-1626.981077207334
 20
-1436.968597061557
 30
0.0
 11
-3654.981077207333
 21
-1436.968597061557
 31
0.0
  0
LINE
  5
291
330
1F
100
AcDbEntity
  8
4-4
  6
Continuous
 62
     3
370
    13
100
AcDbLine
 10
-1626.981077207334
 20
-1463.968597061557
 30
0.0
 11
-3654.981077207333
 21
-1463.968597061557
 31
0.0
  0
LINE
  5
292
330
1F
100
AcDbEntity
  8
4-4
  6
Continuous
 62
     3
370
    13
100
AcDbLine
 10
551.0189227926667
 20
-179.3685970615575
 30
0.0
 11
-1476.981077207334
 21
-179.3685970615575
 31
0.0
  0
LINE
  5
293
330
1F
100
AcDbEntity
  8
4-4
  6
Continuous
 62
     3
370
    13
100
AcDbLine
 10
551.0189227926667
 20
-206.3685970615575
 30
0.0
 11
-1476.981077207334
 21
-206.3685970615575
 31
0.0
  0
LINE
  5
294
330
1F
100
AcDbEntity
  8
4-4
  6
Continuous
 62
     3
370
    13
100
AcDbLine
 10
551.0189227926667
 20
-493.7685970615576
 30
0.0
 11
-1476.981077207334
 21
-493.7685970615576
 31
0.0
  0
LINE
  5
295
330
1F
100
AcDbEntity
  8
4-4
  6
Continuous
 62
     3
370
    13
100
AcDbLine
 10
551.0189227926667
 20
-520.7685970615576
 30
0.0
 11
-1476.981077207334
 21
-520.7685970615576
 31
0.0
  0
LINE
  5
296
330
1F
100
AcDbEntity
  8
4-4
  6
Continuous
 62
     3
370
    13
100
AcDbLine
 10
551.0189227926667
 20
-808.1685970615574
 30
0.0
 11
-1476.981077207334
 21
-808.1685970615574
 31
0.0
  0
LINE
  5
297
330
1F
100
AcDbEntity
  8
4-4
  6
Continuous
 62
     3
370
    13
100
AcDbLine
 10
551.0189227926667
 20
-835.1685970615574
 30
0.0
 11
-1476.981077207334
 21
-835.1685970615574
 31
0.0
  0
LINE
  5
298
330
1F
100
AcDbEntity
  8
4-4
  6
Continuous
 62
     3
370
    13
100
AcDbLine
 10
551.0189227926667
 20
-1122.568597061557
 30
0.0
 11
-1476.981077207334
 21
-1122.568597061557
 31
0.0
  0
LINE
  5
299
330
1F
100
AcDbEntity
  8
4-4
  6
Continuous
 62
     3
370
    13
100
AcDbLine
 10
551.0189227926667
 20
-1149.568597061557
 30
0.0
 11
-1476.981077207334
 21
-1149.568597061557
 31
0.0
  0
LINE
  5
29A
330
1F
100
AcDbEntity
  8
4-4
  6
Continuous
 62
     3
370
    13
100
AcDbLine
 10
551.0189227926667
 20
-1436.968597061557
 30
0.0
 11
-1476.981077207334
 21
-1436.968597061557
 31
0.0
  0
LINE
  5
29B
330
1F
100
AcDbEntity
  8
4-4
  6
Continuous
 62
     3
370
    13
100
AcDbLine
 10
551.0189227926667
 20
-1463.968597061557
 30
0.0
 11
-1476.981077207334
 21
-1463.968597061557
 31
0.0
  0
LINE
  5
29C
330
1F
100
AcDbEntity
  8
4-4
  6
Continuous
 62
     3
370
    13
100
AcDbLine
 10
-3365.271077207333
 20
108.0314029384425
 30
0.0
 11
-3365.271077207333
 21
-1751.368597061558
 31
0.0
  0
LINE
  5
29D
330
1F
100
AcDbEntity
  8
4-4
  6
Continuous
 62
     3
370
    13
100
AcDbLine
 10
-1916.721077207334
 20
108.0314029384425
 30
0.0
 11
-1916.721077207334
 21
-1751.368597061558
 31
0.0
  0
LINE
  5
29E
330
1F
100
AcDbEntity
  8
4-4
  6
Continuous
 62
     3
370
    13
100
AcDbLine
 10
-3075.561077207334
 20
108.0314029384425
 30
0.0
 11
-3075.561077207334
 21
-1751.368597061558
 31
0.0
  0
LINE
  5
29F
330
1F
100
AcDbEntity
  8
4-4
  6
Continuous
 62
     3
370
    13
100
AcDbLine
 10
-2785.851077207334
 20
108.0314029384425
 30
0.0
 11
-2785.851077207334
 21
-1751.368597061558
 31
0.0
  0
LINE
  5
2A0
330
1F
100
AcDbEntity
  8
4-4
  6
Continuous
 62
     3
370
    13
100
AcDbLine
 10
-2496.141077207334
 20
108.0314029384425
 30
0.0
 11
-2496.141077207334
 21
-1751.368597061558
 31
0.0
  0
LINE
  5
2A1
330
1F
100
AcDbEntity
  8
4-4
  6
Continuous
 62
     3
370
    13
100
AcDbLine
 10
-2206.431077207334
 20
108.0314029384425
 30
0.0
 11
-2206.431077207334
 21
-1751.368597061558
 31
0.0
  0
LINE
  5
2A2
330
1F
100
AcDbEntity
  8
4-4
  6
Continuous
 62
     3
370
    13
100
AcDbLine
 10
-1187.271077207334
 20
108.0314029384425
 30
0.0
 11
-1187.271077207334
 21
-1751.368597061558
 31
0.0
  0
LINE
  5
2A3
330
1F
100
AcDbEntity
  8
4-4
  6
Continuous
 62
     3
370
    13
100
AcDbLine
 10
261.2789227926664
 20
108.0314029384425
 30
0.0
 11
261.2789227926664
 21
-1751.368597061558
 31
0.0
  0
LINE
  5
2A4
330
1F
100
AcDbEntity
  8
4-4
  6
Continuous
 62
     3
370
    13
100
AcDbLine
 10
-897.5610772073336
 20
108.0314029384425
 30
0.0
 11
-897.5610772073336
 21
-1751.368597061558
 31
0.0
  0
LINE
  5
2A5
330
1F
100
AcDbEntity
  8
4-4
  6
Continuous
 62
     3
370
    13
100
AcDbLine
 10
-607.8510772073336
 20
108.0314029384425
 30
0.0
 11
-607.8510772073336
 21
-1751.368597061558
 31
0.0
  0
LINE
  5
2A6
330
1F
100
AcDbEntity
  8
4-4
  6
Continuous
 62
     3
370
    13
100
AcDbLine
 10
-318.1410772073336
 20
108.0314029384425
 30
0.0
 11
-318.1410772073336
 21
-1751.368597061558
 31
0.0
  0
LINE
  5
2A7
330
1F
100
AcDbEntity
  8
4-4
  6
Continuous
 62
     3
370
    13
100
AcDbLine
 10
-28.43107720733357
 20
108.0314029384425
 30
0.0
 11
-28.43107720733357
 21
-1751.368597061558
 31
0.0
  0
LINE
  5
2A8
330
1F
100
AcDbEntity
  8
4-4
  6
Continuous
 62
     4
370
     5
100
AcDbLine
 10
-1626.981077207334
 20
754.4318217284103
 30
0.0
 11
701.0189227926667
 21
754.4318217284103
 31
0.0
  0
LWPOLYLINE
  5
2A9
330
1F
100
AcDbEntity
  8
4-4
  6
Continuous
 62
     4
370
     5
100
AcDbPolyline
 90
        4
 70
     1
 43
6.0
 10
-1623.981077207333
 20
754.4318217284103
 42
0.4142135623731
 10
-1626.981077207334
 20
757.4318217284103
 42
0.4142135623731
 10
-1629.981077207334
 20
754.4318217284103
 42
0.4142135623731
 10
-1626.981077207334
 20
751.4318217284103
 42
0.4142135623731
  0
LWPOLYLINE
  5
2AA
330
1F
100
AcDbEntity
  8
4-4
  6
Continuous
 62
     4
370
     5
100
AcDbPolyline
 90
        4
 70
     1
 43
6.0
 10
704.0189227926667
 20
754.4318217284103
 42
0.4142135623731
 10
701.0189227926667
 20
757.4318217284103
 42
0.4142135623731
 10
698.0189227926667
 20
754.4318217284103
 42
0.4142135623731
 10
701.0189227926667
 20
751.4318217284103
 42
0.4142135623731
  0
LINE
  5
2AB
330
1F
100
AcDbEntity
  8
4-4
  6
Continuous
 62
     7
370
     9
100
AcDbLine
 10
701.0189227926667
 20
754.4318217284103
 30
0.0
 11
701.0189227926667
 21
416.5459879529353
 31
0.0
  0
TEXT
  5
2AC
330
1F
100
AcDbEntity
  8
4-4
  6
Continuous
 62
     7
370
   211
100
AcDbText
 10
-763.2188172236511
 20
786.853914911642
 30
0.0
 40
91.44
  1
776（引戸W）
 41
1.104166666666667
  7
ＭＳ ゴシック
100
AcDbText
  0
TEXT
  5
2AD
330
1F
100
AcDbEntity
  8
F-A
  6
Continuous
 62
     7
370
     0
100
AcDbText
 10
99.91854284331623
 20
-3871.539820871936
 30
0.0
 40
45.72
  1
図面名
  7
ＭＳ ゴシック
100
AcDbText
  0
LINE
  5
2AE
330
1F
100
AcDbEntity
  8
F-0
  6
JWW_HOJO
 62
     4
370
     5
100
AcDbLine
 10
-6140.081333436773
 20
-4455.0
 30
0.0
 11
-6140.081333436773
 21
4424.999604096284
 31
0.0
  0
LINE
  5
2AF
330
1F
100
AcDbEntity
  8
F-0
  6
JWW_HOJO
 62
     4
370
     5
100
AcDbLine
 10
-6140.081333436773
 20
4424.999604096284
 30
0.0
 11
6159.917676803936
 21
4424.999604096284
 31
0.0
  0
LINE
  5
2B0
330
1F
100
AcDbEntity
  8
F-0
  6
JWW_HOJO
 62
     4
370
     5
100
AcDbLine
 10
6159.917676803936
 20
4424.999604096284
 30
0.0
 11
6159.917676803936
 21
-4455.0
 31
0.0
  0
LINE
  5
2B1
330
1F
100
AcDbEntity
  8
F-0
  6
JWW_HOJO
 62
     4
370
     5
100
AcDbLine
 10
6159.917676803936
 20
-4455.0
 30
0.0
 11
-6140.081333436773
 21
-4455.0
 31
0.0
  0
LINE
  5
2B2
330
1F
100
AcDbEntity
  8
F-0
  6
JWW_HOJO
 62
     7
370
     9
100
AcDbLine
 10
1009.918254163523
 20
-3795.000003092998
 30
0.0
 11
1009.918254163523
 21
-4195.000008247994
 31
0.0
  0
LINE
  5
2B3
330
1F
100
AcDbEntity
  8
F-0
  6
JWW_HOJO
 62
     7
370
     9
100
AcDbLine
 10
509.9185840832865
 20
-3795.000003092998
 30
0.0
 11
509.9185840832865
 21
-4195.000008247994
 31
0.0
  0
LINE
  5
2B4
330
1F
100
AcDbEntity
  8
F-1
  6
Continuous
 62
   200
370
    20
100
AcDbLine
 10
5859.917429364114
 20
4174.999769056166
 30
0.0
 11
5859.917429364114
 21
-4205.000164959882
 31
0.0
  0
LINE
  5
2B5
330
1F
100
AcDbEntity
  8
F-1
  6
Continuous
 62
   200
370
    20
100
AcDbLine
 10
-5840.081317971782
 20
4174.999769056166
 30
0.0
 11
-5840.081317971782
 21
-4205.000164959882
 31
0.0
  0
LINE
  5
2B6
330
1F
100
AcDbEntity
  8
F-1
  6
Continuous
 62
   200
370
    20
100
AcDbLine
 10
5859.917429364114
 20
-4205.000002577498
 30
0.0
 11
-5840.081085996952
 21
-4205.000002577498
 31
0.0
  0
LINE
  5
2B7
330
1F
100
AcDbEntity
  8
F-1
  6
Continuous
 62
   200
370
    20
100
AcDbLine
 10
-5830.081323642279
 20
4174.999769056166
 30
0.0
 11
-5830.081323642279
 21
-4205.000164959882
 31
0.0
  0
LINE
  5
2B8
330
1F
100
AcDbEntity
  8
F-1
  6
Continuous
 62
   200
370
    20
100
AcDbLine
 10
-5835.081309208291
 20
4174.999769056166
 30
0.0
 11
-5835.081309208291
 21
-4205.000164959882
 31
0.0
  0
LINE
  5
2B9
330
1F
100
AcDbEntity
  8
F-1
  6
Continuous
 62
   200
370
    20
100
AcDbLine
 10
5854.917165428304
 20
4174.999769056166
 30
0.0
 11
5854.917165428304
 21
-4205.000164959882
 31
0.0
  0
LINE
  5
2BA
330
1F
100
AcDbEntity
  8
F-1
  6
Continuous
 62
   200
370
    20
100
AcDbLine
 10
5849.917643811961
 20
4174.999769056166
 30
0.0
 11
5849.917643811961
 21
-4205.000164959882
 31
0.0
  0
LINE
  5
2BB
330
1F
100
AcDbEntity
  8
F-1
  6
Continuous
 62
   200
370
    20
100
AcDbLine
 10
5859.917429364114
 20
-4199.999993814004
 30
0.0
 11
-5840.081085996952
 21
-4199.999993814004
 31
0.0
  0
LINE
  5
2BC
330
1F
100
AcDbEntity
  8
F-1
  6
Continuous
 62
   200
370
    20
100
AcDbLine
 10
5859.917429364114
 20
-4195.000008247994
 30
0.0
 11
-5840.081085996952
 21
-4195.000008247994
 31
0.0
  0
LINE
  5
2BD
330
1F
100
AcDbEntity
  8
F-1
  6
Continuous
 62
   200
370
    20
100
AcDbLine
 10
4349.917891251784
 20
-3795.000003092998
 30
0.0
 11
4349.917891251784
 21
-4195.000008247994
 31
0.0
  0
LINE
  5
2BE
330
1F
100
AcDbEntity
  8
F-1
  6
Continuous
 62
   200
370
    20
100
AcDbLine
 10
2849.917396372139
 20
-3795.000003092998
 30
0.0
 11
2849.917396372139
 21
-4195.000008247994
 31
0.0
  0
LINE
  5
2BF
330
1F
100
AcDbEntity
  8
F-1
  6
Continuous
 62
   200
370
    20
100
AcDbLine
 10
9.918542843316231
 20
-3795.000003092998
 30
0.0
 11
9.918542843316231
 21
-4195.000008247994
 31
0.0
  0
LINE
  5
2C0
330
1F
100
AcDbEntity
  8
F-1
  6
Continuous
 62
   200
370
    20
100
AcDbLine
 10
9.918542843316231
 20
-3994.999936078046
 30
0.0
 11
5849.917643811961
 21
-3995.005364289155
 31
0.0
  0
LINE
  5
2C1
330
1F
100
AcDbEntity
  8
F-1
  6
Continuous
 62
   200
370
    20
100
AcDbLine
 10
-5840.081085996952
 20
4174.999769056166
 30
0.0
 11
5859.917429364114
 21
4174.999769056166
 31
0.0
  0
LINE
  5
2C2
330
1F
100
AcDbEntity
  8
F-1
  6
Continuous
 62
   200
370
    20
100
AcDbLine
 10
-5840.081085996952
 20
4164.999983504013
 30
0.0
 11
5859.917429364114
 21
4164.999983504013
 31
0.0
  0
LINE
  5
2C3
330
1F
100
AcDbEntity
  8
F-1
  6
Continuous
 62
   200
370
    20
100
AcDbLine
 10
-5840.081085996952
 20
4169.999505120355
 30
0.0
 11
5859.917429364114
 21
4169.999505120355
 31
0.0
  0
LINE
  5
2C4
330
1F
100
AcDbEntity
  8
F-0
  6
JWW_HOJO
 62
     7
370
     9
100
AcDbLine
 10
-5830.081323642279
 20
-3994.99993607839
 30
0.0
 11
9.918542843316231
 21
-3994.99993607839
 31
0.0
  0
LINE
  5
2C5
330
1F
100
AcDbEntity
  8
F-0
  6
JWW_HOJO
 62
     7
370
     9
100
AcDbLine
 10
-5830.081323642279
 20
-3904.99993607839
 30
0.0
 11
9.918542843316231
 21
-3904.99993607839
 31
0.0
  0
LINE
  5
2C6
330
1F
100
AcDbEntity
  8
F-0
  6
JWW_HOJO
 62
     7
370
     9
100
AcDbLine
 10
-5830.081323642279
 20
-4084.99993607839
 30
0.0
 11
9.918542843316231
 21
-4084.99993607839
 31
0.0
  0
LINE
  5
2C7
330
1F
100
AcDbEntity
  8
F-0
  6
JWW_HOJO
 62
     7
370
     9
100
AcDbLine
 10
9.918408067688347
 20
-4139.999739777983
 30
0.0
 11
5849.917509036332
 21
-4140.005167989091
 31
0.0
  0
LINE
  5
2C8
330
1F
100
AcDbEntity
  8
F-0
  6
JWW_HOJO
 62
     7
370
     9
100
AcDbLine
 10
9.918491721639953
 20
-4049.999739778022
 30
0.0
 11
5849.917592690284
 21
-4050.005167989131
 31
0.0
  0
LINE
  5
2C9
330
1F
100
AcDbEntity
  8
F-0
  6
JWW_HOJO
 62
     7
370
     9
100
AcDbLine
 10
9.918593965360003
 20
-3939.99973721807
 30
0.0
 11
5849.917694934004
 21
-3940.005165429179
 31
0.0
  0
LINE
  5
2CA
330
1F
100
AcDbEntity
  8
F-0
  6
JWW_HOJO
 62
     7
370
     9
100
AcDbLine
 10
9.918677619311609
 20
-3849.999737218109
 30
0.0
 11
5849.917778587956
 21
-3850.005165429218
 31
0.0
  0
LINE
  5
2CB
330
1F
100
AcDbEntity
  8
F-0
  6
JWW_HOJO
 62
     7
370
     9
100
AcDbLine
 10
2939.917396372139
 20
-3795.000003092998
 30
0.0
 11
2939.917396372139
 21
-4195.000008247994
 31
0.0
  0
LINE
  5
2CC
330
1F
100
AcDbEntity
  8
F-0
  6
JWW_HOJO
 62
     7
370
     9
100
AcDbLine
 10
99.91854284331623
 20
-3795.000003092998
 30
0.0
 11
99.91854284331623
 21
-4195.000008247994
 31
0.0
  0
LINE
  5
2CD
330
1F
100
AcDbEntity
  8
F-0
  6
JWW_HOJO
 62
     7
370
     9
100
AcDbLine
 10
4439.917891251784
 20
-3795.000003092998
 30
0.0
 11
4439.917891251784
 21
-4195.000008247994
 31
0.0
  0
TEXT
  5
2CE
330
1F
100
AcDbEntity
  8
F-A
  6
Continuous
 62
     7
370
     0
100
AcDbText
 10
2939.917396372139
 20
-3871.542460617774
 30
0.0
 40
45.72
  1
ＳＣＡＬＥ
  7
ＭＳ ゴシック
100
AcDbText
  0
TEXT
  5
2CF
330
1F
100
AcDbEntity
  8
F-A
  6
Continuous
 62
     7
370
     0
100
AcDbText
 10
4439.917891251784
 20
-3871.543854850754
 30
0.0
 40
45.72
  1
ＤＡＴＥ
  7
ＭＳ ゴシック
100
AcDbText
  0
LINE
  5
2D0
330
1F
100
AcDbEntity
  8
F-1
  6
Continuous
 62
   200
370
    20
100
AcDbLine
 10
5859.917429364114
 20
-3795.000003092998
 30
0.0
 11
-5840.081085996952
 21
-3795.000003092998
 31
0.0
  0
LINE
  5
2D1
330
1F
100
AcDbEntity
  8
F-1
  6
Continuous
 62
   200
370
    20
100
AcDbLine
 10
5859.917429364114
 20
-3790.000017526987
 30
0.0
 11
-5840.081085996952
 21
-3790.000017526987
 31
0.0
  0
LINE
  5
2D2
330
1F
100
AcDbEntity
  8
F-0
  6
JWW_HOJO
 62
     7
370
     9
100
AcDbLine
 10
-5087.628710189611
 20
-3795.000003092999
 30
0.0
 11
-5087.628710189611
 21
-4205.000164959882
 31
0.0
  0
LINE
  5
2D3
330
1F
100
AcDbEntity
  8
F-0
  6
JWW_HOJO
 62
     7
370
     9
100
AcDbLine
 10
-50.08145715668377
 20
-3795.000003092998
 30
0.0
 11
-50.08145715668377
 21
-4195.000008247994
 31
0.0
  0
TEXT
  5
2D4
330
1F
100
AcDbEntity
  8
F-A
  6
Continuous
 62
     7
370
     0
100
AcDbText
 10
1340.336368466946
 20
-3927.310161599839
 30
0.0
 40
68.58
  1
和風下駄箱
 41
1.133333333333333
  7
ＭＳ ゴシック
100
AcDbText
  0
TEXT
  5
2D5
330
1F
100
AcDbEntity
  8
F-A
  6
Continuous
 62
     7
370
     0
100
AcDbText
 10
3412.41764381196
 20
-3927.313115907308
 30
0.0
 40
68.58
  1
1/10・1/2
 41
1.148148148148149
  7
ＭＳ ゴシック
100
AcDbText
  0
TEXT
  5
2D6
330
1F
100
AcDbEntity
  8
F-A
  6
Continuous
 62
     7
370
     0
100
AcDbText
 10
2939.917396372139
 20
-4071.54246317786
 30
0.0
 40
45.72
  1
ＦＩＬＥ
  7
ＭＳ ゴシック
100
AcDbText
  0
TEXT
  5
2D7
330
1F
100
AcDbEntity
  8
F-A
  6
Continuous
 62
     7
370
     0
100
AcDbText
 10
4439.917891251784
 20
-4071.543857410839
 30
0.0
 40
45.72
  1
ＮＯ．
  7
ＭＳ ゴシック
100
AcDbText
  0
TEXT
  5
2D8
330
1F
100
AcDbEntity
  8
F-A
  6
Continuous
 62
     7
370
     0
100
AcDbText
 10
1394.917396372138
 20
-4080.540669266148
 30
0.0
 40
45.72
  1
株式
  7
ＭＳ ゴシック
100
AcDbText
  0
TEXT
  5
2D9
330
1F
100
AcDbEntity
  8
F-A
  6
Continuous
 62
     7
370
     9
100
AcDbText
 10
5096.167700144058
 20
-4127.314512699985
 30
0.0
 40
68.58
  1
01
 41
1.083333333333333
  7
ＭＳ ゴシック
100
AcDbText
  0
TEXT
  5
2DA
330
1F
100
AcDbEntity
  8
F-A
  6
Continuous
 62
     7
370
     0
100
AcDbText
 10
1604.917396372138
 20
-4138.082379523928
 30
0.0
 40
91.44
  1
ウッドワン・・・
 41
1.109375
  7
ＭＳ ゴシック
100
AcDbText
  0
TEXT
  5
2DB
330
1F
100
AcDbEntity
  8
F-A
  6
Continuous
 62
     7
370
     0
100
AcDbText
 10
1394.917396372138
 20
-4152.540669266186
 30
0.0
 40
45.72
  1
会社
  7
ＭＳ ゴシック
100
AcDbText
  0
TEXT
  5
2DC
330
1F
100
AcDbEntity
  8
F-A
  6
Continuous
 62
     7
370
     0
100
AcDbText
 10
5768.321977672939
 20
-4291.441419020919
 30
0.0
 40
68.58
  1
）
  7
ＭＳ ゴシック
100
AcDbText
  0
TEXT
  5
2DD
330
1F
100
AcDbEntity
  8
F-A
  6
Continuous
 62
     7
370
     0
100
AcDbText
 10
5350.114617405298
 20
-4292.835443869856
 30
0.0
 40
68.58
  1
,
  7
ＭＳ ゴシック
100
AcDbText
  0
TEXT
  5
2DE
330
1F
100
AcDbEntity
  8
F-A
  6
Continuous
 62
     7
370
     0
100
AcDbText
 10
5083.855928478601
 20
-4294.229467288283
 30
0.0
 40
68.58
  1
$y
 41
1.083333333333333
  7
ＭＳ ゴシック
100
AcDbText
  0
TEXT
  5
2DF
330
1F
100
AcDbEntity
  8
F-A
  6
Continuous
 62
     7
370
     0
100
AcDbText
 10
5238.592649517422
 20
-4294.229467288283
 30
0.0
 40
68.58
  1
$m
 41
1.083333333333333
  7
ＭＳ ゴシック
100
AcDbText
  0
TEXT
  5
2E0
330
1F
100
AcDbEntity
  8
F-A
  6
Continuous
 62
     7
370
     0
100
AcDbText
 10
5393.32938200033
 20
-4294.229467288283
 30
0.0
 40
68.58
  1
$d
 41
1.083333333333333
  7
ＭＳ ゴシック
100
AcDbText
  0
TEXT
  5
2E1
330
1F
100
AcDbEntity
  8
F-A
  6
Continuous
 62
     7
370
     0
100
AcDbText
 10
5548.066114483239
 20
-4294.229467288283
 30
0.0
 40
68.58
  1
印刷
 41
1.083333333333333
  7
ＭＳ ゴシック
100
AcDbText
  0
TEXT
  5
2E2
330
1F
100
AcDbEntity
  8
F-A
  6
Continuous
 62
     7
370
     0
100
AcDbText
 10
4943.952040816226
 20
-4295.623493567732
 30
0.0
 40
68.58
  1
（
  7
ＭＳ ゴシック
100
AcDbText
  0
TEXT
  5
2E3
330
1F
100
AcDbEntity
  8
F-A
  6
Continuous
 62
     7
370
     0
100
AcDbText
 10
5191.195810375571
 20
-4295.623493567732
 30
0.0
 40
68.58
  1
,
  7
ＭＳ ゴシック
100
AcDbText
  0
TEXT
  5
2E4
330
1F
100
AcDbEntity
  8
F-A
  6
Continuous
 62
     7
370
     0
100
AcDbText
 10
4938.667793092893
 20
-3919.814510139966
 30
0.0
 40
68.58
  1
06.03.22
 41
1.145833333333333
  7
ＭＳ ゴシック
100
AcDbText
  0
TEXT
  5
2E5
330
1F
100
AcDbEntity
  8
F-A
  6
Continuous
 62
     7
370
     9
100
AcDbText
 10
3359.917643811961
 20
-4127.313118467413
 30
0.0
 40
68.58
  1
S8-B501_C02
 41
1.151515151515152
  7
ＭＳ ゴシック
100
AcDbText
  0
TEXT
  5
2E6
330
1F
100
AcDbEntity
  8
F-A
  6
Continuous
 62
     7
370
     0
100
AcDbText
 10
-5080.081323642279
 20
-4027.30993607839
 30
0.0
 40
68.58
  1
和風下駄箱　舞良戸　Ｗ５尺タイプ
 41
1.15625
  7
ＭＳ ゴシック
100
AcDbText
  0
ENDSEC
  0
SECTION
  2
OBJECTS
  0
DICTIONARY
  5
C
330
0
100
AcDbDictionary
281
     1
  3
ACAD_DETAILVIEWSTYLE
350
31E
  3
ACAD_GROUP
350
D
  3
ACAD_LAYOUT
350
1A
  3
ACAD_MATERIAL
350
43
  3
ACAD_MLEADERSTYLE
350
6B
  3
ACAD_MLINESTYLE
350
17
  3
ACAD_PLOTSETTINGS
350
19
  3
ACAD_PLOTSTYLENAME
350
E
  3
ACAD_SCALELIST
350
47
  3
ACAD_SECTIONVIEWSTYLE
350
31F
  3
ACAD_TABLESTYLE
350
69
  3
ACAD_VISUALSTYLE
350
2A
  3
ACDB_RECOMPOSE_DATA
350
31B
  3
AcDbVariableDictionary
350
2E7
  0
SUN
  5
6D
330
29
100
AcDbSun
 90
        1
290
     0
 63
     7
421
 16777215
 40
1.0
291
     1
 91
  2455826
 92
 54000000
292
     0
 70
     2
 71
   256
280
     1
  0
DICTIONARY
  5
31E
102
{ACAD_REACTORS
330
C
102
}
330
C
100
AcDbDictionary
281
     1
  0
DICTIONARY
  5
D
102
{ACAD_REACTORS
330
C
102
}
330
C
100
AcDbDictionary
281
     1
  0
DICTIONARY
  5
1A
102
{ACAD_REACTORS
330
C
102
}
330
C
100
AcDbDictionary
281
     1
  3
Layout1
350
1E
  3
Layout2
350
26
  3
Model
350
22
  0
DICTIONARY
  5
43
102
{ACAD_REACTORS
330
C
102
}
330
C
100
AcDbDictionary
281
     1
  3
ByBlock
350
45
  3
ByLayer
350
44
  3
Global
350
46
  0
DICTIONARY
  5
6B
102
{ACAD_REACTORS
330
C
102
}
330
C
100
AcDbDictionary
281
     1
  3
Standard
350
6C
  0
DICTIONARY
  5
17
102
{ACAD_REACTORS
330
C
102
}
330
C
100
AcDbDictionary
281
     1
  3
Standard
350
18
  0
DICTIONARY
  5
19
102
{ACAD_REACTORS
330
C
102
}
330
C
100
AcDbDictionary
281
     1
  0
ACDBDICTIONARYWDFLT
  5
E
102
{ACAD_REACTORS
330
C
102
}
330
C
100
AcDbDictionary
281
     1
  3
Normal
350
F
100
AcDbDictionaryWithDefault
340
F
  0
DICTIONARY
  5
47
102
{ACAD_REACTORS
330
C
102
}
330
C
100
AcDbDictionary
281
     1
  3
A0
350
48
  3
A1
350
49
  3
A2
350
4A
  3
A3
350
4B
  3
A4
350
4C
  3
A5
350
4D
  3
A6
350
4E
  3
A7
350
4F
  3
A8
350
50
  3
A9
350
51
  3
B0
350
52
  3
B1
350
53
  3
B2
350
54
  3
B3
350
55
  3
B4
350
56
  3
B5
350
57
  3
B6
350
58
  3
B7
350
59
  3
B8
350
5A
  3
B9
350
5B
  3
C0
350
5C
  3
C1
350
5D
  3
C2
350
5E
  3
C3
350
5F
  3
C4
350
60
  3
C5
350
61
  3
C6
350
62
  3
C7
350
63
  3
C8
350
64
  3
C9
350
65
  3
D0
350
66
  3
D1
350
67
  3
D2
350
68
  0
DICTIONARY
  5
31F
102
{ACAD_REACTORS
330
C
102
}
330
C
100
AcDbDictionary
281
     1
  0
DICTIONARY
  5
69
102
{ACAD_REACTORS
330
C
102
}
330
C
100
AcDbDictionary
281
     1
  3
Standard
350
6A
  0
DICTIONARY
  5
2A
102
{ACAD_REACTORS
330
C
102
}
330
C
100
AcDbDictionary
281
     1
  3
2dWireframe
350
2F
  3
Basic
350
32
  3
Brighten
350
36
  3
ColorChange
350
3A
  3
Conceptual
350
34
  3
Dim
350
35
  3
EdgeColorOff
350
3D
  3
Facepattern
350
39
  3
Flat
350
2B
  3
FlatWithEdges
350
2C
  3
Gouraud
350
2D
  3
GouraudWithEdges
350
2E
  3
Hidden
350
31
  3
JitterOff
350
3B
  3
Linepattern
350
38
  3
OverhangOff
350
3C
  3
Realistic
350
33
  3
Shaded
350
42
  3
Shaded with edges
350
41
  3
Shades of Gray
350
3E
  3
Sketchy
350
3F
  3
Thicken
350
37
  3
Wireframe
350
30
  3
X-Ray
350
40
  0
XRECORD
  5
31B
102
{ACAD_REACTORS
330
C
102
}
330
C
100
AcDbXrecord
280
     1
 90
        1
330
6A
  0
DICTIONARY
  5
2E7
102
{ACAD_REACTORS
330
C
102
}
330
C
100
AcDbDictionary
281
     1
  3
CANNOSCALE
350
2E8
  3
CENTEREXE
350
320
  3
CENTERLTYPEFILE
350
321
  3
CMLEADERSTYLE
350
31D
  3
CTABLESTYLE
350
31C
  0
LAYOUT
  5
1E
102
{ACAD_REACTORS
330
1A
102
}
330
1A
100
AcDbPlotSettings
  1

  2
none_device
  4

  6

 40
0.0
 41
0.0
 42
0.0
 43
0.0
 44
0.0
 45
0.0
 46
0.0
 47
0.0
 48
0.0
 49
0.0
140
0.0
141
0.0
142
1.0
143
1.0
 70
   688
 72
     1
 73
     0
 74
     5
  7

 75
    16
 76
     0
 77
     5
 78
   300
147
1.0
148
0.0
149
0.0
100
AcDbLayout
  1
Layout1
 70
     1
 71
     1
 10
0.0
 20
0.0
 11
420.0
 21
297.0
 12
0.0
 22
0.0
 32
0.0
 14
1.000000000000000E+20
 24
1.000000000000000E+20
 34
1.000000000000000E+20
 15
-1.000000000000000E+20
 25
-1.000000000000000E+20
 35
-1.000000000000000E+20
146
0.0
 13
0.0
 23
0.0
 33
0.0
 16
1.0
 26
0.0
 36
0.0
 17
0.0
 27
1.0
 37
0.0
 76
     0
330
1B
  0
LAYOUT
  5
26
102
{ACAD_REACTORS
330
1A
102
}
330
1A
100
AcDbPlotSettings
  1

  2
none_device
  4

  6

 40
0.0
 41
0.0
 42
0.0
 43
0.0
 44
0.0
 45
0.0
 46
0.0
 47
0.0
 48
0.0
 49
0.0
140
0.0
141
0.0
142
1.0
143
1.0
 70
   688
 72
     1
 73
     0
 74
     5
  7

 75
    16
 76
     0
 77
     5
 78
   300
147
1.0
148
0.0
149
0.0
100
AcDbLayout
  1
Layout2
 70
     1
 71
     2
 10
0.0
 20
0.0
 11
0.0
 21
0.0
 12
0.0
 22
0.0
 32
0.0
 14
0.0
 24
0.0
 34
0.0
 15
0.0
 25
0.0
 35
0.0
146
0.0
 13
0.0
 23
0.0
 33
0.0
 16
1.0
 26
0.0
 36
0.0
 17
0.0
 27
1.0
 37
0.0
 76
     0
330
23
  0
LAYOUT
  5
22
102
{ACAD_REACTORS
330
1A
102
}
330
1A
100
AcDbPlotSettings
  1

  2
none_device
  4
Letter_(8.50_x_11.00_Inches)
  6

 40
6.35
 41
6.35
 42
6.35000508
 43
6.35000508
 44
215.9
 45
279.4
 46
0.0
 47
0.0
 48
0.0
 49
0.0
140
0.0
141
0.0
142
1.0
143
1.0
 70
  1712
 72
     1
 73
     0
 74
     0
  7

 75
     0
 76
     0
 77
     5
 78
   300
147
1.0
148
0.0
149
0.0
100
AcDbLayout
  1
Model
 70
     1
 71
     0
 10
-6300.0
 20
-4455.0
 11
6300.0
 21
4455.0
 12
0.0
 22
0.0
 32
0.0
 14
-6300.0
 24
-4455.0
 34
0.0
 15
6300.0
 25
4455.0
 35
0.0
146
0.0
 13
0.0
 23
0.0
 33
0.0
 16
1.0
 26
0.0
 36
0.0
 17
0.0
 27
1.0
 37
0.0
 76
     0
330
1F
331
29
  0
MATERIAL
  5
45
102
{ACAD_REACTORS
330
43
102
}
330
43
100
AcDbMaterial
  1
ByBlock
 72
     1
 94
      127
  0
MATERIAL
  5
44
102
{ACAD_REACTORS
330
43
102
}
330
43
100
AcDbMaterial
  1
ByLayer
 72
     1
 94
      127
  0
MATERIAL
  5
46
102
{ACAD_REACTORS
330
43
102
}
330
43
100
AcDbMaterial
  1
Global
 72
     1
 94
      127
  0
MLEADERSTYLE
  5
6C
102
{ACAD_REACTORS
330
6B
102
}
330
6B
100
AcDbMLeaderStyle
179
     2
170
     2
171
     1
172
     0
 90
        2
 40
0.0
 41
0.0
173
     1
 91
-1056964608
340
14
 92
       -2
290
     1
 42
2.0
291
     1
 43
8.0
  3
Standard
341
0
 44
4.0
300

342
11
174
     1
178
     6
175
     1
176
     0
 93
-1056964608
 45
4.0
292
     0
297
     0
 46
4.0
343
0
 94
-1056964608
 47
1.0
 49
1.0
140
1.0
293
     1
141
0.0
294
     1
177
     0
142
1.0
295
     0
296
     0
143
3.75
271
     0
272
     9
273
     9
  0
MLINESTYLE
  5
18
102
{ACAD_REACTORS
330
17
102
}
330
17
100
AcDbMlineStyle
  2
Standard
 70
     0
  3

 62
   256
 51
90.0
 52
90.0
 71
     2
 49
0.5
 62
   256
  6
BYLAYER
 49
-0.5
 62
   256
  6
BYLAYER
  0
ACDBPLACEHOLDER
  5
F
102
{ACAD_REACTORS
330
E
102
}
330
E
  0
SCALE
  5
48
102
{ACAD_REACTORS
330
47
102
}
330
47
100
AcDbScale
 70
     0
300
1:1
140
1.0
141
1.0
290
     1
  0
SCALE
  5
49
102
{ACAD_REACTORS
330
47
102
}
330
47
100
AcDbScale
 70
     0
300
1:2
140
1.0
141
2.0
290
     0
  0
SCALE
  5
4A
102
{ACAD_REACTORS
330
47
102
}
330
47
100
AcDbScale
 70
     0
300
1:4
140
1.0
141
4.0
290
     0
  0
SCALE
  5
4B
102
{ACAD_REACTORS
330
47
102
}
330
47
100
AcDbScale
 70
     0
300
1:5
140
1.0
141
5.0
290
     0
  0
SCALE
  5
4C
102
{ACAD_REACTORS
330
47
102
}
330
47
100
AcDbScale
 70
     0
300
1:8
140
1.0
141
8.0
290
     0
  0
SCALE
  5
4D
102
{ACAD_REACTORS
330
47
102
}
330
47
100
AcDbScale
 70
     0
300
1:10
140
1.0
141
10.0
290
     0
  0
SCALE
  5
4E
102
{ACAD_REACTORS
330
47
102
}
330
47
100
AcDbScale
 70
     0
300
1:16
140
1.0
141
16.0
290
     0
  0
SCALE
  5
4F
102
{ACAD_REACTORS
330
47
102
}
330
47
100
AcDbScale
 70
     0
300
1:20
140
1.0
141
20.0
290
     0
  0
SCALE
  5
50
102
{ACAD_REACTORS
330
47
102
}
330
47
100
AcDbScale
 70
     0
300
1:30
140
1.0
141
30.0
290
     0
  0
SCALE
  5
51
102
{ACAD_REACTORS
330
47
102
}
330
47
100
AcDbScale
 70
     0
300
1:40
140
1.0
141
40.0
290
     0
  0
SCALE
  5
52
102
{ACAD_REACTORS
330
47
102
}
330
47
100
AcDbScale
 70
     0
300
1:50
140
1.0
141
50.0
290
     0
  0
SCALE
  5
53
102
{ACAD_REACTORS
330
47
102
}
330
47
100
AcDbScale
 70
     0
300
1:100
140
1.0
141
100.0
290
     0
  0
SCALE
  5
54
102
{ACAD_REACTORS
330
47
102
}
330
47
100
AcDbScale
 70
     0
300
2:1
140
2.0
141
1.0
290
     0
  0
SCALE
  5
55
102
{ACAD_REACTORS
330
47
102
}
330
47
100
AcDbScale
 70
     0
300
4:1
140
4.0
141
1.0
290
     0
  0
SCALE
  5
56
102
{ACAD_REACTORS
330
47
102
}
330
47
100
AcDbScale
 70
     0
300
8:1
140
8.0
141
1.0
290
     0
  0
SCALE
  5
57
102
{ACAD_REACTORS
330
47
102
}
330
47
100
AcDbScale
 70
     0
300
10:1
140
10.0
141
1.0
290
     0
  0
SCALE
  5
58
102
{ACAD_REACTORS
330
47
102
}
330
47
100
AcDbScale
 70
     0
300
100:1
140
100.0
141
1.0
290
     0
  0
SCALE
  5
59
102
{ACAD_REACTORS
330
47
102
}
330
47
100
AcDbScale
 70
     0
300
1/128" = 1'-0"
140
0.0078125
141
12.0
290
     0
  0
SCALE
  5
5A
102
{ACAD_REACTORS
330
47
102
}
330
47
100
AcDbScale
 70
     0
300
1/64" = 1'-0"
140
0.015625
141
12.0
290
     0
  0
SCALE
  5
5B
102
{ACAD_REACTORS
330
47
102
}
330
47
100
AcDbScale
 70
     0
300
1/32" = 1'-0"
140
0.03125
141
12.0
290
     0
  0
SCALE
  5
5C
102
{ACAD_REACTORS
330
47
102
}
330
47
100
AcDbScale
 70
     0
300
1/16" = 1'-0"
140
0.0625
141
12.0
290
     0
  0
SCALE
  5
5D
102
{ACAD_REACTORS
330
47
102
}
330
47
100
AcDbScale
 70
     0
300
3/32" = 1'-0"
140
0.09375
141
12.0
290
     0
  0
SCALE
  5
5E
102
{ACAD_REACTORS
330
47
102
}
330
47
100
AcDbScale
 70
     0
300
1/8" = 1'-0"
140
0.125
141
12.0
290
     0
  0
SCALE
  5
5F
102
{ACAD_REACTORS
330
47
102
}
330
47
100
AcDbScale
 70
     0
300
3/16" = 1'-0"
140
0.1875
141
12.0
290
     0
  0
SCALE
  5
60
102
{ACAD_REACTORS
330
47
102
}
330
47
100
AcDbScale
 70
     0
300
1/4" = 1'-0"
140
0.25
141
12.0
290
     0
  0
SCALE
  5
61
102
{ACAD_REACTORS
330
47
102
}
330
47
100
AcDbScale
 70
     0
300
3/8" = 1'-0"
140
0.375
141
12.0
290
     0
  0
SCALE
  5
62
102
{ACAD_REACTORS
330
47
102
}
330
47
100
AcDbScale
 70
     0
300
1/2" = 1'-0"
140
0.5
141
12.0
290
     0
  0
SCALE
  5
63
102
{ACAD_REACTORS
330
47
102
}
330
47
100
AcDbScale
 70
     0
300
3/4" = 1'-0"
140
0.75
141
12.0
290
     0
  0
SCALE
  5
64
102
{ACAD_REACTORS
330
47
102
}
330
47
100
AcDbScale
 70
     0
300
1" = 1'-0"
140
1.0
141
12.0
290
     0
  0
SCALE
  5
65
102
{ACAD_REACTORS
330
47
102
}
330
47
100
AcDbScale
 70
     0
300
1-1/2" = 1'-0"
140
1.5
141
12.0
290
     0
  0
SCALE
  5
66
102
{ACAD_REACTORS
330
47
102
}
330
47
100
AcDbScale
 70
     0
300
3" = 1'-0"
140
3.0
141
12.0
290
     0
  0
SCALE
  5
67
102
{ACAD_REACTORS
330
47
102
}
330
47
100
AcDbScale
 70
     0
300
6" = 1'-0"
140
6.0
141
12.0
290
     0
  0
SCALE
  5
68
102
{ACAD_REACTORS
330
47
102
}
330
47
100
AcDbScale
 70
     0
300
1'-0" = 1'-0"
140
12.0
141
12.0
290
     0
  0
TABLESTYLE
  5
6A
102
{ACAD_REACTORS
330
69
102
}
102
{ACAD_XDICTIONARY
360
319
102
}
330
69
100
AcDbTableStyle
  3
Standard
 70
     0
 71
     0
 40
0.06
 41
0.06
280
     0
281
     0
  7
Standard
140
4.5
170
     2
 62
     0
 63
   257
283
     0
 90
        4
 91
        0
  1

274
    -2
284
     1
 64
     0
275
    -2
285
     1
 65
     0
276
    -2
286
     1
 66
     0
277
    -2
287
     1
 67
     0
278
    -2
288
     1
 68
     0
279
    -2
289
     1
 69
     0
  7
Standard
140
6.0
170
     5
 62
     0
 63
   257
283
     0
 90
        4
 91
        0
  1

274
    -2
284
     1
 64
     0
275
    -2
285
     1
 65
     0
276
    -2
286
     1
 66
     0
277
    -2
287
     1
 67
     0
278
    -2
288
     1
 68
     0
279
    -2
289
     1
 69
     0
  7
Standard
140
4.5
170
     5
 62
     0
 63
   257
283
     0
 90
        4
 91
        0
  1

274
    -2
284
     1
 64
     0
275
    -2
285
     1
 65
     0
276
    -2
286
     1
 66
     0
277
    -2
287
     1
 67
     0
278
    -2
288
     1
 68
     0
279
    -2
289
     1
 69
     0
  0
VISUALSTYLE
  5
2F
102
{ACAD_REACTORS
330
2A
102
}
102
{ACAD_XDICTIONARY
360
2F1
102
}
330
2A
100
AcDbVisualStyle
  2
2dWireframe
 70
     4
177
     2
291
     0
 71
     0
176
     1
 72
     2
176
     1
 73
     0
176
     1
 90
        0
176
     1
 40
0.6
176
     1
 41
30.0
176
     1
 62
     5
 63
     7
421
 16777215
176
     1
 74
     1
176
     1
 91
        4
176
     1
 64
     7
176
     1
 65
   257
176
     1
 75
     1
176
     1
175
     1
176
     1
 42
1.0
176
     1
 92
        0
176
     1
 66
   257
176
     1
 43
1.0
176
     1
 76
     1
176
     1
 77
     6
176
     1
 78
     2
176
     1
 67
     7
176
     1
 79
     5
176
     1
170
     0
176
     1
171
     0
176
     1
290
     0
176
     1
 93
        1
176
     1
 44
0.0
176
     1
173
     0
176
     1
  0
VISUALSTYLE
  5
32
102
{ACAD_REACTORS
330
2A
102
}
102
{ACAD_XDICTIONARY
360
2F7
102
}
330
2A
100
AcDbVisualStyle
  2
Basic
 70
     7
177
     2
291
     1
 71
     1
176
     1
 72
     0
176
     1
 73
     1
176
     1
 90
        0
176
     1
 40
0.6
176
     1
 41
30.0
176
     1
 62
     5
 63
     7
421
 16777215
176
     1
 74
     0
176
     1
 91
        4
176
     1
 64
     7
176
     1
 65
   257
176
     1
 75
     1
176
     1
175
     1
176
     1
 42
1.0
176
     1
 92
        8
176
     1
 66
     7
176
     1
 43
1.0
176
     1
 76
     1
176
     1
 77
     6
176
     1
 78
     2
176
     1
 67
     7
176
     1
 79
     5
176
     1
170
     0
176
     1
171
     0
176
     1
290
     0
176
     1
 93
        1
176
     1
 44
0.0
176
     1
173
     0
176
     1
  0
VISUALSTYLE
  5
36
102
{ACAD_REACTORS
330
2A
102
}
102
{ACAD_XDICTIONARY
360
2FF
102
}
330
2A
100
AcDbVisualStyle
  2
Brighten
 70
    12
177
     2
291
     1
 71
     2
176
     1
 72
     2
176
     1
 73
     0
176
     1
 90
        0
176
     1
 40
0.6
176
     1
 41
30.0
176
     1
 62
     5
 63
     7
421
 16777215
176
     1
 74
     1
176
     1
 91
        4
176
     1
 64
     7
176
     1
 65
   257
176
     1
 75
     1
176
     1
175
     1
176
     1
 42
1.0
176
     1
 92
        8
176
     1
 66
     7
176
     1
 43
1.0
176
     1
 76
     1
176
     1
 77
     6
176
     1
 78
     2
176
     1
 67
     7
176
     1
 79
     5
176
     1
170
     0
176
     1
171
     0
176
     1
290
     0
176
     1
 93
        1
176
     1
 44
50.0
176
     1
173
     0
176
     1
  0
VISUALSTYLE
  5
3A
102
{ACAD_REACTORS
330
2A
102
}
102
{ACAD_XDICTIONARY
360
307
102
}
330
2A
100
AcDbVisualStyle
  2
ColorChange
 70
    16
177
     2
291
     1
 71
     2
176
     1
 72
     2
176
     1
 73
     3
176
     1
 90
        0
176
     1
 40
0.6
176
     1
 41
30.0
176
     1
 62
     5
 63
     8
421
  8421504
176
     1
 74
     1
176
     1
 91
        4
176
     1
 64
     7
176
     1
 65
   257
176
     1
 75
     1
176
     1
175
     1
176
     1
 42
1.0
176
     1
 92
        8
176
     1
 66
     8
424
  8421504
176
     1
 43
1.0
176
     1
 76
     1
176
     1
 77
     6
176
     1
 78
     2
176
     1
 67
     7
176
     1
 79
     5
176
     1
170
     0
176
     1
171
     0
176
     1
290
     0
176
     1
 93
        1
176
     1
 44
0.0
176
     1
173
     0
176
     1
  0
VISUALSTYLE
  5
34
102
{ACAD_REACTORS
330
2A
102
}
102
{ACAD_XDICTIONARY
360
2FB
102
}
330
2A
100
AcDbVisualStyle
  2
Conceptual
 70
     9
177
     2
291
     0
 71
     3
176
     1
 72
     2
176
     1
 73
     0
176
     1
 90
        0
176
     1
 40
0.6
176
     1
 41
30.0
176
     1
 62
     5
 63
     7
421
 16777215
176
     1
 74
     2
176
     1
 91
        2
176
     1
 64
     7
176
     1
 65
   257
176
     1
 75
     1
176
     1
175
     1
176
     1
 42
179.0
176
     1
 92
        8
176
     1
 66
     7
176
     1
 43
1.0
176
     1
 76
     1
176
     1
 77
     6
176
     1
 78
     2
176
     1
 67
     7
176
     1
 79
     3
176
     1
170
     0
176
     1
171
     0
176
     1
290
     0
176
     1
 93
        1
176
     1
 44
0.0
176
     1
173
     0
176
     1
  0
VISUALSTYLE
  5
35
102
{ACAD_REACTORS
330
2A
102
}
102
{ACAD_XDICTIONARY
360
2FD
102
}
330
2A
100
AcDbVisualStyle
  2
Dim
 70
    11
177
     2
291
     1
 71
     2
176
     1
 72
     2
176
     1
 73
     0
176
     1
 90
        0
176
     1
 40
0.6
176
     1
 41
30.0
176
     1
 62
     5
 63
     7
421
 16777215
176
     1
 74
     1
176
     1
 91
        4
176
     1
 64
     7
176
     1
 65
   257
176
     1
 75
     1
176
     1
175
     1
176
     1
 42
1.0
176
     1
 92
        8
176
     1
 66
     7
176
     1
 43
1.0
176
     1
 76
     1
176
     1
 77
     6
176
     1
 78
     2
176
     1
 67
     7
176
     1
 79
     5
176
     1
170
     0
176
     1
171
     0
176
     1
290
     0
176
     1
 93
        1
176
     1
 44
-50.0
176
     1
173
     0
176
     1
  0
VISUALSTYLE
  5
3D
102
{ACAD_REACTORS
330
2A
102
}
102
{ACAD_XDICTIONARY
360
30D
102
}
330
2A
100
AcDbVisualStyle
  2
EdgeColorOff
 70
    22
177
     2
291
     1
 71
     2
176
     0
 72
     2
176
     0
 73
     0
176
     0
 90
        0
176
     0
 40
0.6
176
     0
 41
30.0
176
     0
 62
     5
 63
     7
421
 16777215
176
     0
 74
     1
176
     0
 91
        4
176
     0
 64
     7
176
     0
 65
   257
176
     0
 75
     1
176
     0
175
     1
176
     0
 42
1.0
176
     0
 92
        8
176
     2
 66
     7
176
     0
 43
1.0
176
     0
 76
     1
176
     0
 77
     6
176
     0
 78
     2
176
     0
 67
     7
176
     0
 79
     5
176
     0
170
     0
176
     0
171
     0
176
     0
290
     0
176
     0
 93
        1
176
     0
 44
0.0
176
     0
173
     0
176
     0
  0
VISUALSTYLE
  5
39
102
{ACAD_REACTORS
330
2A
102
}
102
{ACAD_XDICTIONARY
360
305
102
}
330
2A
100
AcDbVisualStyle
  2
Facepattern
 70
    15
177
     2
291
     1
 71
     2
176
     1
 72
     2
176
     1
 73
     0
176
     1
 90
        0
176
     1
 40
0.6
176
     1
 41
30.0
176
     1
 62
     5
 63
     7
421
 16777215
176
     1
 74
     1
176
     1
 91
        4
176
     1
 64
     7
176
     1
 65
   257
176
     1
 75
     1
176
     1
175
     1
176
     1
 42
1.0
176
     1
 92
        8
176
     1
 66
     7
176
     1
 43
1.0
176
     1
 76
     1
176
     1
 77
     6
176
     1
 78
     2
176
     1
 67
     7
176
     1
 79
     5
176
     1
170
     0
176
     1
171
     0
176
     1
290
     0
176
     1
 93
        1
176
     1
 44
0.0
176
     1
173
     0
176
     1
  0
VISUALSTYLE
  5
2B
102
{ACAD_REACTORS
330
2A
102
}
102
{ACAD_XDICTIONARY
360
2E9
102
}
330
2A
100
AcDbVisualStyle
  2
Flat
 70
     0
177
     2
291
     1
 71
     2
176
     1
 72
     1
176
     1
 73
     1
176
     1
 90
        2
176
     1
 40
0.6
176
     1
 41
30.0
176
     1
 62
     5
 63
     7
421
 16777215
176
     1
 74
     0
176
     1
 91
        0
176
     1
 64
     7
176
     1
 65
   257
176
     1
 75
     1
176
     1
175
     1
176
     1
 42
1.0
176
     1
 92
        8
176
     1
 66
     7
176
     1
 43
1.0
176
     1
 76
     1
176
     1
 77
     6
176
     1
 78
     2
176
     1
 67
     7
176
     1
 79
     5
176
     1
170
     0
176
     1
171
     0
176
     1
290
     0
176
     1
 93
       13
176
     1
 44
0.0
176
     1
173
     0
176
     1
  0
VISUALSTYLE
  5
2C
102
{ACAD_REACTORS
330
2A
102
}
102
{ACAD_XDICTIONARY
360
2EB
102
}
330
2A
100
AcDbVisualStyle
  2
FlatWithEdges
 70
     1
177
     2
291
     1
 71
     2
176
     1
 72
     1
176
     1
 73
     1
176
     1
 90
        2
176
     1
 40
0.6
176
     1
 41
30.0
176
     1
 62
     5
 63
     7
421
 16777215
176
     1
 74
     1
176
     1
 91
        0
176
     1
 64
     7
176
     1
 65
   257
176
     1
 75
     1
176
     1
175
     1
176
     1
 42
1.0
176
     1
 92
        0
176
     1
 66
   257
176
     1
 43
1.0
176
     1
 76
     1
176
     1
 77
     6
176
     1
 78
     2
176
     1
 67
     7
176
     1
 79
     5
176
     1
170
     0
176
     1
171
     0
176
     1
290
     0
176
     1
 93
       13
176
     1
 44
0.0
176
     1
173
     0
176
     1
  0
VISUALSTYLE
  5
2D
102
{ACAD_REACTORS
330
2A
102
}
102
{ACAD_XDICTIONARY
360
2ED
102
}
330
2A
100
AcDbVisualStyle
  2
Gouraud
 70
     2
177
     2
291
     1
 71
     2
176
     1
 72
     2
176
     1
 73
     1
176
     1
 90
        2
176
     1
 40
0.6
176
     1
 41
30.0
176
     1
 62
     5
 63
     7
421
 16777215
176
     1
 74
     0
176
     1
 91
        0
176
     1
 64
     7
176
     1
 65
   257
176
     1
 75
     1
176
     1
175
     1
176
     1
 42
1.0
176
     1
 92
        0
176
     1
 66
     7
176
     1
 43
1.0
176
     1
 76
     1
176
     1
 77
     6
176
     1
 78
     2
176
     1
 67
     7
176
     1
 79
     5
176
     1
170
     0
176
     1
171
     0
176
     1
290
     0
176
     1
 93
       13
176
     1
 44
0.0
176
     1
173
     0
176
     1
  0
VISUALSTYLE
  5
2E
102
{ACAD_REACTORS
330
2A
102
}
102
{ACAD_XDICTIONARY
360
2EF
102
}
330
2A
100
AcDbVisualStyle
  2
GouraudWithEdges
 70
     3
177
     2
291
     1
 71
     2
176
     1
 72
     2
176
     1
 73
     1
176
     1
 90
        2
176
     1
 40
0.6
176
     1
 41
30.0
176
     1
 62
     5
 63
     7
421
 16777215
176
     1
 74
     1
176
     1
 91
        0
176
     1
 64
     7
176
     1
 65
   257
176
     1
 75
     1
176
     1
175
     1
176
     1
 42
1.0
176
     1
 92
        0
176
     1
 66
   257
176
     1
 43
1.0
176
     1
 76
     1
176
     1
 77
     6
176
     1
 78
     2
176
     1
 67
     7
176
     1
 79
     5
176
     1
170
     0
176
     1
171
     0
176
     1
290
     0
176
     1
 93
       13
176
     1
 44
0.0
176
     1
173
     0
176
     1
  0
VISUALSTYLE
  5
31
102
{ACAD_REACTORS
330
2A
102
}
102
{ACAD_XDICTIONARY
360
2F5
102
}
330
2A
100
AcDbVisualStyle
  2
Hidden
 70
     6
177
     2
291
     0
 71
     1
176
     1
 72
     2
176
     1
 73
     2
176
     1
 90
        0
176
     1
 40
0.6
176
     1
 41
30.0
176
     1
 62
     5
 63
     7
421
 16777215
176
     1
 74
     2
176
     1
 91
        2
176
     1
 64
     7
176
     1
 65
   257
176
     1
 75
     2
176
     1
175
     1
176
     1
 42
40.0
176
     1
 92
        0
176
     1
 66
   257
176
     1
 43
1.0
176
     1
 76
     1
176
     1
 77
     6
176
     1
 78
     2
176
     1
 67
     7
176
     1
 79
     3
176
     1
170
     0
176
     1
171
     0
176
     1
290
     0
176
     1
 93
        1
176
     1
 44
0.0
176
     1
173
     0
176
     1
  0
VISUALSTYLE
  5
3B
102
{ACAD_REACTORS
330
2A
102
}
102
{ACAD_XDICTIONARY
360
309
102
}
330
2A
100
AcDbVisualStyle
  2
JitterOff
 70
    20
177
     2
291
     1
 71
     2
176
     0
 72
     2
176
     0
 73
     0
176
     0
 90
        0
176
     0
 40
0.6
176
     0
 41
30.0
176
     0
 62
     5
 63
     7
421
 16777215
176
     0
 74
     1
176
     0
 91
        4
176
     0
 64
     7
176
     0
 65
   257
176
     0
 75
     1
176
     0
175
     1
176
     0
 42
1.0
176
     0
 92
       10
176
     2
 66
     7
176
     0
 43
1.0
176
     0
 76
     1
176
     0
 77
     6
176
     0
 78
     2
176
     0
 67
     7
176
     0
 79
     5
176
     0
170
     0
176
     0
171
     0
176
     0
290
     0
176
     0
 93
        1
176
     0
 44
0.0
176
     0
173
     0
176
     0
  0
VISUALSTYLE
  5
38
102
{ACAD_REACTORS
330
2A
102
}
102
{ACAD_XDICTIONARY
360
303
102
}
330
2A
100
AcDbVisualStyle
  2
Linepattern
 70
    14
177
     2
291
     1
 71
     2
176
     1
 72
     2
176
     1
 73
     0
176
     1
 90
        0
176
     1
 40
0.6
176
     1
 41
30.0
176
     1
 62
     5
 63
     7
421
 16777215
176
     1
 74
     1
176
     1
 91
        4
176
     1
 64
     7
176
     1
 65
   257
176
     1
 75
     7
176
     1
175
     7
176
     1
 42
1.0
176
     1
 92
        8
176
     1
 66
     7
176
     1
 43
1.0
176
     1
 76
     1
176
     1
 77
     6
176
     1
 78
     2
176
     1
 67
     7
176
     1
 79
     5
176
     1
170
     0
176
     1
171
     0
176
     1
290
     0
176
     1
 93
        1
176
     1
 44
0.0
176
     1
173
     0
176
     1
  0
VISUALSTYLE
  5
3C
102
{ACAD_REACTORS
330
2A
102
}
102
{ACAD_XDICTIONARY
360
30B
102
}
330
2A
100
AcDbVisualStyle
  2
OverhangOff
 70
    21
177
     2
291
     1
 71
     2
176
     0
 72
     2
176
     0
 73
     0
176
     0
 90
        0
176
     0
 40
0.6
176
     0
 41
30.0
176
     0
 62
     5
 63
     7
421
 16777215
176
     0
 74
     1
176
     0
 91
        4
176
     0
 64
     7
176
     0
 65
   257
176
     0
 75
     1
176
     0
175
     1
176
     0
 42
1.0
176
     0
 92
        9
176
     2
 66
     7
176
     0
 43
1.0
176
     0
 76
     1
176
     0
 77
     6
176
     0
 78
     2
176
     0
 67
     7
176
     0
 79
     5
176
     0
170
     0
176
     0
171
     0
176
     0
290
     0
176
     0
 93
        1
176
     0
 44
0.0
176
     0
173
     0
176
     0
  0
VISUALSTYLE
  5
33
102
{ACAD_REACTORS
330
2A
102
}
102
{ACAD_XDICTIONARY
360
2F9
102
}
330
2A
100
AcDbVisualStyle
  2
Realistic
 70
     8
177
     2
291
     0
 71
     2
176
     1
 72
     3
176
     1
 73
     0
176
     1
 90
        2
176
     1
 40
0.6
176
     1
 41
30.0
176
     1
 62
     5
 63
     7
421
 16777215
176
     1
 74
     0
176
     1
 91
        0
176
     1
 64
     7
176
     1
 65
   257
176
     1
 75
     1
176
     1
175
     1
176
     1
 42
1.0
176
     1
 92
        8
176
     1
 66
   257
176
     1
 43
1.0
176
     1
 76
     1
176
     1
 77
     6
176
     1
 78
     2
176
     1
 67
     7
176
     1
 79
     3
176
     1
170
     0
176
     1
171
     0
176
     1
290
     0
176
     1
 93
       13
176
     1
 44
0.0
176
     1
173
     0
176
     1
  0
VISUALSTYLE
  5
42
102
{ACAD_REACTORS
330
2A
102
}
102
{ACAD_XDICTIONARY
360
317
102
}
330
2A
100
AcDbVisualStyle
  2
Shaded
 70
    27
177
     2
291
     0
 71
     2
176
     1
 72
     2
176
     1
 73
     1
176
     1
 90
        2
176
     1
 40
0.6
176
     1
 41
30.0
176
     1
 62
     5
 63
     7
421
 16777215
176
     1
 74
     0
176
     1
 91
        4
176
     1
 64
     7
176
     1
 65
   257
176
     1
 75
     1
176
     1
175
     1
176
     1
 42
1.0
176
     1
 92
        8
176
     1
 66
   257
176
     1
 43
1.0
176
     1
 76
     1
176
     1
 77
     6
176
     1
 78
     2
176
     1
 67
     8
425
  7895160
176
     1
 79
     3
176
     1
170
     0
176
     1
171
     0
176
     1
290
     0
176
     1
 93
        5
176
     1
 44
0.0
176
     1
173
     0
176
     1
  0
VISUALSTYLE
  5
41
102
{ACAD_REACTORS
330
2A
102
}
102
{ACAD_XDICTIONARY
360
315
102
}
330
2A
100
AcDbVisualStyle
  2
Shaded with edges
 70
    26
177
     2
291
     0
 71
     2
176
     1
 72
     2
176
     1
 73
     1
176
     1
 90
        2
176
     1
 40
0.6
176
     1
 41
30.0
176
     1
 62
     5
 63
     7
421
 16777215
176
     1
 74
     1
176
     1
 91
       10
176
     1
 64
     7
176
     1
 65
   257
176
     1
 75
     2
176
     1
175
     1
176
     1
 42
1.0
176
     1
 92
        8
176
     1
 66
   257
176
     1
 43
1.0
176
     1
 76
     1
176
     1
 77
     6
176
     1
 78
     2
176
     1
 67
     7
176
     1
 79
     3
176
     1
170
     0
176
     1
171
     0
176
     1
290
     0
176
     1
 93
        5
176
     1
 44
0.0
176
     1
173
     0
176
     1
  0
VISUALSTYLE
  5
3E
102
{ACAD_REACTORS
330
2A
102
}
102
{ACAD_XDICTIONARY
360
30F
102
}
330
2A
100
AcDbVisualStyle
  2
Shades of Gray
 70
    23
177
     2
291
     0
 71
     2
176
     1
 72
     2
176
     1
 73
     3
176
     1
 90
        0
176
     1
 40
0.6
176
     1
 41
30.0
176
     1
 62
     5
 63
     7
421
 16777215
176
     1
 74
     2
176
     1
 91
        2
176
     1
 64
     7
176
     1
 65
     7
176
     1
 75
     1
176
     1
175
     1
176
     1
 42
40.0
176
     1
 92
        8
176
     1
 66
     7
176
     1
 43
1.0
176
     1
 76
     1
176
     1
 77
     6
176
     1
 78
     2
176
     1
 67
     7
176
     1
 79
     3
176
     1
170
     0
176
     1
171
     0
176
     1
290
     0
176
     1
 93
        1
176
     1
 44
0.0
176
     1
173
     0
176
     1
  0
VISUALSTYLE
  5
3F
102
{ACAD_REACTORS
330
2A
102
}
102
{ACAD_XDICTIONARY
360
311
102
}
330
2A
100
AcDbVisualStyle
  2
Sketchy
 70
    24
177
     2
291
     0
 71
     1
176
     1
 72
     2
176
     1
 73
     2
176
     1
 90
        0
176
     1
 40
0.6
176
     1
 41
30.0
176
     1
 62
     5
 63
     7
421
 16777215
176
     1
 74
     2
176
     1
 91
        2
176
     1
 64
     7
176
     1
 65
     7
176
     1
 75
     1
176
     1
175
     1
176
     1
 42
40.0
176
     1
 92
       11
176
     1
 66
     7
176
     1
 43
1.0
176
     1
 76
     1
176
     1
 77
     6
176
     1
 78
     2
176
     1
 67
     7
176
     1
 79
     6
176
     1
170
     0
176
     1
171
     0
176
     1
290
     0
176
     1
 93
        1
176
     1
 44
0.0
176
     1
173
     0
176
     1
  0
VISUALSTYLE
  5
37
102
{ACAD_REACTORS
330
2A
102
}
102
{ACAD_XDICTIONARY
360
301
102
}
330
2A
100
AcDbVisualStyle
  2
Thicken
 70
    13
177
     2
291
     1
 71
     2
176
     1
 72
     2
176
     1
 73
     0
176
     1
 90
        0
176
     1
 40
0.6
176
     1
 41
30.0
176
     1
 62
     5
 63
     7
421
 16777215
176
     1
 74
     1
176
     1
 91
        4
176
     1
 64
     7
176
     1
 65
   257
176
     1
 75
     1
176
     1
175
     1
176
     1
 42
1.0
176
     1
 92
       12
176
     1
 66
     7
176
     1
 43
1.0
176
     1
 76
     1
176
     1
 77
     6
176
     1
 78
     2
176
     1
 67
     7
176
     1
 79
     5
176
     1
170
     0
176
     1
171
     0
176
     1
290
     0
176
     1
 93
        1
176
     1
 44
0.0
176
     1
173
     0
176
     1
  0
VISUALSTYLE
  5
30
102
{ACAD_REACTORS
330
2A
102
}
102
{ACAD_XDICTIONARY
360
2F3
102
}
330
2A
100
AcDbVisualStyle
  2
Wireframe
 70
     5
177
     2
291
     0
 71
     0
176
     1
 72
     2
176
     1
 73
     0
176
     1
 90
        0
176
     1
 40
0.6
176
     1
 41
30.0
176
     1
 62
     5
 63
     7
421
 16777215
176
     1
 74
     1
176
     1
 91
        4
176
     1
 64
     7
176
     1
 65
   257
176
     1
 75
     1
176
     1
175
     1
176
     1
 42
1.0
176
     1
 92
        0
176
     1
 66
   257
176
     1
 43
1.0
176
     1
 76
     1
176
     1
 77
     6
176
     1
 78
     2
176
     1
 67
     7
176
     1
 79
     3
176
     1
170
     0
176
     1
171
     0
176
     1
290
     0
176
     1
 93
        1
176
     1
 44
0.0
176
     1
173
     0
176
     1
  0
VISUALSTYLE
  5
40
102
{ACAD_REACTORS
330
2A
102
}
102
{ACAD_XDICTIONARY
360
313
102
}
330
2A
100
AcDbVisualStyle
  2
X-Ray
 70
    25
177
     2
291
     0
 71
     2
176
     1
 72
     2
176
     1
 73
     1
176
     1
 90
        1
176
     1
 40
0.5
176
     1
 41
30.0
176
     1
 62
     5
 63
     7
421
 16777215
176
     1
 74
     1
176
     1
 91
        0
176
     1
 64
     7
176
     1
 65
   257
176
     1
 75
     1
176
     1
175
     1
176
     1
 42
1.0
176
     1
 92
        8
176
     1
 66
     7
176
     1
 43
1.0
176
     1
 76
     1
176
     1
 77
     6
176
     1
 78
     2
176
     1
 67
     7
176
     1
 79
     3
176
     1
170
     0
176
     1
171
     0
176
     1
290
     0
176
     1
 93
       13
176
     1
 44
0.0
176
     1
173
     0
176
     1
  0
DICTIONARYVAR
  5
2E8
102
{ACAD_REACTORS
330
2E7
102
}
330
2E7
100
DictionaryVariables
280
     0
  1
1:1
  0
DICTIONARYVAR
  5
320
102
{ACAD_REACTORS
330
2E7
102
}
330
2E7
100
DictionaryVariables
280
     0
  1
3.500000
  0
DICTIONARYVAR
  5
321
102
{ACAD_REACTORS
330
2E7
102
}
330
2E7
100
DictionaryVariables
280
     0
  1
acadiso.lin
  0
DICTIONARYVAR
  5
31D
102
{ACAD_REACTORS
330
2E7
102
}
330
2E7
100
DictionaryVariables
280
     0
  1
Standard
  0
DICTIONARYVAR
  5
31C
102
{ACAD_REACTORS
330
2E7
102
}
330
2E7
100
DictionaryVariables
280
     0
  1
Standard
  0
DICTIONARY
  5
319
330
6A
100
AcDbDictionary
280
     1
281
     1
  3
ACAD_ROUNDTRIP_2008_TABLESTYLE_CELLSTYLEMAP
360
31A
  0
DICTIONARY
  5
2F1
330
2F
100
AcDbDictionary
280
     1
281
     1
  3
ACAD_XREC_ROUNDTRIP
360
2F2
  0
DICTIONARY
  5
2F7
330
32
100
AcDbDictionary
280
     1
281
     1
  3
ACAD_XREC_ROUNDTRIP
360
2F8
  0
DICTIONARY
  5
2FF
330
36
100
AcDbDictionary
280
     1
281
     1
  3
ACAD_XREC_ROUNDTRIP
360
300
  0
DICTIONARY
  5
307
330
3A
100
AcDbDictionary
280
     1
281
     1
  3
ACAD_XREC_ROUNDTRIP
360
308
  0
DICTIONARY
  5
2FB
330
34
100
AcDbDictionary
280
     1
281
     1
  3
ACAD_XREC_ROUNDTRIP
360
2FC
  0
DICTIONARY
  5
2FD
330
35
100
AcDbDictionary
280
     1
281
     1
  3
ACAD_XREC_ROUNDTRIP
360
2FE
  0
DICTIONARY
  5
30D
330
3D
100
AcDbDictionary
280
     1
281
     1
  3
ACAD_XREC_ROUNDTRIP
360
30E
  0
DICTIONARY
  5
305
330
39
100
AcDbDictionary
280
     1
281
     1
  3
ACAD_XREC_ROUNDTRIP
360
306
  0
DICTIONARY
  5
2E9
330
2B
100
AcDbDictionary
280
     1
281
     1
  3
ACAD_XREC_ROUNDTRIP
360
2EA
  0
DICTIONARY
  5
2EB
330
2C
100
AcDbDictionary
280
     1
281
     1
  3
ACAD_XREC_ROUNDTRIP
360
2EC
  0
DICTIONARY
  5
2ED
330
2D
100
AcDbDictionary
280
     1
281
     1
  3
ACAD_XREC_ROUNDTRIP
360
2EE
  0
DICTIONARY
  5
2EF
330
2E
100
AcDbDictionary
280
     1
281
     1
  3
ACAD_XREC_ROUNDTRIP
360
2F0
  0
DICTIONARY
  5
2F5
330
31
100
AcDbDictionary
280
     1
281
     1
  3
ACAD_XREC_ROUNDTRIP
360
2F6
  0
DICTIONARY
  5
309
330
3B
100
AcDbDictionary
280
     1
281
     1
  3
ACAD_XREC_ROUNDTRIP
360
30A
  0
DICTIONARY
  5
303
330
38
100
AcDbDictionary
280
     1
281
     1
  3
ACAD_XREC_ROUNDTRIP
360
304
  0
DICTIONARY
  5
30B
330
3C
100
AcDbDictionary
280
     1
281
     1
  3
ACAD_XREC_ROUNDTRIP
360
30C
  0
DICTIONARY
  5
2F9
330
33
100
AcDbDictionary
280
     1
281
     1
  3
ACAD_XREC_ROUNDTRIP
360
2FA
  0
DICTIONARY
  5
317
330
42
100
AcDbDictionary
280
     1
281
     1
  3
ACAD_XREC_ROUNDTRIP
360
318
  0
DICTIONARY
  5
315
330
41
100
AcDbDictionary
280
     1
281
     1
  3
ACAD_XREC_ROUNDTRIP
360
316
  0
DICTIONARY
  5
30F
330
3E
100
AcDbDictionary
280
     1
281
     1
  3
ACAD_XREC_ROUNDTRIP
360
310
  0
DICTIONARY
  5
311
330
3F
100
AcDbDictionary
280
     1
281
     1
  3
ACAD_XREC_ROUNDTRIP
360
312
  0
DICTIONARY
  5
301
330
37
100
AcDbDictionary
280
     1
281
     1
  3
ACAD_XREC_ROUNDTRIP
360
302
  0
DICTIONARY
  5
2F3
330
30
100
AcDbDictionary
280
     1
281
     1
  3
ACAD_XREC_ROUNDTRIP
360
2F4
  0
DICTIONARY
  5
313
330
40
100
AcDbDictionary
280
     1
281
     1
  3
ACAD_XREC_ROUNDTRIP
360
314
  0
CELLSTYLEMAP
  5
31A
102
{ACAD_REACTORS
330
319
102
}
330
319
100
AcDbCellStyleMap
 90
        3
300
CELLSTYLE
  1
TABLEFORMAT_BEGIN
 90
        5
170
     1
 91
        0
 92
    32768
 62
   257
 93
        1
300
CONTENTFORMAT
  1
CONTENTFORMAT_BEGIN
 90
        0
 91
        0
 92
        4
 93
        0
300

 40
0.0
140
1.0
 94
        5
 62
     0
340
11
144
6.0
309
CONTENTFORMAT_END
171
     1
301
MARGIN
  1
CELLMARGIN_BEGIN
 40
1.5
 40
1.5
 40
1.5
 40
1.5
 40
1.5
 40
1.5
309
CELLMARGIN_END
 94
        6
 95
        1
302
GRIDFORMAT
  1
GRIDFORMAT_BEGIN
 90
        0
 91
        1
 62
     0
 92
       -2
340
14
 93
        0
 40
0.045
309
GRIDFORMAT_END
 95
        2
302
GRIDFORMAT
  1
GRIDFORMAT_BEGIN
 90
        0
 91
        1
 62
     0
 92
       -2
340
14
 93
        0
 40
0.045
309
GRIDFORMAT_END
 95
        4
302
GRIDFORMAT
  1
GRIDFORMAT_BEGIN
 90
        0
 91
        1
 62
     0
 92
       -2
340
14
 93
        0
 40
0.045
309
GRIDFORMAT_END
 95
        8
302
GRIDFORMAT
  1
GRIDFORMAT_BEGIN
 90
        0
 91
        1
 62
     0
 92
       -2
340
14
 93
        0
 40
0.045
309
GRIDFORMAT_END
 95
       16
302
GRIDFORMAT
  1
GRIDFORMAT_BEGIN
 90
        0
 91
        1
 62
     0
 92
       -2
340
14
 93
        0
 40
0.045
309
GRIDFORMAT_END
 95
       32
302
GRIDFORMAT
  1
GRIDFORMAT_BEGIN
 90
        0
 91
        1
 62
     0
 92
       -2
340
14
 93
        0
 40
0.045
309
GRIDFORMAT_END
309
TABLEFORMAT_END
  1
CELLSTYLE_BEGIN
 90
        1
 91
        1
300
_TITLE
309
CELLSTYLE_END
300
CELLSTYLE
  1
TABLEFORMAT_BEGIN
 90
        5
170
     1
 91
        0
 92
        0
 62
   257
 93
        1
300
CONTENTFORMAT
  1
CONTENTFORMAT_BEGIN
 90
        0
 91
        0
 92
        4
 93
        0
300

 40
0.0
140
1.0
 94
        5
 62
     0
340
11
144
4.5
309
CONTENTFORMAT_END
171
     1
301
MARGIN
  1
CELLMARGIN_BEGIN
 40
1.5
 40
1.5
 40
1.5
 40
1.5
 40
1.5
 40
1.5
309
CELLMARGIN_END
 94
        6
 95
        1
302
GRIDFORMAT
  1
GRIDFORMAT_BEGIN
 90
        0
 91
        1
 62
     0
 92
       -2
340
14
 93
        0
 40
0.045
309
GRIDFORMAT_END
 95
        2
302
GRIDFORMAT
  1
GRIDFORMAT_BEGIN
 90
        0
 91
        1
 62
     0
 92
       -2
340
14
 93
        0
 40
0.045
309
GRIDFORMAT_END
 95
        4
302
GRIDFORMAT
  1
GRIDFORMAT_BEGIN
 90
        0
 91
        1
 62
     0
 92
       -2
340
14
 93
        0
 40
0.045
309
GRIDFORMAT_END
 95
        8
302
GRIDFORMAT
  1
GRIDFORMAT_BEGIN
 90
        0
 91
        1
 62
     0
 92
       -2
340
14
 93
        0
 40
0.045
309
GRIDFORMAT_END
 95
       16
302
GRIDFORMAT
  1
GRIDFORMAT_BEGIN
 90
        0
 91
        1
 62
     0
 92
       -2
340
14
 93
        0
 40
0.045
309
GRIDFORMAT_END
 95
       32
302
GRIDFORMAT
  1
GRIDFORMAT_BEGIN
 90
        0
 91
        1
 62
     0
 92
       -2
340
14
 93
        0
 40
0.045
309
GRIDFORMAT_END
309
TABLEFORMAT_END
  1
CELLSTYLE_BEGIN
 90
        2
 91
        1
300
_HEADER
309
CELLSTYLE_END
300
CELLSTYLE
  1
TABLEFORMAT_BEGIN
 90
        5
170
     1
 91
        0
 92
        0
 62
   257
 93
        1
300
CONTENTFORMAT
  1
CONTENTFORMAT_BEGIN
 90
        0
 91
        0
 92
        4
 93
        0
300

 40
0.0
140
1.0
 94
        2
 62
     0
340
11
144
4.5
309
CONTENTFORMAT_END
171
     1
301
MARGIN
  1
CELLMARGIN_BEGIN
 40
1.5
 40
1.5
 40
1.5
 40
1.5
 40
1.5
 40
1.5
309
CELLMARGIN_END
 94
        6
 95
        1
302
GRIDFORMAT
  1
GRIDFORMAT_BEGIN
 90
        0
 91
        1
 62
     0
 92
       -2
340
14
 93
        0
 40
0.045
309
GRIDFORMAT_END
 95
        2
302
GRIDFORMAT
  1
GRIDFORMAT_BEGIN
 90
        0
 91
        1
 62
     0
 92
       -2
340
14
 93
        0
 40
0.045
309
GRIDFORMAT_END
 95
        4
302
GRIDFORMAT
  1
GRIDFORMAT_BEGIN
 90
        0
 91
        1
 62
     0
 92
       -2
340
14
 93
        0
 40
0.045
309
GRIDFORMAT_END
 95
        8
302
GRIDFORMAT
  1
GRIDFORMAT_BEGIN
 90
        0
 91
        1
 62
     0
 92
       -2
340
14
 93
        0
 40
0.045
309
GRIDFORMAT_END
 95
       16
302
GRIDFORMAT
  1
GRIDFORMAT_BEGIN
 90
        0
 91
        1
 62
     0
 92
       -2
340
14
 93
        0
 40
0.045
309
GRIDFORMAT_END
 95
       32
302
GRIDFORMAT
  1
GRIDFORMAT_BEGIN
 90
        0
 91
        1
 62
     0
 92
       -2
340
14
 93
        0
 40
0.045
309
GRIDFORMAT_END
309
TABLEFORMAT_END
  1
CELLSTYLE_BEGIN
 90
        3
 91
        2
300
_DATA
309
CELLSTYLE_END
  0
XRECORD
  5
2F2
102
{ACAD_REACTORS
330
2F1
102
}
330
2F1
100
AcDbXrecord
280
     1
102
RTVSPost2010Prop28
280
     1
102
RTVSPost2010PropOp28
 70
     1
102
RTVSPost2010Prop29
280
     1
102
RTVSPost2010PropOp29
 70
     1
102
RTVSPost2010Prop30
280
     0
102
RTVSPost2010PropOp30
 70
     1
102
RTVSPost2010Prop31
280
     0
102
RTVSPost2010PropOp31
 70
     1
102
RTVSPost2010Prop32
280
     0
102
RTVSPost2010PropOp32
 70
     1
102
RTVSPost2010Prop33
280
     0
102
RTVSPost2010PropOp33
 70
     1
102
RTVSPost2010Prop34
280
     0
102
RTVSPost2010PropOp34
 70
     1
102
RTVSPost2010Prop35
280
     0
102
RTVSPost2010PropOp35
 70
     1
102
RTVSPost2010Prop36
280
     0
102
RTVSPost2010PropOp36
 70
     1
102
RTVSPost2010Prop37
 90
       50
102
RTVSPost2010PropOp37
 70
     1
102
RTVSPost2010Prop38
140
0.0
102
RTVSPost2010PropOp38
 70
     1
102
RTVSPost2010Prop39
140
1.0
102
RTVSPost2010PropOp39
 70
     1
102
RTVSPost2010Prop40
 90
        0
102
RTVSPost2010PropOp40
 70
     1
102
RTVSPost2010Prop41ColorIndex
 90
       18
102
RTVSPost2010Prop41ColorRGB
 90
        0
102
RTVSPost2010PropOp41
 70
     1
102
RTVSPost2010Prop42
 90
       50
102
RTVSPost2010PropOp42
 70
     1
102
RTVSPost2010Prop43
 90
        3
102
RTVSPost2010PropOp43
 70
     1
102
RTVSPost2010Prop44ColorIndex
 90
        5
102
RTVSPost2010Prop44ColorRGB
 90
      255
102
RTVSPost2010PropOp44
 70
     1
102
RTVSPost2010Prop45
280
     0
102
RTVSPost2010PropOp45
 70
     1
102
RTVSPost2010Prop46
 90
       50
102
RTVSPost2010PropOp46
 70
     1
102
RTVSPost2010Prop47
 90
       50
102
RTVSPost2010PropOp47
 70
     1
102
RTVSPost2010Prop48
 90
       50
102
RTVSPost2010PropOp48
 70
     1
102
RTVSPost2010Prop49
280
     0
102
RTVSPost2010PropOp49
 70
     1
102
RTVSPost2010Prop50
 90
       50
102
RTVSPost2010PropOp50
 70
     1
102
RTVSPost2010Prop51ColorIndex
 90
      256
102
RTVSPost2010Prop51ColorRGB
 90
-16777216
102
RTVSPost2010PropOp51
 70
     0
102
RTVSPost2010Prop52
140
1.0
102
RTVSPost2010PropOp52
 70
     0
102
RTVSPost2010Prop53
 90
        2
102
RTVSPost2010PropOp53
 70
     1
102
RTVSPost2010Prop54
  1
strokes_ogs.tif
102
RTVSPost2010PropOp54
 70
     1
102
RTVSPost2010Prop55
280
     0
102
RTVSPost2010PropOp55
 70
     1
102
RTVSPost2010Prop56
140
1.0
102
RTVSPost2010PropOp56
 70
     1
102
RTVSPost2010Prop57
140
1.0
102
RTVSPost2010PropOp57
 70
     1
  0
XRECORD
  5
2F8
102
{ACAD_REACTORS
330
2F7
102
}
330
2F7
100
AcDbXrecord
280
     1
102
RTVSPost2010Prop28
280
     0
102
RTVSPost2010PropOp28
 70
     1
102
RTVSPost2010Prop29
280
     1
102
RTVSPost2010PropOp29
 70
     1
102
RTVSPost2010Prop30
280
     1
102
RTVSPost2010PropOp30
 70
     1
102
RTVSPost2010Prop31
280
     0
102
RTVSPost2010PropOp31
 70
     1
102
RTVSPost2010Prop32
280
     0
102
RTVSPost2010PropOp32
 70
     1
102
RTVSPost2010Prop33
280
     0
102
RTVSPost2010PropOp33
 70
     1
102
RTVSPost2010Prop34
280
     0
102
RTVSPost2010PropOp34
 70
     1
102
RTVSPost2010Prop35
280
     0
102
RTVSPost2010PropOp35
 70
     1
102
RTVSPost2010Prop36
280
     0
102
RTVSPost2010PropOp36
 70
     1
102
RTVSPost2010Prop37
 90
       50
102
RTVSPost2010PropOp37
 70
     1
102
RTVSPost2010Prop38
140
0.0
102
RTVSPost2010PropOp38
 70
     1
102
RTVSPost2010Prop39
140
1.0
102
RTVSPost2010PropOp39
 70
     1
102
RTVSPost2010Prop40
 90
        0
102
RTVSPost2010PropOp40
 70
     1
102
RTVSPost2010Prop41ColorIndex
 90
       18
102
RTVSPost2010Prop41ColorRGB
 90
        0
102
RTVSPost2010PropOp41
 70
     1
102
RTVSPost2010Prop42
 90
       50
102
RTVSPost2010PropOp42
 70
     1
102
RTVSPost2010Prop43
 90
        3
102
RTVSPost2010PropOp43
 70
     1
102
RTVSPost2010Prop44ColorIndex
 90
        5
102
RTVSPost2010Prop44ColorRGB
 90
      255
102
RTVSPost2010PropOp44
 70
     1
102
RTVSPost2010Prop45
280
     0
102
RTVSPost2010PropOp45
 70
     1
102
RTVSPost2010Prop46
 90
       50
102
RTVSPost2010PropOp46
 70
     1
102
RTVSPost2010Prop47
 90
       50
102
RTVSPost2010PropOp47
 70
     1
102
RTVSPost2010Prop48
 90
       50
102
RTVSPost2010PropOp48
 70
     1
102
RTVSPost2010Prop49
280
     0
102
RTVSPost2010PropOp49
 70
     1
102
RTVSPost2010Prop50
 90
       50
102
RTVSPost2010PropOp50
 70
     1
102
RTVSPost2010Prop51ColorIndex
 90
      256
102
RTVSPost2010Prop51ColorRGB
 90
-16777216
102
RTVSPost2010PropOp51
 70
     0
102
RTVSPost2010Prop52
140
1.0
102
RTVSPost2010PropOp52
 70
     0
102
RTVSPost2010Prop53
 90
        2
102
RTVSPost2010PropOp53
 70
     1
102
RTVSPost2010Prop54
  1
strokes_ogs.tif
102
RTVSPost2010PropOp54
 70
     1
102
RTVSPost2010Prop55
280
     0
102
RTVSPost2010PropOp55
 70
     1
102
RTVSPost2010Prop56
140
1.0
102
RTVSPost2010PropOp56
 70
     1
102
RTVSPost2010Prop57
140
1.0
102
RTVSPost2010PropOp57
 70
     1
  0
XRECORD
  5
300
102
{ACAD_REACTORS
330
2FF
102
}
330
2FF
100
AcDbXrecord
280
     1
102
RTVSPost2010Prop28
280
     0
102
RTVSPost2010PropOp28
 70
     1
102
RTVSPost2010Prop29
280
     1
102
RTVSPost2010PropOp29
 70
     1
102
RTVSPost2010Prop30
280
     1
102
RTVSPost2010PropOp30
 70
     1
102
RTVSPost2010Prop31
280
     0
102
RTVSPost2010PropOp31
 70
     1
102
RTVSPost2010Prop32
280
     0
102
RTVSPost2010PropOp32
 70
     1
102
RTVSPost2010Prop33
280
     0
102
RTVSPost2010PropOp33
 70
     1
102
RTVSPost2010Prop34
280
     0
102
RTVSPost2010PropOp34
 70
     1
102
RTVSPost2010Prop35
280
     0
102
RTVSPost2010PropOp35
 70
     1
102
RTVSPost2010Prop36
280
     0
102
RTVSPost2010PropOp36
 70
     1
102
RTVSPost2010Prop37
 90
       50
102
RTVSPost2010PropOp37
 70
     1
102
RTVSPost2010Prop38
140
0.0
102
RTVSPost2010PropOp38
 70
     1
102
RTVSPost2010Prop39
140
1.0
102
RTVSPost2010PropOp39
 70
     1
102
RTVSPost2010Prop40
 90
        0
102
RTVSPost2010PropOp40
 70
     1
102
RTVSPost2010Prop41ColorIndex
 90
       18
102
RTVSPost2010Prop41ColorRGB
 90
        0
102
RTVSPost2010PropOp41
 70
     1
102
RTVSPost2010Prop42
 90
       50
102
RTVSPost2010PropOp42
 70
     1
102
RTVSPost2010Prop43
 90
        3
102
RTVSPost2010PropOp43
 70
     1
102
RTVSPost2010Prop44ColorIndex
 90
        5
102
RTVSPost2010Prop44ColorRGB
 90
      255
102
RTVSPost2010PropOp44
 70
     1
102
RTVSPost2010Prop45
280
     0
102
RTVSPost2010PropOp45
 70
     1
102
RTVSPost2010Prop46
 90
       50
102
RTVSPost2010PropOp46
 70
     1
102
RTVSPost2010Prop47
 90
       50
102
RTVSPost2010PropOp47
 70
     1
102
RTVSPost2010Prop48
 90
       50
102
RTVSPost2010PropOp48
 70
     1
102
RTVSPost2010Prop49
280
     0
102
RTVSPost2010PropOp49
 70
     1
102
RTVSPost2010Prop50
 90
       50
102
RTVSPost2010PropOp50
 70
     1
102
RTVSPost2010Prop51ColorIndex
 90
      256
102
RTVSPost2010Prop51ColorRGB
 90
-16777216
102
RTVSPost2010PropOp51
 70
     0
102
RTVSPost2010Prop52
140
1.0
102
RTVSPost2010PropOp52
 70
     0
102
RTVSPost2010Prop53
 90
        2
102
RTVSPost2010PropOp53
 70
     1
102
RTVSPost2010Prop54
  1
strokes_ogs.tif
102
RTVSPost2010PropOp54
 70
     1
102
RTVSPost2010Prop55
280
     0
102
RTVSPost2010PropOp55
 70
     1
102
RTVSPost2010Prop56
140
1.0
102
RTVSPost2010PropOp56
 70
     1
102
RTVSPost2010Prop57
140
1.0
102
RTVSPost2010PropOp57
 70
     1
  0
XRECORD
  5
308
102
{ACAD_REACTORS
330
307
102
}
330
307
100
AcDbXrecord
280
     1
102
RTVSPost2010Prop28
280
     0
102
RTVSPost2010PropOp28
 70
     1
102
RTVSPost2010Prop29
280
     1
102
RTVSPost2010PropOp29
 70
     1
102
RTVSPost2010Prop30
280
     1
102
RTVSPost2010PropOp30
 70
     1
102
RTVSPost2010Prop31
280
     0
102
RTVSPost2010PropOp31
 70
     1
102
RTVSPost2010Prop32
280
     0
102
RTVSPost2010PropOp32
 70
     1
102
RTVSPost2010Prop33
280
     0
102
RTVSPost2010PropOp33
 70
     1
102
RTVSPost2010Prop34
280
     0
102
RTVSPost2010PropOp34
 70
     1
102
RTVSPost2010Prop35
280
     0
102
RTVSPost2010PropOp35
 70
     1
102
RTVSPost2010Prop36
280
     0
102
RTVSPost2010PropOp36
 70
     1
102
RTVSPost2010Prop37
 90
       50
102
RTVSPost2010PropOp37
 70
     1
102
RTVSPost2010Prop38
140
0.0
102
RTVSPost2010PropOp38
 70
     1
102
RTVSPost2010Prop39
140
1.0
102
RTVSPost2010PropOp39
 70
     1
102
RTVSPost2010Prop40
 90
        0
102
RTVSPost2010PropOp40
 70
     1
102
RTVSPost2010Prop41ColorIndex
 90
       18
102
RTVSPost2010Prop41ColorRGB
 90
        0
102
RTVSPost2010PropOp41
 70
     1
102
RTVSPost2010Prop42
 90
       50
102
RTVSPost2010PropOp42
 70
     1
102
RTVSPost2010Prop43
 90
        3
102
RTVSPost2010PropOp43
 70
     1
102
RTVSPost2010Prop44ColorIndex
 90
        5
102
RTVSPost2010Prop44ColorRGB
 90
      255
102
RTVSPost2010PropOp44
 70
     1
102
RTVSPost2010Prop45
280
     0
102
RTVSPost2010PropOp45
 70
     1
102
RTVSPost2010Prop46
 90
       50
102
RTVSPost2010PropOp46
 70
     1
102
RTVSPost2010Prop47
 90
       50
102
RTVSPost2010PropOp47
 70
     1
102
RTVSPost2010Prop48
 90
       50
102
RTVSPost2010PropOp48
 70
     1
102
RTVSPost2010Prop49
280
     0
102
RTVSPost2010PropOp49
 70
     1
102
RTVSPost2010Prop50
 90
       50
102
RTVSPost2010PropOp50
 70
     1
102
RTVSPost2010Prop51ColorIndex
 90
      256
102
RTVSPost2010Prop51ColorRGB
 90
-16777216
102
RTVSPost2010PropOp51
 70
     0
102
RTVSPost2010Prop52
140
1.0
102
RTVSPost2010PropOp52
 70
     0
102
RTVSPost2010Prop53
 90
        2
102
RTVSPost2010PropOp53
 70
     1
102
RTVSPost2010Prop54
  1
strokes_ogs.tif
102
RTVSPost2010PropOp54
 70
     1
102
RTVSPost2010Prop55
280
     0
102
RTVSPost2010PropOp55
 70
     1
102
RTVSPost2010Prop56
140
1.0
102
RTVSPost2010PropOp56
 70
     1
102
RTVSPost2010Prop57
140
1.0
102
RTVSPost2010PropOp57
 70
     1
  0
XRECORD
  5
2FC
102
{ACAD_REACTORS
330
2FB
102
}
330
2FB
100
AcDbXrecord
280
     1
102
RTVSPost2010Prop28
280
     0
102
RTVSPost2010PropOp28
 70
     1
102
RTVSPost2010Prop29
280
     1
102
RTVSPost2010PropOp29
 70
     1
102
RTVSPost2010Prop30
280
     1
102
RTVSPost2010PropOp30
 70
     1
102
RTVSPost2010Prop31
280
     0
102
RTVSPost2010PropOp31
 70
     1
102
RTVSPost2010Prop32
280
     0
102
RTVSPost2010PropOp32
 70
     1
102
RTVSPost2010Prop33
280
     0
102
RTVSPost2010PropOp33
 70
     1
102
RTVSPost2010Prop34
280
     0
102
RTVSPost2010PropOp34
 70
     1
102
RTVSPost2010Prop35
280
     0
102
RTVSPost2010PropOp35
 70
     1
102
RTVSPost2010Prop36
280
     0
102
RTVSPost2010PropOp36
 70
     1
102
RTVSPost2010Prop37
 90
       50
102
RTVSPost2010PropOp37
 70
     1
102
RTVSPost2010Prop38
140
0.0
102
RTVSPost2010PropOp38
 70
     1
102
RTVSPost2010Prop39
140
1.0
102
RTVSPost2010PropOp39
 70
     1
102
RTVSPost2010Prop40
 90
        0
102
RTVSPost2010PropOp40
 70
     1
102
RTVSPost2010Prop41ColorIndex
 90
       18
102
RTVSPost2010Prop41ColorRGB
 90
        0
102
RTVSPost2010PropOp41
 70
     1
102
RTVSPost2010Prop42
 90
       50
102
RTVSPost2010PropOp42
 70
     1
102
RTVSPost2010Prop43
 90
        3
102
RTVSPost2010PropOp43
 70
     1
102
RTVSPost2010Prop44ColorIndex
 90
        5
102
RTVSPost2010Prop44ColorRGB
 90
      255
102
RTVSPost2010PropOp44
 70
     1
102
RTVSPost2010Prop45
280
     0
102
RTVSPost2010PropOp45
 70
     1
102
RTVSPost2010Prop46
 90
       50
102
RTVSPost2010PropOp46
 70
     1
102
RTVSPost2010Prop47
 90
       50
102
RTVSPost2010PropOp47
 70
     1
102
RTVSPost2010Prop48
 90
       50
102
RTVSPost2010PropOp48
 70
     1
102
RTVSPost2010Prop49
280
     0
102
RTVSPost2010PropOp49
 70
     1
102
RTVSPost2010Prop50
 90
       50
102
RTVSPost2010PropOp50
 70
     1
102
RTVSPost2010Prop51ColorIndex
 90
      256
102
RTVSPost2010Prop51ColorRGB
 90
-16777216
102
RTVSPost2010PropOp51
 70
     0
102
RTVSPost2010Prop52
140
1.0
102
RTVSPost2010PropOp52
 70
     0
102
RTVSPost2010Prop53
 90
        2
102
RTVSPost2010PropOp53
 70
     1
102
RTVSPost2010Prop54
  1
strokes_ogs.tif
102
RTVSPost2010PropOp54
 70
     1
102
RTVSPost2010Prop55
280
     0
102
RTVSPost2010PropOp55
 70
     1
102
RTVSPost2010Prop56
140
1.0
102
RTVSPost2010PropOp56
 70
     1
102
RTVSPost2010Prop57
140
1.0
102
RTVSPost2010PropOp57
 70
     1
  0
XRECORD
  5
2FE
102
{ACAD_REACTORS
330
2FD
102
}
330
2FD
100
AcDbXrecord
280
     1
102
RTVSPost2010Prop28
280
     0
102
RTVSPost2010PropOp28
 70
     1
102
RTVSPost2010Prop29
280
     1
102
RTVSPost2010PropOp29
 70
     1
102
RTVSPost2010Prop30
280
     1
102
RTVSPost2010PropOp30
 70
     1
102
RTVSPost2010Prop31
280
     0
102
RTVSPost2010PropOp31
 70
     1
102
RTVSPost2010Prop32
280
     0
102
RTVSPost2010PropOp32
 70
     1
102
RTVSPost2010Prop33
280
     0
102
RTVSPost2010PropOp33
 70
     1
102
RTVSPost2010Prop34
280
     0
102
RTVSPost2010PropOp34
 70
     1
102
RTVSPost2010Prop35
280
     0
102
RTVSPost2010PropOp35
 70
     1
102
RTVSPost2010Prop36
280
     0
102
RTVSPost2010PropOp36
 70
     1
102
RTVSPost2010Prop37
 90
       50
102
RTVSPost2010PropOp37
 70
     1
102
RTVSPost2010Prop38
140
0.0
102
RTVSPost2010PropOp38
 70
     1
102
RTVSPost2010Prop39
140
1.0
102
RTVSPost2010PropOp39
 70
     1
102
RTVSPost2010Prop40
 90
        0
102
RTVSPost2010PropOp40
 70
     1
102
RTVSPost2010Prop41ColorIndex
 90
       18
102
RTVSPost2010Prop41ColorRGB
 90
        0
102
RTVSPost2010PropOp41
 70
     1
102
RTVSPost2010Prop42
 90
       50
102
RTVSPost2010PropOp42
 70
     1
102
RTVSPost2010Prop43
 90
        3
102
RTVSPost2010PropOp43
 70
     1
102
RTVSPost2010Prop44ColorIndex
 90
        5
102
RTVSPost2010Prop44ColorRGB
 90
      255
102
RTVSPost2010PropOp44
 70
     1
102
RTVSPost2010Prop45
280
     0
102
RTVSPost2010PropOp45
 70
     1
102
RTVSPost2010Prop46
 90
       50
102
RTVSPost2010PropOp46
 70
     1
102
RTVSPost2010Prop47
 90
       50
102
RTVSPost2010PropOp47
 70
     1
102
RTVSPost2010Prop48
 90
       50
102
RTVSPost2010PropOp48
 70
     1
102
RTVSPost2010Prop49
280
     0
102
RTVSPost2010PropOp49
 70
     1
102
RTVSPost2010Prop50
 90
       50
102
RTVSPost2010PropOp50
 70
     1
102
RTVSPost2010Prop51ColorIndex
 90
      256
102
RTVSPost2010Prop51ColorRGB
 90
-16777216
102
RTVSPost2010PropOp51
 70
     0
102
RTVSPost2010Prop52
140
1.0
102
RTVSPost2010PropOp52
 70
     0
102
RTVSPost2010Prop53
 90
        2
102
RTVSPost2010PropOp53
 70
     1
102
RTVSPost2010Prop54
  1
strokes_ogs.tif
102
RTVSPost2010PropOp54
 70
     1
102
RTVSPost2010Prop55
280
     0
102
RTVSPost2010PropOp55
 70
     1
102
RTVSPost2010Prop56
140
1.0
102
RTVSPost2010PropOp56
 70
     1
102
RTVSPost2010Prop57
140
1.0
102
RTVSPost2010PropOp57
 70
     1
  0
XRECORD
  5
30E
102
{ACAD_REACTORS
330
30D
102
}
330
30D
100
AcDbXrecord
280
     1
102
RTVSPost2010Prop28
280
     0
102
RTVSPost2010PropOp28
 70
     0
102
RTVSPost2010Prop29
280
     1
102
RTVSPost2010PropOp29
 70
     0
102
RTVSPost2010Prop30
280
     1
102
RTVSPost2010PropOp30
 70
     0
102
RTVSPost2010Prop31
280
     0
102
RTVSPost2010PropOp31
 70
     0
102
RTVSPost2010Prop32
280
     0
102
RTVSPost2010PropOp32
 70
     0
102
RTVSPost2010Prop33
280
     0
102
RTVSPost2010PropOp33
 70
     0
102
RTVSPost2010Prop34
280
     0
102
RTVSPost2010PropOp34
 70
     0
102
RTVSPost2010Prop35
280
     0
102
RTVSPost2010PropOp35
 70
     0
102
RTVSPost2010Prop36
280
     0
102
RTVSPost2010PropOp36
 70
     0
102
RTVSPost2010Prop37
 90
       50
102
RTVSPost2010PropOp37
 70
     0
102
RTVSPost2010Prop38
140
0.0
102
RTVSPost2010PropOp38
 70
     0
102
RTVSPost2010Prop39
140
1.0
102
RTVSPost2010PropOp39
 70
     0
102
RTVSPost2010Prop40
 90
        0
102
RTVSPost2010PropOp40
 70
     0
102
RTVSPost2010Prop41ColorIndex
 90
       18
102
RTVSPost2010Prop41ColorRGB
 90
        0
102
RTVSPost2010PropOp41
 70
     0
102
RTVSPost2010Prop42
 90
       50
102
RTVSPost2010PropOp42
 70
     0
102
RTVSPost2010Prop43
 90
        3
102
RTVSPost2010PropOp43
 70
     0
102
RTVSPost2010Prop44ColorIndex
 90
        5
102
RTVSPost2010Prop44ColorRGB
 90
      255
102
RTVSPost2010PropOp44
 70
     0
102
RTVSPost2010Prop45
280
     0
102
RTVSPost2010PropOp45
 70
     0
102
RTVSPost2010Prop46
 90
       50
102
RTVSPost2010PropOp46
 70
     0
102
RTVSPost2010Prop47
 90
       50
102
RTVSPost2010PropOp47
 70
     0
102
RTVSPost2010Prop48
 90
       50
102
RTVSPost2010PropOp48
 70
     0
102
RTVSPost2010Prop49
280
     0
102
RTVSPost2010PropOp49
 70
     0
102
RTVSPost2010Prop50
 90
       50
102
RTVSPost2010PropOp50
 70
     0
102
RTVSPost2010Prop51ColorIndex
 90
      256
102
RTVSPost2010Prop51ColorRGB
 90
-16777216
102
RTVSPost2010PropOp51
 70
     0
102
RTVSPost2010Prop52
140
1.0
102
RTVSPost2010PropOp52
 70
     0
102
RTVSPost2010Prop53
 90
        2
102
RTVSPost2010PropOp53
 70
     0
102
RTVSPost2010Prop54
  1
strokes_ogs.tif
102
RTVSPost2010PropOp54
 70
     0
102
RTVSPost2010Prop55
280
     0
102
RTVSPost2010PropOp55
 70
     0
102
RTVSPost2010Prop56
140
1.0
102
RTVSPost2010PropOp56
 70
     0
102
RTVSPost2010Prop57
140
1.0
102
RTVSPost2010PropOp57
 70
     0
  0
XRECORD
  5
306
102
{ACAD_REACTORS
330
305
102
}
330
305
100
AcDbXrecord
280
     1
102
RTVSPost2010Prop28
280
     0
102
RTVSPost2010PropOp28
 70
     1
102
RTVSPost2010Prop29
280
     1
102
RTVSPost2010PropOp29
 70
     1
102
RTVSPost2010Prop30
280
     1
102
RTVSPost2010PropOp30
 70
     1
102
RTVSPost2010Prop31
280
     0
102
RTVSPost2010PropOp31
 70
     1
102
RTVSPost2010Prop32
280
     0
102
RTVSPost2010PropOp32
 70
     1
102
RTVSPost2010Prop33
280
     0
102
RTVSPost2010PropOp33
 70
     1
102
RTVSPost2010Prop34
280
     0
102
RTVSPost2010PropOp34
 70
     1
102
RTVSPost2010Prop35
280
     0
102
RTVSPost2010PropOp35
 70
     1
102
RTVSPost2010Prop36
280
     0
102
RTVSPost2010PropOp36
 70
     1
102
RTVSPost2010Prop37
 90
       50
102
RTVSPost2010PropOp37
 70
     1
102
RTVSPost2010Prop38
140
0.0
102
RTVSPost2010PropOp38
 70
     1
102
RTVSPost2010Prop39
140
1.0
102
RTVSPost2010PropOp39
 70
     1
102
RTVSPost2010Prop40
 90
        0
102
RTVSPost2010PropOp40
 70
     1
102
RTVSPost2010Prop41ColorIndex
 90
       18
102
RTVSPost2010Prop41ColorRGB
 90
        0
102
RTVSPost2010PropOp41
 70
     1
102
RTVSPost2010Prop42
 90
       50
102
RTVSPost2010PropOp42
 70
     1
102
RTVSPost2010Prop43
 90
        3
102
RTVSPost2010PropOp43
 70
     1
102
RTVSPost2010Prop44ColorIndex
 90
        5
102
RTVSPost2010Prop44ColorRGB
 90
      255
102
RTVSPost2010PropOp44
 70
     1
102
RTVSPost2010Prop45
280
     0
102
RTVSPost2010PropOp45
 70
     1
102
RTVSPost2010Prop46
 90
       50
102
RTVSPost2010PropOp46
 70
     1
102
RTVSPost2010Prop47
 90
       50
102
RTVSPost2010PropOp47
 70
     1
102
RTVSPost2010Prop48
 90
       50
102
RTVSPost2010PropOp48
 70
     1
102
RTVSPost2010Prop49
280
     0
102
RTVSPost2010PropOp49
 70
     1
102
RTVSPost2010Prop50
 90
       50
102
RTVSPost2010PropOp50
 70
     1
102
RTVSPost2010Prop51ColorIndex
 90
      256
102
RTVSPost2010Prop51ColorRGB
 90
-16777216
102
RTVSPost2010PropOp51
 70
     0
102
RTVSPost2010Prop52
140
1.0
102
RTVSPost2010PropOp52
 70
     0
102
RTVSPost2010Prop53
 90
        2
102
RTVSPost2010PropOp53
 70
     1
102
RTVSPost2010Prop54
  1
strokes_ogs.tif
102
RTVSPost2010PropOp54
 70
     1
102
RTVSPost2010Prop55
280
     0
102
RTVSPost2010PropOp55
 70
     1
102
RTVSPost2010Prop56
140
1.0
102
RTVSPost2010PropOp56
 70
     1
102
RTVSPost2010Prop57
140
1.0
102
RTVSPost2010PropOp57
 70
     1
  0
XRECORD
  5
2EA
102
{ACAD_REACTORS
330
2E9
102
}
330
2E9
100
AcDbXrecord
280
     1
102
RTVSPost2010Prop28
280
     0
102
RTVSPost2010PropOp28
 70
     1
102
RTVSPost2010Prop29
280
     1
102
RTVSPost2010PropOp29
 70
     1
102
RTVSPost2010Prop30
280
     1
102
RTVSPost2010PropOp30
 70
     1
102
RTVSPost2010Prop31
280
     0
102
RTVSPost2010PropOp31
 70
     1
102
RTVSPost2010Prop32
280
     0
102
RTVSPost2010PropOp32
 70
     1
102
RTVSPost2010Prop33
280
     0
102
RTVSPost2010PropOp33
 70
     1
102
RTVSPost2010Prop34
280
     0
102
RTVSPost2010PropOp34
 70
     1
102
RTVSPost2010Prop35
280
     0
102
RTVSPost2010PropOp35
 70
     1
102
RTVSPost2010Prop36
280
     0
102
RTVSPost2010PropOp36
 70
     1
102
RTVSPost2010Prop37
 90
       50
102
RTVSPost2010PropOp37
 70
     1
102
RTVSPost2010Prop38
140
0.0
102
RTVSPost2010PropOp38
 70
     1
102
RTVSPost2010Prop39
140
1.0
102
RTVSPost2010PropOp39
 70
     1
102
RTVSPost2010Prop40
 90
        0
102
RTVSPost2010PropOp40
 70
     1
102
RTVSPost2010Prop41ColorIndex
 90
       18
102
RTVSPost2010Prop41ColorRGB
 90
        0
102
RTVSPost2010PropOp41
 70
     1
102
RTVSPost2010Prop42
 90
       50
102
RTVSPost2010PropOp42
 70
     1
102
RTVSPost2010Prop43
 90
        3
102
RTVSPost2010PropOp43
 70
     1
102
RTVSPost2010Prop44ColorIndex
 90
        5
102
RTVSPost2010Prop44ColorRGB
 90
      255
102
RTVSPost2010PropOp44
 70
     1
102
RTVSPost2010Prop45
280
     0
102
RTVSPost2010PropOp45
 70
     1
102
RTVSPost2010Prop46
 90
       50
102
RTVSPost2010PropOp46
 70
     1
102
RTVSPost2010Prop47
 90
       50
102
RTVSPost2010PropOp47
 70
     1
102
RTVSPost2010Prop48
 90
       50
102
RTVSPost2010PropOp48
 70
     1
102
RTVSPost2010Prop49
280
     0
102
RTVSPost2010PropOp49
 70
     1
102
RTVSPost2010Prop50
 90
       50
102
RTVSPost2010PropOp50
 70
     1
102
RTVSPost2010Prop51ColorIndex
 90
      256
102
RTVSPost2010Prop51ColorRGB
 90
-16777216
102
RTVSPost2010PropOp51
 70
     0
102
RTVSPost2010Prop52
140
1.0
102
RTVSPost2010PropOp52
 70
     0
102
RTVSPost2010Prop53
 90
        2
102
RTVSPost2010PropOp53
 70
     1
102
RTVSPost2010Prop54
  1
strokes_ogs.tif
102
RTVSPost2010PropOp54
 70
     1
102
RTVSPost2010Prop55
280
     0
102
RTVSPost2010PropOp55
 70
     1
102
RTVSPost2010Prop56
140
1.0
102
RTVSPost2010PropOp56
 70
     1
102
RTVSPost2010Prop57
140
1.0
102
RTVSPost2010PropOp57
 70
     1
  0
XRECORD
  5
2EC
102
{ACAD_REACTORS
330
2EB
102
}
330
2EB
100
AcDbXrecord
280
     1
102
RTVSPost2010Prop28
280
     0
102
RTVSPost2010PropOp28
 70
     1
102
RTVSPost2010Prop29
280
     1
102
RTVSPost2010PropOp29
 70
     1
102
RTVSPost2010Prop30
280
     1
102
RTVSPost2010PropOp30
 70
     1
102
RTVSPost2010Prop31
280
     0
102
RTVSPost2010PropOp31
 70
     1
102
RTVSPost2010Prop32
280
     0
102
RTVSPost2010PropOp32
 70
     1
102
RTVSPost2010Prop33
280
     0
102
RTVSPost2010PropOp33
 70
     1
102
RTVSPost2010Prop34
280
     0
102
RTVSPost2010PropOp34
 70
     1
102
RTVSPost2010Prop35
280
     0
102
RTVSPost2010PropOp35
 70
     1
102
RTVSPost2010Prop36
280
     0
102
RTVSPost2010PropOp36
 70
     1
102
RTVSPost2010Prop37
 90
       50
102
RTVSPost2010PropOp37
 70
     1
102
RTVSPost2010Prop38
140
0.0
102
RTVSPost2010PropOp38
 70
     1
102
RTVSPost2010Prop39
140
1.0
102
RTVSPost2010PropOp39
 70
     1
102
RTVSPost2010Prop40
 90
        0
102
RTVSPost2010PropOp40
 70
     1
102
RTVSPost2010Prop41ColorIndex
 90
       18
102
RTVSPost2010Prop41ColorRGB
 90
        0
102
RTVSPost2010PropOp41
 70
     1
102
RTVSPost2010Prop42
 90
       50
102
RTVSPost2010PropOp42
 70
     1
102
RTVSPost2010Prop43
 90
        3
102
RTVSPost2010PropOp43
 70
     1
102
RTVSPost2010Prop44ColorIndex
 90
        5
102
RTVSPost2010Prop44ColorRGB
 90
      255
102
RTVSPost2010PropOp44
 70
     1
102
RTVSPost2010Prop45
280
     0
102
RTVSPost2010PropOp45
 70
     1
102
RTVSPost2010Prop46
 90
       50
102
RTVSPost2010PropOp46
 70
     1
102
RTVSPost2010Prop47
 90
       50
102
RTVSPost2010PropOp47
 70
     1
102
RTVSPost2010Prop48
 90
       50
102
RTVSPost2010PropOp48
 70
     1
102
RTVSPost2010Prop49
280
     0
102
RTVSPost2010PropOp49
 70
     1
102
RTVSPost2010Prop50
 90
       50
102
RTVSPost2010PropOp50
 70
     1
102
RTVSPost2010Prop51ColorIndex
 90
      256
102
RTVSPost2010Prop51ColorRGB
 90
-16777216
102
RTVSPost2010PropOp51
 70
     0
102
RTVSPost2010Prop52
140
1.0
102
RTVSPost2010PropOp52
 70
     0
102
RTVSPost2010Prop53
 90
        2
102
RTVSPost2010PropOp53
 70
     1
102
RTVSPost2010Prop54
  1
strokes_ogs.tif
102
RTVSPost2010PropOp54
 70
     1
102
RTVSPost2010Prop55
280
     0
102
RTVSPost2010PropOp55
 70
     1
102
RTVSPost2010Prop56
140
1.0
102
RTVSPost2010PropOp56
 70
     1
102
RTVSPost2010Prop57
140
1.0
102
RTVSPost2010PropOp57
 70
     1
  0
XRECORD
  5
2EE
102
{ACAD_REACTORS
330
2ED
102
}
330
2ED
100
AcDbXrecord
280
     1
102
RTVSPost2010Prop28
280
     0
102
RTVSPost2010PropOp28
 70
     1
102
RTVSPost2010Prop29
280
     1
102
RTVSPost2010PropOp29
 70
     1
102
RTVSPost2010Prop30
280
     1
102
RTVSPost2010PropOp30
 70
     1
102
RTVSPost2010Prop31
280
     0
102
RTVSPost2010PropOp31
 70
     1
102
RTVSPost2010Prop32
280
     0
102
RTVSPost2010PropOp32
 70
     1
102
RTVSPost2010Prop33
280
     0
102
RTVSPost2010PropOp33
 70
     1
102
RTVSPost2010Prop34
280
     0
102
RTVSPost2010PropOp34
 70
     1
102
RTVSPost2010Prop35
280
     0
102
RTVSPost2010PropOp35
 70
     1
102
RTVSPost2010Prop36
280
     0
102
RTVSPost2010PropOp36
 70
     1
102
RTVSPost2010Prop37
 90
       50
102
RTVSPost2010PropOp37
 70
     1
102
RTVSPost2010Prop38
140
0.0
102
RTVSPost2010PropOp38
 70
     1
102
RTVSPost2010Prop39
140
1.0
102
RTVSPost2010PropOp39
 70
     1
102
RTVSPost2010Prop40
 90
        0
102
RTVSPost2010PropOp40
 70
     1
102
RTVSPost2010Prop41ColorIndex
 90
       18
102
RTVSPost2010Prop41ColorRGB
 90
        0
102
RTVSPost2010PropOp41
 70
     1
102
RTVSPost2010Prop42
 90
       50
102
RTVSPost2010PropOp42
 70
     1
102
RTVSPost2010Prop43
 90
        3
102
RTVSPost2010PropOp43
 70
     1
102
RTVSPost2010Prop44ColorIndex
 90
        5
102
RTVSPost2010Prop44ColorRGB
 90
      255
102
RTVSPost2010PropOp44
 70
     1
102
RTVSPost2010Prop45
280
     0
102
RTVSPost2010PropOp45
 70
     1
102
RTVSPost2010Prop46
 90
       50
102
RTVSPost2010PropOp46
 70
     1
102
RTVSPost2010Prop47
 90
       50
102
RTVSPost2010PropOp47
 70
     1
102
RTVSPost2010Prop48
 90
       50
102
RTVSPost2010PropOp48
 70
     1
102
RTVSPost2010Prop49
280
     0
102
RTVSPost2010PropOp49
 70
     1
102
RTVSPost2010Prop50
 90
       50
102
RTVSPost2010PropOp50
 70
     1
102
RTVSPost2010Prop51ColorIndex
 90
      256
102
RTVSPost2010Prop51ColorRGB
 90
-16777216
102
RTVSPost2010PropOp51
 70
     0
102
RTVSPost2010Prop52
140
1.0
102
RTVSPost2010PropOp52
 70
     0
102
RTVSPost2010Prop53
 90
        2
102
RTVSPost2010PropOp53
 70
     1
102
RTVSPost2010Prop54
  1
strokes_ogs.tif
102
RTVSPost2010PropOp54
 70
     1
102
RTVSPost2010Prop55
280
     0
102
RTVSPost2010PropOp55
 70
     1
102
RTVSPost2010Prop56
140
1.0
102
RTVSPost2010PropOp56
 70
     1
102
RTVSPost2010Prop57
140
1.0
102
RTVSPost2010PropOp57
 70
     1
  0
XRECORD
  5
2F0
102
{ACAD_REACTORS
330
2EF
102
}
330
2EF
100
AcDbXrecord
280
     1
102
RTVSPost2010Prop28
280
     0
102
RTVSPost2010PropOp28
 70
     1
102
RTVSPost2010Prop29
280
     1
102
RTVSPost2010PropOp29
 70
     1
102
RTVSPost2010Prop30
280
     1
102
RTVSPost2010PropOp30
 70
     1
102
RTVSPost2010Prop31
280
     0
102
RTVSPost2010PropOp31
 70
     1
102
RTVSPost2010Prop32
280
     0
102
RTVSPost2010PropOp32
 70
     1
102
RTVSPost2010Prop33
280
     0
102
RTVSPost2010PropOp33
 70
     1
102
RTVSPost2010Prop34
280
     0
102
RTVSPost2010PropOp34
 70
     1
102
RTVSPost2010Prop35
280
     0
102
RTVSPost2010PropOp35
 70
     1
102
RTVSPost2010Prop36
280
     0
102
RTVSPost2010PropOp36
 70
     1
102
RTVSPost2010Prop37
 90
       50
102
RTVSPost2010PropOp37
 70
     1
102
RTVSPost2010Prop38
140
0.0
102
RTVSPost2010PropOp38
 70
     1
102
RTVSPost2010Prop39
140
1.0
102
RTVSPost2010PropOp39
 70
     1
102
RTVSPost2010Prop40
 90
        0
102
RTVSPost2010PropOp40
 70
     1
102
RTVSPost2010Prop41ColorIndex
 90
       18
102
RTVSPost2010Prop41ColorRGB
 90
        0
102
RTVSPost2010PropOp41
 70
     1
102
RTVSPost2010Prop42
 90
       50
102
RTVSPost2010PropOp42
 70
     1
102
RTVSPost2010Prop43
 90
        3
102
RTVSPost2010PropOp43
 70
     1
102
RTVSPost2010Prop44ColorIndex
 90
        5
102
RTVSPost2010Prop44ColorRGB
 90
      255
102
RTVSPost2010PropOp44
 70
     1
102
RTVSPost2010Prop45
280
     0
102
RTVSPost2010PropOp45
 70
     1
102
RTVSPost2010Prop46
 90
       50
102
RTVSPost2010PropOp46
 70
     1
102
RTVSPost2010Prop47
 90
       50
102
RTVSPost2010PropOp47
 70
     1
102
RTVSPost2010Prop48
 90
       50
102
RTVSPost2010PropOp48
 70
     1
102
RTVSPost2010Prop49
280
     0
102
RTVSPost2010PropOp49
 70
     1
102
RTVSPost2010Prop50
 90
       50
102
RTVSPost2010PropOp50
 70
     1
102
RTVSPost2010Prop51ColorIndex
 90
      256
102
RTVSPost2010Prop51ColorRGB
 90
-16777216
102
RTVSPost2010PropOp51
 70
     0
102
RTVSPost2010Prop52
140
1.0
102
RTVSPost2010PropOp52
 70
     0
102
RTVSPost2010Prop53
 90
        2
102
RTVSPost2010PropOp53
 70
     1
102
RTVSPost2010Prop54
  1
strokes_ogs.tif
102
RTVSPost2010PropOp54
 70
     1
102
RTVSPost2010Prop55
280
     0
102
RTVSPost2010PropOp55
 70
     1
102
RTVSPost2010Prop56
140
1.0
102
RTVSPost2010PropOp56
 70
     1
102
RTVSPost2010Prop57
140
1.0
102
RTVSPost2010PropOp57
 70
     1
  0
XRECORD
  5
2F6
102
{ACAD_REACTORS
330
2F5
102
}
330
2F5
100
AcDbXrecord
280
     1
102
RTVSPost2010Prop28
280
     0
102
RTVSPost2010PropOp28
 70
     1
102
RTVSPost2010Prop29
280
     1
102
RTVSPost2010PropOp29
 70
     1
102
RTVSPost2010Prop30
280
     1
102
RTVSPost2010PropOp30
 70
     1
102
RTVSPost2010Prop31
280
     0
102
RTVSPost2010PropOp31
 70
     1
102
RTVSPost2010Prop32
280
     0
102
RTVSPost2010PropOp32
 70
     1
102
RTVSPost2010Prop33
280
     0
102
RTVSPost2010PropOp33
 70
     1
102
RTVSPost2010Prop34
280
     0
102
RTVSPost2010PropOp34
 70
     1
102
RTVSPost2010Prop35
280
     0
102
RTVSPost2010PropOp35
 70
     1
102
RTVSPost2010Prop36
280
     0
102
RTVSPost2010PropOp36
 70
     1
102
RTVSPost2010Prop37
 90
       50
102
RTVSPost2010PropOp37
 70
     1
102
RTVSPost2010Prop38
140
0.0
102
RTVSPost2010PropOp38
 70
     1
102
RTVSPost2010Prop39
140
1.0
102
RTVSPost2010PropOp39
 70
     1
102
RTVSPost2010Prop40
 90
        0
102
RTVSPost2010PropOp40
 70
     1
102
RTVSPost2010Prop41ColorIndex
 90
       18
102
RTVSPost2010Prop41ColorRGB
 90
        0
102
RTVSPost2010PropOp41
 70
     1
102
RTVSPost2010Prop42
 90
       50
102
RTVSPost2010PropOp42
 70
     1
102
RTVSPost2010Prop43
 90
        3
102
RTVSPost2010PropOp43
 70
     1
102
RTVSPost2010Prop44ColorIndex
 90
        5
102
RTVSPost2010Prop44ColorRGB
 90
      255
102
RTVSPost2010PropOp44
 70
     1
102
RTVSPost2010Prop45
280
     0
102
RTVSPost2010PropOp45
 70
     1
102
RTVSPost2010Prop46
 90
       50
102
RTVSPost2010PropOp46
 70
     1
102
RTVSPost2010Prop47
 90
       50
102
RTVSPost2010PropOp47
 70
     1
102
RTVSPost2010Prop48
 90
       50
102
RTVSPost2010PropOp48
 70
     1
102
RTVSPost2010Prop49
280
     0
102
RTVSPost2010PropOp49
 70
     1
102
RTVSPost2010Prop50
 90
       50
102
RTVSPost2010PropOp50
 70
     1
102
RTVSPost2010Prop51ColorIndex
 90
      256
102
RTVSPost2010Prop51ColorRGB
 90
-16777216
102
RTVSPost2010PropOp51
 70
     0
102
RTVSPost2010Prop52
140
1.0
102
RTVSPost2010PropOp52
 70
     0
102
RTVSPost2010Prop53
 90
        2
102
RTVSPost2010PropOp53
 70
     1
102
RTVSPost2010Prop54
  1
strokes_ogs.tif
102
RTVSPost2010PropOp54
 70
     1
102
RTVSPost2010Prop55
280
     0
102
RTVSPost2010PropOp55
 70
     1
102
RTVSPost2010Prop56
140
1.0
102
RTVSPost2010PropOp56
 70
     1
102
RTVSPost2010Prop57
140
1.0
102
RTVSPost2010PropOp57
 70
     1
  0
XRECORD
  5
30A
102
{ACAD_REACTORS
330
309
102
}
330
309
100
AcDbXrecord
280
     1
102
RTVSPost2010Prop28
280
     0
102
RTVSPost2010PropOp28
 70
     0
102
RTVSPost2010Prop29
280
     1
102
RTVSPost2010PropOp29
 70
     0
102
RTVSPost2010Prop30
280
     1
102
RTVSPost2010PropOp30
 70
     0
102
RTVSPost2010Prop31
280
     0
102
RTVSPost2010PropOp31
 70
     0
102
RTVSPost2010Prop32
280
     0
102
RTVSPost2010PropOp32
 70
     0
102
RTVSPost2010Prop33
280
     0
102
RTVSPost2010PropOp33
 70
     0
102
RTVSPost2010Prop34
280
     0
102
RTVSPost2010PropOp34
 70
     0
102
RTVSPost2010Prop35
280
     0
102
RTVSPost2010PropOp35
 70
     0
102
RTVSPost2010Prop36
280
     0
102
RTVSPost2010PropOp36
 70
     0
102
RTVSPost2010Prop37
 90
       50
102
RTVSPost2010PropOp37
 70
     0
102
RTVSPost2010Prop38
140
0.0
102
RTVSPost2010PropOp38
 70
     0
102
RTVSPost2010Prop39
140
1.0
102
RTVSPost2010PropOp39
 70
     0
102
RTVSPost2010Prop40
 90
        0
102
RTVSPost2010PropOp40
 70
     0
102
RTVSPost2010Prop41ColorIndex
 90
       18
102
RTVSPost2010Prop41ColorRGB
 90
        0
102
RTVSPost2010PropOp41
 70
     0
102
RTVSPost2010Prop42
 90
       50
102
RTVSPost2010PropOp42
 70
     0
102
RTVSPost2010Prop43
 90
        3
102
RTVSPost2010PropOp43
 70
     0
102
RTVSPost2010Prop44ColorIndex
 90
        5
102
RTVSPost2010Prop44ColorRGB
 90
      255
102
RTVSPost2010PropOp44
 70
     0
102
RTVSPost2010Prop45
280
     0
102
RTVSPost2010PropOp45
 70
     0
102
RTVSPost2010Prop46
 90
       50
102
RTVSPost2010PropOp46
 70
     0
102
RTVSPost2010Prop47
 90
       50
102
RTVSPost2010PropOp47
 70
     0
102
RTVSPost2010Prop48
 90
       50
102
RTVSPost2010PropOp48
 70
     0
102
RTVSPost2010Prop49
280
     0
102
RTVSPost2010PropOp49
 70
     0
102
RTVSPost2010Prop50
 90
       50
102
RTVSPost2010PropOp50
 70
     0
102
RTVSPost2010Prop51ColorIndex
 90
      256
102
RTVSPost2010Prop51ColorRGB
 90
-16777216
102
RTVSPost2010PropOp51
 70
     0
102
RTVSPost2010Prop52
140
1.0
102
RTVSPost2010PropOp52
 70
     0
102
RTVSPost2010Prop53
 90
        2
102
RTVSPost2010PropOp53
 70
     0
102
RTVSPost2010Prop54
  1
strokes_ogs.tif
102
RTVSPost2010PropOp54
 70
     0
102
RTVSPost2010Prop55
280
     0
102
RTVSPost2010PropOp55
 70
     0
102
RTVSPost2010Prop56
140
1.0
102
RTVSPost2010PropOp56
 70
     0
102
RTVSPost2010Prop57
140
1.0
102
RTVSPost2010PropOp57
 70
     0
  0
XRECORD
  5
304
102
{ACAD_REACTORS
330
303
102
}
330
303
100
AcDbXrecord
280
     1
102
RTVSPost2010Prop28
280
     0
102
RTVSPost2010PropOp28
 70
     1
102
RTVSPost2010Prop29
280
     1
102
RTVSPost2010PropOp29
 70
     1
102
RTVSPost2010Prop30
280
     1
102
RTVSPost2010PropOp30
 70
     1
102
RTVSPost2010Prop31
280
     0
102
RTVSPost2010PropOp31
 70
     1
102
RTVSPost2010Prop32
280
     0
102
RTVSPost2010PropOp32
 70
     1
102
RTVSPost2010Prop33
280
     0
102
RTVSPost2010PropOp33
 70
     1
102
RTVSPost2010Prop34
280
     0
102
RTVSPost2010PropOp34
 70
     1
102
RTVSPost2010Prop35
280
     0
102
RTVSPost2010PropOp35
 70
     1
102
RTVSPost2010Prop36
280
     0
102
RTVSPost2010PropOp36
 70
     1
102
RTVSPost2010Prop37
 90
       50
102
RTVSPost2010PropOp37
 70
     1
102
RTVSPost2010Prop38
140
0.0
102
RTVSPost2010PropOp38
 70
     1
102
RTVSPost2010Prop39
140
1.0
102
RTVSPost2010PropOp39
 70
     1
102
RTVSPost2010Prop40
 90
        0
102
RTVSPost2010PropOp40
 70
     1
102
RTVSPost2010Prop41ColorIndex
 90
       18
102
RTVSPost2010Prop41ColorRGB
 90
        0
102
RTVSPost2010PropOp41
 70
     1
102
RTVSPost2010Prop42
 90
       50
102
RTVSPost2010PropOp42
 70
     1
102
RTVSPost2010Prop43
 90
        3
102
RTVSPost2010PropOp43
 70
     1
102
RTVSPost2010Prop44ColorIndex
 90
        5
102
RTVSPost2010Prop44ColorRGB
 90
      255
102
RTVSPost2010PropOp44
 70
     1
102
RTVSPost2010Prop45
280
     0
102
RTVSPost2010PropOp45
 70
     1
102
RTVSPost2010Prop46
 90
       50
102
RTVSPost2010PropOp46
 70
     1
102
RTVSPost2010Prop47
 90
       50
102
RTVSPost2010PropOp47
 70
     1
102
RTVSPost2010Prop48
 90
       50
102
RTVSPost2010PropOp48
 70
     1
102
RTVSPost2010Prop49
280
     0
102
RTVSPost2010PropOp49
 70
     1
102
RTVSPost2010Prop50
 90
       50
102
RTVSPost2010PropOp50
 70
     1
102
RTVSPost2010Prop51ColorIndex
 90
      256
102
RTVSPost2010Prop51ColorRGB
 90
-16777216
102
RTVSPost2010PropOp51
 70
     0
102
RTVSPost2010Prop52
140
1.0
102
RTVSPost2010PropOp52
 70
     0
102
RTVSPost2010Prop53
 90
        2
102
RTVSPost2010PropOp53
 70
     1
102
RTVSPost2010Prop54
  1
strokes_ogs.tif
102
RTVSPost2010PropOp54
 70
     1
102
RTVSPost2010Prop55
280
     0
102
RTVSPost2010PropOp55
 70
     1
102
RTVSPost2010Prop56
140
1.0
102
RTVSPost2010PropOp56
 70
     1
102
RTVSPost2010Prop57
140
1.0
102
RTVSPost2010PropOp57
 70
     1
  0
XRECORD
  5
30C
102
{ACAD_REACTORS
330
30B
102
}
330
30B
100
AcDbXrecord
280
     1
102
RTVSPost2010Prop28
280
     0
102
RTVSPost2010PropOp28
 70
     0
102
RTVSPost2010Prop29
280
     1
102
RTVSPost2010PropOp29
 70
     0
102
RTVSPost2010Prop30
280
     1
102
RTVSPost2010PropOp30
 70
     0
102
RTVSPost2010Prop31
280
     0
102
RTVSPost2010PropOp31
 70
     0
102
RTVSPost2010Prop32
280
     0
102
RTVSPost2010PropOp32
 70
     0
102
RTVSPost2010Prop33
280
     0
102
RTVSPost2010PropOp33
 70
     0
102
RTVSPost2010Prop34
280
     0
102
RTVSPost2010PropOp34
 70
     0
102
RTVSPost2010Prop35
280
     0
102
RTVSPost2010PropOp35
 70
     0
102
RTVSPost2010Prop36
280
     0
102
RTVSPost2010PropOp36
 70
     0
102
RTVSPost2010Prop37
 90
       50
102
RTVSPost2010PropOp37
 70
     0
102
RTVSPost2010Prop38
140
0.0
102
RTVSPost2010PropOp38
 70
     0
102
RTVSPost2010Prop39
140
1.0
102
RTVSPost2010PropOp39
 70
     0
102
RTVSPost2010Prop40
 90
        0
102
RTVSPost2010PropOp40
 70
     0
102
RTVSPost2010Prop41ColorIndex
 90
       18
102
RTVSPost2010Prop41ColorRGB
 90
        0
102
RTVSPost2010PropOp41
 70
     0
102
RTVSPost2010Prop42
 90
       50
102
RTVSPost2010PropOp42
 70
     0
102
RTVSPost2010Prop43
 90
        3
102
RTVSPost2010PropOp43
 70
     0
102
RTVSPost2010Prop44ColorIndex
 90
        5
102
RTVSPost2010Prop44ColorRGB
 90
      255
102
RTVSPost2010PropOp44
 70
     0
102
RTVSPost2010Prop45
280
     0
102
RTVSPost2010PropOp45
 70
     0
102
RTVSPost2010Prop46
 90
       50
102
RTVSPost2010PropOp46
 70
     0
102
RTVSPost2010Prop47
 90
       50
102
RTVSPost2010PropOp47
 70
     0
102
RTVSPost2010Prop48
 90
       50
102
RTVSPost2010PropOp48
 70
     0
102
RTVSPost2010Prop49
280
     0
102
RTVSPost2010PropOp49
 70
     0
102
RTVSPost2010Prop50
 90
       50
102
RTVSPost2010PropOp50
 70
     0
102
RTVSPost2010Prop51ColorIndex
 90
      256
102
RTVSPost2010Prop51ColorRGB
 90
-16777216
102
RTVSPost2010PropOp51
 70
     0
102
RTVSPost2010Prop52
140
1.0
102
RTVSPost2010PropOp52
 70
     0
102
RTVSPost2010Prop53
 90
        2
102
RTVSPost2010PropOp53
 70
     0
102
RTVSPost2010Prop54
  1
strokes_ogs.tif
102
RTVSPost2010PropOp54
 70
     0
102
RTVSPost2010Prop55
280
     0
102
RTVSPost2010PropOp55
 70
     0
102
RTVSPost2010Prop56
140
1.0
102
RTVSPost2010PropOp56
 70
     0
102
RTVSPost2010Prop57
140
1.0
102
RTVSPost2010PropOp57
 70
     0
  0
XRECORD
  5
2FA
102
{ACAD_REACTORS
330
2F9
102
}
330
2F9
100
AcDbXrecord
280
     1
102
RTVSPost2010Prop28
280
     0
102
RTVSPost2010PropOp28
 70
     1
102
RTVSPost2010Prop29
280
     1
102
RTVSPost2010PropOp29
 70
     1
102
RTVSPost2010Prop30
280
     1
102
RTVSPost2010PropOp30
 70
     1
102
RTVSPost2010Prop31
280
     0
102
RTVSPost2010PropOp31
 70
     1
102
RTVSPost2010Prop32
280
     0
102
RTVSPost2010PropOp32
 70
     1
102
RTVSPost2010Prop33
280
     0
102
RTVSPost2010PropOp33
 70
     1
102
RTVSPost2010Prop34
280
     0
102
RTVSPost2010PropOp34
 70
     1
102
RTVSPost2010Prop35
280
     0
102
RTVSPost2010PropOp35
 70
     1
102
RTVSPost2010Prop36
280
     0
102
RTVSPost2010PropOp36
 70
     1
102
RTVSPost2010Prop37
 90
       50
102
RTVSPost2010PropOp37
 70
     1
102
RTVSPost2010Prop38
140
0.0
102
RTVSPost2010PropOp38
 70
     1
102
RTVSPost2010Prop39
140
1.0
102
RTVSPost2010PropOp39
 70
     1
102
RTVSPost2010Prop40
 90
        0
102
RTVSPost2010PropOp40
 70
     1
102
RTVSPost2010Prop41ColorIndex
 90
       18
102
RTVSPost2010Prop41ColorRGB
 90
        0
102
RTVSPost2010PropOp41
 70
     1
102
RTVSPost2010Prop42
 90
       50
102
RTVSPost2010PropOp42
 70
     1
102
RTVSPost2010Prop43
 90
        3
102
RTVSPost2010PropOp43
 70
     1
102
RTVSPost2010Prop44ColorIndex
 90
        5
102
RTVSPost2010Prop44ColorRGB
 90
      255
102
RTVSPost2010PropOp44
 70
     1
102
RTVSPost2010Prop45
280
     0
102
RTVSPost2010PropOp45
 70
     1
102
RTVSPost2010Prop46
 90
       50
102
RTVSPost2010PropOp46
 70
     1
102
RTVSPost2010Prop47
 90
       50
102
RTVSPost2010PropOp47
 70
     1
102
RTVSPost2010Prop48
 90
       50
102
RTVSPost2010PropOp48
 70
     1
102
RTVSPost2010Prop49
280
     0
102
RTVSPost2010PropOp49
 70
     1
102
RTVSPost2010Prop50
 90
       50
102
RTVSPost2010PropOp50
 70
     1
102
RTVSPost2010Prop51ColorIndex
 90
      256
102
RTVSPost2010Prop51ColorRGB
 90
-16777216
102
RTVSPost2010PropOp51
 70
     0
102
RTVSPost2010Prop52
140
1.0
102
RTVSPost2010PropOp52
 70
     0
102
RTVSPost2010Prop53
 90
        2
102
RTVSPost2010PropOp53
 70
     1
102
RTVSPost2010Prop54
  1
strokes_ogs.tif
102
RTVSPost2010PropOp54
 70
     1
102
RTVSPost2010Prop55
280
     0
102
RTVSPost2010PropOp55
 70
     1
102
RTVSPost2010Prop56
140
1.0
102
RTVSPost2010PropOp56
 70
     1
102
RTVSPost2010Prop57
140
1.0
102
RTVSPost2010PropOp57
 70
     1
  0
XRECORD
  5
318
102
{ACAD_REACTORS
330
317
102
}
330
317
100
AcDbXrecord
280
     1
102
RTVSPost2010Prop28
280
     0
102
RTVSPost2010PropOp28
 70
     1
102
RTVSPost2010Prop29
280
     1
102
RTVSPost2010PropOp29
 70
     1
102
RTVSPost2010Prop30
280
     1
102
RTVSPost2010PropOp30
 70
     1
102
RTVSPost2010Prop31
280
     0
102
RTVSPost2010PropOp31
 70
     1
102
RTVSPost2010Prop32
280
     0
102
RTVSPost2010PropOp32
 70
     1
102
RTVSPost2010Prop33
280
     0
102
RTVSPost2010PropOp33
 70
     1
102
RTVSPost2010Prop34
280
     0
102
RTVSPost2010PropOp34
 70
     1
102
RTVSPost2010Prop35
280
     0
102
RTVSPost2010PropOp35
 70
     1
102
RTVSPost2010Prop36
280
     0
102
RTVSPost2010PropOp36
 70
     1
102
RTVSPost2010Prop37
 90
       50
102
RTVSPost2010PropOp37
 70
     1
102
RTVSPost2010Prop38
140
0.0
102
RTVSPost2010PropOp38
 70
     1
102
RTVSPost2010Prop39
140
1.0
102
RTVSPost2010PropOp39
 70
     1
102
RTVSPost2010Prop40
 90
        0
102
RTVSPost2010PropOp40
 70
     1
102
RTVSPost2010Prop41ColorIndex
 90
       18
102
RTVSPost2010Prop41ColorRGB
 90
        0
102
RTVSPost2010PropOp41
 70
     1
102
RTVSPost2010Prop42
 90
       50
102
RTVSPost2010PropOp42
 70
     1
102
RTVSPost2010Prop43
 90
        3
102
RTVSPost2010PropOp43
 70
     1
102
RTVSPost2010Prop44ColorIndex
 90
        5
102
RTVSPost2010Prop44ColorRGB
 90
      255
102
RTVSPost2010PropOp44
 70
     1
102
RTVSPost2010Prop45
280
     0
102
RTVSPost2010PropOp45
 70
     1
102
RTVSPost2010Prop46
 90
       50
102
RTVSPost2010PropOp46
 70
     1
102
RTVSPost2010Prop47
 90
       50
102
RTVSPost2010PropOp47
 70
     1
102
RTVSPost2010Prop48
 90
       50
102
RTVSPost2010PropOp48
 70
     1
102
RTVSPost2010Prop49
280
     0
102
RTVSPost2010PropOp49
 70
     1
102
RTVSPost2010Prop50
 90
       50
102
RTVSPost2010PropOp50
 70
     1
102
RTVSPost2010Prop51ColorIndex
 90
      256
102
RTVSPost2010Prop51ColorRGB
 90
-16777216
102
RTVSPost2010PropOp51
 70
     0
102
RTVSPost2010Prop52
140
1.0
102
RTVSPost2010PropOp52
 70
     0
102
RTVSPost2010Prop53
 90
        2
102
RTVSPost2010PropOp53
 70
     1
102
RTVSPost2010Prop54
  1
strokes_ogs.tif
102
RTVSPost2010PropOp54
 70
     1
102
RTVSPost2010Prop55
280
     0
102
RTVSPost2010PropOp55
 70
     1
102
RTVSPost2010Prop56
140
1.0
102
RTVSPost2010PropOp56
 70
     1
102
RTVSPost2010Prop57
140
1.0
102
RTVSPost2010PropOp57
 70
     1
  0
XRECORD
  5
316
102
{ACAD_REACTORS
330
315
102
}
330
315
100
AcDbXrecord
280
     1
102
RTVSPost2010Prop28
280
     0
102
RTVSPost2010PropOp28
 70
     1
102
RTVSPost2010Prop29
280
     1
102
RTVSPost2010PropOp29
 70
     1
102
RTVSPost2010Prop30
280
     1
102
RTVSPost2010PropOp30
 70
     1
102
RTVSPost2010Prop31
280
     0
102
RTVSPost2010PropOp31
 70
     1
102
RTVSPost2010Prop32
280
     0
102
RTVSPost2010PropOp32
 70
     1
102
RTVSPost2010Prop33
280
     0
102
RTVSPost2010PropOp33
 70
     1
102
RTVSPost2010Prop34
280
     0
102
RTVSPost2010PropOp34
 70
     1
102
RTVSPost2010Prop35
280
     0
102
RTVSPost2010PropOp35
 70
     1
102
RTVSPost2010Prop36
280
     0
102
RTVSPost2010PropOp36
 70
     1
102
RTVSPost2010Prop37
 90
       50
102
RTVSPost2010PropOp37
 70
     1
102
RTVSPost2010Prop38
140
0.0
102
RTVSPost2010PropOp38
 70
     1
102
RTVSPost2010Prop39
140
1.0
102
RTVSPost2010PropOp39
 70
     1
102
RTVSPost2010Prop40
 90
        0
102
RTVSPost2010PropOp40
 70
     1
102
RTVSPost2010Prop41ColorIndex
 90
       18
102
RTVSPost2010Prop41ColorRGB
 90
        0
102
RTVSPost2010PropOp41
 70
     1
102
RTVSPost2010Prop42
 90
       50
102
RTVSPost2010PropOp42
 70
     1
102
RTVSPost2010Prop43
 90
        3
102
RTVSPost2010PropOp43
 70
     1
102
RTVSPost2010Prop44ColorIndex
 90
        5
102
RTVSPost2010Prop44ColorRGB
 90
      255
102
RTVSPost2010PropOp44
 70
     1
102
RTVSPost2010Prop45
280
     0
102
RTVSPost2010PropOp45
 70
     1
102
RTVSPost2010Prop46
 90
       50
102
RTVSPost2010PropOp46
 70
     1
102
RTVSPost2010Prop47
 90
       50
102
RTVSPost2010PropOp47
 70
     1
102
RTVSPost2010Prop48
 90
       50
102
RTVSPost2010PropOp48
 70
     1
102
RTVSPost2010Prop49
280
     0
102
RTVSPost2010PropOp49
 70
     1
102
RTVSPost2010Prop50
 90
       50
102
RTVSPost2010PropOp50
 70
     1
102
RTVSPost2010Prop51ColorIndex
 90
      256
102
RTVSPost2010Prop51ColorRGB
 90
-16777216
102
RTVSPost2010PropOp51
 70
     0
102
RTVSPost2010Prop52
140
1.0
102
RTVSPost2010PropOp52
 70
     0
102
RTVSPost2010Prop53
 90
        2
102
RTVSPost2010PropOp53
 70
     1
102
RTVSPost2010Prop54
  1
strokes_ogs.tif
102
RTVSPost2010PropOp54
 70
     1
102
RTVSPost2010Prop55
280
     0
102
RTVSPost2010PropOp55
 70
     1
102
RTVSPost2010Prop56
140
1.0
102
RTVSPost2010PropOp56
 70
     1
102
RTVSPost2010Prop57
140
1.0
102
RTVSPost2010PropOp57
 70
     1
  0
XRECORD
  5
310
102
{ACAD_REACTORS
330
30F
102
}
330
30F
100
AcDbXrecord
280
     1
102
RTVSPost2010Prop28
280
     0
102
RTVSPost2010PropOp28
 70
     1
102
RTVSPost2010Prop29
280
     1
102
RTVSPost2010PropOp29
 70
     1
102
RTVSPost2010Prop30
280
     1
102
RTVSPost2010PropOp30
 70
     1
102
RTVSPost2010Prop31
280
     0
102
RTVSPost2010PropOp31
 70
     1
102
RTVSPost2010Prop32
280
     0
102
RTVSPost2010PropOp32
 70
     1
102
RTVSPost2010Prop33
280
     0
102
RTVSPost2010PropOp33
 70
     1
102
RTVSPost2010Prop34
280
     0
102
RTVSPost2010PropOp34
 70
     1
102
RTVSPost2010Prop35
280
     0
102
RTVSPost2010PropOp35
 70
     1
102
RTVSPost2010Prop36
280
     0
102
RTVSPost2010PropOp36
 70
     1
102
RTVSPost2010Prop37
 90
       50
102
RTVSPost2010PropOp37
 70
     1
102
RTVSPost2010Prop38
140
0.0
102
RTVSPost2010PropOp38
 70
     1
102
RTVSPost2010Prop39
140
1.0
102
RTVSPost2010PropOp39
 70
     1
102
RTVSPost2010Prop40
 90
        0
102
RTVSPost2010PropOp40
 70
     1
102
RTVSPost2010Prop41ColorIndex
 90
       18
102
RTVSPost2010Prop41ColorRGB
 90
        0
102
RTVSPost2010PropOp41
 70
     1
102
RTVSPost2010Prop42
 90
       50
102
RTVSPost2010PropOp42
 70
     1
102
RTVSPost2010Prop43
 90
        3
102
RTVSPost2010PropOp43
 70
     1
102
RTVSPost2010Prop44ColorIndex
 90
        5
102
RTVSPost2010Prop44ColorRGB
 90
      255
102
RTVSPost2010PropOp44
 70
     1
102
RTVSPost2010Prop45
280
     0
102
RTVSPost2010PropOp45
 70
     1
102
RTVSPost2010Prop46
 90
       50
102
RTVSPost2010PropOp46
 70
     1
102
RTVSPost2010Prop47
 90
       50
102
RTVSPost2010PropOp47
 70
     1
102
RTVSPost2010Prop48
 90
       50
102
RTVSPost2010PropOp48
 70
     1
102
RTVSPost2010Prop49
280
     0
102
RTVSPost2010PropOp49
 70
     1
102
RTVSPost2010Prop50
 90
       50
102
RTVSPost2010PropOp50
 70
     1
102
RTVSPost2010Prop51ColorIndex
 90
      256
102
RTVSPost2010Prop51ColorRGB
 90
-16777216
102
RTVSPost2010PropOp51
 70
     0
102
RTVSPost2010Prop52
140
1.0
102
RTVSPost2010PropOp52
 70
     0
102
RTVSPost2010Prop53
 90
        2
102
RTVSPost2010PropOp53
 70
     1
102
RTVSPost2010Prop54
  1
strokes_ogs.tif
102
RTVSPost2010PropOp54
 70
     1
102
RTVSPost2010Prop55
280
     0
102
RTVSPost2010PropOp55
 70
     1
102
RTVSPost2010Prop56
140
1.0
102
RTVSPost2010PropOp56
 70
     1
102
RTVSPost2010Prop57
140
1.0
102
RTVSPost2010PropOp57
 70
     1
  0
XRECORD
  5
312
102
{ACAD_REACTORS
330
311
102
}
330
311
100
AcDbXrecord
280
     1
102
RTVSPost2010Prop28
280
     0
102
RTVSPost2010PropOp28
 70
     1
102
RTVSPost2010Prop29
280
     1
102
RTVSPost2010PropOp29
 70
     1
102
RTVSPost2010Prop30
280
     1
102
RTVSPost2010PropOp30
 70
     1
102
RTVSPost2010Prop31
280
     0
102
RTVSPost2010PropOp31
 70
     1
102
RTVSPost2010Prop32
280
     0
102
RTVSPost2010PropOp32
 70
     1
102
RTVSPost2010Prop33
280
     0
102
RTVSPost2010PropOp33
 70
     1
102
RTVSPost2010Prop34
280
     0
102
RTVSPost2010PropOp34
 70
     1
102
RTVSPost2010Prop35
280
     0
102
RTVSPost2010PropOp35
 70
     1
102
RTVSPost2010Prop36
280
     0
102
RTVSPost2010PropOp36
 70
     1
102
RTVSPost2010Prop37
 90
       50
102
RTVSPost2010PropOp37
 70
     1
102
RTVSPost2010Prop38
140
0.0
102
RTVSPost2010PropOp38
 70
     1
102
RTVSPost2010Prop39
140
1.0
102
RTVSPost2010PropOp39
 70
     1
102
RTVSPost2010Prop40
 90
        0
102
RTVSPost2010PropOp40
 70
     1
102
RTVSPost2010Prop41ColorIndex
 90
       18
102
RTVSPost2010Prop41ColorRGB
 90
        0
102
RTVSPost2010PropOp41
 70
     1
102
RTVSPost2010Prop42
 90
       50
102
RTVSPost2010PropOp42
 70
     1
102
RTVSPost2010Prop43
 90
        3
102
RTVSPost2010PropOp43
 70
     1
102
RTVSPost2010Prop44ColorIndex
 90
        5
102
RTVSPost2010Prop44ColorRGB
 90
      255
102
RTVSPost2010PropOp44
 70
     1
102
RTVSPost2010Prop45
280
     0
102
RTVSPost2010PropOp45
 70
     1
102
RTVSPost2010Prop46
 90
       50
102
RTVSPost2010PropOp46
 70
     1
102
RTVSPost2010Prop47
 90
       50
102
RTVSPost2010PropOp47
 70
     1
102
RTVSPost2010Prop48
 90
       50
102
RTVSPost2010PropOp48
 70
     1
102
RTVSPost2010Prop49
280
     0
102
RTVSPost2010PropOp49
 70
     1
102
RTVSPost2010Prop50
 90
       50
102
RTVSPost2010PropOp50
 70
     1
102
RTVSPost2010Prop51ColorIndex
 90
      256
102
RTVSPost2010Prop51ColorRGB
 90
-16777216
102
RTVSPost2010PropOp51
 70
     0
102
RTVSPost2010Prop52
140
1.0
102
RTVSPost2010PropOp52
 70
     0
102
RTVSPost2010Prop53
 90
        2
102
RTVSPost2010PropOp53
 70
     1
102
RTVSPost2010Prop54
  1
strokes_ogs.tif
102
RTVSPost2010PropOp54
 70
     1
102
RTVSPost2010Prop55
280
     0
102
RTVSPost2010PropOp55
 70
     1
102
RTVSPost2010Prop56
140
1.0
102
RTVSPost2010PropOp56
 70
     1
102
RTVSPost2010Prop57
140
1.0
102
RTVSPost2010PropOp57
 70
     1
  0
XRECORD
  5
302
102
{ACAD_REACTORS
330
301
102
}
330
301
100
AcDbXrecord
280
     1
102
RTVSPost2010Prop28
280
     0
102
RTVSPost2010PropOp28
 70
     1
102
RTVSPost2010Prop29
280
     1
102
RTVSPost2010PropOp29
 70
     1
102
RTVSPost2010Prop30
280
     1
102
RTVSPost2010PropOp30
 70
     1
102
RTVSPost2010Prop31
280
     0
102
RTVSPost2010PropOp31
 70
     1
102
RTVSPost2010Prop32
280
     0
102
RTVSPost2010PropOp32
 70
     1
102
RTVSPost2010Prop33
280
     0
102
RTVSPost2010PropOp33
 70
     1
102
RTVSPost2010Prop34
280
     0
102
RTVSPost2010PropOp34
 70
     1
102
RTVSPost2010Prop35
280
     0
102
RTVSPost2010PropOp35
 70
     1
102
RTVSPost2010Prop36
280
     0
102
RTVSPost2010PropOp36
 70
     1
102
RTVSPost2010Prop37
 90
       50
102
RTVSPost2010PropOp37
 70
     1
102
RTVSPost2010Prop38
140
0.0
102
RTVSPost2010PropOp38
 70
     1
102
RTVSPost2010Prop39
140
1.0
102
RTVSPost2010PropOp39
 70
     1
102
RTVSPost2010Prop40
 90
        0
102
RTVSPost2010PropOp40
 70
     1
102
RTVSPost2010Prop41ColorIndex
 90
       18
102
RTVSPost2010Prop41ColorRGB
 90
        0
102
RTVSPost2010PropOp41
 70
     1
102
RTVSPost2010Prop42
 90
       50
102
RTVSPost2010PropOp42
 70
     1
102
RTVSPost2010Prop43
 90
        3
102
RTVSPost2010PropOp43
 70
     1
102
RTVSPost2010Prop44ColorIndex
 90
        5
102
RTVSPost2010Prop44ColorRGB
 90
      255
102
RTVSPost2010PropOp44
 70
     1
102
RTVSPost2010Prop45
280
     0
102
RTVSPost2010PropOp45
 70
     1
102
RTVSPost2010Prop46
 90
       50
102
RTVSPost2010PropOp46
 70
     1
102
RTVSPost2010Prop47
 90
       50
102
RTVSPost2010PropOp47
 70
     1
102
RTVSPost2010Prop48
 90
       50
102
RTVSPost2010PropOp48
 70
     1
102
RTVSPost2010Prop49
280
     0
102
RTVSPost2010PropOp49
 70
     1
102
RTVSPost2010Prop50
 90
       50
102
RTVSPost2010PropOp50
 70
     1
102
RTVSPost2010Prop51ColorIndex
 90
      256
102
RTVSPost2010Prop51ColorRGB
 90
-16777216
102
RTVSPost2010PropOp51
 70
     0
102
RTVSPost2010Prop52
140
1.0
102
RTVSPost2010PropOp52
 70
     0
102
RTVSPost2010Prop53
 90
        2
102
RTVSPost2010PropOp53
 70
     1
102
RTVSPost2010Prop54
  1
strokes_ogs.tif
102
RTVSPost2010PropOp54
 70
     1
102
RTVSPost2010Prop55
280
     0
102
RTVSPost2010PropOp55
 70
     1
102
RTVSPost2010Prop56
140
1.0
102
RTVSPost2010PropOp56
 70
     1
102
RTVSPost2010Prop57
140
1.0
102
RTVSPost2010PropOp57
 70
     1
  0
XRECORD
  5
2F4
102
{ACAD_REACTORS
330
2F3
102
}
330
2F3
100
AcDbXrecord
280
     1
102
RTVSPost2010Prop28
280
     0
102
RTVSPost2010PropOp28
 70
     1
102
RTVSPost2010Prop29
280
     1
102
RTVSPost2010PropOp29
 70
     1
102
RTVSPost2010Prop30
280
     1
102
RTVSPost2010PropOp30
 70
     1
102
RTVSPost2010Prop31
280
     0
102
RTVSPost2010PropOp31
 70
     1
102
RTVSPost2010Prop32
280
     0
102
RTVSPost2010PropOp32
 70
     1
102
RTVSPost2010Prop33
280
     0
102
RTVSPost2010PropOp33
 70
     1
102
RTVSPost2010Prop34
280
     0
102
RTVSPost2010PropOp34
 70
     1
102
RTVSPost2010Prop35
280
     0
102
RTVSPost2010PropOp35
 70
     1
102
RTVSPost2010Prop36
280
     0
102
RTVSPost2010PropOp36
 70
     1
102
RTVSPost2010Prop37
 90
       50
102
RTVSPost2010PropOp37
 70
     1
102
RTVSPost2010Prop38
140
0.0
102
RTVSPost2010PropOp38
 70
     1
102
RTVSPost2010Prop39
140
1.0
102
RTVSPost2010PropOp39
 70
     1
102
RTVSPost2010Prop40
 90
        0
102
RTVSPost2010PropOp40
 70
     1
102
RTVSPost2010Prop41ColorIndex
 90
       18
102
RTVSPost2010Prop41ColorRGB
 90
        0
102
RTVSPost2010PropOp41
 70
     1
102
RTVSPost2010Prop42
 90
       50
102
RTVSPost2010PropOp42
 70
     1
102
RTVSPost2010Prop43
 90
        3
102
RTVSPost2010PropOp43
 70
     1
102
RTVSPost2010Prop44ColorIndex
 90
        5
102
RTVSPost2010Prop44ColorRGB
 90
      255
102
RTVSPost2010PropOp44
 70
     1
102
RTVSPost2010Prop45
280
     0
102
RTVSPost2010PropOp45
 70
     1
102
RTVSPost2010Prop46
 90
       50
102
RTVSPost2010PropOp46
 70
     1
102
RTVSPost2010Prop47
 90
       50
102
RTVSPost2010PropOp47
 70
     1
102
RTVSPost2010Prop48
 90
       50
102
RTVSPost2010PropOp48
 70
     1
102
RTVSPost2010Prop49
280
     0
102
RTVSPost2010PropOp49
 70
     1
102
RTVSPost2010Prop50
 90
       50
102
RTVSPost2010PropOp50
 70
     1
102
RTVSPost2010Prop51ColorIndex
 90
      256
102
RTVSPost2010Prop51ColorRGB
 90
-16777216
102
RTVSPost2010PropOp51
 70
     0
102
RTVSPost2010Prop52
140
1.0
102
RTVSPost2010PropOp52
 70
     0
102
RTVSPost2010Prop53
 90
        2
102
RTVSPost2010PropOp53
 70
     1
102
RTVSPost2010Prop54
  1
strokes_ogs.tif
102
RTVSPost2010PropOp54
 70
     1
102
RTVSPost2010Prop55
280
     0
102
RTVSPost2010PropOp55
 70
     1
102
RTVSPost2010Prop56
140
1.0
102
RTVSPost2010PropOp56
 70
     1
102
RTVSPost2010Prop57
140
1.0
102
RTVSPost2010PropOp57
 70
     1
  0
XRECORD
  5
314
102
{ACAD_REACTORS
330
313
102
}
330
313
100
AcDbXrecord
280
     1
102
RTVSPost2010Prop28
280
     0
102
RTVSPost2010PropOp28
 70
     1
102
RTVSPost2010Prop29
280
     1
102
RTVSPost2010PropOp29
 70
     1
102
RTVSPost2010Prop30
280
     1
102
RTVSPost2010PropOp30
 70
     1
102
RTVSPost2010Prop31
280
     0
102
RTVSPost2010PropOp31
 70
     1
102
RTVSPost2010Prop32
280
     0
102
RTVSPost2010PropOp32
 70
     1
102
RTVSPost2010Prop33
280
     0
102
RTVSPost2010PropOp33
 70
     1
102
RTVSPost2010Prop34
280
     0
102
RTVSPost2010PropOp34
 70
     1
102
RTVSPost2010Prop35
280
     0
102
RTVSPost2010PropOp35
 70
     1
102
RTVSPost2010Prop36
280
     0
102
RTVSPost2010PropOp36
 70
     1
102
RTVSPost2010Prop37
 90
       50
102
RTVSPost2010PropOp37
 70
     1
102
RTVSPost2010Prop38
140
0.0
102
RTVSPost2010PropOp38
 70
     1
102
RTVSPost2010Prop39
140
1.0
102
RTVSPost2010PropOp39
 70
     1
102
RTVSPost2010Prop40
 90
        0
102
RTVSPost2010PropOp40
 70
     1
102
RTVSPost2010Prop41ColorIndex
 90
       18
102
RTVSPost2010Prop41ColorRGB
 90
        0
102
RTVSPost2010PropOp41
 70
     1
102
RTVSPost2010Prop42
 90
       50
102
RTVSPost2010PropOp42
 70
     1
102
RTVSPost2010Prop43
 90
        3
102
RTVSPost2010PropOp43
 70
     1
102
RTVSPost2010Prop44ColorIndex
 90
        5
102
RTVSPost2010Prop44ColorRGB
 90
      255
102
RTVSPost2010PropOp44
 70
     1
102
RTVSPost2010Prop45
280
     0
102
RTVSPost2010PropOp45
 70
     1
102
RTVSPost2010Prop46
 90
       50
102
RTVSPost2010PropOp46
 70
     1
102
RTVSPost2010Prop47
 90
       50
102
RTVSPost2010PropOp47
 70
     1
102
RTVSPost2010Prop48
 90
       50
102
RTVSPost2010PropOp48
 70
     1
102
RTVSPost2010Prop49
280
     0
102
RTVSPost2010PropOp49
 70
     1
102
RTVSPost2010Prop50
 90
       50
102
RTVSPost2010PropOp50
 70
     1
102
RTVSPost2010Prop51ColorIndex
 90
      256
102
RTVSPost2010Prop51ColorRGB
 90
-16777216
102
RTVSPost2010PropOp51
 70
     0
102
RTVSPost2010Prop52
140
1.0
102
RTVSPost2010PropOp52
 70
     0
102
RTVSPost2010Prop53
 90
        2
102
RTVSPost2010PropOp53
 70
     1
102
RTVSPost2010Prop54
  1
strokes_ogs.tif
102
RTVSPost2010PropOp54
 70
     1
102
RTVSPost2010Prop55
280
     0
102
RTVSPost2010PropOp55
 70
     1
102
RTVSPost2010Prop56
140
1.0
102
RTVSPost2010PropOp56
 70
     1
102
RTVSPost2010Prop57
140
1.0
102
RTVSPost2010PropOp57
 70
     1
  0
ENDSEC
  0
EOF
