  0
SECTION
  2
HEADER
  9
$ACADVER
  1
AC1024
  9
$ACADMAINTVER
 70
     6
  9
$DWGCODEPAGE
  3
ANSI_932
  9
$INSBASE
 10
0.0
 20
0.0
 30
0.0
  9
$EXTMIN
 10
-6300.0
 20
-4455.0
 30
0.0
  9
$EXTMAX
 10
6300.0
 20
4455.0
 30
0.0
  9
$LIMMIN
 10
-6300.0
 20
-4455.0
  9
$LIMMAX
 10
6300.0
 20
4455.0
  9
$ORTHOMODE
 70
     0
  9
$REGENMODE
 70
     1
  9
$FILLMODE
 70
     1
  9
$QTEXTMODE
 70
     0
  9
$MIRRTEXT
 70
     1
  9
$LTSCALE
 40
30.0
  9
$ATTMODE
 70
     1
  9
$TEXTSIZE
 40
2.5
  9
$TRACEWID
 40
1.0
  9
$TEXTSTYLE
  7
Standard
  9
$CLAYER
  8
0
  9
$CELTYPE
  6
ByLayer
  9
$CECOLOR
 62
   256
  9
$CELTSCALE
 40
1.0
  9
$DISPSILH
 70
     0
  9
$DIMSCALE
 40
1.0
  9
$DIMASZ
 40
2.5
  9
$DIMEXO
 40
0.625
  9
$DIMDLI
 40
3.75
  9
$DIMRND
 40
0.0
  9
$DIMDLE
 40
0.0
  9
$DIMEXE
 40
1.25
  9
$DIMTP
 40
0.0
  9
$DIMTM
 40
0.0
  9
$DIMTXT
 40
2.5
  9
$DIMCEN
 40
2.5
  9
$DIMTSZ
 40
0.0
  9
$DIMTOL
 70
     0
  9
$DIMLIM
 70
     0
  9
$DIMTIH
 70
     0
  9
$DIMTOH
 70
     0
  9
$DIMSE1
 70
     0
  9
$DIMSE2
 70
     0
  9
$DIMTAD
 70
     1
  9
$DIMZIN
 70
     8
  9
$DIMBLK
  1

  9
$DIMASO
 70
     1
  9
$DIMSHO
 70
     1
  9
$DIMPOST
  1

  9
$DIMAPOST
  1

  9
$DIMALT
 70
     0
  9
$DIMALTD
 70
     3
  9
$DIMALTF
 40
0.03937007874016
  9
$DIMLFAC
 40
1.0
  9
$DIMTOFL
 70
     1
  9
$DIMTVP
 40
0.0
  9
$DIMTIX
 70
     0
  9
$DIMSOXD
 70
     0
  9
$DIMSAH
 70
     0
  9
$DIMBLK1
  1

  9
$DIMBLK2
  1

  9
$DIMSTYLE
  2
ISO-25
  9
$DIMCLRD
 70
     0
  9
$DIMCLRE
 70
     0
  9
$DIMCLRT
 70
     0
  9
$DIMTFAC
 40
1.0
  9
$DIMGAP
 40
0.625
  9
$DIMJUST
 70
     0
  9
$DIMSD1
 70
     0
  9
$DIMSD2
 70
     0
  9
$DIMTOLJ
 70
     0
  9
$DIMTZIN
 70
     8
  9
$DIMALTZ
 70
     0
  9
$DIMALTTZ
 70
     0
  9
$DIMUPT
 70
     0
  9
$DIMDEC
 70
     2
  9
$DIMTDEC
 70
     2
  9
$DIMALTU
 70
     2
  9
$DIMALTTD
 70
     3
  9
$DIMTXSTY
  7
Standard
  9
$DIMAUNIT
 70
     0
  9
$DIMADEC
 70
     0
  9
$DIMALTRND
 40
0.0
  9
$DIMAZIN
 70
     0
  9
$DIMDSEP
 70
    44
  9
$DIMATFIT
 70
     3
  9
$DIMFRAC
 70
     0
  9
$DIMLDRBLK
  1

  9
$DIMLUNIT
 70
     2
  9
$DIMLWD
 70
    -2
  9
$DIMLWE
 70
    -2
  9
$DIMTMOVE
 70
     0
  9
$DIMFXL
 40
1.0
  9
$DIMFXLON
 70
     0
  9
$DIMJOGANG
 40
0.7853981633974483
  9
$DIMTFILL
 70
     0
  9
$DIMTFILLCLR
 70
     0
  9
$DIMARCSYM
 70
     0
  9
$DIMLTYPE
  6

  9
$DIMLTEX1
  6

  9
$DIMLTEX2
  6

  9
$DIMTXTDIRECTION
 70
     0
  9
$LUNITS
 70
     2
  9
$LUPREC
 70
     4
  9
$SKETCHINC
 40
1.0
  9
$FILLETRAD
 40
10.0
  9
$AUNITS
 70
     0
  9
$AUPREC
 70
     0
  9
$MENU
  1
.
  9
$ELEVATION
 40
0.0
  9
$PELEVATION
 40
0.0
  9
$THICKNESS
 40
0.0
  9
$LIMCHECK
 70
     0
  9
$CHAMFERA
 40
0.0
  9
$CHAMFERB
 40
0.0
  9
$CHAMFERC
 40
0.0
  9
$CHAMFERD
 40
0.0
  9
$SKPOLY
 70
     0
  9
$TDCREATE
 40
2458214.429626759
  9
$TDUCREATE
 40
2458214.054626759
  9
$TDUPDATE
 40
2458214.429626933
  9
$TDUUPDATE
 40
2458214.054626933
  9
$TDINDWG
 40
0.0000000116
  9
$TDUSRTIMER
 40
0.0000000116
  9
$USRTIMER
 70
     1
  9
$ANGBASE
 50
0.0
  9
$ANGDIR
 70
     0
  9
$PDMODE
 70
     0
  9
$PDSIZE
 40
0.0
  9
$PLINEWID
 40
0.0
  9
$SPLFRAME
 70
     0
  9
$SPLINETYPE
 70
     6
  9
$SPLINESEGS
 70
     8
  9
$HANDSEED
  5
35F
  9
$SURFTAB1
 70
     6
  9
$SURFTAB2
 70
     6
  9
$SURFTYPE
 70
     6
  9
$SURFU
 70
     6
  9
$SURFV
 70
     6
  9
$UCSBASE
  2

  9
$UCSNAME
  2

  9
$UCSORG
 10
0.0
 20
0.0
 30
0.0
  9
$UCSXDIR
 10
1.0
 20
0.0
 30
0.0
  9
$UCSYDIR
 10
0.0
 20
1.0
 30
0.0
  9
$UCSORTHOREF
  2

  9
$UCSORTHOVIEW
 70
     0
  9
$UCSORGTOP
 10
0.0
 20
0.0
 30
0.0
  9
$UCSORGBOTTOM
 10
0.0
 20
0.0
 30
0.0
  9
$UCSORGLEFT
 10
0.0
 20
0.0
 30
0.0
  9
$UCSORGRIGHT
 10
0.0
 20
0.0
 30
0.0
  9
$UCSORGFRONT
 10
0.0
 20
0.0
 30
0.0
  9
$UCSORGBACK
 10
0.0
 20
0.0
 30
0.0
  9
$PUCSBASE
  2

  9
$PUCSNAME
  2

  9
$PUCSORG
 10
0.0
 20
0.0
 30
0.0
  9
$PUCSXDIR
 10
1.0
 20
0.0
 30
0.0
  9
$PUCSYDIR
 10
0.0
 20
1.0
 30
0.0
  9
$PUCSORTHOREF
  2

  9
$PUCSORTHOVIEW
 70
     0
  9
$PUCSORGTOP
 10
0.0
 20
0.0
 30
0.0
  9
$PUCSORGBOTTOM
 10
0.0
 20
0.0
 30
0.0
  9
$PUCSORGLEFT
 10
0.0
 20
0.0
 30
0.0
  9
$PUCSORGRIGHT
 10
0.0
 20
0.0
 30
0.0
  9
$PUCSORGFRONT
 10
0.0
 20
0.0
 30
0.0
  9
$PUCSORGBACK
 10
0.0
 20
0.0
 30
0.0
  9
$USERI1
 70
     0
  9
$USERI2
 70
     0
  9
$USERI3
 70
     0
  9
$USERI4
 70
     0
  9
$USERI5
 70
     0
  9
$USERR1
 40
0.0
  9
$USERR2
 40
0.0
  9
$USERR3
 40
0.0
  9
$USERR4
 40
0.0
  9
$USERR5
 40
0.0
  9
$WORLDVIEW
 70
     1
  9
$SHADEDGE
 70
     3
  9
$SHADEDIF
 70
    70
  9
$TILEMODE
 70
     1
  9
$MAXACTVP
 70
    64
  9
$PINSBASE
 10
0.0
 20
0.0
 30
0.0
  9
$PLIMCHECK
 70
     0
  9
$PEXTMIN
 10
1.000000000000000E+20
 20
1.000000000000000E+20
 30
1.000000000000000E+20
  9
$PEXTMAX
 10
-1.000000000000000E+20
 20
-1.000000000000000E+20
 30
-1.000000000000000E+20
  9
$PLIMMIN
 10
0.0
 20
0.0
  9
$PLIMMAX
 10
420.0
 20
297.0
  9
$UNITMODE
 70
     0
  9
$VISRETAIN
 70
     1
  9
$PLINEGEN
 70
     0
  9
$PSLTSCALE
 70
     1
  9
$TREEDEPTH
 70
  3020
  9
$CMLSTYLE
  2
Standard
  9
$CMLJUST
 70
     0
  9
$CMLSCALE
 40
20.0
  9
$PROXYGRAPHICS
 70
     1
  9
$MEASUREMENT
 70
     1
  9
$CELWEIGHT
370
    -1
  9
$ENDCAPS
280
     0
  9
$JOINSTYLE
280
     0
  9
$LWDISPLAY
290
     0
  9
$INSUNITS
 70
     4
  9
$HYPERLINKBASE
  1

  9
$STYLESHEET
  1

  9
$XEDIT
290
     1
  9
$CEPSNTYPE
380
     0
  9
$PSTYLEMODE
290
     1
  9
$FINGERPRINTGUID
  2
{B58F9690-4634-4BE0-808C-2A67878E97D9}
  9
$VERSIONGUID
  2
{FAEB1C32-E019-11D5-929B-00C0DF256EC4}
  9
$EXTNAMES
290
     1
  9
$PSVPSCALE
 40
0.0
  9
$OLESTARTUP
290
     0
  9
$SORTENTS
280
   127
  9
$INDEXCTL
280
     0
  9
$HIDETEXT
280
     1
  9
$XCLIPFRAME
280
     2
  9
$HALOGAP
280
     0
  9
$OBSCOLOR
 70
   257
  9
$OBSLTYPE
280
     0
  9
$INTERSECTIONDISPLAY
280
     0
  9
$INTERSECTIONCOLOR
 70
   257
  9
$DIMASSOC
280
     2
  9
$PROJECTNAME
  1

  9
$CAMERADISPLAY
290
     0
  9
$LENSLENGTH
 40
50.0
  9
$CAMERAHEIGHT
 40
0.0
  9
$STEPSPERSEC
 40
2.0
  9
$STEPSIZE
 40
6.0
  9
$3DDWFPREC
 40
2.0
  9
$PSOLWIDTH
 40
5.0
  9
$PSOLHEIGHT
 40
80.0
  9
$LOFTANG1
 40
1.570796326794897
  9
$LOFTANG2
 40
1.570796326794897
  9
$LOFTMAG1
 40
0.0
  9
$LOFTMAG2
 40
0.0
  9
$LOFTPARAM
 70
     7
  9
$LOFTNORMALS
280
     1
  9
$LATITUDE
 40
37.795
  9
$LONGITUDE
 40
-122.394
  9
$NORTHDIRECTION
 40
0.0
  9
$TIMEZONE
 70
 -8000
  9
$LIGHTGLYPHDISPLAY
280
     1
  9
$TILEMODELIGHTSYNCH
280
     1
  9
$CMATERIAL
347
44
  9
$SOLIDHIST
280
     0
  9
$SHOWHIST
280
     1
  9
$DWFFRAME
280
     2
  9
$DGNFRAME
280
     2
  9
$REALWORLDSCALE
290
     1
  9
$INTERFERECOLOR
 62
   256
  9
$CSHADOW
280
     0
  9
$SHADOWPLANELOCATION
 40
0.0
  0
ENDSEC
  0
SECTION
  2
CLASSES
  0
CLASS
  1
ACDBDICTIONARYWDFLT
  2
AcDbDictionaryWithDefault
  3
ObjectDBX Classes
 90
        0
 91
        4
280
     0
281
     0
  0
CLASS
  1
VISUALSTYLE
  2
AcDbVisualStyle
  3
ObjectDBX Classes
 90
     4095
 91
        4
280
     0
281
     0
  0
CLASS
  1
MATERIAL
  2
AcDbMaterial
  3
ObjectDBX Classes
 90
     1153
 91
        4
280
     0
281
     0
  0
CLASS
  1
SCALE
  2
AcDbScale
  3
ObjectDBX Classes
 90
     1153
 91
        4
280
     0
281
     0
  0
CLASS
  1
TABLESTYLE
  2
AcDbTableStyle
  3
ObjectDBX Classes
 90
     4095
 91
        4
280
     0
281
     0
  0
CLASS
  1
MLEADERSTYLE
  2
AcDbMLeaderStyle
  3
ACDB_MLEADERSTYLE_CLASS
 90
     4095
 91
        4
280
     0
281
     0
  0
CLASS
  1
SUN
  2
AcDbSun
  3
SCENEOE
 90
     1153
 91
        4
280
     0
281
     0
  0
CLASS
  1
DICTIONARYVAR
  2
AcDbDictionaryVar
  3
ObjectDBX Classes
 90
        0
 91
        4
280
     0
281
     0
  0
CLASS
  1
CELLSTYLEMAP
  2
AcDbCellStyleMap
  3
ObjectDBX Classes
 90
     1152
 91
        4
280
     0
281
     0
  0
ENDSEC
  0
SECTION
  2
TABLES
  0
TABLE
  2
VPORT
  5
8
330
0
100
AcDbSymbolTable
 70
     1
  0
VPORT
  5
29
330
8
100
AcDbSymbolTableRecord
100
AcDbViewportTableRecord
  2
*Active
 70
     0
 10
0.0
 20
0.0
 11
1.0
 21
1.0
 12
0.0
 22
0.0
 13
0.0
 23
0.0
 14
10.0
 24
10.0
 15
10.0
 25
10.0
 16
0.0
 26
0.0
 36
1.0
 17
0.0
 27
0.0
 37
0.0
 40
9801.0
 41
1.414141414141414
 42
50.0
 43
0.0
 44
0.0
 50
0.0
 51
0.0
 71
     0
 72
 10000
 73
     1
 74
     3
 75
     0
 76
     0
 77
     0
 78
     0
281
     0
 65
     1
110
0.0
120
0.0
130
0.0
111
1.0
121
0.0
131
0.0
112
0.0
122
1.0
132
0.0
 79
     0
146
0.0
348
2F
 60
     3
 61
     5
292
     1
282
     1
141
0.0
142
0.0
 63
   250
361
6D
  0
ENDTAB
  0
TABLE
  2
LTYPE
  5
5
330
0
100
AcDbSymbolTable
 70
     4
  0
LTYPE
  5
14
330
5
100
AcDbSymbolTableRecord
100
AcDbLinetypeTableRecord
  2
ByBlock
 70
     0
  3

 72
    65
 73
     0
 40
0.0
  0
LTYPE
  5
15
330
5
100
AcDbSymbolTableRecord
100
AcDbLinetypeTableRecord
  2
ByLayer
 70
     0
  3

 72
    65
 73
     0
 40
0.0
  0
LTYPE
  5
16
330
5
100
AcDbSymbolTableRecord
100
AcDbLinetypeTableRecord
  2
Continuous
 70
     0
  3
Solid line
 72
    65
 73
     0
 40
0.0
  0
LTYPE
  5
6F
330
5
100
AcDbSymbolTableRecord
100
AcDbLinetypeTableRecord
  2
JWW_CENTER1
 70
     0
  3
-----  --  ----------  --  -----
 72
    65
 73
     4
 40
6.773333333333333
 49
4.233333333333333
 74
     0
 49
-0.8466666666666667
 74
     0
 49
0.8466666666666667
 74
     0
 49
-0.8466666666666667
 74
     0
  0
LTYPE
  5
70
330
5
100
AcDbSymbolTableRecord
100
AcDbLinetypeTableRecord
  2
JWW_DASHED1
 70
     0
  3
-  --  --  --  --  --  --  --  -
 72
    65
 73
     2
 40
1.693333333333333
 49
0.8466666666666667
 74
     0
 49
-0.8466666666666667
 74
     0
  0
LTYPE
  5
71
330
5
100
AcDbSymbolTableRecord
100
AcDbLinetypeTableRecord
  2
JWW_HOJO
 70
     0
  3
  -   -   -   -   -   -   -   - 
 72
    65
 73
     2
 40
1.693333333333333
 49
-1.27
 74
     0
 49
0.4233333333333333
 74
     0
  0
ENDTAB
  0
TABLE
  2
LAYER
  5
2
330
0
100
AcDbSymbolTable
 70
    10
  0
LAYER
  5
10
330
2
100
AcDbSymbolTableRecord
100
AcDbLayerTableRecord
  2
0
 70
     0
 62
     7
  6
Continuous
370
    -3
390
F
347
46
  0
LAYER
  5
72
330
2
100
AcDbSymbolTableRecord
100
AcDbLayerTableRecord
  2
4-4
 70
     0
 62
     7
  6
Continuous
370
    -3
390
F
347
46
  0
LAYER
  5
73
330
2
100
AcDbSymbolTableRecord
100
AcDbLayerTableRecord
  2
4-C
 70
     0
 62
     7
  6
Continuous
370
    -3
390
F
347
46
  0
LAYER
  5
74
330
2
100
AcDbSymbolTableRecord
100
AcDbLayerTableRecord
  2
2-2
 70
     0
 62
     7
  6
Continuous
370
    -3
390
F
347
46
  0
LAYER
  5
75
330
2
100
AcDbSymbolTableRecord
100
AcDbLayerTableRecord
  2
4-A
 70
     0
 62
     7
  6
Continuous
370
    -3
390
F
347
46
  0
LAYER
  5
76
330
2
100
AcDbSymbolTableRecord
100
AcDbLayerTableRecord
  2
4-1
 70
     0
 62
     7
  6
Continuous
370
    -3
390
F
347
46
  0
LAYER
  5
77
330
2
100
AcDbSymbolTableRecord
100
AcDbLayerTableRecord
  2
4-0
 70
     0
 62
     7
  6
Continuous
370
    -3
390
F
347
46
  0
LAYER
  5
78
330
2
100
AcDbSymbolTableRecord
100
AcDbLayerTableRecord
  2
F-A
 70
     0
 62
     7
  6
Continuous
370
    -3
390
F
347
46
  0
LAYER
  5
79
330
2
100
AcDbSymbolTableRecord
100
AcDbLayerTableRecord
  2
F-0
 70
     0
 62
     7
  6
Continuous
370
    -3
390
F
347
46
  0
LAYER
  5
7A
330
2
100
AcDbSymbolTableRecord
100
AcDbLayerTableRecord
  2
F-1
 70
     0
 62
     7
  6
Continuous
370
    -3
390
F
347
46
  0
ENDTAB
  0
TABLE
  2
STYLE
  5
3
330
0
100
AcDbSymbolTable
 70
     2
  0
STYLE
  5
11
330
3
100
AcDbSymbolTableRecord
100
AcDbTextStyleTableRecord
  2
Standard
 70
     0
 40
0.0
 41
1.0
 50
0.0
 71
     0
 42
2.5
  3
txt
  4

  0
STYLE
  5
6E
330
3
100
AcDbSymbolTableRecord
100
AcDbTextStyleTableRecord
  2
ＭＳ ゴシック
 70
     0
 40
1.0
 41
1.0
 50
0.0
 71
     0
 42
2.5
  3

  4

1001
ACAD
1000
MS Gothic
1071
    32817
  0
ENDTAB
  0
TABLE
  2
VIEW
  5
6
330
0
100
AcDbSymbolTable
 70
     0
  0
ENDTAB
  0
TABLE
  2
UCS
  5
7
330
0
100
AcDbSymbolTable
 70
     0
  0
ENDTAB
  0
TABLE
  2
APPID
  5
9
330
0
100
AcDbSymbolTable
 70
     1
  0
APPID
  5
12
330
9
100
AcDbSymbolTableRecord
100
AcDbRegAppTableRecord
  2
ACAD
 70
     0
  0
ENDTAB
  0
TABLE
  2
DIMSTYLE
  5
A
330
0
100
AcDbSymbolTable
 70
     1
100
AcDbDimStyleTable
  0
DIMSTYLE
105
27
330
A
100
AcDbSymbolTableRecord
100
AcDbDimStyleTableRecord
  2
ISO-25
 70
     0
 41
2.5
 42
0.625
 43
3.75
 44
1.25
 73
     0
 74
     0
 77
     1
 78
     8
140
2.5
141
2.5
143
0.03937007874016
147
0.625
171
     3
172
     1
178
     0
271
     2
272
     2
274
     3
278
    44
283
     0
284
     8
340
11
  0
ENDTAB
  0
TABLE
  2
BLOCK_RECORD
  5
1
330
0
100
AcDbSymbolTable
 70
     1
  0
BLOCK_RECORD
  5
1F
330
1
100
AcDbSymbolTableRecord
100
AcDbBlockTableRecord
  2
*Model_Space
340
22
 70
     0
280
     1
281
     0
  0
BLOCK_RECORD
  5
1B
330
1
100
AcDbSymbolTableRecord
100
AcDbBlockTableRecord
  2
*Paper_Space
340
1E
 70
     0
280
     1
281
     0
  0
BLOCK_RECORD
  5
23
330
1
100
AcDbSymbolTableRecord
100
AcDbBlockTableRecord
  2
*Paper_Space0
340
26
 70
     0
280
     1
281
     0
  0
ENDTAB
  0
ENDSEC
  0
SECTION
  2
BLOCKS
  0
BLOCK
  5
20
330
1F
100
AcDbEntity
  8
0
100
AcDbBlockBegin
  2
*Model_Space
 70
     0
 10
0.0
 20
0.0
 30
0.0
  3
*Model_Space
  1

  0
ENDBLK
  5
21
330
1F
100
AcDbEntity
  8
0
100
AcDbBlockEnd
  0
BLOCK
  5
1C
330
1B
100
AcDbEntity
 67
     1
  8
0
100
AcDbBlockBegin
  2
*Paper_Space
 70
     0
 10
0.0
 20
0.0
 30
0.0
  3
*Paper_Space
  1

  0
ENDBLK
  5
1D
330
1B
100
AcDbEntity
 67
     1
  8
0
100
AcDbBlockEnd
  0
BLOCK
  5
24
330
23
100
AcDbEntity
  8
0
100
AcDbBlockBegin
  2
*Paper_Space0
 70
     0
 10
0.0
 20
0.0
 30
0.0
  3
*Paper_Space0
  1

  0
ENDBLK
  5
25
330
23
100
AcDbEntity
  8
0
100
AcDbBlockEnd
  0
ENDSEC
  0
SECTION
  2
ENTITIES
  0
LINE
  5
7B
330
1F
100
AcDbEntity
  8
4-4
  6
Continuous
 62
     7
370
     9
100
AcDbLine
 10
-2801.1621213852
 20
-2000.968597061558
 30
0.0
 11
-2801.1621213852
 21
-2453.968597061558
 31
0.0
  0
LINE
  5
7C
330
1F
100
AcDbEntity
  8
4-4
  6
Continuous
 62
     7
370
     9
100
AcDbLine
 10
-2891.1621213852
 20
-2000.968597061558
 30
0.0
 11
-2891.1621213852
 21
-2453.968597061558
 31
0.0
  0
TEXT
  5
7D
330
1F
100
AcDbEntity
  8
4-4
  6
Continuous
 62
     7
370
     0
100
AcDbText
 10
-2828.162121385199
 20
-2990.873296089386
 30
0.0
 40
91.44
  1
1,202（ﾎﾞｯｸｽＷ）
 41
1.109375
  7
ＭＳ ゴシック
100
AcDbText
  0
LINE
  5
7E
330
1F
100
AcDbEntity
  8
4-4
  6
Continuous
 62
     7
370
     9
100
AcDbLine
 10
-3641.1621213852
 20
-2000.968597061558
 30
0.0
 11
-35.16212138519806
 21
-2000.968597061558
 31
0.0
  0
LINE
  5
7F
330
1F
100
AcDbEntity
  8
4-C
  6
Continuous
 62
     7
370
     9
100
AcDbLine
 10
-35.16212138519806
 20
-1910.968597061558
 30
0.0
 11
-35.16212138519806
 21
-2000.968597061558
 31
0.0
  0
LINE
  5
80
330
1F
100
AcDbEntity
  8
4-4
  6
Continuous
 62
     7
370
     9
100
AcDbLine
 10
-3641.1621213852
 20
-1910.968597061558
 30
0.0
 11
-35.16212138519806
 21
-1910.968597061558
 31
0.0
  0
LINE
  5
81
330
1F
100
AcDbEntity
  8
4-C
  6
Continuous
 62
     7
370
     9
100
AcDbLine
 10
-35.16212138519806
 20
354.0314029384422
 30
0.0
 11
-35.16212138519806
 21
264.0314029384422
 31
0.0
  0
LINE
  5
82
330
1F
100
AcDbEntity
  8
4-4
  6
Continuous
 62
     7
370
     9
100
AcDbLine
 10
-3641.1621213852
 20
354.0314029384422
 30
0.0
 11
-35.16212138519806
 21
354.0314029384422
 31
0.0
  0
LINE
  5
83
330
1F
100
AcDbEntity
  8
4-C
  6
Continuous
 62
     7
370
     9
100
AcDbLine
 10
-3641.1621213852
 20
-1910.968597061558
 30
0.0
 11
-3641.1621213852
 21
-2000.968597061558
 31
0.0
  0
LINE
  5
84
330
1F
100
AcDbEntity
  8
4-4
  6
Continuous
 62
     7
370
     9
100
AcDbLine
 10
3963.315286878625
 20
668.7150837988821
 30
0.0
 11
3963.315286878625
 21
-2682.569832402235
 31
0.0
  0
LINE
  5
85
330
1F
100
AcDbEntity
  8
4-4
  6
Continuous
 62
     4
370
     5
100
AcDbLine
 10
2823.315286878624
 20
-2682.569832402235
 30
0.0
 11
2838.315286878624
 21
-2682.569832402235
 31
0.0
  0
LINE
  5
86
330
1F
100
AcDbEntity
  8
4-4
  6
Continuous
 62
     4
370
     5
100
AcDbLine
 10
2898.315286878624
 20
-2682.569832402235
 30
0.0
 11
2913.315286878624
 21
-2682.569832402235
 31
0.0
  0
TEXT
  5
87
330
1F
100
AcDbEntity
  8
4-4
  6
Continuous
 62
     7
370
     0
100
AcDbText
 10
3227.690209185764
 20
-2773.939630785556
 30
0.0
 40
68.58
  1
(左側板)
 41
1.145833333333333
  7
ＭＳ ゴシック
100
AcDbText
  0
LINE
  5
88
330
1F
100
AcDbEntity
  8
4-4
  6
Continuous
 62
     7
370
     9
100
AcDbLine
 10
3948.315286878625
 20
270.0314029384435
 30
0.0
 11
3948.315286878625
 21
-1913.968597061558
 31
0.0
  0
LINE
  5
89
330
1F
100
AcDbEntity
  8
4-4
  6
Continuous
 62
     7
370
     9
100
AcDbLine
 10
3843.315286878625
 20
-2003.968597061558
 30
0.0
 11
3843.315286878625
 21
-2453.968597061558
 31
0.0
  0
LINE
  5
8A
330
1F
100
AcDbEntity
  8
2-2
  6
JWW_CENTER1
 62
     3
370
    13
100
AcDbLine
 10
4957.348600441257
 20
2391.159748379876
 30
0.0
 11
4957.348600441257
 21
1086.997737206691
 31
0.0
  0
LINE
  5
8B
330
1F
100
AcDbEntity
  8
2-2
  6
JWW_CENTER1
 62
     3
370
    13
100
AcDbLine
 10
4957.348600441257
 20
3855.712821005573
 30
0.0
 11
4957.348600441257
 21
2481.159748379876
 31
0.0
  0
LINE
  5
8C
330
1F
100
AcDbEntity
  8
2-2
  6
Continuous
 62
     7
370
     9
100
AcDbLine
 10
3871.985471949637
 20
3128.00332379887
 30
0.0
 11
4957.348600441257
 21
3128.00332379887
 31
0.0
  0
LINE
  5
8D
330
1F
100
AcDbEntity
  8
2-2
  6
Continuous
 62
     7
370
     9
100
AcDbLine
 10
3316.985471949637
 20
3308.00332379887
 30
0.0
 11
3496.985471949637
 21
3308.00332379887
 31
0.0
  0
LINE
  5
8E
330
1F
100
AcDbEntity
  8
2-2
  6
Continuous
 62
     7
370
     9
100
AcDbLine
 10
3316.985471949637
 20
3308.00332379887
 30
0.0
 11
3316.985471949637
 21
3128.00332379887
 31
0.0
  0
LINE
  5
8F
330
1F
100
AcDbEntity
  8
2-2
  6
Continuous
 62
     7
370
     9
100
AcDbLine
 10
3496.985471949637
 20
3308.00332379887
 30
0.0
 11
3496.985471949637
 21
3128.00332379887
 31
0.0
  0
LINE
  5
90
330
1F
100
AcDbEntity
  8
2-2
  6
Continuous
 62
     7
370
     9
100
AcDbLine
 10
3691.985471949637
 20
3308.00332379887
 30
0.0
 11
3691.985471949637
 21
3128.00332379887
 31
0.0
  0
LINE
  5
91
330
1F
100
AcDbEntity
  8
2-2
  6
Continuous
 62
     7
370
     9
100
AcDbLine
 10
3871.985471949637
 20
3308.00332379887
 30
0.0
 11
3871.985471949637
 21
3128.00332379887
 31
0.0
  0
LINE
  5
92
330
1F
100
AcDbEntity
  8
2-2
  6
Continuous
 62
     7
370
     9
100
AcDbLine
 10
3691.985471949637
 20
3308.00332379887
 30
0.0
 11
3871.985471949637
 21
3308.00332379887
 31
0.0
  0
LINE
  5
93
330
1F
100
AcDbEntity
  8
2-2
  6
Continuous
 62
     7
370
     9
100
AcDbLine
 10
3496.985471949637
 20
3128.00332379887
 30
0.0
 11
3691.985471949637
 21
3128.00332379887
 31
0.0
  0
LINE
  5
94
330
1F
100
AcDbEntity
  8
2-2
  6
JWW_DASHED1
 62
     3
370
    13
100
AcDbLine
 10
3196.985471949637
 20
2512.919524916188
 30
0.0
 11
3196.985471949637
 21
3098.00332379887
 31
0.0
  0
LINE
  5
95
330
1F
100
AcDbEntity
  8
2-2
  6
JWW_DASHED1
 62
     3
370
    13
100
AcDbLine
 10
3196.985471949637
 20
3098.00332379887
 30
0.0
 11
3496.985471949637
 21
3098.00332379887
 31
0.0
  0
LINE
  5
96
330
1F
100
AcDbEntity
  8
2-2
  6
JWW_DASHED1
 62
     3
370
    13
100
AcDbLine
 10
3496.985471949637
 20
3098.00332379887
 30
0.0
 11
3496.985471949637
 21
2512.919524916188
 31
0.0
  0
LINE
  5
97
330
1F
100
AcDbEntity
  8
2-2
  6
JWW_DASHED1
 62
     3
370
    13
100
AcDbLine
 10
3571.985471949637
 20
2512.919524916188
 30
0.0
 11
3571.985471949637
 21
3098.00332379887
 31
0.0
  0
LINE
  5
98
330
1F
100
AcDbEntity
  8
2-2
  6
JWW_DASHED1
 62
     3
370
    13
100
AcDbLine
 10
3571.985471949637
 20
3098.00332379887
 30
0.0
 11
3871.985471949637
 21
3098.00332379887
 31
0.0
  0
LINE
  5
99
330
1F
100
AcDbEntity
  8
2-2
  6
JWW_DASHED1
 62
     3
370
    13
100
AcDbLine
 10
3871.985471949637
 20
3098.00332379887
 30
0.0
 11
3871.985471949637
 21
2512.919524916188
 31
0.0
  0
LINE
  5
9A
330
1F
100
AcDbEntity
  8
2-2
  6
Continuous
 62
     4
370
     5
100
AcDbLine
 10
2090.881589907186
 20
3128.00332379887
 30
0.0
 11
2090.881589907186
 21
3098.00332379887
 31
0.0
  0
LWPOLYLINE
  5
9B
330
1F
100
AcDbEntity
  8
2-2
  6
Continuous
 62
     4
370
     5
100
AcDbPolyline
 90
        4
 70
     1
 43
6.0
 10
2093.881589907186
 20
3128.00332379887
 42
0.4142135623731
 10
2090.881589907186
 20
3131.00332379887
 42
0.4142135623731
 10
2087.881589907186
 20
3128.00332379887
 42
0.4142135623731
 10
2090.881589907186
 20
3125.00332379887
 42
0.4142135623731
  0
LWPOLYLINE
  5
9C
330
1F
100
AcDbEntity
  8
2-2
  6
Continuous
 62
     4
370
     5
100
AcDbPolyline
 90
        4
 70
     1
 43
6.0
 10
2093.881589907186
 20
3098.00332379887
 42
0.4142135623731
 10
2090.881589907186
 20
3101.00332379887
 42
0.4142135623731
 10
2087.881589907186
 20
3098.00332379887
 42
0.4142135623731
 10
2090.881589907186
 20
3095.00332379887
 42
0.4142135623731
  0
TEXT
  5
9D
330
1F
100
AcDbEntity
  8
2-2
  6
Continuous
 62
     7
370
     0
100
AcDbText
 10
2058.961589907186
 20
3083.00332379887
 30
0.0
 40
91.44
  1
2
 50
90.0
  7
ＭＳ ゴシック
100
AcDbText
  0
LINE
  5
9E
330
1F
100
AcDbEntity
  8
2-2
  6
Continuous
 62
     4
370
     5
100
AcDbLine
 10
2090.881589907186
 20
3128.00332379887
 30
0.0
 11
2090.881589907186
 21
3308.00332379887
 31
0.0
  0
LWPOLYLINE
  5
9F
330
1F
100
AcDbEntity
  8
2-2
  6
Continuous
 62
     4
370
     5
100
AcDbPolyline
 90
        4
 70
     1
 43
6.0
 10
2093.881589907186
 20
3308.00332379887
 42
0.4142135623731
 10
2090.881589907186
 20
3311.00332379887
 42
0.4142135623731
 10
2087.881589907186
 20
3308.00332379887
 42
0.4142135623731
 10
2090.881589907186
 20
3305.00332379887
 42
0.4142135623731
  0
LINE
  5
A0
330
1F
100
AcDbEntity
  8
2-2
  6
Continuous
 62
     7
370
     9
100
AcDbLine
 10
2090.881589907186
 20
3128.00332379887
 30
0.0
 11
2279.285839627104
 21
3128.00332379887
 31
0.0
  0
TEXT
  5
A1
330
1F
100
AcDbEntity
  8
2-2
  6
Continuous
 62
     7
370
     0
100
AcDbText
 10
2212.785773911336
 20
3159.255006167645
 30
0.0
 40
91.44
  1
12
 50
90.0
 41
1.0625
  7
ＭＳ ゴシック
100
AcDbText
  0
LINE
  5
A2
330
1F
100
AcDbEntity
  8
2-2
  6
Continuous
 62
     7
370
     9
100
AcDbLine
 10
2090.881589907186
 20
3098.00332379887
 30
0.0
 11
2279.285839627104
 21
3098.00332379887
 31
0.0
  0
LINE
  5
A3
330
1F
100
AcDbEntity
  8
2-2
  6
Continuous
 62
     4
370
     5
100
AcDbLine
 10
2090.881589907186
 20
3098.00332379887
 30
0.0
 11
2090.881589907186
 21
1882.835726033507
 31
0.0
  0
LINE
  5
A4
330
1F
100
AcDbEntity
  8
2-2
  6
Continuous
 62
     4
370
     5
100
AcDbLine
 10
3196.985471949637
 20
2114.899971843563
 30
0.0
 11
3496.985471949637
 21
2114.899971843563
 31
0.0
  0
LWPOLYLINE
  5
A5
330
1F
100
AcDbEntity
  8
2-2
  6
Continuous
 62
     4
370
     5
100
AcDbPolyline
 90
        4
 70
     1
 43
6.0
 10
3499.985471949637
 20
2114.899971843563
 42
0.4142135623731
 10
3496.985471949637
 20
2117.899971843563
 42
0.4142135623731
 10
3493.985471949637
 20
2114.899971843563
 42
0.4142135623731
 10
3496.985471949637
 20
2111.899971843563
 42
0.4142135623731
  0
TEXT
  5
A6
330
1F
100
AcDbEntity
  8
2-2
  6
Continuous
 62
     7
370
     0
100
AcDbText
 10
3283.235471949637
 20
2146.819971843563
 30
0.0
 40
91.44
  1
20
 41
1.0625
  7
ＭＳ ゴシック
100
AcDbText
  0
LINE
  5
A7
330
1F
100
AcDbEntity
  8
2-2
  6
Continuous
 62
     4
370
     5
100
AcDbLine
 10
3496.985471949637
 20
2114.899971843563
 30
0.0
 11
3571.985471949637
 21
2114.899971843563
 31
0.0
  0
LWPOLYLINE
  5
A8
330
1F
100
AcDbEntity
  8
2-2
  6
Continuous
 62
     4
370
     5
100
AcDbPolyline
 90
        4
 70
     1
 43
6.0
 10
3574.985471949637
 20
2114.899971843563
 42
0.4142135623731
 10
3571.985471949637
 20
2117.899971843563
 42
0.4142135623731
 10
3568.985471949637
 20
2114.899971843563
 42
0.4142135623731
 10
3571.985471949637
 20
2111.899971843563
 42
0.4142135623731
  0
TEXT
  5
A9
330
1F
100
AcDbEntity
  8
2-2
  6
Continuous
 62
     7
370
     0
100
AcDbText
 10
3504.485471949637
 20
2146.819971843563
 30
0.0
 40
91.44
  1
5
  7
ＭＳ ゴシック
100
AcDbText
  0
LINE
  5
AA
330
1F
100
AcDbEntity
  8
2-2
  6
Continuous
 62
     4
370
     5
100
AcDbLine
 10
3571.985471949637
 20
2114.899971843563
 30
0.0
 11
3871.985471949637
 21
2114.899971843563
 31
0.0
  0
LWPOLYLINE
  5
AB
330
1F
100
AcDbEntity
  8
2-2
  6
Continuous
 62
     4
370
     5
100
AcDbPolyline
 90
        4
 70
     1
 43
6.0
 10
3874.985471949637
 20
2114.899971843563
 42
0.4142135623731
 10
3871.985471949637
 20
2117.899971843563
 42
0.4142135623731
 10
3868.985471949637
 20
2114.899971843563
 42
0.4142135623731
 10
3871.985471949637
 20
2111.899971843563
 42
0.4142135623731
  0
TEXT
  5
AC
330
1F
100
AcDbEntity
  8
2-2
  6
Continuous
 62
     7
370
     0
100
AcDbText
 10
3658.235471949637
 20
2146.819971843563
 30
0.0
 40
91.44
  1
20
 41
1.0625
  7
ＭＳ ゴシック
100
AcDbText
  0
LINE
  5
AD
330
1F
100
AcDbEntity
  8
2-2
  6
JWW_DASHED1
 62
     3
370
    13
100
AcDbLine
 10
3871.985471949637
 20
2452.919524916188
 30
0.0
 11
3871.985471949637
 21
1882.835726033507
 31
0.0
  0
LINE
  5
AE
330
1F
100
AcDbEntity
  8
2-2
  6
JWW_DASHED1
 62
     3
370
    13
100
AcDbLine
 10
3871.985471949637
 20
1882.835726033507
 30
0.0
 11
3571.985471949637
 21
1882.835726033507
 31
0.0
  0
LINE
  5
AF
330
1F
100
AcDbEntity
  8
2-2
  6
JWW_DASHED1
 62
     3
370
    13
100
AcDbLine
 10
3571.985471949637
 20
1882.835726033507
 30
0.0
 11
3571.985471949637
 21
2452.919524916188
 31
0.0
  0
LINE
  5
B0
330
1F
100
AcDbEntity
  8
2-2
  6
JWW_DASHED1
 62
     3
370
    13
100
AcDbLine
 10
3496.985471949637
 20
2452.919524916188
 30
0.0
 11
3496.985471949637
 21
1882.835726033507
 31
0.0
  0
LINE
  5
B1
330
1F
100
AcDbEntity
  8
2-2
  6
JWW_DASHED1
 62
     3
370
    13
100
AcDbLine
 10
3496.985471949637
 20
1882.835726033507
 30
0.0
 11
3196.985471949637
 21
1882.835726033507
 31
0.0
  0
LINE
  5
B2
330
1F
100
AcDbEntity
  8
2-2
  6
JWW_CENTER1
 62
     3
370
    13
100
AcDbLine
 10
4957.348600441257
 20
2481.159748379876
 30
0.0
 11
4987.348600441257
 21
2451.159748379876
 31
0.0
  0
LINE
  5
B3
330
1F
100
AcDbEntity
  8
2-2
  6
JWW_CENTER1
 62
     3
370
    13
100
AcDbLine
 10
4987.348600441257
 20
2451.159748379876
 30
0.0
 11
4927.348600441257
 21
2421.159748379876
 31
0.0
  0
LINE
  5
B4
330
1F
100
AcDbEntity
  8
2-2
  6
JWW_CENTER1
 62
     3
370
    13
100
AcDbLine
 10
4927.348600441257
 20
2421.159748379876
 30
0.0
 11
4957.348600441257
 21
2391.159748379876
 31
0.0
  0
TEXT
  5
B5
330
1F
100
AcDbEntity
  8
2-2
  6
Continuous
 62
     7
370
     0
100
AcDbText
 10
1798.153078453804
 20
1286.930635680522
 30
0.0
 40
91.44
  1
30(ｶｳﾝﾀｰ厚)
 50
90.0
 41
1.113636363636362
  7
ＭＳ ゴシック
100
AcDbText
  0
TEXT
  5
B6
330
1F
100
AcDbEntity
  8
2-2
  6
Continuous
 62
     7
370
     0
100
AcDbText
 10
3350.086030608855
 20
1068.722206480435
 30
0.0
 40
91.44
  1
【天板溝加工　SCL=1/2】
 41
1.114130434782609
  7
ＭＳ ゴシック
100
AcDbText
  0
TEXT
  5
B7
330
1F
100
AcDbEntity
  8
2-2
  6
Continuous
 62
     7
370
     0
100
AcDbText
 10
2064.235054722182
 20
2178.059189720658
 30
0.0
 40
91.44
  1
引戸H=720
 50
90.0
 41
1.111111111111111
  7
ＭＳ ゴシック
100
AcDbText
  0
LINE
  5
B8
330
1F
100
AcDbEntity
  8
4-4
  6
Continuous
 62
     7
370
     9
100
AcDbLine
 10
-4699.34378830521
 20
-2453.968597061558
 30
0.0
 11
3963.315286878625
 21
-2453.968597061558
 31
0.0
  0
TEXT
  5
B9
330
1F
100
AcDbEntity
  8
4-4
  6
Continuous
 62
     7
370
     0
100
AcDbText
 10
-554.5245325945178
 20
-2437.535498543999
 30
0.0
 40
68.58
  1
▼ＦＬ
 41
1.111111111111111
  7
ＭＳ ゴシック
100
AcDbText
  0
LINE
  5
BA
330
1F
100
AcDbEntity
  8
4-4
  6
Continuous
 62
     4
370
     5
100
AcDbLine
 10
446.3596221529538
 20
258.0314029384425
 30
0.0
 11
446.3596221529538
 21
-1901.968597061558
 31
0.0
  0
LWPOLYLINE
  5
BB
330
1F
100
AcDbEntity
  8
4-4
  6
Continuous
 62
     4
370
     5
100
AcDbPolyline
 90
        4
 70
     1
 43
6.0
 10
449.3596221529538
 20
258.0314029384425
 42
0.4142135623731
 10
446.3596221529538
 20
261.0314029384425
 42
0.4142135623731
 10
443.3596221529538
 20
258.0314029384425
 42
0.4142135623731
 10
446.3596221529538
 20
255.0314029384425
 42
0.4142135623731
  0
LWPOLYLINE
  5
BC
330
1F
100
AcDbEntity
  8
4-4
  6
Continuous
 62
     4
370
     5
100
AcDbPolyline
 90
        4
 70
     1
 43
6.0
 10
449.3596221529538
 20
-1901.968597061558
 42
0.4142135623731
 10
446.3596221529538
 20
-1898.968597061558
 42
0.4142135623731
 10
443.3596221529538
 20
-1901.968597061558
 42
0.4142135623731
 10
446.3596221529538
 20
-1904.968597061558
 42
0.4142135623731
  0
TEXT
  5
BD
330
1F
100
AcDbEntity
  8
4-4
  6
Continuous
 62
     7
370
     0
100
AcDbText
 10
414.4396221529537
 20
-919.4685970615575
 30
0.0
 40
91.44
  1
720(引戸H）
 50
90.0
 41
1.102272727272727
  7
ＭＳ ゴシック
100
AcDbText
  0
LINE
  5
BE
330
1F
100
AcDbEntity
  8
4-4
  6
Continuous
 62
     7
370
     9
100
AcDbLine
 10
-1763.162121385199
 20
258.0314029384425
 30
0.0
 11
-1763.162121385199
 21
-1901.968597061558
 31
0.0
  0
LINE
  5
BF
330
1F
100
AcDbEntity
  8
4-A
  6
Continuous
 62
     7
370
     9
100
AcDbLine
 10
-1913.162121385199
 20
258.0314029384425
 30
0.0
 11
-1913.162121385199
 21
-1901.968597061558
 31
0.0
  0
LINE
  5
C0
330
1F
100
AcDbEntity
  8
4-1
  6
JWW_CENTER1
 62
     3
370
    13
100
AcDbLine
 10
-1838.162121385199
 20
457.5418994413409
 30
0.0
 11
-1838.162121385199
 21
-2064.804469273743
 31
0.0
  0
TEXT
  5
C1
330
1F
100
AcDbEntity
  8
4-4
  6
Continuous
 62
     7
370
     0
100
AcDbText
 10
-2100.330739655497
 20
-2191.398232742093
 30
0.0
 40
91.44
  1
←引戸→
 41
1.09375
  7
ＭＳ ゴシック
100
AcDbText
  0
LWPOLYLINE
  5
C2
330
1F
100
AcDbEntity
  8
4-4
  6
Continuous
 62
     4
370
     5
100
AcDbPolyline
 90
        4
 70
     1
 43
6.0
 10
-1910.162121385199
 20
703.9106145251396
 42
0.4142135623731
 10
-1913.162121385199
 20
706.9106145251396
 42
0.4142135623731
 10
-1916.162121385199
 20
703.9106145251396
 42
0.4142135623731
 10
-1913.162121385199
 20
700.9106145251396
 42
0.4142135623731
  0
LINE
  5
C3
330
1F
100
AcDbEntity
  8
4-0
  6
JWW_HOJO
 62
     3
370
    13
100
AcDbLine
 10
-1913.162121385199
 20
703.9106145251396
 30
0.0
 11
-1913.162121385199
 21
492.7374301675978
 31
0.0
  0
LINE
  5
C4
330
1F
100
AcDbEntity
  8
4-4
  6
Continuous
 62
     7
370
     9
100
AcDbLine
 10
-1913.162121385199
 20
258.0314029384425
 30
0.0
 11
-1913.162121385199
 21
-1901.968597061558
 31
0.0
  0
LINE
  5
C5
330
1F
100
AcDbEntity
  8
4-A
  6
Continuous
 62
     7
370
     9
100
AcDbLine
 10
-1763.162121385199
 20
258.0314029384425
 30
0.0
 11
-1763.162121385199
 21
-1901.968597061558
 31
0.0
  0
LINE
  5
C6
330
1F
100
AcDbEntity
  8
4-4
  6
Continuous
 62
     4
370
     5
100
AcDbLine
 10
-4699.34378830521
 20
264.031402938443
 30
0.0
 11
-4699.34378830521
 21
-1910.968597061558
 31
0.0
  0
LINE
  5
C7
330
1F
100
AcDbEntity
  8
4-4
  6
Continuous
 62
     4
370
     5
100
AcDbLine
 10
-4699.34378830521
 20
-2003.968597061558
 30
0.0
 11
-4699.34378830521
 21
-2453.968597061558
 31
0.0
  0
LWPOLYLINE
  5
C8
330
1F
100
AcDbEntity
  8
4-4
  6
Continuous
 62
     4
370
     5
100
AcDbPolyline
 90
        4
 70
     1
 43
6.0
 10
-4696.34378830521
 20
-2453.968597061558
 42
0.4142135623731
 10
-4699.34378830521
 20
-2450.968597061558
 42
0.4142135623731
 10
-4702.34378830521
 20
-2453.968597061558
 42
0.4142135623731
 10
-4699.34378830521
 20
-2456.968597061557
 42
0.4142135623731
  0
TEXT
  5
C9
330
1F
100
AcDbEntity
  8
4-4
  6
Continuous
 62
     7
370
     0
100
AcDbText
 10
-4731.26378830521
 20
-2326.468597061558
 30
0.0
 40
91.44
  1
150
 50
90.0
 41
1.083333333333333
  7
ＭＳ ゴシック
100
AcDbText
  0
TEXT
  5
CA
330
1F
100
AcDbEntity
  8
4-4
  6
Continuous
 62
     7
370
     0
100
AcDbText
 10
-4803.732991532424
 20
145.6824317807346
 30
0.0
 40
91.44
  1
2
 50
90.0
  7
ＭＳ ゴシック
100
AcDbText
  0
TEXT
  5
CB
330
1F
100
AcDbEntity
  8
4-4
  6
Continuous
 62
     7
370
     0
100
AcDbText
 10
-4818.097273886883
 20
-1858.134956666414
 30
0.0
 40
91.44
  1
3
 50
90.0
  7
ＭＳ ゴシック
100
AcDbText
  0
LINE
  5
CC
330
1F
100
AcDbEntity
  8
4-4
  6
Continuous
 62
     3
370
    13
100
AcDbLine
 10
-4780.110015125344
 20
180.8816307571607
 30
0.0
 11
-4686.201722238659
 21
266.3622563335011
 31
0.0
  0
LINE
  5
CD
330
1F
100
AcDbEntity
  8
4-4
  6
Continuous
 62
     3
370
    13
100
AcDbLine
 10
-4797.59848663831
 20
-1842.420505725693
 30
0.0
 11
-4682.490627062531
 21
-1908.927269036144
 31
0.0
  0
LINE
  5
CE
330
1F
100
AcDbEntity
  8
4-4
  6
Continuous
 62
     4
370
     5
100
AcDbLine
 10
-4945.615316600502
 20
360.0314029384418
 30
0.0
 11
-4945.615316600502
 21
-2003.968597061558
 31
0.0
  0
LINE
  5
CF
330
1F
100
AcDbEntity
  8
4-4
  6
Continuous
 62
     4
370
     5
100
AcDbLine
 10
-4699.34378830521
 20
354.0314029384422
 30
0.0
 11
-4699.34378830521
 21
264.0314029384422
 31
0.0
  0
LWPOLYLINE
  5
D0
330
1F
100
AcDbEntity
  8
4-4
  6
Continuous
 62
     4
370
     5
100
AcDbPolyline
 90
        4
 70
     1
 43
6.0
 10
-4696.34378830521
 20
354.0314029384422
 42
0.4142135623731
 10
-4699.34378830521
 20
357.0314029384422
 42
0.4142135623731
 10
-4702.34378830521
 20
354.0314029384422
 42
0.4142135623731
 10
-4699.34378830521
 20
351.0314029384422
 42
0.4142135623731
  0
LWPOLYLINE
  5
D1
330
1F
100
AcDbEntity
  8
4-4
  6
Continuous
 62
     4
370
     5
100
AcDbPolyline
 90
        4
 70
     1
 43
6.0
 10
-4696.34378830521
 20
264.0314029384422
 42
0.4142135623731
 10
-4699.34378830521
 20
267.0314029384422
 42
0.4142135623731
 10
-4702.34378830521
 20
264.0314029384422
 42
0.4142135623731
 10
-4699.34378830521
 20
261.0314029384422
 42
0.4142135623731
  0
LINE
  5
D2
330
1F
100
AcDbEntity
  8
4-4
  6
Continuous
 62
     7
370
     9
100
AcDbLine
 10
-4699.34378830521
 20
354.0314029384422
 30
0.0
 11
-4402.617806793382
 21
354.0314029384422
 31
0.0
  0
LWPOLYLINE
  5
D3
330
1F
100
AcDbEntity
  8
4-4
  6
Continuous
 62
     4
370
     5
100
AcDbPolyline
 90
        4
 70
     1
 43
6.0
 10
-4696.34378830521
 20
258.0314029384425
 42
0.4142135623731
 10
-4699.34378830521
 20
261.0314029384425
 42
0.4142135623731
 10
-4702.34378830521
 20
258.0314029384425
 42
0.4142135623731
 10
-4699.34378830521
 20
255.0314029384425
 42
0.4142135623731
  0
LWPOLYLINE
  5
D4
330
1F
100
AcDbEntity
  8
4-4
  6
Continuous
 62
     4
370
     5
100
AcDbPolyline
 90
        4
 70
     1
 43
6.0
 10
-4942.615316600502
 20
354.0314029384422
 42
0.4142135623731
 10
-4945.615316600502
 20
357.0314029384422
 42
0.4142135623731
 10
-4948.615316600502
 20
354.0314029384422
 42
0.4142135623731
 10
-4945.615316600502
 20
351.0314029384422
 42
0.4142135623731
  0
TEXT
  5
D5
330
1F
100
AcDbEntity
  8
4-4
  6
Continuous
 62
     7
370
     0
100
AcDbText
 10
-4732.443833213314
 20
221.4928997222316
 30
0.0
 40
91.44
  1
30
 50
90.0
 41
1.0625
  7
ＭＳ ゴシック
100
AcDbText
  0
LWPOLYLINE
  5
D6
330
1F
100
AcDbEntity
  8
4-4
  6
Continuous
 62
     4
370
     5
100
AcDbPolyline
 90
        4
 70
     1
 43
6.0
 10
-4696.34378830521
 20
-1901.968597061557
 42
0.4142135623731
 10
-4699.34378830521
 20
-1898.968597061557
 42
0.4142135623731
 10
-4702.34378830521
 20
-1901.968597061557
 42
0.4142135623731
 10
-4699.34378830521
 20
-1904.968597061558
 42
0.4142135623731
  0
LWPOLYLINE
  5
D7
330
1F
100
AcDbEntity
  8
4-4
  6
Continuous
 62
     4
370
     5
100
AcDbPolyline
 90
        4
 70
     1
 43
6.0
 10
-4696.34378830521
 20
-1910.968597061558
 42
0.4142135623731
 10
-4699.34378830521
 20
-1907.968597061558
 42
0.4142135623731
 10
-4702.34378830521
 20
-1910.968597061558
 42
0.4142135623731
 10
-4699.34378830521
 20
-1913.968597061558
 42
0.4142135623731
  0
LINE
  5
D8
330
1F
100
AcDbEntity
  8
4-4
  6
Continuous
 62
     4
370
     5
100
AcDbLine
 10
-4699.34378830521
 20
-1910.968597061558
 30
0.0
 11
-4699.34378830521
 21
-2000.968597061558
 31
0.0
  0
LWPOLYLINE
  5
D9
330
1F
100
AcDbEntity
  8
4-4
  6
Continuous
 62
     4
370
     5
100
AcDbPolyline
 90
        4
 70
     1
 43
6.0
 10
-4696.34378830521
 20
-2000.968597061558
 42
0.4142135623731
 10
-4699.34378830521
 20
-1997.968597061558
 42
0.4142135623731
 10
-4702.34378830521
 20
-2000.968597061558
 42
0.4142135623731
 10
-4699.34378830521
 20
-2003.968597061558
 42
0.4142135623731
  0
LWPOLYLINE
  5
DA
330
1F
100
AcDbEntity
  8
4-4
  6
Continuous
 62
     4
370
     5
100
AcDbPolyline
 90
        4
 70
     1
 43
6.0
 10
-4942.615316600502
 20
-2000.968597061558
 42
0.4142135623731
 10
-4945.615316600502
 20
-1997.968597061558
 42
0.4142135623731
 10
-4948.615316600502
 20
-2000.968597061558
 42
0.4142135623731
 10
-4945.615316600502
 20
-2003.968597061558
 42
0.4142135623731
  0
TEXT
  5
DB
330
1F
100
AcDbEntity
  8
4-4
  6
Continuous
 62
     7
370
     0
100
AcDbText
 10
-4741.685117817415
 20
-1998.459068069037
 30
0.0
 40
91.44
  1
30
 50
90.0
 41
1.0625
  7
ＭＳ ゴシック
100
AcDbText
  0
LINE
  5
DC
330
1F
100
AcDbEntity
  8
4-4
  6
Continuous
 62
     7
370
     9
100
AcDbLine
 10
-4699.34378830521
 20
258.0314029384425
 30
0.0
 11
-4402.617806793382
 21
258.0314029384425
 31
0.0
  0
LINE
  5
DD
330
1F
100
AcDbEntity
  8
4-4
  6
Continuous
 62
     7
370
     9
100
AcDbLine
 10
-4699.34378830521
 20
-1901.968597061557
 30
0.0
 11
-4402.617806793382
 21
-1901.968597061557
 31
0.0
  0
TEXT
  5
DE
330
1F
100
AcDbEntity
  8
4-4
  6
Continuous
 62
     7
370
     0
100
AcDbText
 10
-4731.26378830521
 20
-919.4685970615575
 30
0.0
 40
91.44
  1
720
 50
90.0
 41
1.083333333333333
  7
ＭＳ ゴシック
100
AcDbText
  0
TEXT
  5
DF
330
1F
100
AcDbEntity
  8
4-4
  6
Continuous
 62
     7
370
     0
100
AcDbText
 10
-4977.535316600502
 20
-920.9685970615574
 30
0.0
 40
91.44
  1
785(ﾎﾞｯｸｽH）
 50
90.0
 41
1.104166666666667
  7
ＭＳ ゴシック
100
AcDbText
  0
LINE
  5
E0
330
1F
100
AcDbEntity
  8
4-C
  6
Continuous
 62
     3
370
    13
100
AcDbLine
 10
-1913.162121385199
 20
258.0314029384425
 30
0.0
 11
-1913.162121385199
 21
-1901.968597061558
 31
0.0
  0
LINE
  5
E1
330
1F
100
AcDbEntity
  8
4-C
  6
Continuous
 62
     3
370
    13
100
AcDbLine
 10
-1763.162121385199
 20
258.0314029384425
 30
0.0
 11
-1763.162121385199
 21
-1901.968597061558
 31
0.0
  0
LINE
  5
E2
330
1F
100
AcDbEntity
  8
4-C
  6
Continuous
 62
     4
370
     5
100
AcDbLine
 10
2090.881589907186
 20
3308.00332379887
 30
0.0
 11
2279.285839627104
 21
3308.00332379887
 31
0.0
  0
LINE
  5
E3
330
1F
100
AcDbEntity
  8
4-C
  6
Continuous
 62
     4
370
     5
100
AcDbLine
 10
2090.881589907186
 20
3128.00332379887
 30
0.0
 11
2279.285839627104
 21
3128.00332379887
 31
0.0
  0
LINE
  5
E4
330
1F
100
AcDbEntity
  8
4-C
  6
Continuous
 62
     4
370
     5
100
AcDbLine
 10
2090.881589907186
 20
3098.00332379887
 30
0.0
 11
2279.285839627104
 21
3098.00332379887
 31
0.0
  0
LINE
  5
E5
330
1F
100
AcDbEntity
  8
2-2
  6
Continuous
 62
     4
370
     5
100
AcDbLine
 10
3871.985471949637
 20
2916.944341533335
 30
0.0
 11
3691.985471949637
 21
2916.944341533335
 31
0.0
  0
LWPOLYLINE
  5
E6
330
1F
100
AcDbEntity
  8
2-2
  6
Continuous
 62
     4
370
     5
100
AcDbPolyline
 90
        4
 70
     1
 43
6.0
 10
3874.985471949637
 20
2916.944341533335
 42
0.4142135623731
 10
3871.985471949637
 20
2919.944341533335
 42
0.4142135623731
 10
3868.985471949637
 20
2916.944341533335
 42
0.4142135623731
 10
3871.985471949637
 20
2913.944341533336
 42
0.4142135623731
  0
LWPOLYLINE
  5
E7
330
1F
100
AcDbEntity
  8
2-2
  6
Continuous
 62
     4
370
     5
100
AcDbPolyline
 90
        4
 70
     1
 43
6.0
 10
3694.985471949637
 20
2916.944341533335
 42
0.4142135623731
 10
3691.985471949637
 20
2919.944341533335
 42
0.4142135623731
 10
3688.985471949637
 20
2916.944341533335
 42
0.4142135623731
 10
3691.985471949637
 20
2913.944341533336
 42
0.4142135623731
  0
LINE
  5
E8
330
1F
100
AcDbEntity
  8
2-2
  6
Continuous
 62
     4
370
     5
100
AcDbLine
 10
3871.985471949637
 20
2916.944341533335
 30
0.0
 11
3871.985471949637
 21
3032.210099407573
 31
0.0
  0
LINE
  5
E9
330
1F
100
AcDbEntity
  8
2-2
  6
Continuous
 62
     4
370
     5
100
AcDbLine
 10
3691.985471949637
 20
2916.944341533335
 30
0.0
 11
3691.985471949637
 21
3032.210099407573
 31
0.0
  0
TEXT
  5
EA
330
1F
100
AcDbEntity
  8
2-2
  6
Continuous
 62
     7
370
     0
100
AcDbText
 10
3718.235471949637
 20
2948.864341533335
 30
0.0
 40
91.44
  1
12
 41
1.0625
  7
ＭＳ ゴシック
100
AcDbText
  0
LINE
  5
EB
330
1F
100
AcDbEntity
  8
2-2
  6
Continuous
 62
     4
370
     5
100
AcDbLine
 10
3691.985471949637
 20
2916.944341533335
 30
0.0
 11
3496.985471949637
 21
2916.944341533335
 31
0.0
  0
LWPOLYLINE
  5
EC
330
1F
100
AcDbEntity
  8
2-2
  6
Continuous
 62
     4
370
     5
100
AcDbPolyline
 90
        4
 70
     1
 43
6.0
 10
3499.985471949637
 20
2916.944341533335
 42
0.4142135623731
 10
3496.985471949637
 20
2919.944341533335
 42
0.4142135623731
 10
3493.985471949637
 20
2916.944341533335
 42
0.4142135623731
 10
3496.985471949637
 20
2913.944341533336
 42
0.4142135623731
  0
LINE
  5
ED
330
1F
100
AcDbEntity
  8
2-2
  6
Continuous
 62
     4
370
     5
100
AcDbLine
 10
3496.985471949637
 20
2916.944341533335
 30
0.0
 11
3496.985471949637
 21
3032.210099407573
 31
0.0
  0
TEXT
  5
EE
330
1F
100
AcDbEntity
  8
2-2
  6
Continuous
 62
     7
370
     0
100
AcDbText
 10
3530.735471949637
 20
2948.864341533335
 30
0.0
 40
91.44
  1
13
 41
1.0625
  7
ＭＳ ゴシック
100
AcDbText
  0
LINE
  5
EF
330
1F
100
AcDbEntity
  8
2-2
  6
Continuous
 62
     4
370
     5
100
AcDbLine
 10
3496.985471949637
 20
2916.944341533335
 30
0.0
 11
3316.985471949637
 21
2916.944341533335
 31
0.0
  0
LWPOLYLINE
  5
F0
330
1F
100
AcDbEntity
  8
2-2
  6
Continuous
 62
     4
370
     5
100
AcDbPolyline
 90
        4
 70
     1
 43
6.0
 10
3319.985471949637
 20
2916.944341533335
 42
0.4142135623731
 10
3316.985471949637
 20
2919.944341533335
 42
0.4142135623731
 10
3313.985471949637
 20
2916.944341533335
 42
0.4142135623731
 10
3316.985471949637
 20
2913.944341533336
 42
0.4142135623731
  0
TEXT
  5
F1
330
1F
100
AcDbEntity
  8
2-2
  6
Continuous
 62
     7
370
     0
100
AcDbText
 10
3343.235471949637
 20
2948.864341533335
 30
0.0
 40
91.44
  1
12
 41
1.0625
  7
ＭＳ ゴシック
100
AcDbText
  0
LINE
  5
F2
330
1F
100
AcDbEntity
  8
2-2
  6
Continuous
 62
     4
370
     5
100
AcDbLine
 10
3316.985471949637
 20
2916.944341533335
 30
0.0
 11
3166.985471949637
 21
2916.944341533335
 31
0.0
  0
LWPOLYLINE
  5
F3
330
1F
100
AcDbEntity
  8
2-2
  6
Continuous
 62
     4
370
     5
100
AcDbPolyline
 90
        4
 70
     1
 43
6.0
 10
3169.985471949637
 20
2916.944341533335
 42
0.4142135623731
 10
3166.985471949637
 20
2919.944341533335
 42
0.4142135623731
 10
3163.985471949637
 20
2916.944341533335
 42
0.4142135623731
 10
3166.985471949637
 20
2913.944341533336
 42
0.4142135623731
  0
TEXT
  5
F4
330
1F
100
AcDbEntity
  8
2-2
  6
Continuous
 62
     7
370
     0
100
AcDbText
 10
3178.235471949637
 20
2948.864341533335
 30
0.0
 40
91.44
  1
10
 41
1.0625
  7
ＭＳ ゴシック
100
AcDbText
  0
LINE
  5
F5
330
1F
100
AcDbEntity
  8
4-C
  6
Continuous
 62
     4
370
     5
100
AcDbLine
 10
3166.985471949637
 20
2916.944341533335
 30
0.0
 11
3166.985471949637
 21
3032.210099407573
 31
0.0
  0
LINE
  5
F6
330
1F
100
AcDbEntity
  8
4-C
  6
Continuous
 62
     4
370
     5
100
AcDbLine
 10
3316.985471949637
 20
2916.944341533335
 30
0.0
 11
3316.985471949637
 21
3032.210099407573
 31
0.0
  0
LWPOLYLINE
  5
F7
330
1F
100
AcDbEntity
  8
2-2
  6
Continuous
 62
     4
370
     5
100
AcDbPolyline
 90
        4
 70
     1
 43
6.0
 10
3199.985471949637
 20
2114.899971843563
 42
0.4142135623731
 10
3196.985471949637
 20
2117.899971843563
 42
0.4142135623731
 10
3193.985471949637
 20
2114.899971843563
 42
0.4142135623731
 10
3196.985471949637
 20
2111.899971843563
 42
0.4142135623731
  0
LINE
  5
F8
330
1F
100
AcDbEntity
  8
2-2
  6
Continuous
 62
     4
370
     5
100
AcDbLine
 10
3196.985471949637
 20
2114.899971843563
 30
0.0
 11
2596.985471949637
 21
2114.899971843563
 31
0.0
  0
LINE
  5
F9
330
1F
100
AcDbEntity
  8
2-2
  6
Continuous
 62
     4
370
     5
100
AcDbLine
 10
3196.985471949637
 20
2114.899971843563
 30
0.0
 11
3196.985471949637
 21
1882.835726033507
 31
0.0
  0
LINE
  5
FA
330
1F
100
AcDbEntity
  8
2-2
  6
Continuous
 62
     4
370
     5
100
AcDbLine
 10
2090.881589907186
 20
1882.835726033507
 30
0.0
 11
2090.881589907186
 21
1837.835726033507
 31
0.0
  0
LWPOLYLINE
  5
FB
330
1F
100
AcDbEntity
  8
2-2
  6
Continuous
 62
     4
370
     5
100
AcDbPolyline
 90
        4
 70
     1
 43
6.0
 10
2093.881589907186
 20
1882.835726033507
 42
0.4142135623731
 10
2090.881589907186
 20
1885.835726033507
 42
0.4142135623731
 10
2087.881589907186
 20
1882.835726033507
 42
0.4142135623731
 10
2090.881589907186
 20
1879.835726033506
 42
0.4142135623731
  0
LWPOLYLINE
  5
FC
330
1F
100
AcDbEntity
  8
2-2
  6
Continuous
 62
     4
370
     5
100
AcDbPolyline
 90
        4
 70
     1
 43
6.0
 10
2093.881589907186
 20
1837.835726033507
 42
0.4142135623731
 10
2090.881589907186
 20
1840.835726033507
 42
0.4142135623731
 10
2087.881589907186
 20
1837.835726033507
 42
0.4142135623731
 10
2090.881589907186
 20
1834.835726033506
 42
0.4142135623731
  0
LINE
  5
FD
330
1F
100
AcDbEntity
  8
2-2
  6
Continuous
 62
     4
370
     5
100
AcDbLine
 10
2090.881589907186
 20
1882.835726033507
 30
0.0
 11
2279.285839627104
 21
1882.835726033507
 31
0.0
  0
LINE
  5
FE
330
1F
100
AcDbEntity
  8
2-2
  6
Continuous
 62
     4
370
     5
100
AcDbLine
 10
1831.949892535761
 20
1837.835726033507
 30
0.0
 11
2279.285839627104
 21
1837.835726033507
 31
0.0
  0
TEXT
  5
FF
330
1F
100
AcDbEntity
  8
2-2
  6
Continuous
 62
     7
370
     0
100
AcDbText
 10
2058.961589907186
 20
1830.335726033507
 30
0.0
 40
91.44
  1
3
 50
90.0
  7
ＭＳ ゴシック
100
AcDbText
  0
LINE
  5
100
330
1F
100
AcDbEntity
  8
2-2
  6
Continuous
 62
     4
370
     5
100
AcDbLine
 10
1831.949892535761
 20
1387.835726033507
 30
0.0
 11
2279.285839627104
 21
1387.835726033507
 31
0.0
  0
LINE
  5
101
330
1F
100
AcDbEntity
  8
2-2
  6
Continuous
 62
     4
370
     5
100
AcDbLine
 10
1831.949892535761
 20
1837.835726033507
 30
0.0
 11
1831.949892535761
 21
1387.835726033507
 31
0.0
  0
LWPOLYLINE
  5
102
330
1F
100
AcDbEntity
  8
2-2
  6
Continuous
 62
     4
370
     5
100
AcDbPolyline
 90
        4
 70
     1
 43
6.0
 10
1834.949892535761
 20
1837.835726033507
 42
0.4142135623731
 10
1831.949892535761
 20
1840.835726033507
 42
0.4142135623731
 10
1828.949892535761
 20
1837.835726033507
 42
0.4142135623731
 10
1831.949892535761
 20
1834.835726033506
 42
0.4142135623731
  0
LWPOLYLINE
  5
103
330
1F
100
AcDbEntity
  8
2-2
  6
Continuous
 62
     4
370
     5
100
AcDbPolyline
 90
        4
 70
     1
 43
6.0
 10
1834.949892535761
 20
1387.835726033507
 42
0.4142135623731
 10
1831.949892535761
 20
1390.835726033507
 42
0.4142135623731
 10
1828.949892535761
 20
1387.835726033507
 42
0.4142135623731
 10
1831.949892535761
 20
1384.835726033506
 42
0.4142135623731
  0
LINE
  5
104
330
1F
100
AcDbEntity
  8
4-C
  6
Continuous
 62
     4
370
     5
100
AcDbLine
 10
446.3596221529538
 20
-1901.968597061558
 30
0.0
 11
233.0706005960765
 21
-1901.968597061558
 31
0.0
  0
LINE
  5
105
330
1F
100
AcDbEntity
  8
4-C
  6
Continuous
 62
     4
370
     5
100
AcDbLine
 10
446.3596221529538
 20
258.0314029384425
 30
0.0
 11
233.0706005960765
 21
258.0314029384425
 31
0.0
  0
LINE
  5
106
330
1F
100
AcDbEntity
  8
4-C
  6
Continuous
 62
     4
370
     5
100
AcDbLine
 10
-1913.162121385199
 20
703.9106145251396
 30
0.0
 11
-1913.162121385199
 21
492.7374301675978
 31
0.0
  0
LINE
  5
107
330
1F
100
AcDbEntity
  8
4-C
  6
Continuous
 62
     4
370
     5
100
AcDbLine
 10
-4945.615316600502
 20
354.0314029384422
 30
0.0
 11
-4402.617806793382
 21
354.0314029384422
 31
0.0
  0
LINE
  5
108
330
1F
100
AcDbEntity
  8
4-C
  6
Continuous
 62
     4
370
     5
100
AcDbLine
 10
-4699.34378830521
 20
264.0314029384422
 30
0.0
 11
-4402.617806793382
 21
264.0314029384422
 31
0.0
  0
LINE
  5
109
330
1F
100
AcDbEntity
  8
4-C
  6
Continuous
 62
     4
370
     5
100
AcDbLine
 10
-4699.34378830521
 20
258.0314029384425
 30
0.0
 11
-4402.617806793382
 21
258.0314029384425
 31
0.0
  0
LINE
  5
10A
330
1F
100
AcDbEntity
  8
4-C
  6
Continuous
 62
     4
370
     5
100
AcDbLine
 10
-4699.34378830521
 20
-1901.968597061557
 30
0.0
 11
-4402.617806793382
 21
-1901.968597061557
 31
0.0
  0
LINE
  5
10B
330
1F
100
AcDbEntity
  8
4-C
  6
Continuous
 62
     4
370
     5
100
AcDbLine
 10
-4699.34378830521
 20
-1910.968597061558
 30
0.0
 11
-4402.617806793382
 21
-1910.968597061558
 31
0.0
  0
LINE
  5
10C
330
1F
100
AcDbEntity
  8
4-C
  6
Continuous
 62
     4
370
     5
100
AcDbLine
 10
-4945.615316600502
 20
-2000.968597061558
 30
0.0
 11
-4402.617806793382
 21
-2000.968597061558
 31
0.0
  0
LINE
  5
10D
330
1F
100
AcDbEntity
  8
4-4
  6
Continuous
 62
     3
370
    13
100
AcDbLine
 10
2937.315286878624
 20
305.7678276186054
 30
0.0
 11
2973.315286878624
 21
305.7678276186054
 31
0.0
  0
LINE
  5
10E
330
1F
100
AcDbEntity
  8
4-4
  6
Continuous
 62
     3
370
    13
100
AcDbLine
 10
2937.315286878624
 20
269.7678276186066
 30
0.0
 11
2937.315286878624
 21
305.7678276186054
 31
0.0
  0
LINE
  5
10F
330
1F
100
AcDbEntity
  8
4-4
  6
Continuous
 62
     3
370
    13
100
AcDbLine
 10
2973.315286878624
 20
269.7678276186066
 30
0.0
 11
2973.315286878624
 21
305.7678276186054
 31
0.0
  0
LINE
  5
110
330
1F
100
AcDbEntity
  8
4-4
  6
Continuous
 62
     3
370
    13
100
AcDbLine
 10
2862.315286878624
 20
305.7678276186054
 30
0.0
 11
2898.315286878624
 21
305.7678276186054
 31
0.0
  0
LINE
  5
111
330
1F
100
AcDbEntity
  8
4-4
  6
Continuous
 62
     3
370
    13
100
AcDbLine
 10
2862.315286878624
 20
269.7678276186066
 30
0.0
 11
2862.315286878624
 21
305.7678276186054
 31
0.0
  0
LINE
  5
112
330
1F
100
AcDbEntity
  8
4-4
  6
Continuous
 62
     3
370
    13
100
AcDbLine
 10
2898.315286878624
 20
269.7678276186066
 30
0.0
 11
2898.315286878624
 21
305.7678276186054
 31
0.0
  0
LINE
  5
113
330
1F
100
AcDbEntity
  8
4-4
  6
Continuous
 62
     7
370
     9
100
AcDbLine
 10
2838.315286878624
 20
263.7678276186061
 30
0.0
 11
2898.315286878624
 21
263.7678276186061
 31
0.0
  0
LINE
  5
114
330
1F
100
AcDbEntity
  8
4-4
  6
Continuous
 62
     7
370
     9
100
AcDbLine
 10
2913.315286878624
 20
263.7678276186061
 30
0.0
 11
2973.315286878624
 21
263.7678276186061
 31
0.0
  0
LINE
  5
115
330
1F
100
AcDbEntity
  8
4-4
  6
Continuous
 62
     7
370
     9
100
AcDbLine
 10
2898.315286878624
 20
269.7678276186066
 30
0.0
 11
2937.315286878624
 21
269.7678276186066
 31
0.0
  0
LINE
  5
116
330
1F
100
AcDbEntity
  8
4-4
  6
Continuous
 62
     7
370
     9
100
AcDbLine
 10
2973.315286878624
 20
263.7678276186061
 30
0.0
 11
2973.315286878624
 21
-1905.232172381395
 31
0.0
  0
LINE
  5
117
330
1F
100
AcDbEntity
  8
4-4
  6
Continuous
 62
     7
370
     9
100
AcDbLine
 10
2913.315286878624
 20
263.7678276186061
 30
0.0
 11
2913.315286878624
 21
-1905.232172381395
 31
0.0
  0
LINE
  5
118
330
1F
100
AcDbEntity
  8
4-4
  6
Continuous
 62
     7
370
     9
100
AcDbLine
 10
2898.315286878624
 20
263.7678276186061
 30
0.0
 11
2898.315286878624
 21
-1905.232172381395
 31
0.0
  0
LINE
  5
119
330
1F
100
AcDbEntity
  8
4-4
  6
Continuous
 62
     7
370
     9
100
AcDbLine
 10
2838.315286878624
 20
263.7678276186061
 30
0.0
 11
2838.315286878624
 21
-1905.232172381395
 31
0.0
  0
LINE
  5
11A
330
1F
100
AcDbEntity
  8
4-4
  6
Continuous
 62
     7
370
     9
100
AcDbLine
 10
2838.315286878624
 20
-1905.232172381395
 30
0.0
 11
2898.315286878624
 21
-1905.232172381395
 31
0.0
  0
LINE
  5
11B
330
1F
100
AcDbEntity
  8
4-4
  6
Continuous
 62
     7
370
     9
100
AcDbLine
 10
2913.315286878624
 20
-1905.232172381395
 30
0.0
 11
2973.315286878624
 21
-1905.232172381395
 31
0.0
  0
LINE
  5
11C
330
1F
100
AcDbEntity
  8
4-4
  6
Continuous
 62
     7
370
     9
100
AcDbLine
 10
2988.315286878624
 20
269.7678276186066
 30
0.0
 11
2988.315286878624
 21
-1914.232172381395
 31
0.0
  0
LINE
  5
11D
330
1F
100
AcDbEntity
  8
4-4
  6
Continuous
 62
     7
370
     9
100
AcDbLine
 10
2973.315286878624
 20
269.7678276186066
 30
0.0
 11
3963.315286878625
 21
269.7678276186066
 31
0.0
  0
LINE
  5
11E
330
1F
100
AcDbEntity
  8
4-C
  6
Continuous
 62
     7
370
     9
100
AcDbLine
 10
2718.315286878624
 20
-1914.232172381395
 30
0.0
 11
2718.315286878624
 21
-2004.232172381394
 31
0.0
  0
LINE
  5
11F
330
1F
100
AcDbEntity
  8
4-4
  6
Continuous
 62
     7
370
     9
100
AcDbLine
 10
2718.315286878624
 20
359.7678276186066
 30
0.0
 11
3963.315286878625
 21
359.7678276186066
 31
0.0
  0
LINE
  5
120
330
1F
100
AcDbEntity
  8
4-C
  6
Continuous
 62
     7
370
     9
100
AcDbLine
 10
2718.315286878624
 20
269.7678276186066
 30
0.0
 11
2718.315286878624
 21
359.7678276186066
 31
0.0
  0
LINE
  5
121
330
1F
100
AcDbEntity
  8
4-4
  6
Continuous
 62
     7
370
     9
100
AcDbLine
 10
2718.315286878624
 20
269.7678276186066
 30
0.0
 11
2862.315286878624
 21
269.7678276186066
 31
0.0
  0
LINE
  5
122
330
1F
100
AcDbEntity
  8
4-C
  6
Continuous
 62
     4
370
     5
100
AcDbLine
 10
2718.315286878624
 20
-2682.569832402235
 30
0.0
 11
2838.315286878624
 21
-2682.569832402235
 31
0.0
  0
LWPOLYLINE
  5
123
330
1F
100
AcDbEntity
  8
4-C
  6
Continuous
 62
     4
370
     5
100
AcDbPolyline
 90
        4
 70
     1
 43
6.0
 10
2721.315286878624
 20
-2682.569832402235
 42
0.4142135623731
 10
2718.315286878624
 20
-2679.569832402235
 42
0.4142135623731
 10
2715.315286878624
 20
-2682.569832402235
 42
0.4142135623731
 10
2718.315286878624
 20
-2685.569832402235
 42
0.4142135623731
  0
LWPOLYLINE
  5
124
330
1F
100
AcDbEntity
  8
4-C
  6
Continuous
 62
     4
370
     5
100
AcDbPolyline
 90
        4
 70
     1
 43
6.0
 10
2841.315286878624
 20
-2682.569832402235
 42
0.4142135623731
 10
2838.315286878624
 20
-2679.569832402235
 42
0.4142135623731
 10
2835.315286878624
 20
-2682.569832402235
 42
0.4142135623731
 10
2838.315286878624
 20
-2685.569832402235
 42
0.4142135623731
  0
TEXT
  5
125
330
1F
100
AcDbEntity
  8
4-C
  6
Continuous
 62
     7
370
   211
100
AcDbText
 10
2714.565286878624
 20
-2650.649832402235
 30
0.0
 40
91.44
  1
40
 41
1.0625
  7
ＭＳ ゴシック
100
AcDbText
  0
LINE
  5
126
330
1F
100
AcDbEntity
  8
4-C
  6
Continuous
 62
     4
370
     5
100
AcDbLine
 10
2838.315286878624
 20
-2682.569832402235
 30
0.0
 11
2898.315286878624
 21
-2682.569832402235
 31
0.0
  0
LWPOLYLINE
  5
127
330
1F
100
AcDbEntity
  8
4-C
  6
Continuous
 62
     4
370
     5
100
AcDbPolyline
 90
        4
 70
     1
 43
6.0
 10
2901.315286878624
 20
-2682.569832402235
 42
0.4142135623731
 10
2898.315286878624
 20
-2679.569832402235
 42
0.4142135623731
 10
2895.315286878624
 20
-2682.569832402235
 42
0.4142135623731
 10
2898.315286878624
 20
-2685.569832402235
 42
0.4142135623731
  0
LINE
  5
128
330
1F
100
AcDbEntity
  8
4-C
  6
Continuous
 62
     4
370
     5
100
AcDbLine
 10
2898.315286878624
 20
-2682.569832402235
 30
0.0
 11
2913.315286878624
 21
-2682.569832402235
 31
0.0
  0
LWPOLYLINE
  5
129
330
1F
100
AcDbEntity
  8
4-C
  6
Continuous
 62
     4
370
     5
100
AcDbPolyline
 90
        4
 70
     1
 43
6.0
 10
2916.315286878624
 20
-2682.569832402235
 42
0.4142135623731
 10
2913.315286878624
 20
-2679.569832402235
 42
0.4142135623731
 10
2910.315286878624
 20
-2682.569832402235
 42
0.4142135623731
 10
2913.315286878624
 20
-2685.569832402235
 42
0.4142135623731
  0
LINE
  5
12A
330
1F
100
AcDbEntity
  8
4-C
  6
Continuous
 62
     4
370
     5
100
AcDbLine
 10
2913.315286878624
 20
-2682.569832402235
 30
0.0
 11
2973.315286878624
 21
-2682.569832402235
 31
0.0
  0
LWPOLYLINE
  5
12B
330
1F
100
AcDbEntity
  8
4-C
  6
Continuous
 62
     4
370
     5
100
AcDbPolyline
 90
        4
 70
     1
 43
6.0
 10
2976.315286878624
 20
-2682.569832402235
 42
0.4142135623731
 10
2973.315286878624
 20
-2679.569832402235
 42
0.4142135623731
 10
2970.315286878624
 20
-2682.569832402235
 42
0.4142135623731
 10
2973.315286878624
 20
-2685.569832402235
 42
0.4142135623731
  0
LINE
  5
12C
330
1F
100
AcDbEntity
  8
4-C
  6
Continuous
 62
     4
370
     5
100
AcDbLine
 10
2973.315286878624
 20
-2682.569832402235
 30
0.0
 11
2988.315286878624
 21
-2682.569832402235
 31
0.0
  0
LWPOLYLINE
  5
12D
330
1F
100
AcDbEntity
  8
4-C
  6
Continuous
 62
     4
370
     5
100
AcDbPolyline
 90
        4
 70
     1
 43
6.0
 10
2991.315286878624
 20
-2682.569832402235
 42
0.4142135623731
 10
2988.315286878624
 20
-2679.569832402235
 42
0.4142135623731
 10
2985.315286878624
 20
-2682.569832402235
 42
0.4142135623731
 10
2988.315286878624
 20
-2685.569832402235
 42
0.4142135623731
  0
LINE
  5
12E
330
1F
100
AcDbEntity
  8
4-C
  6
Continuous
 62
     4
370
     5
100
AcDbLine
 10
2988.315286878624
 20
-2682.569832402235
 30
0.0
 11
3963.315286878625
 21
-2682.569832402235
 31
0.0
  0
LWPOLYLINE
  5
12F
330
1F
100
AcDbEntity
  8
4-C
  6
Continuous
 62
     4
370
     5
100
AcDbPolyline
 90
        4
 70
     1
 43
6.0
 10
3966.315286878625
 20
-2682.569832402235
 42
0.4142135623731
 10
3963.315286878625
 20
-2679.569832402235
 42
0.4142135623731
 10
3960.315286878625
 20
-2682.569832402235
 42
0.4142135623731
 10
3963.315286878625
 20
-2685.569832402235
 42
0.4142135623731
  0
LINE
  5
130
330
1F
100
AcDbEntity
  8
4-C
  6
Continuous
 62
     7
370
     9
100
AcDbLine
 10
3963.315286878625
 20
-2682.569832402235
 30
0.0
 11
3963.315286878625
 21
-2530.055865921789
 31
0.0
  0
TEXT
  5
131
330
1F
100
AcDbEntity
  8
4-C
  6
Continuous
 62
     7
370
   211
100
AcDbText
 10
3378.315286878624
 20
-2650.649832402235
 30
0.0
 40
91.44
  1
325
 41
1.083333333333333
  7
ＭＳ ゴシック
100
AcDbText
  0
TEXT
  5
132
330
1F
100
AcDbEntity
  8
4-C
  6
Continuous
 62
     7
370
   211
100
AcDbText
 10
3025.494683299885
 20
-2649.067869252533
 30
0.0
 40
91.44
  1
5
  7
ＭＳ ゴシック
100
AcDbText
  0
TEXT
  5
133
330
1F
100
AcDbEntity
  8
4-C
  6
Continuous
 62
     7
370
   211
100
AcDbText
 10
2875.815286878624
 20
-2650.649832402235
 30
0.0
 40
91.44
  1
5
  7
ＭＳ ゴシック
100
AcDbText
  0
TEXT
  5
134
330
1F
100
AcDbEntity
  8
4-C
  6
Continuous
 62
     7
370
   211
100
AcDbText
 10
2800.503734428706
 20
-2786.709390914901
 30
0.0
 40
91.44
  1
20
 41
1.0625
  7
ＭＳ ゴシック
100
AcDbText
  0
TEXT
  5
135
330
1F
100
AcDbEntity
  8
4-C
  6
Continuous
 62
     7
370
   211
100
AcDbText
 10
2895.794018656499
 20
-2887.293579822016
 30
0.0
 40
91.44
  1
20
 41
1.0625
  7
ＭＳ ゴシック
100
AcDbText
  0
LINE
  5
136
330
1F
100
AcDbEntity
  8
4-C
  6
Continuous
 62
     4
370
     5
100
AcDbLine
 10
2718.315286878624
 20
-3022.793296089385
 30
0.0
 11
3963.315286878625
 21
-3022.793296089385
 31
0.0
  0
LWPOLYLINE
  5
137
330
1F
100
AcDbEntity
  8
4-C
  6
Continuous
 62
     4
370
     5
100
AcDbPolyline
 90
        4
 70
     1
 43
6.0
 10
2721.315286878624
 20
-3022.793296089385
 42
0.4142135623731
 10
2718.315286878624
 20
-3019.793296089385
 42
0.4142135623731
 10
2715.315286878624
 20
-3022.793296089385
 42
0.4142135623731
 10
2718.315286878624
 20
-3025.793296089385
 42
0.4142135623731
  0
LWPOLYLINE
  5
138
330
1F
100
AcDbEntity
  8
4-C
  6
Continuous
 62
     4
370
     5
100
AcDbPolyline
 90
        4
 70
     1
 43
6.0
 10
3966.315286878625
 20
-3022.793296089385
 42
0.4142135623731
 10
3963.315286878625
 20
-3019.793296089385
 42
0.4142135623731
 10
3960.315286878625
 20
-3022.793296089385
 42
0.4142135623731
 10
3963.315286878625
 20
-3025.793296089385
 42
0.4142135623731
  0
LINE
  5
139
330
1F
100
AcDbEntity
  8
4-C
  6
Continuous
 62
     7
370
     9
100
AcDbLine
 10
3963.315286878625
 20
-3022.793296089385
 30
0.0
 11
3963.315286878625
 21
-2682.569832402235
 31
0.0
  0
TEXT
  5
13A
330
1F
100
AcDbEntity
  8
4-4
  6
Continuous
 62
     7
370
     0
100
AcDbText
 10
2874.432758028776
 20
-3002.139954433382
 30
0.0
 40
91.44
  1
415(ｶｳﾝﾀｰ奥行)
 41
1.116071428571429
  7
ＭＳ ゴシック
100
AcDbText
  0
LINE
  5
13B
330
1F
100
AcDbEntity
  8
4-4
  6
Continuous
 62
     7
370
     9
100
AcDbLine
 10
2718.315286878624
 20
-1914.232172381395
 30
0.0
 11
3963.315286878625
 21
-1914.232172381395
 31
0.0
  0
LINE
  5
13C
330
1F
100
AcDbEntity
  8
4-4
  6
Continuous
 62
     7
370
     9
100
AcDbLine
 10
2718.315286878624
 20
-2004.232172381394
 30
0.0
 11
3963.315286878625
 21
-2004.232172381394
 31
0.0
  0
LINE
  5
13D
330
1F
100
AcDbEntity
  8
4-C
  6
Continuous
 62
     7
370
     9
100
AcDbLine
 10
2988.315286878624
 20
-2003.968597061558
 30
0.0
 11
2988.315286878624
 21
-2453.968597061558
 31
0.0
  0
LINE
  5
13E
330
1F
100
AcDbEntity
  8
4-C
  6
Continuous
 62
     7
370
     9
100
AcDbLine
 10
-3641.1621213852
 20
354.0314029384422
 30
0.0
 11
-3641.1621213852
 21
264.031402938443
 31
0.0
  0
LINE
  5
13F
330
1F
100
AcDbEntity
  8
4-4
  6
Continuous
 62
     7
370
     9
100
AcDbLine
 10
-3641.1621213852
 20
264.031402938443
 30
0.0
 11
-35.16212138519806
 21
264.0314029384422
 31
0.0
  0
LINE
  5
140
330
1F
100
AcDbEntity
  8
4-A
  6
Continuous
 62
     3
370
    13
100
AcDbLine
 10
-3341.162121385199
 20
-1751.368597061558
 30
0.0
 11
-1913.162121385199
 21
-1751.368597061558
 31
0.0
  0
LINE
  5
141
330
1F
100
AcDbEntity
  8
4-A
  6
Continuous
 62
     3
370
    13
100
AcDbLine
 10
-3341.162121385199
 20
108.0314029384426
 30
0.0
 11
-1913.162121385199
 21
108.0314029384426
 31
0.0
  0
LINE
  5
142
330
1F
100
AcDbEntity
  8
4-A
  6
Continuous
 62
     3
370
    13
100
AcDbLine
 10
-3341.162121385199
 20
-1463.968597061558
 30
0.0
 11
-1913.162121385199
 21
-1463.968597061558
 31
0.0
  0
LINE
  5
143
330
1F
100
AcDbEntity
  8
4-A
  6
Continuous
 62
     3
370
    13
100
AcDbLine
 10
-3341.162121385199
 20
-179.3685970615573
 30
0.0
 11
-1913.162121385199
 21
-179.3685970615573
 31
0.0
  0
LINE
  5
144
330
1F
100
AcDbEntity
  8
4-A
  6
Continuous
 62
     3
370
    13
100
AcDbLine
 10
-3341.162121385199
 20
-206.3685970615575
 30
0.0
 11
-1913.162121385199
 21
-206.3685970615575
 31
0.0
  0
LINE
  5
145
330
1F
100
AcDbEntity
  8
4-A
  6
Continuous
 62
     3
370
    13
100
AcDbLine
 10
-3341.162121385199
 20
-493.7685970615574
 30
0.0
 11
-1913.162121385199
 21
-493.7685970615574
 31
0.0
  0
LINE
  5
146
330
1F
100
AcDbEntity
  8
4-A
  6
Continuous
 62
     3
370
    13
100
AcDbLine
 10
-3341.162121385199
 20
-520.7685970615572
 30
0.0
 11
-1913.162121385199
 21
-520.7685970615572
 31
0.0
  0
LINE
  5
147
330
1F
100
AcDbEntity
  8
4-A
  6
Continuous
 62
     3
370
    13
100
AcDbLine
 10
-3341.162121385199
 20
-808.168597061557
 30
0.0
 11
-1913.162121385199
 21
-808.168597061557
 31
0.0
  0
LINE
  5
148
330
1F
100
AcDbEntity
  8
4-A
  6
Continuous
 62
     3
370
    13
100
AcDbLine
 10
-3341.162121385199
 20
-835.1685970615573
 30
0.0
 11
-1913.162121385199
 21
-835.1685970615573
 31
0.0
  0
LINE
  5
149
330
1F
100
AcDbEntity
  8
4-A
  6
Continuous
 62
     3
370
    13
100
AcDbLine
 10
-3341.162121385199
 20
-1122.568597061557
 30
0.0
 11
-1913.162121385199
 21
-1122.568597061557
 31
0.0
  0
LINE
  5
14A
330
1F
100
AcDbEntity
  8
4-A
  6
Continuous
 62
     3
370
    13
100
AcDbLine
 10
-3341.162121385199
 20
-1149.568597061558
 30
0.0
 11
-1913.162121385199
 21
-1149.568597061558
 31
0.0
  0
LINE
  5
14B
330
1F
100
AcDbEntity
  8
4-A
  6
Continuous
 62
     3
370
    13
100
AcDbLine
 10
-3341.162121385199
 20
-1436.968597061557
 30
0.0
 11
-1913.162121385199
 21
-1436.968597061557
 31
0.0
  0
LINE
  5
14C
330
1F
100
AcDbEntity
  8
4-A
  6
Continuous
 62
     3
370
    13
100
AcDbLine
 10
-335.1621213851987
 20
108.0314029384425
 30
0.0
 11
-1763.162121385199
 21
108.0314029384425
 31
0.0
  0
LINE
  5
14D
330
1F
100
AcDbEntity
  8
4-A
  6
Continuous
 62
     3
370
    13
100
AcDbLine
 10
-335.1621213851987
 20
-1751.368597061558
 30
0.0
 11
-1763.162121385199
 21
-1751.368597061558
 31
0.0
  0
LINE
  5
14E
330
1F
100
AcDbEntity
  8
4-A
  6
Continuous
 62
     3
370
    13
100
AcDbLine
 10
-335.1621213851987
 20
-179.3685970615574
 30
0.0
 11
-1763.162121385199
 21
-179.3685970615574
 31
0.0
  0
LINE
  5
14F
330
1F
100
AcDbEntity
  8
4-A
  6
Continuous
 62
     3
370
    13
100
AcDbLine
 10
-335.1621213851987
 20
-206.3685970615576
 30
0.0
 11
-1763.162121385199
 21
-206.3685970615576
 31
0.0
  0
LINE
  5
150
330
1F
100
AcDbEntity
  8
4-A
  6
Continuous
 62
     3
370
    13
100
AcDbLine
 10
-335.1621213851987
 20
-493.7685970615576
 30
0.0
 11
-1763.162121385199
 21
-493.7685970615576
 31
0.0
  0
LINE
  5
151
330
1F
100
AcDbEntity
  8
4-A
  6
Continuous
 62
     3
370
    13
100
AcDbLine
 10
-335.1621213851987
 20
-520.7685970615573
 30
0.0
 11
-1763.162121385199
 21
-520.7685970615573
 31
0.0
  0
LINE
  5
152
330
1F
100
AcDbEntity
  8
4-A
  6
Continuous
 62
     3
370
    13
100
AcDbLine
 10
-335.1621213851987
 20
-808.1685970615571
 30
0.0
 11
-1763.162121385199
 21
-808.1685970615571
 31
0.0
  0
LINE
  5
153
330
1F
100
AcDbEntity
  8
4-A
  6
Continuous
 62
     3
370
    13
100
AcDbLine
 10
-335.1621213851987
 20
-835.1685970615574
 30
0.0
 11
-1763.162121385199
 21
-835.1685970615574
 31
0.0
  0
LINE
  5
154
330
1F
100
AcDbEntity
  8
4-A
  6
Continuous
 62
     3
370
    13
100
AcDbLine
 10
-335.1621213851987
 20
-1122.568597061557
 30
0.0
 11
-1763.162121385199
 21
-1122.568597061557
 31
0.0
  0
LINE
  5
155
330
1F
100
AcDbEntity
  8
4-A
  6
Continuous
 62
     3
370
    13
100
AcDbLine
 10
-335.1621213851987
 20
-1149.568597061558
 30
0.0
 11
-1763.162121385199
 21
-1149.568597061558
 31
0.0
  0
LINE
  5
156
330
1F
100
AcDbEntity
  8
4-A
  6
Continuous
 62
     3
370
    13
100
AcDbLine
 10
-335.1621213851987
 20
-1436.968597061557
 30
0.0
 11
-1763.162121385199
 21
-1436.968597061557
 31
0.0
  0
LINE
  5
157
330
1F
100
AcDbEntity
  8
4-A
  6
Continuous
 62
     3
370
    13
100
AcDbLine
 10
-335.1621213851987
 20
-1463.968597061558
 30
0.0
 11
-1763.162121385199
 21
-1463.968597061558
 31
0.0
  0
LINE
  5
158
330
1F
100
AcDbEntity
  8
2-2
  6
Continuous
 62
     7
370
     9
100
AcDbLine
 10
2619.485471949637
 20
3578.00332379887
 30
0.0
 11
4957.348600441257
 21
3578.00332379887
 31
0.0
  0
LINE
  5
159
330
1F
100
AcDbEntity
  8
2-2
  6
Continuous
 62
     7
370
     9
100
AcDbLine
 10
2619.485471949637
 20
3128.00332379887
 30
0.0
 11
3316.985471949637
 21
3128.00332379887
 31
0.0
  0
LINE
  5
15A
330
1F
100
AcDbEntity
  8
2-2
  6
Continuous
 62
     7
370
     9
100
AcDbLine
 10
2619.485471949637
 20
1837.835726033507
 30
0.0
 11
4957.348600441257
 21
1837.835726033507
 31
0.0
  0
LINE
  5
15B
330
1F
100
AcDbEntity
  8
2-2
  6
Continuous
 62
     7
370
     9
100
AcDbLine
 10
2619.485471949637
 20
1387.835726033507
 30
0.0
 11
4957.348600441257
 21
1387.835726033507
 31
0.0
  0
LINE
  5
15C
330
1F
100
AcDbEntity
  8
4-C
  6
Continuous
 62
     4
370
     5
100
AcDbLine
 10
2601.418316626143
 20
3559.936246426894
 30
0.0
 11
2539.727679065556
 21
3665.987954615518
 31
0.0
  0
LINE
  5
15D
330
1F
100
AcDbEntity
  8
4-C
  6
Continuous
 62
     4
370
     5
100
AcDbLine
 10
2388.52426846231
 20
3784.790634375212
 30
0.0
 11
2628.829688885327
 21
3530.984909434047
 31
0.0
  0
LINE
  5
15E
330
1F
100
AcDbEntity
  8
4-C
  6
Continuous
 62
     4
370
     5
100
AcDbLine
 10
2388.52426846231
 20
3784.790634375212
 30
0.0
 11
3401.047107323337
 21
3784.790634375212
 31
0.0
  0
LINE
  5
15F
330
1F
100
AcDbEntity
  8
4-C
  6
Continuous
 62
     4
370
     5
100
AcDbLine
 10
2596.985471949637
 20
2114.899971843563
 30
0.0
 11
3196.985471949637
 21
2114.899971843563
 31
0.0
  0
LWPOLYLINE
  5
160
330
1F
100
AcDbEntity
  8
4-C
  6
Continuous
 62
     4
370
     5
100
AcDbPolyline
 90
        4
 70
     1
 43
6.0
 10
2599.985471949637
 20
2114.899971843563
 42
0.4142135623731
 10
2596.985471949637
 20
2117.899971843563
 42
0.4142135623731
 10
2593.985471949637
 20
2114.899971843563
 42
0.4142135623731
 10
2596.985471949637
 20
2111.899971843563
 42
0.4142135623731
  0
LWPOLYLINE
  5
161
330
1F
100
AcDbEntity
  8
4-C
  6
Continuous
 62
     4
370
     5
100
AcDbPolyline
 90
        4
 70
     1
 43
6.0
 10
3199.985471949637
 20
2114.899971843563
 42
0.4142135623731
 10
3196.985471949637
 20
2117.899971843563
 42
0.4142135623731
 10
3193.985471949637
 20
2114.899971843563
 42
0.4142135623731
 10
3196.985471949637
 20
2111.899971843563
 42
0.4142135623731
  0
LINE
  5
162
330
1F
100
AcDbEntity
  8
4-C
  6
Continuous
 62
     7
370
     9
100
AcDbLine
 10
2596.985471949637
 20
2114.899971843563
 30
0.0
 11
2596.985471949637
 21
1882.835726033507
 31
0.0
  0
LINE
  5
163
330
1F
100
AcDbEntity
  8
4-C
  6
Continuous
 62
     7
370
     9
100
AcDbLine
 10
3196.985471949637
 20
2114.899971843563
 30
0.0
 11
3196.985471949637
 21
1882.835726033507
 31
0.0
  0
TEXT
  5
164
330
1F
100
AcDbEntity
  8
4-C
  6
Continuous
 62
     7
370
   211
100
AcDbText
 10
2799.485471949637
 20
2146.819971843563
 30
0.0
 40
91.44
  1
40
 41
1.0625
  7
ＭＳ ゴシック
100
AcDbText
  0
TEXT
  5
165
330
1F
100
AcDbEntity
  8
2-2
  6
Continuous
 62
     7
370
     0
100
AcDbText
 10
2402.024572980457
 20
3808.280877989729
 30
0.0
 40
68.58
  1
1.5C面（ｶｳﾝﾀｰ前/側面）
 41
1.151515151515152
  7
ＭＳ ゴシック
100
AcDbText
  0
LINE
  5
166
330
1F
100
AcDbEntity
  8
4-4
  6
Continuous
 62
     7
370
     9
100
AcDbLine
 10
-185.1621213851987
 20
258.0314029384425
 30
0.0
 11
-3491.162121385199
 21
258.0314029384425
 31
0.0
  0
LINE
  5
167
330
1F
100
AcDbEntity
  8
4-4
  6
Continuous
 62
     7
370
     9
100
AcDbLine
 10
-185.1621213851987
 20
-1901.968597061558
 30
0.0
 11
-3491.162121385199
 21
-1901.968597061558
 31
0.0
  0
LINE
  5
168
330
1F
100
AcDbEntity
  8
4-C
  6
Continuous
 62
     4
370
     5
100
AcDbLine
 10
-1913.162121385199
 20
703.9106145251396
 30
0.0
 11
-185.1621213851986
 21
703.9106145251396
 31
0.0
  0
LWPOLYLINE
  5
169
330
1F
100
AcDbEntity
  8
4-C
  6
Continuous
 62
     4
370
     5
100
AcDbPolyline
 90
        4
 70
     1
 43
6.0
 10
-1910.162121385199
 20
703.9106145251396
 42
0.4142135623731
 10
-1913.162121385199
 20
706.9106145251396
 42
0.4142135623731
 10
-1916.162121385199
 20
703.9106145251396
 42
0.4142135623731
 10
-1913.162121385199
 20
700.9106145251396
 42
0.4142135623731
  0
LWPOLYLINE
  5
16A
330
1F
100
AcDbEntity
  8
4-C
  6
Continuous
 62
     4
370
     5
100
AcDbPolyline
 90
        4
 70
     1
 43
6.0
 10
-182.1621213851986
 20
703.9106145251396
 42
0.4142135623731
 10
-185.1621213851986
 20
706.9106145251396
 42
0.4142135623731
 10
-188.1621213851986
 20
703.9106145251396
 42
0.4142135623731
 10
-185.1621213851986
 20
700.9106145251396
 42
0.4142135623731
  0
LINE
  5
16B
330
1F
100
AcDbEntity
  8
4-C
  6
Continuous
 62
     7
370
     9
100
AcDbLine
 10
-1913.162121385199
 20
703.9106145251396
 30
0.0
 11
-1913.162121385199
 21
492.7374301675978
 31
0.0
  0
TEXT
  5
16C
330
1F
100
AcDbEntity
  8
4-4
  6
Continuous
 62
     7
370
     0
100
AcDbText
 10
-1547.162121385199
 20
735.8306145251396
 30
0.0
 40
91.44
  1
576（引戸W)
 41
1.113636363636364
  7
ＭＳ ゴシック
100
AcDbText
  0
LINE
  5
16D
330
1F
100
AcDbEntity
  8
4-C
  6
Continuous
 62
     4
370
     5
100
AcDbLine
 10
-3641.1621213852
 20
-2682.569832402236
 30
0.0
 11
-3491.162121385199
 21
-2682.569832402236
 31
0.0
  0
LWPOLYLINE
  5
16E
330
1F
100
AcDbEntity
  8
4-C
  6
Continuous
 62
     4
370
     5
100
AcDbPolyline
 90
        4
 70
     1
 43
6.0
 10
-3638.1621213852
 20
-2682.569832402236
 42
0.4142135623731
 10
-3641.1621213852
 20
-2679.569832402236
 42
0.4142135623731
 10
-3644.1621213852
 20
-2682.569832402236
 42
0.4142135623731
 10
-3641.1621213852
 20
-2685.569832402235
 42
0.4142135623731
  0
LWPOLYLINE
  5
16F
330
1F
100
AcDbEntity
  8
4-C
  6
Continuous
 62
     4
370
     5
100
AcDbPolyline
 90
        4
 70
     1
 43
6.0
 10
-3488.162121385199
 20
-2682.569832402236
 42
0.4142135623731
 10
-3491.162121385199
 20
-2679.569832402236
 42
0.4142135623731
 10
-3494.162121385199
 20
-2682.569832402236
 42
0.4142135623731
 10
-3491.162121385199
 20
-2685.569832402235
 42
0.4142135623731
  0
LINE
  5
170
330
1F
100
AcDbEntity
  8
4-C
  6
Continuous
 62
     7
370
     9
100
AcDbLine
 10
-3641.1621213852
 20
-3022.793296089386
 30
0.0
 11
-3641.1621213852
 21
-2530.055865921789
 31
0.0
  0
LINE
  5
171
330
1F
100
AcDbEntity
  8
4-C
  6
Continuous
 62
     7
370
     9
100
AcDbLine
 10
-3491.162121385199
 20
-2682.569832402236
 30
0.0
 11
-3491.162121385199
 21
-2530.055865921789
 31
0.0
  0
TEXT
  5
172
330
1F
100
AcDbEntity
  8
4-C
  6
Continuous
 62
     7
370
   211
100
AcDbText
 10
-3629.912121385199
 20
-2650.649832402235
 30
0.0
 40
91.44
  1
50
 41
1.0625
  7
ＭＳ ゴシック
100
AcDbText
  0
LINE
  5
173
330
1F
100
AcDbEntity
  8
4-C
  6
Continuous
 62
     4
370
     5
100
AcDbLine
 10
-3491.162121385199
 20
-2682.569832402236
 30
0.0
 11
-185.1621213851986
 21
-2682.569832402236
 31
0.0
  0
LWPOLYLINE
  5
174
330
1F
100
AcDbEntity
  8
4-C
  6
Continuous
 62
     4
370
     5
100
AcDbPolyline
 90
        4
 70
     1
 43
6.0
 10
-182.1621213851986
 20
-2682.569832402236
 42
0.4142135623731
 10
-185.1621213851986
 20
-2679.569832402236
 42
0.4142135623731
 10
-188.1621213851986
 20
-2682.569832402236
 42
0.4142135623731
 10
-185.1621213851986
 20
-2685.569832402235
 42
0.4142135623731
  0
LINE
  5
175
330
1F
100
AcDbEntity
  8
4-C
  6
Continuous
 62
     7
370
     9
100
AcDbLine
 10
-185.1621213851986
 20
-2682.569832402236
 30
0.0
 11
-185.1621213851986
 21
-2530.055865921789
 31
0.0
  0
TEXT
  5
176
330
1F
100
AcDbEntity
  8
4-C
  6
Continuous
 62
     7
370
   211
100
AcDbText
 10
-2003.162121385199
 20
-2650.649832402235
 30
0.0
 40
91.44
  1
1,102
 41
1.1
  7
ＭＳ ゴシック
100
AcDbText
  0
LINE
  5
177
330
1F
100
AcDbEntity
  8
4-C
  6
Continuous
 62
     4
370
     5
100
AcDbLine
 10
-185.1621213851986
 20
-2682.569832402236
 30
0.0
 11
-35.16212138519819
 21
-2682.569832402236
 31
0.0
  0
LWPOLYLINE
  5
178
330
1F
100
AcDbEntity
  8
4-C
  6
Continuous
 62
     4
370
     5
100
AcDbPolyline
 90
        4
 70
     1
 43
6.0
 10
-32.16212138519819
 20
-2682.569832402236
 42
0.4142135623731
 10
-35.16212138519819
 20
-2679.569832402236
 42
0.4142135623731
 10
-38.16212138519819
 20
-2682.569832402236
 42
0.4142135623731
 10
-35.16212138519819
 20
-2685.569832402235
 42
0.4142135623731
  0
LINE
  5
179
330
1F
100
AcDbEntity
  8
4-C
  6
Continuous
 62
     7
370
     9
100
AcDbLine
 10
-35.16212138519819
 20
-3022.793296089386
 30
0.0
 11
-35.16212138519819
 21
-2530.055865921789
 31
0.0
  0
TEXT
  5
17A
330
1F
100
AcDbEntity
  8
4-C
  6
Continuous
 62
     7
370
   211
100
AcDbText
 10
-173.9121213851984
 20
-2650.649832402235
 30
0.0
 40
91.44
  1
50
 41
1.0625
  7
ＭＳ ゴシック
100
AcDbText
  0
LINE
  5
17B
330
1F
100
AcDbEntity
  8
4-C
  6
Continuous
 62
     4
370
     5
100
AcDbLine
 10
-3641.1621213852
 20
-3022.793296089386
 30
0.0
 11
-35.16212138519819
 21
-3022.793296089386
 31
0.0
  0
LWPOLYLINE
  5
17C
330
1F
100
AcDbEntity
  8
4-C
  6
Continuous
 62
     4
370
     5
100
AcDbPolyline
 90
        4
 70
     1
 43
6.0
 10
-3638.1621213852
 20
-3022.793296089386
 42
0.4142135623731
 10
-3641.1621213852
 20
-3019.793296089386
 42
0.4142135623731
 10
-3644.1621213852
 20
-3022.793296089386
 42
0.4142135623731
 10
-3641.1621213852
 20
-3025.793296089385
 42
0.4142135623731
  0
LWPOLYLINE
  5
17D
330
1F
100
AcDbEntity
  8
4-C
  6
Continuous
 62
     4
370
     5
100
AcDbPolyline
 90
        4
 70
     1
 43
6.0
 10
-32.16212138519819
 20
-3022.793296089386
 42
0.4142135623731
 10
-35.16212138519819
 20
-3019.793296089386
 42
0.4142135623731
 10
-38.16212138519819
 20
-3022.793296089386
 42
0.4142135623731
 10
-35.16212138519819
 20
-3025.793296089385
 42
0.4142135623731
  0
LINE
  5
17E
330
1F
100
AcDbEntity
  8
4-4
  6
Continuous
 62
     4
370
     5
100
AcDbLine
 10
-1913.162121385199
 20
703.9106145251396
 30
0.0
 11
-1913.162121385199
 21
492.7374301675978
 31
0.0
  0
LINE
  5
17F
330
1F
100
AcDbEntity
  8
4-C
  6
Continuous
 62
     4
370
     5
100
AcDbLine
 10
-185.1621213851986
 20
703.9106145251396
 30
0.0
 11
-185.1621213851986
 21
492.7374301675978
 31
0.0
  0
LINE
  5
180
330
1F
100
AcDbEntity
  8
4-C
  6
Continuous
 62
     4
370
     5
100
AcDbLine
 10
2718.315286878624
 20
-3022.793296089385
 30
0.0
 11
2718.315286878624
 21
-2682.569832402235
 31
0.0
  0
LINE
  5
181
330
1F
100
AcDbEntity
  8
4-C
  6
Continuous
 62
     4
370
     5
100
AcDbLine
 10
2718.315286878624
 20
-2682.569832402235
 30
0.0
 11
2718.315286878624
 21
-2530.055865921789
 31
0.0
  0
LINE
  5
182
330
1F
100
AcDbEntity
  8
4-C
  6
Continuous
 62
     4
370
     5
100
AcDbLine
 10
2838.315286878624
 20
-2682.569832402235
 30
0.0
 11
2838.315286878624
 21
-2530.055865921789
 31
0.0
  0
LINE
  5
183
330
1F
100
AcDbEntity
  8
4-C
  6
Continuous
 62
     4
370
     5
100
AcDbLine
 10
2898.315286878624
 20
-2682.569832402235
 30
0.0
 11
2898.315286878624
 21
-2530.055865921789
 31
0.0
  0
LINE
  5
184
330
1F
100
AcDbEntity
  8
4-C
  6
Continuous
 62
     4
370
     5
100
AcDbLine
 10
2913.315286878624
 20
-2682.569832402235
 30
0.0
 11
2913.315286878624
 21
-2530.055865921789
 31
0.0
  0
LINE
  5
185
330
1F
100
AcDbEntity
  8
4-C
  6
Continuous
 62
     4
370
     5
100
AcDbLine
 10
2973.315286878624
 20
-2682.569832402235
 30
0.0
 11
2973.315286878624
 21
-2530.055865921789
 31
0.0
  0
LINE
  5
186
330
1F
100
AcDbEntity
  8
4-C
  6
Continuous
 62
     4
370
     5
100
AcDbLine
 10
2988.315286878624
 20
-2682.569832402235
 30
0.0
 11
2988.315286878624
 21
-2530.055865921789
 31
0.0
  0
LINE
  5
187
330
1F
100
AcDbEntity
  8
4-C
  6
Continuous
 62
     4
370
     5
100
AcDbLine
 10
3963.315286878625
 20
-3022.793296089385
 30
0.0
 11
3963.315286878625
 21
-2530.055865921789
 31
0.0
  0
LINE
  5
188
330
1F
100
AcDbEntity
  8
4-C
  6
Continuous
 62
     7
370
     9
100
AcDbLine
 10
2596.985471949637
 20
1410.335726033507
 30
0.0
 11
2596.985471949637
 21
1815.335726033507
 31
0.0
  0
LINE
  5
189
330
1F
100
AcDbEntity
  8
4-C
  6
Continuous
 62
     7
370
     9
100
AcDbLine
 10
2596.985471949637
 20
1815.335726033507
 30
0.0
 11
2619.485471949637
 21
1837.835726033507
 31
0.0
  0
LINE
  5
18A
330
1F
100
AcDbEntity
  8
4-C
  6
Continuous
 62
     7
370
     9
100
AcDbLine
 10
2596.985471949637
 20
1410.335726033507
 30
0.0
 11
2619.485471949637
 21
1387.835726033507
 31
0.0
  0
LINE
  5
18B
330
1F
100
AcDbEntity
  8
4-C
  6
Continuous
 62
     7
370
     9
100
AcDbLine
 10
2596.985471949637
 20
3150.50332379887
 30
0.0
 11
2596.985471949637
 21
3555.50332379887
 31
0.0
  0
LINE
  5
18C
330
1F
100
AcDbEntity
  8
4-C
  6
Continuous
 62
     7
370
     9
100
AcDbLine
 10
2596.985471949637
 20
3150.50332379887
 30
0.0
 11
2619.485471949637
 21
3128.00332379887
 31
0.0
  0
LINE
  5
18D
330
1F
100
AcDbEntity
  8
4-C
  6
Continuous
 62
     7
370
     9
100
AcDbLine
 10
2596.985471949637
 20
3555.50332379887
 30
0.0
 11
2619.485471949637
 21
3578.00332379887
 31
0.0
  0
LINE
  5
18E
330
1F
100
AcDbEntity
  8
4-C
  6
Continuous
 62
     7
370
     9
100
AcDbLine
 10
-3491.162121385199
 20
258.0314029384425
 30
0.0
 11
-3491.162121385199
 21
-1901.968597061558
 31
0.0
  0
LINE
  5
18F
330
1F
100
AcDbEntity
  8
4-C
  6
Continuous
 62
     7
370
     9
100
AcDbLine
 10
-3341.162121385199
 20
258.0314029384425
 30
0.0
 11
-3341.162121385199
 21
-1901.968597061558
 31
0.0
  0
LINE
  5
190
330
1F
100
AcDbEntity
  8
4-C
  6
Continuous
 62
     7
370
     9
100
AcDbLine
 10
-335.1621213851987
 20
264.0314029384422
 30
0.0
 11
-335.1621213851987
 21
-1901.968597061558
 31
0.0
  0
LINE
  5
191
330
1F
100
AcDbEntity
  8
4-C
  6
Continuous
 62
     7
370
     9
100
AcDbLine
 10
-185.1621213851987
 20
258.0314029384425
 30
0.0
 11
-185.1621213851987
 21
-1901.968597061558
 31
0.0
  0
LINE
  5
192
330
1F
100
AcDbEntity
  8
4-C
  6
Continuous
 62
     3
370
    13
100
AcDbLine
 10
-620.7621213851987
 20
-1463.968597061558
 30
0.0
 11
-620.7621213851987
 21
-1751.368597061558
 31
0.0
  0
LINE
  5
193
330
1F
100
AcDbEntity
  8
4-C
  6
Continuous
 62
     3
370
    13
100
AcDbLine
 10
-906.3621213851987
 20
-1463.968597061558
 30
0.0
 11
-906.3621213851987
 21
-1751.368597061558
 31
0.0
  0
LINE
  5
194
330
1F
100
AcDbEntity
  8
4-C
  6
Continuous
 62
     3
370
    13
100
AcDbLine
 10
-620.7621213851987
 20
-1149.568597061558
 30
0.0
 11
-620.7621213851987
 21
-1436.968597061557
 31
0.0
  0
LINE
  5
195
330
1F
100
AcDbEntity
  8
4-C
  6
Continuous
 62
     3
370
    13
100
AcDbLine
 10
-906.3621213851987
 20
-1149.568597061558
 30
0.0
 11
-906.3621213851987
 21
-1436.968597061557
 31
0.0
  0
LINE
  5
196
330
1F
100
AcDbEntity
  8
4-C
  6
Continuous
 62
     3
370
    13
100
AcDbLine
 10
-906.3621213851987
 20
-206.3685970615576
 30
0.0
 11
-906.3621213851987
 21
-493.7685970615576
 31
0.0
  0
LINE
  5
197
330
1F
100
AcDbEntity
  8
4-C
  6
Continuous
 62
     3
370
    13
100
AcDbLine
 10
-906.3621213851987
 20
108.0314029384425
 30
0.0
 11
-906.3621213851987
 21
-179.3685970615574
 31
0.0
  0
LINE
  5
198
330
1F
100
AcDbEntity
  8
4-C
  6
Continuous
 62
     3
370
    13
100
AcDbLine
 10
-906.3621213851987
 20
-520.7685970615573
 30
0.0
 11
-906.3621213851987
 21
-808.1685970615571
 31
0.0
  0
LINE
  5
199
330
1F
100
AcDbEntity
  8
4-C
  6
Continuous
 62
     3
370
    13
100
AcDbLine
 10
-906.3621213851987
 20
-835.1685970615574
 30
0.0
 11
-906.3621213851987
 21
-1122.568597061557
 31
0.0
  0
LINE
  5
19A
330
1F
100
AcDbEntity
  8
4-C
  6
Continuous
 62
     3
370
    13
100
AcDbLine
 10
-620.7621213851987
 20
-835.1685970615574
 30
0.0
 11
-620.7621213851987
 21
-1122.568597061557
 31
0.0
  0
LINE
  5
19B
330
1F
100
AcDbEntity
  8
4-C
  6
Continuous
 62
     3
370
    13
100
AcDbLine
 10
-620.7621213851987
 20
-520.7685970615573
 30
0.0
 11
-620.7621213851987
 21
-808.1685970615571
 31
0.0
  0
LINE
  5
19C
330
1F
100
AcDbEntity
  8
4-C
  6
Continuous
 62
     3
370
    13
100
AcDbLine
 10
-620.7621213851987
 20
-206.3685970615576
 30
0.0
 11
-620.7621213851987
 21
-493.7685970615576
 31
0.0
  0
LINE
  5
19D
330
1F
100
AcDbEntity
  8
4-C
  6
Continuous
 62
     3
370
    13
100
AcDbLine
 10
-620.7621213851987
 20
108.0314029384425
 30
0.0
 11
-620.7621213851987
 21
-179.3685970615574
 31
0.0
  0
LINE
  5
19E
330
1F
100
AcDbEntity
  8
4-C
  6
Continuous
 62
     3
370
    13
100
AcDbLine
 10
-1477.562121385199
 20
-206.3685970615576
 30
0.0
 11
-1477.562121385199
 21
-493.7685970615576
 31
0.0
  0
LINE
  5
19F
330
1F
100
AcDbEntity
  8
4-C
  6
Continuous
 62
     3
370
    13
100
AcDbLine
 10
-1477.562121385199
 20
108.0314029384425
 30
0.0
 11
-1477.562121385199
 21
-179.3685970615574
 31
0.0
  0
LINE
  5
1A0
330
1F
100
AcDbEntity
  8
4-C
  6
Continuous
 62
     3
370
    13
100
AcDbLine
 10
-1477.562121385199
 20
-520.7685970615573
 30
0.0
 11
-1477.562121385199
 21
-808.1685970615571
 31
0.0
  0
LINE
  5
1A1
330
1F
100
AcDbEntity
  8
4-C
  6
Continuous
 62
     3
370
    13
100
AcDbLine
 10
-1477.562121385199
 20
-835.1685970615574
 30
0.0
 11
-1477.562121385199
 21
-1122.568597061557
 31
0.0
  0
LINE
  5
1A2
330
1F
100
AcDbEntity
  8
4-C
  6
Continuous
 62
     3
370
    13
100
AcDbLine
 10
-1477.562121385199
 20
-1149.568597061558
 30
0.0
 11
-1477.562121385199
 21
-1436.968597061557
 31
0.0
  0
LINE
  5
1A3
330
1F
100
AcDbEntity
  8
4-C
  6
Continuous
 62
     3
370
    13
100
AcDbLine
 10
-1477.562121385199
 20
-1463.968597061558
 30
0.0
 11
-1477.562121385199
 21
-1751.368597061558
 31
0.0
  0
LINE
  5
1A4
330
1F
100
AcDbEntity
  8
4-C
  6
Continuous
 62
     3
370
    13
100
AcDbLine
 10
-1191.962121385199
 20
108.0314029384425
 30
0.0
 11
-1191.962121385199
 21
-179.3685970615574
 31
0.0
  0
LINE
  5
1A5
330
1F
100
AcDbEntity
  8
4-C
  6
Continuous
 62
     3
370
    13
100
AcDbLine
 10
-1191.962121385199
 20
-206.3685970615576
 30
0.0
 11
-1191.962121385199
 21
-493.7685970615576
 31
0.0
  0
LINE
  5
1A6
330
1F
100
AcDbEntity
  8
4-C
  6
Continuous
 62
     3
370
    13
100
AcDbLine
 10
-1191.962121385199
 20
-520.7685970615573
 30
0.0
 11
-1191.962121385199
 21
-808.1685970615571
 31
0.0
  0
LINE
  5
1A7
330
1F
100
AcDbEntity
  8
4-C
  6
Continuous
 62
     3
370
    13
100
AcDbLine
 10
-1191.962121385199
 20
-835.1685970615574
 30
0.0
 11
-1191.962121385199
 21
-1122.568597061557
 31
0.0
  0
LINE
  5
1A8
330
1F
100
AcDbEntity
  8
4-C
  6
Continuous
 62
     3
370
    13
100
AcDbLine
 10
-1191.962121385199
 20
-1149.568597061558
 30
0.0
 11
-1191.962121385199
 21
-1436.968597061557
 31
0.0
  0
LINE
  5
1A9
330
1F
100
AcDbEntity
  8
4-C
  6
Continuous
 62
     3
370
    13
100
AcDbLine
 10
-1191.962121385199
 20
-1463.968597061558
 30
0.0
 11
-1191.962121385199
 21
-1751.368597061558
 31
0.0
  0
LINE
  5
1AA
330
1F
100
AcDbEntity
  8
4-C
  6
Continuous
 62
     3
370
    13
100
AcDbLine
 10
-3055.562121385199
 20
108.0314029384426
 30
0.0
 11
-3055.562121385199
 21
-179.3685970615573
 31
0.0
  0
LINE
  5
1AB
330
1F
100
AcDbEntity
  8
4-C
  6
Continuous
 62
     3
370
    13
100
AcDbLine
 10
-2769.962121385199
 20
108.0314029384426
 30
0.0
 11
-2769.962121385199
 21
-179.3685970615573
 31
0.0
  0
LINE
  5
1AC
330
1F
100
AcDbEntity
  8
4-C
  6
Continuous
 62
     3
370
    13
100
AcDbLine
 10
-2484.362121385199
 20
108.0314029384426
 30
0.0
 11
-2484.362121385199
 21
-179.3685970615573
 31
0.0
  0
LINE
  5
1AD
330
1F
100
AcDbEntity
  8
4-C
  6
Continuous
 62
     3
370
    13
100
AcDbLine
 10
-2198.762121385199
 20
108.0314029384426
 30
0.0
 11
-2198.762121385199
 21
-179.3685970615573
 31
0.0
  0
LINE
  5
1AE
330
1F
100
AcDbEntity
  8
4-C
  6
Continuous
 62
     3
370
    13
100
AcDbLine
 10
-3055.562121385199
 20
-206.3685970615575
 30
0.0
 11
-3055.562121385199
 21
-493.7685970615574
 31
0.0
  0
LINE
  5
1AF
330
1F
100
AcDbEntity
  8
4-C
  6
Continuous
 62
     3
370
    13
100
AcDbLine
 10
-2769.962121385199
 20
-206.3685970615575
 30
0.0
 11
-2769.962121385199
 21
-493.7685970615574
 31
0.0
  0
LINE
  5
1B0
330
1F
100
AcDbEntity
  8
4-C
  6
Continuous
 62
     3
370
    13
100
AcDbLine
 10
-2484.362121385199
 20
-206.3685970615575
 30
0.0
 11
-2484.362121385199
 21
-493.7685970615574
 31
0.0
  0
LINE
  5
1B1
330
1F
100
AcDbEntity
  8
4-C
  6
Continuous
 62
     3
370
    13
100
AcDbLine
 10
-2198.762121385199
 20
-206.3685970615575
 30
0.0
 11
-2198.762121385199
 21
-493.7685970615574
 31
0.0
  0
LINE
  5
1B2
330
1F
100
AcDbEntity
  8
4-C
  6
Continuous
 62
     3
370
    13
100
AcDbLine
 10
-3055.562121385199
 20
-520.7685970615572
 30
0.0
 11
-3055.562121385199
 21
-808.168597061557
 31
0.0
  0
LINE
  5
1B3
330
1F
100
AcDbEntity
  8
4-C
  6
Continuous
 62
     3
370
    13
100
AcDbLine
 10
-2769.962121385199
 20
-520.7685970615572
 30
0.0
 11
-2769.962121385199
 21
-808.168597061557
 31
0.0
  0
LINE
  5
1B4
330
1F
100
AcDbEntity
  8
4-C
  6
Continuous
 62
     3
370
    13
100
AcDbLine
 10
-2484.362121385199
 20
-520.7685970615572
 30
0.0
 11
-2484.362121385199
 21
-808.168597061557
 31
0.0
  0
LINE
  5
1B5
330
1F
100
AcDbEntity
  8
4-C
  6
Continuous
 62
     3
370
    13
100
AcDbLine
 10
-2198.762121385199
 20
-520.7685970615572
 30
0.0
 11
-2198.762121385199
 21
-808.168597061557
 31
0.0
  0
LINE
  5
1B6
330
1F
100
AcDbEntity
  8
4-C
  6
Continuous
 62
     3
370
    13
100
AcDbLine
 10
-3055.562121385199
 20
-835.1685970615573
 30
0.0
 11
-3055.562121385199
 21
-1122.568597061557
 31
0.0
  0
LINE
  5
1B7
330
1F
100
AcDbEntity
  8
4-C
  6
Continuous
 62
     3
370
    13
100
AcDbLine
 10
-2769.962121385199
 20
-835.1685970615573
 30
0.0
 11
-2769.962121385199
 21
-1122.568597061557
 31
0.0
  0
LINE
  5
1B8
330
1F
100
AcDbEntity
  8
4-C
  6
Continuous
 62
     3
370
    13
100
AcDbLine
 10
-2484.362121385199
 20
-835.1685970615573
 30
0.0
 11
-2484.362121385199
 21
-1122.568597061557
 31
0.0
  0
LINE
  5
1B9
330
1F
100
AcDbEntity
  8
4-C
  6
Continuous
 62
     3
370
    13
100
AcDbLine
 10
-2198.762121385199
 20
-835.1685970615573
 30
0.0
 11
-2198.762121385199
 21
-1122.568597061557
 31
0.0
  0
LINE
  5
1BA
330
1F
100
AcDbEntity
  8
4-C
  6
Continuous
 62
     3
370
    13
100
AcDbLine
 10
-3055.562121385199
 20
-1149.568597061558
 30
0.0
 11
-3055.562121385199
 21
-1436.968597061557
 31
0.0
  0
LINE
  5
1BB
330
1F
100
AcDbEntity
  8
4-C
  6
Continuous
 62
     3
370
    13
100
AcDbLine
 10
-2769.962121385199
 20
-1149.568597061558
 30
0.0
 11
-2769.962121385199
 21
-1436.968597061557
 31
0.0
  0
LINE
  5
1BC
330
1F
100
AcDbEntity
  8
4-C
  6
Continuous
 62
     3
370
    13
100
AcDbLine
 10
-2484.362121385199
 20
-1149.568597061558
 30
0.0
 11
-2484.362121385199
 21
-1436.968597061557
 31
0.0
  0
LINE
  5
1BD
330
1F
100
AcDbEntity
  8
4-C
  6
Continuous
 62
     3
370
    13
100
AcDbLine
 10
-2198.762121385199
 20
-1149.568597061558
 30
0.0
 11
-2198.762121385199
 21
-1436.968597061557
 31
0.0
  0
LINE
  5
1BE
330
1F
100
AcDbEntity
  8
4-C
  6
Continuous
 62
     3
370
    13
100
AcDbLine
 10
-2198.762121385199
 20
-1463.968597061558
 30
0.0
 11
-2198.762121385199
 21
-1751.368597061558
 31
0.0
  0
LINE
  5
1BF
330
1F
100
AcDbEntity
  8
4-C
  6
Continuous
 62
     3
370
    13
100
AcDbLine
 10
-2484.362121385199
 20
-1463.968597061558
 30
0.0
 11
-2484.362121385199
 21
-1751.368597061558
 31
0.0
  0
LINE
  5
1C0
330
1F
100
AcDbEntity
  8
4-C
  6
Continuous
 62
     3
370
    13
100
AcDbLine
 10
-2769.962121385199
 20
-1463.968597061558
 30
0.0
 11
-2769.962121385199
 21
-1751.368597061558
 31
0.0
  0
LINE
  5
1C1
330
1F
100
AcDbEntity
  8
4-C
  6
Continuous
 62
     3
370
    13
100
AcDbLine
 10
-3055.562121385199
 20
-1463.968597061558
 30
0.0
 11
-3055.562121385199
 21
-1751.368597061558
 31
0.0
  0
LINE
  5
1C2
330
1F
100
AcDbEntity
  8
4-4
  6
Continuous
 62
     7
370
     9
100
AcDbLine
 10
-785.1621213851981
 20
-2000.968597061558
 30
0.0
 11
-785.1621213851981
 21
-2453.968597061558
 31
0.0
  0
LINE
  5
1C3
330
1F
100
AcDbEntity
  8
4-4
  6
Continuous
 62
     7
370
     9
100
AcDbLine
 10
-875.1621213851981
 20
-2000.968597061558
 30
0.0
 11
-875.1621213851981
 21
-2453.968597061558
 31
0.0
  0
LINE
  5
1C4
330
1F
100
AcDbEntity
  8
4-C
  6
Continuous
 62
     4
370
     5
100
AcDbLine
 10
2988.315286878624
 20
557.9875894925676
 30
0.0
 11
3168.315286878625
 21
557.9875894925676
 31
0.0
  0
LWPOLYLINE
  5
1C5
330
1F
100
AcDbEntity
  8
4-C
  6
Continuous
 62
     4
370
     5
100
AcDbPolyline
 90
        4
 70
     1
 43
6.0
 10
2991.315286878624
 20
557.9875894925676
 42
0.4142135623731
 10
2988.315286878624
 20
560.9875894925677
 42
0.4142135623731
 10
2985.315286878624
 20
557.9875894925676
 42
0.4142135623731
 10
2988.315286878624
 20
554.9875894925676
 42
0.4142135623731
  0
LWPOLYLINE
  5
1C6
330
1F
100
AcDbEntity
  8
4-C
  6
Continuous
 62
     4
370
     5
100
AcDbPolyline
 90
        4
 70
     1
 43
6.0
 10
3171.315286878625
 20
557.9875894925676
 42
0.4142135623731
 10
3168.315286878625
 20
560.9875894925677
 42
0.4142135623731
 10
3165.315286878625
 20
557.9875894925676
 42
0.4142135623731
 10
3168.315286878625
 20
554.9875894925676
 42
0.4142135623731
  0
LINE
  5
1C7
330
1F
100
AcDbEntity
  8
4-C
  6
Continuous
 62
     7
370
     9
100
AcDbLine
 10
2988.315286878624
 20
557.9875894925676
 30
0.0
 11
2988.315286878624
 21
449.0456849142734
 31
0.0
  0
LINE
  5
1C8
330
1F
100
AcDbEntity
  8
4-C
  6
Continuous
 62
     7
370
     9
100
AcDbLine
 10
3168.315286878625
 20
557.9875894925676
 30
0.0
 11
3168.315286878625
 21
449.0456849142734
 31
0.0
  0
TEXT
  5
1C9
330
1F
100
AcDbEntity
  8
4-C
  6
Continuous
 62
     7
370
   211
100
AcDbText
 10
3014.565286878624
 20
589.9075894925676
 30
0.0
 40
91.44
  1
60
 41
1.0625
  7
ＭＳ ゴシック
100
AcDbText
  0
LINE
  5
1CA
330
1F
100
AcDbEntity
  8
4-C
  6
Continuous
 62
     4
370
     5
100
AcDbLine
 10
3168.315286878625
 20
557.9875894925676
 30
0.0
 11
3858.315286878625
 21
557.9875894925676
 31
0.0
  0
LWPOLYLINE
  5
1CB
330
1F
100
AcDbEntity
  8
4-C
  6
Continuous
 62
     4
370
     5
100
AcDbPolyline
 90
        4
 70
     1
 43
6.0
 10
3861.315286878625
 20
557.9875894925676
 42
0.4142135623731
 10
3858.315286878625
 20
560.9875894925677
 42
0.4142135623731
 10
3855.315286878625
 20
557.9875894925676
 42
0.4142135623731
 10
3858.315286878625
 20
554.9875894925676
 42
0.4142135623731
  0
LINE
  5
1CC
330
1F
100
AcDbEntity
  8
4-C
  6
Continuous
 62
     7
370
     9
100
AcDbLine
 10
3858.315286878625
 20
557.9875894925676
 30
0.0
 11
3858.315286878625
 21
449.0456849142734
 31
0.0
  0
TEXT
  5
1CD
330
1F
100
AcDbEntity
  8
4-C
  6
Continuous
 62
     7
370
   211
100
AcDbText
 10
3415.815286878625
 20
589.9075894925676
 30
0.0
 40
91.44
  1
230
 41
1.083333333333333
  7
ＭＳ ゴシック
100
AcDbText
  0
LINE
  5
1CE
330
1F
100
AcDbEntity
  8
4-C
  6
Continuous
 62
     4
370
     5
100
AcDbLine
 10
3858.315286878625
 20
557.9875894925676
 30
0.0
 11
3948.315286878625
 21
557.9875894925676
 31
0.0
  0
LWPOLYLINE
  5
1CF
330
1F
100
AcDbEntity
  8
4-C
  6
Continuous
 62
     4
370
     5
100
AcDbPolyline
 90
        4
 70
     1
 43
6.0
 10
3951.315286878625
 20
557.9875894925676
 42
0.4142135623731
 10
3948.315286878625
 20
560.9875894925677
 42
0.4142135623731
 10
3945.315286878625
 20
557.9875894925676
 42
0.4142135623731
 10
3948.315286878625
 20
554.9875894925676
 42
0.4142135623731
  0
LINE
  5
1D0
330
1F
100
AcDbEntity
  8
4-C
  6
Continuous
 62
     7
370
     9
100
AcDbLine
 10
3948.315286878625
 20
557.9875894925676
 30
0.0
 11
3948.315286878625
 21
449.0456849142734
 31
0.0
  0
TEXT
  5
1D1
330
1F
100
AcDbEntity
  8
4-C
  6
Continuous
 62
     7
370
   211
100
AcDbText
 10
3839.565286878625
 20
589.9075894925676
 30
0.0
 40
91.44
  1
30
 41
1.0625
  7
ＭＳ ゴシック
100
AcDbText
  0
LINE
  5
1D2
330
1F
100
AcDbEntity
  8
4-C
  6
Continuous
 62
     4
370
     5
100
AcDbLine
 10
4172.174387562043
 20
-1914.232172381395
 30
0.0
 11
4172.174387562043
 21
-1407.232172381393
 31
0.0
  0
LWPOLYLINE
  5
1D3
330
1F
100
AcDbEntity
  8
4-C
  6
Continuous
 62
     4
370
     5
100
AcDbPolyline
 90
        4
 70
     1
 43
6.0
 10
4175.174387562043
 20
-1914.232172381395
 42
0.4142135623731
 10
4172.174387562043
 20
-1911.232172381395
 42
0.4142135623731
 10
4169.174387562044
 20
-1914.232172381395
 42
0.4142135623731
 10
4172.174387562043
 20
-1917.232172381395
 42
0.4142135623731
  0
LWPOLYLINE
  5
1D4
330
1F
100
AcDbEntity
  8
4-C
  6
Continuous
 62
     4
370
     5
100
AcDbPolyline
 90
        4
 70
     1
 43
6.0
 10
4175.174387562043
 20
-1407.232172381393
 42
0.4142135623731
 10
4172.174387562043
 20
-1404.232172381393
 42
0.4142135623731
 10
4169.174387562044
 20
-1407.232172381393
 42
0.4142135623731
 10
4172.174387562043
 20
-1410.232172381393
 42
0.4142135623731
  0
LINE
  5
1D5
330
1F
100
AcDbEntity
  8
4-C
  6
Continuous
 62
     7
370
     9
100
AcDbLine
 10
4172.174387562043
 20
-1914.232172381395
 30
0.0
 11
4061.503246403142
 21
-1914.232172381395
 31
0.0
  0
LINE
  5
1D6
330
1F
100
AcDbEntity
  8
4-C
  6
Continuous
 62
     7
370
     9
100
AcDbLine
 10
4172.174387562043
 20
-1407.232172381393
 30
0.0
 11
4061.503246403142
 21
-1407.232172381393
 31
0.0
  0
TEXT
  5
1D7
330
1F
100
AcDbEntity
  8
4-C
  6
Continuous
 62
     7
370
   211
100
AcDbText
 10
4140.254387562043
 20
-1758.232172381394
 30
0.0
 40
91.44
  1
169
 50
90.0
 41
1.083333333333333
  7
ＭＳ ゴシック
100
AcDbText
  0
LINE
  5
1D8
330
1F
100
AcDbEntity
  8
4-C
  6
Continuous
 62
     4
370
     5
100
AcDbLine
 10
4172.174387562043
 20
-1407.232172381393
 30
0.0
 11
4172.174387562043
 21
-1317.232172381393
 31
0.0
  0
LWPOLYLINE
  5
1D9
330
1F
100
AcDbEntity
  8
4-C
  6
Continuous
 62
     4
370
     5
100
AcDbPolyline
 90
        4
 70
     1
 43
6.0
 10
4175.174387562043
 20
-1317.232172381393
 42
0.4142135623731
 10
4172.174387562043
 20
-1314.232172381393
 42
0.4142135623731
 10
4169.174387562044
 20
-1317.232172381393
 42
0.4142135623731
 10
4172.174387562043
 20
-1320.232172381393
 42
0.4142135623731
  0
LINE
  5
1DA
330
1F
100
AcDbEntity
  8
4-C
  6
Continuous
 62
     7
370
     9
100
AcDbLine
 10
4172.174387562043
 20
-1317.232172381393
 30
0.0
 11
4061.503246403142
 21
-1317.232172381393
 31
0.0
  0
TEXT
  5
1DB
330
1F
100
AcDbEntity
  8
4-C
  6
Continuous
 62
     7
370
   211
100
AcDbText
 10
4140.254387562043
 20
-1425.982172381393
 30
0.0
 40
91.44
  1
30
 50
90.0
 41
1.0625
  7
ＭＳ ゴシック
100
AcDbText
  0
LINE
  5
1DC
330
1F
100
AcDbEntity
  8
4-C
  6
Continuous
 62
     4
370
     5
100
AcDbLine
 10
4172.174387562043
 20
-1317.232172381393
 30
0.0
 11
4172.174387562043
 21
-1227.232172381393
 31
0.0
  0
LWPOLYLINE
  5
1DD
330
1F
100
AcDbEntity
  8
4-C
  6
Continuous
 62
     4
370
     5
100
AcDbPolyline
 90
        4
 70
     1
 43
6.0
 10
4175.174387562043
 20
-1227.232172381393
 42
0.4142135623731
 10
4172.174387562043
 20
-1224.232172381393
 42
0.4142135623731
 10
4169.174387562044
 20
-1227.232172381393
 42
0.4142135623731
 10
4172.174387562043
 20
-1230.232172381393
 42
0.4142135623731
  0
LINE
  5
1DE
330
1F
100
AcDbEntity
  8
4-C
  6
Continuous
 62
     7
370
     9
100
AcDbLine
 10
4172.174387562043
 20
-1227.232172381393
 30
0.0
 11
4061.503246403142
 21
-1227.232172381393
 31
0.0
  0
LINE
  5
1DF
330
1F
100
AcDbEntity
  8
4-C
  6
Continuous
 62
     4
370
     5
100
AcDbLine
 10
4172.174387562043
 20
-1227.232172381393
 30
0.0
 11
4172.174387562043
 21
-1137.232172381393
 31
0.0
  0
LWPOLYLINE
  5
1E0
330
1F
100
AcDbEntity
  8
4-C
  6
Continuous
 62
     4
370
     5
100
AcDbPolyline
 90
        4
 70
     1
 43
6.0
 10
4175.174387562043
 20
-1137.232172381393
 42
0.4142135623731
 10
4172.174387562043
 20
-1134.232172381393
 42
0.4142135623731
 10
4169.174387562044
 20
-1137.232172381393
 42
0.4142135623731
 10
4172.174387562043
 20
-1140.232172381393
 42
0.4142135623731
  0
LINE
  5
1E1
330
1F
100
AcDbEntity
  8
4-C
  6
Continuous
 62
     7
370
     9
100
AcDbLine
 10
4172.174387562043
 20
-1137.232172381393
 30
0.0
 11
4061.503246403142
 21
-1137.232172381393
 31
0.0
  0
TEXT
  5
1E2
330
1F
100
AcDbEntity
  8
4-C
  6
Continuous
 62
     7
370
   211
100
AcDbText
 10
4140.254387562043
 20
-1245.982172381393
 30
0.0
 40
91.44
  1
30
 50
90.0
 41
1.0625
  7
ＭＳ ゴシック
100
AcDbText
  0
LINE
  5
1E3
330
1F
100
AcDbEntity
  8
4-C
  6
Continuous
 62
     4
370
     5
100
AcDbLine
 10
4172.174387562043
 20
-1137.232172381393
 30
0.0
 11
4172.174387562043
 21
-1047.232172381393
 31
0.0
  0
LWPOLYLINE
  5
1E4
330
1F
100
AcDbEntity
  8
4-C
  6
Continuous
 62
     4
370
     5
100
AcDbPolyline
 90
        4
 70
     1
 43
6.0
 10
4175.174387562043
 20
-1047.232172381393
 42
0.4142135623731
 10
4172.174387562043
 20
-1044.232172381393
 42
0.4142135623731
 10
4169.174387562044
 20
-1047.232172381393
 42
0.4142135623731
 10
4172.174387562043
 20
-1050.232172381393
 42
0.4142135623731
  0
LINE
  5
1E5
330
1F
100
AcDbEntity
  8
4-C
  6
Continuous
 62
     7
370
     9
100
AcDbLine
 10
4172.174387562043
 20
-1047.232172381393
 30
0.0
 11
4061.503246403142
 21
-1047.232172381393
 31
0.0
  0
LINE
  5
1E6
330
1F
100
AcDbEntity
  8
4-C
  6
Continuous
 62
     4
370
     5
100
AcDbLine
 10
4172.174387562043
 20
-1047.232172381393
 30
0.0
 11
4172.174387562043
 21
-957.2321723813934
 31
0.0
  0
LWPOLYLINE
  5
1E7
330
1F
100
AcDbEntity
  8
4-C
  6
Continuous
 62
     4
370
     5
100
AcDbPolyline
 90
        4
 70
     1
 43
6.0
 10
4175.174387562043
 20
-957.2321723813934
 42
0.4142135623731
 10
4172.174387562043
 20
-954.2321723813934
 42
0.4142135623731
 10
4169.174387562044
 20
-957.2321723813934
 42
0.4142135623731
 10
4172.174387562043
 20
-960.2321723813934
 42
0.4142135623731
  0
LINE
  5
1E8
330
1F
100
AcDbEntity
  8
4-C
  6
Continuous
 62
     7
370
     9
100
AcDbLine
 10
4172.174387562043
 20
-957.2321723813934
 30
0.0
 11
4061.503246403142
 21
-957.2321723813934
 31
0.0
  0
TEXT
  5
1E9
330
1F
100
AcDbEntity
  8
4-C
  6
Continuous
 62
     7
370
   211
100
AcDbText
 10
4140.254387562043
 20
-1065.982172381393
 30
0.0
 40
91.44
  1
30
 50
90.0
 41
1.0625
  7
ＭＳ ゴシック
100
AcDbText
  0
LINE
  5
1EA
330
1F
100
AcDbEntity
  8
4-C
  6
Continuous
 62
     4
370
     5
100
AcDbLine
 10
4172.174387562043
 20
-957.2321723813934
 30
0.0
 11
4172.174387562043
 21
-867.2321723813934
 31
0.0
  0
LWPOLYLINE
  5
1EB
330
1F
100
AcDbEntity
  8
4-C
  6
Continuous
 62
     4
370
     5
100
AcDbPolyline
 90
        4
 70
     1
 43
6.0
 10
4175.174387562043
 20
-867.2321723813934
 42
0.4142135623731
 10
4172.174387562043
 20
-864.2321723813934
 42
0.4142135623731
 10
4169.174387562044
 20
-867.2321723813934
 42
0.4142135623731
 10
4172.174387562043
 20
-870.2321723813934
 42
0.4142135623731
  0
LINE
  5
1EC
330
1F
100
AcDbEntity
  8
4-C
  6
Continuous
 62
     7
370
     9
100
AcDbLine
 10
4172.174387562043
 20
-867.2321723813934
 30
0.0
 11
4061.503246403142
 21
-867.2321723813934
 31
0.0
  0
LINE
  5
1ED
330
1F
100
AcDbEntity
  8
4-C
  6
Continuous
 62
     4
370
     5
100
AcDbLine
 10
4172.174387562043
 20
-867.2321723813934
 30
0.0
 11
4172.174387562043
 21
-777.2321723813934
 31
0.0
  0
LWPOLYLINE
  5
1EE
330
1F
100
AcDbEntity
  8
4-C
  6
Continuous
 62
     4
370
     5
100
AcDbPolyline
 90
        4
 70
     1
 43
6.0
 10
4175.174387562043
 20
-777.2321723813934
 42
0.4142135623731
 10
4172.174387562043
 20
-774.2321723813934
 42
0.4142135623731
 10
4169.174387562044
 20
-777.2321723813934
 42
0.4142135623731
 10
4172.174387562043
 20
-780.2321723813934
 42
0.4142135623731
  0
LINE
  5
1EF
330
1F
100
AcDbEntity
  8
4-C
  6
Continuous
 62
     7
370
     9
100
AcDbLine
 10
4172.174387562043
 20
-777.2321723813934
 30
0.0
 11
4061.503246403142
 21
-777.2321723813934
 31
0.0
  0
TEXT
  5
1F0
330
1F
100
AcDbEntity
  8
4-C
  6
Continuous
 62
     7
370
   211
100
AcDbText
 10
4140.254387562043
 20
-885.9821723813934
 30
0.0
 40
91.44
  1
30
 50
90.0
 41
1.0625
  7
ＭＳ ゴシック
100
AcDbText
  0
LINE
  5
1F1
330
1F
100
AcDbEntity
  8
4-C
  6
Continuous
 62
     4
370
     5
100
AcDbLine
 10
4172.174387562043
 20
-777.2321723813934
 30
0.0
 11
4172.174387562043
 21
-687.2321723813934
 31
0.0
  0
LWPOLYLINE
  5
1F2
330
1F
100
AcDbEntity
  8
4-C
  6
Continuous
 62
     4
370
     5
100
AcDbPolyline
 90
        4
 70
     1
 43
6.0
 10
4175.174387562043
 20
-687.2321723813934
 42
0.4142135623731
 10
4172.174387562043
 20
-684.2321723813934
 42
0.4142135623731
 10
4169.174387562044
 20
-687.2321723813934
 42
0.4142135623731
 10
4172.174387562043
 20
-690.2321723813934
 42
0.4142135623731
  0
LINE
  5
1F3
330
1F
100
AcDbEntity
  8
4-C
  6
Continuous
 62
     7
370
     9
100
AcDbLine
 10
4172.174387562043
 20
-687.2321723813934
 30
0.0
 11
4061.503246403142
 21
-687.2321723813934
 31
0.0
  0
LINE
  5
1F4
330
1F
100
AcDbEntity
  8
4-C
  6
Continuous
 62
     4
370
     5
100
AcDbLine
 10
4172.174387562043
 20
-687.2321723813934
 30
0.0
 11
4172.174387562043
 21
-597.2321723813934
 31
0.0
  0
LWPOLYLINE
  5
1F5
330
1F
100
AcDbEntity
  8
4-C
  6
Continuous
 62
     4
370
     5
100
AcDbPolyline
 90
        4
 70
     1
 43
6.0
 10
4175.174387562043
 20
-597.2321723813934
 42
0.4142135623731
 10
4172.174387562043
 20
-594.2321723813934
 42
0.4142135623731
 10
4169.174387562044
 20
-597.2321723813934
 42
0.4142135623731
 10
4172.174387562043
 20
-600.2321723813934
 42
0.4142135623731
  0
LINE
  5
1F6
330
1F
100
AcDbEntity
  8
4-C
  6
Continuous
 62
     7
370
     9
100
AcDbLine
 10
4172.174387562043
 20
-597.2321723813934
 30
0.0
 11
4061.503246403142
 21
-597.2321723813934
 31
0.0
  0
TEXT
  5
1F7
330
1F
100
AcDbEntity
  8
4-C
  6
Continuous
 62
     7
370
   211
100
AcDbText
 10
4140.254387562043
 20
-705.9821723813934
 30
0.0
 40
91.44
  1
30
 50
90.0
 41
1.0625
  7
ＭＳ ゴシック
100
AcDbText
  0
LINE
  5
1F8
330
1F
100
AcDbEntity
  8
4-C
  6
Continuous
 62
     4
370
     5
100
AcDbLine
 10
4172.174387562043
 20
-597.2321723813934
 30
0.0
 11
4172.174387562043
 21
-507.2321723813934
 31
0.0
  0
LWPOLYLINE
  5
1F9
330
1F
100
AcDbEntity
  8
4-C
  6
Continuous
 62
     4
370
     5
100
AcDbPolyline
 90
        4
 70
     1
 43
6.0
 10
4175.174387562043
 20
-507.2321723813934
 42
0.4142135623731
 10
4172.174387562043
 20
-504.2321723813934
 42
0.4142135623731
 10
4169.174387562044
 20
-507.2321723813934
 42
0.4142135623731
 10
4172.174387562043
 20
-510.2321723813935
 42
0.4142135623731
  0
LINE
  5
1FA
330
1F
100
AcDbEntity
  8
4-C
  6
Continuous
 62
     7
370
     9
100
AcDbLine
 10
4172.174387562043
 20
-507.2321723813934
 30
0.0
 11
4061.503246403142
 21
-507.2321723813934
 31
0.0
  0
LINE
  5
1FB
330
1F
100
AcDbEntity
  8
4-C
  6
Continuous
 62
     4
370
     5
100
AcDbLine
 10
4172.174387562043
 20
-507.2321723813934
 30
0.0
 11
4172.174387562043
 21
-417.2321723813934
 31
0.0
  0
LWPOLYLINE
  5
1FC
330
1F
100
AcDbEntity
  8
4-C
  6
Continuous
 62
     4
370
     5
100
AcDbPolyline
 90
        4
 70
     1
 43
6.0
 10
4175.174387562043
 20
-417.2321723813934
 42
0.4142135623731
 10
4172.174387562043
 20
-414.2321723813934
 42
0.4142135623731
 10
4169.174387562044
 20
-417.2321723813934
 42
0.4142135623731
 10
4172.174387562043
 20
-420.2321723813934
 42
0.4142135623731
  0
LINE
  5
1FD
330
1F
100
AcDbEntity
  8
4-C
  6
Continuous
 62
     7
370
     9
100
AcDbLine
 10
4172.174387562043
 20
-417.2321723813934
 30
0.0
 11
4061.503246403142
 21
-417.2321723813934
 31
0.0
  0
TEXT
  5
1FE
330
1F
100
AcDbEntity
  8
4-C
  6
Continuous
 62
     7
370
   211
100
AcDbText
 10
4140.254387562043
 20
-525.9821723813934
 30
0.0
 40
91.44
  1
30
 50
90.0
 41
1.0625
  7
ＭＳ ゴシック
100
AcDbText
  0
LINE
  5
1FF
330
1F
100
AcDbEntity
  8
4-C
  6
Continuous
 62
     4
370
     5
100
AcDbLine
 10
4172.174387562043
 20
-417.2321723813934
 30
0.0
 11
4172.174387562043
 21
-327.2321723813934
 31
0.0
  0
LWPOLYLINE
  5
200
330
1F
100
AcDbEntity
  8
4-C
  6
Continuous
 62
     4
370
     5
100
AcDbPolyline
 90
        4
 70
     1
 43
6.0
 10
4175.174387562043
 20
-327.2321723813934
 42
0.4142135623731
 10
4172.174387562043
 20
-324.2321723813934
 42
0.4142135623731
 10
4169.174387562044
 20
-327.2321723813934
 42
0.4142135623731
 10
4172.174387562043
 20
-330.2321723813934
 42
0.4142135623731
  0
LINE
  5
201
330
1F
100
AcDbEntity
  8
4-C
  6
Continuous
 62
     7
370
     9
100
AcDbLine
 10
4172.174387562043
 20
-327.2321723813934
 30
0.0
 11
4061.503246403142
 21
-327.2321723813934
 31
0.0
  0
LINE
  5
202
330
1F
100
AcDbEntity
  8
4-C
  6
Continuous
 62
     4
370
     5
100
AcDbLine
 10
4172.174387562043
 20
-327.2321723813934
 30
0.0
 11
4172.174387562043
 21
-237.2321723813934
 31
0.0
  0
LWPOLYLINE
  5
203
330
1F
100
AcDbEntity
  8
4-C
  6
Continuous
 62
     4
370
     5
100
AcDbPolyline
 90
        4
 70
     1
 43
6.0
 10
4175.174387562043
 20
-237.2321723813934
 42
0.4142135623731
 10
4172.174387562043
 20
-234.2321723813934
 42
0.4142135623731
 10
4169.174387562044
 20
-237.2321723813934
 42
0.4142135623731
 10
4172.174387562043
 20
-240.2321723813934
 42
0.4142135623731
  0
LINE
  5
204
330
1F
100
AcDbEntity
  8
4-C
  6
Continuous
 62
     7
370
     9
100
AcDbLine
 10
4172.174387562043
 20
-237.2321723813934
 30
0.0
 11
4061.503246403142
 21
-237.2321723813934
 31
0.0
  0
TEXT
  5
205
330
1F
100
AcDbEntity
  8
4-C
  6
Continuous
 62
     7
370
   211
100
AcDbText
 10
4140.254387562043
 20
-345.9821723813934
 30
0.0
 40
91.44
  1
30
 50
90.0
 41
1.0625
  7
ＭＳ ゴシック
100
AcDbText
  0
LINE
  5
206
330
1F
100
AcDbEntity
  8
4-C
  6
Continuous
 62
     4
370
     5
100
AcDbLine
 10
4172.174387562043
 20
-237.2321723813934
 30
0.0
 11
4172.174387562043
 21
269.7678276186068
 31
0.0
  0
LWPOLYLINE
  5
207
330
1F
100
AcDbEntity
  8
4-C
  6
Continuous
 62
     4
370
     5
100
AcDbPolyline
 90
        4
 70
     1
 43
6.0
 10
4175.174387562043
 20
269.7678276186068
 42
0.4142135623731
 10
4172.174387562043
 20
272.7678276186068
 42
0.4142135623731
 10
4169.174387562044
 20
269.7678276186068
 42
0.4142135623731
 10
4172.174387562043
 20
266.7678276186068
 42
0.4142135623731
  0
LINE
  5
208
330
1F
100
AcDbEntity
  8
4-C
  6
Continuous
 62
     7
370
     9
100
AcDbLine
 10
4172.174387562043
 20
269.7678276186068
 30
0.0
 11
4061.503246403142
 21
269.7678276186068
 31
0.0
  0
TEXT
  5
209
330
1F
100
AcDbEntity
  8
4-C
  6
Continuous
 62
     7
370
   211
100
AcDbText
 10
4140.254387562043
 20
-81.23217238139333
 30
0.0
 40
91.44
  1
169
 50
90.0
 41
1.083333333333333
  7
ＭＳ ゴシック
100
AcDbText
  0
TEXT
  5
20A
330
1F
100
AcDbEntity
  8
4-C
  6
Continuous
 62
     7
370
   211
100
AcDbText
 10
4309.210024497675
 20
-1327.700102125707
 30
0.0
 40
91.44
  1
30
 50
90.0
 41
1.0625
  7
ＭＳ ゴシック
100
AcDbText
  0
TEXT
  5
20B
330
1F
100
AcDbEntity
  8
4-C
  6
Continuous
 62
     7
370
   211
100
AcDbText
 10
4302.856635956868
 20
-974.0281400207879
 30
0.0
 40
91.44
  1
30
 50
90.0
 41
1.0625
  7
ＭＳ ゴシック
100
AcDbText
  0
TEXT
  5
20C
330
1F
100
AcDbEntity
  8
4-C
  6
Continuous
 62
     7
370
   211
100
AcDbText
 10
4304.974432137136
 20
-1151.923019163382
 30
0.0
 40
91.44
  1
30
 50
90.0
 41
1.0625
  7
ＭＳ ゴシック
100
AcDbText
  0
TEXT
  5
20D
330
1F
100
AcDbEntity
  8
4-C
  6
Continuous
 62
     7
370
   211
100
AcDbText
 10
4302.856635956868
 20
-794.0154646979248
 30
0.0
 40
91.44
  1
30
 50
90.0
 41
1.0625
  7
ＭＳ ゴシック
100
AcDbText
  0
TEXT
  5
20E
330
1F
100
AcDbEntity
  8
4-C
  6
Continuous
 62
     7
370
   211
100
AcDbText
 10
4300.738839776599
 20
-620.3561779158688
 30
0.0
 40
91.44
  1
30
 50
90.0
 41
1.0625
  7
ＭＳ ゴシック
100
AcDbText
  0
TEXT
  5
20F
330
1F
100
AcDbEntity
  8
4-C
  6
Continuous
 62
     7
370
   211
100
AcDbText
 10
4300.738839776599
 20
-438.2257064127369
 30
0.0
 40
91.44
  1
30
 50
90.0
 41
1.0625
  7
ＭＳ ゴシック
100
AcDbText
  0
CIRCLE
  5
210
330
1F
100
AcDbEntity
  8
4-C
  6
JWW_DASHED1
 62
     7
370
     9
100
AcDbCircle
 10
3168.315286878625
 20
-1407.232172381393
 30
0.0
 40
7.5
  0
CIRCLE
  5
211
330
1F
100
AcDbEntity
  8
4-C
  6
JWW_DASHED1
 62
     7
370
     9
100
AcDbCircle
 10
3858.315286878625
 20
-1407.232172381393
 30
0.0
 40
7.5
  0
CIRCLE
  5
212
330
1F
100
AcDbEntity
  8
4-C
  6
JWW_DASHED1
 62
     7
370
     9
100
AcDbCircle
 10
3858.315286878625
 20
-1317.232172381393
 30
0.0
 40
7.5
  0
CIRCLE
  5
213
330
1F
100
AcDbEntity
  8
4-C
  6
JWW_DASHED1
 62
     7
370
     9
100
AcDbCircle
 10
3168.315286878625
 20
-1317.232172381393
 30
0.0
 40
7.5
  0
CIRCLE
  5
214
330
1F
100
AcDbEntity
  8
4-C
  6
JWW_DASHED1
 62
     7
370
     9
100
AcDbCircle
 10
3168.315286878625
 20
-1227.232172381393
 30
0.0
 40
7.5
  0
CIRCLE
  5
215
330
1F
100
AcDbEntity
  8
4-C
  6
JWW_DASHED1
 62
     7
370
     9
100
AcDbCircle
 10
3858.315286878625
 20
-1227.232172381393
 30
0.0
 40
7.5
  0
CIRCLE
  5
216
330
1F
100
AcDbEntity
  8
4-C
  6
JWW_DASHED1
 62
     7
370
     9
100
AcDbCircle
 10
3858.315286878625
 20
-1137.232172381393
 30
0.0
 40
7.5
  0
CIRCLE
  5
217
330
1F
100
AcDbEntity
  8
4-C
  6
JWW_DASHED1
 62
     7
370
     9
100
AcDbCircle
 10
3168.315286878625
 20
-1047.232172381393
 30
0.0
 40
7.5
  0
CIRCLE
  5
218
330
1F
100
AcDbEntity
  8
4-C
  6
JWW_DASHED1
 62
     7
370
     9
100
AcDbCircle
 10
3168.315286878625
 20
-1137.232172381393
 30
0.0
 40
7.5
  0
CIRCLE
  5
219
330
1F
100
AcDbEntity
  8
4-C
  6
JWW_DASHED1
 62
     7
370
     9
100
AcDbCircle
 10
3858.315286878625
 20
-1047.232172381393
 30
0.0
 40
7.5
  0
CIRCLE
  5
21A
330
1F
100
AcDbEntity
  8
4-C
  6
JWW_DASHED1
 62
     7
370
     9
100
AcDbCircle
 10
3858.315286878625
 20
-957.2321723813934
 30
0.0
 40
7.5
  0
CIRCLE
  5
21B
330
1F
100
AcDbEntity
  8
4-C
  6
JWW_DASHED1
 62
     7
370
     9
100
AcDbCircle
 10
3168.315286878625
 20
-957.2321723813934
 30
0.0
 40
7.5
  0
CIRCLE
  5
21C
330
1F
100
AcDbEntity
  8
4-C
  6
JWW_DASHED1
 62
     7
370
     9
100
AcDbCircle
 10
3168.315286878625
 20
-867.2321723813934
 30
0.0
 40
7.5
  0
CIRCLE
  5
21D
330
1F
100
AcDbEntity
  8
4-C
  6
JWW_DASHED1
 62
     7
370
     9
100
AcDbCircle
 10
3858.315286878625
 20
-867.2321723813934
 30
0.0
 40
7.5
  0
CIRCLE
  5
21E
330
1F
100
AcDbEntity
  8
4-C
  6
JWW_DASHED1
 62
     7
370
     9
100
AcDbCircle
 10
3858.315286878625
 20
-777.2321723813934
 30
0.0
 40
7.5
  0
CIRCLE
  5
21F
330
1F
100
AcDbEntity
  8
4-C
  6
JWW_DASHED1
 62
     7
370
     9
100
AcDbCircle
 10
3168.315286878625
 20
-777.2321723813934
 30
0.0
 40
7.5
  0
CIRCLE
  5
220
330
1F
100
AcDbEntity
  8
4-C
  6
JWW_DASHED1
 62
     7
370
     9
100
AcDbCircle
 10
3168.315286878625
 20
-687.2321723813934
 30
0.0
 40
7.5
  0
CIRCLE
  5
221
330
1F
100
AcDbEntity
  8
4-C
  6
JWW_DASHED1
 62
     7
370
     9
100
AcDbCircle
 10
3858.315286878625
 20
-687.2321723813934
 30
0.0
 40
7.5
  0
CIRCLE
  5
222
330
1F
100
AcDbEntity
  8
4-C
  6
JWW_DASHED1
 62
     7
370
     9
100
AcDbCircle
 10
3858.315286878625
 20
-597.2321723813934
 30
0.0
 40
7.5
  0
CIRCLE
  5
223
330
1F
100
AcDbEntity
  8
4-C
  6
JWW_DASHED1
 62
     7
370
     9
100
AcDbCircle
 10
3168.315286878625
 20
-597.2321723813934
 30
0.0
 40
7.5
  0
CIRCLE
  5
224
330
1F
100
AcDbEntity
  8
4-C
  6
JWW_DASHED1
 62
     7
370
     9
100
AcDbCircle
 10
3168.315286878625
 20
-507.2321723813934
 30
0.0
 40
7.5
  0
CIRCLE
  5
225
330
1F
100
AcDbEntity
  8
4-C
  6
JWW_DASHED1
 62
     7
370
     9
100
AcDbCircle
 10
3858.315286878625
 20
-507.2321723813934
 30
0.0
 40
7.5
  0
CIRCLE
  5
226
330
1F
100
AcDbEntity
  8
4-C
  6
JWW_DASHED1
 62
     7
370
     9
100
AcDbCircle
 10
3858.315286878625
 20
-417.2321723813934
 30
0.0
 40
7.5
  0
CIRCLE
  5
227
330
1F
100
AcDbEntity
  8
4-C
  6
JWW_DASHED1
 62
     7
370
     9
100
AcDbCircle
 10
3168.315286878625
 20
-417.2321723813934
 30
0.0
 40
7.5
  0
CIRCLE
  5
228
330
1F
100
AcDbEntity
  8
4-C
  6
JWW_DASHED1
 62
     7
370
     9
100
AcDbCircle
 10
3168.315286878625
 20
-327.2321723813934
 30
0.0
 40
7.5
  0
CIRCLE
  5
229
330
1F
100
AcDbEntity
  8
4-C
  6
JWW_DASHED1
 62
     7
370
     9
100
AcDbCircle
 10
3858.315286878625
 20
-327.2321723813934
 30
0.0
 40
7.5
  0
CIRCLE
  5
22A
330
1F
100
AcDbEntity
  8
4-C
  6
JWW_DASHED1
 62
     7
370
     9
100
AcDbCircle
 10
3858.315286878625
 20
-237.2321723813934
 30
0.0
 40
7.5
  0
CIRCLE
  5
22B
330
1F
100
AcDbEntity
  8
4-C
  6
JWW_DASHED1
 62
     7
370
     9
100
AcDbCircle
 10
3168.315286878625
 20
-237.2321723813934
 30
0.0
 40
7.5
  0
LINE
  5
22C
330
1F
100
AcDbEntity
  8
4-C
  6
Continuous
 62
     4
370
     5
100
AcDbLine
 10
3163.011986019726
 20
-242.5354732402924
 30
0.0
 11
3173.618587737524
 21
-231.9288715224943
 31
0.0
  0
TEXT
  5
22D
330
1F
100
AcDbEntity
  8
4-C
  6
Continuous
 62
     7
370
   211
100
AcDbText
 10
3257.113756460032
 20
-103.292005889038
 30
0.0
 40
91.44
  1
5φ
 50
44.99999999999974
 41
1.041666666666667
  7
ＭＳ ゴシック
100
AcDbText
  0
LINE
  5
22E
330
1F
100
AcDbEntity
  8
4-C
  6
Continuous
 62
     4
370
     5
100
AcDbLine
 10
3173.618587737524
 20
-231.9288715224943
 30
0.0
 11
3412.267126387985
 21
6.719667127964311
 31
0.0
  0
LINE
  5
22F
330
1F
100
AcDbEntity
  8
4-C
  6
Continuous
 62
     4
370
     5
100
AcDbLine
 10
3056.945968841743
 20
-348.6014904182741
 30
0.0
 11
3163.011986019726
 21
-242.5354732402924
 31
0.0
  0
LINE
  5
230
330
1F
100
AcDbEntity
  8
4-C
  6
Continuous
 62
     4
370
     5
100
AcDbLine
 10
3163.011986019726
 20
-242.5354732402924
 30
0.0
 11
3118.011986019725
 21
-320.4777595808917
 31
0.0
  0
LINE
  5
231
330
1F
100
AcDbEntity
  8
4-C
  6
Continuous
 62
     4
370
     5
100
AcDbLine
 10
3163.011986019726
 20
-242.5354732402924
 30
0.0
 11
3085.069699679126
 21
-287.5354732402921
 31
0.0
  0
LINE
  5
232
330
1F
100
AcDbEntity
  8
4-C
  6
Continuous
 62
     4
370
     5
100
AcDbLine
 10
3173.618587737524
 20
-231.9288715224943
 30
0.0
 11
3218.618587737524
 21
-153.986585181895
 31
0.0
  0
LINE
  5
233
330
1F
100
AcDbEntity
  8
4-C
  6
Continuous
 62
     4
370
     5
100
AcDbLine
 10
3173.618587737524
 20
-231.9288715224943
 30
0.0
 11
3251.560874078123
 21
-186.9288715224946
 31
0.0
  0
LWPOLYLINE
  5
234
330
1F
100
AcDbEntity
  8
4-C
  6
Continuous
 62
     4
370
     5
100
AcDbPolyline
 90
        4
 70
     1
 43
6.0
 10
-4108.632970806233
 20
1365.472599100457
 42
0.4142135623731
 10
-4111.632970806233
 20
1368.472599100457
 42
0.4142135623731
 10
-4114.632970806232
 20
1365.472599100457
 42
0.4142135623731
 10
-4111.632970806233
 20
1362.472599100457
 42
0.4142135623731
  0
LINE
  5
235
330
1F
100
AcDbEntity
  8
4-4
  6
JWW_CENTER1
 62
     3
370
    13
100
AcDbLine
 10
-1838.162121385199
 20
958.2596531874077
 30
0.0
 11
-1838.162121385199
 21
2577.254066595229
 31
0.0
  0
LINE
  5
236
330
1F
100
AcDbEntity
  8
4-4
  6
JWW_DASHED1
 62
     7
370
     9
100
AcDbLine
 10
-1913.162121385199
 20
1275.472599100457
 30
0.0
 11
-1913.162121385199
 21
1215.472599100457
 31
0.0
  0
LINE
  5
237
330
1F
100
AcDbEntity
  8
4-4
  6
JWW_DASHED1
 62
     7
370
     9
100
AcDbLine
 10
-86.16212138519806
 20
1275.472599100457
 30
0.0
 11
-86.16212138519806
 21
1215.472599100457
 31
0.0
  0
LINE
  5
238
330
1F
100
AcDbEntity
  8
4-4
  6
JWW_DASHED1
 62
     7
370
     9
100
AcDbLine
 10
-1913.162121385199
 20
1275.472599100457
 30
0.0
 11
-86.16212138519806
 21
1275.472599100457
 31
0.0
  0
LINE
  5
239
330
1F
100
AcDbEntity
  8
4-4
  6
JWW_DASHED1
 62
     7
370
     9
100
AcDbLine
 10
-1913.162121385199
 20
1215.472599100457
 30
0.0
 11
-86.16212138519806
 21
1215.472599100457
 31
0.0
  0
LINE
  5
23A
330
1F
100
AcDbEntity
  8
4-C
  6
Continuous
 62
     4
370
     5
100
AcDbLine
 10
-4357.904499101525
 20
1095.472599100457
 30
0.0
 11
-4357.904499101525
 21
2340.472599100457
 31
0.0
  0
LWPOLYLINE
  5
23B
330
1F
100
AcDbEntity
  8
4-C
  6
Continuous
 62
     4
370
     5
100
AcDbPolyline
 90
        4
 70
     1
 43
6.0
 10
-4354.904499101525
 20
1095.472599100457
 42
0.4142135623731
 10
-4357.904499101525
 20
1098.472599100457
 42
0.4142135623731
 10
-4360.904499101524
 20
1095.472599100457
 42
0.4142135623731
 10
-4357.904499101525
 20
1092.472599100457
 42
0.4142135623731
  0
LWPOLYLINE
  5
23C
330
1F
100
AcDbEntity
  8
4-C
  6
Continuous
 62
     4
370
     5
100
AcDbPolyline
 90
        4
 70
     1
 43
6.0
 10
-4354.904499101525
 20
2340.472599100457
 42
0.4142135623731
 10
-4357.904499101525
 20
2343.472599100457
 42
0.4142135623731
 10
-4360.904499101524
 20
2340.472599100457
 42
0.4142135623731
 10
-4357.904499101525
 20
2337.472599100457
 42
0.4142135623731
  0
TEXT
  5
23D
330
1F
100
AcDbEntity
  8
4-4
  6
Continuous
 62
     7
370
     0
100
AcDbText
 10
-4409.574949604305
 20
1282.030114175251
 30
0.0
 40
91.44
  1
415(ｶｳﾝﾀｰ奥行)
 50
90.0
 41
1.116071428571429
  7
ＭＳ ゴシック
100
AcDbText
  0
LINE
  5
23E
330
1F
100
AcDbEntity
  8
4-4
  6
JWW_DASHED1
 62
     7
370
     9
100
AcDbLine
 10
-3590.1621213852
 20
1365.472599100457
 30
0.0
 11
-3590.1621213852
 21
2340.472599100457
 31
0.0
  0
LINE
  5
23F
330
1F
100
AcDbEntity
  8
4-4
  6
JWW_DASHED1
 62
     7
370
     9
100
AcDbLine
 10
-3530.1621213852
 20
1365.472599100457
 30
0.0
 11
-3530.1621213852
 21
2340.472599100457
 31
0.0
  0
LINE
  5
240
330
1F
100
AcDbEntity
  8
4-4
  6
JWW_DASHED1
 62
     7
370
     9
100
AcDbLine
 10
-1763.162121385199
 20
1350.472599100457
 30
0.0
 11
-1763.162121385199
 21
1290.472599100457
 31
0.0
  0
LINE
  5
241
330
1F
100
AcDbEntity
  8
4-4
  6
JWW_DASHED1
 62
     7
370
     9
100
AcDbLine
 10
-3590.1621213852
 20
1350.472599100457
 30
0.0
 11
-3590.1621213852
 21
1290.472599100457
 31
0.0
  0
LINE
  5
242
330
1F
100
AcDbEntity
  8
4-4
  6
JWW_DASHED1
 62
     7
370
     9
100
AcDbLine
 10
-3590.1621213852
 20
1350.472599100457
 30
0.0
 11
-1763.162121385199
 21
1350.472599100457
 31
0.0
  0
LINE
  5
243
330
1F
100
AcDbEntity
  8
4-4
  6
JWW_DASHED1
 62
     7
370
     9
100
AcDbLine
 10
-3590.1621213852
 20
1290.472599100457
 30
0.0
 11
-1763.162121385199
 21
1290.472599100457
 31
0.0
  0
LINE
  5
244
330
1F
100
AcDbEntity
  8
4-C
  6
Continuous
 62
     4
370
     5
100
AcDbLine
 10
-4111.632970806233
 20
1365.472599100457
 30
0.0
 11
-4111.632970806233
 21
2340.472599100457
 31
0.0
  0
LINE
  5
245
330
1F
100
AcDbEntity
  8
4-C
  6
Continuous
 62
     7
370
     9
100
AcDbLine
 10
-4111.632970806233
 20
2340.472599100457
 30
0.0
 11
-3814.906989294405
 21
2340.472599100457
 31
0.0
  0
TEXT
  5
246
330
1F
100
AcDbEntity
  8
4-C
  6
Continuous
 62
     7
370
   211
100
AcDbText
 10
-4143.552970806233
 20
1755.472599100457
 30
0.0
 40
91.44
  1
325
 50
90.0
 41
1.083333333333333
  7
ＭＳ ゴシック
100
AcDbText
  0
LINE
  5
247
330
1F
100
AcDbEntity
  8
4-C
  6
Continuous
 62
     4
370
     5
100
AcDbLine
 10
-3937.492280193836
 20
1365.472599100457
 30
0.0
 11
-3937.492280193836
 21
2220.472599100457
 31
0.0
  0
LWPOLYLINE
  5
248
330
1F
100
AcDbEntity
  8
4-C
  6
Continuous
 62
     4
370
     5
100
AcDbPolyline
 90
        4
 70
     1
 43
6.0
 10
-3934.492280193836
 20
1365.472599100457
 42
0.4142135623731
 10
-3937.492280193836
 20
1368.472599100457
 42
0.4142135623731
 10
-3940.492280193836
 20
1365.472599100457
 42
0.4142135623731
 10
-3937.492280193836
 20
1362.472599100457
 42
0.4142135623731
  0
LWPOLYLINE
  5
249
330
1F
100
AcDbEntity
  8
4-C
  6
Continuous
 62
     4
370
     5
100
AcDbPolyline
 90
        4
 70
     1
 43
6.0
 10
-3934.492280193836
 20
2220.472599100457
 42
0.4142135623731
 10
-3937.492280193836
 20
2223.472599100457
 42
0.4142135623731
 10
-3940.492280193836
 20
2220.472599100457
 42
0.4142135623731
 10
-3937.492280193836
 20
2217.472599100457
 42
0.4142135623731
  0
TEXT
  5
24A
330
1F
100
AcDbEntity
  8
4-C
  6
Continuous
 62
     7
370
   211
100
AcDbText
 10
-3969.412280193836
 20
1695.472599100457
 30
0.0
 40
91.44
  1
285
 50
90.0
 41
1.083333333333333
  7
ＭＳ ゴシック
100
AcDbText
  0
LINE
  5
24B
330
1F
100
AcDbEntity
  8
4-C
  6
Continuous
 62
     4
370
     5
100
AcDbLine
 10
-3937.492280193836
 20
2220.472599100457
 30
0.0
 11
-3937.492280193836
 21
2340.472599100457
 31
0.0
  0
TEXT
  5
24C
330
1F
100
AcDbEntity
  8
4-C
  6
Continuous
 62
     7
370
   211
100
AcDbText
 10
-3969.412280193836
 20
2216.722599100457
 30
0.0
 40
91.44
  1
40
 50
90.0
 41
1.0625
  7
ＭＳ ゴシック
100
AcDbText
  0
LINE
  5
24D
330
1F
100
AcDbEntity
  8
4-C
  6
Continuous
 62
     4
370
     5
100
AcDbLine
 10
-3937.492280193836
 20
1095.472599100457
 30
0.0
 11
-3937.492280193836
 21
1365.472599100457
 31
0.0
  0
LWPOLYLINE
  5
24E
330
1F
100
AcDbEntity
  8
4-C
  6
Continuous
 62
     4
370
     5
100
AcDbPolyline
 90
        4
 70
     1
 43
6.0
 10
-3934.492280193836
 20
1095.472599100457
 42
0.4142135623731
 10
-3937.492280193836
 20
1098.472599100457
 42
0.4142135623731
 10
-3940.492280193836
 20
1095.472599100457
 42
0.4142135623731
 10
-3937.492280193836
 20
1092.472599100457
 42
0.4142135623731
  0
LINE
  5
24F
330
1F
100
AcDbEntity
  8
4-C
  6
Continuous
 62
     7
370
     9
100
AcDbLine
 10
-3937.492280193836
 20
1095.472599100457
 30
0.0
 11
-3814.906989294405
 21
1095.472599100457
 31
0.0
  0
LINE
  5
250
330
1F
100
AcDbEntity
  8
4-C
  6
Continuous
 62
     7
370
     9
100
AcDbLine
 10
-3937.492280193836
 20
1365.472599100457
 30
0.0
 11
-3814.906989294405
 21
1365.472599100457
 31
0.0
  0
TEXT
  5
251
330
1F
100
AcDbEntity
  8
4-C
  6
Continuous
 62
     7
370
   211
100
AcDbText
 10
-3969.412280193836
 20
1166.722599100457
 30
0.0
 40
91.44
  1
90
 50
90.0
 41
1.0625
  7
ＭＳ ゴシック
100
AcDbText
  0
LINE
  5
252
330
1F
100
AcDbEntity
  8
4-4
  6
JWW_DASHED1
 62
     7
370
     9
100
AcDbLine
 10
-146.1621213851981
 20
1290.472599100457
 30
0.0
 11
-146.1621213851981
 21
2340.472599100457
 31
0.0
  0
LINE
  5
253
330
1F
100
AcDbEntity
  8
4-4
  6
JWW_DASHED1
 62
     7
370
     9
100
AcDbLine
 10
-86.16212138519806
 20
1290.472599100457
 30
0.0
 11
-86.16212138519806
 21
2340.472599100457
 31
0.0
  0
LINE
  5
254
330
1F
100
AcDbEntity
  8
4-C
  6
Continuous
 62
     4
370
     5
100
AcDbLine
 10
446.3596221529539
 20
1290.472599100457
 30
0.0
 11
446.3596221529539
 21
2340.472599100457
 31
0.0
  0
LWPOLYLINE
  5
255
330
1F
100
AcDbEntity
  8
4-C
  6
Continuous
 62
     4
370
     5
100
AcDbPolyline
 90
        4
 70
     1
 43
6.0
 10
449.3596221529539
 20
1290.472599100457
 42
0.4142135623731
 10
446.3596221529539
 20
1293.472599100457
 42
0.4142135623731
 10
443.3596221529539
 20
1290.472599100457
 42
0.4142135623731
 10
446.3596221529539
 20
1287.472599100457
 42
0.4142135623731
  0
LWPOLYLINE
  5
256
330
1F
100
AcDbEntity
  8
4-C
  6
Continuous
 62
     4
370
     5
100
AcDbPolyline
 90
        4
 70
     1
 43
6.0
 10
449.3596221529539
 20
2340.472599100457
 42
0.4142135623731
 10
446.3596221529539
 20
2343.472599100457
 42
0.4142135623731
 10
443.359622152954
 20
2340.472599100457
 42
0.4142135623731
 10
446.3596221529539
 20
2337.472599100457
 42
0.4142135623731
  0
TEXT
  5
257
330
1F
100
AcDbEntity
  8
4-C
  6
Continuous
 62
     7
370
   211
100
AcDbText
 10
414.4396221529539
 20
1717.972599100457
 30
0.0
 40
91.44
  1
350
 50
90.0
 41
1.083333333333333
  7
ＭＳ ゴシック
100
AcDbText
  0
LINE
  5
258
330
1F
100
AcDbEntity
  8
4-C
  6
Continuous
 62
     7
370
     9
100
AcDbLine
 10
-3641.1621213852
 20
1095.472599100457
 30
0.0
 11
-35.16212138519806
 21
1095.472599100457
 31
0.0
  0
LINE
  5
259
330
1F
100
AcDbEntity
  8
4-C
  6
Continuous
 62
     7
370
     9
100
AcDbLine
 10
-3641.1621213852
 20
1095.472599100457
 30
0.0
 11
-3641.1621213852
 21
2340.472599100457
 31
0.0
  0
LINE
  5
25A
330
1F
100
AcDbEntity
  8
4-C
  6
Continuous
 62
     7
370
     9
100
AcDbLine
 10
-3641.1621213852
 20
2340.472599100457
 30
0.0
 11
-35.16212138519806
 21
2340.472599100457
 31
0.0
  0
LINE
  5
25B
330
1F
100
AcDbEntity
  8
4-C
  6
JWW_DASHED1
 62
     7
370
     9
100
AcDbLine
 10
-3530.1621213852
 20
2325.472599100457
 30
0.0
 11
-146.1621213851978
 21
2325.472599100457
 31
0.0
  0
LINE
  5
25C
330
1F
100
AcDbEntity
  8
4-C
  6
Continuous
 62
     7
370
     9
100
AcDbLine
 10
-35.16212138519806
 20
1095.472599100457
 30
0.0
 11
-35.16212138519806
 21
2340.472599100457
 31
0.0
  0
LINE
  5
25D
330
1F
100
AcDbEntity
  8
4-C
  6
JWW_DASHED1
 62
     7
370
     9
100
AcDbLine
 10
-146.1621213851981
 20
1290.472599100457
 30
0.0
 11
-86.16212138519806
 21
1290.472599100457
 31
0.0
  0
LINE
  5
25E
330
1F
100
AcDbEntity
  8
4-C
  6
JWW_DASHED1
 62
     7
370
     9
100
AcDbLine
 10
-3590.1621213852
 20
1365.472599100457
 30
0.0
 11
-3530.1621213852
 21
1365.472599100457
 31
0.0
  0
LWPOLYLINE
  5
25F
330
1F
100
AcDbEntity
  8
4-C
  6
Continuous
 62
     4
370
     5
100
AcDbPolyline
 90
        4
 70
     1
 43
6.0
 10
-4108.632970806233
 20
2340.472599100457
 42
0.4142135623731
 10
-4111.632970806233
 20
2343.472599100457
 42
0.4142135623731
 10
-4114.632970806232
 20
2340.472599100457
 42
0.4142135623731
 10
-4111.632970806233
 20
2337.472599100457
 42
0.4142135623731
  0
LINE
  5
260
330
1F
100
AcDbEntity
  8
4-C
  6
Continuous
 62
     4
370
     5
100
AcDbLine
 10
-4357.904499101525
 20
2340.472599100457
 30
0.0
 11
-3814.906989294405
 21
2340.472599100457
 31
0.0
  0
LWPOLYLINE
  5
261
330
1F
100
AcDbEntity
  8
4-C
  6
Continuous
 62
     4
370
     5
100
AcDbPolyline
 90
        4
 70
     1
 43
6.0
 10
-3934.492280193836
 20
2340.472599100457
 42
0.4142135623731
 10
-3937.492280193836
 20
2343.472599100457
 42
0.4142135623731
 10
-3940.492280193836
 20
2340.472599100457
 42
0.4142135623731
 10
-3937.492280193836
 20
2337.472599100457
 42
0.4142135623731
  0
LINE
  5
262
330
1F
100
AcDbEntity
  8
4-C
  6
Continuous
 62
     4
370
     5
100
AcDbLine
 10
-3937.492280193836
 20
2220.472599100457
 30
0.0
 11
-3814.906989294405
 21
2220.472599100457
 31
0.0
  0
LINE
  5
263
330
1F
100
AcDbEntity
  8
4-C
  6
Continuous
 62
     4
370
     5
100
AcDbLine
 10
-3937.492280193836
 20
1365.472599100457
 30
0.0
 11
-3814.906989294405
 21
1365.472599100457
 31
0.0
  0
LINE
  5
264
330
1F
100
AcDbEntity
  8
4-C
  6
Continuous
 62
     4
370
     5
100
AcDbLine
 10
-4111.632970806233
 20
1365.472599100457
 30
0.0
 11
-3987.537210282618
 21
1365.472599100457
 31
0.0
  0
LINE
  5
265
330
1F
100
AcDbEntity
  8
4-C
  6
Continuous
 62
     4
370
     5
100
AcDbLine
 10
-4357.904499101525
 20
1095.472599100457
 30
0.0
 11
-3814.906989294405
 21
1095.472599100457
 31
0.0
  0
LINE
  5
266
330
1F
100
AcDbEntity
  8
4-C
  6
Continuous
 62
     4
370
     5
100
AcDbLine
 10
446.3596221529539
 20
2340.472599100457
 30
0.0
 11
233.0706005960767
 21
2340.472599100457
 31
0.0
  0
LINE
  5
267
330
1F
100
AcDbEntity
  8
4-C
  6
Continuous
 62
     4
370
     5
100
AcDbLine
 10
446.3596221529539
 20
1290.472599100457
 30
0.0
 11
233.0706005960766
 21
1290.472599100457
 31
0.0
  0
LINE
  5
268
330
1F
100
AcDbEntity
  8
4-4
  6
JWW_DASHED1
 62
     7
370
     9
100
AcDbLine
 10
-1868.162121385199
 20
1365.472599100457
 30
0.0
 11
-1868.162121385199
 21
2340.472599100457
 31
0.0
  0
LINE
  5
269
330
1F
100
AcDbEntity
  8
4-C
  6
JWW_DASHED1
 62
     7
370
     9
100
AcDbLine
 10
-1868.162121385199
 20
1365.472599100457
 30
0.0
 11
-1808.162121385199
 21
1365.472599100457
 31
0.0
  0
LINE
  5
26A
330
1F
100
AcDbEntity
  8
4-4
  6
JWW_DASHED1
 62
     7
370
     9
100
AcDbLine
 10
-1808.162121385199
 20
1365.472599100457
 30
0.0
 11
-1808.162121385199
 21
2340.472599100457
 31
0.0
  0
LINE
  5
26B
330
1F
100
AcDbEntity
  8
4-4
  6
JWW_DASHED1
 62
     7
370
     9
100
AcDbLine
 10
-2891.1621213852
 20
1365.472599100457
 30
0.0
 11
-2801.1621213852
 21
1365.472599100457
 31
0.0
  0
LINE
  5
26C
330
1F
100
AcDbEntity
  8
4-4
  6
JWW_DASHED1
 62
     7
370
     9
100
AcDbLine
 10
-2824.836854705182
 20
1365.472599100448
 30
0.0
 11
-2801.162121385193
 21
1389.147332420438
 31
0.0
  0
LINE
  5
26D
330
1F
100
AcDbEntity
  8
4-4
  6
JWW_DASHED1
 62
     7
370
     9
100
AcDbLine
 10
-2867.263261576383
 20
1365.472599100448
 30
0.0
 11
-2801.162121385197
 21
1431.573739291633
 31
0.0
  0
LINE
  5
26E
330
1F
100
AcDbEntity
  8
4-4
  6
JWW_DASHED1
 62
     7
370
     9
100
AcDbLine
 10
-2891.162121385192
 20
1384.000146162839
 30
0.0
 11
-2801.162121385201
 21
1474.000146162831
 31
0.0
  0
LINE
  5
26F
330
1F
100
AcDbEntity
  8
4-4
  6
JWW_DASHED1
 62
     7
370
     9
100
AcDbLine
 10
-2891.162121385196
 20
1426.426553034035
 30
0.0
 11
-2801.162121385204
 21
1516.426553034026
 31
0.0
  0
LINE
  5
270
330
1F
100
AcDbEntity
  8
4-4
  6
JWW_DASHED1
 62
     7
370
     9
100
AcDbLine
 10
-2891.162121385199
 20
1468.852959905232
 30
0.0
 11
-2801.162121385192
 21
1558.852959905239
 31
0.0
  0
LINE
  5
271
330
1F
100
AcDbEntity
  8
4-4
  6
JWW_DASHED1
 62
     7
370
     9
100
AcDbLine
 10
-2891.162121385203
 20
1511.279366776428
 30
0.0
 11
-2801.162121385196
 21
1601.279366776435
 31
0.0
  0
LINE
  5
272
330
1F
100
AcDbEntity
  8
4-4
  6
JWW_DASHED1
 62
     7
370
     9
100
AcDbLine
 10
-2891.162121385206
 20
1553.705773647625
 30
0.0
 11
-2801.162121385199
 21
1643.705773647632
 31
0.0
  0
LINE
  5
273
330
1F
100
AcDbEntity
  8
4-4
  6
JWW_DASHED1
 62
     7
370
     9
100
AcDbLine
 10
-2891.162121385198
 20
1596.132180518778
 30
0.0
 11
-2801.16212138519
 21
1686.132180518786
 31
0.0
  0
LINE
  5
274
330
1F
100
AcDbEntity
  8
4-4
  6
JWW_DASHED1
 62
     7
370
     9
100
AcDbLine
 10
-2891.162121385186
 20
1638.558587389991
 30
0.0
 11
-2801.162121385195
 21
1728.558587389981
 31
0.0
  0
LINE
  5
275
330
1F
100
AcDbEntity
  8
4-4
  6
JWW_DASHED1
 62
     7
370
     9
100
AcDbLine
 10
-2891.16212138519
 20
1680.984994261187
 30
0.0
 11
-2801.162121385198
 21
1770.984994261178
 31
0.0
  0
LINE
  5
276
330
1F
100
AcDbEntity
  8
4-4
  6
JWW_DASHED1
 62
     7
370
     9
100
AcDbLine
 10
-2891.162121385193
 20
1723.411401132384
 30
0.0
 11
-2801.162121385203
 21
1813.411401132374
 31
0.0
  0
LINE
  5
277
330
1F
100
AcDbEntity
  8
4-4
  6
JWW_DASHED1
 62
     7
370
     9
100
AcDbLine
 10
-2891.162121385197
 20
1765.837808003579
 30
0.0
 11
-2801.162121385206
 21
1855.83780800357
 31
0.0
  0
LINE
  5
278
330
1F
100
AcDbEntity
  8
4-4
  6
JWW_DASHED1
 62
     7
370
     9
100
AcDbLine
 10
-2891.162121385201
 20
1808.264214874776
 30
0.0
 11
-2801.162121385194
 21
1898.264214874783
 31
0.0
  0
LINE
  5
279
330
1F
100
AcDbEntity
  8
4-4
  6
JWW_DASHED1
 62
     7
370
     9
100
AcDbLine
 10
-2891.162121385204
 20
1850.690621745972
 30
0.0
 11
-2801.162121385197
 21
1940.690621745979
 31
0.0
  0
LINE
  5
27A
330
1F
100
AcDbEntity
  8
4-4
  6
JWW_DASHED1
 62
     7
370
     9
100
AcDbLine
 10
-2891.162121385212
 20
1893.117028617111
 30
0.0
 11
-2801.162121385205
 21
1983.117028617118
 31
0.0
  0
LINE
  5
27B
330
1F
100
AcDbEntity
  8
4-4
  6
JWW_DASHED1
 62
     7
370
     9
100
AcDbLine
 10
-2891.1621213852
 20
1935.543435488322
 30
0.0
 11
-2801.162121385192
 21
2025.54343548833
 31
0.0
  0
LINE
  5
27C
330
1F
100
AcDbEntity
  8
4-4
  6
JWW_DASHED1
 62
     7
370
     9
100
AcDbLine
 10
-2891.162121385187
 20
1977.969842359536
 30
0.0
 11
-2801.162121385196
 21
2067.969842359527
 31
0.0
  0
LINE
  5
27D
330
1F
100
AcDbEntity
  8
4-4
  6
JWW_DASHED1
 62
     7
370
     9
100
AcDbLine
 10
-2891.162121385191
 20
2020.396249230731
 30
0.0
 11
-2801.1621213852
 21
2110.396249230722
 31
0.0
  0
LINE
  5
27E
330
1F
100
AcDbEntity
  8
4-4
  6
JWW_DASHED1
 62
     7
370
     9
100
AcDbLine
 10
-2891.162121385195
 20
2062.822656101927
 30
0.0
 11
-2801.162121385204
 21
2152.822656101919
 31
0.0
  0
LINE
  5
27F
330
1F
100
AcDbEntity
  8
4-4
  6
JWW_DASHED1
 62
     7
370
     9
100
AcDbLine
 10
-2891.162121385198
 20
2105.249062973125
 30
0.0
 11
-2801.162121385208
 21
2195.249062973115
 31
0.0
  0
LINE
  5
280
330
1F
100
AcDbEntity
  8
4-4
  6
JWW_DASHED1
 62
     7
370
     9
100
AcDbLine
 10
-2891.1621213852
 20
1365.472599100457
 30
0.0
 11
-2891.1621213852
 21
2220.472599100457
 31
0.0
  0
LINE
  5
281
330
1F
100
AcDbEntity
  8
4-4
  6
JWW_DASHED1
 62
     7
370
     9
100
AcDbLine
 10
-2801.1621213852
 20
1365.472599100457
 30
0.0
 11
-2801.1621213852
 21
2220.472599100457
 31
0.0
  0
LINE
  5
282
330
1F
100
AcDbEntity
  8
4-4
  6
JWW_DASHED1
 62
     7
370
     9
100
AcDbLine
 10
-2891.162121385203
 20
2147.675469844319
 30
0.0
 11
-2818.364992129065
 21
2220.472599100457
 31
0.0
  0
LINE
  5
283
330
1F
100
AcDbEntity
  8
4-C
  6
JWW_DASHED1
 62
     7
370
     9
100
AcDbLine
 10
-2891.1621213852
 20
2220.472599100457
 30
0.0
 11
-2801.1621213852
 21
2220.472599100457
 31
0.0
  0
LINE
  5
284
330
1F
100
AcDbEntity
  8
4-4
  6
JWW_DASHED1
 62
     7
370
     9
100
AcDbLine
 10
-2891.162121385206
 20
2190.101876715516
 30
0.0
 11
-2860.791399000265
 21
2220.472599100457
 31
0.0
  0
LINE
  5
285
330
1F
100
AcDbEntity
  8
4-C
  6
Continuous
 62
     4
370
     5
100
AcDbLine
 10
-3641.1621213852
 20
2600.433536808842
 30
0.0
 11
-2891.1621213852
 21
2600.433536808842
 31
0.0
  0
LWPOLYLINE
  5
286
330
1F
100
AcDbEntity
  8
4-C
  6
Continuous
 62
     4
370
     5
100
AcDbPolyline
 90
        4
 70
     1
 43
6.0
 10
-3638.1621213852
 20
2600.433536808842
 42
0.4142135623731
 10
-3641.1621213852
 20
2603.433536808842
 42
0.4142135623731
 10
-3644.1621213852
 20
2600.433536808842
 42
0.4142135623731
 10
-3641.1621213852
 20
2597.433536808843
 42
0.4142135623731
  0
LWPOLYLINE
  5
287
330
1F
100
AcDbEntity
  8
4-C
  6
Continuous
 62
     4
370
     5
100
AcDbPolyline
 90
        4
 70
     1
 43
6.0
 10
-2888.1621213852
 20
2600.433536808842
 42
0.4142135623731
 10
-2891.1621213852
 20
2603.433536808842
 42
0.4142135623731
 10
-2894.1621213852
 20
2600.433536808842
 42
0.4142135623731
 10
-2891.1621213852
 20
2597.433536808843
 42
0.4142135623731
  0
LINE
  5
288
330
1F
100
AcDbEntity
  8
4-C
  6
Continuous
 62
     7
370
     9
100
AcDbLine
 10
-3641.1621213852
 20
2600.433536808842
 30
0.0
 11
-3641.1621213852
 21
2456.051332698977
 31
0.0
  0
LINE
  5
289
330
1F
100
AcDbEntity
  8
4-C
  6
Continuous
 62
     7
370
     9
100
AcDbLine
 10
-2891.1621213852
 20
2600.433536808842
 30
0.0
 11
-2891.1621213852
 21
2456.051332698977
 31
0.0
  0
TEXT
  5
28A
330
1F
100
AcDbEntity
  8
4-C
  6
Continuous
 62
     7
370
   211
100
AcDbText
 10
-3363.6621213852
 20
2632.353536808842
 30
0.0
 40
91.44
  1
250
 41
1.083333333333333
  7
ＭＳ ゴシック
100
AcDbText
  0
LINE
  5
28B
330
1F
100
AcDbEntity
  8
4-C
  6
Continuous
 62
     4
370
     5
100
AcDbLine
 10
-2891.1621213852
 20
2600.433536808842
 30
0.0
 11
-2801.1621213852
 21
2600.433536808842
 31
0.0
  0
LWPOLYLINE
  5
28C
330
1F
100
AcDbEntity
  8
4-C
  6
Continuous
 62
     4
370
     5
100
AcDbPolyline
 90
        4
 70
     1
 43
6.0
 10
-2798.1621213852
 20
2600.433536808842
 42
0.4142135623731
 10
-2801.1621213852
 20
2603.433536808842
 42
0.4142135623731
 10
-2804.1621213852
 20
2600.433536808842
 42
0.4142135623731
 10
-2801.1621213852
 20
2597.433536808843
 42
0.4142135623731
  0
LINE
  5
28D
330
1F
100
AcDbEntity
  8
4-C
  6
Continuous
 62
     7
370
     9
100
AcDbLine
 10
-2801.1621213852
 20
2600.433536808842
 30
0.0
 11
-2801.1621213852
 21
2456.051332698977
 31
0.0
  0
TEXT
  5
28E
330
1F
100
AcDbEntity
  8
4-C
  6
Continuous
 62
     7
370
   211
100
AcDbText
 10
-2909.9121213852
 20
2632.353536808842
 30
0.0
 40
91.44
  1
30
 41
1.0625
  7
ＭＳ ゴシック
100
AcDbText
  0
LINE
  5
28F
330
1F
100
AcDbEntity
  8
4-4
  6
JWW_DASHED1
 62
     7
370
     9
100
AcDbLine
 10
-785.1621213851981
 20
1365.472599100457
 30
0.0
 11
-875.1621213851981
 21
1365.472599100457
 31
0.0
  0
LINE
  5
290
330
1F
100
AcDbEntity
  8
4-4
  6
JWW_DASHED1
 62
     7
370
     9
100
AcDbLine
 10
-851.4873880652154
 20
1365.472599100448
 30
0.0
 11
-875.162121385205
 21
1389.147332420438
 31
0.0
  0
LINE
  5
291
330
1F
100
AcDbEntity
  8
4-4
  6
JWW_DASHED1
 62
     7
370
     9
100
AcDbLine
 10
-809.0609811940149
 20
1365.472599100448
 30
0.0
 11
-875.1621213852011
 21
1431.573739291633
 31
0.0
  0
LINE
  5
292
330
1F
100
AcDbEntity
  8
4-4
  6
JWW_DASHED1
 62
     7
370
     9
100
AcDbLine
 10
-785.1621213852062
 20
1384.000146162839
 30
0.0
 11
-875.1621213851977
 21
1474.000146162831
 31
0.0
  0
LINE
  5
293
330
1F
100
AcDbEntity
  8
4-4
  6
JWW_DASHED1
 62
     7
370
     9
100
AcDbLine
 10
-785.1621213852021
 20
1426.426553034035
 30
0.0
 11
-875.1621213851938
 21
1516.426553034026
 31
0.0
  0
LINE
  5
294
330
1F
100
AcDbEntity
  8
4-4
  6
JWW_DASHED1
 62
     7
370
     9
100
AcDbLine
 10
-785.1621213851987
 20
1468.852959905232
 30
0.0
 11
-875.1621213852062
 21
1558.852959905239
 31
0.0
  0
LINE
  5
295
330
1F
100
AcDbEntity
  8
4-4
  6
JWW_DASHED1
 62
     7
370
     9
100
AcDbLine
 10
-785.1621213851953
 20
1511.279366776428
 30
0.0
 11
-875.1621213852023
 21
1601.279366776435
 31
0.0
  0
LINE
  5
296
330
1F
100
AcDbEntity
  8
4-4
  6
JWW_DASHED1
 62
     7
370
     9
100
AcDbLine
 10
-785.1621213851914
 20
1553.705773647625
 30
0.0
 11
-875.1621213851989
 21
1643.705773647632
 31
0.0
  0
LINE
  5
297
330
1F
100
AcDbEntity
  8
4-4
  6
JWW_DASHED1
 62
     7
370
     9
100
AcDbLine
 10
-785.1621213851998
 20
1596.132180518778
 30
0.0
 11
-875.1621213852068
 21
1686.132180518786
 31
0.0
  0
LINE
  5
298
330
1F
100
AcDbEntity
  8
4-4
  6
JWW_DASHED1
 62
     7
370
     9
100
AcDbLine
 10
-785.1621213852118
 20
1638.558587389991
 30
0.0
 11
-875.1621213852032
 21
1728.558587389981
 31
0.0
  0
LINE
  5
299
330
1F
100
AcDbEntity
  8
4-4
  6
JWW_DASHED1
 62
     7
370
     9
100
AcDbLine
 10
-785.1621213852084
 20
1680.984994261187
 30
0.0
 11
-875.1621213851998
 21
1770.984994261178
 31
0.0
  0
LINE
  5
29A
330
1F
100
AcDbEntity
  8
4-4
  6
JWW_DASHED1
 62
     7
370
     9
100
AcDbLine
 10
-785.162121385205
 20
1723.411401132384
 30
0.0
 11
-875.162121385196
 21
1813.411401132374
 31
0.0
  0
LINE
  5
29B
330
1F
100
AcDbEntity
  8
4-4
  6
JWW_DASHED1
 62
     7
370
     9
100
AcDbLine
 10
-785.1621213852011
 20
1765.837808003579
 30
0.0
 11
-875.1621213851926
 21
1855.83780800357
 31
0.0
  0
LINE
  5
29C
330
1F
100
AcDbEntity
  8
4-4
  6
JWW_DASHED1
 62
     7
370
     9
100
AcDbLine
 10
-785.1621213851977
 20
1808.264214874776
 30
0.0
 11
-875.1621213852045
 21
1898.264214874783
 31
0.0
  0
LINE
  5
29D
330
1F
100
AcDbEntity
  8
4-4
  6
JWW_DASHED1
 62
     7
370
     9
100
AcDbLine
 10
-785.1621213851938
 20
1850.690621745972
 30
0.0
 11
-875.1621213852011
 21
1940.690621745979
 31
0.0
  0
LINE
  5
29E
330
1F
100
AcDbEntity
  8
4-4
  6
JWW_DASHED1
 62
     7
370
     9
100
AcDbLine
 10
-785.1621213851862
 20
1893.117028617111
 30
0.0
 11
-875.162121385193
 21
1983.117028617118
 31
0.0
  0
LINE
  5
29F
330
1F
100
AcDbEntity
  8
4-4
  6
JWW_DASHED1
 62
     7
370
     9
100
AcDbLine
 10
-785.1621213851981
 20
1935.543435488322
 30
0.0
 11
-875.1621213852051
 21
2025.54343548833
 31
0.0
  0
LINE
  5
2A0
330
1F
100
AcDbEntity
  8
4-4
  6
JWW_DASHED1
 62
     7
370
     9
100
AcDbLine
 10
-785.1621213852102
 20
1977.969842359536
 30
0.0
 11
-875.1621213852017
 21
2067.969842359527
 31
0.0
  0
LINE
  5
2A1
330
1F
100
AcDbEntity
  8
4-4
  6
JWW_DASHED1
 62
     7
370
     9
100
AcDbLine
 10
-785.1621213852067
 20
2020.396249230731
 30
0.0
 11
-875.1621213851981
 21
2110.396249230722
 31
0.0
  0
LINE
  5
2A2
330
1F
100
AcDbEntity
  8
4-4
  6
JWW_DASHED1
 62
     7
370
     9
100
AcDbLine
 10
-785.1621213852032
 20
2062.822656101927
 30
0.0
 11
-875.1621213851947
 21
2152.822656101919
 31
0.0
  0
LINE
  5
2A3
330
1F
100
AcDbEntity
  8
4-4
  6
JWW_DASHED1
 62
     7
370
     9
100
AcDbLine
 10
-785.1621213851998
 20
2105.249062973125
 30
0.0
 11
-875.1621213851909
 21
2195.249062973115
 31
0.0
  0
LINE
  5
2A4
330
1F
100
AcDbEntity
  8
4-4
  6
JWW_DASHED1
 62
     7
370
     9
100
AcDbLine
 10
-875.1621213851981
 20
1365.472599100457
 30
0.0
 11
-875.1621213851981
 21
2220.472599100457
 31
0.0
  0
LINE
  5
2A5
330
1F
100
AcDbEntity
  8
4-4
  6
JWW_DASHED1
 62
     7
370
     9
100
AcDbLine
 10
-785.1621213851981
 20
1365.472599100457
 30
0.0
 11
-785.1621213851981
 21
2220.472599100457
 31
0.0
  0
LINE
  5
2A6
330
1F
100
AcDbEntity
  8
4-4
  6
JWW_DASHED1
 62
     7
370
     9
100
AcDbLine
 10
-785.162121385196
 20
2147.675469844319
 30
0.0
 11
-857.9592506413331
 21
2220.472599100457
 31
0.0
  0
LINE
  5
2A7
330
1F
100
AcDbEntity
  8
4-C
  6
JWW_DASHED1
 62
     7
370
     9
100
AcDbLine
 10
-875.1621213851981
 20
2220.472599100457
 30
0.0
 11
-785.1621213851981
 21
2220.472599100457
 31
0.0
  0
LINE
  5
2A8
330
1F
100
AcDbEntity
  8
4-4
  6
JWW_DASHED1
 62
     7
370
     9
100
AcDbLine
 10
-785.1621213851919
 20
2190.101876715516
 30
0.0
 11
-815.532843770133
 21
2220.472599100457
 31
0.0
  0
LINE
  5
2A9
330
1F
100
AcDbEntity
  8
4-C
  6
Continuous
 62
     7
370
     9
100
AcDbLine
 10
-1808.162121385199
 20
2644.390988427378
 30
0.0
 11
-1808.162121385199
 21
3514.390988427378
 31
0.0
  0
LINE
  5
2AA
330
1F
100
AcDbEntity
  8
4-C
  6
Continuous
 62
     7
370
     9
100
AcDbLine
 10
-1808.162121385199
 20
2644.390988427378
 30
0.0
 11
-146.1621213851978
 21
2644.390988427378
 31
0.0
  0
LINE
  5
2AB
330
1F
100
AcDbEntity
  8
4-C
  6
Continuous
 62
     7
370
     9
100
AcDbLine
 10
-1808.162121385199
 20
3514.390988427378
 30
0.0
 11
-146.1621213851978
 21
3514.390988427378
 31
0.0
  0
LINE
  5
2AC
330
1F
100
AcDbEntity
  8
4-C
  6
Continuous
 62
     7
370
     9
100
AcDbLine
 10
-146.1621213851978
 20
2644.390988427378
 30
0.0
 11
-146.1621213851978
 21
3514.390988427378
 31
0.0
  0
LINE
  5
2AD
330
1F
100
AcDbEntity
  8
4-C
  6
JWW_DASHED1
 62
     7
370
     9
100
AcDbLine
 10
-1778.162121385199
 20
3409.390988427378
 30
0.0
 11
-1778.162121385199
 21
3439.390988427378
 31
0.0
  0
LINE
  5
2AE
330
1F
100
AcDbEntity
  8
4-C
  6
JWW_DASHED1
 62
     7
370
     9
100
AcDbLine
 10
-1778.162121385199
 20
2719.390988427378
 30
0.0
 11
-1778.162121385199
 21
2749.390988427378
 31
0.0
  0
LINE
  5
2AF
330
1F
100
AcDbEntity
  8
4-C
  6
JWW_DASHED1
 62
     7
370
     9
100
AcDbLine
 10
-176.1621213851978
 20
3409.390988427378
 30
0.0
 11
-176.1621213851978
 21
3439.390988427378
 31
0.0
  0
LINE
  5
2B0
330
1F
100
AcDbEntity
  8
4-C
  6
JWW_DASHED1
 62
     7
370
     9
100
AcDbLine
 10
-176.1621213851978
 20
2719.390988427378
 30
0.0
 11
-176.1621213851978
 21
2749.390988427378
 31
0.0
  0
LINE
  5
2B1
330
1F
100
AcDbEntity
  8
4-C
  6
JWW_DASHED1
 62
     7
370
     9
100
AcDbLine
 10
-176.1621213851978
 20
2749.390988427378
 30
0.0
 11
-146.1621213851978
 21
2749.390988427378
 31
0.0
  0
LINE
  5
2B2
330
1F
100
AcDbEntity
  8
4-C
  6
JWW_DASHED1
 62
     7
370
     9
100
AcDbLine
 10
-176.1621213851978
 20
2719.390988427378
 30
0.0
 11
-146.1621213851978
 21
2719.390988427378
 31
0.0
  0
LINE
  5
2B3
330
1F
100
AcDbEntity
  8
4-C
  6
JWW_DASHED1
 62
     7
370
     9
100
AcDbLine
 10
-176.1621213851978
 20
3439.390988427378
 30
0.0
 11
-146.1621213851978
 21
3439.390988427378
 31
0.0
  0
LINE
  5
2B4
330
1F
100
AcDbEntity
  8
4-C
  6
JWW_DASHED1
 62
     7
370
     9
100
AcDbLine
 10
-176.1621213851978
 20
3409.390988427378
 30
0.0
 11
-146.1621213851978
 21
3409.390988427378
 31
0.0
  0
LINE
  5
2B5
330
1F
100
AcDbEntity
  8
4-C
  6
JWW_DASHED1
 62
     7
370
     9
100
AcDbLine
 10
-1808.162121385199
 20
3409.390988427378
 30
0.0
 11
-1778.162121385199
 21
3409.390988427378
 31
0.0
  0
LINE
  5
2B6
330
1F
100
AcDbEntity
  8
4-C
  6
JWW_DASHED1
 62
     7
370
     9
100
AcDbLine
 10
-1808.162121385199
 20
3439.390988427378
 30
0.0
 11
-1778.162121385199
 21
3439.390988427378
 31
0.0
  0
LINE
  5
2B7
330
1F
100
AcDbEntity
  8
4-C
  6
JWW_DASHED1
 62
     7
370
     9
100
AcDbLine
 10
-1808.162121385199
 20
2749.390988427378
 30
0.0
 11
-1778.162121385199
 21
2749.390988427378
 31
0.0
  0
LINE
  5
2B8
330
1F
100
AcDbEntity
  8
4-C
  6
JWW_DASHED1
 62
     7
370
     9
100
AcDbLine
 10
-1808.162121385199
 20
2719.390988427378
 30
0.0
 11
-1778.162121385199
 21
2719.390988427378
 31
0.0
  0
LINE
  5
2B9
330
1F
100
AcDbEntity
  8
4-C
  6
JWW_CENTER1
 62
     7
370
     9
100
AcDbLine
 10
-1866.833535214478
 20
3424.390988427378
 30
0.0
 11
-1732.148715633646
 21
3424.390988427378
 31
0.0
  0
LINE
  5
2BA
330
1F
100
AcDbEntity
  8
4-C
  6
JWW_CENTER1
 62
     7
370
     9
100
AcDbLine
 10
-1866.833535214478
 20
2734.390988427378
 30
0.0
 11
-1732.148715633646
 21
2734.390988427378
 31
0.0
  0
LINE
  5
2BB
330
1F
100
AcDbEntity
  8
4-C
  6
JWW_CENTER1
 62
     7
370
     9
100
AcDbLine
 10
-233.4386691041394
 20
3424.390988427378
 30
0.0
 11
-73.55148416164205
 21
3424.390988427378
 31
0.0
  0
LINE
  5
2BC
330
1F
100
AcDbEntity
  8
4-C
  6
JWW_CENTER1
 62
     7
370
     9
100
AcDbLine
 10
-233.4386691041394
 20
2734.390988427378
 30
0.0
 11
-73.55148416164205
 21
2734.390988427378
 31
0.0
  0
LINE
  5
2BD
330
1F
100
AcDbEntity
  8
4-C
  6
Continuous
 62
     4
370
     5
100
AcDbLine
 10
-1808.162121385199
 20
3617.024915376273
 30
0.0
 11
-1778.162121385199
 21
3617.024915376273
 31
0.0
  0
LWPOLYLINE
  5
2BE
330
1F
100
AcDbEntity
  8
4-C
  6
Continuous
 62
     4
370
     5
100
AcDbPolyline
 90
        4
 70
     1
 43
6.0
 10
-1805.162121385199
 20
3617.024915376273
 42
0.4142135623731
 10
-1808.162121385199
 20
3620.024915376273
 42
0.4142135623731
 10
-1811.162121385199
 20
3617.024915376273
 42
0.4142135623731
 10
-1808.162121385199
 20
3614.024915376273
 42
0.4142135623731
  0
LWPOLYLINE
  5
2BF
330
1F
100
AcDbEntity
  8
4-C
  6
Continuous
 62
     4
370
     5
100
AcDbPolyline
 90
        4
 70
     1
 43
6.0
 10
-1775.162121385199
 20
3617.024915376273
 42
0.4142135623731
 10
-1778.162121385199
 20
3620.024915376273
 42
0.4142135623731
 10
-1781.162121385199
 20
3617.024915376273
 42
0.4142135623731
 10
-1778.162121385199
 20
3614.024915376273
 42
0.4142135623731
  0
LINE
  5
2C0
330
1F
100
AcDbEntity
  8
4-C
  6
Continuous
 62
     7
370
     9
100
AcDbLine
 10
-1808.162121385199
 20
3807.528304332473
 30
0.0
 11
-1808.162121385199
 21
3550.203448333556
 31
0.0
  0
LINE
  5
2C1
330
1F
100
AcDbEntity
  8
4-C
  6
Continuous
 62
     7
370
     9
100
AcDbLine
 10
-1778.162121385199
 20
3617.024915376273
 30
0.0
 11
-1778.162121385199
 21
3550.203448333556
 31
0.0
  0
TEXT
  5
2C2
330
1F
100
AcDbEntity
  8
4-C
  6
Continuous
 62
     7
370
   211
100
AcDbText
 10
-1856.912121385199
 20
3648.944915376273
 30
0.0
 40
91.44
  1
10
 41
1.0625
  7
ＭＳ ゴシック
100
AcDbText
  0
LWPOLYLINE
  5
2C3
330
1F
100
AcDbEntity
  8
4-C
  6
Continuous
 62
     4
370
     5
100
AcDbPolyline
 90
        4
 70
     1
 43
6.0
 10
-173.1621213851978
 20
3617.024915376273
 42
0.4142135623731
 10
-176.1621213851978
 20
3620.024915376273
 42
0.4142135623731
 10
-179.1621213851978
 20
3617.024915376273
 42
0.4142135623731
 10
-176.1621213851978
 20
3614.024915376273
 42
0.4142135623731
  0
LINE
  5
2C4
330
1F
100
AcDbEntity
  8
4-C
  6
Continuous
 62
     7
370
     9
100
AcDbLine
 10
-176.1621213851978
 20
3617.024915376273
 30
0.0
 11
-176.1621213851978
 21
3550.203448333556
 31
0.0
  0
LINE
  5
2C5
330
1F
100
AcDbEntity
  8
4-C
  6
Continuous
 62
     4
370
     5
100
AcDbLine
 10
-176.1621213851978
 20
3617.024915376273
 30
0.0
 11
-146.1621213851978
 21
3617.024915376273
 31
0.0
  0
LWPOLYLINE
  5
2C6
330
1F
100
AcDbEntity
  8
4-C
  6
Continuous
 62
     4
370
     5
100
AcDbPolyline
 90
        4
 70
     1
 43
6.0
 10
-143.1621213851978
 20
3617.024915376273
 42
0.4142135623731
 10
-146.1621213851978
 20
3620.024915376273
 42
0.4142135623731
 10
-149.1621213851978
 20
3617.024915376273
 42
0.4142135623731
 10
-146.1621213851978
 20
3614.024915376273
 42
0.4142135623731
  0
LINE
  5
2C7
330
1F
100
AcDbEntity
  8
4-C
  6
Continuous
 62
     7
370
     9
100
AcDbLine
 10
-146.1621213851978
 20
3807.528304332473
 30
0.0
 11
-146.1621213851978
 21
3550.203448333556
 31
0.0
  0
TEXT
  5
2C8
330
1F
100
AcDbEntity
  8
4-C
  6
Continuous
 62
     7
370
   211
100
AcDbText
 10
-224.9121213851978
 20
3648.944915376273
 30
0.0
 40
91.44
  1
10
 41
1.0625
  7
ＭＳ ゴシック
100
AcDbText
  0
LINE
  5
2C9
330
1F
100
AcDbEntity
  8
4-C
  6
Continuous
 62
     4
370
     5
100
AcDbLine
 10
-2064.482029598308
 20
2719.390988427378
 30
0.0
 11
-2064.482029598308
 21
2749.390988427378
 31
0.0
  0
LWPOLYLINE
  5
2CA
330
1F
100
AcDbEntity
  8
4-C
  6
Continuous
 62
     4
370
     5
100
AcDbPolyline
 90
        4
 70
     1
 43
6.0
 10
-2061.482029598309
 20
2719.390988427378
 42
0.4142135623731
 10
-2064.482029598308
 20
2722.390988427378
 42
0.4142135623731
 10
-2067.482029598308
 20
2719.390988427378
 42
0.4142135623731
 10
-2064.482029598308
 20
2716.390988427378
 42
0.4142135623731
  0
LWPOLYLINE
  5
2CB
330
1F
100
AcDbEntity
  8
4-C
  6
Continuous
 62
     4
370
     5
100
AcDbPolyline
 90
        4
 70
     1
 43
6.0
 10
-2061.482029598309
 20
2749.390988427378
 42
0.4142135623731
 10
-2064.482029598308
 20
2752.390988427378
 42
0.4142135623731
 10
-2067.482029598308
 20
2749.390988427378
 42
0.4142135623731
 10
-2064.482029598308
 20
2746.390988427378
 42
0.4142135623731
  0
LINE
  5
2CC
330
1F
100
AcDbEntity
  8
4-C
  6
Continuous
 62
     7
370
     9
100
AcDbLine
 10
-2064.482029598308
 20
2719.390988427378
 30
0.0
 11
-1931.289640591966
 21
2719.390988427378
 31
0.0
  0
LINE
  5
2CD
330
1F
100
AcDbEntity
  8
4-C
  6
Continuous
 62
     7
370
     9
100
AcDbLine
 10
-2064.482029598308
 20
2749.390988427378
 30
0.0
 11
-1931.289640591966
 21
2749.390988427378
 31
0.0
  0
TEXT
  5
2CE
330
1F
100
AcDbEntity
  8
4-C
  6
Continuous
 62
     7
370
   211
100
AcDbText
 10
-2096.402029598308
 20
2670.640988427378
 30
0.0
 40
91.44
  1
10
 50
90.0
 41
1.0625
  7
ＭＳ ゴシック
100
AcDbText
  0
LWPOLYLINE
  5
2CF
330
1F
100
AcDbEntity
  8
4-C
  6
Continuous
 62
     4
370
     5
100
AcDbPolyline
 90
        4
 70
     1
 43
6.0
 10
-2061.482029598309
 20
3409.390988427378
 42
0.4142135623731
 10
-2064.482029598308
 20
3412.390988427378
 42
0.4142135623731
 10
-2067.482029598308
 20
3409.390988427378
 42
0.4142135623731
 10
-2064.482029598308
 20
3406.390988427378
 42
0.4142135623731
  0
LINE
  5
2D0
330
1F
100
AcDbEntity
  8
4-C
  6
Continuous
 62
     7
370
     9
100
AcDbLine
 10
-2064.482029598308
 20
3409.390988427378
 30
0.0
 11
-1931.289640591966
 21
3409.390988427378
 31
0.0
  0
LINE
  5
2D1
330
1F
100
AcDbEntity
  8
4-C
  6
Continuous
 62
     4
370
     5
100
AcDbLine
 10
-2064.482029598308
 20
3409.390988427378
 30
0.0
 11
-2064.482029598308
 21
3439.390988427378
 31
0.0
  0
LWPOLYLINE
  5
2D2
330
1F
100
AcDbEntity
  8
4-C
  6
Continuous
 62
     4
370
     5
100
AcDbPolyline
 90
        4
 70
     1
 43
6.0
 10
-2061.482029598309
 20
3439.390988427378
 42
0.4142135623731
 10
-2064.482029598308
 20
3442.390988427378
 42
0.4142135623731
 10
-2067.482029598308
 20
3439.390988427378
 42
0.4142135623731
 10
-2064.482029598308
 20
3436.390988427378
 42
0.4142135623731
  0
LINE
  5
2D3
330
1F
100
AcDbEntity
  8
4-C
  6
Continuous
 62
     7
370
     9
100
AcDbLine
 10
-2064.482029598308
 20
3439.390988427378
 30
0.0
 11
-1931.289640591966
 21
3439.390988427378
 31
0.0
  0
TEXT
  5
2D4
330
1F
100
AcDbEntity
  8
4-C
  6
Continuous
 62
     7
370
   211
100
AcDbText
 10
-2096.402029598308
 20
3360.640988427378
 30
0.0
 40
91.44
  1
10
 50
90.0
 41
1.0625
  7
ＭＳ ゴシック
100
AcDbText
  0
LINE
  5
2D5
330
1F
100
AcDbEntity
  8
4-C
  6
Continuous
 62
     4
370
     5
100
AcDbLine
 10
446.359622152954
 20
2644.390988427378
 30
0.0
 11
446.359622152954
 21
3514.390988427378
 31
0.0
  0
LWPOLYLINE
  5
2D6
330
1F
100
AcDbEntity
  8
4-C
  6
Continuous
 62
     4
370
     5
100
AcDbPolyline
 90
        4
 70
     1
 43
6.0
 10
449.359622152954
 20
2644.390988427378
 42
0.4142135623731
 10
446.359622152954
 20
2647.390988427378
 42
0.4142135623731
 10
443.359622152954
 20
2644.390988427378
 42
0.4142135623731
 10
446.359622152954
 20
2641.390988427378
 42
0.4142135623731
  0
LWPOLYLINE
  5
2D7
330
1F
100
AcDbEntity
  8
4-C
  6
Continuous
 62
     4
370
     5
100
AcDbPolyline
 90
        4
 70
     1
 43
6.0
 10
449.359622152954
 20
3514.390988427378
 42
0.4142135623731
 10
446.359622152954
 20
3517.390988427378
 42
0.4142135623731
 10
443.359622152954
 20
3514.390988427378
 42
0.4142135623731
 10
446.359622152954
 20
3511.390988427378
 42
0.4142135623731
  0
TEXT
  5
2D8
330
1F
100
AcDbEntity
  8
4-C
  6
Continuous
 62
     7
370
   211
100
AcDbText
 10
414.439622152954
 20
2981.890988427378
 30
0.0
 40
91.44
  1
290
 50
90.0
 41
1.083333333333333
  7
ＭＳ ゴシック
100
AcDbText
  0
LINE
  5
2D9
330
1F
100
AcDbEntity
  8
4-C
  6
Continuous
 62
     4
370
     5
100
AcDbLine
 10
218.069084504511
 20
2644.390988427378
 30
0.0
 11
218.069084504511
 21
2734.390988427378
 31
0.0
  0
LWPOLYLINE
  5
2DA
330
1F
100
AcDbEntity
  8
4-C
  6
Continuous
 62
     4
370
     5
100
AcDbPolyline
 90
        4
 70
     1
 43
6.0
 10
221.069084504511
 20
2644.390988427378
 42
0.4142135623731
 10
218.069084504511
 20
2647.390988427378
 42
0.4142135623731
 10
215.069084504511
 20
2644.390988427378
 42
0.4142135623731
 10
218.069084504511
 20
2641.390988427378
 42
0.4142135623731
  0
LWPOLYLINE
  5
2DB
330
1F
100
AcDbEntity
  8
4-C
  6
Continuous
 62
     4
370
     5
100
AcDbPolyline
 90
        4
 70
     1
 43
6.0
 10
221.069084504511
 20
2734.390988427378
 42
0.4142135623731
 10
218.069084504511
 20
2737.390988427378
 42
0.4142135623731
 10
215.069084504511
 20
2734.390988427378
 42
0.4142135623731
 10
218.069084504511
 20
2731.390988427378
 42
0.4142135623731
  0
LINE
  5
2DC
330
1F
100
AcDbEntity
  8
4-C
  6
Continuous
 62
     7
370
     9
100
AcDbLine
 10
446.359622152954
 20
2644.390988427378
 30
0.0
 11
31.31153379886355
 21
2644.390988427378
 31
0.0
  0
LINE
  5
2DD
330
1F
100
AcDbEntity
  8
4-C
  6
Continuous
 62
     7
370
     9
100
AcDbLine
 10
218.069084504511
 20
2734.390988427378
 30
0.0
 11
31.31153379886355
 21
2734.390988427378
 31
0.0
  0
TEXT
  5
2DE
330
1F
100
AcDbEntity
  8
4-C
  6
Continuous
 62
     7
370
   211
100
AcDbText
 10
186.149084504511
 20
2625.640988427378
 30
0.0
 40
91.44
  1
30
 50
90.0
 41
1.0625
  7
ＭＳ ゴシック
100
AcDbText
  0
LWPOLYLINE
  5
2DF
330
1F
100
AcDbEntity
  8
4-C
  6
Continuous
 62
     4
370
     5
100
AcDbPolyline
 90
        4
 70
     1
 43
6.0
 10
221.069084504511
 20
3424.390988427378
 42
0.4142135623731
 10
218.069084504511
 20
3427.390988427378
 42
0.4142135623731
 10
215.069084504511
 20
3424.390988427378
 42
0.4142135623731
 10
218.069084504511
 20
3421.390988427378
 42
0.4142135623731
  0
LINE
  5
2E0
330
1F
100
AcDbEntity
  8
4-C
  6
Continuous
 62
     7
370
     9
100
AcDbLine
 10
218.069084504511
 20
3424.390988427378
 30
0.0
 11
31.3115337988636
 21
3424.390988427378
 31
0.0
  0
LINE
  5
2E1
330
1F
100
AcDbEntity
  8
4-C
  6
Continuous
 62
     4
370
     5
100
AcDbLine
 10
218.069084504511
 20
3424.390988427378
 30
0.0
 11
218.069084504511
 21
3514.390988427378
 31
0.0
  0
LWPOLYLINE
  5
2E2
330
1F
100
AcDbEntity
  8
4-C
  6
Continuous
 62
     4
370
     5
100
AcDbPolyline
 90
        4
 70
     1
 43
6.0
 10
221.069084504511
 20
3514.390988427378
 42
0.4142135623731
 10
218.069084504511
 20
3517.390988427378
 42
0.4142135623731
 10
215.069084504511
 20
3514.390988427378
 42
0.4142135623731
 10
218.069084504511
 20
3511.390988427378
 42
0.4142135623731
  0
LINE
  5
2E3
330
1F
100
AcDbEntity
  8
4-C
  6
Continuous
 62
     7
370
     9
100
AcDbLine
 10
446.359622152954
 20
3514.390988427378
 30
0.0
 11
31.3115337988636
 21
3514.390988427378
 31
0.0
  0
TEXT
  5
2E4
330
1F
100
AcDbEntity
  8
4-C
  6
Continuous
 62
     7
370
   211
100
AcDbText
 10
186.1490845045111
 20
3405.640988427378
 30
0.0
 40
91.44
  1
30
 50
90.0
 41
1.0625
  7
ＭＳ ゴシック
100
AcDbText
  0
LINE
  5
2E5
330
1F
100
AcDbEntity
  8
4-C
  6
Continuous
 62
     4
370
     5
100
AcDbLine
 10
-1808.162121385199
 20
3807.528304332473
 30
0.0
 11
-146.1621213851978
 21
3807.528304332473
 31
0.0
  0
LWPOLYLINE
  5
2E6
330
1F
100
AcDbEntity
  8
4-C
  6
Continuous
 62
     4
370
     5
100
AcDbPolyline
 90
        4
 70
     1
 43
6.0
 10
-1805.162121385199
 20
3807.528304332473
 42
0.4142135623731
 10
-1808.162121385199
 20
3810.528304332473
 42
0.4142135623731
 10
-1811.162121385199
 20
3807.528304332473
 42
0.4142135623731
 10
-1808.162121385199
 20
3804.528304332473
 42
0.4142135623731
  0
LWPOLYLINE
  5
2E7
330
1F
100
AcDbEntity
  8
4-C
  6
Continuous
 62
     4
370
     5
100
AcDbPolyline
 90
        4
 70
     1
 43
6.0
 10
-143.1621213851978
 20
3807.528304332473
 42
0.4142135623731
 10
-146.1621213851978
 20
3810.528304332473
 42
0.4142135623731
 10
-149.1621213851978
 20
3807.528304332473
 42
0.4142135623731
 10
-146.1621213851978
 20
3804.528304332473
 42
0.4142135623731
  0
TEXT
  5
2E8
330
1F
100
AcDbEntity
  8
4-C
  6
Continuous
 62
     7
370
   211
100
AcDbText
 10
-1074.662121385198
 20
3839.448304332474
 30
0.0
 40
91.44
  1
554
 41
1.083333333333333
  7
ＭＳ ゴシック
100
AcDbText
  0
TEXT
  5
2E9
330
1F
100
AcDbEntity
  8
4-C
  6
Continuous
 62
     7
370
     9
100
AcDbText
 10
-1505.07399577167
 20
3053.706469344609
 30
0.0
 40
91.44
  1
棚板　厚み15ｍｍ
 41
1.109375
  7
ＭＳ ゴシック
100
AcDbText
  0
TEXT
  5
2EA
330
1F
100
AcDbEntity
  8
F-A
  6
Continuous
 62
     7
370
     0
100
AcDbText
 10
99.91854284331623
 20
-3871.539820871936
 30
0.0
 40
45.72
  1
図面名
  7
ＭＳ ゴシック
100
AcDbText
  0
LINE
  5
2EB
330
1F
100
AcDbEntity
  8
F-0
  6
JWW_HOJO
 62
     4
370
     5
100
AcDbLine
 10
-6140.081333436773
 20
-4455.0
 30
0.0
 11
-6140.081333436773
 21
4424.999604096284
 31
0.0
  0
LINE
  5
2EC
330
1F
100
AcDbEntity
  8
F-0
  6
JWW_HOJO
 62
     4
370
     5
100
AcDbLine
 10
-6140.081333436773
 20
4424.999604096284
 30
0.0
 11
6159.917676803936
 21
4424.999604096284
 31
0.0
  0
LINE
  5
2ED
330
1F
100
AcDbEntity
  8
F-0
  6
JWW_HOJO
 62
     4
370
     5
100
AcDbLine
 10
6159.917676803936
 20
4424.999604096284
 30
0.0
 11
6159.917676803936
 21
-4455.0
 31
0.0
  0
LINE
  5
2EE
330
1F
100
AcDbEntity
  8
F-0
  6
JWW_HOJO
 62
     4
370
     5
100
AcDbLine
 10
6159.917676803936
 20
-4455.0
 30
0.0
 11
-6140.081333436773
 21
-4455.0
 31
0.0
  0
LINE
  5
2EF
330
1F
100
AcDbEntity
  8
F-0
  6
JWW_HOJO
 62
     7
370
     9
100
AcDbLine
 10
1009.918254163523
 20
-3795.000003092998
 30
0.0
 11
1009.918254163523
 21
-4195.000008247994
 31
0.0
  0
LINE
  5
2F0
330
1F
100
AcDbEntity
  8
F-0
  6
JWW_HOJO
 62
     7
370
     9
100
AcDbLine
 10
509.9185840832865
 20
-3795.000003092998
 30
0.0
 11
509.9185840832865
 21
-4195.000008247994
 31
0.0
  0
LINE
  5
2F1
330
1F
100
AcDbEntity
  8
F-1
  6
Continuous
 62
   200
370
    20
100
AcDbLine
 10
5859.917429364114
 20
4174.999769056166
 30
0.0
 11
5859.917429364114
 21
-4205.000164959882
 31
0.0
  0
LINE
  5
2F2
330
1F
100
AcDbEntity
  8
F-1
  6
Continuous
 62
   200
370
    20
100
AcDbLine
 10
-5840.081317971782
 20
4174.999769056166
 30
0.0
 11
-5840.081317971782
 21
-4205.000164959882
 31
0.0
  0
LINE
  5
2F3
330
1F
100
AcDbEntity
  8
F-1
  6
Continuous
 62
   200
370
    20
100
AcDbLine
 10
5859.917429364114
 20
-4205.000002577498
 30
0.0
 11
-5840.081085996952
 21
-4205.000002577498
 31
0.0
  0
LINE
  5
2F4
330
1F
100
AcDbEntity
  8
F-1
  6
Continuous
 62
   200
370
    20
100
AcDbLine
 10
-5830.081323642279
 20
4174.999769056166
 30
0.0
 11
-5830.081323642279
 21
-4205.000164959882
 31
0.0
  0
LINE
  5
2F5
330
1F
100
AcDbEntity
  8
F-1
  6
Continuous
 62
   200
370
    20
100
AcDbLine
 10
-5835.081309208291
 20
4174.999769056166
 30
0.0
 11
-5835.081309208291
 21
-4205.000164959882
 31
0.0
  0
LINE
  5
2F6
330
1F
100
AcDbEntity
  8
F-1
  6
Continuous
 62
   200
370
    20
100
AcDbLine
 10
5854.917165428304
 20
4174.999769056166
 30
0.0
 11
5854.917165428304
 21
-4205.000164959882
 31
0.0
  0
LINE
  5
2F7
330
1F
100
AcDbEntity
  8
F-1
  6
Continuous
 62
   200
370
    20
100
AcDbLine
 10
5849.917643811961
 20
4174.999769056166
 30
0.0
 11
5849.917643811961
 21
-4205.000164959882
 31
0.0
  0
LINE
  5
2F8
330
1F
100
AcDbEntity
  8
F-1
  6
Continuous
 62
   200
370
    20
100
AcDbLine
 10
5859.917429364114
 20
-4199.999993814004
 30
0.0
 11
-5840.081085996952
 21
-4199.999993814004
 31
0.0
  0
LINE
  5
2F9
330
1F
100
AcDbEntity
  8
F-1
  6
Continuous
 62
   200
370
    20
100
AcDbLine
 10
5859.917429364114
 20
-4195.000008247994
 30
0.0
 11
-5840.081085996952
 21
-4195.000008247994
 31
0.0
  0
LINE
  5
2FA
330
1F
100
AcDbEntity
  8
F-1
  6
Continuous
 62
   200
370
    20
100
AcDbLine
 10
4349.917891251784
 20
-3795.000003092998
 30
0.0
 11
4349.917891251784
 21
-4195.000008247994
 31
0.0
  0
LINE
  5
2FB
330
1F
100
AcDbEntity
  8
F-1
  6
Continuous
 62
   200
370
    20
100
AcDbLine
 10
2849.917396372139
 20
-3795.000003092998
 30
0.0
 11
2849.917396372139
 21
-4195.000008247994
 31
0.0
  0
LINE
  5
2FC
330
1F
100
AcDbEntity
  8
F-1
  6
Continuous
 62
   200
370
    20
100
AcDbLine
 10
9.918542843316231
 20
-3795.000003092998
 30
0.0
 11
9.918542843316231
 21
-4195.000008247994
 31
0.0
  0
LINE
  5
2FD
330
1F
100
AcDbEntity
  8
F-1
  6
Continuous
 62
   200
370
    20
100
AcDbLine
 10
9.918542843316231
 20
-3994.999936078046
 30
0.0
 11
5849.917643811961
 21
-3995.005364289155
 31
0.0
  0
LINE
  5
2FE
330
1F
100
AcDbEntity
  8
F-1
  6
Continuous
 62
   200
370
    20
100
AcDbLine
 10
-5840.081085996952
 20
4174.999769056166
 30
0.0
 11
5859.917429364114
 21
4174.999769056166
 31
0.0
  0
LINE
  5
2FF
330
1F
100
AcDbEntity
  8
F-1
  6
Continuous
 62
   200
370
    20
100
AcDbLine
 10
-5840.081085996952
 20
4164.999983504013
 30
0.0
 11
5859.917429364114
 21
4164.999983504013
 31
0.0
  0
LINE
  5
300
330
1F
100
AcDbEntity
  8
F-1
  6
Continuous
 62
   200
370
    20
100
AcDbLine
 10
-5840.081085996952
 20
4169.999505120355
 30
0.0
 11
5859.917429364114
 21
4169.999505120355
 31
0.0
  0
LINE
  5
301
330
1F
100
AcDbEntity
  8
F-0
  6
JWW_HOJO
 62
     7
370
     9
100
AcDbLine
 10
-5830.081323642279
 20
-3994.99993607839
 30
0.0
 11
9.918542843316231
 21
-3994.99993607839
 31
0.0
  0
LINE
  5
302
330
1F
100
AcDbEntity
  8
F-0
  6
JWW_HOJO
 62
     7
370
     9
100
AcDbLine
 10
-5830.081323642279
 20
-3904.99993607839
 30
0.0
 11
9.918542843316231
 21
-3904.99993607839
 31
0.0
  0
LINE
  5
303
330
1F
100
AcDbEntity
  8
F-0
  6
JWW_HOJO
 62
     7
370
     9
100
AcDbLine
 10
-5830.081323642279
 20
-4084.99993607839
 30
0.0
 11
9.918542843316231
 21
-4084.99993607839
 31
0.0
  0
LINE
  5
304
330
1F
100
AcDbEntity
  8
F-0
  6
JWW_HOJO
 62
     7
370
     9
100
AcDbLine
 10
9.918408067688347
 20
-4139.999739777983
 30
0.0
 11
5849.917509036332
 21
-4140.005167989091
 31
0.0
  0
LINE
  5
305
330
1F
100
AcDbEntity
  8
F-0
  6
JWW_HOJO
 62
     7
370
     9
100
AcDbLine
 10
9.918491721639953
 20
-4049.999739778022
 30
0.0
 11
5849.917592690284
 21
-4050.005167989131
 31
0.0
  0
LINE
  5
306
330
1F
100
AcDbEntity
  8
F-0
  6
JWW_HOJO
 62
     7
370
     9
100
AcDbLine
 10
9.918593965360003
 20
-3939.99973721807
 30
0.0
 11
5849.917694934004
 21
-3940.005165429179
 31
0.0
  0
LINE
  5
307
330
1F
100
AcDbEntity
  8
F-0
  6
JWW_HOJO
 62
     7
370
     9
100
AcDbLine
 10
9.918677619311609
 20
-3849.999737218109
 30
0.0
 11
5849.917778587956
 21
-3850.005165429218
 31
0.0
  0
LINE
  5
308
330
1F
100
AcDbEntity
  8
F-0
  6
JWW_HOJO
 62
     7
370
     9
100
AcDbLine
 10
2939.917396372139
 20
-3795.000003092998
 30
0.0
 11
2939.917396372139
 21
-4195.000008247994
 31
0.0
  0
LINE
  5
309
330
1F
100
AcDbEntity
  8
F-0
  6
JWW_HOJO
 62
     7
370
     9
100
AcDbLine
 10
99.91854284331623
 20
-3795.000003092998
 30
0.0
 11
99.91854284331623
 21
-4195.000008247994
 31
0.0
  0
LINE
  5
30A
330
1F
100
AcDbEntity
  8
F-0
  6
JWW_HOJO
 62
     7
370
     9
100
AcDbLine
 10
4439.917891251784
 20
-3795.000003092998
 30
0.0
 11
4439.917891251784
 21
-4195.000008247994
 31
0.0
  0
TEXT
  5
30B
330
1F
100
AcDbEntity
  8
F-A
  6
Continuous
 62
     7
370
     0
100
AcDbText
 10
2939.917396372139
 20
-3871.542460617774
 30
0.0
 40
45.72
  1
ＳＣＡＬＥ
  7
ＭＳ ゴシック
100
AcDbText
  0
TEXT
  5
30C
330
1F
100
AcDbEntity
  8
F-A
  6
Continuous
 62
     7
370
     0
100
AcDbText
 10
4439.917891251784
 20
-3871.543854850754
 30
0.0
 40
45.72
  1
ＤＡＴＥ
  7
ＭＳ ゴシック
100
AcDbText
  0
TEXT
  5
30D
330
1F
100
AcDbEntity
  8
F-A
  6
Continuous
 62
     7
370
     0
100
AcDbText
 10
4938.667793092893
 20
-3919.814510139966
 30
0.0
 40
68.58
  1
06.03.28
 41
1.145833333333333
  7
ＭＳ ゴシック
100
AcDbText
  0
LINE
  5
30E
330
1F
100
AcDbEntity
  8
F-1
  6
Continuous
 62
   200
370
    20
100
AcDbLine
 10
5859.917429364114
 20
-3795.000003092998
 30
0.0
 11
-5840.081085996952
 21
-3795.000003092998
 31
0.0
  0
LINE
  5
30F
330
1F
100
AcDbEntity
  8
F-1
  6
Continuous
 62
   200
370
    20
100
AcDbLine
 10
5859.917429364114
 20
-3790.000017526987
 30
0.0
 11
-5840.081085996952
 21
-3790.000017526987
 31
0.0
  0
LINE
  5
310
330
1F
100
AcDbEntity
  8
F-0
  6
JWW_HOJO
 62
     7
370
     9
100
AcDbLine
 10
-5087.628710189611
 20
-3795.000003092999
 30
0.0
 11
-5087.628710189611
 21
-4205.000164959882
 31
0.0
  0
LINE
  5
311
330
1F
100
AcDbEntity
  8
F-0
  6
JWW_HOJO
 62
     7
370
     9
100
AcDbLine
 10
-50.08145715668377
 20
-3795.000003092998
 30
0.0
 11
-50.08145715668377
 21
-4195.000008247994
 31
0.0
  0
TEXT
  5
312
330
1F
100
AcDbEntity
  8
F-A
  6
Continuous
 62
     7
370
     0
100
AcDbText
 10
1340.336368466946
 20
-3927.310161599839
 30
0.0
 40
68.58
  1
和風下駄箱
 41
1.133333333333333
  7
ＭＳ ゴシック
100
AcDbText
  0
TEXT
  5
313
330
1F
100
AcDbEntity
  8
F-A
  6
Continuous
 62
     7
370
     0
100
AcDbText
 10
3412.41764381196
 20
-3927.313115907308
 30
0.0
 40
68.58
  1
1/10・1/2
 41
1.148148148148149
  7
ＭＳ ゴシック
100
AcDbText
  0
TEXT
  5
314
330
1F
100
AcDbEntity
  8
F-A
  6
Continuous
 62
     7
370
     0
100
AcDbText
 10
2939.917396372139
 20
-4071.54246317786
 30
0.0
 40
45.72
  1
ＦＩＬＥ
  7
ＭＳ ゴシック
100
AcDbText
  0
TEXT
  5
315
330
1F
100
AcDbEntity
  8
F-A
  6
Continuous
 62
     7
370
     0
100
AcDbText
 10
4439.917891251784
 20
-4071.543857410839
 30
0.0
 40
45.72
  1
ＮＯ．
  7
ＭＳ ゴシック
100
AcDbText
  0
TEXT
  5
316
330
1F
100
AcDbEntity
  8
F-A
  6
Continuous
 62
     7
370
     0
100
AcDbText
 10
1394.917396372138
 20
-4080.540669266148
 30
0.0
 40
45.72
  1
株式
  7
ＭＳ ゴシック
100
AcDbText
  0
TEXT
  5
317
330
1F
100
AcDbEntity
  8
F-A
  6
Continuous
 62
     7
370
     9
100
AcDbText
 10
5096.167700144058
 20
-4127.314512699985
 30
0.0
 40
68.58
  1
01
 41
1.083333333333333
  7
ＭＳ ゴシック
100
AcDbText
  0
TEXT
  5
318
330
1F
100
AcDbEntity
  8
F-A
  6
Continuous
 62
     7
370
     0
100
AcDbText
 10
1604.917396372138
 20
-4138.082379523928
 30
0.0
 40
91.44
  1
ウッドワン・・・
 41
1.109375
  7
ＭＳ ゴシック
100
AcDbText
  0
TEXT
  5
319
330
1F
100
AcDbEntity
  8
F-A
  6
Continuous
 62
     7
370
     0
100
AcDbText
 10
1394.917396372138
 20
-4152.540669266186
 30
0.0
 40
45.72
  1
会社
  7
ＭＳ ゴシック
100
AcDbText
  0
TEXT
  5
31A
330
1F
100
AcDbEntity
  8
F-A
  6
Continuous
 62
     7
370
     0
100
AcDbText
 10
5768.321977672939
 20
-4291.441419020919
 30
0.0
 40
68.58
  1
）
  7
ＭＳ ゴシック
100
AcDbText
  0
TEXT
  5
31B
330
1F
100
AcDbEntity
  8
F-A
  6
Continuous
 62
     7
370
     0
100
AcDbText
 10
5350.114617405298
 20
-4292.835443869856
 30
0.0
 40
68.58
  1
,
  7
ＭＳ ゴシック
100
AcDbText
  0
TEXT
  5
31C
330
1F
100
AcDbEntity
  8
F-A
  6
Continuous
 62
     7
370
     0
100
AcDbText
 10
5083.855928478601
 20
-4294.229467288283
 30
0.0
 40
68.58
  1
$y
 41
1.083333333333333
  7
ＭＳ ゴシック
100
AcDbText
  0
TEXT
  5
31D
330
1F
100
AcDbEntity
  8
F-A
  6
Continuous
 62
     7
370
     0
100
AcDbText
 10
5238.592649517422
 20
-4294.229467288283
 30
0.0
 40
68.58
  1
$m
 41
1.083333333333333
  7
ＭＳ ゴシック
100
AcDbText
  0
TEXT
  5
31E
330
1F
100
AcDbEntity
  8
F-A
  6
Continuous
 62
     7
370
     0
100
AcDbText
 10
5393.32938200033
 20
-4294.229467288283
 30
0.0
 40
68.58
  1
$d
 41
1.083333333333333
  7
ＭＳ ゴシック
100
AcDbText
  0
TEXT
  5
31F
330
1F
100
AcDbEntity
  8
F-A
  6
Continuous
 62
     7
370
     0
100
AcDbText
 10
5548.066114483239
 20
-4294.229467288283
 30
0.0
 40
68.58
  1
印刷
 41
1.083333333333333
  7
ＭＳ ゴシック
100
AcDbText
  0
TEXT
  5
320
330
1F
100
AcDbEntity
  8
F-A
  6
Continuous
 62
     7
370
     0
100
AcDbText
 10
4943.952040816226
 20
-4295.623493567732
 30
0.0
 40
68.58
  1
（
  7
ＭＳ ゴシック
100
AcDbText
  0
TEXT
  5
321
330
1F
100
AcDbEntity
  8
F-A
  6
Continuous
 62
     7
370
     0
100
AcDbText
 10
5191.195810375571
 20
-4295.623493567732
 30
0.0
 40
68.58
  1
,
  7
ＭＳ ゴシック
100
AcDbText
  0
TEXT
  5
322
330
1F
100
AcDbEntity
  8
F-A
  6
Continuous
 62
     7
370
     0
100
AcDbText
 10
-5080.081323642279
 20
-4027.30993607839
 30
0.0
 40
68.58
  1
和風下駄箱　舞良戸　Ｗ４尺タイプ
 41
1.15625
  7
ＭＳ ゴシック
100
AcDbText
  0
TEXT
  5
323
330
1F
100
AcDbEntity
  8
F-A
  6
Continuous
 62
     7
370
     9
100
AcDbText
 10
3359.917643811961
 20
-4127.313118467413
 30
0.0
 40
68.58
  1
S8-B401_C02
 41
1.151515151515152
  7
ＭＳ ゴシック
100
AcDbText
  0
ENDSEC
  0
SECTION
  2
OBJECTS
  0
DICTIONARY
  5
C
330
0
100
AcDbDictionary
281
     1
  3
ACAD_DETAILVIEWSTYLE
350
35B
  3
ACAD_GROUP
350
D
  3
ACAD_LAYOUT
350
1A
  3
ACAD_MATERIAL
350
43
  3
ACAD_MLEADERSTYLE
350
6B
  3
ACAD_MLINESTYLE
350
17
  3
ACAD_PLOTSETTINGS
350
19
  3
ACAD_PLOTSTYLENAME
350
E
  3
ACAD_SCALELIST
350
47
  3
ACAD_SECTIONVIEWSTYLE
350
35C
  3
ACAD_TABLESTYLE
350
69
  3
ACAD_VISUALSTYLE
350
2A
  3
ACDB_RECOMPOSE_DATA
350
358
  3
AcDbVariableDictionary
350
324
  0
SUN
  5
6D
330
29
100
AcDbSun
 90
        1
290
     0
 63
     7
421
 16777215
 40
1.0
291
     1
 91
  2455826
 92
 54000000
292
     0
 70
     2
 71
   256
280
     1
  0
DICTIONARY
  5
35B
102
{ACAD_REACTORS
330
C
102
}
330
C
100
AcDbDictionary
281
     1
  0
DICTIONARY
  5
D
102
{ACAD_REACTORS
330
C
102
}
330
C
100
AcDbDictionary
281
     1
  0
DICTIONARY
  5
1A
102
{ACAD_REACTORS
330
C
102
}
330
C
100
AcDbDictionary
281
     1
  3
Layout1
350
1E
  3
Layout2
350
26
  3
Model
350
22
  0
DICTIONARY
  5
43
102
{ACAD_REACTORS
330
C
102
}
330
C
100
AcDbDictionary
281
     1
  3
ByBlock
350
45
  3
ByLayer
350
44
  3
Global
350
46
  0
DICTIONARY
  5
6B
102
{ACAD_REACTORS
330
C
102
}
330
C
100
AcDbDictionary
281
     1
  3
Standard
350
6C
  0
DICTIONARY
  5
17
102
{ACAD_REACTORS
330
C
102
}
330
C
100
AcDbDictionary
281
     1
  3
Standard
350
18
  0
DICTIONARY
  5
19
102
{ACAD_REACTORS
330
C
102
}
330
C
100
AcDbDictionary
281
     1
  0
ACDBDICTIONARYWDFLT
  5
E
102
{ACAD_REACTORS
330
C
102
}
330
C
100
AcDbDictionary
281
     1
  3
Normal
350
F
100
AcDbDictionaryWithDefault
340
F
  0
DICTIONARY
  5
47
102
{ACAD_REACTORS
330
C
102
}
330
C
100
AcDbDictionary
281
     1
  3
A0
350
48
  3
A1
350
49
  3
A2
350
4A
  3
A3
350
4B
  3
A4
350
4C
  3
A5
350
4D
  3
A6
350
4E
  3
A7
350
4F
  3
A8
350
50
  3
A9
350
51
  3
B0
350
52
  3
B1
350
53
  3
B2
350
54
  3
B3
350
55
  3
B4
350
56
  3
B5
350
57
  3
B6
350
58
  3
B7
350
59
  3
B8
350
5A
  3
B9
350
5B
  3
C0
350
5C
  3
C1
350
5D
  3
C2
350
5E
  3
C3
350
5F
  3
C4
350
60
  3
C5
350
61
  3
C6
350
62
  3
C7
350
63
  3
C8
350
64
  3
C9
350
65
  3
D0
350
66
  3
D1
350
67
  3
D2
350
68
  0
DICTIONARY
  5
35C
102
{ACAD_REACTORS
330
C
102
}
330
C
100
AcDbDictionary
281
     1
  0
DICTIONARY
  5
69
102
{ACAD_REACTORS
330
C
102
}
330
C
100
AcDbDictionary
281
     1
  3
Standard
350
6A
  0
DICTIONARY
  5
2A
102
{ACAD_REACTORS
330
C
102
}
330
C
100
AcDbDictionary
281
     1
  3
2dWireframe
350
2F
  3
Basic
350
32
  3
Brighten
350
36
  3
ColorChange
350
3A
  3
Conceptual
350
34
  3
Dim
350
35
  3
EdgeColorOff
350
3D
  3
Facepattern
350
39
  3
Flat
350
2B
  3
FlatWithEdges
350
2C
  3
Gouraud
350
2D
  3
GouraudWithEdges
350
2E
  3
Hidden
350
31
  3
JitterOff
350
3B
  3
Linepattern
350
38
  3
OverhangOff
350
3C
  3
Realistic
350
33
  3
Shaded
350
42
  3
Shaded with edges
350
41
  3
Shades of Gray
350
3E
  3
Sketchy
350
3F
  3
Thicken
350
37
  3
Wireframe
350
30
  3
X-Ray
350
40
  0
XRECORD
  5
358
102
{ACAD_REACTORS
330
C
102
}
330
C
100
AcDbXrecord
280
     1
 90
        1
330
6A
  0
DICTIONARY
  5
324
102
{ACAD_REACTORS
330
C
102
}
330
C
100
AcDbDictionary
281
     1
  3
CANNOSCALE
350
325
  3
CENTEREXE
350
35D
  3
CENTERLTYPEFILE
350
35E
  3
CMLEADERSTYLE
350
35A
  3
CTABLESTYLE
350
359
  0
LAYOUT
  5
1E
102
{ACAD_REACTORS
330
1A
102
}
330
1A
100
AcDbPlotSettings
  1

  2
none_device
  4

  6

 40
0.0
 41
0.0
 42
0.0
 43
0.0
 44
0.0
 45
0.0
 46
0.0
 47
0.0
 48
0.0
 49
0.0
140
0.0
141
0.0
142
1.0
143
1.0
 70
   688
 72
     1
 73
     0
 74
     5
  7

 75
    16
 76
     0
 77
     5
 78
   300
147
1.0
148
0.0
149
0.0
100
AcDbLayout
  1
Layout1
 70
     1
 71
     1
 10
0.0
 20
0.0
 11
420.0
 21
297.0
 12
0.0
 22
0.0
 32
0.0
 14
1.000000000000000E+20
 24
1.000000000000000E+20
 34
1.000000000000000E+20
 15
-1.000000000000000E+20
 25
-1.000000000000000E+20
 35
-1.000000000000000E+20
146
0.0
 13
0.0
 23
0.0
 33
0.0
 16
1.0
 26
0.0
 36
0.0
 17
0.0
 27
1.0
 37
0.0
 76
     0
330
1B
  0
LAYOUT
  5
26
102
{ACAD_REACTORS
330
1A
102
}
330
1A
100
AcDbPlotSettings
  1

  2
none_device
  4

  6

 40
0.0
 41
0.0
 42
0.0
 43
0.0
 44
0.0
 45
0.0
 46
0.0
 47
0.0
 48
0.0
 49
0.0
140
0.0
141
0.0
142
1.0
143
1.0
 70
   688
 72
     1
 73
     0
 74
     5
  7

 75
    16
 76
     0
 77
     5
 78
   300
147
1.0
148
0.0
149
0.0
100
AcDbLayout
  1
Layout2
 70
     1
 71
     2
 10
0.0
 20
0.0
 11
0.0
 21
0.0
 12
0.0
 22
0.0
 32
0.0
 14
0.0
 24
0.0
 34
0.0
 15
0.0
 25
0.0
 35
0.0
146
0.0
 13
0.0
 23
0.0
 33
0.0
 16
1.0
 26
0.0
 36
0.0
 17
0.0
 27
1.0
 37
0.0
 76
     0
330
23
  0
LAYOUT
  5
22
102
{ACAD_REACTORS
330
1A
102
}
330
1A
100
AcDbPlotSettings
  1

  2
none_device
  4
Letter_(8.50_x_11.00_Inches)
  6

 40
6.35
 41
6.35
 42
6.35000508
 43
6.35000508
 44
215.9
 45
279.4
 46
0.0
 47
0.0
 48
0.0
 49
0.0
140
0.0
141
0.0
142
1.0
143
1.0
 70
  1712
 72
     1
 73
     0
 74
     0
  7

 75
     0
 76
     0
 77
     5
 78
   300
147
1.0
148
0.0
149
0.0
100
AcDbLayout
  1
Model
 70
     1
 71
     0
 10
-6300.0
 20
-4455.0
 11
6300.0
 21
4455.0
 12
0.0
 22
0.0
 32
0.0
 14
-6300.0
 24
-4455.0
 34
0.0
 15
6300.0
 25
4455.0
 35
0.0
146
0.0
 13
0.0
 23
0.0
 33
0.0
 16
1.0
 26
0.0
 36
0.0
 17
0.0
 27
1.0
 37
0.0
 76
     0
330
1F
331
29
  0
MATERIAL
  5
45
102
{ACAD_REACTORS
330
43
102
}
330
43
100
AcDbMaterial
  1
ByBlock
 72
     1
 94
      127
  0
MATERIAL
  5
44
102
{ACAD_REACTORS
330
43
102
}
330
43
100
AcDbMaterial
  1
ByLayer
 72
     1
 94
      127
  0
MATERIAL
  5
46
102
{ACAD_REACTORS
330
43
102
}
330
43
100
AcDbMaterial
  1
Global
 72
     1
 94
      127
  0
MLEADERSTYLE
  5
6C
102
{ACAD_REACTORS
330
6B
102
}
330
6B
100
AcDbMLeaderStyle
179
     2
170
     2
171
     1
172
     0
 90
        2
 40
0.0
 41
0.0
173
     1
 91
-1056964608
340
14
 92
       -2
290
     1
 42
2.0
291
     1
 43
8.0
  3
Standard
341
0
 44
4.0
300

342
11
174
     1
178
     6
175
     1
176
     0
 93
-1056964608
 45
4.0
292
     0
297
     0
 46
4.0
343
0
 94
-1056964608
 47
1.0
 49
1.0
140
1.0
293
     1
141
0.0
294
     1
177
     0
142
1.0
295
     0
296
     0
143
3.75
271
     0
272
     9
273
     9
  0
MLINESTYLE
  5
18
102
{ACAD_REACTORS
330
17
102
}
330
17
100
AcDbMlineStyle
  2
Standard
 70
     0
  3

 62
   256
 51
90.0
 52
90.0
 71
     2
 49
0.5
 62
   256
  6
BYLAYER
 49
-0.5
 62
   256
  6
BYLAYER
  0
ACDBPLACEHOLDER
  5
F
102
{ACAD_REACTORS
330
E
102
}
330
E
  0
SCALE
  5
48
102
{ACAD_REACTORS
330
47
102
}
330
47
100
AcDbScale
 70
     0
300
1:1
140
1.0
141
1.0
290
     1
  0
SCALE
  5
49
102
{ACAD_REACTORS
330
47
102
}
330
47
100
AcDbScale
 70
     0
300
1:2
140
1.0
141
2.0
290
     0
  0
SCALE
  5
4A
102
{ACAD_REACTORS
330
47
102
}
330
47
100
AcDbScale
 70
     0
300
1:4
140
1.0
141
4.0
290
     0
  0
SCALE
  5
4B
102
{ACAD_REACTORS
330
47
102
}
330
47
100
AcDbScale
 70
     0
300
1:5
140
1.0
141
5.0
290
     0
  0
SCALE
  5
4C
102
{ACAD_REACTORS
330
47
102
}
330
47
100
AcDbScale
 70
     0
300
1:8
140
1.0
141
8.0
290
     0
  0
SCALE
  5
4D
102
{ACAD_REACTORS
330
47
102
}
330
47
100
AcDbScale
 70
     0
300
1:10
140
1.0
141
10.0
290
     0
  0
SCALE
  5
4E
102
{ACAD_REACTORS
330
47
102
}
330
47
100
AcDbScale
 70
     0
300
1:16
140
1.0
141
16.0
290
     0
  0
SCALE
  5
4F
102
{ACAD_REACTORS
330
47
102
}
330
47
100
AcDbScale
 70
     0
300
1:20
140
1.0
141
20.0
290
     0
  0
SCALE
  5
50
102
{ACAD_REACTORS
330
47
102
}
330
47
100
AcDbScale
 70
     0
300
1:30
140
1.0
141
30.0
290
     0
  0
SCALE
  5
51
102
{ACAD_REACTORS
330
47
102
}
330
47
100
AcDbScale
 70
     0
300
1:40
140
1.0
141
40.0
290
     0
  0
SCALE
  5
52
102
{ACAD_REACTORS
330
47
102
}
330
47
100
AcDbScale
 70
     0
300
1:50
140
1.0
141
50.0
290
     0
  0
SCALE
  5
53
102
{ACAD_REACTORS
330
47
102
}
330
47
100
AcDbScale
 70
     0
300
1:100
140
1.0
141
100.0
290
     0
  0
SCALE
  5
54
102
{ACAD_REACTORS
330
47
102
}
330
47
100
AcDbScale
 70
     0
300
2:1
140
2.0
141
1.0
290
     0
  0
SCALE
  5
55
102
{ACAD_REACTORS
330
47
102
}
330
47
100
AcDbScale
 70
     0
300
4:1
140
4.0
141
1.0
290
     0
  0
SCALE
  5
56
102
{ACAD_REACTORS
330
47
102
}
330
47
100
AcDbScale
 70
     0
300
8:1
140
8.0
141
1.0
290
     0
  0
SCALE
  5
57
102
{ACAD_REACTORS
330
47
102
}
330
47
100
AcDbScale
 70
     0
300
10:1
140
10.0
141
1.0
290
     0
  0
SCALE
  5
58
102
{ACAD_REACTORS
330
47
102
}
330
47
100
AcDbScale
 70
     0
300
100:1
140
100.0
141
1.0
290
     0
  0
SCALE
  5
59
102
{ACAD_REACTORS
330
47
102
}
330
47
100
AcDbScale
 70
     0
300
1/128" = 1'-0"
140
0.0078125
141
12.0
290
     0
  0
SCALE
  5
5A
102
{ACAD_REACTORS
330
47
102
}
330
47
100
AcDbScale
 70
     0
300
1/64" = 1'-0"
140
0.015625
141
12.0
290
     0
  0
SCALE
  5
5B
102
{ACAD_REACTORS
330
47
102
}
330
47
100
AcDbScale
 70
     0
300
1/32" = 1'-0"
140
0.03125
141
12.0
290
     0
  0
SCALE
  5
5C
102
{ACAD_REACTORS
330
47
102
}
330
47
100
AcDbScale
 70
     0
300
1/16" = 1'-0"
140
0.0625
141
12.0
290
     0
  0
SCALE
  5
5D
102
{ACAD_REACTORS
330
47
102
}
330
47
100
AcDbScale
 70
     0
300
3/32" = 1'-0"
140
0.09375
141
12.0
290
     0
  0
SCALE
  5
5E
102
{ACAD_REACTORS
330
47
102
}
330
47
100
AcDbScale
 70
     0
300
1/8" = 1'-0"
140
0.125
141
12.0
290
     0
  0
SCALE
  5
5F
102
{ACAD_REACTORS
330
47
102
}
330
47
100
AcDbScale
 70
     0
300
3/16" = 1'-0"
140
0.1875
141
12.0
290
     0
  0
SCALE
  5
60
102
{ACAD_REACTORS
330
47
102
}
330
47
100
AcDbScale
 70
     0
300
1/4" = 1'-0"
140
0.25
141
12.0
290
     0
  0
SCALE
  5
61
102
{ACAD_REACTORS
330
47
102
}
330
47
100
AcDbScale
 70
     0
300
3/8" = 1'-0"
140
0.375
141
12.0
290
     0
  0
SCALE
  5
62
102
{ACAD_REACTORS
330
47
102
}
330
47
100
AcDbScale
 70
     0
300
1/2" = 1'-0"
140
0.5
141
12.0
290
     0
  0
SCALE
  5
63
102
{ACAD_REACTORS
330
47
102
}
330
47
100
AcDbScale
 70
     0
300
3/4" = 1'-0"
140
0.75
141
12.0
290
     0
  0
SCALE
  5
64
102
{ACAD_REACTORS
330
47
102
}
330
47
100
AcDbScale
 70
     0
300
1" = 1'-0"
140
1.0
141
12.0
290
     0
  0
SCALE
  5
65
102
{ACAD_REACTORS
330
47
102
}
330
47
100
AcDbScale
 70
     0
300
1-1/2" = 1'-0"
140
1.5
141
12.0
290
     0
  0
SCALE
  5
66
102
{ACAD_REACTORS
330
47
102
}
330
47
100
AcDbScale
 70
     0
300
3" = 1'-0"
140
3.0
141
12.0
290
     0
  0
SCALE
  5
67
102
{ACAD_REACTORS
330
47
102
}
330
47
100
AcDbScale
 70
     0
300
6" = 1'-0"
140
6.0
141
12.0
290
     0
  0
SCALE
  5
68
102
{ACAD_REACTORS
330
47
102
}
330
47
100
AcDbScale
 70
     0
300
1'-0" = 1'-0"
140
12.0
141
12.0
290
     0
  0
TABLESTYLE
  5
6A
102
{ACAD_REACTORS
330
69
102
}
102
{ACAD_XDICTIONARY
360
356
102
}
330
69
100
AcDbTableStyle
  3
Standard
 70
     0
 71
     0
 40
0.06
 41
0.06
280
     0
281
     0
  7
Standard
140
4.5
170
     2
 62
     0
 63
   257
283
     0
 90
        4
 91
        0
  1

274
    -2
284
     1
 64
     0
275
    -2
285
     1
 65
     0
276
    -2
286
     1
 66
     0
277
    -2
287
     1
 67
     0
278
    -2
288
     1
 68
     0
279
    -2
289
     1
 69
     0
  7
Standard
140
6.0
170
     5
 62
     0
 63
   257
283
     0
 90
        4
 91
        0
  1

274
    -2
284
     1
 64
     0
275
    -2
285
     1
 65
     0
276
    -2
286
     1
 66
     0
277
    -2
287
     1
 67
     0
278
    -2
288
     1
 68
     0
279
    -2
289
     1
 69
     0
  7
Standard
140
4.5
170
     5
 62
     0
 63
   257
283
     0
 90
        4
 91
        0
  1

274
    -2
284
     1
 64
     0
275
    -2
285
     1
 65
     0
276
    -2
286
     1
 66
     0
277
    -2
287
     1
 67
     0
278
    -2
288
     1
 68
     0
279
    -2
289
     1
 69
     0
  0
VISUALSTYLE
  5
2F
102
{ACAD_REACTORS
330
2A
102
}
102
{ACAD_XDICTIONARY
360
32E
102
}
330
2A
100
AcDbVisualStyle
  2
2dWireframe
 70
     4
177
     2
291
     0
 71
     0
176
     1
 72
     2
176
     1
 73
     0
176
     1
 90
        0
176
     1
 40
0.6
176
     1
 41
30.0
176
     1
 62
     5
 63
     7
421
 16777215
176
     1
 74
     1
176
     1
 91
        4
176
     1
 64
     7
176
     1
 65
   257
176
     1
 75
     1
176
     1
175
     1
176
     1
 42
1.0
176
     1
 92
        0
176
     1
 66
   257
176
     1
 43
1.0
176
     1
 76
     1
176
     1
 77
     6
176
     1
 78
     2
176
     1
 67
     7
176
     1
 79
     5
176
     1
170
     0
176
     1
171
     0
176
     1
290
     0
176
     1
 93
        1
176
     1
 44
0.0
176
     1
173
     0
176
     1
  0
VISUALSTYLE
  5
32
102
{ACAD_REACTORS
330
2A
102
}
102
{ACAD_XDICTIONARY
360
334
102
}
330
2A
100
AcDbVisualStyle
  2
Basic
 70
     7
177
     2
291
     1
 71
     1
176
     1
 72
     0
176
     1
 73
     1
176
     1
 90
        0
176
     1
 40
0.6
176
     1
 41
30.0
176
     1
 62
     5
 63
     7
421
 16777215
176
     1
 74
     0
176
     1
 91
        4
176
     1
 64
     7
176
     1
 65
   257
176
     1
 75
     1
176
     1
175
     1
176
     1
 42
1.0
176
     1
 92
        8
176
     1
 66
     7
176
     1
 43
1.0
176
     1
 76
     1
176
     1
 77
     6
176
     1
 78
     2
176
     1
 67
     7
176
     1
 79
     5
176
     1
170
     0
176
     1
171
     0
176
     1
290
     0
176
     1
 93
        1
176
     1
 44
0.0
176
     1
173
     0
176
     1
  0
VISUALSTYLE
  5
36
102
{ACAD_REACTORS
330
2A
102
}
102
{ACAD_XDICTIONARY
360
33C
102
}
330
2A
100
AcDbVisualStyle
  2
Brighten
 70
    12
177
     2
291
     1
 71
     2
176
     1
 72
     2
176
     1
 73
     0
176
     1
 90
        0
176
     1
 40
0.6
176
     1
 41
30.0
176
     1
 62
     5
 63
     7
421
 16777215
176
     1
 74
     1
176
     1
 91
        4
176
     1
 64
     7
176
     1
 65
   257
176
     1
 75
     1
176
     1
175
     1
176
     1
 42
1.0
176
     1
 92
        8
176
     1
 66
     7
176
     1
 43
1.0
176
     1
 76
     1
176
     1
 77
     6
176
     1
 78
     2
176
     1
 67
     7
176
     1
 79
     5
176
     1
170
     0
176
     1
171
     0
176
     1
290
     0
176
     1
 93
        1
176
     1
 44
50.0
176
     1
173
     0
176
     1
  0
VISUALSTYLE
  5
3A
102
{ACAD_REACTORS
330
2A
102
}
102
{ACAD_XDICTIONARY
360
344
102
}
330
2A
100
AcDbVisualStyle
  2
ColorChange
 70
    16
177
     2
291
     1
 71
     2
176
     1
 72
     2
176
     1
 73
     3
176
     1
 90
        0
176
     1
 40
0.6
176
     1
 41
30.0
176
     1
 62
     5
 63
     8
421
  8421504
176
     1
 74
     1
176
     1
 91
        4
176
     1
 64
     7
176
     1
 65
   257
176
     1
 75
     1
176
     1
175
     1
176
     1
 42
1.0
176
     1
 92
        8
176
     1
 66
     8
424
  8421504
176
     1
 43
1.0
176
     1
 76
     1
176
     1
 77
     6
176
     1
 78
     2
176
     1
 67
     7
176
     1
 79
     5
176
     1
170
     0
176
     1
171
     0
176
     1
290
     0
176
     1
 93
        1
176
     1
 44
0.0
176
     1
173
     0
176
     1
  0
VISUALSTYLE
  5
34
102
{ACAD_REACTORS
330
2A
102
}
102
{ACAD_XDICTIONARY
360
338
102
}
330
2A
100
AcDbVisualStyle
  2
Conceptual
 70
     9
177
     2
291
     0
 71
     3
176
     1
 72
     2
176
     1
 73
     0
176
     1
 90
        0
176
     1
 40
0.6
176
     1
 41
30.0
176
     1
 62
     5
 63
     7
421
 16777215
176
     1
 74
     2
176
     1
 91
        2
176
     1
 64
     7
176
     1
 65
   257
176
     1
 75
     1
176
     1
175
     1
176
     1
 42
179.0
176
     1
 92
        8
176
     1
 66
     7
176
     1
 43
1.0
176
     1
 76
     1
176
     1
 77
     6
176
     1
 78
     2
176
     1
 67
     7
176
     1
 79
     3
176
     1
170
     0
176
     1
171
     0
176
     1
290
     0
176
     1
 93
        1
176
     1
 44
0.0
176
     1
173
     0
176
     1
  0
VISUALSTYLE
  5
35
102
{ACAD_REACTORS
330
2A
102
}
102
{ACAD_XDICTIONARY
360
33A
102
}
330
2A
100
AcDbVisualStyle
  2
Dim
 70
    11
177
     2
291
     1
 71
     2
176
     1
 72
     2
176
     1
 73
     0
176
     1
 90
        0
176
     1
 40
0.6
176
     1
 41
30.0
176
     1
 62
     5
 63
     7
421
 16777215
176
     1
 74
     1
176
     1
 91
        4
176
     1
 64
     7
176
     1
 65
   257
176
     1
 75
     1
176
     1
175
     1
176
     1
 42
1.0
176
     1
 92
        8
176
     1
 66
     7
176
     1
 43
1.0
176
     1
 76
     1
176
     1
 77
     6
176
     1
 78
     2
176
     1
 67
     7
176
     1
 79
     5
176
     1
170
     0
176
     1
171
     0
176
     1
290
     0
176
     1
 93
        1
176
     1
 44
-50.0
176
     1
173
     0
176
     1
  0
VISUALSTYLE
  5
3D
102
{ACAD_REACTORS
330
2A
102
}
102
{ACAD_XDICTIONARY
360
34A
102
}
330
2A
100
AcDbVisualStyle
  2
EdgeColorOff
 70
    22
177
     2
291
     1
 71
     2
176
     0
 72
     2
176
     0
 73
     0
176
     0
 90
        0
176
     0
 40
0.6
176
     0
 41
30.0
176
     0
 62
     5
 63
     7
421
 16777215
176
     0
 74
     1
176
     0
 91
        4
176
     0
 64
     7
176
     0
 65
   257
176
     0
 75
     1
176
     0
175
     1
176
     0
 42
1.0
176
     0
 92
        8
176
     2
 66
     7
176
     0
 43
1.0
176
     0
 76
     1
176
     0
 77
     6
176
     0
 78
     2
176
     0
 67
     7
176
     0
 79
     5
176
     0
170
     0
176
     0
171
     0
176
     0
290
     0
176
     0
 93
        1
176
     0
 44
0.0
176
     0
173
     0
176
     0
  0
VISUALSTYLE
  5
39
102
{ACAD_REACTORS
330
2A
102
}
102
{ACAD_XDICTIONARY
360
342
102
}
330
2A
100
AcDbVisualStyle
  2
Facepattern
 70
    15
177
     2
291
     1
 71
     2
176
     1
 72
     2
176
     1
 73
     0
176
     1
 90
        0
176
     1
 40
0.6
176
     1
 41
30.0
176
     1
 62
     5
 63
     7
421
 16777215
176
     1
 74
     1
176
     1
 91
        4
176
     1
 64
     7
176
     1
 65
   257
176
     1
 75
     1
176
     1
175
     1
176
     1
 42
1.0
176
     1
 92
        8
176
     1
 66
     7
176
     1
 43
1.0
176
     1
 76
     1
176
     1
 77
     6
176
     1
 78
     2
176
     1
 67
     7
176
     1
 79
     5
176
     1
170
     0
176
     1
171
     0
176
     1
290
     0
176
     1
 93
        1
176
     1
 44
0.0
176
     1
173
     0
176
     1
  0
VISUALSTYLE
  5
2B
102
{ACAD_REACTORS
330
2A
102
}
102
{ACAD_XDICTIONARY
360
326
102
}
330
2A
100
AcDbVisualStyle
  2
Flat
 70
     0
177
     2
291
     1
 71
     2
176
     1
 72
     1
176
     1
 73
     1
176
     1
 90
        2
176
     1
 40
0.6
176
     1
 41
30.0
176
     1
 62
     5
 63
     7
421
 16777215
176
     1
 74
     0
176
     1
 91
        0
176
     1
 64
     7
176
     1
 65
   257
176
     1
 75
     1
176
     1
175
     1
176
     1
 42
1.0
176
     1
 92
        8
176
     1
 66
     7
176
     1
 43
1.0
176
     1
 76
     1
176
     1
 77
     6
176
     1
 78
     2
176
     1
 67
     7
176
     1
 79
     5
176
     1
170
     0
176
     1
171
     0
176
     1
290
     0
176
     1
 93
       13
176
     1
 44
0.0
176
     1
173
     0
176
     1
  0
VISUALSTYLE
  5
2C
102
{ACAD_REACTORS
330
2A
102
}
102
{ACAD_XDICTIONARY
360
328
102
}
330
2A
100
AcDbVisualStyle
  2
FlatWithEdges
 70
     1
177
     2
291
     1
 71
     2
176
     1
 72
     1
176
     1
 73
     1
176
     1
 90
        2
176
     1
 40
0.6
176
     1
 41
30.0
176
     1
 62
     5
 63
     7
421
 16777215
176
     1
 74
     1
176
     1
 91
        0
176
     1
 64
     7
176
     1
 65
   257
176
     1
 75
     1
176
     1
175
     1
176
     1
 42
1.0
176
     1
 92
        0
176
     1
 66
   257
176
     1
 43
1.0
176
     1
 76
     1
176
     1
 77
     6
176
     1
 78
     2
176
     1
 67
     7
176
     1
 79
     5
176
     1
170
     0
176
     1
171
     0
176
     1
290
     0
176
     1
 93
       13
176
     1
 44
0.0
176
     1
173
     0
176
     1
  0
VISUALSTYLE
  5
2D
102
{ACAD_REACTORS
330
2A
102
}
102
{ACAD_XDICTIONARY
360
32A
102
}
330
2A
100
AcDbVisualStyle
  2
Gouraud
 70
     2
177
     2
291
     1
 71
     2
176
     1
 72
     2
176
     1
 73
     1
176
     1
 90
        2
176
     1
 40
0.6
176
     1
 41
30.0
176
     1
 62
     5
 63
     7
421
 16777215
176
     1
 74
     0
176
     1
 91
        0
176
     1
 64
     7
176
     1
 65
   257
176
     1
 75
     1
176
     1
175
     1
176
     1
 42
1.0
176
     1
 92
        0
176
     1
 66
     7
176
     1
 43
1.0
176
     1
 76
     1
176
     1
 77
     6
176
     1
 78
     2
176
     1
 67
     7
176
     1
 79
     5
176
     1
170
     0
176
     1
171
     0
176
     1
290
     0
176
     1
 93
       13
176
     1
 44
0.0
176
     1
173
     0
176
     1
  0
VISUALSTYLE
  5
2E
102
{ACAD_REACTORS
330
2A
102
}
102
{ACAD_XDICTIONARY
360
32C
102
}
330
2A
100
AcDbVisualStyle
  2
GouraudWithEdges
 70
     3
177
     2
291
     1
 71
     2
176
     1
 72
     2
176
     1
 73
     1
176
     1
 90
        2
176
     1
 40
0.6
176
     1
 41
30.0
176
     1
 62
     5
 63
     7
421
 16777215
176
     1
 74
     1
176
     1
 91
        0
176
     1
 64
     7
176
     1
 65
   257
176
     1
 75
     1
176
     1
175
     1
176
     1
 42
1.0
176
     1
 92
        0
176
     1
 66
   257
176
     1
 43
1.0
176
     1
 76
     1
176
     1
 77
     6
176
     1
 78
     2
176
     1
 67
     7
176
     1
 79
     5
176
     1
170
     0
176
     1
171
     0
176
     1
290
     0
176
     1
 93
       13
176
     1
 44
0.0
176
     1
173
     0
176
     1
  0
VISUALSTYLE
  5
31
102
{ACAD_REACTORS
330
2A
102
}
102
{ACAD_XDICTIONARY
360
332
102
}
330
2A
100
AcDbVisualStyle
  2
Hidden
 70
     6
177
     2
291
     0
 71
     1
176
     1
 72
     2
176
     1
 73
     2
176
     1
 90
        0
176
     1
 40
0.6
176
     1
 41
30.0
176
     1
 62
     5
 63
     7
421
 16777215
176
     1
 74
     2
176
     1
 91
        2
176
     1
 64
     7
176
     1
 65
   257
176
     1
 75
     2
176
     1
175
     1
176
     1
 42
40.0
176
     1
 92
        0
176
     1
 66
   257
176
     1
 43
1.0
176
     1
 76
     1
176
     1
 77
     6
176
     1
 78
     2
176
     1
 67
     7
176
     1
 79
     3
176
     1
170
     0
176
     1
171
     0
176
     1
290
     0
176
     1
 93
        1
176
     1
 44
0.0
176
     1
173
     0
176
     1
  0
VISUALSTYLE
  5
3B
102
{ACAD_REACTORS
330
2A
102
}
102
{ACAD_XDICTIONARY
360
346
102
}
330
2A
100
AcDbVisualStyle
  2
JitterOff
 70
    20
177
     2
291
     1
 71
     2
176
     0
 72
     2
176
     0
 73
     0
176
     0
 90
        0
176
     0
 40
0.6
176
     0
 41
30.0
176
     0
 62
     5
 63
     7
421
 16777215
176
     0
 74
     1
176
     0
 91
        4
176
     0
 64
     7
176
     0
 65
   257
176
     0
 75
     1
176
     0
175
     1
176
     0
 42
1.0
176
     0
 92
       10
176
     2
 66
     7
176
     0
 43
1.0
176
     0
 76
     1
176
     0
 77
     6
176
     0
 78
     2
176
     0
 67
     7
176
     0
 79
     5
176
     0
170
     0
176
     0
171
     0
176
     0
290
     0
176
     0
 93
        1
176
     0
 44
0.0
176
     0
173
     0
176
     0
  0
VISUALSTYLE
  5
38
102
{ACAD_REACTORS
330
2A
102
}
102
{ACAD_XDICTIONARY
360
340
102
}
330
2A
100
AcDbVisualStyle
  2
Linepattern
 70
    14
177
     2
291
     1
 71
     2
176
     1
 72
     2
176
     1
 73
     0
176
     1
 90
        0
176
     1
 40
0.6
176
     1
 41
30.0
176
     1
 62
     5
 63
     7
421
 16777215
176
     1
 74
     1
176
     1
 91
        4
176
     1
 64
     7
176
     1
 65
   257
176
     1
 75
     7
176
     1
175
     7
176
     1
 42
1.0
176
     1
 92
        8
176
     1
 66
     7
176
     1
 43
1.0
176
     1
 76
     1
176
     1
 77
     6
176
     1
 78
     2
176
     1
 67
     7
176
     1
 79
     5
176
     1
170
     0
176
     1
171
     0
176
     1
290
     0
176
     1
 93
        1
176
     1
 44
0.0
176
     1
173
     0
176
     1
  0
VISUALSTYLE
  5
3C
102
{ACAD_REACTORS
330
2A
102
}
102
{ACAD_XDICTIONARY
360
348
102
}
330
2A
100
AcDbVisualStyle
  2
OverhangOff
 70
    21
177
     2
291
     1
 71
     2
176
     0
 72
     2
176
     0
 73
     0
176
     0
 90
        0
176
     0
 40
0.6
176
     0
 41
30.0
176
     0
 62
     5
 63
     7
421
 16777215
176
     0
 74
     1
176
     0
 91
        4
176
     0
 64
     7
176
     0
 65
   257
176
     0
 75
     1
176
     0
175
     1
176
     0
 42
1.0
176
     0
 92
        9
176
     2
 66
     7
176
     0
 43
1.0
176
     0
 76
     1
176
     0
 77
     6
176
     0
 78
     2
176
     0
 67
     7
176
     0
 79
     5
176
     0
170
     0
176
     0
171
     0
176
     0
290
     0
176
     0
 93
        1
176
     0
 44
0.0
176
     0
173
     0
176
     0
  0
VISUALSTYLE
  5
33
102
{ACAD_REACTORS
330
2A
102
}
102
{ACAD_XDICTIONARY
360
336
102
}
330
2A
100
AcDbVisualStyle
  2
Realistic
 70
     8
177
     2
291
     0
 71
     2
176
     1
 72
     3
176
     1
 73
     0
176
     1
 90
        2
176
     1
 40
0.6
176
     1
 41
30.0
176
     1
 62
     5
 63
     7
421
 16777215
176
     1
 74
     0
176
     1
 91
        0
176
     1
 64
     7
176
     1
 65
   257
176
     1
 75
     1
176
     1
175
     1
176
     1
 42
1.0
176
     1
 92
        8
176
     1
 66
   257
176
     1
 43
1.0
176
     1
 76
     1
176
     1
 77
     6
176
     1
 78
     2
176
     1
 67
     7
176
     1
 79
     3
176
     1
170
     0
176
     1
171
     0
176
     1
290
     0
176
     1
 93
       13
176
     1
 44
0.0
176
     1
173
     0
176
     1
  0
VISUALSTYLE
  5
42
102
{ACAD_REACTORS
330
2A
102
}
102
{ACAD_XDICTIONARY
360
354
102
}
330
2A
100
AcDbVisualStyle
  2
Shaded
 70
    27
177
     2
291
     0
 71
     2
176
     1
 72
     2
176
     1
 73
     1
176
     1
 90
        2
176
     1
 40
0.6
176
     1
 41
30.0
176
     1
 62
     5
 63
     7
421
 16777215
176
     1
 74
     0
176
     1
 91
        4
176
     1
 64
     7
176
     1
 65
   257
176
     1
 75
     1
176
     1
175
     1
176
     1
 42
1.0
176
     1
 92
        8
176
     1
 66
   257
176
     1
 43
1.0
176
     1
 76
     1
176
     1
 77
     6
176
     1
 78
     2
176
     1
 67
     8
425
  7895160
176
     1
 79
     3
176
     1
170
     0
176
     1
171
     0
176
     1
290
     0
176
     1
 93
        5
176
     1
 44
0.0
176
     1
173
     0
176
     1
  0
VISUALSTYLE
  5
41
102
{ACAD_REACTORS
330
2A
102
}
102
{ACAD_XDICTIONARY
360
352
102
}
330
2A
100
AcDbVisualStyle
  2
Shaded with edges
 70
    26
177
     2
291
     0
 71
     2
176
     1
 72
     2
176
     1
 73
     1
176
     1
 90
        2
176
     1
 40
0.6
176
     1
 41
30.0
176
     1
 62
     5
 63
     7
421
 16777215
176
     1
 74
     1
176
     1
 91
       10
176
     1
 64
     7
176
     1
 65
   257
176
     1
 75
     2
176
     1
175
     1
176
     1
 42
1.0
176
     1
 92
        8
176
     1
 66
   257
176
     1
 43
1.0
176
     1
 76
     1
176
     1
 77
     6
176
     1
 78
     2
176
     1
 67
     7
176
     1
 79
     3
176
     1
170
     0
176
     1
171
     0
176
     1
290
     0
176
     1
 93
        5
176
     1
 44
0.0
176
     1
173
     0
176
     1
  0
VISUALSTYLE
  5
3E
102
{ACAD_REACTORS
330
2A
102
}
102
{ACAD_XDICTIONARY
360
34C
102
}
330
2A
100
AcDbVisualStyle
  2
Shades of Gray
 70
    23
177
     2
291
     0
 71
     2
176
     1
 72
     2
176
     1
 73
     3
176
     1
 90
        0
176
     1
 40
0.6
176
     1
 41
30.0
176
     1
 62
     5
 63
     7
421
 16777215
176
     1
 74
     2
176
     1
 91
        2
176
     1
 64
     7
176
     1
 65
     7
176
     1
 75
     1
176
     1
175
     1
176
     1
 42
40.0
176
     1
 92
        8
176
     1
 66
     7
176
     1
 43
1.0
176
     1
 76
     1
176
     1
 77
     6
176
     1
 78
     2
176
     1
 67
     7
176
     1
 79
     3
176
     1
170
     0
176
     1
171
     0
176
     1
290
     0
176
     1
 93
        1
176
     1
 44
0.0
176
     1
173
     0
176
     1
  0
VISUALSTYLE
  5
3F
102
{ACAD_REACTORS
330
2A
102
}
102
{ACAD_XDICTIONARY
360
34E
102
}
330
2A
100
AcDbVisualStyle
  2
Sketchy
 70
    24
177
     2
291
     0
 71
     1
176
     1
 72
     2
176
     1
 73
     2
176
     1
 90
        0
176
     1
 40
0.6
176
     1
 41
30.0
176
     1
 62
     5
 63
     7
421
 16777215
176
     1
 74
     2
176
     1
 91
        2
176
     1
 64
     7
176
     1
 65
     7
176
     1
 75
     1
176
     1
175
     1
176
     1
 42
40.0
176
     1
 92
       11
176
     1
 66
     7
176
     1
 43
1.0
176
     1
 76
     1
176
     1
 77
     6
176
     1
 78
     2
176
     1
 67
     7
176
     1
 79
     6
176
     1
170
     0
176
     1
171
     0
176
     1
290
     0
176
     1
 93
        1
176
     1
 44
0.0
176
     1
173
     0
176
     1
  0
VISUALSTYLE
  5
37
102
{ACAD_REACTORS
330
2A
102
}
102
{ACAD_XDICTIONARY
360
33E
102
}
330
2A
100
AcDbVisualStyle
  2
Thicken
 70
    13
177
     2
291
     1
 71
     2
176
     1
 72
     2
176
     1
 73
     0
176
     1
 90
        0
176
     1
 40
0.6
176
     1
 41
30.0
176
     1
 62
     5
 63
     7
421
 16777215
176
     1
 74
     1
176
     1
 91
        4
176
     1
 64
     7
176
     1
 65
   257
176
     1
 75
     1
176
     1
175
     1
176
     1
 42
1.0
176
     1
 92
       12
176
     1
 66
     7
176
     1
 43
1.0
176
     1
 76
     1
176
     1
 77
     6
176
     1
 78
     2
176
     1
 67
     7
176
     1
 79
     5
176
     1
170
     0
176
     1
171
     0
176
     1
290
     0
176
     1
 93
        1
176
     1
 44
0.0
176
     1
173
     0
176
     1
  0
VISUALSTYLE
  5
30
102
{ACAD_REACTORS
330
2A
102
}
102
{ACAD_XDICTIONARY
360
330
102
}
330
2A
100
AcDbVisualStyle
  2
Wireframe
 70
     5
177
     2
291
     0
 71
     0
176
     1
 72
     2
176
     1
 73
     0
176
     1
 90
        0
176
     1
 40
0.6
176
     1
 41
30.0
176
     1
 62
     5
 63
     7
421
 16777215
176
     1
 74
     1
176
     1
 91
        4
176
     1
 64
     7
176
     1
 65
   257
176
     1
 75
     1
176
     1
175
     1
176
     1
 42
1.0
176
     1
 92
        0
176
     1
 66
   257
176
     1
 43
1.0
176
     1
 76
     1
176
     1
 77
     6
176
     1
 78
     2
176
     1
 67
     7
176
     1
 79
     3
176
     1
170
     0
176
     1
171
     0
176
     1
290
     0
176
     1
 93
        1
176
     1
 44
0.0
176
     1
173
     0
176
     1
  0
VISUALSTYLE
  5
40
102
{ACAD_REACTORS
330
2A
102
}
102
{ACAD_XDICTIONARY
360
350
102
}
330
2A
100
AcDbVisualStyle
  2
X-Ray
 70
    25
177
     2
291
     0
 71
     2
176
     1
 72
     2
176
     1
 73
     1
176
     1
 90
        1
176
     1
 40
0.5
176
     1
 41
30.0
176
     1
 62
     5
 63
     7
421
 16777215
176
     1
 74
     1
176
     1
 91
        0
176
     1
 64
     7
176
     1
 65
   257
176
     1
 75
     1
176
     1
175
     1
176
     1
 42
1.0
176
     1
 92
        8
176
     1
 66
     7
176
     1
 43
1.0
176
     1
 76
     1
176
     1
 77
     6
176
     1
 78
     2
176
     1
 67
     7
176
     1
 79
     3
176
     1
170
     0
176
     1
171
     0
176
     1
290
     0
176
     1
 93
       13
176
     1
 44
0.0
176
     1
173
     0
176
     1
  0
DICTIONARYVAR
  5
325
102
{ACAD_REACTORS
330
324
102
}
330
324
100
DictionaryVariables
280
     0
  1
1:1
  0
DICTIONARYVAR
  5
35D
102
{ACAD_REACTORS
330
324
102
}
330
324
100
DictionaryVariables
280
     0
  1
3.500000
  0
DICTIONARYVAR
  5
35E
102
{ACAD_REACTORS
330
324
102
}
330
324
100
DictionaryVariables
280
     0
  1
acadiso.lin
  0
DICTIONARYVAR
  5
35A
102
{ACAD_REACTORS
330
324
102
}
330
324
100
DictionaryVariables
280
     0
  1
Standard
  0
DICTIONARYVAR
  5
359
102
{ACAD_REACTORS
330
324
102
}
330
324
100
DictionaryVariables
280
     0
  1
Standard
  0
DICTIONARY
  5
356
330
6A
100
AcDbDictionary
280
     1
281
     1
  3
ACAD_ROUNDTRIP_2008_TABLESTYLE_CELLSTYLEMAP
360
357
  0
DICTIONARY
  5
32E
330
2F
100
AcDbDictionary
280
     1
281
     1
  3
ACAD_XREC_ROUNDTRIP
360
32F
  0
DICTIONARY
  5
334
330
32
100
AcDbDictionary
280
     1
281
     1
  3
ACAD_XREC_ROUNDTRIP
360
335
  0
DICTIONARY
  5
33C
330
36
100
AcDbDictionary
280
     1
281
     1
  3
ACAD_XREC_ROUNDTRIP
360
33D
  0
DICTIONARY
  5
344
330
3A
100
AcDbDictionary
280
     1
281
     1
  3
ACAD_XREC_ROUNDTRIP
360
345
  0
DICTIONARY
  5
338
330
34
100
AcDbDictionary
280
     1
281
     1
  3
ACAD_XREC_ROUNDTRIP
360
339
  0
DICTIONARY
  5
33A
330
35
100
AcDbDictionary
280
     1
281
     1
  3
ACAD_XREC_ROUNDTRIP
360
33B
  0
DICTIONARY
  5
34A
330
3D
100
AcDbDictionary
280
     1
281
     1
  3
ACAD_XREC_ROUNDTRIP
360
34B
  0
DICTIONARY
  5
342
330
39
100
AcDbDictionary
280
     1
281
     1
  3
ACAD_XREC_ROUNDTRIP
360
343
  0
DICTIONARY
  5
326
330
2B
100
AcDbDictionary
280
     1
281
     1
  3
ACAD_XREC_ROUNDTRIP
360
327
  0
DICTIONARY
  5
328
330
2C
100
AcDbDictionary
280
     1
281
     1
  3
ACAD_XREC_ROUNDTRIP
360
329
  0
DICTIONARY
  5
32A
330
2D
100
AcDbDictionary
280
     1
281
     1
  3
ACAD_XREC_ROUNDTRIP
360
32B
  0
DICTIONARY
  5
32C
330
2E
100
AcDbDictionary
280
     1
281
     1
  3
ACAD_XREC_ROUNDTRIP
360
32D
  0
DICTIONARY
  5
332
330
31
100
AcDbDictionary
280
     1
281
     1
  3
ACAD_XREC_ROUNDTRIP
360
333
  0
DICTIONARY
  5
346
330
3B
100
AcDbDictionary
280
     1
281
     1
  3
ACAD_XREC_ROUNDTRIP
360
347
  0
DICTIONARY
  5
340
330
38
100
AcDbDictionary
280
     1
281
     1
  3
ACAD_XREC_ROUNDTRIP
360
341
  0
DICTIONARY
  5
348
330
3C
100
AcDbDictionary
280
     1
281
     1
  3
ACAD_XREC_ROUNDTRIP
360
349
  0
DICTIONARY
  5
336
330
33
100
AcDbDictionary
280
     1
281
     1
  3
ACAD_XREC_ROUNDTRIP
360
337
  0
DICTIONARY
  5
354
330
42
100
AcDbDictionary
280
     1
281
     1
  3
ACAD_XREC_ROUNDTRIP
360
355
  0
DICTIONARY
  5
352
330
41
100
AcDbDictionary
280
     1
281
     1
  3
ACAD_XREC_ROUNDTRIP
360
353
  0
DICTIONARY
  5
34C
330
3E
100
AcDbDictionary
280
     1
281
     1
  3
ACAD_XREC_ROUNDTRIP
360
34D
  0
DICTIONARY
  5
34E
330
3F
100
AcDbDictionary
280
     1
281
     1
  3
ACAD_XREC_ROUNDTRIP
360
34F
  0
DICTIONARY
  5
33E
330
37
100
AcDbDictionary
280
     1
281
     1
  3
ACAD_XREC_ROUNDTRIP
360
33F
  0
DICTIONARY
  5
330
330
30
100
AcDbDictionary
280
     1
281
     1
  3
ACAD_XREC_ROUNDTRIP
360
331
  0
DICTIONARY
  5
350
330
40
100
AcDbDictionary
280
     1
281
     1
  3
ACAD_XREC_ROUNDTRIP
360
351
  0
CELLSTYLEMAP
  5
357
102
{ACAD_REACTORS
330
356
102
}
330
356
100
AcDbCellStyleMap
 90
        3
300
CELLSTYLE
  1
TABLEFORMAT_BEGIN
 90
        5
170
     1
 91
        0
 92
    32768
 62
   257
 93
        1
300
CONTENTFORMAT
  1
CONTENTFORMAT_BEGIN
 90
        0
 91
        0
 92
        4
 93
        0
300

 40
0.0
140
1.0
 94
        5
 62
     0
340
11
144
6.0
309
CONTENTFORMAT_END
171
     1
301
MARGIN
  1
CELLMARGIN_BEGIN
 40
1.5
 40
1.5
 40
1.5
 40
1.5
 40
1.5
 40
1.5
309
CELLMARGIN_END
 94
        6
 95
        1
302
GRIDFORMAT
  1
GRIDFORMAT_BEGIN
 90
        0
 91
        1
 62
     0
 92
       -2
340
14
 93
        0
 40
0.045
309
GRIDFORMAT_END
 95
        2
302
GRIDFORMAT
  1
GRIDFORMAT_BEGIN
 90
        0
 91
        1
 62
     0
 92
       -2
340
14
 93
        0
 40
0.045
309
GRIDFORMAT_END
 95
        4
302
GRIDFORMAT
  1
GRIDFORMAT_BEGIN
 90
        0
 91
        1
 62
     0
 92
       -2
340
14
 93
        0
 40
0.045
309
GRIDFORMAT_END
 95
        8
302
GRIDFORMAT
  1
GRIDFORMAT_BEGIN
 90
        0
 91
        1
 62
     0
 92
       -2
340
14
 93
        0
 40
0.045
309
GRIDFORMAT_END
 95
       16
302
GRIDFORMAT
  1
GRIDFORMAT_BEGIN
 90
        0
 91
        1
 62
     0
 92
       -2
340
14
 93
        0
 40
0.045
309
GRIDFORMAT_END
 95
       32
302
GRIDFORMAT
  1
GRIDFORMAT_BEGIN
 90
        0
 91
        1
 62
     0
 92
       -2
340
14
 93
        0
 40
0.045
309
GRIDFORMAT_END
309
TABLEFORMAT_END
  1
CELLSTYLE_BEGIN
 90
        1
 91
        1
300
_TITLE
309
CELLSTYLE_END
300
CELLSTYLE
  1
TABLEFORMAT_BEGIN
 90
        5
170
     1
 91
        0
 92
        0
 62
   257
 93
        1
300
CONTENTFORMAT
  1
CONTENTFORMAT_BEGIN
 90
        0
 91
        0
 92
        4
 93
        0
300

 40
0.0
140
1.0
 94
        5
 62
     0
340
11
144
4.5
309
CONTENTFORMAT_END
171
     1
301
MARGIN
  1
CELLMARGIN_BEGIN
 40
1.5
 40
1.5
 40
1.5
 40
1.5
 40
1.5
 40
1.5
309
CELLMARGIN_END
 94
        6
 95
        1
302
GRIDFORMAT
  1
GRIDFORMAT_BEGIN
 90
        0
 91
        1
 62
     0
 92
       -2
340
14
 93
        0
 40
0.045
309
GRIDFORMAT_END
 95
        2
302
GRIDFORMAT
  1
GRIDFORMAT_BEGIN
 90
        0
 91
        1
 62
     0
 92
       -2
340
14
 93
        0
 40
0.045
309
GRIDFORMAT_END
 95
        4
302
GRIDFORMAT
  1
GRIDFORMAT_BEGIN
 90
        0
 91
        1
 62
     0
 92
       -2
340
14
 93
        0
 40
0.045
309
GRIDFORMAT_END
 95
        8
302
GRIDFORMAT
  1
GRIDFORMAT_BEGIN
 90
        0
 91
        1
 62
     0
 92
       -2
340
14
 93
        0
 40
0.045
309
GRIDFORMAT_END
 95
       16
302
GRIDFORMAT
  1
GRIDFORMAT_BEGIN
 90
        0
 91
        1
 62
     0
 92
       -2
340
14
 93
        0
 40
0.045
309
GRIDFORMAT_END
 95
       32
302
GRIDFORMAT
  1
GRIDFORMAT_BEGIN
 90
        0
 91
        1
 62
     0
 92
       -2
340
14
 93
        0
 40
0.045
309
GRIDFORMAT_END
309
TABLEFORMAT_END
  1
CELLSTYLE_BEGIN
 90
        2
 91
        1
300
_HEADER
309
CELLSTYLE_END
300
CELLSTYLE
  1
TABLEFORMAT_BEGIN
 90
        5
170
     1
 91
        0
 92
        0
 62
   257
 93
        1
300
CONTENTFORMAT
  1
CONTENTFORMAT_BEGIN
 90
        0
 91
        0
 92
        4
 93
        0
300

 40
0.0
140
1.0
 94
        2
 62
     0
340
11
144
4.5
309
CONTENTFORMAT_END
171
     1
301
MARGIN
  1
CELLMARGIN_BEGIN
 40
1.5
 40
1.5
 40
1.5
 40
1.5
 40
1.5
 40
1.5
309
CELLMARGIN_END
 94
        6
 95
        1
302
GRIDFORMAT
  1
GRIDFORMAT_BEGIN
 90
        0
 91
        1
 62
     0
 92
       -2
340
14
 93
        0
 40
0.045
309
GRIDFORMAT_END
 95
        2
302
GRIDFORMAT
  1
GRIDFORMAT_BEGIN
 90
        0
 91
        1
 62
     0
 92
       -2
340
14
 93
        0
 40
0.045
309
GRIDFORMAT_END
 95
        4
302
GRIDFORMAT
  1
GRIDFORMAT_BEGIN
 90
        0
 91
        1
 62
     0
 92
       -2
340
14
 93
        0
 40
0.045
309
GRIDFORMAT_END
 95
        8
302
GRIDFORMAT
  1
GRIDFORMAT_BEGIN
 90
        0
 91
        1
 62
     0
 92
       -2
340
14
 93
        0
 40
0.045
309
GRIDFORMAT_END
 95
       16
302
GRIDFORMAT
  1
GRIDFORMAT_BEGIN
 90
        0
 91
        1
 62
     0
 92
       -2
340
14
 93
        0
 40
0.045
309
GRIDFORMAT_END
 95
       32
302
GRIDFORMAT
  1
GRIDFORMAT_BEGIN
 90
        0
 91
        1
 62
     0
 92
       -2
340
14
 93
        0
 40
0.045
309
GRIDFORMAT_END
309
TABLEFORMAT_END
  1
CELLSTYLE_BEGIN
 90
        3
 91
        2
300
_DATA
309
CELLSTYLE_END
  0
XRECORD
  5
32F
102
{ACAD_REACTORS
330
32E
102
}
330
32E
100
AcDbXrecord
280
     1
102
RTVSPost2010Prop28
280
     1
102
RTVSPost2010PropOp28
 70
     1
102
RTVSPost2010Prop29
280
     1
102
RTVSPost2010PropOp29
 70
     1
102
RTVSPost2010Prop30
280
     0
102
RTVSPost2010PropOp30
 70
     1
102
RTVSPost2010Prop31
280
     0
102
RTVSPost2010PropOp31
 70
     1
102
RTVSPost2010Prop32
280
     0
102
RTVSPost2010PropOp32
 70
     1
102
RTVSPost2010Prop33
280
     0
102
RTVSPost2010PropOp33
 70
     1
102
RTVSPost2010Prop34
280
     0
102
RTVSPost2010PropOp34
 70
     1
102
RTVSPost2010Prop35
280
     0
102
RTVSPost2010PropOp35
 70
     1
102
RTVSPost2010Prop36
280
     0
102
RTVSPost2010PropOp36
 70
     1
102
RTVSPost2010Prop37
 90
       50
102
RTVSPost2010PropOp37
 70
     1
102
RTVSPost2010Prop38
140
0.0
102
RTVSPost2010PropOp38
 70
     1
102
RTVSPost2010Prop39
140
1.0
102
RTVSPost2010PropOp39
 70
     1
102
RTVSPost2010Prop40
 90
        0
102
RTVSPost2010PropOp40
 70
     1
102
RTVSPost2010Prop41ColorIndex
 90
       18
102
RTVSPost2010Prop41ColorRGB
 90
        0
102
RTVSPost2010PropOp41
 70
     1
102
RTVSPost2010Prop42
 90
       50
102
RTVSPost2010PropOp42
 70
     1
102
RTVSPost2010Prop43
 90
        3
102
RTVSPost2010PropOp43
 70
     1
102
RTVSPost2010Prop44ColorIndex
 90
        5
102
RTVSPost2010Prop44ColorRGB
 90
      255
102
RTVSPost2010PropOp44
 70
     1
102
RTVSPost2010Prop45
280
     0
102
RTVSPost2010PropOp45
 70
     1
102
RTVSPost2010Prop46
 90
       50
102
RTVSPost2010PropOp46
 70
     1
102
RTVSPost2010Prop47
 90
       50
102
RTVSPost2010PropOp47
 70
     1
102
RTVSPost2010Prop48
 90
       50
102
RTVSPost2010PropOp48
 70
     1
102
RTVSPost2010Prop49
280
     0
102
RTVSPost2010PropOp49
 70
     1
102
RTVSPost2010Prop50
 90
       50
102
RTVSPost2010PropOp50
 70
     1
102
RTVSPost2010Prop51ColorIndex
 90
      256
102
RTVSPost2010Prop51ColorRGB
 90
-16777216
102
RTVSPost2010PropOp51
 70
     0
102
RTVSPost2010Prop52
140
1.0
102
RTVSPost2010PropOp52
 70
     0
102
RTVSPost2010Prop53
 90
        2
102
RTVSPost2010PropOp53
 70
     1
102
RTVSPost2010Prop54
  1
strokes_ogs.tif
102
RTVSPost2010PropOp54
 70
     1
102
RTVSPost2010Prop55
280
     0
102
RTVSPost2010PropOp55
 70
     1
102
RTVSPost2010Prop56
140
1.0
102
RTVSPost2010PropOp56
 70
     1
102
RTVSPost2010Prop57
140
1.0
102
RTVSPost2010PropOp57
 70
     1
  0
XRECORD
  5
335
102
{ACAD_REACTORS
330
334
102
}
330
334
100
AcDbXrecord
280
     1
102
RTVSPost2010Prop28
280
     0
102
RTVSPost2010PropOp28
 70
     1
102
RTVSPost2010Prop29
280
     1
102
RTVSPost2010PropOp29
 70
     1
102
RTVSPost2010Prop30
280
     1
102
RTVSPost2010PropOp30
 70
     1
102
RTVSPost2010Prop31
280
     0
102
RTVSPost2010PropOp31
 70
     1
102
RTVSPost2010Prop32
280
     0
102
RTVSPost2010PropOp32
 70
     1
102
RTVSPost2010Prop33
280
     0
102
RTVSPost2010PropOp33
 70
     1
102
RTVSPost2010Prop34
280
     0
102
RTVSPost2010PropOp34
 70
     1
102
RTVSPost2010Prop35
280
     0
102
RTVSPost2010PropOp35
 70
     1
102
RTVSPost2010Prop36
280
     0
102
RTVSPost2010PropOp36
 70
     1
102
RTVSPost2010Prop37
 90
       50
102
RTVSPost2010PropOp37
 70
     1
102
RTVSPost2010Prop38
140
0.0
102
RTVSPost2010PropOp38
 70
     1
102
RTVSPost2010Prop39
140
1.0
102
RTVSPost2010PropOp39
 70
     1
102
RTVSPost2010Prop40
 90
        0
102
RTVSPost2010PropOp40
 70
     1
102
RTVSPost2010Prop41ColorIndex
 90
       18
102
RTVSPost2010Prop41ColorRGB
 90
        0
102
RTVSPost2010PropOp41
 70
     1
102
RTVSPost2010Prop42
 90
       50
102
RTVSPost2010PropOp42
 70
     1
102
RTVSPost2010Prop43
 90
        3
102
RTVSPost2010PropOp43
 70
     1
102
RTVSPost2010Prop44ColorIndex
 90
        5
102
RTVSPost2010Prop44ColorRGB
 90
      255
102
RTVSPost2010PropOp44
 70
     1
102
RTVSPost2010Prop45
280
     0
102
RTVSPost2010PropOp45
 70
     1
102
RTVSPost2010Prop46
 90
       50
102
RTVSPost2010PropOp46
 70
     1
102
RTVSPost2010Prop47
 90
       50
102
RTVSPost2010PropOp47
 70
     1
102
RTVSPost2010Prop48
 90
       50
102
RTVSPost2010PropOp48
 70
     1
102
RTVSPost2010Prop49
280
     0
102
RTVSPost2010PropOp49
 70
     1
102
RTVSPost2010Prop50
 90
       50
102
RTVSPost2010PropOp50
 70
     1
102
RTVSPost2010Prop51ColorIndex
 90
      256
102
RTVSPost2010Prop51ColorRGB
 90
-16777216
102
RTVSPost2010PropOp51
 70
     0
102
RTVSPost2010Prop52
140
1.0
102
RTVSPost2010PropOp52
 70
     0
102
RTVSPost2010Prop53
 90
        2
102
RTVSPost2010PropOp53
 70
     1
102
RTVSPost2010Prop54
  1
strokes_ogs.tif
102
RTVSPost2010PropOp54
 70
     1
102
RTVSPost2010Prop55
280
     0
102
RTVSPost2010PropOp55
 70
     1
102
RTVSPost2010Prop56
140
1.0
102
RTVSPost2010PropOp56
 70
     1
102
RTVSPost2010Prop57
140
1.0
102
RTVSPost2010PropOp57
 70
     1
  0
XRECORD
  5
33D
102
{ACAD_REACTORS
330
33C
102
}
330
33C
100
AcDbXrecord
280
     1
102
RTVSPost2010Prop28
280
     0
102
RTVSPost2010PropOp28
 70
     1
102
RTVSPost2010Prop29
280
     1
102
RTVSPost2010PropOp29
 70
     1
102
RTVSPost2010Prop30
280
     1
102
RTVSPost2010PropOp30
 70
     1
102
RTVSPost2010Prop31
280
     0
102
RTVSPost2010PropOp31
 70
     1
102
RTVSPost2010Prop32
280
     0
102
RTVSPost2010PropOp32
 70
     1
102
RTVSPost2010Prop33
280
     0
102
RTVSPost2010PropOp33
 70
     1
102
RTVSPost2010Prop34
280
     0
102
RTVSPost2010PropOp34
 70
     1
102
RTVSPost2010Prop35
280
     0
102
RTVSPost2010PropOp35
 70
     1
102
RTVSPost2010Prop36
280
     0
102
RTVSPost2010PropOp36
 70
     1
102
RTVSPost2010Prop37
 90
       50
102
RTVSPost2010PropOp37
 70
     1
102
RTVSPost2010Prop38
140
0.0
102
RTVSPost2010PropOp38
 70
     1
102
RTVSPost2010Prop39
140
1.0
102
RTVSPost2010PropOp39
 70
     1
102
RTVSPost2010Prop40
 90
        0
102
RTVSPost2010PropOp40
 70
     1
102
RTVSPost2010Prop41ColorIndex
 90
       18
102
RTVSPost2010Prop41ColorRGB
 90
        0
102
RTVSPost2010PropOp41
 70
     1
102
RTVSPost2010Prop42
 90
       50
102
RTVSPost2010PropOp42
 70
     1
102
RTVSPost2010Prop43
 90
        3
102
RTVSPost2010PropOp43
 70
     1
102
RTVSPost2010Prop44ColorIndex
 90
        5
102
RTVSPost2010Prop44ColorRGB
 90
      255
102
RTVSPost2010PropOp44
 70
     1
102
RTVSPost2010Prop45
280
     0
102
RTVSPost2010PropOp45
 70
     1
102
RTVSPost2010Prop46
 90
       50
102
RTVSPost2010PropOp46
 70
     1
102
RTVSPost2010Prop47
 90
       50
102
RTVSPost2010PropOp47
 70
     1
102
RTVSPost2010Prop48
 90
       50
102
RTVSPost2010PropOp48
 70
     1
102
RTVSPost2010Prop49
280
     0
102
RTVSPost2010PropOp49
 70
     1
102
RTVSPost2010Prop50
 90
       50
102
RTVSPost2010PropOp50
 70
     1
102
RTVSPost2010Prop51ColorIndex
 90
      256
102
RTVSPost2010Prop51ColorRGB
 90
-16777216
102
RTVSPost2010PropOp51
 70
     0
102
RTVSPost2010Prop52
140
1.0
102
RTVSPost2010PropOp52
 70
     0
102
RTVSPost2010Prop53
 90
        2
102
RTVSPost2010PropOp53
 70
     1
102
RTVSPost2010Prop54
  1
strokes_ogs.tif
102
RTVSPost2010PropOp54
 70
     1
102
RTVSPost2010Prop55
280
     0
102
RTVSPost2010PropOp55
 70
     1
102
RTVSPost2010Prop56
140
1.0
102
RTVSPost2010PropOp56
 70
     1
102
RTVSPost2010Prop57
140
1.0
102
RTVSPost2010PropOp57
 70
     1
  0
XRECORD
  5
345
102
{ACAD_REACTORS
330
344
102
}
330
344
100
AcDbXrecord
280
     1
102
RTVSPost2010Prop28
280
     0
102
RTVSPost2010PropOp28
 70
     1
102
RTVSPost2010Prop29
280
     1
102
RTVSPost2010PropOp29
 70
     1
102
RTVSPost2010Prop30
280
     1
102
RTVSPost2010PropOp30
 70
     1
102
RTVSPost2010Prop31
280
     0
102
RTVSPost2010PropOp31
 70
     1
102
RTVSPost2010Prop32
280
     0
102
RTVSPost2010PropOp32
 70
     1
102
RTVSPost2010Prop33
280
     0
102
RTVSPost2010PropOp33
 70
     1
102
RTVSPost2010Prop34
280
     0
102
RTVSPost2010PropOp34
 70
     1
102
RTVSPost2010Prop35
280
     0
102
RTVSPost2010PropOp35
 70
     1
102
RTVSPost2010Prop36
280
     0
102
RTVSPost2010PropOp36
 70
     1
102
RTVSPost2010Prop37
 90
       50
102
RTVSPost2010PropOp37
 70
     1
102
RTVSPost2010Prop38
140
0.0
102
RTVSPost2010PropOp38
 70
     1
102
RTVSPost2010Prop39
140
1.0
102
RTVSPost2010PropOp39
 70
     1
102
RTVSPost2010Prop40
 90
        0
102
RTVSPost2010PropOp40
 70
     1
102
RTVSPost2010Prop41ColorIndex
 90
       18
102
RTVSPost2010Prop41ColorRGB
 90
        0
102
RTVSPost2010PropOp41
 70
     1
102
RTVSPost2010Prop42
 90
       50
102
RTVSPost2010PropOp42
 70
     1
102
RTVSPost2010Prop43
 90
        3
102
RTVSPost2010PropOp43
 70
     1
102
RTVSPost2010Prop44ColorIndex
 90
        5
102
RTVSPost2010Prop44ColorRGB
 90
      255
102
RTVSPost2010PropOp44
 70
     1
102
RTVSPost2010Prop45
280
     0
102
RTVSPost2010PropOp45
 70
     1
102
RTVSPost2010Prop46
 90
       50
102
RTVSPost2010PropOp46
 70
     1
102
RTVSPost2010Prop47
 90
       50
102
RTVSPost2010PropOp47
 70
     1
102
RTVSPost2010Prop48
 90
       50
102
RTVSPost2010PropOp48
 70
     1
102
RTVSPost2010Prop49
280
     0
102
RTVSPost2010PropOp49
 70
     1
102
RTVSPost2010Prop50
 90
       50
102
RTVSPost2010PropOp50
 70
     1
102
RTVSPost2010Prop51ColorIndex
 90
      256
102
RTVSPost2010Prop51ColorRGB
 90
-16777216
102
RTVSPost2010PropOp51
 70
     0
102
RTVSPost2010Prop52
140
1.0
102
RTVSPost2010PropOp52
 70
     0
102
RTVSPost2010Prop53
 90
        2
102
RTVSPost2010PropOp53
 70
     1
102
RTVSPost2010Prop54
  1
strokes_ogs.tif
102
RTVSPost2010PropOp54
 70
     1
102
RTVSPost2010Prop55
280
     0
102
RTVSPost2010PropOp55
 70
     1
102
RTVSPost2010Prop56
140
1.0
102
RTVSPost2010PropOp56
 70
     1
102
RTVSPost2010Prop57
140
1.0
102
RTVSPost2010PropOp57
 70
     1
  0
XRECORD
  5
339
102
{ACAD_REACTORS
330
338
102
}
330
338
100
AcDbXrecord
280
     1
102
RTVSPost2010Prop28
280
     0
102
RTVSPost2010PropOp28
 70
     1
102
RTVSPost2010Prop29
280
     1
102
RTVSPost2010PropOp29
 70
     1
102
RTVSPost2010Prop30
280
     1
102
RTVSPost2010PropOp30
 70
     1
102
RTVSPost2010Prop31
280
     0
102
RTVSPost2010PropOp31
 70
     1
102
RTVSPost2010Prop32
280
     0
102
RTVSPost2010PropOp32
 70
     1
102
RTVSPost2010Prop33
280
     0
102
RTVSPost2010PropOp33
 70
     1
102
RTVSPost2010Prop34
280
     0
102
RTVSPost2010PropOp34
 70
     1
102
RTVSPost2010Prop35
280
     0
102
RTVSPost2010PropOp35
 70
     1
102
RTVSPost2010Prop36
280
     0
102
RTVSPost2010PropOp36
 70
     1
102
RTVSPost2010Prop37
 90
       50
102
RTVSPost2010PropOp37
 70
     1
102
RTVSPost2010Prop38
140
0.0
102
RTVSPost2010PropOp38
 70
     1
102
RTVSPost2010Prop39
140
1.0
102
RTVSPost2010PropOp39
 70
     1
102
RTVSPost2010Prop40
 90
        0
102
RTVSPost2010PropOp40
 70
     1
102
RTVSPost2010Prop41ColorIndex
 90
       18
102
RTVSPost2010Prop41ColorRGB
 90
        0
102
RTVSPost2010PropOp41
 70
     1
102
RTVSPost2010Prop42
 90
       50
102
RTVSPost2010PropOp42
 70
     1
102
RTVSPost2010Prop43
 90
        3
102
RTVSPost2010PropOp43
 70
     1
102
RTVSPost2010Prop44ColorIndex
 90
        5
102
RTVSPost2010Prop44ColorRGB
 90
      255
102
RTVSPost2010PropOp44
 70
     1
102
RTVSPost2010Prop45
280
     0
102
RTVSPost2010PropOp45
 70
     1
102
RTVSPost2010Prop46
 90
       50
102
RTVSPost2010PropOp46
 70
     1
102
RTVSPost2010Prop47
 90
       50
102
RTVSPost2010PropOp47
 70
     1
102
RTVSPost2010Prop48
 90
       50
102
RTVSPost2010PropOp48
 70
     1
102
RTVSPost2010Prop49
280
     0
102
RTVSPost2010PropOp49
 70
     1
102
RTVSPost2010Prop50
 90
       50
102
RTVSPost2010PropOp50
 70
     1
102
RTVSPost2010Prop51ColorIndex
 90
      256
102
RTVSPost2010Prop51ColorRGB
 90
-16777216
102
RTVSPost2010PropOp51
 70
     0
102
RTVSPost2010Prop52
140
1.0
102
RTVSPost2010PropOp52
 70
     0
102
RTVSPost2010Prop53
 90
        2
102
RTVSPost2010PropOp53
 70
     1
102
RTVSPost2010Prop54
  1
strokes_ogs.tif
102
RTVSPost2010PropOp54
 70
     1
102
RTVSPost2010Prop55
280
     0
102
RTVSPost2010PropOp55
 70
     1
102
RTVSPost2010Prop56
140
1.0
102
RTVSPost2010PropOp56
 70
     1
102
RTVSPost2010Prop57
140
1.0
102
RTVSPost2010PropOp57
 70
     1
  0
XRECORD
  5
33B
102
{ACAD_REACTORS
330
33A
102
}
330
33A
100
AcDbXrecord
280
     1
102
RTVSPost2010Prop28
280
     0
102
RTVSPost2010PropOp28
 70
     1
102
RTVSPost2010Prop29
280
     1
102
RTVSPost2010PropOp29
 70
     1
102
RTVSPost2010Prop30
280
     1
102
RTVSPost2010PropOp30
 70
     1
102
RTVSPost2010Prop31
280
     0
102
RTVSPost2010PropOp31
 70
     1
102
RTVSPost2010Prop32
280
     0
102
RTVSPost2010PropOp32
 70
     1
102
RTVSPost2010Prop33
280
     0
102
RTVSPost2010PropOp33
 70
     1
102
RTVSPost2010Prop34
280
     0
102
RTVSPost2010PropOp34
 70
     1
102
RTVSPost2010Prop35
280
     0
102
RTVSPost2010PropOp35
 70
     1
102
RTVSPost2010Prop36
280
     0
102
RTVSPost2010PropOp36
 70
     1
102
RTVSPost2010Prop37
 90
       50
102
RTVSPost2010PropOp37
 70
     1
102
RTVSPost2010Prop38
140
0.0
102
RTVSPost2010PropOp38
 70
     1
102
RTVSPost2010Prop39
140
1.0
102
RTVSPost2010PropOp39
 70
     1
102
RTVSPost2010Prop40
 90
        0
102
RTVSPost2010PropOp40
 70
     1
102
RTVSPost2010Prop41ColorIndex
 90
       18
102
RTVSPost2010Prop41ColorRGB
 90
        0
102
RTVSPost2010PropOp41
 70
     1
102
RTVSPost2010Prop42
 90
       50
102
RTVSPost2010PropOp42
 70
     1
102
RTVSPost2010Prop43
 90
        3
102
RTVSPost2010PropOp43
 70
     1
102
RTVSPost2010Prop44ColorIndex
 90
        5
102
RTVSPost2010Prop44ColorRGB
 90
      255
102
RTVSPost2010PropOp44
 70
     1
102
RTVSPost2010Prop45
280
     0
102
RTVSPost2010PropOp45
 70
     1
102
RTVSPost2010Prop46
 90
       50
102
RTVSPost2010PropOp46
 70
     1
102
RTVSPost2010Prop47
 90
       50
102
RTVSPost2010PropOp47
 70
     1
102
RTVSPost2010Prop48
 90
       50
102
RTVSPost2010PropOp48
 70
     1
102
RTVSPost2010Prop49
280
     0
102
RTVSPost2010PropOp49
 70
     1
102
RTVSPost2010Prop50
 90
       50
102
RTVSPost2010PropOp50
 70
     1
102
RTVSPost2010Prop51ColorIndex
 90
      256
102
RTVSPost2010Prop51ColorRGB
 90
-16777216
102
RTVSPost2010PropOp51
 70
     0
102
RTVSPost2010Prop52
140
1.0
102
RTVSPost2010PropOp52
 70
     0
102
RTVSPost2010Prop53
 90
        2
102
RTVSPost2010PropOp53
 70
     1
102
RTVSPost2010Prop54
  1
strokes_ogs.tif
102
RTVSPost2010PropOp54
 70
     1
102
RTVSPost2010Prop55
280
     0
102
RTVSPost2010PropOp55
 70
     1
102
RTVSPost2010Prop56
140
1.0
102
RTVSPost2010PropOp56
 70
     1
102
RTVSPost2010Prop57
140
1.0
102
RTVSPost2010PropOp57
 70
     1
  0
XRECORD
  5
34B
102
{ACAD_REACTORS
330
34A
102
}
330
34A
100
AcDbXrecord
280
     1
102
RTVSPost2010Prop28
280
     0
102
RTVSPost2010PropOp28
 70
     0
102
RTVSPost2010Prop29
280
     1
102
RTVSPost2010PropOp29
 70
     0
102
RTVSPost2010Prop30
280
     1
102
RTVSPost2010PropOp30
 70
     0
102
RTVSPost2010Prop31
280
     0
102
RTVSPost2010PropOp31
 70
     0
102
RTVSPost2010Prop32
280
     0
102
RTVSPost2010PropOp32
 70
     0
102
RTVSPost2010Prop33
280
     0
102
RTVSPost2010PropOp33
 70
     0
102
RTVSPost2010Prop34
280
     0
102
RTVSPost2010PropOp34
 70
     0
102
RTVSPost2010Prop35
280
     0
102
RTVSPost2010PropOp35
 70
     0
102
RTVSPost2010Prop36
280
     0
102
RTVSPost2010PropOp36
 70
     0
102
RTVSPost2010Prop37
 90
       50
102
RTVSPost2010PropOp37
 70
     0
102
RTVSPost2010Prop38
140
0.0
102
RTVSPost2010PropOp38
 70
     0
102
RTVSPost2010Prop39
140
1.0
102
RTVSPost2010PropOp39
 70
     0
102
RTVSPost2010Prop40
 90
        0
102
RTVSPost2010PropOp40
 70
     0
102
RTVSPost2010Prop41ColorIndex
 90
       18
102
RTVSPost2010Prop41ColorRGB
 90
        0
102
RTVSPost2010PropOp41
 70
     0
102
RTVSPost2010Prop42
 90
       50
102
RTVSPost2010PropOp42
 70
     0
102
RTVSPost2010Prop43
 90
        3
102
RTVSPost2010PropOp43
 70
     0
102
RTVSPost2010Prop44ColorIndex
 90
        5
102
RTVSPost2010Prop44ColorRGB
 90
      255
102
RTVSPost2010PropOp44
 70
     0
102
RTVSPost2010Prop45
280
     0
102
RTVSPost2010PropOp45
 70
     0
102
RTVSPost2010Prop46
 90
       50
102
RTVSPost2010PropOp46
 70
     0
102
RTVSPost2010Prop47
 90
       50
102
RTVSPost2010PropOp47
 70
     0
102
RTVSPost2010Prop48
 90
       50
102
RTVSPost2010PropOp48
 70
     0
102
RTVSPost2010Prop49
280
     0
102
RTVSPost2010PropOp49
 70
     0
102
RTVSPost2010Prop50
 90
       50
102
RTVSPost2010PropOp50
 70
     0
102
RTVSPost2010Prop51ColorIndex
 90
      256
102
RTVSPost2010Prop51ColorRGB
 90
-16777216
102
RTVSPost2010PropOp51
 70
     0
102
RTVSPost2010Prop52
140
1.0
102
RTVSPost2010PropOp52
 70
     0
102
RTVSPost2010Prop53
 90
        2
102
RTVSPost2010PropOp53
 70
     0
102
RTVSPost2010Prop54
  1
strokes_ogs.tif
102
RTVSPost2010PropOp54
 70
     0
102
RTVSPost2010Prop55
280
     0
102
RTVSPost2010PropOp55
 70
     0
102
RTVSPost2010Prop56
140
1.0
102
RTVSPost2010PropOp56
 70
     0
102
RTVSPost2010Prop57
140
1.0
102
RTVSPost2010PropOp57
 70
     0
  0
XRECORD
  5
343
102
{ACAD_REACTORS
330
342
102
}
330
342
100
AcDbXrecord
280
     1
102
RTVSPost2010Prop28
280
     0
102
RTVSPost2010PropOp28
 70
     1
102
RTVSPost2010Prop29
280
     1
102
RTVSPost2010PropOp29
 70
     1
102
RTVSPost2010Prop30
280
     1
102
RTVSPost2010PropOp30
 70
     1
102
RTVSPost2010Prop31
280
     0
102
RTVSPost2010PropOp31
 70
     1
102
RTVSPost2010Prop32
280
     0
102
RTVSPost2010PropOp32
 70
     1
102
RTVSPost2010Prop33
280
     0
102
RTVSPost2010PropOp33
 70
     1
102
RTVSPost2010Prop34
280
     0
102
RTVSPost2010PropOp34
 70
     1
102
RTVSPost2010Prop35
280
     0
102
RTVSPost2010PropOp35
 70
     1
102
RTVSPost2010Prop36
280
     0
102
RTVSPost2010PropOp36
 70
     1
102
RTVSPost2010Prop37
 90
       50
102
RTVSPost2010PropOp37
 70
     1
102
RTVSPost2010Prop38
140
0.0
102
RTVSPost2010PropOp38
 70
     1
102
RTVSPost2010Prop39
140
1.0
102
RTVSPost2010PropOp39
 70
     1
102
RTVSPost2010Prop40
 90
        0
102
RTVSPost2010PropOp40
 70
     1
102
RTVSPost2010Prop41ColorIndex
 90
       18
102
RTVSPost2010Prop41ColorRGB
 90
        0
102
RTVSPost2010PropOp41
 70
     1
102
RTVSPost2010Prop42
 90
       50
102
RTVSPost2010PropOp42
 70
     1
102
RTVSPost2010Prop43
 90
        3
102
RTVSPost2010PropOp43
 70
     1
102
RTVSPost2010Prop44ColorIndex
 90
        5
102
RTVSPost2010Prop44ColorRGB
 90
      255
102
RTVSPost2010PropOp44
 70
     1
102
RTVSPost2010Prop45
280
     0
102
RTVSPost2010PropOp45
 70
     1
102
RTVSPost2010Prop46
 90
       50
102
RTVSPost2010PropOp46
 70
     1
102
RTVSPost2010Prop47
 90
       50
102
RTVSPost2010PropOp47
 70
     1
102
RTVSPost2010Prop48
 90
       50
102
RTVSPost2010PropOp48
 70
     1
102
RTVSPost2010Prop49
280
     0
102
RTVSPost2010PropOp49
 70
     1
102
RTVSPost2010Prop50
 90
       50
102
RTVSPost2010PropOp50
 70
     1
102
RTVSPost2010Prop51ColorIndex
 90
      256
102
RTVSPost2010Prop51ColorRGB
 90
-16777216
102
RTVSPost2010PropOp51
 70
     0
102
RTVSPost2010Prop52
140
1.0
102
RTVSPost2010PropOp52
 70
     0
102
RTVSPost2010Prop53
 90
        2
102
RTVSPost2010PropOp53
 70
     1
102
RTVSPost2010Prop54
  1
strokes_ogs.tif
102
RTVSPost2010PropOp54
 70
     1
102
RTVSPost2010Prop55
280
     0
102
RTVSPost2010PropOp55
 70
     1
102
RTVSPost2010Prop56
140
1.0
102
RTVSPost2010PropOp56
 70
     1
102
RTVSPost2010Prop57
140
1.0
102
RTVSPost2010PropOp57
 70
     1
  0
XRECORD
  5
327
102
{ACAD_REACTORS
330
326
102
}
330
326
100
AcDbXrecord
280
     1
102
RTVSPost2010Prop28
280
     0
102
RTVSPost2010PropOp28
 70
     1
102
RTVSPost2010Prop29
280
     1
102
RTVSPost2010PropOp29
 70
     1
102
RTVSPost2010Prop30
280
     1
102
RTVSPost2010PropOp30
 70
     1
102
RTVSPost2010Prop31
280
     0
102
RTVSPost2010PropOp31
 70
     1
102
RTVSPost2010Prop32
280
     0
102
RTVSPost2010PropOp32
 70
     1
102
RTVSPost2010Prop33
280
     0
102
RTVSPost2010PropOp33
 70
     1
102
RTVSPost2010Prop34
280
     0
102
RTVSPost2010PropOp34
 70
     1
102
RTVSPost2010Prop35
280
     0
102
RTVSPost2010PropOp35
 70
     1
102
RTVSPost2010Prop36
280
     0
102
RTVSPost2010PropOp36
 70
     1
102
RTVSPost2010Prop37
 90
       50
102
RTVSPost2010PropOp37
 70
     1
102
RTVSPost2010Prop38
140
0.0
102
RTVSPost2010PropOp38
 70
     1
102
RTVSPost2010Prop39
140
1.0
102
RTVSPost2010PropOp39
 70
     1
102
RTVSPost2010Prop40
 90
        0
102
RTVSPost2010PropOp40
 70
     1
102
RTVSPost2010Prop41ColorIndex
 90
       18
102
RTVSPost2010Prop41ColorRGB
 90
        0
102
RTVSPost2010PropOp41
 70
     1
102
RTVSPost2010Prop42
 90
       50
102
RTVSPost2010PropOp42
 70
     1
102
RTVSPost2010Prop43
 90
        3
102
RTVSPost2010PropOp43
 70
     1
102
RTVSPost2010Prop44ColorIndex
 90
        5
102
RTVSPost2010Prop44ColorRGB
 90
      255
102
RTVSPost2010PropOp44
 70
     1
102
RTVSPost2010Prop45
280
     0
102
RTVSPost2010PropOp45
 70
     1
102
RTVSPost2010Prop46
 90
       50
102
RTVSPost2010PropOp46
 70
     1
102
RTVSPost2010Prop47
 90
       50
102
RTVSPost2010PropOp47
 70
     1
102
RTVSPost2010Prop48
 90
       50
102
RTVSPost2010PropOp48
 70
     1
102
RTVSPost2010Prop49
280
     0
102
RTVSPost2010PropOp49
 70
     1
102
RTVSPost2010Prop50
 90
       50
102
RTVSPost2010PropOp50
 70
     1
102
RTVSPost2010Prop51ColorIndex
 90
      256
102
RTVSPost2010Prop51ColorRGB
 90
-16777216
102
RTVSPost2010PropOp51
 70
     0
102
RTVSPost2010Prop52
140
1.0
102
RTVSPost2010PropOp52
 70
     0
102
RTVSPost2010Prop53
 90
        2
102
RTVSPost2010PropOp53
 70
     1
102
RTVSPost2010Prop54
  1
strokes_ogs.tif
102
RTVSPost2010PropOp54
 70
     1
102
RTVSPost2010Prop55
280
     0
102
RTVSPost2010PropOp55
 70
     1
102
RTVSPost2010Prop56
140
1.0
102
RTVSPost2010PropOp56
 70
     1
102
RTVSPost2010Prop57
140
1.0
102
RTVSPost2010PropOp57
 70
     1
  0
XRECORD
  5
329
102
{ACAD_REACTORS
330
328
102
}
330
328
100
AcDbXrecord
280
     1
102
RTVSPost2010Prop28
280
     0
102
RTVSPost2010PropOp28
 70
     1
102
RTVSPost2010Prop29
280
     1
102
RTVSPost2010PropOp29
 70
     1
102
RTVSPost2010Prop30
280
     1
102
RTVSPost2010PropOp30
 70
     1
102
RTVSPost2010Prop31
280
     0
102
RTVSPost2010PropOp31
 70
     1
102
RTVSPost2010Prop32
280
     0
102
RTVSPost2010PropOp32
 70
     1
102
RTVSPost2010Prop33
280
     0
102
RTVSPost2010PropOp33
 70
     1
102
RTVSPost2010Prop34
280
     0
102
RTVSPost2010PropOp34
 70
     1
102
RTVSPost2010Prop35
280
     0
102
RTVSPost2010PropOp35
 70
     1
102
RTVSPost2010Prop36
280
     0
102
RTVSPost2010PropOp36
 70
     1
102
RTVSPost2010Prop37
 90
       50
102
RTVSPost2010PropOp37
 70
     1
102
RTVSPost2010Prop38
140
0.0
102
RTVSPost2010PropOp38
 70
     1
102
RTVSPost2010Prop39
140
1.0
102
RTVSPost2010PropOp39
 70
     1
102
RTVSPost2010Prop40
 90
        0
102
RTVSPost2010PropOp40
 70
     1
102
RTVSPost2010Prop41ColorIndex
 90
       18
102
RTVSPost2010Prop41ColorRGB
 90
        0
102
RTVSPost2010PropOp41
 70
     1
102
RTVSPost2010Prop42
 90
       50
102
RTVSPost2010PropOp42
 70
     1
102
RTVSPost2010Prop43
 90
        3
102
RTVSPost2010PropOp43
 70
     1
102
RTVSPost2010Prop44ColorIndex
 90
        5
102
RTVSPost2010Prop44ColorRGB
 90
      255
102
RTVSPost2010PropOp44
 70
     1
102
RTVSPost2010Prop45
280
     0
102
RTVSPost2010PropOp45
 70
     1
102
RTVSPost2010Prop46
 90
       50
102
RTVSPost2010PropOp46
 70
     1
102
RTVSPost2010Prop47
 90
       50
102
RTVSPost2010PropOp47
 70
     1
102
RTVSPost2010Prop48
 90
       50
102
RTVSPost2010PropOp48
 70
     1
102
RTVSPost2010Prop49
280
     0
102
RTVSPost2010PropOp49
 70
     1
102
RTVSPost2010Prop50
 90
       50
102
RTVSPost2010PropOp50
 70
     1
102
RTVSPost2010Prop51ColorIndex
 90
      256
102
RTVSPost2010Prop51ColorRGB
 90
-16777216
102
RTVSPost2010PropOp51
 70
     0
102
RTVSPost2010Prop52
140
1.0
102
RTVSPost2010PropOp52
 70
     0
102
RTVSPost2010Prop53
 90
        2
102
RTVSPost2010PropOp53
 70
     1
102
RTVSPost2010Prop54
  1
strokes_ogs.tif
102
RTVSPost2010PropOp54
 70
     1
102
RTVSPost2010Prop55
280
     0
102
RTVSPost2010PropOp55
 70
     1
102
RTVSPost2010Prop56
140
1.0
102
RTVSPost2010PropOp56
 70
     1
102
RTVSPost2010Prop57
140
1.0
102
RTVSPost2010PropOp57
 70
     1
  0
XRECORD
  5
32B
102
{ACAD_REACTORS
330
32A
102
}
330
32A
100
AcDbXrecord
280
     1
102
RTVSPost2010Prop28
280
     0
102
RTVSPost2010PropOp28
 70
     1
102
RTVSPost2010Prop29
280
     1
102
RTVSPost2010PropOp29
 70
     1
102
RTVSPost2010Prop30
280
     1
102
RTVSPost2010PropOp30
 70
     1
102
RTVSPost2010Prop31
280
     0
102
RTVSPost2010PropOp31
 70
     1
102
RTVSPost2010Prop32
280
     0
102
RTVSPost2010PropOp32
 70
     1
102
RTVSPost2010Prop33
280
     0
102
RTVSPost2010PropOp33
 70
     1
102
RTVSPost2010Prop34
280
     0
102
RTVSPost2010PropOp34
 70
     1
102
RTVSPost2010Prop35
280
     0
102
RTVSPost2010PropOp35
 70
     1
102
RTVSPost2010Prop36
280
     0
102
RTVSPost2010PropOp36
 70
     1
102
RTVSPost2010Prop37
 90
       50
102
RTVSPost2010PropOp37
 70
     1
102
RTVSPost2010Prop38
140
0.0
102
RTVSPost2010PropOp38
 70
     1
102
RTVSPost2010Prop39
140
1.0
102
RTVSPost2010PropOp39
 70
     1
102
RTVSPost2010Prop40
 90
        0
102
RTVSPost2010PropOp40
 70
     1
102
RTVSPost2010Prop41ColorIndex
 90
       18
102
RTVSPost2010Prop41ColorRGB
 90
        0
102
RTVSPost2010PropOp41
 70
     1
102
RTVSPost2010Prop42
 90
       50
102
RTVSPost2010PropOp42
 70
     1
102
RTVSPost2010Prop43
 90
        3
102
RTVSPost2010PropOp43
 70
     1
102
RTVSPost2010Prop44ColorIndex
 90
        5
102
RTVSPost2010Prop44ColorRGB
 90
      255
102
RTVSPost2010PropOp44
 70
     1
102
RTVSPost2010Prop45
280
     0
102
RTVSPost2010PropOp45
 70
     1
102
RTVSPost2010Prop46
 90
       50
102
RTVSPost2010PropOp46
 70
     1
102
RTVSPost2010Prop47
 90
       50
102
RTVSPost2010PropOp47
 70
     1
102
RTVSPost2010Prop48
 90
       50
102
RTVSPost2010PropOp48
 70
     1
102
RTVSPost2010Prop49
280
     0
102
RTVSPost2010PropOp49
 70
     1
102
RTVSPost2010Prop50
 90
       50
102
RTVSPost2010PropOp50
 70
     1
102
RTVSPost2010Prop51ColorIndex
 90
      256
102
RTVSPost2010Prop51ColorRGB
 90
-16777216
102
RTVSPost2010PropOp51
 70
     0
102
RTVSPost2010Prop52
140
1.0
102
RTVSPost2010PropOp52
 70
     0
102
RTVSPost2010Prop53
 90
        2
102
RTVSPost2010PropOp53
 70
     1
102
RTVSPost2010Prop54
  1
strokes_ogs.tif
102
RTVSPost2010PropOp54
 70
     1
102
RTVSPost2010Prop55
280
     0
102
RTVSPost2010PropOp55
 70
     1
102
RTVSPost2010Prop56
140
1.0
102
RTVSPost2010PropOp56
 70
     1
102
RTVSPost2010Prop57
140
1.0
102
RTVSPost2010PropOp57
 70
     1
  0
XRECORD
  5
32D
102
{ACAD_REACTORS
330
32C
102
}
330
32C
100
AcDbXrecord
280
     1
102
RTVSPost2010Prop28
280
     0
102
RTVSPost2010PropOp28
 70
     1
102
RTVSPost2010Prop29
280
     1
102
RTVSPost2010PropOp29
 70
     1
102
RTVSPost2010Prop30
280
     1
102
RTVSPost2010PropOp30
 70
     1
102
RTVSPost2010Prop31
280
     0
102
RTVSPost2010PropOp31
 70
     1
102
RTVSPost2010Prop32
280
     0
102
RTVSPost2010PropOp32
 70
     1
102
RTVSPost2010Prop33
280
     0
102
RTVSPost2010PropOp33
 70
     1
102
RTVSPost2010Prop34
280
     0
102
RTVSPost2010PropOp34
 70
     1
102
RTVSPost2010Prop35
280
     0
102
RTVSPost2010PropOp35
 70
     1
102
RTVSPost2010Prop36
280
     0
102
RTVSPost2010PropOp36
 70
     1
102
RTVSPost2010Prop37
 90
       50
102
RTVSPost2010PropOp37
 70
     1
102
RTVSPost2010Prop38
140
0.0
102
RTVSPost2010PropOp38
 70
     1
102
RTVSPost2010Prop39
140
1.0
102
RTVSPost2010PropOp39
 70
     1
102
RTVSPost2010Prop40
 90
        0
102
RTVSPost2010PropOp40
 70
     1
102
RTVSPost2010Prop41ColorIndex
 90
       18
102
RTVSPost2010Prop41ColorRGB
 90
        0
102
RTVSPost2010PropOp41
 70
     1
102
RTVSPost2010Prop42
 90
       50
102
RTVSPost2010PropOp42
 70
     1
102
RTVSPost2010Prop43
 90
        3
102
RTVSPost2010PropOp43
 70
     1
102
RTVSPost2010Prop44ColorIndex
 90
        5
102
RTVSPost2010Prop44ColorRGB
 90
      255
102
RTVSPost2010PropOp44
 70
     1
102
RTVSPost2010Prop45
280
     0
102
RTVSPost2010PropOp45
 70
     1
102
RTVSPost2010Prop46
 90
       50
102
RTVSPost2010PropOp46
 70
     1
102
RTVSPost2010Prop47
 90
       50
102
RTVSPost2010PropOp47
 70
     1
102
RTVSPost2010Prop48
 90
       50
102
RTVSPost2010PropOp48
 70
     1
102
RTVSPost2010Prop49
280
     0
102
RTVSPost2010PropOp49
 70
     1
102
RTVSPost2010Prop50
 90
       50
102
RTVSPost2010PropOp50
 70
     1
102
RTVSPost2010Prop51ColorIndex
 90
      256
102
RTVSPost2010Prop51ColorRGB
 90
-16777216
102
RTVSPost2010PropOp51
 70
     0
102
RTVSPost2010Prop52
140
1.0
102
RTVSPost2010PropOp52
 70
     0
102
RTVSPost2010Prop53
 90
        2
102
RTVSPost2010PropOp53
 70
     1
102
RTVSPost2010Prop54
  1
strokes_ogs.tif
102
RTVSPost2010PropOp54
 70
     1
102
RTVSPost2010Prop55
280
     0
102
RTVSPost2010PropOp55
 70
     1
102
RTVSPost2010Prop56
140
1.0
102
RTVSPost2010PropOp56
 70
     1
102
RTVSPost2010Prop57
140
1.0
102
RTVSPost2010PropOp57
 70
     1
  0
XRECORD
  5
333
102
{ACAD_REACTORS
330
332
102
}
330
332
100
AcDbXrecord
280
     1
102
RTVSPost2010Prop28
280
     0
102
RTVSPost2010PropOp28
 70
     1
102
RTVSPost2010Prop29
280
     1
102
RTVSPost2010PropOp29
 70
     1
102
RTVSPost2010Prop30
280
     1
102
RTVSPost2010PropOp30
 70
     1
102
RTVSPost2010Prop31
280
     0
102
RTVSPost2010PropOp31
 70
     1
102
RTVSPost2010Prop32
280
     0
102
RTVSPost2010PropOp32
 70
     1
102
RTVSPost2010Prop33
280
     0
102
RTVSPost2010PropOp33
 70
     1
102
RTVSPost2010Prop34
280
     0
102
RTVSPost2010PropOp34
 70
     1
102
RTVSPost2010Prop35
280
     0
102
RTVSPost2010PropOp35
 70
     1
102
RTVSPost2010Prop36
280
     0
102
RTVSPost2010PropOp36
 70
     1
102
RTVSPost2010Prop37
 90
       50
102
RTVSPost2010PropOp37
 70
     1
102
RTVSPost2010Prop38
140
0.0
102
RTVSPost2010PropOp38
 70
     1
102
RTVSPost2010Prop39
140
1.0
102
RTVSPost2010PropOp39
 70
     1
102
RTVSPost2010Prop40
 90
        0
102
RTVSPost2010PropOp40
 70
     1
102
RTVSPost2010Prop41ColorIndex
 90
       18
102
RTVSPost2010Prop41ColorRGB
 90
        0
102
RTVSPost2010PropOp41
 70
     1
102
RTVSPost2010Prop42
 90
       50
102
RTVSPost2010PropOp42
 70
     1
102
RTVSPost2010Prop43
 90
        3
102
RTVSPost2010PropOp43
 70
     1
102
RTVSPost2010Prop44ColorIndex
 90
        5
102
RTVSPost2010Prop44ColorRGB
 90
      255
102
RTVSPost2010PropOp44
 70
     1
102
RTVSPost2010Prop45
280
     0
102
RTVSPost2010PropOp45
 70
     1
102
RTVSPost2010Prop46
 90
       50
102
RTVSPost2010PropOp46
 70
     1
102
RTVSPost2010Prop47
 90
       50
102
RTVSPost2010PropOp47
 70
     1
102
RTVSPost2010Prop48
 90
       50
102
RTVSPost2010PropOp48
 70
     1
102
RTVSPost2010Prop49
280
     0
102
RTVSPost2010PropOp49
 70
     1
102
RTVSPost2010Prop50
 90
       50
102
RTVSPost2010PropOp50
 70
     1
102
RTVSPost2010Prop51ColorIndex
 90
      256
102
RTVSPost2010Prop51ColorRGB
 90
-16777216
102
RTVSPost2010PropOp51
 70
     0
102
RTVSPost2010Prop52
140
1.0
102
RTVSPost2010PropOp52
 70
     0
102
RTVSPost2010Prop53
 90
        2
102
RTVSPost2010PropOp53
 70
     1
102
RTVSPost2010Prop54
  1
strokes_ogs.tif
102
RTVSPost2010PropOp54
 70
     1
102
RTVSPost2010Prop55
280
     0
102
RTVSPost2010PropOp55
 70
     1
102
RTVSPost2010Prop56
140
1.0
102
RTVSPost2010PropOp56
 70
     1
102
RTVSPost2010Prop57
140
1.0
102
RTVSPost2010PropOp57
 70
     1
  0
XRECORD
  5
347
102
{ACAD_REACTORS
330
346
102
}
330
346
100
AcDbXrecord
280
     1
102
RTVSPost2010Prop28
280
     0
102
RTVSPost2010PropOp28
 70
     0
102
RTVSPost2010Prop29
280
     1
102
RTVSPost2010PropOp29
 70
     0
102
RTVSPost2010Prop30
280
     1
102
RTVSPost2010PropOp30
 70
     0
102
RTVSPost2010Prop31
280
     0
102
RTVSPost2010PropOp31
 70
     0
102
RTVSPost2010Prop32
280
     0
102
RTVSPost2010PropOp32
 70
     0
102
RTVSPost2010Prop33
280
     0
102
RTVSPost2010PropOp33
 70
     0
102
RTVSPost2010Prop34
280
     0
102
RTVSPost2010PropOp34
 70
     0
102
RTVSPost2010Prop35
280
     0
102
RTVSPost2010PropOp35
 70
     0
102
RTVSPost2010Prop36
280
     0
102
RTVSPost2010PropOp36
 70
     0
102
RTVSPost2010Prop37
 90
       50
102
RTVSPost2010PropOp37
 70
     0
102
RTVSPost2010Prop38
140
0.0
102
RTVSPost2010PropOp38
 70
     0
102
RTVSPost2010Prop39
140
1.0
102
RTVSPost2010PropOp39
 70
     0
102
RTVSPost2010Prop40
 90
        0
102
RTVSPost2010PropOp40
 70
     0
102
RTVSPost2010Prop41ColorIndex
 90
       18
102
RTVSPost2010Prop41ColorRGB
 90
        0
102
RTVSPost2010PropOp41
 70
     0
102
RTVSPost2010Prop42
 90
       50
102
RTVSPost2010PropOp42
 70
     0
102
RTVSPost2010Prop43
 90
        3
102
RTVSPost2010PropOp43
 70
     0
102
RTVSPost2010Prop44ColorIndex
 90
        5
102
RTVSPost2010Prop44ColorRGB
 90
      255
102
RTVSPost2010PropOp44
 70
     0
102
RTVSPost2010Prop45
280
     0
102
RTVSPost2010PropOp45
 70
     0
102
RTVSPost2010Prop46
 90
       50
102
RTVSPost2010PropOp46
 70
     0
102
RTVSPost2010Prop47
 90
       50
102
RTVSPost2010PropOp47
 70
     0
102
RTVSPost2010Prop48
 90
       50
102
RTVSPost2010PropOp48
 70
     0
102
RTVSPost2010Prop49
280
     0
102
RTVSPost2010PropOp49
 70
     0
102
RTVSPost2010Prop50
 90
       50
102
RTVSPost2010PropOp50
 70
     0
102
RTVSPost2010Prop51ColorIndex
 90
      256
102
RTVSPost2010Prop51ColorRGB
 90
-16777216
102
RTVSPost2010PropOp51
 70
     0
102
RTVSPost2010Prop52
140
1.0
102
RTVSPost2010PropOp52
 70
     0
102
RTVSPost2010Prop53
 90
        2
102
RTVSPost2010PropOp53
 70
     0
102
RTVSPost2010Prop54
  1
strokes_ogs.tif
102
RTVSPost2010PropOp54
 70
     0
102
RTVSPost2010Prop55
280
     0
102
RTVSPost2010PropOp55
 70
     0
102
RTVSPost2010Prop56
140
1.0
102
RTVSPost2010PropOp56
 70
     0
102
RTVSPost2010Prop57
140
1.0
102
RTVSPost2010PropOp57
 70
     0
  0
XRECORD
  5
341
102
{ACAD_REACTORS
330
340
102
}
330
340
100
AcDbXrecord
280
     1
102
RTVSPost2010Prop28
280
     0
102
RTVSPost2010PropOp28
 70
     1
102
RTVSPost2010Prop29
280
     1
102
RTVSPost2010PropOp29
 70
     1
102
RTVSPost2010Prop30
280
     1
102
RTVSPost2010PropOp30
 70
     1
102
RTVSPost2010Prop31
280
     0
102
RTVSPost2010PropOp31
 70
     1
102
RTVSPost2010Prop32
280
     0
102
RTVSPost2010PropOp32
 70
     1
102
RTVSPost2010Prop33
280
     0
102
RTVSPost2010PropOp33
 70
     1
102
RTVSPost2010Prop34
280
     0
102
RTVSPost2010PropOp34
 70
     1
102
RTVSPost2010Prop35
280
     0
102
RTVSPost2010PropOp35
 70
     1
102
RTVSPost2010Prop36
280
     0
102
RTVSPost2010PropOp36
 70
     1
102
RTVSPost2010Prop37
 90
       50
102
RTVSPost2010PropOp37
 70
     1
102
RTVSPost2010Prop38
140
0.0
102
RTVSPost2010PropOp38
 70
     1
102
RTVSPost2010Prop39
140
1.0
102
RTVSPost2010PropOp39
 70
     1
102
RTVSPost2010Prop40
 90
        0
102
RTVSPost2010PropOp40
 70
     1
102
RTVSPost2010Prop41ColorIndex
 90
       18
102
RTVSPost2010Prop41ColorRGB
 90
        0
102
RTVSPost2010PropOp41
 70
     1
102
RTVSPost2010Prop42
 90
       50
102
RTVSPost2010PropOp42
 70
     1
102
RTVSPost2010Prop43
 90
        3
102
RTVSPost2010PropOp43
 70
     1
102
RTVSPost2010Prop44ColorIndex
 90
        5
102
RTVSPost2010Prop44ColorRGB
 90
      255
102
RTVSPost2010PropOp44
 70
     1
102
RTVSPost2010Prop45
280
     0
102
RTVSPost2010PropOp45
 70
     1
102
RTVSPost2010Prop46
 90
       50
102
RTVSPost2010PropOp46
 70
     1
102
RTVSPost2010Prop47
 90
       50
102
RTVSPost2010PropOp47
 70
     1
102
RTVSPost2010Prop48
 90
       50
102
RTVSPost2010PropOp48
 70
     1
102
RTVSPost2010Prop49
280
     0
102
RTVSPost2010PropOp49
 70
     1
102
RTVSPost2010Prop50
 90
       50
102
RTVSPost2010PropOp50
 70
     1
102
RTVSPost2010Prop51ColorIndex
 90
      256
102
RTVSPost2010Prop51ColorRGB
 90
-16777216
102
RTVSPost2010PropOp51
 70
     0
102
RTVSPost2010Prop52
140
1.0
102
RTVSPost2010PropOp52
 70
     0
102
RTVSPost2010Prop53
 90
        2
102
RTVSPost2010PropOp53
 70
     1
102
RTVSPost2010Prop54
  1
strokes_ogs.tif
102
RTVSPost2010PropOp54
 70
     1
102
RTVSPost2010Prop55
280
     0
102
RTVSPost2010PropOp55
 70
     1
102
RTVSPost2010Prop56
140
1.0
102
RTVSPost2010PropOp56
 70
     1
102
RTVSPost2010Prop57
140
1.0
102
RTVSPost2010PropOp57
 70
     1
  0
XRECORD
  5
349
102
{ACAD_REACTORS
330
348
102
}
330
348
100
AcDbXrecord
280
     1
102
RTVSPost2010Prop28
280
     0
102
RTVSPost2010PropOp28
 70
     0
102
RTVSPost2010Prop29
280
     1
102
RTVSPost2010PropOp29
 70
     0
102
RTVSPost2010Prop30
280
     1
102
RTVSPost2010PropOp30
 70
     0
102
RTVSPost2010Prop31
280
     0
102
RTVSPost2010PropOp31
 70
     0
102
RTVSPost2010Prop32
280
     0
102
RTVSPost2010PropOp32
 70
     0
102
RTVSPost2010Prop33
280
     0
102
RTVSPost2010PropOp33
 70
     0
102
RTVSPost2010Prop34
280
     0
102
RTVSPost2010PropOp34
 70
     0
102
RTVSPost2010Prop35
280
     0
102
RTVSPost2010PropOp35
 70
     0
102
RTVSPost2010Prop36
280
     0
102
RTVSPost2010PropOp36
 70
     0
102
RTVSPost2010Prop37
 90
       50
102
RTVSPost2010PropOp37
 70
     0
102
RTVSPost2010Prop38
140
0.0
102
RTVSPost2010PropOp38
 70
     0
102
RTVSPost2010Prop39
140
1.0
102
RTVSPost2010PropOp39
 70
     0
102
RTVSPost2010Prop40
 90
        0
102
RTVSPost2010PropOp40
 70
     0
102
RTVSPost2010Prop41ColorIndex
 90
       18
102
RTVSPost2010Prop41ColorRGB
 90
        0
102
RTVSPost2010PropOp41
 70
     0
102
RTVSPost2010Prop42
 90
       50
102
RTVSPost2010PropOp42
 70
     0
102
RTVSPost2010Prop43
 90
        3
102
RTVSPost2010PropOp43
 70
     0
102
RTVSPost2010Prop44ColorIndex
 90
        5
102
RTVSPost2010Prop44ColorRGB
 90
      255
102
RTVSPost2010PropOp44
 70
     0
102
RTVSPost2010Prop45
280
     0
102
RTVSPost2010PropOp45
 70
     0
102
RTVSPost2010Prop46
 90
       50
102
RTVSPost2010PropOp46
 70
     0
102
RTVSPost2010Prop47
 90
       50
102
RTVSPost2010PropOp47
 70
     0
102
RTVSPost2010Prop48
 90
       50
102
RTVSPost2010PropOp48
 70
     0
102
RTVSPost2010Prop49
280
     0
102
RTVSPost2010PropOp49
 70
     0
102
RTVSPost2010Prop50
 90
       50
102
RTVSPost2010PropOp50
 70
     0
102
RTVSPost2010Prop51ColorIndex
 90
      256
102
RTVSPost2010Prop51ColorRGB
 90
-16777216
102
RTVSPost2010PropOp51
 70
     0
102
RTVSPost2010Prop52
140
1.0
102
RTVSPost2010PropOp52
 70
     0
102
RTVSPost2010Prop53
 90
        2
102
RTVSPost2010PropOp53
 70
     0
102
RTVSPost2010Prop54
  1
strokes_ogs.tif
102
RTVSPost2010PropOp54
 70
     0
102
RTVSPost2010Prop55
280
     0
102
RTVSPost2010PropOp55
 70
     0
102
RTVSPost2010Prop56
140
1.0
102
RTVSPost2010PropOp56
 70
     0
102
RTVSPost2010Prop57
140
1.0
102
RTVSPost2010PropOp57
 70
     0
  0
XRECORD
  5
337
102
{ACAD_REACTORS
330
336
102
}
330
336
100
AcDbXrecord
280
     1
102
RTVSPost2010Prop28
280
     0
102
RTVSPost2010PropOp28
 70
     1
102
RTVSPost2010Prop29
280
     1
102
RTVSPost2010PropOp29
 70
     1
102
RTVSPost2010Prop30
280
     1
102
RTVSPost2010PropOp30
 70
     1
102
RTVSPost2010Prop31
280
     0
102
RTVSPost2010PropOp31
 70
     1
102
RTVSPost2010Prop32
280
     0
102
RTVSPost2010PropOp32
 70
     1
102
RTVSPost2010Prop33
280
     0
102
RTVSPost2010PropOp33
 70
     1
102
RTVSPost2010Prop34
280
     0
102
RTVSPost2010PropOp34
 70
     1
102
RTVSPost2010Prop35
280
     0
102
RTVSPost2010PropOp35
 70
     1
102
RTVSPost2010Prop36
280
     0
102
RTVSPost2010PropOp36
 70
     1
102
RTVSPost2010Prop37
 90
       50
102
RTVSPost2010PropOp37
 70
     1
102
RTVSPost2010Prop38
140
0.0
102
RTVSPost2010PropOp38
 70
     1
102
RTVSPost2010Prop39
140
1.0
102
RTVSPost2010PropOp39
 70
     1
102
RTVSPost2010Prop40
 90
        0
102
RTVSPost2010PropOp40
 70
     1
102
RTVSPost2010Prop41ColorIndex
 90
       18
102
RTVSPost2010Prop41ColorRGB
 90
        0
102
RTVSPost2010PropOp41
 70
     1
102
RTVSPost2010Prop42
 90
       50
102
RTVSPost2010PropOp42
 70
     1
102
RTVSPost2010Prop43
 90
        3
102
RTVSPost2010PropOp43
 70
     1
102
RTVSPost2010Prop44ColorIndex
 90
        5
102
RTVSPost2010Prop44ColorRGB
 90
      255
102
RTVSPost2010PropOp44
 70
     1
102
RTVSPost2010Prop45
280
     0
102
RTVSPost2010PropOp45
 70
     1
102
RTVSPost2010Prop46
 90
       50
102
RTVSPost2010PropOp46
 70
     1
102
RTVSPost2010Prop47
 90
       50
102
RTVSPost2010PropOp47
 70
     1
102
RTVSPost2010Prop48
 90
       50
102
RTVSPost2010PropOp48
 70
     1
102
RTVSPost2010Prop49
280
     0
102
RTVSPost2010PropOp49
 70
     1
102
RTVSPost2010Prop50
 90
       50
102
RTVSPost2010PropOp50
 70
     1
102
RTVSPost2010Prop51ColorIndex
 90
      256
102
RTVSPost2010Prop51ColorRGB
 90
-16777216
102
RTVSPost2010PropOp51
 70
     0
102
RTVSPost2010Prop52
140
1.0
102
RTVSPost2010PropOp52
 70
     0
102
RTVSPost2010Prop53
 90
        2
102
RTVSPost2010PropOp53
 70
     1
102
RTVSPost2010Prop54
  1
strokes_ogs.tif
102
RTVSPost2010PropOp54
 70
     1
102
RTVSPost2010Prop55
280
     0
102
RTVSPost2010PropOp55
 70
     1
102
RTVSPost2010Prop56
140
1.0
102
RTVSPost2010PropOp56
 70
     1
102
RTVSPost2010Prop57
140
1.0
102
RTVSPost2010PropOp57
 70
     1
  0
XRECORD
  5
355
102
{ACAD_REACTORS
330
354
102
}
330
354
100
AcDbXrecord
280
     1
102
RTVSPost2010Prop28
280
     0
102
RTVSPost2010PropOp28
 70
     1
102
RTVSPost2010Prop29
280
     1
102
RTVSPost2010PropOp29
 70
     1
102
RTVSPost2010Prop30
280
     1
102
RTVSPost2010PropOp30
 70
     1
102
RTVSPost2010Prop31
280
     0
102
RTVSPost2010PropOp31
 70
     1
102
RTVSPost2010Prop32
280
     0
102
RTVSPost2010PropOp32
 70
     1
102
RTVSPost2010Prop33
280
     0
102
RTVSPost2010PropOp33
 70
     1
102
RTVSPost2010Prop34
280
     0
102
RTVSPost2010PropOp34
 70
     1
102
RTVSPost2010Prop35
280
     0
102
RTVSPost2010PropOp35
 70
     1
102
RTVSPost2010Prop36
280
     0
102
RTVSPost2010PropOp36
 70
     1
102
RTVSPost2010Prop37
 90
       50
102
RTVSPost2010PropOp37
 70
     1
102
RTVSPost2010Prop38
140
0.0
102
RTVSPost2010PropOp38
 70
     1
102
RTVSPost2010Prop39
140
1.0
102
RTVSPost2010PropOp39
 70
     1
102
RTVSPost2010Prop40
 90
        0
102
RTVSPost2010PropOp40
 70
     1
102
RTVSPost2010Prop41ColorIndex
 90
       18
102
RTVSPost2010Prop41ColorRGB
 90
        0
102
RTVSPost2010PropOp41
 70
     1
102
RTVSPost2010Prop42
 90
       50
102
RTVSPost2010PropOp42
 70
     1
102
RTVSPost2010Prop43
 90
        3
102
RTVSPost2010PropOp43
 70
     1
102
RTVSPost2010Prop44ColorIndex
 90
        5
102
RTVSPost2010Prop44ColorRGB
 90
      255
102
RTVSPost2010PropOp44
 70
     1
102
RTVSPost2010Prop45
280
     0
102
RTVSPost2010PropOp45
 70
     1
102
RTVSPost2010Prop46
 90
       50
102
RTVSPost2010PropOp46
 70
     1
102
RTVSPost2010Prop47
 90
       50
102
RTVSPost2010PropOp47
 70
     1
102
RTVSPost2010Prop48
 90
       50
102
RTVSPost2010PropOp48
 70
     1
102
RTVSPost2010Prop49
280
     0
102
RTVSPost2010PropOp49
 70
     1
102
RTVSPost2010Prop50
 90
       50
102
RTVSPost2010PropOp50
 70
     1
102
RTVSPost2010Prop51ColorIndex
 90
      256
102
RTVSPost2010Prop51ColorRGB
 90
-16777216
102
RTVSPost2010PropOp51
 70
     0
102
RTVSPost2010Prop52
140
1.0
102
RTVSPost2010PropOp52
 70
     0
102
RTVSPost2010Prop53
 90
        2
102
RTVSPost2010PropOp53
 70
     1
102
RTVSPost2010Prop54
  1
strokes_ogs.tif
102
RTVSPost2010PropOp54
 70
     1
102
RTVSPost2010Prop55
280
     0
102
RTVSPost2010PropOp55
 70
     1
102
RTVSPost2010Prop56
140
1.0
102
RTVSPost2010PropOp56
 70
     1
102
RTVSPost2010Prop57
140
1.0
102
RTVSPost2010PropOp57
 70
     1
  0
XRECORD
  5
353
102
{ACAD_REACTORS
330
352
102
}
330
352
100
AcDbXrecord
280
     1
102
RTVSPost2010Prop28
280
     0
102
RTVSPost2010PropOp28
 70
     1
102
RTVSPost2010Prop29
280
     1
102
RTVSPost2010PropOp29
 70
     1
102
RTVSPost2010Prop30
280
     1
102
RTVSPost2010PropOp30
 70
     1
102
RTVSPost2010Prop31
280
     0
102
RTVSPost2010PropOp31
 70
     1
102
RTVSPost2010Prop32
280
     0
102
RTVSPost2010PropOp32
 70
     1
102
RTVSPost2010Prop33
280
     0
102
RTVSPost2010PropOp33
 70
     1
102
RTVSPost2010Prop34
280
     0
102
RTVSPost2010PropOp34
 70
     1
102
RTVSPost2010Prop35
280
     0
102
RTVSPost2010PropOp35
 70
     1
102
RTVSPost2010Prop36
280
     0
102
RTVSPost2010PropOp36
 70
     1
102
RTVSPost2010Prop37
 90
       50
102
RTVSPost2010PropOp37
 70
     1
102
RTVSPost2010Prop38
140
0.0
102
RTVSPost2010PropOp38
 70
     1
102
RTVSPost2010Prop39
140
1.0
102
RTVSPost2010PropOp39
 70
     1
102
RTVSPost2010Prop40
 90
        0
102
RTVSPost2010PropOp40
 70
     1
102
RTVSPost2010Prop41ColorIndex
 90
       18
102
RTVSPost2010Prop41ColorRGB
 90
        0
102
RTVSPost2010PropOp41
 70
     1
102
RTVSPost2010Prop42
 90
       50
102
RTVSPost2010PropOp42
 70
     1
102
RTVSPost2010Prop43
 90
        3
102
RTVSPost2010PropOp43
 70
     1
102
RTVSPost2010Prop44ColorIndex
 90
        5
102
RTVSPost2010Prop44ColorRGB
 90
      255
102
RTVSPost2010PropOp44
 70
     1
102
RTVSPost2010Prop45
280
     0
102
RTVSPost2010PropOp45
 70
     1
102
RTVSPost2010Prop46
 90
       50
102
RTVSPost2010PropOp46
 70
     1
102
RTVSPost2010Prop47
 90
       50
102
RTVSPost2010PropOp47
 70
     1
102
RTVSPost2010Prop48
 90
       50
102
RTVSPost2010PropOp48
 70
     1
102
RTVSPost2010Prop49
280
     0
102
RTVSPost2010PropOp49
 70
     1
102
RTVSPost2010Prop50
 90
       50
102
RTVSPost2010PropOp50
 70
     1
102
RTVSPost2010Prop51ColorIndex
 90
      256
102
RTVSPost2010Prop51ColorRGB
 90
-16777216
102
RTVSPost2010PropOp51
 70
     0
102
RTVSPost2010Prop52
140
1.0
102
RTVSPost2010PropOp52
 70
     0
102
RTVSPost2010Prop53
 90
        2
102
RTVSPost2010PropOp53
 70
     1
102
RTVSPost2010Prop54
  1
strokes_ogs.tif
102
RTVSPost2010PropOp54
 70
     1
102
RTVSPost2010Prop55
280
     0
102
RTVSPost2010PropOp55
 70
     1
102
RTVSPost2010Prop56
140
1.0
102
RTVSPost2010PropOp56
 70
     1
102
RTVSPost2010Prop57
140
1.0
102
RTVSPost2010PropOp57
 70
     1
  0
XRECORD
  5
34D
102
{ACAD_REACTORS
330
34C
102
}
330
34C
100
AcDbXrecord
280
     1
102
RTVSPost2010Prop28
280
     0
102
RTVSPost2010PropOp28
 70
     1
102
RTVSPost2010Prop29
280
     1
102
RTVSPost2010PropOp29
 70
     1
102
RTVSPost2010Prop30
280
     1
102
RTVSPost2010PropOp30
 70
     1
102
RTVSPost2010Prop31
280
     0
102
RTVSPost2010PropOp31
 70
     1
102
RTVSPost2010Prop32
280
     0
102
RTVSPost2010PropOp32
 70
     1
102
RTVSPost2010Prop33
280
     0
102
RTVSPost2010PropOp33
 70
     1
102
RTVSPost2010Prop34
280
     0
102
RTVSPost2010PropOp34
 70
     1
102
RTVSPost2010Prop35
280
     0
102
RTVSPost2010PropOp35
 70
     1
102
RTVSPost2010Prop36
280
     0
102
RTVSPost2010PropOp36
 70
     1
102
RTVSPost2010Prop37
 90
       50
102
RTVSPost2010PropOp37
 70
     1
102
RTVSPost2010Prop38
140
0.0
102
RTVSPost2010PropOp38
 70
     1
102
RTVSPost2010Prop39
140
1.0
102
RTVSPost2010PropOp39
 70
     1
102
RTVSPost2010Prop40
 90
        0
102
RTVSPost2010PropOp40
 70
     1
102
RTVSPost2010Prop41ColorIndex
 90
       18
102
RTVSPost2010Prop41ColorRGB
 90
        0
102
RTVSPost2010PropOp41
 70
     1
102
RTVSPost2010Prop42
 90
       50
102
RTVSPost2010PropOp42
 70
     1
102
RTVSPost2010Prop43
 90
        3
102
RTVSPost2010PropOp43
 70
     1
102
RTVSPost2010Prop44ColorIndex
 90
        5
102
RTVSPost2010Prop44ColorRGB
 90
      255
102
RTVSPost2010PropOp44
 70
     1
102
RTVSPost2010Prop45
280
     0
102
RTVSPost2010PropOp45
 70
     1
102
RTVSPost2010Prop46
 90
       50
102
RTVSPost2010PropOp46
 70
     1
102
RTVSPost2010Prop47
 90
       50
102
RTVSPost2010PropOp47
 70
     1
102
RTVSPost2010Prop48
 90
       50
102
RTVSPost2010PropOp48
 70
     1
102
RTVSPost2010Prop49
280
     0
102
RTVSPost2010PropOp49
 70
     1
102
RTVSPost2010Prop50
 90
       50
102
RTVSPost2010PropOp50
 70
     1
102
RTVSPost2010Prop51ColorIndex
 90
      256
102
RTVSPost2010Prop51ColorRGB
 90
-16777216
102
RTVSPost2010PropOp51
 70
     0
102
RTVSPost2010Prop52
140
1.0
102
RTVSPost2010PropOp52
 70
     0
102
RTVSPost2010Prop53
 90
        2
102
RTVSPost2010PropOp53
 70
     1
102
RTVSPost2010Prop54
  1
strokes_ogs.tif
102
RTVSPost2010PropOp54
 70
     1
102
RTVSPost2010Prop55
280
     0
102
RTVSPost2010PropOp55
 70
     1
102
RTVSPost2010Prop56
140
1.0
102
RTVSPost2010PropOp56
 70
     1
102
RTVSPost2010Prop57
140
1.0
102
RTVSPost2010PropOp57
 70
     1
  0
XRECORD
  5
34F
102
{ACAD_REACTORS
330
34E
102
}
330
34E
100
AcDbXrecord
280
     1
102
RTVSPost2010Prop28
280
     0
102
RTVSPost2010PropOp28
 70
     1
102
RTVSPost2010Prop29
280
     1
102
RTVSPost2010PropOp29
 70
     1
102
RTVSPost2010Prop30
280
     1
102
RTVSPost2010PropOp30
 70
     1
102
RTVSPost2010Prop31
280
     0
102
RTVSPost2010PropOp31
 70
     1
102
RTVSPost2010Prop32
280
     0
102
RTVSPost2010PropOp32
 70
     1
102
RTVSPost2010Prop33
280
     0
102
RTVSPost2010PropOp33
 70
     1
102
RTVSPost2010Prop34
280
     0
102
RTVSPost2010PropOp34
 70
     1
102
RTVSPost2010Prop35
280
     0
102
RTVSPost2010PropOp35
 70
     1
102
RTVSPost2010Prop36
280
     0
102
RTVSPost2010PropOp36
 70
     1
102
RTVSPost2010Prop37
 90
       50
102
RTVSPost2010PropOp37
 70
     1
102
RTVSPost2010Prop38
140
0.0
102
RTVSPost2010PropOp38
 70
     1
102
RTVSPost2010Prop39
140
1.0
102
RTVSPost2010PropOp39
 70
     1
102
RTVSPost2010Prop40
 90
        0
102
RTVSPost2010PropOp40
 70
     1
102
RTVSPost2010Prop41ColorIndex
 90
       18
102
RTVSPost2010Prop41ColorRGB
 90
        0
102
RTVSPost2010PropOp41
 70
     1
102
RTVSPost2010Prop42
 90
       50
102
RTVSPost2010PropOp42
 70
     1
102
RTVSPost2010Prop43
 90
        3
102
RTVSPost2010PropOp43
 70
     1
102
RTVSPost2010Prop44ColorIndex
 90
        5
102
RTVSPost2010Prop44ColorRGB
 90
      255
102
RTVSPost2010PropOp44
 70
     1
102
RTVSPost2010Prop45
280
     0
102
RTVSPost2010PropOp45
 70
     1
102
RTVSPost2010Prop46
 90
       50
102
RTVSPost2010PropOp46
 70
     1
102
RTVSPost2010Prop47
 90
       50
102
RTVSPost2010PropOp47
 70
     1
102
RTVSPost2010Prop48
 90
       50
102
RTVSPost2010PropOp48
 70
     1
102
RTVSPost2010Prop49
280
     0
102
RTVSPost2010PropOp49
 70
     1
102
RTVSPost2010Prop50
 90
       50
102
RTVSPost2010PropOp50
 70
     1
102
RTVSPost2010Prop51ColorIndex
 90
      256
102
RTVSPost2010Prop51ColorRGB
 90
-16777216
102
RTVSPost2010PropOp51
 70
     0
102
RTVSPost2010Prop52
140
1.0
102
RTVSPost2010PropOp52
 70
     0
102
RTVSPost2010Prop53
 90
        2
102
RTVSPost2010PropOp53
 70
     1
102
RTVSPost2010Prop54
  1
strokes_ogs.tif
102
RTVSPost2010PropOp54
 70
     1
102
RTVSPost2010Prop55
280
     0
102
RTVSPost2010PropOp55
 70
     1
102
RTVSPost2010Prop56
140
1.0
102
RTVSPost2010PropOp56
 70
     1
102
RTVSPost2010Prop57
140
1.0
102
RTVSPost2010PropOp57
 70
     1
  0
XRECORD
  5
33F
102
{ACAD_REACTORS
330
33E
102
}
330
33E
100
AcDbXrecord
280
     1
102
RTVSPost2010Prop28
280
     0
102
RTVSPost2010PropOp28
 70
     1
102
RTVSPost2010Prop29
280
     1
102
RTVSPost2010PropOp29
 70
     1
102
RTVSPost2010Prop30
280
     1
102
RTVSPost2010PropOp30
 70
     1
102
RTVSPost2010Prop31
280
     0
102
RTVSPost2010PropOp31
 70
     1
102
RTVSPost2010Prop32
280
     0
102
RTVSPost2010PropOp32
 70
     1
102
RTVSPost2010Prop33
280
     0
102
RTVSPost2010PropOp33
 70
     1
102
RTVSPost2010Prop34
280
     0
102
RTVSPost2010PropOp34
 70
     1
102
RTVSPost2010Prop35
280
     0
102
RTVSPost2010PropOp35
 70
     1
102
RTVSPost2010Prop36
280
     0
102
RTVSPost2010PropOp36
 70
     1
102
RTVSPost2010Prop37
 90
       50
102
RTVSPost2010PropOp37
 70
     1
102
RTVSPost2010Prop38
140
0.0
102
RTVSPost2010PropOp38
 70
     1
102
RTVSPost2010Prop39
140
1.0
102
RTVSPost2010PropOp39
 70
     1
102
RTVSPost2010Prop40
 90
        0
102
RTVSPost2010PropOp40
 70
     1
102
RTVSPost2010Prop41ColorIndex
 90
       18
102
RTVSPost2010Prop41ColorRGB
 90
        0
102
RTVSPost2010PropOp41
 70
     1
102
RTVSPost2010Prop42
 90
       50
102
RTVSPost2010PropOp42
 70
     1
102
RTVSPost2010Prop43
 90
        3
102
RTVSPost2010PropOp43
 70
     1
102
RTVSPost2010Prop44ColorIndex
 90
        5
102
RTVSPost2010Prop44ColorRGB
 90
      255
102
RTVSPost2010PropOp44
 70
     1
102
RTVSPost2010Prop45
280
     0
102
RTVSPost2010PropOp45
 70
     1
102
RTVSPost2010Prop46
 90
       50
102
RTVSPost2010PropOp46
 70
     1
102
RTVSPost2010Prop47
 90
       50
102
RTVSPost2010PropOp47
 70
     1
102
RTVSPost2010Prop48
 90
       50
102
RTVSPost2010PropOp48
 70
     1
102
RTVSPost2010Prop49
280
     0
102
RTVSPost2010PropOp49
 70
     1
102
RTVSPost2010Prop50
 90
       50
102
RTVSPost2010PropOp50
 70
     1
102
RTVSPost2010Prop51ColorIndex
 90
      256
102
RTVSPost2010Prop51ColorRGB
 90
-16777216
102
RTVSPost2010PropOp51
 70
     0
102
RTVSPost2010Prop52
140
1.0
102
RTVSPost2010PropOp52
 70
     0
102
RTVSPost2010Prop53
 90
        2
102
RTVSPost2010PropOp53
 70
     1
102
RTVSPost2010Prop54
  1
strokes_ogs.tif
102
RTVSPost2010PropOp54
 70
     1
102
RTVSPost2010Prop55
280
     0
102
RTVSPost2010PropOp55
 70
     1
102
RTVSPost2010Prop56
140
1.0
102
RTVSPost2010PropOp56
 70
     1
102
RTVSPost2010Prop57
140
1.0
102
RTVSPost2010PropOp57
 70
     1
  0
XRECORD
  5
331
102
{ACAD_REACTORS
330
330
102
}
330
330
100
AcDbXrecord
280
     1
102
RTVSPost2010Prop28
280
     0
102
RTVSPost2010PropOp28
 70
     1
102
RTVSPost2010Prop29
280
     1
102
RTVSPost2010PropOp29
 70
     1
102
RTVSPost2010Prop30
280
     1
102
RTVSPost2010PropOp30
 70
     1
102
RTVSPost2010Prop31
280
     0
102
RTVSPost2010PropOp31
 70
     1
102
RTVSPost2010Prop32
280
     0
102
RTVSPost2010PropOp32
 70
     1
102
RTVSPost2010Prop33
280
     0
102
RTVSPost2010PropOp33
 70
     1
102
RTVSPost2010Prop34
280
     0
102
RTVSPost2010PropOp34
 70
     1
102
RTVSPost2010Prop35
280
     0
102
RTVSPost2010PropOp35
 70
     1
102
RTVSPost2010Prop36
280
     0
102
RTVSPost2010PropOp36
 70
     1
102
RTVSPost2010Prop37
 90
       50
102
RTVSPost2010PropOp37
 70
     1
102
RTVSPost2010Prop38
140
0.0
102
RTVSPost2010PropOp38
 70
     1
102
RTVSPost2010Prop39
140
1.0
102
RTVSPost2010PropOp39
 70
     1
102
RTVSPost2010Prop40
 90
        0
102
RTVSPost2010PropOp40
 70
     1
102
RTVSPost2010Prop41ColorIndex
 90
       18
102
RTVSPost2010Prop41ColorRGB
 90
        0
102
RTVSPost2010PropOp41
 70
     1
102
RTVSPost2010Prop42
 90
       50
102
RTVSPost2010PropOp42
 70
     1
102
RTVSPost2010Prop43
 90
        3
102
RTVSPost2010PropOp43
 70
     1
102
RTVSPost2010Prop44ColorIndex
 90
        5
102
RTVSPost2010Prop44ColorRGB
 90
      255
102
RTVSPost2010PropOp44
 70
     1
102
RTVSPost2010Prop45
280
     0
102
RTVSPost2010PropOp45
 70
     1
102
RTVSPost2010Prop46
 90
       50
102
RTVSPost2010PropOp46
 70
     1
102
RTVSPost2010Prop47
 90
       50
102
RTVSPost2010PropOp47
 70
     1
102
RTVSPost2010Prop48
 90
       50
102
RTVSPost2010PropOp48
 70
     1
102
RTVSPost2010Prop49
280
     0
102
RTVSPost2010PropOp49
 70
     1
102
RTVSPost2010Prop50
 90
       50
102
RTVSPost2010PropOp50
 70
     1
102
RTVSPost2010Prop51ColorIndex
 90
      256
102
RTVSPost2010Prop51ColorRGB
 90
-16777216
102
RTVSPost2010PropOp51
 70
     0
102
RTVSPost2010Prop52
140
1.0
102
RTVSPost2010PropOp52
 70
     0
102
RTVSPost2010Prop53
 90
        2
102
RTVSPost2010PropOp53
 70
     1
102
RTVSPost2010Prop54
  1
strokes_ogs.tif
102
RTVSPost2010PropOp54
 70
     1
102
RTVSPost2010Prop55
280
     0
102
RTVSPost2010PropOp55
 70
     1
102
RTVSPost2010Prop56
140
1.0
102
RTVSPost2010PropOp56
 70
     1
102
RTVSPost2010Prop57
140
1.0
102
RTVSPost2010PropOp57
 70
     1
  0
XRECORD
  5
351
102
{ACAD_REACTORS
330
350
102
}
330
350
100
AcDbXrecord
280
     1
102
RTVSPost2010Prop28
280
     0
102
RTVSPost2010PropOp28
 70
     1
102
RTVSPost2010Prop29
280
     1
102
RTVSPost2010PropOp29
 70
     1
102
RTVSPost2010Prop30
280
     1
102
RTVSPost2010PropOp30
 70
     1
102
RTVSPost2010Prop31
280
     0
102
RTVSPost2010PropOp31
 70
     1
102
RTVSPost2010Prop32
280
     0
102
RTVSPost2010PropOp32
 70
     1
102
RTVSPost2010Prop33
280
     0
102
RTVSPost2010PropOp33
 70
     1
102
RTVSPost2010Prop34
280
     0
102
RTVSPost2010PropOp34
 70
     1
102
RTVSPost2010Prop35
280
     0
102
RTVSPost2010PropOp35
 70
     1
102
RTVSPost2010Prop36
280
     0
102
RTVSPost2010PropOp36
 70
     1
102
RTVSPost2010Prop37
 90
       50
102
RTVSPost2010PropOp37
 70
     1
102
RTVSPost2010Prop38
140
0.0
102
RTVSPost2010PropOp38
 70
     1
102
RTVSPost2010Prop39
140
1.0
102
RTVSPost2010PropOp39
 70
     1
102
RTVSPost2010Prop40
 90
        0
102
RTVSPost2010PropOp40
 70
     1
102
RTVSPost2010Prop41ColorIndex
 90
       18
102
RTVSPost2010Prop41ColorRGB
 90
        0
102
RTVSPost2010PropOp41
 70
     1
102
RTVSPost2010Prop42
 90
       50
102
RTVSPost2010PropOp42
 70
     1
102
RTVSPost2010Prop43
 90
        3
102
RTVSPost2010PropOp43
 70
     1
102
RTVSPost2010Prop44ColorIndex
 90
        5
102
RTVSPost2010Prop44ColorRGB
 90
      255
102
RTVSPost2010PropOp44
 70
     1
102
RTVSPost2010Prop45
280
     0
102
RTVSPost2010PropOp45
 70
     1
102
RTVSPost2010Prop46
 90
       50
102
RTVSPost2010PropOp46
 70
     1
102
RTVSPost2010Prop47
 90
       50
102
RTVSPost2010PropOp47
 70
     1
102
RTVSPost2010Prop48
 90
       50
102
RTVSPost2010PropOp48
 70
     1
102
RTVSPost2010Prop49
280
     0
102
RTVSPost2010PropOp49
 70
     1
102
RTVSPost2010Prop50
 90
       50
102
RTVSPost2010PropOp50
 70
     1
102
RTVSPost2010Prop51ColorIndex
 90
      256
102
RTVSPost2010Prop51ColorRGB
 90
-16777216
102
RTVSPost2010PropOp51
 70
     0
102
RTVSPost2010Prop52
140
1.0
102
RTVSPost2010PropOp52
 70
     0
102
RTVSPost2010Prop53
 90
        2
102
RTVSPost2010PropOp53
 70
     1
102
RTVSPost2010Prop54
  1
strokes_ogs.tif
102
RTVSPost2010PropOp54
 70
     1
102
RTVSPost2010Prop55
280
     0
102
RTVSPost2010PropOp55
 70
     1
102
RTVSPost2010Prop56
140
1.0
102
RTVSPost2010PropOp56
 70
     1
102
RTVSPost2010Prop57
140
1.0
102
RTVSPost2010PropOp57
 70
     1
  0
ENDSEC
  0
EOF
