  0
SECTION
  2
HEADER
  9
$ACADVER
  1
AC1024
  9
$ACADMAINTVER
 70
     6
  9
$DWGCODEPAGE
  3
ANSI_932
  9
$INSBASE
 10
0.0
 20
0.0
 30
0.0
  9
$EXTMIN
 10
-4455.0
 20
-3150.0
 30
0.0
  9
$EXTMAX
 10
4455.0
 20
3150.0
 30
0.0
  9
$LIMMIN
 10
-4455.0
 20
-3150.0
  9
$LIMMAX
 10
4455.0
 20
3150.0
  9
$ORTHOMODE
 70
     0
  9
$REGENMODE
 70
     1
  9
$FILLMODE
 70
     1
  9
$QTEXTMODE
 70
     0
  9
$MIRRTEXT
 70
     1
  9
$LTSCALE
 40
30.0
  9
$ATTMODE
 70
     1
  9
$TEXTSIZE
 40
2.5
  9
$TRACEWID
 40
1.0
  9
$TEXTSTYLE
  7
Standard
  9
$CLAYER
  8
0
  9
$CELTYPE
  6
ByLayer
  9
$CECOLOR
 62
   256
  9
$CELTSCALE
 40
1.0
  9
$DISPSILH
 70
     0
  9
$DIMSCALE
 40
1.0
  9
$DIMASZ
 40
2.5
  9
$DIMEXO
 40
0.625
  9
$DIMDLI
 40
3.75
  9
$DIMRND
 40
0.0
  9
$DIMDLE
 40
0.0
  9
$DIMEXE
 40
1.25
  9
$DIMTP
 40
0.0
  9
$DIMTM
 40
0.0
  9
$DIMTXT
 40
2.5
  9
$DIMCEN
 40
2.5
  9
$DIMTSZ
 40
0.0
  9
$DIMTOL
 70
     0
  9
$DIMLIM
 70
     0
  9
$DIMTIH
 70
     0
  9
$DIMTOH
 70
     0
  9
$DIMSE1
 70
     0
  9
$DIMSE2
 70
     0
  9
$DIMTAD
 70
     1
  9
$DIMZIN
 70
     8
  9
$DIMBLK
  1

  9
$DIMASO
 70
     1
  9
$DIMSHO
 70
     1
  9
$DIMPOST
  1

  9
$DIMAPOST
  1

  9
$DIMALT
 70
     0
  9
$DIMALTD
 70
     3
  9
$DIMALTF
 40
0.03937007874016
  9
$DIMLFAC
 40
1.0
  9
$DIMTOFL
 70
     1
  9
$DIMTVP
 40
0.0
  9
$DIMTIX
 70
     0
  9
$DIMSOXD
 70
     0
  9
$DIMSAH
 70
     0
  9
$DIMBLK1
  1

  9
$DIMBLK2
  1

  9
$DIMSTYLE
  2
ISO-25
  9
$DIMCLRD
 70
     0
  9
$DIMCLRE
 70
     0
  9
$DIMCLRT
 70
     0
  9
$DIMTFAC
 40
1.0
  9
$DIMGAP
 40
0.625
  9
$DIMJUST
 70
     0
  9
$DIMSD1
 70
     0
  9
$DIMSD2
 70
     0
  9
$DIMTOLJ
 70
     0
  9
$DIMTZIN
 70
     8
  9
$DIMALTZ
 70
     0
  9
$DIMALTTZ
 70
     0
  9
$DIMUPT
 70
     0
  9
$DIMDEC
 70
     2
  9
$DIMTDEC
 70
     2
  9
$DIMALTU
 70
     2
  9
$DIMALTTD
 70
     3
  9
$DIMTXSTY
  7
Standard
  9
$DIMAUNIT
 70
     0
  9
$DIMADEC
 70
     0
  9
$DIMALTRND
 40
0.0
  9
$DIMAZIN
 70
     0
  9
$DIMDSEP
 70
    44
  9
$DIMATFIT
 70
     3
  9
$DIMFRAC
 70
     0
  9
$DIMLDRBLK
  1

  9
$DIMLUNIT
 70
     2
  9
$DIMLWD
 70
    -2
  9
$DIMLWE
 70
    -2
  9
$DIMTMOVE
 70
     0
  9
$DIMFXL
 40
1.0
  9
$DIMFXLON
 70
     0
  9
$DIMJOGANG
 40
0.7853981633974483
  9
$DIMTFILL
 70
     0
  9
$DIMTFILLCLR
 70
     0
  9
$DIMARCSYM
 70
     0
  9
$DIMLTYPE
  6

  9
$DIMLTEX1
  6

  9
$DIMLTEX2
  6

  9
$DIMTXTDIRECTION
 70
     0
  9
$LUNITS
 70
     2
  9
$LUPREC
 70
     4
  9
$SKETCHINC
 40
1.0
  9
$FILLETRAD
 40
10.0
  9
$AUNITS
 70
     0
  9
$AUPREC
 70
     0
  9
$MENU
  1
.
  9
$ELEVATION
 40
0.0
  9
$PELEVATION
 40
0.0
  9
$THICKNESS
 40
0.0
  9
$LIMCHECK
 70
     0
  9
$CHAMFERA
 40
10.0
  9
$CHAMFERB
 40
10.0
  9
$CHAMFERC
 40
20.0
  9
$CHAMFERD
 40
0.0
  9
$SKPOLY
 70
     0
  9
$TDCREATE
 40
2458001.479567789
  9
$TDUCREATE
 40
2458001.104567789
  9
$TDUPDATE
 40
2458001.479567801
  9
$TDUUPDATE
 40
2458001.104567801
  9
$TDINDWG
 40
0.0000000116
  9
$TDUSRTIMER
 40
0.0000000116
  9
$USRTIMER
 70
     1
  9
$ANGBASE
 50
0.0
  9
$ANGDIR
 70
     0
  9
$PDMODE
 70
     0
  9
$PDSIZE
 40
0.0
  9
$PLINEWID
 40
0.0
  9
$SPLFRAME
 70
     0
  9
$SPLINETYPE
 70
     6
  9
$SPLINESEGS
 70
     8
  9
$HANDSEED
  5
348
  9
$SURFTAB1
 70
     6
  9
$SURFTAB2
 70
     6
  9
$SURFTYPE
 70
     6
  9
$SURFU
 70
     6
  9
$SURFV
 70
     6
  9
$UCSBASE
  2

  9
$UCSNAME
  2

  9
$UCSORG
 10
0.0
 20
0.0
 30
0.0
  9
$UCSXDIR
 10
1.0
 20
0.0
 30
0.0
  9
$UCSYDIR
 10
0.0
 20
1.0
 30
0.0
  9
$UCSORTHOREF
  2

  9
$UCSORTHOVIEW
 70
     0
  9
$UCSORGTOP
 10
0.0
 20
0.0
 30
0.0
  9
$UCSORGBOTTOM
 10
0.0
 20
0.0
 30
0.0
  9
$UCSORGLEFT
 10
0.0
 20
0.0
 30
0.0
  9
$UCSORGRIGHT
 10
0.0
 20
0.0
 30
0.0
  9
$UCSORGFRONT
 10
0.0
 20
0.0
 30
0.0
  9
$UCSORGBACK
 10
0.0
 20
0.0
 30
0.0
  9
$PUCSBASE
  2

  9
$PUCSNAME
  2

  9
$PUCSORG
 10
0.0
 20
0.0
 30
0.0
  9
$PUCSXDIR
 10
1.0
 20
0.0
 30
0.0
  9
$PUCSYDIR
 10
0.0
 20
1.0
 30
0.0
  9
$PUCSORTHOREF
  2

  9
$PUCSORTHOVIEW
 70
     0
  9
$PUCSORGTOP
 10
0.0
 20
0.0
 30
0.0
  9
$PUCSORGBOTTOM
 10
0.0
 20
0.0
 30
0.0
  9
$PUCSORGLEFT
 10
0.0
 20
0.0
 30
0.0
  9
$PUCSORGRIGHT
 10
0.0
 20
0.0
 30
0.0
  9
$PUCSORGFRONT
 10
0.0
 20
0.0
 30
0.0
  9
$PUCSORGBACK
 10
0.0
 20
0.0
 30
0.0
  9
$USERI1
 70
     0
  9
$USERI2
 70
     0
  9
$USERI3
 70
     0
  9
$USERI4
 70
     0
  9
$USERI5
 70
     0
  9
$USERR1
 40
0.0
  9
$USERR2
 40
0.0
  9
$USERR3
 40
0.0
  9
$USERR4
 40
0.0
  9
$USERR5
 40
0.0
  9
$WORLDVIEW
 70
     1
  9
$SHADEDGE
 70
     3
  9
$SHADEDIF
 70
    70
  9
$TILEMODE
 70
     1
  9
$MAXACTVP
 70
    64
  9
$PINSBASE
 10
0.0
 20
0.0
 30
0.0
  9
$PLIMCHECK
 70
     0
  9
$PEXTMIN
 10
1.000000000000000E+20
 20
1.000000000000000E+20
 30
1.000000000000000E+20
  9
$PEXTMAX
 10
-1.000000000000000E+20
 20
-1.000000000000000E+20
 30
-1.000000000000000E+20
  9
$PLIMMIN
 10
0.0
 20
0.0
  9
$PLIMMAX
 10
420.0
 20
297.0
  9
$UNITMODE
 70
     0
  9
$VISRETAIN
 70
     1
  9
$PLINEGEN
 70
     0
  9
$PSLTSCALE
 70
     1
  9
$TREEDEPTH
 70
  3020
  9
$CMLSTYLE
  2
Standard
  9
$CMLJUST
 70
     0
  9
$CMLSCALE
 40
20.0
  9
$PROXYGRAPHICS
 70
     1
  9
$MEASUREMENT
 70
     1
  9
$CELWEIGHT
370
    -1
  9
$ENDCAPS
280
     0
  9
$JOINSTYLE
280
     0
  9
$LWDISPLAY
290
     0
  9
$INSUNITS
 70
     4
  9
$HYPERLINKBASE
  1

  9
$STYLESHEET
  1

  9
$XEDIT
290
     1
  9
$CEPSNTYPE
380
     0
  9
$PSTYLEMODE
290
     1
  9
$FINGERPRINTGUID
  2
{1B186AD5-3DEC-49CE-BFDE-1952B4A6DEF6}
  9
$VERSIONGUID
  2
{FAEB1C32-E019-11D5-929B-00C0DF256EC4}
  9
$EXTNAMES
290
     1
  9
$PSVPSCALE
 40
0.0
  9
$OLESTARTUP
290
     0
  9
$SORTENTS
280
   127
  9
$INDEXCTL
280
     0
  9
$HIDETEXT
280
     1
  9
$XCLIPFRAME
280
     2
  9
$HALOGAP
280
     0
  9
$OBSCOLOR
 70
   257
  9
$OBSLTYPE
280
     0
  9
$INTERSECTIONDISPLAY
280
     0
  9
$INTERSECTIONCOLOR
 70
   257
  9
$DIMASSOC
280
     2
  9
$PROJECTNAME
  1

  9
$CAMERADISPLAY
290
     0
  9
$LENSLENGTH
 40
50.0
  9
$CAMERAHEIGHT
 40
0.0
  9
$STEPSPERSEC
 40
2.0
  9
$STEPSIZE
 40
6.0
  9
$3DDWFPREC
 40
2.0
  9
$PSOLWIDTH
 40
5.0
  9
$PSOLHEIGHT
 40
80.0
  9
$LOFTANG1
 40
1.570796326794897
  9
$LOFTANG2
 40
1.570796326794897
  9
$LOFTMAG1
 40
0.0
  9
$LOFTMAG2
 40
0.0
  9
$LOFTPARAM
 70
     7
  9
$LOFTNORMALS
280
     1
  9
$LATITUDE
 40
37.795
  9
$LONGITUDE
 40
-122.394
  9
$NORTHDIRECTION
 40
0.0
  9
$TIMEZONE
 70
 -8000
  9
$LIGHTGLYPHDISPLAY
280
     1
  9
$TILEMODELIGHTSYNCH
280
     1
  9
$SOLIDHIST
280
     1
  9
$SHOWHIST
280
     1
  9
$DWFFRAME
280
     2
  9
$DGNFRAME
280
     2
  9
$REALWORLDSCALE
290
     1
  9
$INTERFERECOLOR
 62
   256
  9
$CSHADOW
280
     0
  9
$SHADOWPLANELOCATION
 40
0.0
  0
ENDSEC
  0
SECTION
  2
CLASSES
  0
CLASS
  1
ACDBDICTIONARYWDFLT
  2
AcDbDictionaryWithDefault
  3
ObjectDBX Classes
 90
        0
 91
        4
280
     0
281
     0
  0
CLASS
  1
VISUALSTYLE
  2
AcDbVisualStyle
  3
ObjectDBX Classes
 90
     4095
 91
        4
280
     0
281
     0
  0
CLASS
  1
MATERIAL
  2
AcDbMaterial
  3
ObjectDBX Classes
 90
     1153
 91
        4
280
     0
281
     0
  0
ENDSEC
  0
SECTION
  2
TABLES
  0
TABLE
  2
VPORT
  5
8
330
0
100
AcDbSymbolTable
 70
     1
  0
VPORT
  5
29
330
8
100
AcDbSymbolTableRecord
100
AcDbViewportTableRecord
  2
*Active
 70
     0
 10
0.0
 20
0.0
 11
1.0
 21
1.0
 12
0.0
 22
0.0
 13
0.0
 23
0.0
 14
10.0
 24
10.0
 15
10.0
 25
10.0
 16
0.0
 26
0.0
 36
1.0
 17
0.0
 27
0.0
 37
0.0
 40
6930.000000000001
 41
1.414285714285714
 42
50.0
 43
0.0
 44
0.0
 50
0.0
 51
0.0
 71
     0
 72
 10000
 73
     1
 74
     3
 75
     0
 76
     0
 77
     0
 78
     0
281
     0
 65
     1
110
0.0
120
0.0
130
0.0
111
1.0
121
0.0
131
0.0
112
0.0
122
1.0
132
0.0
 79
     0
146
0.0
 60
     3
 61
     5
292
     1
282
     1
141
0.0
142
0.0
 63
   250
  0
ENDTAB
  0
TABLE
  2
LTYPE
  5
5
330
0
100
AcDbSymbolTable
 70
     2
  0
LTYPE
  5
14
330
5
100
AcDbSymbolTableRecord
100
AcDbLinetypeTableRecord
  2
ByBlock
 70
     0
  3

 72
    65
 73
     0
 40
0.0
  0
LTYPE
  5
15
330
5
100
AcDbSymbolTableRecord
100
AcDbLinetypeTableRecord
  2
ByLayer
 70
     0
  3

 72
    65
 73
     0
 40
0.0
  0
LTYPE
  5
16
330
5
100
AcDbSymbolTableRecord
100
AcDbLinetypeTableRecord
  2
Continuous
 70
     0
  3
Solid line
 72
    65
 73
     0
 40
0.0
  0
LTYPE
  5
3F
330
5
100
AcDbSymbolTableRecord
100
AcDbLinetypeTableRecord
  2
JWW_DASHED1
 70
     0
  3
-  --  --  --  --  --  --  --  -
 72
    65
 73
     2
 40
1.693333333333333
 49
0.8466666666666667
 74
     0
 49
-0.8466666666666667
 74
     0
  0
ENDTAB
  0
TABLE
  2
LAYER
  5
2
330
0
100
AcDbSymbolTable
 70
     3
  0
LAYER
  5
10
330
2
100
AcDbSymbolTableRecord
100
AcDbLayerTableRecord
  2
0
 70
     0
 62
     7
  6
Continuous
370
    -3
390
F
347
3E
  0
LAYER
  5
40
330
2
100
AcDbSymbolTableRecord
100
AcDbLayerTableRecord
  2
0-0
 70
     0
 62
     7
  6
Continuous
370
    -3
390
F
347
3E
  0
LAYER
  5
41
330
2
100
AcDbSymbolTableRecord
100
AcDbLayerTableRecord
  2
寸法
 70
     0
 62
     7
  6
Continuous
370
    -3
390
F
347
3E
  0
ENDTAB
  0
TABLE
  2
STYLE
  5
3
330
0
100
AcDbSymbolTable
 70
     1
  0
STYLE
  5
11
330
3
100
AcDbSymbolTableRecord
100
AcDbTextStyleTableRecord
  2
Standard
 70
     0
 40
0.0
 41
1.0
 50
0.0
 71
     0
 42
2.5
  3
txt
  4

  0
ENDTAB
  0
TABLE
  2
VIEW
  5
6
330
0
100
AcDbSymbolTable
 70
     0
  0
ENDTAB
  0
TABLE
  2
UCS
  5
7
330
0
100
AcDbSymbolTable
 70
     0
  0
ENDTAB
  0
TABLE
  2
APPID
  5
9
330
0
100
AcDbSymbolTable
 70
     1
  0
APPID
  5
12
330
9
100
AcDbSymbolTableRecord
100
AcDbRegAppTableRecord
  2
ACAD
 70
     0
  0
ENDTAB
  0
TABLE
  2
DIMSTYLE
  5
A
330
0
100
AcDbSymbolTable
 70
     1
100
AcDbDimStyleTable
  0
DIMSTYLE
105
27
330
A
100
AcDbSymbolTableRecord
100
AcDbDimStyleTableRecord
  2
ISO-25
 70
     0
 41
2.5
 42
0.625
 43
3.75
 44
1.25
 73
     0
 74
     0
 77
     1
 78
     8
140
2.5
141
2.5
143
0.03937007874016
147
0.625
171
     3
172
     1
178
     0
271
     2
272
     2
274
     3
278
    44
283
     0
284
     8
340
11
  0
ENDTAB
  0
TABLE
  2
BLOCK_RECORD
  5
1
330
0
100
AcDbSymbolTable
 70
     1
  0
BLOCK_RECORD
  5
1F
330
1
100
AcDbSymbolTableRecord
100
AcDbBlockTableRecord
  2
*Model_Space
340
22
 70
     0
280
     1
281
     0
  0
BLOCK_RECORD
  5
1B
330
1
100
AcDbSymbolTableRecord
100
AcDbBlockTableRecord
  2
*Paper_Space
340
1E
 70
     0
280
     1
281
     0
  0
BLOCK_RECORD
  5
23
330
1
100
AcDbSymbolTableRecord
100
AcDbBlockTableRecord
  2
*Paper_Space0
340
26
 70
     0
280
     1
281
     0
  0
ENDTAB
  0
ENDSEC
  0
SECTION
  2
BLOCKS
  0
BLOCK
  5
20
330
1F
100
AcDbEntity
  8
0
100
AcDbBlockBegin
  2
*Model_Space
 70
     0
 10
0.0
 20
0.0
 30
0.0
  3
*Model_Space
  1

  0
ENDBLK
  5
21
330
1F
100
AcDbEntity
  8
0
100
AcDbBlockEnd
  0
BLOCK
  5
1C
330
1B
100
AcDbEntity
 67
     1
  8
0
100
AcDbBlockBegin
  2
*Paper_Space
 70
     0
 10
0.0
 20
0.0
 30
0.0
  3
*Paper_Space
  1

  0
ENDBLK
  5
1D
330
1B
100
AcDbEntity
 67
     1
  8
0
100
AcDbBlockEnd
  0
BLOCK
  5
24
330
23
100
AcDbEntity
  8
0
100
AcDbBlockBegin
  2
*Paper_Space0
 70
     0
 10
0.0
 20
0.0
 30
0.0
  3
*Paper_Space0
  1

  0
ENDBLK
  5
25
330
23
100
AcDbEntity
  8
0
100
AcDbBlockEnd
  0
ENDSEC
  0
SECTION
  2
ENTITIES
  0
LINE
  5
42
330
1F
100
AcDbEntity
  8
0-0
  6
Continuous
 62
    92
370
    13
100
AcDbLine
 10
-764.9744702567573
 20
-1340.071784884237
 30
0.0
 11
-764.9744702567573
 21
943.9282151157627
 31
0.0
  0
LINE
  5
43
330
1F
100
AcDbEntity
  8
0-0
  6
Continuous
 62
    92
370
    13
100
AcDbLine
 10
-797.4744702567567
 20
-1360.071784884237
 30
0.0
 11
-797.4744702567567
 21
987.4282151157628
 31
0.0
  0
LINE
  5
44
330
1F
100
AcDbEntity
  8
0-0
  6
Continuous
 62
    92
370
    13
100
AcDbLine
 10
-767.4744702567567
 20
-1360.071784884237
 30
0.0
 11
-767.4744702567567
 21
951.4282151157627
 31
0.0
  0
LINE
  5
45
330
1F
100
AcDbEntity
  8
0-0
  6
Continuous
 62
    92
370
    13
100
AcDbLine
 10
-764.9744702567573
 20
-1340.071784884237
 30
0.0
 11
-370.9744702567575
 21
-1340.071784884237
 31
0.0
  0
LINE
  5
46
330
1F
100
AcDbEntity
  8
0-0
  6
Continuous
 62
    92
370
    13
100
AcDbLine
 10
-764.9744702567573
 20
943.9282151157627
 30
0.0
 11
-370.9744702567575
 21
943.9282151157627
 31
0.0
  0
LINE
  5
47
330
1F
100
AcDbEntity
  8
0-0
  6
Continuous
 62
    92
370
    13
100
AcDbLine
 10
-370.9744702567575
 20
943.9282151157627
 30
0.0
 11
-370.9744702567575
 21
-1340.071784884237
 31
0.0
  0
LINE
  5
48
330
1F
100
AcDbEntity
  8
0-0
  6
Continuous
 62
    92
370
    13
100
AcDbLine
 10
-369.9744702567567
 20
943.9282151157627
 30
0.0
 11
-369.9744702567567
 21
-1340.071784884237
 31
0.0
  0
LINE
  5
49
330
1F
100
AcDbEntity
  8
0-0
  6
Continuous
 62
    92
370
    13
100
AcDbLine
 10
-369.9744702567567
 20
-1340.071784884237
 30
0.0
 11
24.02552974324308
 21
-1340.071784884237
 31
0.0
  0
LINE
  5
4A
330
1F
100
AcDbEntity
  8
0-0
  6
Continuous
 62
    92
370
    13
100
AcDbLine
 10
-369.9744702567567
 20
943.9282151157627
 30
0.0
 11
24.02552974324308
 21
943.9282151157627
 31
0.0
  0
LINE
  5
4B
330
1F
100
AcDbEntity
  8
0-0
  6
Continuous
 62
    92
370
    13
100
AcDbLine
 10
24.02552974324308
 20
943.9282151157627
 30
0.0
 11
24.02552974324308
 21
-1340.071784884237
 31
0.0
  0
LINE
  5
4C
330
1F
100
AcDbEntity
  8
0-0
  6
Continuous
 62
    92
370
    13
100
AcDbLine
 10
26.02552974324126
 20
943.9282151157627
 30
0.0
 11
26.02552974324126
 21
-1340.071784884237
 31
0.0
  0
LINE
  5
4D
330
1F
100
AcDbEntity
  8
0-0
  6
Continuous
 62
    92
370
    13
100
AcDbLine
 10
26.02552974324126
 20
-1340.071784884237
 30
0.0
 11
420.025529743241
 21
-1340.071784884237
 31
0.0
  0
LINE
  5
4E
330
1F
100
AcDbEntity
  8
0-0
  6
Continuous
 62
    92
370
    13
100
AcDbLine
 10
26.02552974324126
 20
943.9282151157627
 30
0.0
 11
420.025529743241
 21
943.9282151157627
 31
0.0
  0
LINE
  5
4F
330
1F
100
AcDbEntity
  8
0-0
  6
Continuous
 62
    92
370
    13
100
AcDbLine
 10
421.0255297432418
 20
-1340.071784884237
 30
0.0
 11
421.0255297432418
 21
943.9282151157627
 31
0.0
  0
LINE
  5
50
330
1F
100
AcDbEntity
  8
0-0
  6
Continuous
 62
    92
370
    13
100
AcDbLine
 10
420.025529743241
 20
-1340.071784884237
 30
0.0
 11
420.025529743241
 21
943.9282151157627
 31
0.0
  0
LINE
  5
51
330
1F
100
AcDbEntity
  8
0-0
  6
Continuous
 62
    92
370
    13
100
AcDbLine
 10
-797.4744702567567
 20
-1360.071784884237
 30
0.0
 11
847.525529743241
 21
-1360.071784884237
 31
0.0
  0
LINE
  5
52
330
1F
100
AcDbEntity
  8
0-0
  6
Continuous
 62
    92
370
    13
100
AcDbLine
 10
847.525529743241
 20
-1360.071784884237
 30
0.0
 11
847.525529743241
 21
987.4282151157628
 31
0.0
  0
LINE
  5
53
330
1F
100
AcDbEntity
  8
0-0
  6
Continuous
 62
    92
370
    13
100
AcDbLine
 10
817.525529743241
 20
-1360.071784884237
 30
0.0
 11
817.525529743241
 21
951.4282151157627
 31
0.0
  0
LINE
  5
54
330
1F
100
AcDbEntity
  8
0-0
  6
Continuous
 62
    92
370
    13
100
AcDbLine
 10
-797.4744702567567
 20
987.4282151157628
 30
0.0
 11
847.525529743241
 21
987.4282151157628
 31
0.0
  0
LINE
  5
55
330
1F
100
AcDbEntity
  8
0-0
  6
Continuous
 62
    92
370
    13
100
AcDbLine
 10
-767.4744702567567
 20
951.4282151157627
 30
0.0
 11
817.525529743241
 21
951.4282151157627
 31
0.0
  0
LINE
  5
56
330
1F
100
AcDbEntity
  8
0-0
  6
Continuous
 62
    92
370
    13
100
AcDbLine
 10
-767.4744702567567
 20
-1348.071784884237
 30
0.0
 11
817.525529743241
 21
-1348.071784884237
 31
0.0
  0
LINE
  5
57
330
1F
100
AcDbEntity
  8
0-0
  6
Continuous
 62
    92
370
    13
100
AcDbLine
 10
421.0255297432418
 20
-1340.071784884237
 30
0.0
 11
815.0255297432416
 21
-1340.071784884237
 31
0.0
  0
LINE
  5
58
330
1F
100
AcDbEntity
  8
0-0
  6
Continuous
 62
    92
370
    13
100
AcDbLine
 10
421.0255297432418
 20
943.9282151157627
 30
0.0
 11
815.0255297432416
 21
943.9282151157627
 31
0.0
  0
LINE
  5
59
330
1F
100
AcDbEntity
  8
0-0
  6
Continuous
 62
    92
370
    13
100
AcDbLine
 10
815.0255297432416
 20
-1340.071784884237
 30
0.0
 11
815.0255297432416
 21
943.9282151157627
 31
0.0
  0
LINE
  5
5A
330
1F
100
AcDbEntity
  8
0-0
  6
Continuous
 62
     7
370
     9
100
AcDbLine
 10
-688.9744702567718
 20
-385.0717848842372
 30
0.0
 11
-684.9744702567755
 21
-381.0717848842374
 31
0.0
  0
LINE
  5
5B
330
1F
100
AcDbEntity
  8
0-0
  6
Continuous
 62
     7
370
     9
100
AcDbLine
 10
-688.9744702567718
 20
-465.0717848842378
 30
0.0
 11
-684.9744702567755
 21
-469.0717848842376
 31
0.0
  0
LINE
  5
5C
330
1F
100
AcDbEntity
  8
0-0
  6
Continuous
 62
     7
370
     9
100
AcDbLine
 10
-688.9744702567718
 20
-1340.071784884237
 30
0.0
 11
-688.9744702567718
 21
943.9282151157627
 31
0.0
  0
LINE
  5
5D
330
1F
100
AcDbEntity
  8
0-0
  6
Continuous
 62
     7
370
     9
100
AcDbLine
 10
-688.9744702567718
 20
867.9282151157626
 30
0.0
 11
-684.9744702567755
 21
863.9282151157628
 31
0.0
  0
LINE
  5
5E
330
1F
100
AcDbEntity
  8
0-0
  6
Continuous
 62
    92
370
    13
100
AcDbLine
 10
-684.9744702567755
 20
-381.0717848842374
 30
0.0
 11
-684.9744702567755
 21
863.9282151157628
 31
0.0
  0
LINE
  5
5F
330
1F
100
AcDbEntity
  8
0-0
  6
Continuous
 62
     7
370
     9
100
AcDbLine
 10
-688.9744702567718
 20
-1264.071784884238
 30
0.0
 11
-684.9744702567755
 21
-1260.071784884237
 31
0.0
  0
LINE
  5
60
330
1F
100
AcDbEntity
  8
0-0
  6
Continuous
 62
    92
370
    13
100
AcDbLine
 10
-684.9744702567755
 20
-1260.071784884237
 30
0.0
 11
-684.9744702567755
 21
-469.0717848842376
 31
0.0
  0
LINE
  5
61
330
1F
100
AcDbEntity
  8
0-0
  6
Continuous
 62
     7
370
     9
100
AcDbLine
 10
-402.4744702567664
 20
-1340.071784884237
 30
0.0
 11
-402.4744702567664
 21
943.9282151157627
 31
0.0
  0
LINE
  5
62
330
1F
100
AcDbEntity
  8
0-0
  6
Continuous
 62
     7
370
     9
100
AcDbLine
 10
-338.47447025677
 20
-1340.071784884237
 30
0.0
 11
-338.47447025677
 21
943.9282151157627
 31
0.0
  0
LINE
  5
63
330
1F
100
AcDbEntity
  8
0-0
  6
Continuous
 62
     7
370
     9
100
AcDbLine
 10
-51.97447025676453
 20
-385.0717848842372
 30
0.0
 11
-55.9744702567609
 21
-381.0717848842374
 31
0.0
  0
LINE
  5
64
330
1F
100
AcDbEntity
  8
0-0
  6
Continuous
 62
     7
370
     9
100
AcDbLine
 10
-51.97447025676453
 20
-465.0717848842378
 30
0.0
 11
-55.9744702567609
 21
-469.0717848842376
 31
0.0
  0
LINE
  5
65
330
1F
100
AcDbEntity
  8
0-0
  6
Continuous
 62
     7
370
     9
100
AcDbLine
 10
-51.97447025676453
 20
-1340.071784884237
 30
0.0
 11
-51.97447025676453
 21
943.9282151157627
 31
0.0
  0
LINE
  5
66
330
1F
100
AcDbEntity
  8
0-0
  6
Continuous
 62
     7
370
     9
100
AcDbLine
 10
-51.97447025676453
 20
867.9282151157626
 30
0.0
 11
-55.9744702567609
 21
863.9282151157628
 31
0.0
  0
LINE
  5
67
330
1F
100
AcDbEntity
  8
0-0
  6
Continuous
 62
    92
370
    13
100
AcDbLine
 10
-55.9744702567609
 20
-381.0717848842374
 30
0.0
 11
-55.9744702567609
 21
863.9282151157628
 31
0.0
  0
LINE
  5
68
330
1F
100
AcDbEntity
  8
0-0
  6
Continuous
 62
     7
370
     9
100
AcDbLine
 10
-51.97447025676453
 20
-1264.071784884238
 30
0.0
 11
-55.9744702567609
 21
-1260.071784884237
 31
0.0
  0
LINE
  5
69
330
1F
100
AcDbEntity
  8
0-0
  6
Continuous
 62
    92
370
    13
100
AcDbLine
 10
-55.9744702567609
 20
-1260.071784884237
 30
0.0
 11
-55.9744702567609
 21
-469.0717848842376
 31
0.0
  0
LINE
  5
6A
330
1F
100
AcDbEntity
  8
0-0
  6
Continuous
 62
     7
370
     9
100
AcDbLine
 10
-465.4744702567773
 20
-381.0717848842374
 30
0.0
 11
-461.4744702567536
 21
-385.0717848842372
 31
0.0
  0
LINE
  5
6B
330
1F
100
AcDbEntity
  8
0-0
  6
Continuous
 62
     7
370
     9
100
AcDbLine
 10
-461.4744702567536
 20
-465.0717848842378
 30
0.0
 11
-465.4744702567773
 21
-469.0717848842376
 31
0.0
  0
LINE
  5
6C
330
1F
100
AcDbEntity
  8
0-0
  6
Continuous
 62
     7
370
     9
100
AcDbLine
 10
-461.4744702567536
 20
-1340.071784884237
 30
0.0
 11
-461.4744702567536
 21
943.9282151157627
 31
0.0
  0
LINE
  5
6D
330
1F
100
AcDbEntity
  8
0-0
  6
Continuous
 62
     7
370
     9
100
AcDbLine
 10
-461.4744702567536
 20
867.9282151157626
 30
0.0
 11
-465.4744702567773
 21
863.9282151157628
 31
0.0
  0
LINE
  5
6E
330
1F
100
AcDbEntity
  8
0-0
  6
Continuous
 62
    92
370
    13
100
AcDbLine
 10
-465.4744702567773
 20
-381.0717848842374
 30
0.0
 11
-465.4744702567773
 21
863.9282151157628
 31
0.0
  0
LINE
  5
6F
330
1F
100
AcDbEntity
  8
0-0
  6
Continuous
 62
     7
370
     9
100
AcDbLine
 10
-465.4744702567773
 20
-1260.071784884237
 30
0.0
 11
-461.4744702567536
 21
-1264.071784884238
 31
0.0
  0
LINE
  5
70
330
1F
100
AcDbEntity
  8
0-0
  6
Continuous
 62
    92
370
    13
100
AcDbLine
 10
-465.4744702567773
 20
-1260.071784884237
 30
0.0
 11
-465.4744702567773
 21
-469.0717848842376
 31
0.0
  0
LINE
  5
71
330
1F
100
AcDbEntity
  8
0-0
  6
Continuous
 62
     7
370
     9
100
AcDbLine
 10
-275.4744702567591
 20
-381.0717848842374
 30
0.0
 11
-279.4744702567555
 21
-385.0717848842372
 31
0.0
  0
LINE
  5
72
330
1F
100
AcDbEntity
  8
0-0
  6
Continuous
 62
     7
370
     9
100
AcDbLine
 10
-279.4744702567555
 20
-465.0717848842378
 30
0.0
 11
-275.4744702567591
 21
-469.0717848842376
 31
0.0
  0
LINE
  5
73
330
1F
100
AcDbEntity
  8
0-0
  6
Continuous
 62
     7
370
     9
100
AcDbLine
 10
-279.4744702567555
 20
-1340.071784884237
 30
0.0
 11
-279.4744702567555
 21
943.9282151157627
 31
0.0
  0
LINE
  5
74
330
1F
100
AcDbEntity
  8
0-0
  6
Continuous
 62
     7
370
     9
100
AcDbLine
 10
-279.4744702567555
 20
867.9282151157626
 30
0.0
 11
-275.4744702567591
 21
863.9282151157628
 31
0.0
  0
LINE
  5
75
330
1F
100
AcDbEntity
  8
0-0
  6
Continuous
 62
    92
370
    13
100
AcDbLine
 10
-275.4744702567591
 20
-381.0717848842374
 30
0.0
 11
-275.4744702567591
 21
863.9282151157628
 31
0.0
  0
LINE
  5
76
330
1F
100
AcDbEntity
  8
0-0
  6
Continuous
 62
     7
370
     9
100
AcDbLine
 10
-275.4744702567591
 20
-1260.071784884237
 30
0.0
 11
-279.4744702567555
 21
-1264.071784884238
 31
0.0
  0
LINE
  5
77
330
1F
100
AcDbEntity
  8
0-0
  6
Continuous
 62
     7
370
     9
100
AcDbLine
 10
-461.4744702567536
 20
867.9282151157626
 30
0.0
 11
-688.9744702567718
 21
867.9282151157626
 31
0.0
  0
LINE
  5
78
330
1F
100
AcDbEntity
  8
0-0
  6
Continuous
 62
    92
370
    13
100
AcDbLine
 10
-465.4744702567773
 20
863.9282151157628
 30
0.0
 11
-684.9744702567755
 21
863.9282151157628
 31
0.0
  0
LINE
  5
79
330
1F
100
AcDbEntity
  8
0-0
  6
Continuous
 62
     7
370
     9
100
AcDbLine
 10
-688.9744702567718
 20
-1264.071784884238
 30
0.0
 11
-461.4744702567536
 21
-1264.071784884238
 31
0.0
  0
LINE
  5
7A
330
1F
100
AcDbEntity
  8
0-0
  6
Continuous
 62
    92
370
    13
100
AcDbLine
 10
-684.9744702567755
 20
-1260.071784884237
 30
0.0
 11
-465.4744702567773
 21
-1260.071784884237
 31
0.0
  0
LINE
  5
7B
330
1F
100
AcDbEntity
  8
0-0
  6
Continuous
 62
     7
370
     9
100
AcDbLine
 10
-688.9744702567718
 20
-385.0717848842372
 30
0.0
 11
-461.4744702567536
 21
-385.0717848842372
 31
0.0
  0
LINE
  5
7C
330
1F
100
AcDbEntity
  8
0-0
  6
Continuous
 62
    92
370
    13
100
AcDbLine
 10
-684.9744702567755
 20
-381.0717848842374
 30
0.0
 11
-465.4744702567773
 21
-381.0717848842374
 31
0.0
  0
LINE
  5
7D
330
1F
100
AcDbEntity
  8
0-0
  6
Continuous
 62
    92
370
    13
100
AcDbLine
 10
-684.9744702567755
 20
-469.0717848842376
 30
0.0
 11
-465.4744702567773
 21
-469.0717848842376
 31
0.0
  0
LINE
  5
7E
330
1F
100
AcDbEntity
  8
0-0
  6
Continuous
 62
     7
370
     9
100
AcDbLine
 10
-688.9744702567718
 20
-465.0717848842378
 30
0.0
 11
-461.4744702567536
 21
-465.0717848842378
 31
0.0
  0
LINE
  5
7F
330
1F
100
AcDbEntity
  8
0-0
  6
Continuous
 62
    92
370
    13
100
AcDbLine
 10
-55.9744702567609
 20
-381.0717848842374
 30
0.0
 11
-275.4744702567591
 21
-381.0717848842374
 31
0.0
  0
LINE
  5
80
330
1F
100
AcDbEntity
  8
0-0
  6
Continuous
 62
     7
370
     9
100
AcDbLine
 10
-51.97447025676453
 20
-385.0717848842372
 30
0.0
 11
-279.4744702567555
 21
-385.0717848842372
 31
0.0
  0
LINE
  5
81
330
1F
100
AcDbEntity
  8
0-0
  6
Continuous
 62
    92
370
    13
100
AcDbLine
 10
-55.9744702567609
 20
-469.0717848842376
 30
0.0
 11
-275.4744702567591
 21
-469.0717848842376
 31
0.0
  0
LINE
  5
82
330
1F
100
AcDbEntity
  8
0-0
  6
Continuous
 62
     7
370
     9
100
AcDbLine
 10
-51.97447025676453
 20
-465.0717848842378
 30
0.0
 11
-279.4744702567555
 21
-465.0717848842378
 31
0.0
  0
LINE
  5
83
330
1F
100
AcDbEntity
  8
0-0
  6
Continuous
 62
     7
370
     9
100
AcDbLine
 10
102.0255297432318
 20
-385.0717848842372
 30
0.0
 11
106.0255297432282
 21
-381.0717848842374
 31
0.0
  0
LINE
  5
84
330
1F
100
AcDbEntity
  8
0-0
  6
Continuous
 62
     7
370
     9
100
AcDbLine
 10
102.0255297432318
 20
-465.0717848842378
 30
0.0
 11
106.0255297432282
 21
-469.0717848842376
 31
0.0
  0
LINE
  5
85
330
1F
100
AcDbEntity
  8
0-0
  6
Continuous
 62
     7
370
     9
100
AcDbLine
 10
102.0255297432318
 20
-1340.071784884237
 30
0.0
 11
102.0255297432318
 21
943.9282151157627
 31
0.0
  0
LINE
  5
86
330
1F
100
AcDbEntity
  8
0-0
  6
Continuous
 62
     7
370
     9
100
AcDbLine
 10
102.0255297432318
 20
867.9282151157626
 30
0.0
 11
106.0255297432282
 21
863.9282151157628
 31
0.0
  0
LINE
  5
87
330
1F
100
AcDbEntity
  8
0-0
  6
Continuous
 62
    92
370
    13
100
AcDbLine
 10
106.0255297432282
 20
-381.0717848842374
 30
0.0
 11
106.0255297432282
 21
863.9282151157628
 31
0.0
  0
LINE
  5
88
330
1F
100
AcDbEntity
  8
0-0
  6
Continuous
 62
     7
370
     9
100
AcDbLine
 10
102.0255297432318
 20
-1264.071784884238
 30
0.0
 11
106.0255297432282
 21
-1260.071784884237
 31
0.0
  0
LINE
  5
89
330
1F
100
AcDbEntity
  8
0-0
  6
Continuous
 62
    92
370
    13
100
AcDbLine
 10
106.0255297432282
 20
-1260.071784884237
 30
0.0
 11
106.0255297432282
 21
-469.0717848842376
 31
0.0
  0
LINE
  5
8A
330
1F
100
AcDbEntity
  8
0-0
  6
Continuous
 62
     7
370
     9
100
AcDbLine
 10
388.5255297432373
 20
-1340.071784884237
 30
0.0
 11
388.5255297432373
 21
943.9282151157627
 31
0.0
  0
LINE
  5
8B
330
1F
100
AcDbEntity
  8
0-0
  6
Continuous
 62
     7
370
     9
100
AcDbLine
 10
452.5255297432336
 20
-1340.071784884237
 30
0.0
 11
452.5255297432336
 21
943.9282151157627
 31
0.0
  0
LINE
  5
8C
330
1F
100
AcDbEntity
  8
0-0
  6
Continuous
 62
     7
370
     9
100
AcDbLine
 10
739.0255297432391
 20
-385.0717848842372
 30
0.0
 11
735.0255297432427
 21
-381.0717848842374
 31
0.0
  0
LINE
  5
8D
330
1F
100
AcDbEntity
  8
0-0
  6
Continuous
 62
     7
370
     9
100
AcDbLine
 10
739.0255297432391
 20
-465.0717848842378
 30
0.0
 11
735.0255297432427
 21
-469.0717848842376
 31
0.0
  0
LINE
  5
8E
330
1F
100
AcDbEntity
  8
0-0
  6
Continuous
 62
     7
370
     9
100
AcDbLine
 10
739.0255297432391
 20
-1340.071784884237
 30
0.0
 11
739.0255297432391
 21
943.9282151157627
 31
0.0
  0
LINE
  5
8F
330
1F
100
AcDbEntity
  8
0-0
  6
Continuous
 62
     7
370
     9
100
AcDbLine
 10
739.0255297432391
 20
867.9282151157626
 30
0.0
 11
735.0255297432427
 21
863.9282151157628
 31
0.0
  0
LINE
  5
90
330
1F
100
AcDbEntity
  8
0-0
  6
Continuous
 62
    92
370
    13
100
AcDbLine
 10
735.0255297432427
 20
-381.0717848842374
 30
0.0
 11
735.0255297432427
 21
863.9282151157628
 31
0.0
  0
LINE
  5
91
330
1F
100
AcDbEntity
  8
0-0
  6
Continuous
 62
     7
370
     9
100
AcDbLine
 10
739.0255297432391
 20
-1264.071784884238
 30
0.0
 11
735.0255297432427
 21
-1260.071784884237
 31
0.0
  0
LINE
  5
92
330
1F
100
AcDbEntity
  8
0-0
  6
Continuous
 62
    92
370
    13
100
AcDbLine
 10
735.0255297432427
 20
-1260.071784884237
 30
0.0
 11
735.0255297432427
 21
-469.0717848842376
 31
0.0
  0
LINE
  5
93
330
1F
100
AcDbEntity
  8
0-0
  6
Continuous
 62
     7
370
     9
100
AcDbLine
 10
325.5255297432263
 20
-381.0717848842374
 30
0.0
 11
329.5255297432227
 21
-385.0717848842372
 31
0.0
  0
LINE
  5
94
330
1F
100
AcDbEntity
  8
0-0
  6
Continuous
 62
     7
370
     9
100
AcDbLine
 10
329.5255297432227
 20
-465.0717848842378
 30
0.0
 11
325.5255297432263
 21
-469.0717848842376
 31
0.0
  0
LINE
  5
95
330
1F
100
AcDbEntity
  8
0-0
  6
Continuous
 62
     7
370
     9
100
AcDbLine
 10
329.5255297432227
 20
-1340.071784884237
 30
0.0
 11
329.5255297432227
 21
943.9282151157627
 31
0.0
  0
LINE
  5
96
330
1F
100
AcDbEntity
  8
0-0
  6
Continuous
 62
     7
370
     9
100
AcDbLine
 10
329.5255297432227
 20
867.9282151157626
 30
0.0
 11
325.5255297432263
 21
863.9282151157628
 31
0.0
  0
LINE
  5
97
330
1F
100
AcDbEntity
  8
0-0
  6
Continuous
 62
    92
370
    13
100
AcDbLine
 10
325.5255297432263
 20
-381.0717848842374
 30
0.0
 11
325.5255297432263
 21
863.9282151157628
 31
0.0
  0
LINE
  5
98
330
1F
100
AcDbEntity
  8
0-0
  6
Continuous
 62
     7
370
     9
100
AcDbLine
 10
325.5255297432263
 20
-1260.071784884237
 30
0.0
 11
329.5255297432227
 21
-1264.071784884238
 31
0.0
  0
LINE
  5
99
330
1F
100
AcDbEntity
  8
0-0
  6
Continuous
 62
    92
370
    13
100
AcDbLine
 10
325.5255297432263
 20
-1260.071784884237
 30
0.0
 11
325.5255297432263
 21
-469.0717848842376
 31
0.0
  0
LINE
  5
9A
330
1F
100
AcDbEntity
  8
0-0
  6
Continuous
 62
     7
370
     9
100
AcDbLine
 10
515.5255297432445
 20
-381.0717848842374
 30
0.0
 11
511.5255297432209
 21
-385.0717848842372
 31
0.0
  0
LINE
  5
9B
330
1F
100
AcDbEntity
  8
0-0
  6
Continuous
 62
     7
370
     9
100
AcDbLine
 10
511.5255297432209
 20
-465.0717848842378
 30
0.0
 11
515.5255297432445
 21
-469.0717848842376
 31
0.0
  0
LINE
  5
9C
330
1F
100
AcDbEntity
  8
0-0
  6
Continuous
 62
     7
370
     9
100
AcDbLine
 10
511.5255297432209
 20
-1340.071784884237
 30
0.0
 11
511.5255297432209
 21
943.9282151157627
 31
0.0
  0
LINE
  5
9D
330
1F
100
AcDbEntity
  8
0-0
  6
Continuous
 62
     7
370
     9
100
AcDbLine
 10
511.5255297432209
 20
867.9282151157626
 30
0.0
 11
515.5255297432445
 21
863.9282151157628
 31
0.0
  0
LINE
  5
9E
330
1F
100
AcDbEntity
  8
0-0
  6
Continuous
 62
    92
370
    13
100
AcDbLine
 10
515.5255297432445
 20
-381.0717848842374
 30
0.0
 11
515.5255297432445
 21
863.9282151157628
 31
0.0
  0
LINE
  5
9F
330
1F
100
AcDbEntity
  8
0-0
  6
Continuous
 62
     7
370
     9
100
AcDbLine
 10
515.5255297432445
 20
-1260.071784884237
 30
0.0
 11
511.5255297432209
 21
-1264.071784884238
 31
0.0
  0
LINE
  5
A0
330
1F
100
AcDbEntity
  8
0-0
  6
Continuous
 62
    92
370
    13
100
AcDbLine
 10
515.5255297432445
 20
-1260.071784884237
 30
0.0
 11
515.5255297432445
 21
-469.0717848842376
 31
0.0
  0
LINE
  5
A1
330
1F
100
AcDbEntity
  8
0-0
  6
Continuous
 62
     7
370
     9
100
AcDbLine
 10
329.5255297432227
 20
867.9282151157626
 30
0.0
 11
102.0255297432318
 21
867.9282151157626
 31
0.0
  0
LINE
  5
A2
330
1F
100
AcDbEntity
  8
0-0
  6
Continuous
 62
    92
370
    13
100
AcDbLine
 10
325.5255297432263
 20
863.9282151157628
 30
0.0
 11
106.0255297432282
 21
863.9282151157628
 31
0.0
  0
LINE
  5
A3
330
1F
100
AcDbEntity
  8
0-0
  6
Continuous
 62
     7
370
     9
100
AcDbLine
 10
102.0255297432318
 20
-1264.071784884238
 30
0.0
 11
329.5255297432227
 21
-1264.071784884238
 31
0.0
  0
LINE
  5
A4
330
1F
100
AcDbEntity
  8
0-0
  6
Continuous
 62
    92
370
    13
100
AcDbLine
 10
106.0255297432282
 20
-1260.071784884237
 30
0.0
 11
325.5255297432263
 21
-1260.071784884237
 31
0.0
  0
LINE
  5
A5
330
1F
100
AcDbEntity
  8
0-0
  6
Continuous
 62
     7
370
     9
100
AcDbLine
 10
102.0255297432318
 20
-385.0717848842372
 30
0.0
 11
329.5255297432227
 21
-385.0717848842372
 31
0.0
  0
LINE
  5
A6
330
1F
100
AcDbEntity
  8
0-0
  6
Continuous
 62
    92
370
    13
100
AcDbLine
 10
106.0255297432282
 20
-381.0717848842374
 30
0.0
 11
325.5255297432263
 21
-381.0717848842374
 31
0.0
  0
LINE
  5
A7
330
1F
100
AcDbEntity
  8
0-0
  6
Continuous
 62
    92
370
    13
100
AcDbLine
 10
106.0255297432282
 20
-469.0717848842376
 30
0.0
 11
325.5255297432263
 21
-469.0717848842376
 31
0.0
  0
LINE
  5
A8
330
1F
100
AcDbEntity
  8
0-0
  6
Continuous
 62
     7
370
     9
100
AcDbLine
 10
102.0255297432318
 20
-465.0717848842378
 30
0.0
 11
329.5255297432227
 21
-465.0717848842378
 31
0.0
  0
LINE
  5
A9
330
1F
100
AcDbEntity
  8
0-0
  6
Continuous
 62
    92
370
    13
100
AcDbLine
 10
735.0255297432427
 20
-381.0717848842374
 30
0.0
 11
515.5255297432445
 21
-381.0717848842374
 31
0.0
  0
LINE
  5
AA
330
1F
100
AcDbEntity
  8
0-0
  6
Continuous
 62
     7
370
     9
100
AcDbLine
 10
739.0255297432391
 20
-385.0717848842372
 30
0.0
 11
511.5255297432209
 21
-385.0717848842372
 31
0.0
  0
LINE
  5
AB
330
1F
100
AcDbEntity
  8
0-0
  6
Continuous
 62
    92
370
    13
100
AcDbLine
 10
735.0255297432427
 20
-469.0717848842376
 30
0.0
 11
515.5255297432445
 21
-469.0717848842376
 31
0.0
  0
LINE
  5
AC
330
1F
100
AcDbEntity
  8
0-0
  6
Continuous
 62
     7
370
     9
100
AcDbLine
 10
739.0255297432391
 20
-465.0717848842378
 30
0.0
 11
511.5255297432209
 21
-465.0717848842378
 31
0.0
  0
ARC
  5
AD
330
1F
100
AcDbEntity
  8
0-0
  6
Continuous
 62
    92
370
    13
100
AcDbCircle
 10
-613.1344702567644
 20
-437.0717848842377
 30
0.0
 40
15.09
100
AcDbArc
 50
120.5148394403836
 51
239.4851605596201
  0
ARC
  5
AE
330
1F
100
AcDbEntity
  8
0-0
  6
Continuous
 62
    92
370
    13
100
AcDbCircle
 10
-537.3144702567611
 20
-437.0717848842377
 30
0.0
 40
15.09
100
AcDbArc
 50
300.5148394403799
 51
59.48516055961644
  0
LINE
  5
AF
330
1F
100
AcDbEntity
  8
0-0
  6
Continuous
 62
    92
370
    13
100
AcDbLine
 10
-620.7965913730281
 20
-424.0717848842376
 30
0.0
 11
-529.6523491405246
 21
-424.0717848842376
 31
0.0
  0
LINE
  5
B0
330
1F
100
AcDbEntity
  8
0-0
  6
Continuous
 62
    92
370
    13
100
AcDbLine
 10
-620.7965913730009
 20
-450.0717848842378
 30
0.0
 11
-529.6523491405246
 21
-450.0717848842378
 31
0.0
  0
ARC
  5
B1
330
1F
100
AcDbEntity
  8
0-0
  6
Continuous
 62
    92
370
    13
100
AcDbCircle
 10
-127.814470256772
 20
-437.0717848842377
 30
0.0
 40
15.09
100
AcDbArc
 50
300.5148394403799
 51
59.48516055961644
  0
ARC
  5
B2
330
1F
100
AcDbEntity
  8
0-0
  6
Continuous
 62
    92
370
    13
100
AcDbCircle
 10
-203.6344702567753
 20
-437.0717848842377
 30
0.0
 40
15.09
100
AcDbArc
 50
120.5148394403836
 51
239.4851605596201
  0
LINE
  5
B3
330
1F
100
AcDbEntity
  8
0-0
  6
Continuous
 62
    92
370
    13
100
AcDbLine
 10
-120.1523491405082
 20
-424.0717848842376
 30
0.0
 11
-211.2965913730118
 21
-424.0717848842376
 31
0.0
  0
LINE
  5
B4
330
1F
100
AcDbEntity
  8
0-0
  6
Continuous
 62
    92
370
    13
100
AcDbLine
 10
-120.1523491405082
 20
-450.0717848842378
 30
0.0
 11
-211.2965913730118
 21
-450.0717848842378
 31
0.0
  0
ARC
  5
B5
330
1F
100
AcDbEntity
  8
0-0
  6
Continuous
 62
    92
370
    13
100
AcDbCircle
 10
177.8655297432393
 20
-437.0717848842377
 30
0.0
 40
15.09
100
AcDbArc
 50
120.5148394403836
 51
239.4851605596201
  0
ARC
  5
B6
330
1F
100
AcDbEntity
  8
0-0
  6
Continuous
 62
    92
370
    13
100
AcDbCircle
 10
253.6855297432426
 20
-437.0717848842377
 30
0.0
 40
15.09
100
AcDbArc
 50
300.5148394403799
 51
59.48516055961644
  0
LINE
  5
B7
330
1F
100
AcDbEntity
  8
0-0
  6
Continuous
 62
    92
370
    13
100
AcDbLine
 10
170.2034086269755
 20
-424.0717848842376
 30
0.0
 11
261.347650859479
 21
-424.0717848842376
 31
0.0
  0
LINE
  5
B8
330
1F
100
AcDbEntity
  8
0-0
  6
Continuous
 62
    92
370
    13
100
AcDbLine
 10
170.2034086269755
 20
-450.0717848842378
 30
0.0
 11
261.347650859479
 21
-450.0717848842378
 31
0.0
  0
ARC
  5
B9
330
1F
100
AcDbEntity
  8
0-0
  6
Continuous
 62
    92
370
    13
100
AcDbCircle
 10
663.1855297432317
 20
-437.0717848842377
 30
0.0
 40
15.09
100
AcDbArc
 50
300.5148394403799
 51
59.48516055961644
  0
ARC
  5
BA
330
1F
100
AcDbEntity
  8
0-0
  6
Continuous
 62
    92
370
    13
100
AcDbCircle
 10
587.3655297432283
 20
-437.0717848842377
 30
0.0
 40
15.09
100
AcDbArc
 50
120.5148394403836
 51
239.4851605596201
  0
LINE
  5
BB
330
1F
100
AcDbEntity
  8
0-0
  6
Continuous
 62
    92
370
    13
100
AcDbLine
 10
670.8476508594681
 20
-424.0717848842376
 30
0.0
 11
579.7034086269919
 21
-424.0717848842376
 31
0.0
  0
LINE
  5
BC
330
1F
100
AcDbEntity
  8
0-0
  6
Continuous
 62
    92
370
    13
100
AcDbLine
 10
670.8476508594681
 20
-450.0717848842378
 30
0.0
 11
579.7034086269919
 21
-450.0717848842378
 31
0.0
  0
LINE
  5
BD
330
1F
100
AcDbEntity
  8
0-0
  6
Continuous
 62
    92
370
    13
100
AcDbLine
 10
-55.9744702567609
 20
-1260.071784884237
 30
0.0
 11
-275.4744702567591
 21
-1260.071784884237
 31
0.0
  0
LINE
  5
BE
330
1F
100
AcDbEntity
  8
0-0
  6
Continuous
 62
    92
370
    13
100
AcDbLine
 10
-275.4744702567591
 20
-1260.071784884237
 30
0.0
 11
-275.4744702567591
 21
-469.0717848842376
 31
0.0
  0
LINE
  5
BF
330
1F
100
AcDbEntity
  8
0-0
  6
Continuous
 62
     7
370
     9
100
AcDbLine
 10
-51.97447025676453
 20
-1264.071784884238
 30
0.0
 11
-279.4744702567555
 21
-1264.071784884238
 31
0.0
  0
LINE
  5
C0
330
1F
100
AcDbEntity
  8
0-0
  6
JWW_DASHED1
 62
   120
370
     5
100
AcDbLine
 10
-470.8119235540207
 20
-381.0717848842357
 30
0.0
 11
-465.4744702567794
 21
-375.7343315869945
 31
0.0
  0
LINE
  5
C1
330
1F
100
AcDbEntity
  8
0-0
  6
JWW_DASHED1
 62
   120
370
     5
100
AcDbLine
 10
-480.7114184892438
 20
-381.0717848842426
 30
0.0
 11
-465.4744702567713
 21
-365.8348366517705
 31
0.0
  0
LINE
  5
C2
330
1F
100
AcDbEntity
  8
0-0
  6
JWW_DASHED1
 62
   120
370
     5
100
AcDbLine
 10
-490.6109134244513
 20
-381.071784884234
 30
0.0
 11
-465.4744702567798
 21
-355.9353417165627
 31
0.0
  0
LINE
  5
C3
330
1F
100
AcDbEntity
  8
0-0
  6
JWW_DASHED1
 62
   120
370
     5
100
AcDbLine
 10
-500.510408359619
 20
-381.0717848842396
 30
0.0
 11
-465.4744702567773
 21
-346.0358467813983
 31
0.0
  0
LINE
  5
C4
330
1F
100
AcDbEntity
  8
0-0
  6
JWW_DASHED1
 62
   120
370
     5
100
AcDbLine
 10
-510.4099032948396
 20
-381.0717848842443
 30
0.0
 11
-465.4744702567696
 21
-336.1363518461743
 31
0.0
  0
LINE
  5
C5
330
1F
100
AcDbEntity
  8
0-0
  6
JWW_DASHED1
 62
   120
370
     5
100
AcDbLine
 10
-520.3093982299886
 20
-381.0717848842315
 30
0.0
 11
-465.4744702567815
 21
-326.2368569110245
 31
0.0
  0
LINE
  5
C6
330
1F
100
AcDbEntity
  8
0-0
  6
JWW_DASHED1
 62
   120
370
     5
100
AcDbLine
 10
-530.2088931652173
 20
-381.0717848842439
 30
0.0
 11
-465.4744702567747
 21
-316.3373619758013
 31
0.0
  0
LINE
  5
C7
330
1F
100
AcDbEntity
  8
0-0
  6
JWW_DASHED1
 62
   120
370
     5
100
AcDbLine
 10
-540.1083881004363
 20
-381.071784884246
 30
0.0
 11
-465.4744702567675
 21
-306.4378670405777
 31
0.0
  0
LINE
  5
C8
330
1F
100
AcDbEntity
  8
0-0
  6
JWW_DASHED1
 62
   120
370
     5
100
AcDbLine
 10
-550.0078830355848
 20
-381.0717848842332
 30
0.0
 11
-465.474470256779
 21
-296.5383721054274
 31
0.0
  0
LINE
  5
C9
330
1F
100
AcDbEntity
  8
0-0
  6
JWW_DASHED1
 62
   120
370
     5
100
AcDbLine
 10
-559.9073779707926
 20
-381.0717848842247
 30
0.0
 11
-465.4744702567875
 21
-286.6388771702191
 31
0.0
  0
LINE
  5
CA
330
1F
100
AcDbEntity
  8
0-0
  6
JWW_DASHED1
 62
   120
370
     5
100
AcDbLine
 10
-569.806872906024
 20
-381.0717848842396
 30
0.0
 11
-465.4744702567811
 21
-276.7393822349968
 31
0.0
  0
LINE
  5
CB
330
1F
100
AcDbEntity
  8
0-0
  6
JWW_DASHED1
 62
   120
370
     5
100
AcDbLine
 10
-579.706367841181
 20
-381.0717848842349
 30
0.0
 11
-465.4744702567764
 21
-266.8398872998304
 31
0.0
  0
LINE
  5
CC
330
1F
100
AcDbEntity
  8
0-0
  6
JWW_DASHED1
 62
   120
370
     5
100
AcDbLine
 10
-589.6058627763888
 20
-381.0717848842264
 30
0.0
 11
-465.4744702567849
 21
-256.9403923646225
 31
0.0
  0
LINE
  5
CD
330
1F
100
AcDbEntity
  8
0-0
  6
JWW_DASHED1
 62
   120
370
     5
100
AcDbLine
 10
-599.5053577116222
 20
-381.0717848842435
 30
0.0
 11
-465.474470256779
 21
-247.0408974294002
 31
0.0
  0
LINE
  5
CE
330
1F
100
AcDbEntity
  8
0-0
  6
JWW_DASHED1
 62
   120
370
     5
100
AcDbLine
 10
-609.4048526467776
 20
-381.0717848842366
 30
0.0
 11
-465.4744702567739
 21
-237.1414024942332
 31
0.0
  0
LINE
  5
CF
330
1F
100
AcDbEntity
  8
0-0
  6
JWW_DASHED1
 62
   120
370
     5
100
AcDbLine
 10
-619.304347581985
 20
-381.0717848842281
 30
0.0
 11
-465.4744702567824
 21
-227.2419075590254
 31
0.0
  0
LINE
  5
D0
330
1F
100
AcDbEntity
  8
0-0
  6
JWW_DASHED1
 62
   120
370
     5
100
AcDbLine
 10
-629.2038425172206
 20
-381.0717848842473
 30
0.0
 11
-465.4744702567768
 21
-217.3424126238036
 31
0.0
  0
LINE
  5
D1
330
1F
100
AcDbEntity
  8
0-0
  6
JWW_DASHED1
 62
   120
370
     5
100
AcDbLine
 10
-639.1033374523734
 20
-381.0717848842384
 30
0.0
 11
-465.4744702567713
 21
-207.4429176886362
 31
0.0
  0
LINE
  5
D2
330
1F
100
AcDbEntity
  8
0-0
  6
JWW_DASHED1
 62
   120
370
     5
100
AcDbLine
 10
-649.0028323875812
 20
-381.0717848842298
 30
0.0
 11
-465.4744702567798
 21
-197.543422753428
 31
0.0
  0
LINE
  5
D3
330
1F
100
AcDbEntity
  8
0-0
  6
JWW_DASHED1
 62
   120
370
     5
100
AcDbLine
 10
-658.9023273228031
 20
-381.0717848842353
 30
0.0
 11
-465.4744702567879
 21
-187.6439278182202
 31
0.0
  0
LINE
  5
D4
330
1F
100
AcDbEntity
  8
0-0
  6
JWW_DASHED1
 62
   120
370
     5
100
AcDbLine
 10
-668.8018222579695
 20
-381.0717848842401
 30
0.0
 11
-465.4744702567713
 21
-177.7444328830418
 31
0.0
  0
LINE
  5
D5
330
1F
100
AcDbEntity
  8
0-0
  6
JWW_DASHED1
 62
   120
370
     5
100
AcDbLine
 10
-678.7013171931774
 20
-381.0717848842315
 30
0.0
 11
-465.4744702567773
 21
-167.8449379478309
 31
0.0
  0
LINE
  5
D6
330
1F
100
AcDbEntity
  8
0-0
  6
JWW_DASHED1
 62
   120
370
     5
100
AcDbLine
 10
-684.9744702567899
 20
-377.4454430126273
 30
0.0
 11
-465.4744702567854
 21
-157.9454430126231
 31
0.0
  0
LINE
  5
D7
330
1F
100
AcDbEntity
  8
0-0
  6
JWW_DASHED1
 62
   120
370
     5
100
AcDbLine
 10
-684.9744702567712
 20
-367.5459480774467
 30
0.0
 11
-465.4744702567696
 21
-148.0459480774451
 31
0.0
  0
LINE
  5
D8
330
1F
100
AcDbEntity
  8
0-0
  6
JWW_DASHED1
 62
   120
370
     5
100
AcDbLine
 10
-684.9744702567789
 20
-357.6464531422384
 30
0.0
 11
-465.4744702567747
 21
-138.1464531422343
 31
0.0
  0
LINE
  5
D9
330
1F
100
AcDbEntity
  8
0-0
  6
JWW_DASHED1
 62
   120
370
     5
100
AcDbLine
 10
-684.9744702567755
 20
-347.7469582070732
 30
0.0
 11
-465.4744702567871
 21
-128.2469582070849
 31
0.0
  0
LINE
  5
DA
330
1F
100
AcDbEntity
  8
0-0
  6
JWW_DASHED1
 62
   120
370
     5
100
AcDbLine
 10
-684.9744702567691
 20
-337.8474632718501
 30
0.0
 11
-465.4744702567832
 21
-118.3474632718643
 31
0.0
  0
LINE
  5
DB
330
1F
100
AcDbEntity
  8
0-0
  6
JWW_DASHED1
 62
   120
370
     5
100
AcDbLine
 10
-684.9744702567763
 20
-327.9479683366415
 30
0.0
 11
-465.4744702567722
 21
-108.4479683366373
 31
0.0
  0
LINE
  5
DC
330
1F
100
AcDbEntity
  8
0-0
  6
JWW_DASHED1
 62
   120
370
     5
100
AcDbLine
 10
-684.9744702567891
 20
-318.0484734014924
 30
0.0
 11
-465.4744702567849
 21
-98.54847340148827
 31
0.0
  0
LINE
  5
DD
330
1F
100
AcDbEntity
  8
0-0
  6
JWW_DASHED1
 62
   120
370
     5
100
AcDbLine
 10
-684.9744702567665
 20
-308.1489784662535
 30
0.0
 11
-465.4744702567807
 21
-88.64897846626765
 31
0.0
  0
LINE
  5
DE
330
1F
100
AcDbEntity
  8
0-0
  6
JWW_DASHED1
 62
   120
370
     5
100
AcDbLine
 10
-684.9744702567738
 20
-298.2494835310443
 30
0.0
 11
-465.4744702567696
 21
-78.74948353104021
 31
0.0
  0
LINE
  5
DF
330
1F
100
AcDbEntity
  8
0-0
  6
JWW_DASHED1
 62
   120
370
     5
100
AcDbLine
 10
-684.9744702567865
 20
-288.3499885958954
 30
0.0
 11
-465.4744702567824
 21
-68.84998859589079
 31
0.0
  0
LINE
  5
E0
330
1F
100
AcDbEntity
  8
0-0
  6
JWW_DASHED1
 62
   120
370
     5
100
AcDbLine
 10
-684.9744702567643
 20
-278.4504936606569
 30
0.0
 11
-465.474470256779
 21
-58.95049366067104
 31
0.0
  0
LINE
  5
E1
330
1F
100
AcDbEntity
  8
0-0
  6
JWW_DASHED1
 62
   120
370
     5
100
AcDbLine
 10
-684.9744702567729
 20
-268.5509987254491
 30
0.0
 11
-465.4744702567713
 21
-49.05099872544744
 31
0.0
  0
LINE
  5
E2
330
1F
100
AcDbEntity
  8
0-0
  6
JWW_DASHED1
 62
   120
370
     5
100
AcDbLine
 10
-684.974470256784
 20
-258.6515037902983
 30
0.0
 11
-465.4744702567798
 21
-39.15150379029375
 31
0.0
  0
LINE
  5
E3
330
1F
100
AcDbEntity
  8
0-0
  6
JWW_DASHED1
 62
   120
370
     5
100
AcDbLine
 10
-684.9744702567763
 20
-248.7520088550743
 30
0.0
 11
-465.4744702567879
 21
-29.25200885508593
 31
0.0
  0
LINE
  5
E4
330
1F
100
AcDbEntity
  8
0-0
  6
JWW_DASHED1
 62
   120
370
     5
100
AcDbLine
 10
-684.9744702567707
 20
-238.8525139198524
 30
0.0
 11
-465.4744702567692
 21
-19.35251391985081
 31
0.0
  0
LINE
  5
E5
330
1F
100
AcDbEntity
  8
0-0
  6
JWW_DASHED1
 62
   120
370
     5
100
AcDbLine
 10
-684.9744702567814
 20
-228.9530189847013
 30
0.0
 11
-465.4744702567773
 21
-9.453018984697133
 31
0.0
  0
LINE
  5
E6
330
1F
100
AcDbEntity
  8
0-0
  6
JWW_DASHED1
 62
   120
370
     5
100
AcDbLine
 10
-684.9744702567899
 20
-219.053524049493
 30
0.0
 11
-465.4744702567854
 21
0.4464759505111204
 31
0.0
  0
LINE
  5
E7
330
1F
100
AcDbEntity
  8
0-0
  6
JWW_DASHED1
 62
   120
370
     5
100
AcDbLine
 10
-684.9744702567687
 20
-209.1540291142557
 30
0.0
 11
-465.4744702567828
 21
10.34597088573003
 31
0.0
  0
LINE
  5
E8
330
1F
100
AcDbEntity
  8
0-0
  6
JWW_DASHED1
 62
   120
370
     5
100
AcDbLine
 10
-684.9744702567789
 20
-199.2545341791042
 30
0.0
 11
-465.4744702567747
 21
20.24546582090034
 31
0.0
  0
LINE
  5
E9
330
1F
100
AcDbEntity
  8
0-0
  6
JWW_DASHED1
 62
   120
370
     5
100
AcDbLine
 10
-684.9744702567874
 20
-189.3550392438964
 30
0.0
 11
-465.4744702567828
 21
30.14496075610817
 31
0.0
  0
LINE
  5
EA
330
1F
100
AcDbEntity
  8
0-0
  6
JWW_DASHED1
 62
   120
370
     5
100
AcDbLine
 10
-684.9744702567665
 20
-179.4555443086587
 30
0.0
 11
-465.4744702567807
 21
40.04445569132665
 31
0.0
  0
LINE
  5
EB
330
1F
100
AcDbEntity
  8
0-0
  6
JWW_DASHED1
 62
   120
370
     5
100
AcDbLine
 10
-684.9744702567763
 20
-169.5560493735072
 30
0.0
 11
-465.4744702567722
 21
49.94395062649696
 31
0.0
  0
LINE
  5
EC
330
1F
100
AcDbEntity
  8
0-0
  6
JWW_DASHED1
 62
   120
370
     5
100
AcDbLine
 10
-684.9744702567848
 20
-159.6565544382994
 30
0.0
 11
-465.4744702567803
 21
59.84344556170522
 31
0.0
  0
LINE
  5
ED
330
1F
100
AcDbEntity
  8
0-0
  6
JWW_DASHED1
 62
   120
370
     5
100
AcDbLine
 10
-684.9744702567643
 20
-149.7570595030625
 30
0.0
 11
-465.4744702567785
 21
69.74294049692328
 31
0.0
  0
LINE
  5
EE
330
1F
100
AcDbEntity
  8
0-0
  6
JWW_DASHED1
 62
   120
370
     5
100
AcDbLine
 10
-684.9744702567738
 20
-139.8575645679101
 30
0.0
 11
-465.4744702567696
 21
79.64243543209402
 31
0.0
  0
LINE
  5
EF
330
1F
100
AcDbEntity
  8
0-0
  6
JWW_DASHED1
 62
   120
370
     5
100
AcDbLine
 10
-684.9744702567823
 20
-129.9580696327019
 30
0.0
 11
-465.4744702567777
 21
89.54193036730227
 31
0.0
  0
LINE
  5
F0
330
1F
100
AcDbEntity
  8
0-0
  6
JWW_DASHED1
 62
   120
370
     5
100
AcDbLine
 10
-684.9744702567746
 20
-120.0585746974783
 30
0.0
 11
-465.4744702567862
 21
99.44142530251052
 31
0.0
  0
LINE
  5
F1
330
1F
100
AcDbEntity
  8
0-0
  6
JWW_DASHED1
 62
   120
370
     5
100
AcDbLine
 10
-684.9744702567746
 20
-110.1590797623165
 30
0.0
 11
-465.474470256773
 21
109.3409202376851
 31
0.0
  0
LINE
  5
F2
330
1F
100
AcDbEntity
  8
0-0
  6
JWW_DASHED1
 62
   120
370
     5
100
AcDbLine
 10
-684.9744702567797
 20
-100.2595848271048
 30
0.0
 11
-465.4744702567751
 21
119.2404151728993
 31
0.0
  0
LINE
  5
F3
330
1F
100
AcDbEntity
  8
0-0
  6
JWW_DASHED1
 62
   120
370
     5
100
AcDbLine
 10
-684.9744702567878
 20
-90.360089891897
 30
0.0
 11
-465.4744702567832
 21
129.1399101081076
 31
0.0
  0
LINE
  5
F4
330
1F
100
AcDbEntity
  8
0-0
  6
JWW_DASHED1
 62
   120
370
     5
100
AcDbLine
 10
-684.9744702567729
 20
-80.46059495671987
 30
0.0
 11
-465.4744702567713
 21
139.0394050432813
 31
0.0
  0
LINE
  5
F5
330
1F
100
AcDbEntity
  8
0-0
  6
JWW_DASHED1
 62
   120
370
     5
100
AcDbLine
 10
-684.9744702567772
 20
-70.56110002150821
 30
0.0
 11
-465.4744702567726
 21
148.9388999784964
 31
0.0
  0
LINE
  5
F6
330
1F
100
AcDbEntity
  8
0-0
  6
JWW_DASHED1
 62
   120
370
     5
100
AcDbLine
 10
-684.9744702567853
 20
-60.66160508629996
 30
0.0
 11
-465.4744702567807
 21
158.8383949137046
 31
0.0
  0
LINE
  5
F7
330
1F
100
AcDbEntity
  8
0-0
  6
JWW_DASHED1
 62
   120
370
     5
100
AcDbLine
 10
-684.9744702567704
 20
-50.76211015112326
 30
0.0
 11
-465.4744702567849
 21
168.7378898488626
 31
0.0
  0
LINE
  5
F8
330
1F
100
AcDbEntity
  8
0-0
  6
JWW_DASHED1
 62
   120
370
     5
100
AcDbLine
 10
-684.9744702567746
 20
-40.86261521591117
 30
0.0
 11
-465.4744702567705
 21
178.6373847840934
 31
0.0
  0
LINE
  5
F9
330
1F
100
AcDbEntity
  8
0-0
  6
JWW_DASHED1
 62
   120
370
     5
100
AcDbLine
 10
-684.9744702567828
 20
-30.96312028070292
 30
0.0
 11
-465.4744702567785
 21
188.5368797193017
 31
0.0
  0
LINE
  5
FA
330
1F
100
AcDbEntity
  8
0-0
  6
JWW_DASHED1
 62
   120
370
     5
100
AcDbLine
 10
-684.9744702567687
 20
-21.06362534552664
 30
0.0
 11
-465.4744702567828
 21
198.4363746544592
 31
0.0
  0
LINE
  5
FB
330
1F
100
AcDbEntity
  8
0-0
  6
JWW_DASHED1
 62
   120
370
     5
100
AcDbLine
 10
-684.9744702567767
 20
-11.16413041031881
 30
0.0
 11
-465.4744702567751
 21
208.3358695896828
 31
0.0
  0
LINE
  5
FC
330
1F
100
AcDbEntity
  8
0-0
  6
JWW_DASHED1
 62
   120
370
     5
100
AcDbLine
 10
-684.9744702567801
 20
-1.264635475105871
 30
0.0
 11
-465.474470256776
 21
218.2353645248983
 31
0.0
  0
LINE
  5
FD
330
1F
100
AcDbEntity
  8
0-0
  6
JWW_DASHED1
 62
   120
370
     5
100
AcDbLine
 10
-684.974470256766
 20
8.63485946006998
 30
0.0
 11
-465.4744702567807
 21
228.1348594600558
 31
0.0
  0
LINE
  5
FE
330
1F
100
AcDbEntity
  8
0-0
  6
JWW_DASHED1
 62
   120
370
     5
100
AcDbLine
 10
-684.9744702567746
 20
18.53435439527781
 30
0.0
 11
-465.474470256773
 21
238.0343543952794
 31
0.0
  0
LINE
  5
FF
330
1F
100
AcDbEntity
  8
0-0
  6
JWW_DASHED1
 62
   120
370
     5
100
AcDbLine
 10
-684.974470256778
 20
28.43384933049075
 30
0.0
 11
-465.4744702567734
 21
247.9338493304953
 31
0.0
  0
LINE
  5
100
330
1F
100
AcDbEntity
  8
0-0
  6
JWW_DASHED1
 62
   120
370
     5
100
AcDbLine
 10
-684.9744702567746
 20
38.33334426565595
 30
0.0
 11
-465.4744702567862
 21
257.8333442656447
 31
0.0
  0
LINE
  5
101
330
1F
100
AcDbEntity
  8
0-0
  6
JWW_DASHED1
 62
   120
370
     5
100
AcDbLine
 10
-684.9744702567725
 20
48.23283920087443
 30
0.0
 11
-465.4744702567866
 21
267.7328392008602
 31
0.0
  0
LINE
  5
102
330
1F
100
AcDbEntity
  8
0-0
  6
JWW_DASHED1
 62
   120
370
     5
100
AcDbLine
 10
-684.9744702567755
 20
58.1323341360878
 30
0.0
 11
-465.4744702567709
 21
277.6323341360924
 31
0.0
  0
LINE
  5
103
330
1F
100
AcDbEntity
  8
0-0
  6
JWW_DASHED1
 62
   120
370
     5
100
AcDbLine
 10
-684.9744702567878
 20
68.03182907123723
 30
0.0
 11
-465.4744702567832
 21
287.5318290712418
 31
0.0
  0
LINE
  5
104
330
1F
100
AcDbEntity
  8
0-0
  6
JWW_DASHED1
 62
   120
370
     5
100
AcDbLine
 10
-684.9744702567704
 20
77.93132400647106
 30
0.0
 11
-465.4744702567845
 21
297.4313240064569
 31
0.0
  0
LINE
  5
105
330
1F
100
AcDbEntity
  8
0-0
  6
JWW_DASHED1
 62
   120
370
     5
100
AcDbLine
 10
-684.9744702567729
 20
87.83081894168485
 30
0.0
 11
-465.4744702567683
 21
307.3308189416894
 31
0.0
  0
LINE
  5
106
330
1F
100
AcDbEntity
  8
0-0
  6
JWW_DASHED1
 62
   120
370
     5
100
AcDbLine
 10
-684.9744702567853
 20
97.73031387683427
 30
0.0
 11
-465.4744702567807
 21
317.2303138768388
 31
0.0
  0
LINE
  5
107
330
1F
100
AcDbEntity
  8
0-0
  6
JWW_DASHED1
 62
   120
370
     5
100
AcDbLine
 10
-684.9744702567682
 20
107.6298088120677
 30
0.0
 11
-465.4744702567824
 21
327.1298088120535
 31
0.0
  0
LINE
  5
108
330
1F
100
AcDbEntity
  8
0-0
  6
JWW_DASHED1
 62
   120
370
     5
100
AcDbLine
 10
-684.9744702567767
 20
117.5293037472759
 30
0.0
 11
-465.4744702567751
 21
337.0293037472774
 31
0.0
  0
LINE
  5
109
330
1F
100
AcDbEntity
  8
0-0
  6
JWW_DASHED1
 62
   120
370
     5
100
AcDbLine
 10
-684.9744702567828
 20
127.4287986824313
 30
0.0
 11
-465.4744702567781
 21
346.9287986824358
 31
0.0
  0
LINE
  5
10A
330
1F
100
AcDbEntity
  8
0-0
  6
JWW_DASHED1
 62
   120
370
     5
100
AcDbLine
 10
-684.974470256766
 20
137.3282936176643
 30
0.0
 11
-465.4744702567803
 21
356.8282936176501
 31
0.0
  0
LINE
  5
10B
330
1F
100
AcDbEntity
  8
0-0
  6
JWW_DASHED1
 62
   120
370
     5
100
AcDbLine
 10
-684.9744702567763
 20
147.2277885528431
 30
0.0
 11
-465.4744702567747
 21
366.7277885528446
 31
0.0
  0
LINE
  5
10C
330
1F
100
AcDbEntity
  8
0-0
  6
JWW_DASHED1
 62
   120
370
     5
100
AcDbLine
 10
-684.9744702567801
 20
157.1272834880284
 30
0.0
 11
-465.4744702567756
 21
376.6272834880325
 31
0.0
  0
LINE
  5
10D
330
1F
100
AcDbEntity
  8
0-0
  6
JWW_DASHED1
 62
   120
370
     5
100
AcDbLine
 10
-684.9744702567729
 20
167.0267784232524
 30
0.0
 11
-465.4744702567841
 21
386.5267784232407
 31
0.0
  0
LINE
  5
10E
330
1F
100
AcDbEntity
  8
0-0
  6
JWW_DASHED1
 62
   120
370
     5
100
AcDbLine
 10
-684.9744702567746
 20
176.9262733584397
 30
0.0
 11
-465.4744702567726
 21
396.4262733584408
 31
0.0
  0
LINE
  5
10F
330
1F
100
AcDbEntity
  8
0-0
  6
JWW_DASHED1
 62
   120
370
     5
100
AcDbLine
 10
-684.9744702567775
 20
186.8257682936254
 30
0.0
 11
-465.4744702567734
 21
406.3257682936296
 31
0.0
  0
LINE
  5
110
330
1F
100
AcDbEntity
  8
0-0
  6
JWW_DASHED1
 62
   120
370
     5
100
AcDbLine
 10
-684.9744702567862
 20
196.7252632288337
 30
0.0
 11
-465.4744702567815
 21
416.2252632288377
 31
0.0
  0
LINE
  5
111
330
1F
100
AcDbEntity
  8
0-0
  6
JWW_DASHED1
 62
   120
370
     5
100
AcDbLine
 10
-684.9744702567746
 20
206.6247581640069
 30
0.0
 11
-465.474470256773
 21
426.124758164008
 31
0.0
  0
LINE
  5
112
330
1F
100
AcDbEntity
  8
0-0
  6
JWW_DASHED1
 62
   120
370
     5
100
AcDbLine
 10
-684.974470256775
 20
216.5242530992224
 30
0.0
 11
-465.4744702567709
 21
436.0242530992266
 31
0.0
  0
LINE
  5
113
330
1F
100
AcDbEntity
  8
0-0
  6
JWW_DASHED1
 62
   120
370
     5
100
AcDbLine
 10
-684.9744702567831
 20
226.4237480344307
 30
0.0
 11
-465.474470256779
 21
445.9237480344348
 31
0.0
  0
LINE
  5
114
330
1F
100
AcDbEntity
  8
0-0
  6
JWW_DASHED1
 62
   120
370
     5
100
AcDbLine
 10
-684.9744702567725
 20
236.3232429696036
 30
0.0
 11
-465.4744702567866
 21
455.8232429695889
 31
0.0
  0
LINE
  5
115
330
1F
100
AcDbEntity
  8
0-0
  6
JWW_DASHED1
 62
   120
370
     5
100
AcDbLine
 10
-684.9744702567729
 20
246.2227379048195
 30
0.0
 11
-465.4744702567683
 21
465.7227379048236
 31
0.0
  0
LINE
  5
116
330
1F
100
AcDbEntity
  8
0-0
  6
JWW_DASHED1
 62
   120
370
     5
100
AcDbLine
 10
-684.9744702567809
 20
256.1222328400273
 30
0.0
 11
-465.4744702567764
 21
475.6222328400318
 31
0.0
  0
LINE
  5
117
330
1F
100
AcDbEntity
  8
0-0
  6
JWW_DASHED1
 62
   120
370
     5
100
AcDbLine
 10
-684.9744702567699
 20
266.0217277752002
 30
0.0
 11
-465.4744702567841
 21
485.5217277751856
 31
0.0
  0
LINE
  5
118
330
1F
100
AcDbEntity
  8
0-0
  6
JWW_DASHED1
 62
   120
370
     5
100
AcDbLine
 10
-684.9744702567784
 20
275.921222710408
 30
0.0
 11
-465.4744702567768
 21
495.4212227104096
 31
0.0
  0
LINE
  5
119
330
1F
100
AcDbEntity
  8
0-0
  6
JWW_DASHED1
 62
   120
370
     5
100
AcDbLine
 10
-684.9744702567784
 20
285.8207176456244
 30
0.0
 11
-465.4744702567739
 21
505.3207176456289
 31
0.0
  0
LINE
  5
11A
330
1F
100
AcDbEntity
  8
0-0
  6
JWW_DASHED1
 62
   120
370
     5
100
AcDbLine
 10
-684.9744702567677
 20
295.7202125807968
 30
0.0
 11
-465.4744702567824
 21
515.2202125807822
 31
0.0
  0
LINE
  5
11B
330
1F
100
AcDbEntity
  8
0-0
  6
JWW_DASHED1
 62
   120
370
     5
100
AcDbLine
 10
-684.9744702567763
 20
305.6197075160046
 30
0.0
 11
-465.4744702567747
 21
525.1197075160062
 31
0.0
  0
LINE
  5
11C
330
1F
100
AcDbEntity
  8
0-0
  6
JWW_DASHED1
 62
   120
370
     5
100
AcDbLine
 10
-684.9744702567759
 20
315.5192024512214
 30
0.0
 11
-465.4744702567713
 21
535.019202451226
 31
0.0
  0
LINE
  5
11D
330
1F
100
AcDbEntity
  8
0-0
  6
JWW_DASHED1
 62
   120
370
     5
100
AcDbLine
 10
-684.9744702567725
 20
325.4186973863866
 30
0.0
 11
-465.4744702567841
 21
544.918697386375
 31
0.0
  0
LINE
  5
11E
330
1F
100
AcDbEntity
  8
0-0
  6
JWW_DASHED1
 62
   120
370
     5
100
AcDbLine
 10
-684.9744702567741
 20
335.3181923216013
 30
0.0
 11
-465.4744702567883
 21
554.818192321587
 31
0.0
  0
LINE
  5
11F
330
1F
100
AcDbEntity
  8
0-0
  6
JWW_DASHED1
 62
   120
370
     5
100
AcDbLine
 10
-684.9744702567733
 20
345.2176872568185
 30
0.0
 11
-465.4744702567688
 21
564.7176872568226
 31
0.0
  0
LINE
  5
120
330
1F
100
AcDbEntity
  8
0-0
  6
JWW_DASHED1
 62
   120
370
     5
100
AcDbLine
 10
-684.9744702567857
 20
355.1171821919679
 30
0.0
 11
-465.4744702567815
 21
574.617182191972
 31
0.0
  0
LINE
  5
121
330
1F
100
AcDbEntity
  8
0-0
  6
JWW_DASHED1
 62
   120
370
     5
100
AcDbLine
 10
-684.9744702567721
 20
365.0166771271979
 30
0.0
 11
-465.4744702567862
 21
584.5166771271837
 31
0.0
  0
LINE
  5
122
330
1F
100
AcDbEntity
  8
0-0
  6
JWW_DASHED1
 62
   120
370
     5
100
AcDbLine
 10
-684.9744702567707
 20
374.9161720624155
 30
0.0
 11
-465.4744702567662
 21
594.4161720624201
 31
0.0
  0
LINE
  5
123
330
1F
100
AcDbEntity
  8
0-0
  6
JWW_DASHED1
 62
   120
370
     5
100
AcDbLine
 10
-684.9744702567831
 20
384.8156669975648
 30
0.0
 11
-465.474470256779
 21
604.3156669975691
 31
0.0
  0
LINE
  5
124
330
1F
100
AcDbEntity
  8
0-0
  6
JWW_DASHED1
 62
   120
370
     5
100
AcDbLine
 10
-684.9744702567699
 20
394.7151619327945
 30
0.0
 11
-465.4744702567841
 21
614.2151619327803
 31
0.0
  0
LINE
  5
125
330
1F
100
AcDbEntity
  8
0-0
  6
JWW_DASHED1
 62
   120
370
     5
100
AcDbLine
 10
-684.974470256778
 20
404.6146568680027
 30
0.0
 11
-465.4744702567764
 21
624.1146568680043
 31
0.0
  0
LINE
  5
126
330
1F
100
AcDbEntity
  8
0-0
  6
JWW_DASHED1
 62
   120
370
     5
100
AcDbLine
 10
-684.9744702567809
 20
414.514151803162
 30
0.0
 11
-465.4744702567764
 21
634.0141518031661
 31
0.0
  0
LINE
  5
127
330
1F
100
AcDbEntity
  8
0-0
  6
JWW_DASHED1
 62
   120
370
     5
100
AcDbLine
 10
-684.9744702567677
 20
424.413646738391
 30
0.0
 11
-465.474470256782
 21
643.9136467383768
 31
0.0
  0
LINE
  5
128
330
1F
100
AcDbEntity
  8
0-0
  6
JWW_DASHED1
 62
   120
370
     5
100
AcDbLine
 10
-684.9744702567763
 20
434.3131416735989
 30
0.0
 11
-465.4744702567747
 21
653.8131416736005
 31
0.0
  0
LINE
  5
129
330
1F
100
AcDbEntity
  8
0-0
  6
JWW_DASHED1
 62
   120
370
     5
100
AcDbLine
 10
-684.974470256778
 20
444.2126366087589
 30
0.0
 11
-465.4744702567739
 21
663.7126366087632
 31
0.0
  0
LINE
  5
12A
330
1F
100
AcDbEntity
  8
0-0
  6
JWW_DASHED1
 62
   120
370
     5
100
AcDbLine
 10
-684.9744702567865
 20
454.1121315439668
 30
0.0
 11
-465.4744702567824
 21
673.612131543971
 31
0.0
  0
LINE
  5
12B
330
1F
100
AcDbEntity
  8
0-0
  6
JWW_DASHED1
 62
   120
370
     5
100
AcDbLine
 10
-684.9744702567738
 20
464.011626479196
 30
0.0
 11
-465.4744702567879
 21
683.5116264791814
 31
0.0
  0
LINE
  5
12C
330
1F
100
AcDbEntity
  8
0-0
  6
JWW_DASHED1
 62
   120
370
     5
100
AcDbLine
 10
-684.9744702567759
 20
473.911121414356
 30
0.0
 11
-465.4744702567713
 21
693.4111214143602
 31
0.0
  0
LINE
  5
12D
330
1F
100
AcDbEntity
  8
0-0
  6
JWW_DASHED1
 62
   120
370
     5
100
AcDbLine
 10
-684.974470256784
 20
483.8106163495639
 30
0.0
 11
-465.4744702567798
 21
703.310616349568
 31
0.0
  0
LINE
  5
12E
330
1F
100
AcDbEntity
  8
0-0
  6
JWW_DASHED1
 62
   120
370
     5
100
AcDbLine
 10
-684.9744702567716
 20
493.7101112847926
 30
0.0
 11
-465.4744702567858
 21
713.210111284778
 31
0.0
  0
LINE
  5
12F
330
1F
100
AcDbEntity
  8
0-0
  6
JWW_DASHED1
 62
   120
370
     5
100
AcDbLine
 10
-684.9744702567733
 20
503.6096062199527
 30
0.0
 11
-465.4744702567688
 21
723.1096062199573
 31
0.0
  0
LINE
  5
130
330
1F
100
AcDbEntity
  8
0-0
  6
JWW_DASHED1
 62
   120
370
     5
100
AcDbLine
 10
-684.9744702567814
 20
513.5091011551609
 30
0.0
 11
-465.4744702567773
 21
733.0091011551651
 31
0.0
  0
LINE
  5
131
330
1F
100
AcDbEntity
  8
0-0
  6
JWW_DASHED1
 62
   120
370
     5
100
AcDbLine
 10
-684.9744702567695
 20
523.4085960903892
 30
0.0
 11
-465.4744702567837
 21
742.908596090375
 31
0.0
  0
LINE
  5
132
330
1F
100
AcDbEntity
  8
0-0
  6
JWW_DASHED1
 62
   120
370
     5
100
AcDbLine
 10
-684.9744702567707
 20
533.3080910255497
 30
0.0
 11
-465.4744702567662
 21
752.8080910255543
 31
0.0
  0
LINE
  5
133
330
1F
100
AcDbEntity
  8
0-0
  6
JWW_DASHED1
 62
   120
370
     5
100
AcDbLine
 10
-684.9744702567789
 20
543.207585960758
 30
0.0
 11
-465.4744702567747
 21
762.7075859607621
 31
0.0
  0
LINE
  5
134
330
1F
100
AcDbEntity
  8
0-0
  6
JWW_DASHED1
 62
   120
370
     5
100
AcDbLine
 10
-684.9744702567712
 20
553.107080895982
 30
0.0
 11
-465.4744702567828
 21
772.6070808959704
 31
0.0
  0
LINE
  5
135
330
1F
100
AcDbEntity
  8
0-0
  6
JWW_DASHED1
 62
   120
370
     5
100
AcDbLine
 10
-684.9744702567801
 20
563.0065758311347
 30
0.0
 11
-465.4744702567785
 21
782.5065758311363
 31
0.0
  0
LINE
  5
136
330
1F
100
AcDbEntity
  8
0-0
  6
JWW_DASHED1
 62
   120
370
     5
100
AcDbLine
 10
-684.9744702567763
 20
572.906070766355
 30
0.0
 11
-465.4744702567722
 21
792.4060707663592
 31
0.0
  0
LINE
  5
137
330
1F
100
AcDbEntity
  8
0-0
  6
JWW_DASHED1
 62
   120
370
     5
100
AcDbLine
 10
-684.9744702567843
 20
582.8055657015628
 30
0.0
 11
-465.4744702567803
 21
802.3055657015674
 31
0.0
  0
LINE
  5
138
330
1F
100
AcDbEntity
  8
0-0
  6
JWW_DASHED1
 62
   120
370
     5
100
AcDbLine
 10
-684.974470256778
 20
592.7050606367314
 30
0.0
 11
-465.4744702567764
 21
812.205060636733
 31
0.0
  0
LINE
  5
139
330
1F
100
AcDbEntity
  8
0-0
  6
JWW_DASHED1
 62
   120
370
     5
100
AcDbLine
 10
-684.9744702567738
 20
602.6045555719521
 30
0.0
 11
-465.4744702567696
 21
822.1045555719562
 31
0.0
  0
LINE
  5
13A
330
1F
100
AcDbEntity
  8
0-0
  6
JWW_DASHED1
 62
   120
370
     5
100
AcDbLine
 10
-684.9744702567823
 20
612.50405050716
 30
0.0
 11
-465.4744702567777
 21
832.0040505071645
 31
0.0
  0
LINE
  5
13B
330
1F
100
AcDbEntity
  8
0-0
  6
JWW_DASHED1
 62
   120
370
     5
100
AcDbLine
 10
-684.9744702567759
 20
622.4035454423281
 30
0.0
 11
-465.47447025679
 21
841.9035454423139
 31
0.0
  0
LINE
  5
13C
330
1F
100
AcDbEntity
  8
0-0
  6
JWW_DASHED1
 62
   120
370
     5
100
AcDbLine
 10
-684.9744702567712
 20
632.3030403775487
 30
0.0
 11
-465.4744702567671
 21
851.8030403775533
 31
0.0
  0
LINE
  5
13D
330
1F
100
AcDbEntity
  8
0-0
  6
JWW_DASHED1
 62
   120
370
     5
100
AcDbLine
 10
-684.9744702567797
 20
642.2025353127569
 30
0.0
 11
-465.4744702567751
 21
861.7025353127614
 31
0.0
  0
LINE
  5
13E
330
1F
100
AcDbEntity
  8
0-0
  6
JWW_DASHED1
 62
   120
370
     5
100
AcDbLine
 10
-684.9744702567738
 20
652.1020302479247
 30
0.0
 11
-473.1482853889253
 21
863.928215115773
 31
0.0
  0
LINE
  5
13F
330
1F
100
AcDbEntity
  8
0-0
  6
JWW_DASHED1
 62
   120
370
     5
100
AcDbLine
 10
-684.9744702567687
 20
662.0015251831462
 30
0.0
 11
-483.0477803241643
 21
863.9282151157506
 31
0.0
  0
LINE
  5
140
330
1F
100
AcDbEntity
  8
0-0
  6
JWW_DASHED1
 62
   120
370
     5
100
AcDbLine
 10
-684.9744702567772
 20
671.901020118354
 30
0.0
 11
-492.9472752593721
 21
863.9282151157591
 31
0.0
  0
LINE
  5
141
330
1F
100
AcDbEntity
  8
0-0
  6
JWW_DASHED1
 62
   120
370
     5
100
AcDbLine
 10
-684.9744702567716
 20
681.8005150535213
 30
0.0
 11
-502.8467701945236
 21
863.9282151157694
 31
0.0
  0
LINE
  5
142
330
1F
100
AcDbEntity
  8
0-0
  6
JWW_DASHED1
 62
   120
370
     5
100
AcDbLine
 10
-684.9744702567797
 20
691.700009988729
 30
0.0
 11
-512.7462651297446
 21
863.9282151157646
 31
0.0
  0
LINE
  5
143
330
1F
100
AcDbEntity
  8
0-0
  6
JWW_DASHED1
 62
   120
370
     5
100
AcDbLine
 10
-684.9744702567746
 20
701.599504923951
 30
0.0
 11
-522.6457600649683
 21
863.9282151157574
 31
0.0
  0
LINE
  5
144
330
1F
100
AcDbEntity
  8
0-0
  6
JWW_DASHED1
 62
   120
370
     5
100
AcDbLine
 10
-684.9744702567712
 20
711.4989998591158
 30
0.0
 11
-532.5452550001219
 21
863.9282151157655
 31
0.0
  0
LINE
  5
145
330
1F
100
AcDbEntity
  8
0-0
  6
JWW_DASHED1
 62
   120
370
     5
100
AcDbLine
 10
-684.9744702567775
 20
721.3984947943258
 30
0.0
 11
-542.4447499353302
 21
863.928215115773
 31
0.0
  0
LINE
  5
146
330
1F
100
AcDbEntity
  8
0-0
  6
JWW_DASHED1
 62
   120
370
     5
100
AcDbLine
 10
-684.9744702567721
 20
731.2979897295481
 30
0.0
 11
-552.3442448705645
 21
863.9282151157557
 31
0.0
  0
LINE
  5
147
330
1F
100
AcDbEntity
  8
0-0
  6
JWW_DASHED1
 62
   120
370
     5
100
AcDbLine
 10
-684.9744702567848
 20
741.1974846646971
 30
0.0
 11
-562.2437398057134
 21
863.9282151157685
 31
0.0
  0
LINE
  5
148
330
1F
100
AcDbEntity
  8
0-0
  6
JWW_DASHED1
 62
   120
370
     5
100
AcDbLine
 10
-684.9744702567755
 20
751.0969795999229
 30
0.0
 11
-572.143234740929
 21
863.9282151157694
 31
0.0
  0
LINE
  5
149
330
1F
100
AcDbEntity
  8
0-0
  6
JWW_DASHED1
 62
   120
370
     5
100
AcDbLine
 10
-684.9744702567695
 20
760.9964745351451
 30
0.0
 11
-582.0427296761607
 21
863.928215115754
 31
0.0
  0
LINE
  5
14A
330
1F
100
AcDbEntity
  8
0-0
  6
JWW_DASHED1
 62
   120
370
     5
100
AcDbLine
 10
-684.9744702567818
 20
770.8959694702942
 30
0.0
 11
-591.9422246113096
 21
863.9282151157668
 31
0.0
  0
LINE
  5
14B
330
1F
100
AcDbEntity
  8
0-0
  6
JWW_DASHED1
 62
   120
370
     5
100
AcDbLine
 10
-684.9744702567733
 20
780.7954644055193
 30
0.0
 11
-601.8417195465269
 21
863.928215115766
 31
0.0
  0
LINE
  5
14C
330
1F
100
AcDbEntity
  8
0-0
  6
JWW_DASHED1
 62
   120
370
     5
100
AcDbLine
 10
-684.9744702567712
 20
790.6949593406833
 30
0.0
 11
-611.741214481698
 21
863.9282151157565
 31
0.0
  0
LINE
  5
14D
330
1F
100
AcDbEntity
  8
0-0
  6
JWW_DASHED1
 62
   120
370
     5
100
AcDbLine
 10
-684.9744702567797
 20
800.5944542758912
 30
0.0
 11
-621.6407094169058
 21
863.928215115765
 31
0.0
  0
LINE
  5
14E
330
1F
100
AcDbEntity
  8
0-0
  6
JWW_DASHED1
 62
   120
370
     5
100
AcDbLine
 10
-684.9744702567712
 20
810.493949211116
 30
0.0
 11
-631.5402043521256
 21
863.9282151157616
 31
0.0
  0
LINE
  5
14F
330
1F
100
AcDbEntity
  8
0-0
  6
JWW_DASHED1
 62
   120
370
     5
100
AcDbLine
 10
-684.9744702567687
 20
820.3934441462804
 30
0.0
 11
-641.4396992872942
 21
863.9282151157548
 31
0.0
  0
LINE
  5
150
330
1F
100
AcDbEntity
  8
0-0
  6
JWW_DASHED1
 62
   120
370
     5
100
AcDbLine
 10
-684.9744702567772
 20
830.2929390814883
 30
0.0
 11
-651.339194222502
 21
863.9282151157634
 31
0.0
  0
LINE
  5
151
330
1F
100
AcDbEntity
  8
0-0
  6
JWW_DASHED1
 62
   120
370
     5
100
AcDbLine
 10
-684.9744702567695
 20
840.1924340167122
 30
0.0
 11
-661.2386891577235
 21
863.9282151157582
 31
0.0
  0
LINE
  5
152
330
1F
100
AcDbEntity
  8
0-0
  6
JWW_DASHED1
 62
   120
370
     5
100
AcDbLine
 10
-684.9744702567818
 20
850.0919289518616
 30
0.0
 11
-671.1381840928742
 21
863.9282151157694
 31
0.0
  0
LINE
  5
153
330
1F
100
AcDbEntity
  8
0-0
  6
JWW_DASHED1
 62
   120
370
     5
100
AcDbLine
 10
-684.9744702567746
 20
859.9914238870853
 30
0.0
 11
-681.0376790280982
 21
863.9282151157616
 31
0.0
  0
LINE
  5
154
330
1F
100
AcDbEntity
  8
0-0
  6
JWW_DASHED1
 62
   120
370
     5
100
AcDbLine
 10
-61.3119235540043
 20
-381.0717848842357
 30
0.0
 11
-55.97447025676303
 21
-375.7343315869945
 31
0.0
  0
LINE
  5
155
330
1F
100
AcDbEntity
  8
0-0
  6
JWW_DASHED1
 62
   120
370
     5
100
AcDbLine
 10
-71.21141848922747
 20
-381.0717848842426
 30
0.0
 11
-55.97447025675493
 21
-365.8348366517705
 31
0.0
  0
LINE
  5
156
330
1F
100
AcDbEntity
  8
0-0
  6
JWW_DASHED1
 62
   120
370
     5
100
AcDbLine
 10
-81.11091342443487
 20
-381.071784884234
 30
0.0
 11
-55.97447025676345
 21
-355.9353417165627
 31
0.0
  0
LINE
  5
157
330
1F
100
AcDbEntity
  8
0-0
  6
JWW_DASHED1
 62
   120
370
     5
100
AcDbLine
 10
-91.01040835960262
 20
-381.0717848842396
 30
0.0
 11
-55.9744702567609
 21
-346.0358467813983
 31
0.0
  0
LINE
  5
158
330
1F
100
AcDbEntity
  8
0-0
  6
JWW_DASHED1
 62
   120
370
     5
100
AcDbLine
 10
-100.9099032948232
 20
-381.0717848842443
 30
0.0
 11
-55.97447025675322
 21
-336.1363518461743
 31
0.0
  0
LINE
  5
159
330
1F
100
AcDbEntity
  8
0-0
  6
JWW_DASHED1
 62
   120
370
     5
100
AcDbLine
 10
-110.8093982299722
 20
-381.0717848842315
 30
0.0
 11
-55.97447025676516
 21
-326.2368569110245
 31
0.0
  0
LINE
  5
15A
330
1F
100
AcDbEntity
  8
0-0
  6
JWW_DASHED1
 62
   120
370
     5
100
AcDbLine
 10
-120.7088931652009
 20
-381.0717848842439
 30
0.0
 11
-55.97447025675834
 21
-316.3373619758013
 31
0.0
  0
LINE
  5
15B
330
1F
100
AcDbEntity
  8
0-0
  6
JWW_DASHED1
 62
   120
370
     5
100
AcDbLine
 10
-130.6083881004199
 20
-381.071784884246
 30
0.0
 11
-55.97447025675109
 21
-306.4378670405777
 31
0.0
  0
LINE
  5
15C
330
1F
100
AcDbEntity
  8
0-0
  6
JWW_DASHED1
 62
   120
370
     5
100
AcDbLine
 10
-140.5078830355684
 20
-381.0717848842332
 30
0.0
 11
-55.9744702567626
 21
-296.5383721054274
 31
0.0
  0
LINE
  5
15D
330
1F
100
AcDbEntity
  8
0-0
  6
JWW_DASHED1
 62
   120
370
     5
100
AcDbLine
 10
-150.4073779707763
 20
-381.0717848842247
 30
0.0
 11
-55.97447025677113
 21
-286.6388771702191
 31
0.0
  0
LINE
  5
15E
330
1F
100
AcDbEntity
  8
0-0
  6
JWW_DASHED1
 62
   120
370
     5
100
AcDbLine
 10
-160.3068729060075
 20
-381.0717848842396
 30
0.0
 11
-55.97447025676473
 21
-276.7393822349968
 31
0.0
  0
LINE
  5
15F
330
1F
100
AcDbEntity
  8
0-0
  6
JWW_DASHED1
 62
   120
370
     5
100
AcDbLine
 10
-170.2063678411646
 20
-381.0717848842349
 30
0.0
 11
-55.97447025676004
 21
-266.8398872998304
 31
0.0
  0
LINE
  5
160
330
1F
100
AcDbEntity
  8
0-0
  6
JWW_DASHED1
 62
   120
370
     5
100
AcDbLine
 10
-180.1058627763724
 20
-381.0717848842264
 30
0.0
 11
-55.97447025676857
 21
-256.9403923646225
 31
0.0
  0
LINE
  5
161
330
1F
100
AcDbEntity
  8
0-0
  6
JWW_DASHED1
 62
   120
370
     5
100
AcDbLine
 10
-190.0053577116059
 20
-381.0717848842435
 30
0.0
 11
-55.9744702567626
 21
-247.0408974294002
 31
0.0
  0
LINE
  5
162
330
1F
100
AcDbEntity
  8
0-0
  6
JWW_DASHED1
 62
   120
370
     5
100
AcDbLine
 10
-199.9048526467612
 20
-381.0717848842366
 30
0.0
 11
-55.97447025675748
 21
-237.1414024942332
 31
0.0
  0
LINE
  5
163
330
1F
100
AcDbEntity
  8
0-0
  6
JWW_DASHED1
 62
   120
370
     5
100
AcDbLine
 10
-209.8043475819686
 20
-381.0717848842281
 30
0.0
 11
-55.97447025676601
 21
-227.2419075590254
 31
0.0
  0
LINE
  5
164
330
1F
100
AcDbEntity
  8
0-0
  6
JWW_DASHED1
 62
   120
370
     5
100
AcDbLine
 10
-219.7038425172042
 20
-381.0717848842473
 30
0.0
 11
-55.97447025676047
 21
-217.3424126238036
 31
0.0
  0
LINE
  5
165
330
1F
100
AcDbEntity
  8
0-0
  6
JWW_DASHED1
 62
   120
370
     5
100
AcDbLine
 10
-229.603337452357
 20
-381.0717848842384
 30
0.0
 11
-55.97447025675493
 21
-207.4429176886362
 31
0.0
  0
LINE
  5
166
330
1F
100
AcDbEntity
  8
0-0
  6
JWW_DASHED1
 62
   120
370
     5
100
AcDbLine
 10
-239.5028323875648
 20
-381.0717848842298
 30
0.0
 11
-55.97447025676345
 21
-197.543422753428
 31
0.0
  0
LINE
  5
167
330
1F
100
AcDbEntity
  8
0-0
  6
JWW_DASHED1
 62
   120
370
     5
100
AcDbLine
 10
-249.4023273227867
 20
-381.0717848842353
 30
0.0
 11
-55.97447025677155
 21
-187.6439278182202
 31
0.0
  0
LINE
  5
168
330
1F
100
AcDbEntity
  8
0-0
  6
JWW_DASHED1
 62
   120
370
     5
100
AcDbLine
 10
-259.3018222579532
 20
-381.0717848842401
 30
0.0
 11
-55.97447025675493
 21
-177.7444328830418
 31
0.0
  0
LINE
  5
169
330
1F
100
AcDbEntity
  8
0-0
  6
JWW_DASHED1
 62
   120
370
     5
100
AcDbLine
 10
-269.201317193161
 20
-381.0717848842315
 30
0.0
 11
-55.9744702567609
 21
-167.8449379478309
 31
0.0
  0
LINE
  5
16A
330
1F
100
AcDbEntity
  8
0-0
  6
JWW_DASHED1
 62
   120
370
     5
100
AcDbLine
 10
-275.4744702567735
 20
-377.4454430126273
 30
0.0
 11
-55.974470256769
 21
-157.9454430126231
 31
0.0
  0
LINE
  5
16B
330
1F
100
AcDbEntity
  8
0-0
  6
JWW_DASHED1
 62
   120
370
     5
100
AcDbLine
 10
-275.4744702567548
 20
-367.5459480774467
 30
0.0
 11
-55.97447025675322
 21
-148.0459480774451
 31
0.0
  0
LINE
  5
16C
330
1F
100
AcDbEntity
  8
0-0
  6
JWW_DASHED1
 62
   120
370
     5
100
AcDbLine
 10
-275.4744702567625
 20
-357.6464531422384
 30
0.0
 11
-55.97447025675834
 21
-138.1464531422343
 31
0.0
  0
LINE
  5
16D
330
1F
100
AcDbEntity
  8
0-0
  6
JWW_DASHED1
 62
   120
370
     5
100
AcDbLine
 10
-275.4744702567591
 20
-347.7469582070732
 30
0.0
 11
-55.9744702567707
 21
-128.2469582070849
 31
0.0
  0
LINE
  5
16E
330
1F
100
AcDbEntity
  8
0-0
  6
JWW_DASHED1
 62
   120
370
     5
100
AcDbLine
 10
-275.4744702567527
 20
-337.8474632718501
 30
0.0
 11
-55.97447025676686
 21
-118.3474632718643
 31
0.0
  0
LINE
  5
16F
330
1F
100
AcDbEntity
  8
0-0
  6
JWW_DASHED1
 62
   120
370
     5
100
AcDbLine
 10
-275.4744702567599
 20
-327.9479683366415
 30
0.0
 11
-55.97447025675578
 21
-108.4479683366373
 31
0.0
  0
LINE
  5
170
330
1F
100
AcDbEntity
  8
0-0
  6
JWW_DASHED1
 62
   120
370
     5
100
AcDbLine
 10
-275.4744702567727
 20
-318.0484734014924
 30
0.0
 11
-55.97447025676857
 21
-98.54847340148827
 31
0.0
  0
LINE
  5
171
330
1F
100
AcDbEntity
  8
0-0
  6
JWW_DASHED1
 62
   120
370
     5
100
AcDbLine
 10
-275.4744702567501
 20
-308.1489784662535
 30
0.0
 11
-55.97447025676431
 21
-88.64897846626765
 31
0.0
  0
LINE
  5
172
330
1F
100
AcDbEntity
  8
0-0
  6
JWW_DASHED1
 62
   120
370
     5
100
AcDbLine
 10
-275.4744702567574
 20
-298.2494835310443
 30
0.0
 11
-55.97447025675322
 21
-78.74948353104021
 31
0.0
  0
LINE
  5
173
330
1F
100
AcDbEntity
  8
0-0
  6
JWW_DASHED1
 62
   120
370
     5
100
AcDbLine
 10
-275.4744702567701
 20
-288.3499885958954
 30
0.0
 11
-55.97447025676601
 21
-68.84998859589079
 31
0.0
  0
LINE
  5
174
330
1F
100
AcDbEntity
  8
0-0
  6
JWW_DASHED1
 62
   120
370
     5
100
AcDbLine
 10
-275.474470256748
 20
-278.4504936606569
 30
0.0
 11
-55.9744702567626
 21
-58.95049366067104
 31
0.0
  0
LINE
  5
175
330
1F
100
AcDbEntity
  8
0-0
  6
JWW_DASHED1
 62
   120
370
     5
100
AcDbLine
 10
-275.4744702567565
 20
-268.5509987254491
 30
0.0
 11
-55.97447025675493
 21
-49.05099872544744
 31
0.0
  0
LINE
  5
176
330
1F
100
AcDbEntity
  8
0-0
  6
JWW_DASHED1
 62
   120
370
     5
100
AcDbLine
 10
-275.4744702567676
 20
-258.6515037902983
 30
0.0
 11
-55.97447025676345
 21
-39.15150379029375
 31
0.0
  0
LINE
  5
177
330
1F
100
AcDbEntity
  8
0-0
  6
JWW_DASHED1
 62
   120
370
     5
100
AcDbLine
 10
-275.4744702567599
 20
-248.7520088550743
 30
0.0
 11
-55.97447025677155
 21
-29.25200885508593
 31
0.0
  0
LINE
  5
178
330
1F
100
AcDbEntity
  8
0-0
  6
JWW_DASHED1
 62
   120
370
     5
100
AcDbLine
 10
-275.4744702567544
 20
-238.8525139198524
 30
0.0
 11
-55.9744702567528
 21
-19.35251391985081
 31
0.0
  0
LINE
  5
179
330
1F
100
AcDbEntity
  8
0-0
  6
JWW_DASHED1
 62
   120
370
     5
100
AcDbLine
 10
-275.474470256765
 20
-228.9530189847013
 30
0.0
 11
-55.9744702567609
 21
-9.453018984697133
 31
0.0
  0
LINE
  5
17A
330
1F
100
AcDbEntity
  8
0-0
  6
JWW_DASHED1
 62
   120
370
     5
100
AcDbLine
 10
-275.4744702567735
 20
-219.053524049493
 30
0.0
 11
-55.974470256769
 21
0.4464759505111204
 31
0.0
  0
LINE
  5
17B
330
1F
100
AcDbEntity
  8
0-0
  6
JWW_DASHED1
 62
   120
370
     5
100
AcDbLine
 10
-275.4744702567523
 20
-209.1540291142557
 30
0.0
 11
-55.97447025676644
 21
10.34597088573003
 31
0.0
  0
LINE
  5
17C
330
1F
100
AcDbEntity
  8
0-0
  6
JWW_DASHED1
 62
   120
370
     5
100
AcDbLine
 10
-275.4744702567625
 20
-199.2545341791042
 30
0.0
 11
-55.97447025675834
 21
20.24546582090034
 31
0.0
  0
LINE
  5
17D
330
1F
100
AcDbEntity
  8
0-0
  6
JWW_DASHED1
 62
   120
370
     5
100
AcDbLine
 10
-275.474470256771
 20
-189.3550392438964
 30
0.0
 11
-55.97447025676644
 21
30.14496075610817
 31
0.0
  0
LINE
  5
17E
330
1F
100
AcDbEntity
  8
0-0
  6
JWW_DASHED1
 62
   120
370
     5
100
AcDbLine
 10
-275.4744702567501
 20
-179.4555443086587
 30
0.0
 11
-55.97447025676431
 21
40.04445569132665
 31
0.0
  0
LINE
  5
17F
330
1F
100
AcDbEntity
  8
0-0
  6
JWW_DASHED1
 62
   120
370
     5
100
AcDbLine
 10
-275.4744702567599
 20
-169.5560493735072
 30
0.0
 11
-55.97447025675578
 21
49.94395062649696
 31
0.0
  0
LINE
  5
180
330
1F
100
AcDbEntity
  8
0-0
  6
JWW_DASHED1
 62
   120
370
     5
100
AcDbLine
 10
-275.4744702567684
 20
-159.6565544382994
 30
0.0
 11
-55.97447025676388
 21
59.84344556170522
 31
0.0
  0
LINE
  5
181
330
1F
100
AcDbEntity
  8
0-0
  6
JWW_DASHED1
 62
   120
370
     5
100
AcDbLine
 10
-275.474470256748
 20
-149.7570595030625
 30
0.0
 11
-55.97447025676217
 21
69.74294049692328
 31
0.0
  0
LINE
  5
182
330
1F
100
AcDbEntity
  8
0-0
  6
JWW_DASHED1
 62
   120
370
     5
100
AcDbLine
 10
-275.4744702567574
 20
-139.8575645679101
 30
0.0
 11
-55.97447025675322
 21
79.64243543209402
 31
0.0
  0
LINE
  5
183
330
1F
100
AcDbEntity
  8
0-0
  6
JWW_DASHED1
 62
   120
370
     5
100
AcDbLine
 10
-275.4744702567659
 20
-129.9580696327019
 30
0.0
 11
-55.97447025676132
 21
89.54193036730227
 31
0.0
  0
LINE
  5
184
330
1F
100
AcDbEntity
  8
0-0
  6
JWW_DASHED1
 62
   120
370
     5
100
AcDbLine
 10
-275.4744702567582
 20
-120.0585746974783
 30
0.0
 11
-55.97447025676985
 21
99.44142530251052
 31
0.0
  0
LINE
  5
185
330
1F
100
AcDbEntity
  8
0-0
  6
JWW_DASHED1
 62
   120
370
     5
100
AcDbLine
 10
-275.4744702567582
 20
-110.1590797623165
 30
0.0
 11
-55.97447025675663
 21
109.3409202376851
 31
0.0
  0
LINE
  5
186
330
1F
100
AcDbEntity
  8
0-0
  6
JWW_DASHED1
 62
   120
370
     5
100
AcDbLine
 10
-275.4744702567633
 20
-100.2595848271048
 30
0.0
 11
-55.97447025675876
 21
119.2404151728993
 31
0.0
  0
LINE
  5
187
330
1F
100
AcDbEntity
  8
0-0
  6
JWW_DASHED1
 62
   120
370
     5
100
AcDbLine
 10
-275.4744702567714
 20
-90.360089891897
 30
0.0
 11
-55.97447025676686
 21
129.1399101081076
 31
0.0
  0
LINE
  5
188
330
1F
100
AcDbEntity
  8
0-0
  6
JWW_DASHED1
 62
   120
370
     5
100
AcDbLine
 10
-275.4744702567565
 20
-80.46059495671987
 30
0.0
 11
-55.97447025675493
 21
139.0394050432813
 31
0.0
  0
LINE
  5
189
330
1F
100
AcDbEntity
  8
0-0
  6
JWW_DASHED1
 62
   120
370
     5
100
AcDbLine
 10
-275.4744702567608
 20
-70.56110002150821
 30
0.0
 11
-55.97447025675621
 21
148.9388999784964
 31
0.0
  0
LINE
  5
18A
330
1F
100
AcDbEntity
  8
0-0
  6
JWW_DASHED1
 62
   120
370
     5
100
AcDbLine
 10
-275.4744702567689
 20
-60.66160508629996
 30
0.0
 11
-55.97447025676431
 21
158.8383949137046
 31
0.0
  0
LINE
  5
18B
330
1F
100
AcDbEntity
  8
0-0
  6
JWW_DASHED1
 62
   120
370
     5
100
AcDbLine
 10
-275.474470256754
 20
-50.76211015112326
 30
0.0
 11
-55.97447025676857
 21
168.7378898488626
 31
0.0
  0
LINE
  5
18C
330
1F
100
AcDbEntity
  8
0-0
  6
JWW_DASHED1
 62
   120
370
     5
100
AcDbLine
 10
-275.4744702567582
 20
-40.86261521591117
 30
0.0
 11
-55.97447025675407
 21
178.6373847840934
 31
0.0
  0
LINE
  5
18D
330
1F
100
AcDbEntity
  8
0-0
  6
JWW_DASHED1
 62
   120
370
     5
100
AcDbLine
 10
-275.4744702567663
 20
-30.96312028070292
 30
0.0
 11
-55.97447025676217
 21
188.5368797193017
 31
0.0
  0
LINE
  5
18E
330
1F
100
AcDbEntity
  8
0-0
  6
JWW_DASHED1
 62
   120
370
     5
100
AcDbLine
 10
-275.4744702567523
 20
-21.06362534552664
 30
0.0
 11
-55.97447025676644
 21
198.4363746544592
 31
0.0
  0
LINE
  5
18F
330
1F
100
AcDbEntity
  8
0-0
  6
JWW_DASHED1
 62
   120
370
     5
100
AcDbLine
 10
-275.4744702567604
 20
-11.16413041031881
 30
0.0
 11
-55.97447025675876
 21
208.3358695896828
 31
0.0
  0
LINE
  5
190
330
1F
100
AcDbEntity
  8
0-0
  6
JWW_DASHED1
 62
   120
370
     5
100
AcDbLine
 10
-275.4744702567638
 20
-1.264635475105871
 30
0.0
 11
-55.97447025675962
 21
218.2353645248983
 31
0.0
  0
LINE
  5
191
330
1F
100
AcDbEntity
  8
0-0
  6
JWW_DASHED1
 62
   120
370
     5
100
AcDbLine
 10
-275.4744702567497
 20
8.63485946006998
 30
0.0
 11
-55.97447025676431
 21
228.1348594600558
 31
0.0
  0
LINE
  5
192
330
1F
100
AcDbEntity
  8
0-0
  6
JWW_DASHED1
 62
   120
370
     5
100
AcDbLine
 10
-275.4744702567582
 20
18.53435439527781
 30
0.0
 11
-55.97447025675663
 21
238.0343543952794
 31
0.0
  0
LINE
  5
193
330
1F
100
AcDbEntity
  8
0-0
  6
JWW_DASHED1
 62
   120
370
     5
100
AcDbLine
 10
-275.4744702567616
 20
28.43384933049075
 30
0.0
 11
-55.97447025675706
 21
247.9338493304953
 31
0.0
  0
LINE
  5
194
330
1F
100
AcDbEntity
  8
0-0
  6
JWW_DASHED1
 62
   120
370
     5
100
AcDbLine
 10
-275.4744702567582
 20
38.33334426565595
 30
0.0
 11
-55.97447025676985
 21
257.8333442656447
 31
0.0
  0
LINE
  5
195
330
1F
100
AcDbEntity
  8
0-0
  6
JWW_DASHED1
 62
   120
370
     5
100
AcDbLine
 10
-275.4744702567561
 20
48.23283920087443
 30
0.0
 11
-55.97447025677027
 21
267.7328392008602
 31
0.0
  0
LINE
  5
196
330
1F
100
AcDbEntity
  8
0-0
  6
JWW_DASHED1
 62
   120
370
     5
100
AcDbLine
 10
-275.4744702567591
 20
58.1323341360878
 30
0.0
 11
-55.9744702567545
 21
277.6323341360924
 31
0.0
  0
LINE
  5
197
330
1F
100
AcDbEntity
  8
0-0
  6
JWW_DASHED1
 62
   120
370
     5
100
AcDbLine
 10
-275.4744702567714
 20
68.03182907123723
 30
0.0
 11
-55.97447025676686
 21
287.5318290712418
 31
0.0
  0
LINE
  5
198
330
1F
100
AcDbEntity
  8
0-0
  6
JWW_DASHED1
 62
   120
370
     5
100
AcDbLine
 10
-275.474470256754
 20
77.93132400647106
 30
0.0
 11
-55.97447025676814
 21
297.4313240064569
 31
0.0
  0
LINE
  5
199
330
1F
100
AcDbEntity
  8
0-0
  6
JWW_DASHED1
 62
   120
370
     5
100
AcDbLine
 10
-275.4744702567565
 20
87.83081894168485
 30
0.0
 11
-55.97447025675194
 21
307.3308189416894
 31
0.0
  0
LINE
  5
19A
330
1F
100
AcDbEntity
  8
0-0
  6
JWW_DASHED1
 62
   120
370
     5
100
AcDbLine
 10
-275.4744702567689
 20
97.73031387683427
 30
0.0
 11
-55.97447025676431
 21
317.2303138768388
 31
0.0
  0
LINE
  5
19B
330
1F
100
AcDbEntity
  8
0-0
  6
JWW_DASHED1
 62
   120
370
     5
100
AcDbLine
 10
-275.4744702567518
 20
107.6298088120677
 30
0.0
 11
-55.97447025676601
 21
327.1298088120535
 31
0.0
  0
LINE
  5
19C
330
1F
100
AcDbEntity
  8
0-0
  6
JWW_DASHED1
 62
   120
370
     5
100
AcDbLine
 10
-275.4744702567604
 20
117.5293037472759
 30
0.0
 11
-55.97447025675876
 21
337.0293037472774
 31
0.0
  0
LINE
  5
19D
330
1F
100
AcDbEntity
  8
0-0
  6
JWW_DASHED1
 62
   120
370
     5
100
AcDbLine
 10
-275.4744702567663
 20
127.4287986824313
 30
0.0
 11
-55.97447025676175
 21
346.9287986824358
 31
0.0
  0
LINE
  5
19E
330
1F
100
AcDbEntity
  8
0-0
  6
JWW_DASHED1
 62
   120
370
     5
100
AcDbLine
 10
-275.4744702567497
 20
137.3282936176643
 30
0.0
 11
-55.97447025676388
 21
356.8282936176501
 31
0.0
  0
LINE
  5
19F
330
1F
100
AcDbEntity
  8
0-0
  6
JWW_DASHED1
 62
   120
370
     5
100
AcDbLine
 10
-275.4744702567599
 20
147.2277885528431
 30
0.0
 11
-55.97447025675834
 21
366.7277885528446
 31
0.0
  0
LINE
  5
1A0
330
1F
100
AcDbEntity
  8
0-0
  6
JWW_DASHED1
 62
   120
370
     5
100
AcDbLine
 10
-275.4744702567638
 20
157.1272834880284
 30
0.0
 11
-55.97447025675919
 21
376.6272834880325
 31
0.0
  0
LINE
  5
1A1
330
1F
100
AcDbEntity
  8
0-0
  6
JWW_DASHED1
 62
   120
370
     5
100
AcDbLine
 10
-275.4744702567565
 20
167.0267784232524
 30
0.0
 11
-55.97447025676772
 21
386.5267784232407
 31
0.0
  0
LINE
  5
1A2
330
1F
100
AcDbEntity
  8
0-0
  6
JWW_DASHED1
 62
   120
370
     5
100
AcDbLine
 10
-275.4744702567582
 20
176.9262733584397
 30
0.0
 11
-55.97447025675621
 21
396.4262733584408
 31
0.0
  0
LINE
  5
1A3
330
1F
100
AcDbEntity
  8
0-0
  6
JWW_DASHED1
 62
   120
370
     5
100
AcDbLine
 10
-275.4744702567612
 20
186.8257682936254
 30
0.0
 11
-55.97447025675706
 21
406.3257682936296
 31
0.0
  0
LINE
  5
1A4
330
1F
100
AcDbEntity
  8
0-0
  6
JWW_DASHED1
 62
   120
370
     5
100
AcDbLine
 10
-275.4744702567697
 20
196.7252632288337
 30
0.0
 11
-55.97447025676516
 21
416.2252632288377
 31
0.0
  0
LINE
  5
1A5
330
1F
100
AcDbEntity
  8
0-0
  6
JWW_DASHED1
 62
   120
370
     5
100
AcDbLine
 10
-275.4744702567582
 20
206.6247581640069
 30
0.0
 11
-55.97447025675663
 21
426.124758164008
 31
0.0
  0
LINE
  5
1A6
330
1F
100
AcDbEntity
  8
0-0
  6
JWW_DASHED1
 62
   120
370
     5
100
AcDbLine
 10
-275.4744702567587
 20
216.5242530992224
 30
0.0
 11
-55.9744702567545
 21
436.0242530992266
 31
0.0
  0
LINE
  5
1A7
330
1F
100
AcDbEntity
  8
0-0
  6
JWW_DASHED1
 62
   120
370
     5
100
AcDbLine
 10
-275.4744702567667
 20
226.4237480344307
 30
0.0
 11
-55.9744702567626
 21
445.9237480344348
 31
0.0
  0
LINE
  5
1A8
330
1F
100
AcDbEntity
  8
0-0
  6
JWW_DASHED1
 62
   120
370
     5
100
AcDbLine
 10
-275.4744702567561
 20
236.3232429696036
 30
0.0
 11
-55.97447025677027
 21
455.8232429695889
 31
0.0
  0
LINE
  5
1A9
330
1F
100
AcDbEntity
  8
0-0
  6
JWW_DASHED1
 62
   120
370
     5
100
AcDbLine
 10
-275.4744702567565
 20
246.2227379048195
 30
0.0
 11
-55.97447025675194
 21
465.7227379048236
 31
0.0
  0
LINE
  5
1AA
330
1F
100
AcDbEntity
  8
0-0
  6
JWW_DASHED1
 62
   120
370
     5
100
AcDbLine
 10
-275.4744702567646
 20
256.1222328400273
 30
0.0
 11
-55.97447025676004
 21
475.6222328400318
 31
0.0
  0
LINE
  5
1AB
330
1F
100
AcDbEntity
  8
0-0
  6
JWW_DASHED1
 62
   120
370
     5
100
AcDbLine
 10
-275.4744702567535
 20
266.0217277752002
 30
0.0
 11
-55.97447025676772
 21
485.5217277751856
 31
0.0
  0
LINE
  5
1AC
330
1F
100
AcDbEntity
  8
0-0
  6
JWW_DASHED1
 62
   120
370
     5
100
AcDbLine
 10
-275.4744702567621
 20
275.921222710408
 30
0.0
 11
-55.97447025676047
 21
495.4212227104096
 31
0.0
  0
LINE
  5
1AD
330
1F
100
AcDbEntity
  8
0-0
  6
JWW_DASHED1
 62
   120
370
     5
100
AcDbLine
 10
-275.4744702567621
 20
285.8207176456244
 30
0.0
 11
-55.97447025675748
 21
505.3207176456289
 31
0.0
  0
LINE
  5
1AE
330
1F
100
AcDbEntity
  8
0-0
  6
JWW_DASHED1
 62
   120
370
     5
100
AcDbLine
 10
-275.4744702567514
 20
295.7202125807968
 30
0.0
 11
-55.97447025676601
 21
515.2202125807822
 31
0.0
  0
LINE
  5
1AF
330
1F
100
AcDbEntity
  8
0-0
  6
JWW_DASHED1
 62
   120
370
     5
100
AcDbLine
 10
-275.4744702567599
 20
305.6197075160046
 30
0.0
 11
-55.97447025675834
 21
525.1197075160062
 31
0.0
  0
LINE
  5
1B0
330
1F
100
AcDbEntity
  8
0-0
  6
JWW_DASHED1
 62
   120
370
     5
100
AcDbLine
 10
-275.4744702567595
 20
315.5192024512214
 30
0.0
 11
-55.97447025675493
 21
535.019202451226
 31
0.0
  0
LINE
  5
1B1
330
1F
100
AcDbEntity
  8
0-0
  6
JWW_DASHED1
 62
   120
370
     5
100
AcDbLine
 10
-275.4744702567561
 20
325.4186973863866
 30
0.0
 11
-55.97447025676772
 21
544.918697386375
 31
0.0
  0
LINE
  5
1B2
330
1F
100
AcDbEntity
  8
0-0
  6
JWW_DASHED1
 62
   120
370
     5
100
AcDbLine
 10
-275.4744702567578
 20
335.3181923216013
 30
0.0
 11
-55.97447025677198
 21
554.818192321587
 31
0.0
  0
LINE
  5
1B3
330
1F
100
AcDbEntity
  8
0-0
  6
JWW_DASHED1
 62
   120
370
     5
100
AcDbLine
 10
-275.4744702567569
 20
345.2176872568185
 30
0.0
 11
-55.97447025675237
 21
564.7176872568226
 31
0.0
  0
LINE
  5
1B4
330
1F
100
AcDbEntity
  8
0-0
  6
JWW_DASHED1
 62
   120
370
     5
100
AcDbLine
 10
-275.4744702567693
 20
355.1171821919679
 30
0.0
 11
-55.97447025676516
 21
574.617182191972
 31
0.0
  0
LINE
  5
1B5
330
1F
100
AcDbEntity
  8
0-0
  6
JWW_DASHED1
 62
   120
370
     5
100
AcDbLine
 10
-275.4744702567557
 20
365.0166771271979
 30
0.0
 11
-55.97447025676985
 21
584.5166771271837
 31
0.0
  0
LINE
  5
1B6
330
1F
100
AcDbEntity
  8
0-0
  6
JWW_DASHED1
 62
   120
370
     5
100
AcDbLine
 10
-275.4744702567544
 20
374.9161720624155
 30
0.0
 11
-55.97447025674981
 21
594.4161720624201
 31
0.0
  0
LINE
  5
1B7
330
1F
100
AcDbEntity
  8
0-0
  6
JWW_DASHED1
 62
   120
370
     5
100
AcDbLine
 10
-275.4744702567667
 20
384.8156669975648
 30
0.0
 11
-55.9744702567626
 21
604.3156669975691
 31
0.0
  0
LINE
  5
1B8
330
1F
100
AcDbEntity
  8
0-0
  6
JWW_DASHED1
 62
   120
370
     5
100
AcDbLine
 10
-275.4744702567535
 20
394.7151619327945
 30
0.0
 11
-55.97447025676772
 21
614.2151619327803
 31
0.0
  0
LINE
  5
1B9
330
1F
100
AcDbEntity
  8
0-0
  6
JWW_DASHED1
 62
   120
370
     5
100
AcDbLine
 10
-275.4744702567616
 20
404.6146568680027
 30
0.0
 11
-55.97447025676004
 21
624.1146568680043
 31
0.0
  0
LINE
  5
1BA
330
1F
100
AcDbEntity
  8
0-0
  6
JWW_DASHED1
 62
   120
370
     5
100
AcDbLine
 10
-275.4744702567646
 20
414.514151803162
 30
0.0
 11
-55.97447025676004
 21
634.0141518031661
 31
0.0
  0
LINE
  5
1BB
330
1F
100
AcDbEntity
  8
0-0
  6
JWW_DASHED1
 62
   120
370
     5
100
AcDbLine
 10
-275.4744702567514
 20
424.413646738391
 30
0.0
 11
-55.97447025676558
 21
643.9136467383768
 31
0.0
  0
LINE
  5
1BC
330
1F
100
AcDbEntity
  8
0-0
  6
JWW_DASHED1
 62
   120
370
     5
100
AcDbLine
 10
-275.4744702567599
 20
434.3131416735989
 30
0.0
 11
-55.97447025675834
 21
653.8131416736005
 31
0.0
  0
LINE
  5
1BD
330
1F
100
AcDbEntity
  8
0-0
  6
JWW_DASHED1
 62
   120
370
     5
100
AcDbLine
 10
-275.4744702567616
 20
444.2126366087589
 30
0.0
 11
-55.97447025675748
 21
663.7126366087632
 31
0.0
  0
LINE
  5
1BE
330
1F
100
AcDbEntity
  8
0-0
  6
JWW_DASHED1
 62
   120
370
     5
100
AcDbLine
 10
-275.4744702567701
 20
454.1121315439668
 30
0.0
 11
-55.97447025676601
 21
673.612131543971
 31
0.0
  0
LINE
  5
1BF
330
1F
100
AcDbEntity
  8
0-0
  6
JWW_DASHED1
 62
   120
370
     5
100
AcDbLine
 10
-275.4744702567574
 20
464.011626479196
 30
0.0
 11
-55.97447025677155
 21
683.5116264791814
 31
0.0
  0
LINE
  5
1C0
330
1F
100
AcDbEntity
  8
0-0
  6
JWW_DASHED1
 62
   120
370
     5
100
AcDbLine
 10
-275.4744702567595
 20
473.911121414356
 30
0.0
 11
-55.97447025675493
 21
693.4111214143602
 31
0.0
  0
LINE
  5
1C1
330
1F
100
AcDbEntity
  8
0-0
  6
JWW_DASHED1
 62
   120
370
     5
100
AcDbLine
 10
-275.4744702567676
 20
483.8106163495639
 30
0.0
 11
-55.97447025676345
 21
703.310616349568
 31
0.0
  0
LINE
  5
1C2
330
1F
100
AcDbEntity
  8
0-0
  6
JWW_DASHED1
 62
   120
370
     5
100
AcDbLine
 10
-275.4744702567552
 20
493.7101112847926
 30
0.0
 11
-55.97447025676942
 21
713.210111284778
 31
0.0
  0
LINE
  5
1C3
330
1F
100
AcDbEntity
  8
0-0
  6
JWW_DASHED1
 62
   120
370
     5
100
AcDbLine
 10
-275.4744702567569
 20
503.6096062199527
 30
0.0
 11
-55.97447025675237
 21
723.1096062199573
 31
0.0
  0
LINE
  5
1C4
330
1F
100
AcDbEntity
  8
0-0
  6
JWW_DASHED1
 62
   120
370
     5
100
AcDbLine
 10
-275.474470256765
 20
513.5091011551609
 30
0.0
 11
-55.9744702567609
 21
733.0091011551651
 31
0.0
  0
LINE
  5
1C5
330
1F
100
AcDbEntity
  8
0-0
  6
JWW_DASHED1
 62
   120
370
     5
100
AcDbLine
 10
-275.4744702567531
 20
523.4085960903892
 30
0.0
 11
-55.97447025676729
 21
742.908596090375
 31
0.0
  0
LINE
  5
1C6
330
1F
100
AcDbEntity
  8
0-0
  6
JWW_DASHED1
 62
   120
370
     5
100
AcDbLine
 10
-275.4744702567544
 20
533.3080910255497
 30
0.0
 11
-55.97447025674981
 21
752.8080910255543
 31
0.0
  0
LINE
  5
1C7
330
1F
100
AcDbEntity
  8
0-0
  6
JWW_DASHED1
 62
   120
370
     5
100
AcDbLine
 10
-275.4744702567625
 20
543.207585960758
 30
0.0
 11
-55.97447025675834
 21
762.7075859607621
 31
0.0
  0
LINE
  5
1C8
330
1F
100
AcDbEntity
  8
0-0
  6
JWW_DASHED1
 62
   120
370
     5
100
AcDbLine
 10
-275.4744702567548
 20
553.107080895982
 30
0.0
 11
-55.97447025676644
 21
772.6070808959704
 31
0.0
  0
LINE
  5
1C9
330
1F
100
AcDbEntity
  8
0-0
  6
JWW_DASHED1
 62
   120
370
     5
100
AcDbLine
 10
-275.4744702567638
 20
563.0065758311347
 30
0.0
 11
-55.97447025676217
 21
782.5065758311363
 31
0.0
  0
LINE
  5
1CA
330
1F
100
AcDbEntity
  8
0-0
  6
JWW_DASHED1
 62
   120
370
     5
100
AcDbLine
 10
-275.4744702567599
 20
572.906070766355
 30
0.0
 11
-55.97447025675578
 21
792.4060707663592
 31
0.0
  0
LINE
  5
1CB
330
1F
100
AcDbEntity
  8
0-0
  6
JWW_DASHED1
 62
   120
370
     5
100
AcDbLine
 10
-275.474470256768
 20
582.8055657015628
 30
0.0
 11
-55.97447025676388
 21
802.3055657015674
 31
0.0
  0
LINE
  5
1CC
330
1F
100
AcDbEntity
  8
0-0
  6
JWW_DASHED1
 62
   120
370
     5
100
AcDbLine
 10
-275.4744702567616
 20
592.7050606367314
 30
0.0
 11
-55.97447025676004
 21
812.205060636733
 31
0.0
  0
LINE
  5
1CD
330
1F
100
AcDbEntity
  8
0-0
  6
JWW_DASHED1
 62
   120
370
     5
100
AcDbLine
 10
-275.4744702567574
 20
602.6045555719521
 30
0.0
 11
-55.97447025675322
 21
822.1045555719562
 31
0.0
  0
LINE
  5
1CE
330
1F
100
AcDbEntity
  8
0-0
  6
JWW_DASHED1
 62
   120
370
     5
100
AcDbLine
 10
-275.4744702567659
 20
612.50405050716
 30
0.0
 11
-55.97447025676132
 21
832.0040505071645
 31
0.0
  0
LINE
  5
1CF
330
1F
100
AcDbEntity
  8
0-0
  6
JWW_DASHED1
 62
   120
370
     5
100
AcDbLine
 10
-275.4744702567595
 20
622.4035454423281
 30
0.0
 11
-55.97447025677369
 21
841.9035454423139
 31
0.0
  0
LINE
  5
1D0
330
1F
100
AcDbEntity
  8
0-0
  6
JWW_DASHED1
 62
   120
370
     5
100
AcDbLine
 10
-275.4744702567548
 20
632.3030403775487
 30
0.0
 11
-55.97447025675066
 21
851.8030403775533
 31
0.0
  0
LINE
  5
1D1
330
1F
100
AcDbEntity
  8
0-0
  6
JWW_DASHED1
 62
   120
370
     5
100
AcDbLine
 10
-275.4744702567633
 20
642.2025353127569
 30
0.0
 11
-55.97447025675876
 21
861.7025353127614
 31
0.0
  0
LINE
  5
1D2
330
1F
100
AcDbEntity
  8
0-0
  6
JWW_DASHED1
 62
   120
370
     5
100
AcDbLine
 10
-275.4744702567574
 20
652.1020302479247
 30
0.0
 11
-63.6482853889089
 21
863.928215115773
 31
0.0
  0
LINE
  5
1D3
330
1F
100
AcDbEntity
  8
0-0
  6
JWW_DASHED1
 62
   120
370
     5
100
AcDbLine
 10
-275.4744702567523
 20
662.0015251831462
 30
0.0
 11
-73.54778032414785
 21
863.9282151157506
 31
0.0
  0
LINE
  5
1D4
330
1F
100
AcDbEntity
  8
0-0
  6
JWW_DASHED1
 62
   120
370
     5
100
AcDbLine
 10
-275.4744702567608
 20
671.901020118354
 30
0.0
 11
-83.44727525935568
 21
863.9282151157591
 31
0.0
  0
LINE
  5
1D5
330
1F
100
AcDbEntity
  8
0-0
  6
JWW_DASHED1
 62
   120
370
     5
100
AcDbLine
 10
-275.4744702567552
 20
681.8005150535213
 30
0.0
 11
-93.34677019450723
 21
863.9282151157694
 31
0.0
  0
LINE
  5
1D6
330
1F
100
AcDbEntity
  8
0-0
  6
JWW_DASHED1
 62
   120
370
     5
100
AcDbLine
 10
-275.4744702567633
 20
691.700009988729
 30
0.0
 11
-103.2462651297283
 21
863.9282151157646
 31
0.0
  0
LINE
  5
1D7
330
1F
100
AcDbEntity
  8
0-0
  6
JWW_DASHED1
 62
   120
370
     5
100
AcDbLine
 10
-275.4744702567582
 20
701.599504923951
 30
0.0
 11
-113.1457600649519
 21
863.9282151157574
 31
0.0
  0
LINE
  5
1D8
330
1F
100
AcDbEntity
  8
0-0
  6
JWW_DASHED1
 62
   120
370
     5
100
AcDbLine
 10
-275.4744702567548
 20
711.4989998591158
 30
0.0
 11
-123.0452550001056
 21
863.9282151157655
 31
0.0
  0
LINE
  5
1D9
330
1F
100
AcDbEntity
  8
0-0
  6
JWW_DASHED1
 62
   120
370
     5
100
AcDbLine
 10
-275.4744702567612
 20
721.3984947943258
 30
0.0
 11
-132.9447499353138
 21
863.928215115773
 31
0.0
  0
LINE
  5
1DA
330
1F
100
AcDbEntity
  8
0-0
  6
JWW_DASHED1
 62
   120
370
     5
100
AcDbLine
 10
-275.4744702567557
 20
731.2979897295481
 30
0.0
 11
-142.8442448705481
 21
863.9282151157557
 31
0.0
  0
LINE
  5
1DB
330
1F
100
AcDbEntity
  8
0-0
  6
JWW_DASHED1
 62
   120
370
     5
100
AcDbLine
 10
-275.4744702567684
 20
741.1974846646971
 30
0.0
 11
-152.7437398056971
 21
863.9282151157685
 31
0.0
  0
LINE
  5
1DC
330
1F
100
AcDbEntity
  8
0-0
  6
JWW_DASHED1
 62
   120
370
     5
100
AcDbLine
 10
-275.4744702567591
 20
751.0969795999229
 30
0.0
 11
-162.6432347409126
 21
863.9282151157694
 31
0.0
  0
LINE
  5
1DD
330
1F
100
AcDbEntity
  8
0-0
  6
JWW_DASHED1
 62
   120
370
     5
100
AcDbLine
 10
-275.4744702567531
 20
760.9964745351451
 30
0.0
 11
-172.5427296761443
 21
863.928215115754
 31
0.0
  0
LINE
  5
1DE
330
1F
100
AcDbEntity
  8
0-0
  6
JWW_DASHED1
 62
   120
370
     5
100
AcDbLine
 10
-275.4744702567655
 20
770.8959694702942
 30
0.0
 11
-182.4422246112933
 21
863.9282151157668
 31
0.0
  0
LINE
  5
1DF
330
1F
100
AcDbEntity
  8
0-0
  6
JWW_DASHED1
 62
   120
370
     5
100
AcDbLine
 10
-275.4744702567569
 20
780.7954644055193
 30
0.0
 11
-192.3417195465105
 21
863.928215115766
 31
0.0
  0
LINE
  5
1E0
330
1F
100
AcDbEntity
  8
0-0
  6
JWW_DASHED1
 62
   120
370
     5
100
AcDbLine
 10
-275.4744702567548
 20
790.6949593406833
 30
0.0
 11
-202.2412144816816
 21
863.9282151157565
 31
0.0
  0
LINE
  5
1E1
330
1F
100
AcDbEntity
  8
0-0
  6
JWW_DASHED1
 62
   120
370
     5
100
AcDbLine
 10
-275.4744702567633
 20
800.5944542758912
 30
0.0
 11
-212.1407094168895
 21
863.928215115765
 31
0.0
  0
LINE
  5
1E2
330
1F
100
AcDbEntity
  8
0-0
  6
JWW_DASHED1
 62
   120
370
     5
100
AcDbLine
 10
-275.4744702567548
 20
810.493949211116
 30
0.0
 11
-222.0402043521092
 21
863.9282151157616
 31
0.0
  0
LINE
  5
1E3
330
1F
100
AcDbEntity
  8
0-0
  6
JWW_DASHED1
 62
   120
370
     5
100
AcDbLine
 10
-275.4744702567523
 20
820.3934441462804
 30
0.0
 11
-231.9396992872778
 21
863.9282151157548
 31
0.0
  0
LINE
  5
1E4
330
1F
100
AcDbEntity
  8
0-0
  6
JWW_DASHED1
 62
   120
370
     5
100
AcDbLine
 10
-275.4744702567608
 20
830.2929390814883
 30
0.0
 11
-241.8391942224856
 21
863.9282151157634
 31
0.0
  0
LINE
  5
1E5
330
1F
100
AcDbEntity
  8
0-0
  6
JWW_DASHED1
 62
   120
370
     5
100
AcDbLine
 10
-275.4744702567531
 20
840.1924340167122
 30
0.0
 11
-251.7386891577071
 21
863.9282151157582
 31
0.0
  0
LINE
  5
1E6
330
1F
100
AcDbEntity
  8
0-0
  6
JWW_DASHED1
 62
   120
370
     5
100
AcDbLine
 10
-275.4744702567655
 20
850.0919289518616
 30
0.0
 11
-261.6381840928578
 21
863.9282151157694
 31
0.0
  0
LINE
  5
1E7
330
1F
100
AcDbEntity
  8
0-0
  6
JWW_DASHED1
 62
   120
370
     5
100
AcDbLine
 10
-275.4744702567582
 20
859.9914238870853
 30
0.0
 11
-271.5376790280818
 21
863.9282151157616
 31
0.0
  0
LINE
  5
1E8
330
1F
100
AcDbEntity
  8
0-0
  6
JWW_DASHED1
 62
   120
370
     5
100
AcDbLine
 10
320.188076445983
 20
-381.0717848842357
 30
0.0
 11
325.5255297432242
 21
-375.7343315869945
 31
0.0
  0
LINE
  5
1E9
330
1F
100
AcDbEntity
  8
0-0
  6
JWW_DASHED1
 62
   120
370
     5
100
AcDbLine
 10
310.2885815107598
 20
-381.0717848842426
 30
0.0
 11
325.5255297432324
 21
-365.8348366517705
 31
0.0
  0
LINE
  5
1EA
330
1F
100
AcDbEntity
  8
0-0
  6
JWW_DASHED1
 62
   120
370
     5
100
AcDbLine
 10
300.3890865755524
 20
-381.071784884234
 30
0.0
 11
325.5255297432238
 21
-355.9353417165627
 31
0.0
  0
LINE
  5
1EB
330
1F
100
AcDbEntity
  8
0-0
  6
JWW_DASHED1
 62
   120
370
     5
100
AcDbLine
 10
290.4895916403847
 20
-381.0717848842396
 30
0.0
 11
325.5255297432263
 21
-346.0358467813983
 31
0.0
  0
LINE
  5
1EC
330
1F
100
AcDbEntity
  8
0-0
  6
JWW_DASHED1
 62
   120
370
     5
100
AcDbLine
 10
280.590096705164
 20
-381.0717848842443
 30
0.0
 11
325.5255297432341
 21
-336.1363518461743
 31
0.0
  0
LINE
  5
1ED
330
1F
100
AcDbEntity
  8
0-0
  6
JWW_DASHED1
 62
   120
370
     5
100
AcDbLine
 10
270.6906017700151
 20
-381.0717848842315
 30
0.0
 11
325.5255297432221
 21
-326.2368569110245
 31
0.0
  0
LINE
  5
1EE
330
1F
100
AcDbEntity
  8
0-0
  6
JWW_DASHED1
 62
   120
370
     5
100
AcDbLine
 10
260.7911068347863
 20
-381.0717848842439
 30
0.0
 11
325.525529743229
 21
-316.3373619758013
 31
0.0
  0
LINE
  5
1EF
330
1F
100
AcDbEntity
  8
0-0
  6
JWW_DASHED1
 62
   120
370
     5
100
AcDbLine
 10
250.8916118995674
 20
-381.071784884246
 30
0.0
 11
325.5255297432362
 21
-306.4378670405777
 31
0.0
  0
LINE
  5
1F0
330
1F
100
AcDbEntity
  8
0-0
  6
JWW_DASHED1
 62
   120
370
     5
100
AcDbLine
 10
240.9921169644188
 20
-381.0717848842332
 30
0.0
 11
325.5255297432246
 21
-296.5383721054274
 31
0.0
  0
LINE
  5
1F1
330
1F
100
AcDbEntity
  8
0-0
  6
JWW_DASHED1
 62
   120
370
     5
100
AcDbLine
 10
231.092622029211
 20
-381.0717848842247
 30
0.0
 11
325.5255297432161
 21
-286.6388771702191
 31
0.0
  0
LINE
  5
1F2
330
1F
100
AcDbEntity
  8
0-0
  6
JWW_DASHED1
 62
   120
370
     5
100
AcDbLine
 10
221.1931270939797
 20
-381.0717848842396
 30
0.0
 11
325.5255297432225
 21
-276.7393822349968
 31
0.0
  0
LINE
  5
1F3
330
1F
100
AcDbEntity
  8
0-0
  6
JWW_DASHED1
 62
   120
370
     5
100
AcDbLine
 10
211.2936321588226
 20
-381.0717848842349
 30
0.0
 11
325.5255297432273
 21
-266.8398872998304
 31
0.0
  0
LINE
  5
1F4
330
1F
100
AcDbEntity
  8
0-0
  6
JWW_DASHED1
 62
   120
370
     5
100
AcDbLine
 10
201.3941372236148
 20
-381.0717848842264
 30
0.0
 11
325.5255297432187
 21
-256.9403923646225
 31
0.0
  0
LINE
  5
1F5
330
1F
100
AcDbEntity
  8
0-0
  6
JWW_DASHED1
 62
   120
370
     5
100
AcDbLine
 10
191.4946422883814
 20
-381.0717848842435
 30
0.0
 11
325.5255297432246
 21
-247.0408974294002
 31
0.0
  0
LINE
  5
1F6
330
1F
100
AcDbEntity
  8
0-0
  6
JWW_DASHED1
 62
   120
370
     5
100
AcDbLine
 10
181.595147353226
 20
-381.0717848842366
 30
0.0
 11
325.5255297432298
 21
-237.1414024942332
 31
0.0
  0
LINE
  5
1F7
330
1F
100
AcDbEntity
  8
0-0
  6
JWW_DASHED1
 62
   120
370
     5
100
AcDbLine
 10
171.6956524180186
 20
-381.0717848842281
 30
0.0
 11
325.5255297432212
 21
-227.2419075590254
 31
0.0
  0
LINE
  5
1F8
330
1F
100
AcDbEntity
  8
0-0
  6
JWW_DASHED1
 62
   120
370
     5
100
AcDbLine
 10
161.7961574827831
 20
-381.0717848842473
 30
0.0
 11
325.5255297432268
 21
-217.3424126238036
 31
0.0
  0
LINE
  5
1F9
330
1F
100
AcDbEntity
  8
0-0
  6
JWW_DASHED1
 62
   120
370
     5
100
AcDbLine
 10
151.8966625476303
 20
-381.0717848842384
 30
0.0
 11
325.5255297432324
 21
-207.4429176886362
 31
0.0
  0
LINE
  5
1FA
330
1F
100
AcDbEntity
  8
0-0
  6
JWW_DASHED1
 62
   120
370
     5
100
AcDbLine
 10
141.9971676124224
 20
-381.0717848842298
 30
0.0
 11
325.5255297432238
 21
-197.543422753428
 31
0.0
  0
LINE
  5
1FB
330
1F
100
AcDbEntity
  8
0-0
  6
JWW_DASHED1
 62
   120
370
     5
100
AcDbLine
 10
132.0976726772005
 20
-381.0717848842353
 30
0.0
 11
325.5255297432157
 21
-187.6439278182202
 31
0.0
  0
LINE
  5
1FC
330
1F
100
AcDbEntity
  8
0-0
  6
JWW_DASHED1
 62
   120
370
     5
100
AcDbLine
 10
122.1981777420341
 20
-381.0717848842401
 30
0.0
 11
325.5255297432324
 21
-177.7444328830418
 31
0.0
  0
LINE
  5
1FD
330
1F
100
AcDbEntity
  8
0-0
  6
JWW_DASHED1
 62
   120
370
     5
100
AcDbLine
 10
112.2986828068262
 20
-381.0717848842315
 30
0.0
 11
325.5255297432263
 21
-167.8449379478309
 31
0.0
  0
LINE
  5
1FE
330
1F
100
AcDbEntity
  8
0-0
  6
JWW_DASHED1
 62
   120
370
     5
100
AcDbLine
 10
106.0255297432137
 20
-377.4454430126273
 30
0.0
 11
325.5255297432183
 21
-157.9454430126231
 31
0.0
  0
LINE
  5
1FF
330
1F
100
AcDbEntity
  8
0-0
  6
JWW_DASHED1
 62
   120
370
     5
100
AcDbLine
 10
106.0255297432325
 20
-367.5459480774467
 30
0.0
 11
325.5255297432341
 21
-148.0459480774451
 31
0.0
  0
LINE
  5
200
330
1F
100
AcDbEntity
  8
0-0
  6
JWW_DASHED1
 62
   120
370
     5
100
AcDbLine
 10
106.0255297432248
 20
-357.6464531422384
 30
0.0
 11
325.525529743229
 21
-138.1464531422343
 31
0.0
  0
LINE
  5
201
330
1F
100
AcDbEntity
  8
0-0
  6
JWW_DASHED1
 62
   120
370
     5
100
AcDbLine
 10
106.0255297432282
 20
-347.7469582070732
 30
0.0
 11
325.5255297432166
 21
-128.2469582070849
 31
0.0
  0
LINE
  5
202
330
1F
100
AcDbEntity
  8
0-0
  6
JWW_DASHED1
 62
   120
370
     5
100
AcDbLine
 10
106.0255297432346
 20
-337.8474632718501
 30
0.0
 11
325.5255297432204
 21
-118.3474632718643
 31
0.0
  0
LINE
  5
203
330
1F
100
AcDbEntity
  8
0-0
  6
JWW_DASHED1
 62
   120
370
     5
100
AcDbLine
 10
106.0255297432273
 20
-327.9479683366415
 30
0.0
 11
325.5255297432315
 21
-108.4479683366373
 31
0.0
  0
LINE
  5
204
330
1F
100
AcDbEntity
  8
0-0
  6
JWW_DASHED1
 62
   120
370
     5
100
AcDbLine
 10
106.0255297432145
 20
-318.0484734014924
 30
0.0
 11
325.5255297432187
 21
-98.54847340148827
 31
0.0
  0
LINE
  5
205
330
1F
100
AcDbEntity
  8
0-0
  6
JWW_DASHED1
 62
   120
370
     5
100
AcDbLine
 10
106.0255297432371
 20
-308.1489784662535
 30
0.0
 11
325.5255297432229
 21
-88.64897846626765
 31
0.0
  0
LINE
  5
206
330
1F
100
AcDbEntity
  8
0-0
  6
JWW_DASHED1
 62
   120
370
     5
100
AcDbLine
 10
106.0255297432299
 20
-298.2494835310443
 30
0.0
 11
325.5255297432341
 21
-78.74948353104021
 31
0.0
  0
LINE
  5
207
330
1F
100
AcDbEntity
  8
0-0
  6
JWW_DASHED1
 62
   120
370
     5
100
AcDbLine
 10
106.0255297432171
 20
-288.3499885958954
 30
0.0
 11
325.5255297432212
 21
-68.84998859589079
 31
0.0
  0
LINE
  5
208
330
1F
100
AcDbEntity
  8
0-0
  6
JWW_DASHED1
 62
   120
370
     5
100
AcDbLine
 10
106.0255297432393
 20
-278.4504936606569
 30
0.0
 11
325.5255297432246
 21
-58.95049366067104
 31
0.0
  0
LINE
  5
209
330
1F
100
AcDbEntity
  8
0-0
  6
JWW_DASHED1
 62
   120
370
     5
100
AcDbLine
 10
106.0255297432307
 20
-268.5509987254491
 30
0.0
 11
325.5255297432324
 21
-49.05099872544744
 31
0.0
  0
LINE
  5
20A
330
1F
100
AcDbEntity
  8
0-0
  6
JWW_DASHED1
 62
   120
370
     5
100
AcDbLine
 10
106.0255297432197
 20
-258.6515037902983
 30
0.0
 11
325.5255297432238
 21
-39.15150379029375
 31
0.0
  0
LINE
  5
20B
330
1F
100
AcDbEntity
  8
0-0
  6
JWW_DASHED1
 62
   120
370
     5
100
AcDbLine
 10
106.0255297432273
 20
-248.7520088550743
 30
0.0
 11
325.5255297432157
 21
-29.25200885508593
 31
0.0
  0
LINE
  5
20C
330
1F
100
AcDbEntity
  8
0-0
  6
JWW_DASHED1
 62
   120
370
     5
100
AcDbLine
 10
106.0255297432329
 20
-238.8525139198524
 30
0.0
 11
325.5255297432345
 21
-19.35251391985081
 31
0.0
  0
LINE
  5
20D
330
1F
100
AcDbEntity
  8
0-0
  6
JWW_DASHED1
 62
   120
370
     5
100
AcDbLine
 10
106.0255297432222
 20
-228.9530189847013
 30
0.0
 11
325.5255297432263
 21
-9.453018984697133
 31
0.0
  0
LINE
  5
20E
330
1F
100
AcDbEntity
  8
0-0
  6
JWW_DASHED1
 62
   120
370
     5
100
AcDbLine
 10
106.0255297432137
 20
-219.053524049493
 30
0.0
 11
325.5255297432183
 21
0.4464759505111204
 31
0.0
  0
LINE
  5
20F
330
1F
100
AcDbEntity
  8
0-0
  6
JWW_DASHED1
 62
   120
370
     5
100
AcDbLine
 10
106.025529743235
 20
-209.1540291142557
 30
0.0
 11
325.5255297432208
 21
10.34597088573003
 31
0.0
  0
LINE
  5
210
330
1F
100
AcDbEntity
  8
0-0
  6
JWW_DASHED1
 62
   120
370
     5
100
AcDbLine
 10
106.0255297432248
 20
-199.2545341791042
 30
0.0
 11
325.525529743229
 21
20.24546582090034
 31
0.0
  0
LINE
  5
211
330
1F
100
AcDbEntity
  8
0-0
  6
JWW_DASHED1
 62
   120
370
     5
100
AcDbLine
 10
106.0255297432163
 20
-189.3550392438964
 30
0.0
 11
325.5255297432208
 21
30.14496075610817
 31
0.0
  0
LINE
  5
212
330
1F
100
AcDbEntity
  8
0-0
  6
JWW_DASHED1
 62
   120
370
     5
100
AcDbLine
 10
106.0255297432371
 20
-179.4555443086587
 30
0.0
 11
325.5255297432229
 21
40.04445569132665
 31
0.0
  0
LINE
  5
213
330
1F
100
AcDbEntity
  8
0-0
  6
JWW_DASHED1
 62
   120
370
     5
100
AcDbLine
 10
106.0255297432273
 20
-169.5560493735072
 30
0.0
 11
325.5255297432315
 21
49.94395062649696
 31
0.0
  0
LINE
  5
214
330
1F
100
AcDbEntity
  8
0-0
  6
JWW_DASHED1
 62
   120
370
     5
100
AcDbLine
 10
106.0255297432188
 20
-159.6565544382994
 30
0.0
 11
325.5255297432234
 21
59.84344556170522
 31
0.0
  0
LINE
  5
215
330
1F
100
AcDbEntity
  8
0-0
  6
JWW_DASHED1
 62
   120
370
     5
100
AcDbLine
 10
106.0255297432393
 20
-149.7570595030625
 30
0.0
 11
325.5255297432251
 21
69.74294049692328
 31
0.0
  0
LINE
  5
216
330
1F
100
AcDbEntity
  8
0-0
  6
JWW_DASHED1
 62
   120
370
     5
100
AcDbLine
 10
106.0255297432299
 20
-139.8575645679101
 30
0.0
 11
325.5255297432341
 21
79.64243543209402
 31
0.0
  0
LINE
  5
217
330
1F
100
AcDbEntity
  8
0-0
  6
JWW_DASHED1
 62
   120
370
     5
100
AcDbLine
 10
106.0255297432214
 20
-129.9580696327019
 30
0.0
 11
325.5255297432259
 21
89.54193036730227
 31
0.0
  0
LINE
  5
218
330
1F
100
AcDbEntity
  8
0-0
  6
JWW_DASHED1
 62
   120
370
     5
100
AcDbLine
 10
106.025529743229
 20
-120.0585746974783
 30
0.0
 11
325.5255297432174
 21
99.44142530251052
 31
0.0
  0
LINE
  5
219
330
1F
100
AcDbEntity
  8
0-0
  6
JWW_DASHED1
 62
   120
370
     5
100
AcDbLine
 10
106.025529743229
 20
-110.1590797623165
 30
0.0
 11
325.5255297432307
 21
109.3409202376851
 31
0.0
  0
LINE
  5
21A
330
1F
100
AcDbEntity
  8
0-0
  6
JWW_DASHED1
 62
   120
370
     5
100
AcDbLine
 10
106.0255297432239
 20
-100.2595848271048
 30
0.0
 11
325.5255297432285
 21
119.2404151728993
 31
0.0
  0
LINE
  5
21B
330
1F
100
AcDbEntity
  8
0-0
  6
JWW_DASHED1
 62
   120
370
     5
100
AcDbLine
 10
106.0255297432158
 20
-90.360089891897
 30
0.0
 11
325.5255297432204
 21
129.1399101081076
 31
0.0
  0
LINE
  5
21C
330
1F
100
AcDbEntity
  8
0-0
  6
JWW_DASHED1
 62
   120
370
     5
100
AcDbLine
 10
106.0255297432307
 20
-80.46059495671987
 30
0.0
 11
325.5255297432324
 21
139.0394050432813
 31
0.0
  0
LINE
  5
21D
330
1F
100
AcDbEntity
  8
0-0
  6
JWW_DASHED1
 62
   120
370
     5
100
AcDbLine
 10
106.0255297432265
 20
-70.56110002150821
 30
0.0
 11
325.5255297432311
 21
148.9388999784964
 31
0.0
  0
LINE
  5
21E
330
1F
100
AcDbEntity
  8
0-0
  6
JWW_DASHED1
 62
   120
370
     5
100
AcDbLine
 10
106.0255297432184
 20
-60.66160508629996
 30
0.0
 11
325.5255297432229
 21
158.8383949137046
 31
0.0
  0
LINE
  5
21F
330
1F
100
AcDbEntity
  8
0-0
  6
JWW_DASHED1
 62
   120
370
     5
100
AcDbLine
 10
106.0255297432333
 20
-50.76211015112326
 30
0.0
 11
325.5255297432187
 21
168.7378898488626
 31
0.0
  0
LINE
  5
220
330
1F
100
AcDbEntity
  8
0-0
  6
JWW_DASHED1
 62
   120
370
     5
100
AcDbLine
 10
106.025529743229
 20
-40.86261521591117
 30
0.0
 11
325.5255297432332
 21
178.6373847840934
 31
0.0
  0
LINE
  5
221
330
1F
100
AcDbEntity
  8
0-0
  6
JWW_DASHED1
 62
   120
370
     5
100
AcDbLine
 10
106.0255297432209
 20
-30.96312028070292
 30
0.0
 11
325.5255297432251
 21
188.5368797193017
 31
0.0
  0
LINE
  5
222
330
1F
100
AcDbEntity
  8
0-0
  6
JWW_DASHED1
 62
   120
370
     5
100
AcDbLine
 10
106.025529743235
 20
-21.06362534552664
 30
0.0
 11
325.5255297432208
 21
198.4363746544592
 31
0.0
  0
LINE
  5
223
330
1F
100
AcDbEntity
  8
0-0
  6
JWW_DASHED1
 62
   120
370
     5
100
AcDbLine
 10
106.0255297432269
 20
-11.16413041031881
 30
0.0
 11
325.5255297432285
 21
208.3358695896828
 31
0.0
  0
LINE
  5
224
330
1F
100
AcDbEntity
  8
0-0
  6
JWW_DASHED1
 62
   120
370
     5
100
AcDbLine
 10
106.0255297432235
 20
-1.264635475105871
 30
0.0
 11
325.5255297432277
 21
218.2353645248983
 31
0.0
  0
LINE
  5
225
330
1F
100
AcDbEntity
  8
0-0
  6
JWW_DASHED1
 62
   120
370
     5
100
AcDbLine
 10
106.0255297432376
 20
8.63485946006998
 30
0.0
 11
325.5255297432229
 21
228.1348594600558
 31
0.0
  0
LINE
  5
226
330
1F
100
AcDbEntity
  8
0-0
  6
JWW_DASHED1
 62
   120
370
     5
100
AcDbLine
 10
106.025529743229
 20
18.53435439527781
 30
0.0
 11
325.5255297432307
 21
238.0343543952794
 31
0.0
  0
LINE
  5
227
330
1F
100
AcDbEntity
  8
0-0
  6
JWW_DASHED1
 62
   120
370
     5
100
AcDbLine
 10
106.0255297432256
 20
28.43384933049075
 30
0.0
 11
325.5255297432302
 21
247.9338493304953
 31
0.0
  0
LINE
  5
228
330
1F
100
AcDbEntity
  8
0-0
  6
JWW_DASHED1
 62
   120
370
     5
100
AcDbLine
 10
106.025529743229
 20
38.33334426565595
 30
0.0
 11
325.5255297432174
 21
257.8333442656447
 31
0.0
  0
LINE
  5
229
330
1F
100
AcDbEntity
  8
0-0
  6
JWW_DASHED1
 62
   120
370
     5
100
AcDbLine
 10
106.0255297432312
 20
48.23283920087443
 30
0.0
 11
325.525529743217
 21
267.7328392008602
 31
0.0
  0
LINE
  5
22A
330
1F
100
AcDbEntity
  8
0-0
  6
JWW_DASHED1
 62
   120
370
     5
100
AcDbLine
 10
106.0255297432282
 20
58.1323341360878
 30
0.0
 11
325.5255297432328
 21
277.6323341360924
 31
0.0
  0
LINE
  5
22B
330
1F
100
AcDbEntity
  8
0-0
  6
JWW_DASHED1
 62
   120
370
     5
100
AcDbLine
 10
106.0255297432158
 20
68.03182907123723
 30
0.0
 11
325.5255297432204
 21
287.5318290712418
 31
0.0
  0
LINE
  5
22C
330
1F
100
AcDbEntity
  8
0-0
  6
JWW_DASHED1
 62
   120
370
     5
100
AcDbLine
 10
106.0255297432333
 20
77.93132400647106
 30
0.0
 11
325.5255297432191
 21
297.4313240064569
 31
0.0
  0
LINE
  5
22D
330
1F
100
AcDbEntity
  8
0-0
  6
JWW_DASHED1
 62
   120
370
     5
100
AcDbLine
 10
106.0255297432307
 20
87.83081894168485
 30
0.0
 11
325.5255297432353
 21
307.3308189416894
 31
0.0
  0
LINE
  5
22E
330
1F
100
AcDbEntity
  8
0-0
  6
JWW_DASHED1
 62
   120
370
     5
100
AcDbLine
 10
106.0255297432184
 20
97.73031387683427
 30
0.0
 11
325.5255297432229
 21
317.2303138768388
 31
0.0
  0
LINE
  5
22F
330
1F
100
AcDbEntity
  8
0-0
  6
JWW_DASHED1
 62
   120
370
     5
100
AcDbLine
 10
106.0255297432354
 20
107.6298088120677
 30
0.0
 11
325.5255297432212
 21
327.1298088120535
 31
0.0
  0
LINE
  5
230
330
1F
100
AcDbEntity
  8
0-0
  6
JWW_DASHED1
 62
   120
370
     5
100
AcDbLine
 10
106.0255297432269
 20
117.5293037472759
 30
0.0
 11
325.5255297432285
 21
337.0293037472774
 31
0.0
  0
LINE
  5
231
330
1F
100
AcDbEntity
  8
0-0
  6
JWW_DASHED1
 62
   120
370
     5
100
AcDbLine
 10
106.0255297432209
 20
127.4287986824313
 30
0.0
 11
325.5255297432255
 21
346.9287986824358
 31
0.0
  0
LINE
  5
232
330
1F
100
AcDbEntity
  8
0-0
  6
JWW_DASHED1
 62
   120
370
     5
100
AcDbLine
 10
106.0255297432376
 20
137.3282936176643
 30
0.0
 11
325.5255297432234
 21
356.8282936176501
 31
0.0
  0
LINE
  5
233
330
1F
100
AcDbEntity
  8
0-0
  6
JWW_DASHED1
 62
   120
370
     5
100
AcDbLine
 10
106.0255297432273
 20
147.2277885528431
 30
0.0
 11
325.525529743229
 21
366.7277885528446
 31
0.0
  0
LINE
  5
234
330
1F
100
AcDbEntity
  8
0-0
  6
JWW_DASHED1
 62
   120
370
     5
100
AcDbLine
 10
106.0255297432235
 20
157.1272834880284
 30
0.0
 11
325.525529743228
 21
376.6272834880325
 31
0.0
  0
LINE
  5
235
330
1F
100
AcDbEntity
  8
0-0
  6
JWW_DASHED1
 62
   120
370
     5
100
AcDbLine
 10
106.0255297432307
 20
167.0267784232524
 30
0.0
 11
325.5255297432195
 21
386.5267784232407
 31
0.0
  0
LINE
  5
236
330
1F
100
AcDbEntity
  8
0-0
  6
JWW_DASHED1
 62
   120
370
     5
100
AcDbLine
 10
106.025529743229
 20
176.9262733584397
 30
0.0
 11
325.5255297432311
 21
396.4262733584408
 31
0.0
  0
LINE
  5
237
330
1F
100
AcDbEntity
  8
0-0
  6
JWW_DASHED1
 62
   120
370
     5
100
AcDbLine
 10
106.0255297432261
 20
186.8257682936254
 30
0.0
 11
325.5255297432302
 21
406.3257682936296
 31
0.0
  0
LINE
  5
238
330
1F
100
AcDbEntity
  8
0-0
  6
JWW_DASHED1
 62
   120
370
     5
100
AcDbLine
 10
106.0255297432175
 20
196.7252632288337
 30
0.0
 11
325.5255297432221
 21
416.2252632288377
 31
0.0
  0
LINE
  5
239
330
1F
100
AcDbEntity
  8
0-0
  6
JWW_DASHED1
 62
   120
370
     5
100
AcDbLine
 10
106.025529743229
 20
206.6247581640069
 30
0.0
 11
325.5255297432307
 21
426.124758164008
 31
0.0
  0
LINE
  5
23A
330
1F
100
AcDbEntity
  8
0-0
  6
JWW_DASHED1
 62
   120
370
     5
100
AcDbLine
 10
106.0255297432286
 20
216.5242530992224
 30
0.0
 11
325.5255297432328
 21
436.0242530992266
 31
0.0
  0
LINE
  5
23B
330
1F
100
AcDbEntity
  8
0-0
  6
JWW_DASHED1
 62
   120
370
     5
100
AcDbLine
 10
106.0255297432205
 20
226.4237480344307
 30
0.0
 11
325.5255297432246
 21
445.9237480344348
 31
0.0
  0
LINE
  5
23C
330
1F
100
AcDbEntity
  8
0-0
  6
JWW_DASHED1
 62
   120
370
     5
100
AcDbLine
 10
106.0255297432312
 20
236.3232429696036
 30
0.0
 11
325.525529743217
 21
455.8232429695889
 31
0.0
  0
LINE
  5
23D
330
1F
100
AcDbEntity
  8
0-0
  6
JWW_DASHED1
 62
   120
370
     5
100
AcDbLine
 10
106.0255297432307
 20
246.2227379048195
 30
0.0
 11
325.5255297432353
 21
465.7227379048236
 31
0.0
  0
LINE
  5
23E
330
1F
100
AcDbEntity
  8
0-0
  6
JWW_DASHED1
 62
   120
370
     5
100
AcDbLine
 10
106.0255297432226
 20
256.1222328400273
 30
0.0
 11
325.5255297432273
 21
475.6222328400318
 31
0.0
  0
LINE
  5
23F
330
1F
100
AcDbEntity
  8
0-0
  6
JWW_DASHED1
 62
   120
370
     5
100
AcDbLine
 10
106.0255297432337
 20
266.0217277752002
 30
0.0
 11
325.5255297432195
 21
485.5217277751856
 31
0.0
  0
LINE
  5
240
330
1F
100
AcDbEntity
  8
0-0
  6
JWW_DASHED1
 62
   120
370
     5
100
AcDbLine
 10
106.0255297432252
 20
275.921222710408
 30
0.0
 11
325.5255297432268
 21
495.4212227104096
 31
0.0
  0
LINE
  5
241
330
1F
100
AcDbEntity
  8
0-0
  6
JWW_DASHED1
 62
   120
370
     5
100
AcDbLine
 10
106.0255297432252
 20
285.8207176456244
 30
0.0
 11
325.5255297432298
 21
505.3207176456289
 31
0.0
  0
LINE
  5
242
330
1F
100
AcDbEntity
  8
0-0
  6
JWW_DASHED1
 62
   120
370
     5
100
AcDbLine
 10
106.0255297432359
 20
295.7202125807968
 30
0.0
 11
325.5255297432212
 21
515.2202125807822
 31
0.0
  0
LINE
  5
243
330
1F
100
AcDbEntity
  8
0-0
  6
JWW_DASHED1
 62
   120
370
     5
100
AcDbLine
 10
106.0255297432273
 20
305.6197075160046
 30
0.0
 11
325.525529743229
 21
525.1197075160062
 31
0.0
  0
LINE
  5
244
330
1F
100
AcDbEntity
  8
0-0
  6
JWW_DASHED1
 62
   120
370
     5
100
AcDbLine
 10
106.0255297432278
 20
315.5192024512214
 30
0.0
 11
325.5255297432324
 21
535.019202451226
 31
0.0
  0
LINE
  5
245
330
1F
100
AcDbEntity
  8
0-0
  6
JWW_DASHED1
 62
   120
370
     5
100
AcDbLine
 10
106.0255297432312
 20
325.4186973863866
 30
0.0
 11
325.5255297432195
 21
544.918697386375
 31
0.0
  0
LINE
  5
246
330
1F
100
AcDbEntity
  8
0-0
  6
JWW_DASHED1
 62
   120
370
     5
100
AcDbLine
 10
106.0255297432295
 20
335.3181923216013
 30
0.0
 11
325.5255297432153
 21
554.818192321587
 31
0.0
  0
LINE
  5
247
330
1F
100
AcDbEntity
  8
0-0
  6
JWW_DASHED1
 62
   120
370
     5
100
AcDbLine
 10
106.0255297432303
 20
345.2176872568185
 30
0.0
 11
325.5255297432349
 21
564.7176872568226
 31
0.0
  0
LINE
  5
248
330
1F
100
AcDbEntity
  8
0-0
  6
JWW_DASHED1
 62
   120
370
     5
100
AcDbLine
 10
106.025529743218
 20
355.1171821919679
 30
0.0
 11
325.5255297432221
 21
574.617182191972
 31
0.0
  0
LINE
  5
249
330
1F
100
AcDbEntity
  8
0-0
  6
JWW_DASHED1
 62
   120
370
     5
100
AcDbLine
 10
106.0255297432316
 20
365.0166771271979
 30
0.0
 11
325.5255297432174
 21
584.5166771271837
 31
0.0
  0
LINE
  5
24A
330
1F
100
AcDbEntity
  8
0-0
  6
JWW_DASHED1
 62
   120
370
     5
100
AcDbLine
 10
106.0255297432329
 20
374.9161720624155
 30
0.0
 11
325.5255297432375
 21
594.4161720624201
 31
0.0
  0
LINE
  5
24B
330
1F
100
AcDbEntity
  8
0-0
  6
JWW_DASHED1
 62
   120
370
     5
100
AcDbLine
 10
106.0255297432205
 20
384.8156669975648
 30
0.0
 11
325.5255297432246
 21
604.3156669975691
 31
0.0
  0
LINE
  5
24C
330
1F
100
AcDbEntity
  8
0-0
  6
JWW_DASHED1
 62
   120
370
     5
100
AcDbLine
 10
106.0255297432337
 20
394.7151619327945
 30
0.0
 11
325.5255297432195
 21
614.2151619327803
 31
0.0
  0
LINE
  5
24D
330
1F
100
AcDbEntity
  8
0-0
  6
JWW_DASHED1
 62
   120
370
     5
100
AcDbLine
 10
106.0255297432256
 20
404.6146568680027
 30
0.0
 11
325.5255297432273
 21
624.1146568680043
 31
0.0
  0
LINE
  5
24E
330
1F
100
AcDbEntity
  8
0-0
  6
JWW_DASHED1
 62
   120
370
     5
100
AcDbLine
 10
106.0255297432226
 20
414.514151803162
 30
0.0
 11
325.5255297432273
 21
634.0141518031661
 31
0.0
  0
LINE
  5
24F
330
1F
100
AcDbEntity
  8
0-0
  6
JWW_DASHED1
 62
   120
370
     5
100
AcDbLine
 10
106.0255297432359
 20
424.413646738391
 30
0.0
 11
325.5255297432217
 21
643.9136467383768
 31
0.0
  0
LINE
  5
250
330
1F
100
AcDbEntity
  8
0-0
  6
JWW_DASHED1
 62
   120
370
     5
100
AcDbLine
 10
106.0255297432273
 20
434.3131416735989
 30
0.0
 11
325.525529743229
 21
653.8131416736005
 31
0.0
  0
LINE
  5
251
330
1F
100
AcDbEntity
  8
0-0
  6
JWW_DASHED1
 62
   120
370
     5
100
AcDbLine
 10
106.0255297432256
 20
444.2126366087589
 30
0.0
 11
325.5255297432298
 21
663.7126366087632
 31
0.0
  0
LINE
  5
252
330
1F
100
AcDbEntity
  8
0-0
  6
JWW_DASHED1
 62
   120
370
     5
100
AcDbLine
 10
106.0255297432171
 20
454.1121315439668
 30
0.0
 11
325.5255297432212
 21
673.612131543971
 31
0.0
  0
LINE
  5
253
330
1F
100
AcDbEntity
  8
0-0
  6
JWW_DASHED1
 62
   120
370
     5
100
AcDbLine
 10
106.0255297432299
 20
464.011626479196
 30
0.0
 11
325.5255297432157
 21
683.5116264791814
 31
0.0
  0
LINE
  5
254
330
1F
100
AcDbEntity
  8
0-0
  6
JWW_DASHED1
 62
   120
370
     5
100
AcDbLine
 10
106.0255297432278
 20
473.911121414356
 30
0.0
 11
325.5255297432324
 21
693.4111214143602
 31
0.0
  0
LINE
  5
255
330
1F
100
AcDbEntity
  8
0-0
  6
JWW_DASHED1
 62
   120
370
     5
100
AcDbLine
 10
106.0255297432197
 20
483.8106163495639
 30
0.0
 11
325.5255297432238
 21
703.310616349568
 31
0.0
  0
LINE
  5
256
330
1F
100
AcDbEntity
  8
0-0
  6
JWW_DASHED1
 62
   120
370
     5
100
AcDbLine
 10
106.025529743232
 20
493.7101112847926
 30
0.0
 11
325.5255297432178
 21
713.210111284778
 31
0.0
  0
LINE
  5
257
330
1F
100
AcDbEntity
  8
0-0
  6
JWW_DASHED1
 62
   120
370
     5
100
AcDbLine
 10
106.0255297432303
 20
503.6096062199527
 30
0.0
 11
325.5255297432349
 21
723.1096062199573
 31
0.0
  0
LINE
  5
258
330
1F
100
AcDbEntity
  8
0-0
  6
JWW_DASHED1
 62
   120
370
     5
100
AcDbLine
 10
106.0255297432222
 20
513.5091011551609
 30
0.0
 11
325.5255297432263
 21
733.0091011551651
 31
0.0
  0
LINE
  5
259
330
1F
100
AcDbEntity
  8
0-0
  6
JWW_DASHED1
 62
   120
370
     5
100
AcDbLine
 10
106.0255297432342
 20
523.4085960903892
 30
0.0
 11
325.52552974322
 21
742.908596090375
 31
0.0
  0
LINE
  5
25A
330
1F
100
AcDbEntity
  8
0-0
  6
JWW_DASHED1
 62
   120
370
     5
100
AcDbLine
 10
106.0255297432329
 20
533.3080910255497
 30
0.0
 11
325.5255297432375
 21
752.8080910255543
 31
0.0
  0
LINE
  5
25B
330
1F
100
AcDbEntity
  8
0-0
  6
JWW_DASHED1
 62
   120
370
     5
100
AcDbLine
 10
106.0255297432248
 20
543.207585960758
 30
0.0
 11
325.525529743229
 21
762.7075859607621
 31
0.0
  0
LINE
  5
25C
330
1F
100
AcDbEntity
  8
0-0
  6
JWW_DASHED1
 62
   120
370
     5
100
AcDbLine
 10
106.0255297432325
 20
553.107080895982
 30
0.0
 11
325.5255297432208
 21
772.6070808959704
 31
0.0
  0
LINE
  5
25D
330
1F
100
AcDbEntity
  8
0-0
  6
JWW_DASHED1
 62
   120
370
     5
100
AcDbLine
 10
106.0255297432235
 20
563.0065758311347
 30
0.0
 11
325.5255297432251
 21
782.5065758311363
 31
0.0
  0
LINE
  5
25E
330
1F
100
AcDbEntity
  8
0-0
  6
JWW_DASHED1
 62
   120
370
     5
100
AcDbLine
 10
106.0255297432273
 20
572.906070766355
 30
0.0
 11
325.5255297432315
 21
792.4060707663592
 31
0.0
  0
LINE
  5
25F
330
1F
100
AcDbEntity
  8
0-0
  6
JWW_DASHED1
 62
   120
370
     5
100
AcDbLine
 10
106.0255297432192
 20
582.8055657015628
 30
0.0
 11
325.5255297432234
 21
802.3055657015674
 31
0.0
  0
LINE
  5
260
330
1F
100
AcDbEntity
  8
0-0
  6
JWW_DASHED1
 62
   120
370
     5
100
AcDbLine
 10
106.0255297432256
 20
592.7050606367314
 30
0.0
 11
325.5255297432273
 21
812.205060636733
 31
0.0
  0
LINE
  5
261
330
1F
100
AcDbEntity
  8
0-0
  6
JWW_DASHED1
 62
   120
370
     5
100
AcDbLine
 10
106.0255297432299
 20
602.6045555719521
 30
0.0
 11
325.5255297432341
 21
822.1045555719562
 31
0.0
  0
LINE
  5
262
330
1F
100
AcDbEntity
  8
0-0
  6
JWW_DASHED1
 62
   120
370
     5
100
AcDbLine
 10
106.0255297432214
 20
612.50405050716
 30
0.0
 11
325.5255297432259
 21
832.0040505071645
 31
0.0
  0
LINE
  5
263
330
1F
100
AcDbEntity
  8
0-0
  6
JWW_DASHED1
 62
   120
370
     5
100
AcDbLine
 10
106.0255297432278
 20
622.4035454423281
 30
0.0
 11
325.5255297432136
 21
841.9035454423139
 31
0.0
  0
LINE
  5
264
330
1F
100
AcDbEntity
  8
0-0
  6
JWW_DASHED1
 62
   120
370
     5
100
AcDbLine
 10
106.0255297432325
 20
632.3030403775487
 30
0.0
 11
325.5255297432366
 21
851.8030403775533
 31
0.0
  0
LINE
  5
265
330
1F
100
AcDbEntity
  8
0-0
  6
JWW_DASHED1
 62
   120
370
     5
100
AcDbLine
 10
106.0255297432239
 20
642.2025353127569
 30
0.0
 11
325.5255297432285
 21
861.7025353127614
 31
0.0
  0
LINE
  5
266
330
1F
100
AcDbEntity
  8
0-0
  6
JWW_DASHED1
 62
   120
370
     5
100
AcDbLine
 10
106.0255297432299
 20
652.1020302479247
 30
0.0
 11
317.8517146110784
 21
863.928215115773
 31
0.0
  0
LINE
  5
267
330
1F
100
AcDbEntity
  8
0-0
  6
JWW_DASHED1
 62
   120
370
     5
100
AcDbLine
 10
106.025529743235
 20
662.0015251831462
 30
0.0
 11
307.9522196758394
 21
863.9282151157506
 31
0.0
  0
LINE
  5
268
330
1F
100
AcDbEntity
  8
0-0
  6
JWW_DASHED1
 62
   120
370
     5
100
AcDbLine
 10
106.0255297432265
 20
671.901020118354
 30
0.0
 11
298.0527247406316
 21
863.9282151157591
 31
0.0
  0
LINE
  5
269
330
1F
100
AcDbEntity
  8
0-0
  6
JWW_DASHED1
 62
   120
370
     5
100
AcDbLine
 10
106.025529743232
 20
681.8005150535213
 30
0.0
 11
288.15322980548
 21
863.9282151157694
 31
0.0
  0
LINE
  5
26A
330
1F
100
AcDbEntity
  8
0-0
  6
JWW_DASHED1
 62
   120
370
     5
100
AcDbLine
 10
106.0255297432239
 20
691.700009988729
 30
0.0
 11
278.253734870259
 21
863.9282151157646
 31
0.0
  0
LINE
  5
26B
330
1F
100
AcDbEntity
  8
0-0
  6
JWW_DASHED1
 62
   120
370
     5
100
AcDbLine
 10
106.025529743229
 20
701.599504923951
 30
0.0
 11
268.3542399350354
 21
863.9282151157574
 31
0.0
  0
LINE
  5
26C
330
1F
100
AcDbEntity
  8
0-0
  6
JWW_DASHED1
 62
   120
370
     5
100
AcDbLine
 10
106.0255297432325
 20
711.4989998591158
 30
0.0
 11
258.4547449998817
 21
863.9282151157655
 31
0.0
  0
LINE
  5
26D
330
1F
100
AcDbEntity
  8
0-0
  6
JWW_DASHED1
 62
   120
370
     5
100
AcDbLine
 10
106.0255297432261
 20
721.3984947943258
 30
0.0
 11
248.5552500646735
 21
863.928215115773
 31
0.0
  0
LINE
  5
26E
330
1F
100
AcDbEntity
  8
0-0
  6
JWW_DASHED1
 62
   120
370
     5
100
AcDbLine
 10
106.0255297432316
 20
731.2979897295481
 30
0.0
 11
238.6557551294392
 21
863.9282151157557
 31
0.0
  0
LINE
  5
26F
330
1F
100
AcDbEntity
  8
0-0
  6
JWW_DASHED1
 62
   120
370
     5
100
AcDbLine
 10
106.0255297432188
 20
741.1974846646971
 30
0.0
 11
228.7562601942902
 21
863.9282151157685
 31
0.0
  0
LINE
  5
270
330
1F
100
AcDbEntity
  8
0-0
  6
JWW_DASHED1
 62
   120
370
     5
100
AcDbLine
 10
106.0255297432282
 20
751.0969795999229
 30
0.0
 11
218.8567652590747
 21
863.9282151157694
 31
0.0
  0
LINE
  5
271
330
1F
100
AcDbEntity
  8
0-0
  6
JWW_DASHED1
 62
   120
370
     5
100
AcDbLine
 10
106.0255297432342
 20
760.9964745351451
 30
0.0
 11
208.957270323843
 21
863.928215115754
 31
0.0
  0
LINE
  5
272
330
1F
100
AcDbEntity
  8
0-0
  6
JWW_DASHED1
 62
   120
370
     5
100
AcDbLine
 10
106.0255297432218
 20
770.8959694702942
 30
0.0
 11
199.057775388694
 21
863.9282151157668
 31
0.0
  0
LINE
  5
273
330
1F
100
AcDbEntity
  8
0-0
  6
JWW_DASHED1
 62
   120
370
     5
100
AcDbLine
 10
106.0255297432303
 20
780.7954644055193
 30
0.0
 11
189.1582804534768
 21
863.928215115766
 31
0.0
  0
LINE
  5
274
330
1F
100
AcDbEntity
  8
0-0
  6
JWW_DASHED1
 62
   120
370
     5
100
AcDbLine
 10
106.0255297432325
 20
790.6949593406833
 30
0.0
 11
179.2587855183056
 21
863.9282151157565
 31
0.0
  0
LINE
  5
275
330
1F
100
AcDbEntity
  8
0-0
  6
JWW_DASHED1
 62
   120
370
     5
100
AcDbLine
 10
106.0255297432239
 20
800.5944542758912
 30
0.0
 11
169.3592905830978
 21
863.928215115765
 31
0.0
  0
LINE
  5
276
330
1F
100
AcDbEntity
  8
0-0
  6
JWW_DASHED1
 62
   120
370
     5
100
AcDbLine
 10
106.0255297432325
 20
810.493949211116
 30
0.0
 11
159.4597956478781
 21
863.9282151157616
 31
0.0
  0
LINE
  5
277
330
1F
100
AcDbEntity
  8
0-0
  6
JWW_DASHED1
 62
   120
370
     5
100
AcDbLine
 10
106.025529743235
 20
820.3934441462804
 30
0.0
 11
149.5603007127094
 21
863.9282151157548
 31
0.0
  0
LINE
  5
278
330
1F
100
AcDbEntity
  8
0-0
  6
JWW_DASHED1
 62
   120
370
     5
100
AcDbLine
 10
106.0255297432265
 20
830.2929390814883
 30
0.0
 11
139.6608057775016
 21
863.9282151157634
 31
0.0
  0
LINE
  5
279
330
1F
100
AcDbEntity
  8
0-0
  6
JWW_DASHED1
 62
   120
370
     5
100
AcDbLine
 10
106.0255297432342
 20
840.1924340167122
 30
0.0
 11
129.7613108422802
 21
863.9282151157582
 31
0.0
  0
LINE
  5
27A
330
1F
100
AcDbEntity
  8
0-0
  6
JWW_DASHED1
 62
   120
370
     5
100
AcDbLine
 10
106.0255297432218
 20
850.0919289518616
 30
0.0
 11
119.8618159071295
 21
863.9282151157694
 31
0.0
  0
LINE
  5
27B
330
1F
100
AcDbEntity
  8
0-0
  6
JWW_DASHED1
 62
   120
370
     5
100
AcDbLine
 10
106.025529743229
 20
859.9914238870853
 30
0.0
 11
109.9623209719054
 21
863.9282151157616
 31
0.0
  0
LINE
  5
27C
330
1F
100
AcDbEntity
  8
0-0
  6
JWW_DASHED1
 62
   120
370
     5
100
AcDbLine
 10
729.6880764459993
 20
-381.0717848842357
 30
0.0
 11
735.0255297432407
 21
-375.7343315869945
 31
0.0
  0
LINE
  5
27D
330
1F
100
AcDbEntity
  8
0-0
  6
JWW_DASHED1
 62
   120
370
     5
100
AcDbLine
 10
719.7885815107761
 20
-381.0717848842426
 30
0.0
 11
735.0255297432487
 21
-365.8348366517705
 31
0.0
  0
LINE
  5
27E
330
1F
100
AcDbEntity
  8
0-0
  6
JWW_DASHED1
 62
   120
370
     5
100
AcDbLine
 10
709.8890865755687
 20
-381.071784884234
 30
0.0
 11
735.0255297432402
 21
-355.9353417165627
 31
0.0
  0
LINE
  5
27F
330
1F
100
AcDbEntity
  8
0-0
  6
JWW_DASHED1
 62
   120
370
     5
100
AcDbLine
 10
699.989591640401
 20
-381.0717848842396
 30
0.0
 11
735.0255297432427
 21
-346.0358467813983
 31
0.0
  0
LINE
  5
280
330
1F
100
AcDbEntity
  8
0-0
  6
JWW_DASHED1
 62
   120
370
     5
100
AcDbLine
 10
690.0900967051804
 20
-381.0717848842443
 30
0.0
 11
735.0255297432504
 21
-336.1363518461743
 31
0.0
  0
LINE
  5
281
330
1F
100
AcDbEntity
  8
0-0
  6
JWW_DASHED1
 62
   120
370
     5
100
AcDbLine
 10
680.1906017700314
 20
-381.0717848842315
 30
0.0
 11
735.0255297432385
 21
-326.2368569110245
 31
0.0
  0
LINE
  5
282
330
1F
100
AcDbEntity
  8
0-0
  6
JWW_DASHED1
 62
   120
370
     5
100
AcDbLine
 10
670.2911068348027
 20
-381.0717848842439
 30
0.0
 11
735.0255297432453
 21
-316.3373619758013
 31
0.0
  0
LINE
  5
283
330
1F
100
AcDbEntity
  8
0-0
  6
JWW_DASHED1
 62
   120
370
     5
100
AcDbLine
 10
660.3916118995837
 20
-381.071784884246
 30
0.0
 11
735.0255297432525
 21
-306.4378670405777
 31
0.0
  0
LINE
  5
284
330
1F
100
AcDbEntity
  8
0-0
  6
JWW_DASHED1
 62
   120
370
     5
100
AcDbLine
 10
650.4921169644352
 20
-381.0717848842332
 30
0.0
 11
735.025529743241
 21
-296.5383721054274
 31
0.0
  0
LINE
  5
285
330
1F
100
AcDbEntity
  8
0-0
  6
JWW_DASHED1
 62
   120
370
     5
100
AcDbLine
 10
640.5926220292274
 20
-381.0717848842247
 30
0.0
 11
735.0255297432325
 21
-286.6388771702191
 31
0.0
  0
LINE
  5
286
330
1F
100
AcDbEntity
  8
0-0
  6
JWW_DASHED1
 62
   120
370
     5
100
AcDbLine
 10
630.693127093996
 20
-381.0717848842396
 30
0.0
 11
735.0255297432388
 21
-276.7393822349968
 31
0.0
  0
LINE
  5
287
330
1F
100
AcDbEntity
  8
0-0
  6
JWW_DASHED1
 62
   120
370
     5
100
AcDbLine
 10
620.793632158839
 20
-381.0717848842349
 30
0.0
 11
735.0255297432436
 21
-266.8398872998304
 31
0.0
  0
LINE
  5
288
330
1F
100
AcDbEntity
  8
0-0
  6
JWW_DASHED1
 62
   120
370
     5
100
AcDbLine
 10
610.8941372236312
 20
-381.0717848842264
 30
0.0
 11
735.0255297432351
 21
-256.9403923646225
 31
0.0
  0
LINE
  5
289
330
1F
100
AcDbEntity
  8
0-0
  6
JWW_DASHED1
 62
   120
370
     5
100
AcDbLine
 10
600.9946422883978
 20
-381.0717848842435
 30
0.0
 11
735.025529743241
 21
-247.0408974294002
 31
0.0
  0
LINE
  5
28A
330
1F
100
AcDbEntity
  8
0-0
  6
JWW_DASHED1
 62
   120
370
     5
100
AcDbLine
 10
591.0951473532424
 20
-381.0717848842366
 30
0.0
 11
735.0255297432461
 21
-237.1414024942332
 31
0.0
  0
LINE
  5
28B
330
1F
100
AcDbEntity
  8
0-0
  6
JWW_DASHED1
 62
   120
370
     5
100
AcDbLine
 10
581.195652418035
 20
-381.0717848842281
 30
0.0
 11
735.0255297432376
 21
-227.2419075590254
 31
0.0
  0
LINE
  5
28C
330
1F
100
AcDbEntity
  8
0-0
  6
JWW_DASHED1
 62
   120
370
     5
100
AcDbLine
 10
571.2961574827995
 20
-381.0717848842473
 30
0.0
 11
735.0255297432432
 21
-217.3424126238036
 31
0.0
  0
LINE
  5
28D
330
1F
100
AcDbEntity
  8
0-0
  6
JWW_DASHED1
 62
   120
370
     5
100
AcDbLine
 10
561.3966625476467
 20
-381.0717848842384
 30
0.0
 11
735.0255297432487
 21
-207.4429176886362
 31
0.0
  0
LINE
  5
28E
330
1F
100
AcDbEntity
  8
0-0
  6
JWW_DASHED1
 62
   120
370
     5
100
AcDbLine
 10
551.4971676124388
 20
-381.0717848842298
 30
0.0
 11
735.0255297432402
 21
-197.543422753428
 31
0.0
  0
LINE
  5
28F
330
1F
100
AcDbEntity
  8
0-0
  6
JWW_DASHED1
 62
   120
370
     5
100
AcDbLine
 10
541.5976726772169
 20
-381.0717848842353
 30
0.0
 11
735.025529743232
 21
-187.6439278182202
 31
0.0
  0
LINE
  5
290
330
1F
100
AcDbEntity
  8
0-0
  6
JWW_DASHED1
 62
   120
370
     5
100
AcDbLine
 10
531.6981777420505
 20
-381.0717848842401
 30
0.0
 11
735.0255297432487
 21
-177.7444328830418
 31
0.0
  0
LINE
  5
291
330
1F
100
AcDbEntity
  8
0-0
  6
JWW_DASHED1
 62
   120
370
     5
100
AcDbLine
 10
521.7986828068426
 20
-381.0717848842315
 30
0.0
 11
735.0255297432427
 21
-167.8449379478309
 31
0.0
  0
LINE
  5
292
330
1F
100
AcDbEntity
  8
0-0
  6
JWW_DASHED1
 62
   120
370
     5
100
AcDbLine
 10
515.5255297432301
 20
-377.4454430126273
 30
0.0
 11
735.0255297432346
 21
-157.9454430126231
 31
0.0
  0
LINE
  5
293
330
1F
100
AcDbEntity
  8
0-0
  6
JWW_DASHED1
 62
   120
370
     5
100
AcDbLine
 10
515.5255297432489
 20
-367.5459480774467
 30
0.0
 11
735.0255297432504
 21
-148.0459480774451
 31
0.0
  0
LINE
  5
294
330
1F
100
AcDbEntity
  8
0-0
  6
JWW_DASHED1
 62
   120
370
     5
100
AcDbLine
 10
515.5255297432411
 20
-357.6464531422384
 30
0.0
 11
735.0255297432453
 21
-138.1464531422343
 31
0.0
  0
LINE
  5
295
330
1F
100
AcDbEntity
  8
0-0
  6
JWW_DASHED1
 62
   120
370
     5
100
AcDbLine
 10
515.5255297432445
 20
-347.7469582070732
 30
0.0
 11
735.0255297432329
 21
-128.2469582070849
 31
0.0
  0
LINE
  5
296
330
1F
100
AcDbEntity
  8
0-0
  6
JWW_DASHED1
 62
   120
370
     5
100
AcDbLine
 10
515.5255297432509
 20
-337.8474632718501
 30
0.0
 11
735.0255297432368
 21
-118.3474632718643
 31
0.0
  0
LINE
  5
297
330
1F
100
AcDbEntity
  8
0-0
  6
JWW_DASHED1
 62
   120
370
     5
100
AcDbLine
 10
515.5255297432437
 20
-327.9479683366415
 30
0.0
 11
735.0255297432478
 21
-108.4479683366373
 31
0.0
  0
LINE
  5
298
330
1F
100
AcDbEntity
  8
0-0
  6
JWW_DASHED1
 62
   120
370
     5
100
AcDbLine
 10
515.5255297432309
 20
-318.0484734014924
 30
0.0
 11
735.0255297432351
 21
-98.54847340148827
 31
0.0
  0
LINE
  5
299
330
1F
100
AcDbEntity
  8
0-0
  6
JWW_DASHED1
 62
   120
370
     5
100
AcDbLine
 10
515.5255297432535
 20
-308.1489784662535
 30
0.0
 11
735.0255297432393
 21
-88.64897846626765
 31
0.0
  0
LINE
  5
29A
330
1F
100
AcDbEntity
  8
0-0
  6
JWW_DASHED1
 62
   120
370
     5
100
AcDbLine
 10
515.5255297432462
 20
-298.2494835310443
 30
0.0
 11
735.0255297432504
 21
-78.74948353104021
 31
0.0
  0
LINE
  5
29B
330
1F
100
AcDbEntity
  8
0-0
  6
JWW_DASHED1
 62
   120
370
     5
100
AcDbLine
 10
515.5255297432335
 20
-288.3499885958954
 30
0.0
 11
735.0255297432376
 21
-68.84998859589079
 31
0.0
  0
LINE
  5
29C
330
1F
100
AcDbEntity
  8
0-0
  6
JWW_DASHED1
 62
   120
370
     5
100
AcDbLine
 10
515.5255297432557
 20
-278.4504936606569
 30
0.0
 11
735.025529743241
 21
-58.95049366067104
 31
0.0
  0
LINE
  5
29D
330
1F
100
AcDbEntity
  8
0-0
  6
JWW_DASHED1
 62
   120
370
     5
100
AcDbLine
 10
515.5255297432471
 20
-268.5509987254491
 30
0.0
 11
735.0255297432487
 21
-49.05099872544744
 31
0.0
  0
LINE
  5
29E
330
1F
100
AcDbEntity
  8
0-0
  6
JWW_DASHED1
 62
   120
370
     5
100
AcDbLine
 10
515.525529743236
 20
-258.6515037902983
 30
0.0
 11
735.0255297432402
 21
-39.15150379029375
 31
0.0
  0
LINE
  5
29F
330
1F
100
AcDbEntity
  8
0-0
  6
JWW_DASHED1
 62
   120
370
     5
100
AcDbLine
 10
515.5255297432437
 20
-248.7520088550743
 30
0.0
 11
735.025529743232
 21
-29.25200885508593
 31
0.0
  0
LINE
  5
2A0
330
1F
100
AcDbEntity
  8
0-0
  6
JWW_DASHED1
 62
   120
370
     5
100
AcDbLine
 10
515.5255297432493
 20
-238.8525139198524
 30
0.0
 11
735.0255297432509
 21
-19.35251391985081
 31
0.0
  0
LINE
  5
2A1
330
1F
100
AcDbEntity
  8
0-0
  6
JWW_DASHED1
 62
   120
370
     5
100
AcDbLine
 10
515.5255297432386
 20
-228.9530189847013
 30
0.0
 11
735.0255297432427
 21
-9.453018984697133
 31
0.0
  0
LINE
  5
2A2
330
1F
100
AcDbEntity
  8
0-0
  6
JWW_DASHED1
 62
   120
370
     5
100
AcDbLine
 10
515.5255297432301
 20
-219.053524049493
 30
0.0
 11
735.0255297432346
 21
0.4464759505111204
 31
0.0
  0
LINE
  5
2A3
330
1F
100
AcDbEntity
  8
0-0
  6
JWW_DASHED1
 62
   120
370
     5
100
AcDbLine
 10
515.5255297432514
 20
-209.1540291142557
 30
0.0
 11
735.0255297432373
 21
10.34597088573003
 31
0.0
  0
LINE
  5
2A4
330
1F
100
AcDbEntity
  8
0-0
  6
JWW_DASHED1
 62
   120
370
     5
100
AcDbLine
 10
515.5255297432411
 20
-199.2545341791042
 30
0.0
 11
735.0255297432453
 21
20.24546582090034
 31
0.0
  0
LINE
  5
2A5
330
1F
100
AcDbEntity
  8
0-0
  6
JWW_DASHED1
 62
   120
370
     5
100
AcDbLine
 10
515.5255297432326
 20
-189.3550392438964
 30
0.0
 11
735.0255297432373
 21
30.14496075610817
 31
0.0
  0
LINE
  5
2A6
330
1F
100
AcDbEntity
  8
0-0
  6
JWW_DASHED1
 62
   120
370
     5
100
AcDbLine
 10
515.5255297432535
 20
-179.4555443086587
 30
0.0
 11
735.0255297432393
 21
40.04445569132665
 31
0.0
  0
LINE
  5
2A7
330
1F
100
AcDbEntity
  8
0-0
  6
JWW_DASHED1
 62
   120
370
     5
100
AcDbLine
 10
515.5255297432437
 20
-169.5560493735072
 30
0.0
 11
735.0255297432478
 21
49.94395062649696
 31
0.0
  0
LINE
  5
2A8
330
1F
100
AcDbEntity
  8
0-0
  6
JWW_DASHED1
 62
   120
370
     5
100
AcDbLine
 10
515.5255297432352
 20
-159.6565544382994
 30
0.0
 11
735.0255297432398
 21
59.84344556170522
 31
0.0
  0
LINE
  5
2A9
330
1F
100
AcDbEntity
  8
0-0
  6
JWW_DASHED1
 62
   120
370
     5
100
AcDbLine
 10
515.5255297432557
 20
-149.7570595030625
 30
0.0
 11
735.0255297432415
 21
69.74294049692328
 31
0.0
  0
LINE
  5
2AA
330
1F
100
AcDbEntity
  8
0-0
  6
JWW_DASHED1
 62
   120
370
     5
100
AcDbLine
 10
515.5255297432462
 20
-139.8575645679101
 30
0.0
 11
735.0255297432504
 21
79.64243543209402
 31
0.0
  0
LINE
  5
2AB
330
1F
100
AcDbEntity
  8
0-0
  6
JWW_DASHED1
 62
   120
370
     5
100
AcDbLine
 10
515.5255297432377
 20
-129.9580696327019
 30
0.0
 11
735.0255297432423
 21
89.54193036730227
 31
0.0
  0
LINE
  5
2AC
330
1F
100
AcDbEntity
  8
0-0
  6
JWW_DASHED1
 62
   120
370
     5
100
AcDbLine
 10
515.5255297432454
 20
-120.0585746974783
 30
0.0
 11
735.0255297432338
 21
99.44142530251052
 31
0.0
  0
LINE
  5
2AD
330
1F
100
AcDbEntity
  8
0-0
  6
JWW_DASHED1
 62
   120
370
     5
100
AcDbLine
 10
515.5255297432454
 20
-110.1590797623165
 30
0.0
 11
735.025529743247
 21
109.3409202376851
 31
0.0
  0
LINE
  5
2AE
330
1F
100
AcDbEntity
  8
0-0
  6
JWW_DASHED1
 62
   120
370
     5
100
AcDbLine
 10
515.5255297432403
 20
-100.2595848271048
 30
0.0
 11
735.0255297432449
 21
119.2404151728993
 31
0.0
  0
LINE
  5
2AF
330
1F
100
AcDbEntity
  8
0-0
  6
JWW_DASHED1
 62
   120
370
     5
100
AcDbLine
 10
515.5255297432323
 20
-90.360089891897
 30
0.0
 11
735.0255297432368
 21
129.1399101081076
 31
0.0
  0
LINE
  5
2B0
330
1F
100
AcDbEntity
  8
0-0
  6
JWW_DASHED1
 62
   120
370
     5
100
AcDbLine
 10
515.5255297432471
 20
-80.46059495671987
 30
0.0
 11
735.0255297432487
 21
139.0394050432813
 31
0.0
  0
LINE
  5
2B1
330
1F
100
AcDbEntity
  8
0-0
  6
JWW_DASHED1
 62
   120
370
     5
100
AcDbLine
 10
515.5255297432428
 20
-70.56110002150821
 30
0.0
 11
735.0255297432475
 21
148.9388999784964
 31
0.0
  0
LINE
  5
2B2
330
1F
100
AcDbEntity
  8
0-0
  6
JWW_DASHED1
 62
   120
370
     5
100
AcDbLine
 10
515.5255297432348
 20
-60.66160508629996
 30
0.0
 11
735.0255297432393
 21
158.8383949137046
 31
0.0
  0
LINE
  5
2B3
330
1F
100
AcDbEntity
  8
0-0
  6
JWW_DASHED1
 62
   120
370
     5
100
AcDbLine
 10
515.5255297432496
 20
-50.76211015112326
 30
0.0
 11
735.0255297432351
 21
168.7378898488626
 31
0.0
  0
LINE
  5
2B4
330
1F
100
AcDbEntity
  8
0-0
  6
JWW_DASHED1
 62
   120
370
     5
100
AcDbLine
 10
515.5255297432454
 20
-40.86261521591117
 30
0.0
 11
735.0255297432495
 21
178.6373847840934
 31
0.0
  0
LINE
  5
2B5
330
1F
100
AcDbEntity
  8
0-0
  6
JWW_DASHED1
 62
   120
370
     5
100
AcDbLine
 10
515.5255297432373
 20
-30.96312028070292
 30
0.0
 11
735.0255297432415
 21
188.5368797193017
 31
0.0
  0
LINE
  5
2B6
330
1F
100
AcDbEntity
  8
0-0
  6
JWW_DASHED1
 62
   120
370
     5
100
AcDbLine
 10
515.5255297432514
 20
-21.06362534552664
 30
0.0
 11
735.0255297432373
 21
198.4363746544592
 31
0.0
  0
LINE
  5
2B7
330
1F
100
AcDbEntity
  8
0-0
  6
JWW_DASHED1
 62
   120
370
     5
100
AcDbLine
 10
515.5255297432433
 20
-11.16413041031881
 30
0.0
 11
735.0255297432449
 21
208.3358695896828
 31
0.0
  0
LINE
  5
2B8
330
1F
100
AcDbEntity
  8
0-0
  6
JWW_DASHED1
 62
   120
370
     5
100
AcDbLine
 10
515.5255297432399
 20
-1.264635475105871
 30
0.0
 11
735.0255297432441
 21
218.2353645248983
 31
0.0
  0
LINE
  5
2B9
330
1F
100
AcDbEntity
  8
0-0
  6
JWW_DASHED1
 62
   120
370
     5
100
AcDbLine
 10
515.525529743254
 20
8.63485946006998
 30
0.0
 11
735.0255297432393
 21
228.1348594600558
 31
0.0
  0
LINE
  5
2BA
330
1F
100
AcDbEntity
  8
0-0
  6
JWW_DASHED1
 62
   120
370
     5
100
AcDbLine
 10
515.5255297432454
 20
18.53435439527781
 30
0.0
 11
735.025529743247
 21
238.0343543952794
 31
0.0
  0
LINE
  5
2BB
330
1F
100
AcDbEntity
  8
0-0
  6
JWW_DASHED1
 62
   120
370
     5
100
AcDbLine
 10
515.525529743242
 20
28.43384933049075
 30
0.0
 11
735.0255297432466
 21
247.9338493304953
 31
0.0
  0
LINE
  5
2BC
330
1F
100
AcDbEntity
  8
0-0
  6
JWW_DASHED1
 62
   120
370
     5
100
AcDbLine
 10
515.5255297432454
 20
38.33334426565595
 30
0.0
 11
735.0255297432338
 21
257.8333442656447
 31
0.0
  0
LINE
  5
2BD
330
1F
100
AcDbEntity
  8
0-0
  6
JWW_DASHED1
 62
   120
370
     5
100
AcDbLine
 10
515.5255297432475
 20
48.23283920087443
 30
0.0
 11
735.0255297432334
 21
267.7328392008602
 31
0.0
  0
LINE
  5
2BE
330
1F
100
AcDbEntity
  8
0-0
  6
JWW_DASHED1
 62
   120
370
     5
100
AcDbLine
 10
515.5255297432445
 20
58.1323341360878
 30
0.0
 11
735.0255297432491
 21
277.6323341360924
 31
0.0
  0
LINE
  5
2BF
330
1F
100
AcDbEntity
  8
0-0
  6
JWW_DASHED1
 62
   120
370
     5
100
AcDbLine
 10
515.5255297432323
 20
68.03182907123723
 30
0.0
 11
735.0255297432368
 21
287.5318290712418
 31
0.0
  0
LINE
  5
2C0
330
1F
100
AcDbEntity
  8
0-0
  6
JWW_DASHED1
 62
   120
370
     5
100
AcDbLine
 10
515.5255297432496
 20
77.93132400647106
 30
0.0
 11
735.0255297432354
 21
297.4313240064569
 31
0.0
  0
LINE
  5
2C1
330
1F
100
AcDbEntity
  8
0-0
  6
JWW_DASHED1
 62
   120
370
     5
100
AcDbLine
 10
515.5255297432471
 20
87.83081894168485
 30
0.0
 11
735.0255297432517
 21
307.3308189416894
 31
0.0
  0
LINE
  5
2C2
330
1F
100
AcDbEntity
  8
0-0
  6
JWW_DASHED1
 62
   120
370
     5
100
AcDbLine
 10
515.5255297432348
 20
97.73031387683427
 30
0.0
 11
735.0255297432393
 21
317.2303138768388
 31
0.0
  0
LINE
  5
2C3
330
1F
100
AcDbEntity
  8
0-0
  6
JWW_DASHED1
 62
   120
370
     5
100
AcDbLine
 10
515.5255297432518
 20
107.6298088120677
 30
0.0
 11
735.0255297432376
 21
327.1298088120535
 31
0.0
  0
LINE
  5
2C4
330
1F
100
AcDbEntity
  8
0-0
  6
JWW_DASHED1
 62
   120
370
     5
100
AcDbLine
 10
515.5255297432433
 20
117.5293037472759
 30
0.0
 11
735.0255297432449
 21
337.0293037472774
 31
0.0
  0
LINE
  5
2C5
330
1F
100
AcDbEntity
  8
0-0
  6
JWW_DASHED1
 62
   120
370
     5
100
AcDbLine
 10
515.5255297432373
 20
127.4287986824313
 30
0.0
 11
735.0255297432419
 21
346.9287986824358
 31
0.0
  0
LINE
  5
2C6
330
1F
100
AcDbEntity
  8
0-0
  6
JWW_DASHED1
 62
   120
370
     5
100
AcDbLine
 10
515.525529743254
 20
137.3282936176643
 30
0.0
 11
735.0255297432398
 21
356.8282936176501
 31
0.0
  0
LINE
  5
2C7
330
1F
100
AcDbEntity
  8
0-0
  6
JWW_DASHED1
 62
   120
370
     5
100
AcDbLine
 10
515.5255297432437
 20
147.2277885528431
 30
0.0
 11
735.0255297432453
 21
366.7277885528446
 31
0.0
  0
LINE
  5
2C8
330
1F
100
AcDbEntity
  8
0-0
  6
JWW_DASHED1
 62
   120
370
     5
100
AcDbLine
 10
515.5255297432399
 20
157.1272834880284
 30
0.0
 11
735.0255297432444
 21
376.6272834880325
 31
0.0
  0
LINE
  5
2C9
330
1F
100
AcDbEntity
  8
0-0
  6
JWW_DASHED1
 62
   120
370
     5
100
AcDbLine
 10
515.5255297432471
 20
167.0267784232524
 30
0.0
 11
735.0255297432359
 21
386.5267784232407
 31
0.0
  0
LINE
  5
2CA
330
1F
100
AcDbEntity
  8
0-0
  6
JWW_DASHED1
 62
   120
370
     5
100
AcDbLine
 10
515.5255297432454
 20
176.9262733584397
 30
0.0
 11
735.0255297432475
 21
396.4262733584408
 31
0.0
  0
LINE
  5
2CB
330
1F
100
AcDbEntity
  8
0-0
  6
JWW_DASHED1
 62
   120
370
     5
100
AcDbLine
 10
515.5255297432425
 20
186.8257682936254
 30
0.0
 11
735.0255297432466
 21
406.3257682936296
 31
0.0
  0
LINE
  5
2CC
330
1F
100
AcDbEntity
  8
0-0
  6
JWW_DASHED1
 62
   120
370
     5
100
AcDbLine
 10
515.5255297432338
 20
196.7252632288337
 30
0.0
 11
735.0255297432385
 21
416.2252632288377
 31
0.0
  0
LINE
  5
2CD
330
1F
100
AcDbEntity
  8
0-0
  6
JWW_DASHED1
 62
   120
370
     5
100
AcDbLine
 10
515.5255297432454
 20
206.6247581640069
 30
0.0
 11
735.025529743247
 21
426.124758164008
 31
0.0
  0
LINE
  5
2CE
330
1F
100
AcDbEntity
  8
0-0
  6
JWW_DASHED1
 62
   120
370
     5
100
AcDbLine
 10
515.525529743245
 20
216.5242530992224
 30
0.0
 11
735.0255297432491
 21
436.0242530992266
 31
0.0
  0
LINE
  5
2CF
330
1F
100
AcDbEntity
  8
0-0
  6
JWW_DASHED1
 62
   120
370
     5
100
AcDbLine
 10
515.5255297432369
 20
226.4237480344307
 30
0.0
 11
735.025529743241
 21
445.9237480344348
 31
0.0
  0
LINE
  5
2D0
330
1F
100
AcDbEntity
  8
0-0
  6
JWW_DASHED1
 62
   120
370
     5
100
AcDbLine
 10
515.5255297432475
 20
236.3232429696036
 30
0.0
 11
735.0255297432334
 21
455.8232429695889
 31
0.0
  0
LINE
  5
2D1
330
1F
100
AcDbEntity
  8
0-0
  6
JWW_DASHED1
 62
   120
370
     5
100
AcDbLine
 10
515.5255297432471
 20
246.2227379048195
 30
0.0
 11
735.0255297432517
 21
465.7227379048236
 31
0.0
  0
LINE
  5
2D2
330
1F
100
AcDbEntity
  8
0-0
  6
JWW_DASHED1
 62
   120
370
     5
100
AcDbLine
 10
515.5255297432391
 20
256.1222328400273
 30
0.0
 11
735.0255297432436
 21
475.6222328400318
 31
0.0
  0
LINE
  5
2D3
330
1F
100
AcDbEntity
  8
0-0
  6
JWW_DASHED1
 62
   120
370
     5
100
AcDbLine
 10
515.5255297432501
 20
266.0217277752002
 30
0.0
 11
735.0255297432359
 21
485.5217277751856
 31
0.0
  0
LINE
  5
2D4
330
1F
100
AcDbEntity
  8
0-0
  6
JWW_DASHED1
 62
   120
370
     5
100
AcDbLine
 10
515.5255297432416
 20
275.921222710408
 30
0.0
 11
735.0255297432432
 21
495.4212227104096
 31
0.0
  0
LINE
  5
2D5
330
1F
100
AcDbEntity
  8
0-0
  6
JWW_DASHED1
 62
   120
370
     5
100
AcDbLine
 10
515.5255297432416
 20
285.8207176456244
 30
0.0
 11
735.0255297432461
 21
505.3207176456289
 31
0.0
  0
LINE
  5
2D6
330
1F
100
AcDbEntity
  8
0-0
  6
JWW_DASHED1
 62
   120
370
     5
100
AcDbLine
 10
515.5255297432523
 20
295.7202125807968
 30
0.0
 11
735.0255297432376
 21
515.2202125807822
 31
0.0
  0
LINE
  5
2D7
330
1F
100
AcDbEntity
  8
0-0
  6
JWW_DASHED1
 62
   120
370
     5
100
AcDbLine
 10
515.5255297432437
 20
305.6197075160046
 30
0.0
 11
735.0255297432453
 21
525.1197075160062
 31
0.0
  0
LINE
  5
2D8
330
1F
100
AcDbEntity
  8
0-0
  6
JWW_DASHED1
 62
   120
370
     5
100
AcDbLine
 10
515.5255297432441
 20
315.5192024512214
 30
0.0
 11
735.0255297432487
 21
535.019202451226
 31
0.0
  0
LINE
  5
2D9
330
1F
100
AcDbEntity
  8
0-0
  6
JWW_DASHED1
 62
   120
370
     5
100
AcDbLine
 10
515.5255297432475
 20
325.4186973863866
 30
0.0
 11
735.0255297432359
 21
544.918697386375
 31
0.0
  0
LINE
  5
2DA
330
1F
100
AcDbEntity
  8
0-0
  6
JWW_DASHED1
 62
   120
370
     5
100
AcDbLine
 10
515.5255297432459
 20
335.3181923216013
 30
0.0
 11
735.0255297432317
 21
554.818192321587
 31
0.0
  0
LINE
  5
2DB
330
1F
100
AcDbEntity
  8
0-0
  6
JWW_DASHED1
 62
   120
370
     5
100
AcDbLine
 10
515.5255297432467
 20
345.2176872568185
 30
0.0
 11
735.0255297432512
 21
564.7176872568226
 31
0.0
  0
LINE
  5
2DC
330
1F
100
AcDbEntity
  8
0-0
  6
JWW_DASHED1
 62
   120
370
     5
100
AcDbLine
 10
515.5255297432343
 20
355.1171821919679
 30
0.0
 11
735.0255297432385
 21
574.617182191972
 31
0.0
  0
LINE
  5
2DD
330
1F
100
AcDbEntity
  8
0-0
  6
JWW_DASHED1
 62
   120
370
     5
100
AcDbLine
 10
515.525529743248
 20
365.0166771271979
 30
0.0
 11
735.0255297432338
 21
584.5166771271837
 31
0.0
  0
LINE
  5
2DE
330
1F
100
AcDbEntity
  8
0-0
  6
JWW_DASHED1
 62
   120
370
     5
100
AcDbLine
 10
515.5255297432493
 20
374.9161720624155
 30
0.0
 11
735.0255297432539
 21
594.4161720624201
 31
0.0
  0
LINE
  5
2DF
330
1F
100
AcDbEntity
  8
0-0
  6
JWW_DASHED1
 62
   120
370
     5
100
AcDbLine
 10
515.5255297432369
 20
384.8156669975648
 30
0.0
 11
735.025529743241
 21
604.3156669975691
 31
0.0
  0
LINE
  5
2E0
330
1F
100
AcDbEntity
  8
0-0
  6
JWW_DASHED1
 62
   120
370
     5
100
AcDbLine
 10
515.5255297432501
 20
394.7151619327945
 30
0.0
 11
735.0255297432359
 21
614.2151619327803
 31
0.0
  0
LINE
  5
2E1
330
1F
100
AcDbEntity
  8
0-0
  6
JWW_DASHED1
 62
   120
370
     5
100
AcDbLine
 10
515.525529743242
 20
404.6146568680027
 30
0.0
 11
735.0255297432436
 21
624.1146568680043
 31
0.0
  0
LINE
  5
2E2
330
1F
100
AcDbEntity
  8
0-0
  6
JWW_DASHED1
 62
   120
370
     5
100
AcDbLine
 10
515.5255297432391
 20
414.514151803162
 30
0.0
 11
735.0255297432436
 21
634.0141518031661
 31
0.0
  0
LINE
  5
2E3
330
1F
100
AcDbEntity
  8
0-0
  6
JWW_DASHED1
 62
   120
370
     5
100
AcDbLine
 10
515.5255297432523
 20
424.413646738391
 30
0.0
 11
735.025529743238
 21
643.9136467383768
 31
0.0
  0
LINE
  5
2E4
330
1F
100
AcDbEntity
  8
0-0
  6
JWW_DASHED1
 62
   120
370
     5
100
AcDbLine
 10
515.5255297432437
 20
434.3131416735989
 30
0.0
 11
735.0255297432453
 21
653.8131416736005
 31
0.0
  0
LINE
  5
2E5
330
1F
100
AcDbEntity
  8
0-0
  6
JWW_DASHED1
 62
   120
370
     5
100
AcDbLine
 10
515.525529743242
 20
444.2126366087589
 30
0.0
 11
735.0255297432461
 21
663.7126366087632
 31
0.0
  0
LINE
  5
2E6
330
1F
100
AcDbEntity
  8
0-0
  6
JWW_DASHED1
 62
   120
370
     5
100
AcDbLine
 10
515.5255297432335
 20
454.1121315439668
 30
0.0
 11
735.0255297432376
 21
673.612131543971
 31
0.0
  0
LINE
  5
2E7
330
1F
100
AcDbEntity
  8
0-0
  6
JWW_DASHED1
 62
   120
370
     5
100
AcDbLine
 10
515.5255297432462
 20
464.011626479196
 30
0.0
 11
735.025529743232
 21
683.5116264791814
 31
0.0
  0
LINE
  5
2E8
330
1F
100
AcDbEntity
  8
0-0
  6
JWW_DASHED1
 62
   120
370
     5
100
AcDbLine
 10
515.5255297432441
 20
473.911121414356
 30
0.0
 11
735.0255297432487
 21
693.4111214143602
 31
0.0
  0
LINE
  5
2E9
330
1F
100
AcDbEntity
  8
0-0
  6
JWW_DASHED1
 62
   120
370
     5
100
AcDbLine
 10
515.525529743236
 20
483.8106163495639
 30
0.0
 11
735.0255297432402
 21
703.310616349568
 31
0.0
  0
LINE
  5
2EA
330
1F
100
AcDbEntity
  8
0-0
  6
JWW_DASHED1
 62
   120
370
     5
100
AcDbLine
 10
515.5255297432484
 20
493.7101112847926
 30
0.0
 11
735.0255297432342
 21
713.210111284778
 31
0.0
  0
LINE
  5
2EB
330
1F
100
AcDbEntity
  8
0-0
  6
JWW_DASHED1
 62
   120
370
     5
100
AcDbLine
 10
515.5255297432467
 20
503.6096062199527
 30
0.0
 11
735.0255297432512
 21
723.1096062199573
 31
0.0
  0
LINE
  5
2EC
330
1F
100
AcDbEntity
  8
0-0
  6
JWW_DASHED1
 62
   120
370
     5
100
AcDbLine
 10
515.5255297432386
 20
513.5091011551609
 30
0.0
 11
735.0255297432427
 21
733.0091011551651
 31
0.0
  0
LINE
  5
2ED
330
1F
100
AcDbEntity
  8
0-0
  6
JWW_DASHED1
 62
   120
370
     5
100
AcDbLine
 10
515.5255297432506
 20
523.4085960903892
 30
0.0
 11
735.0255297432363
 21
742.908596090375
 31
0.0
  0
LINE
  5
2EE
330
1F
100
AcDbEntity
  8
0-0
  6
JWW_DASHED1
 62
   120
370
     5
100
AcDbLine
 10
515.5255297432493
 20
533.3080910255497
 30
0.0
 11
735.0255297432539
 21
752.8080910255543
 31
0.0
  0
LINE
  5
2EF
330
1F
100
AcDbEntity
  8
0-0
  6
JWW_DASHED1
 62
   120
370
     5
100
AcDbLine
 10
515.5255297432411
 20
543.207585960758
 30
0.0
 11
735.0255297432453
 21
762.7075859607621
 31
0.0
  0
LINE
  5
2F0
330
1F
100
AcDbEntity
  8
0-0
  6
JWW_DASHED1
 62
   120
370
     5
100
AcDbLine
 10
515.5255297432489
 20
553.107080895982
 30
0.0
 11
735.0255297432373
 21
772.6070808959704
 31
0.0
  0
LINE
  5
2F1
330
1F
100
AcDbEntity
  8
0-0
  6
JWW_DASHED1
 62
   120
370
     5
100
AcDbLine
 10
515.5255297432399
 20
563.0065758311347
 30
0.0
 11
735.0255297432415
 21
782.5065758311363
 31
0.0
  0
LINE
  5
2F2
330
1F
100
AcDbEntity
  8
0-0
  6
JWW_DASHED1
 62
   120
370
     5
100
AcDbLine
 10
515.5255297432437
 20
572.906070766355
 30
0.0
 11
735.0255297432478
 21
792.4060707663592
 31
0.0
  0
LINE
  5
2F3
330
1F
100
AcDbEntity
  8
0-0
  6
JWW_DASHED1
 62
   120
370
     5
100
AcDbLine
 10
515.5255297432357
 20
582.8055657015628
 30
0.0
 11
735.0255297432398
 21
802.3055657015674
 31
0.0
  0
LINE
  5
2F4
330
1F
100
AcDbEntity
  8
0-0
  6
JWW_DASHED1
 62
   120
370
     5
100
AcDbLine
 10
515.525529743242
 20
592.7050606367314
 30
0.0
 11
735.0255297432436
 21
812.205060636733
 31
0.0
  0
LINE
  5
2F5
330
1F
100
AcDbEntity
  8
0-0
  6
JWW_DASHED1
 62
   120
370
     5
100
AcDbLine
 10
515.5255297432462
 20
602.6045555719521
 30
0.0
 11
735.0255297432504
 21
822.1045555719562
 31
0.0
  0
LINE
  5
2F6
330
1F
100
AcDbEntity
  8
0-0
  6
JWW_DASHED1
 62
   120
370
     5
100
AcDbLine
 10
515.5255297432377
 20
612.50405050716
 30
0.0
 11
735.0255297432423
 21
832.0040505071645
 31
0.0
  0
LINE
  5
2F7
330
1F
100
AcDbEntity
  8
0-0
  6
JWW_DASHED1
 62
   120
370
     5
100
AcDbLine
 10
515.5255297432441
 20
622.4035454423281
 30
0.0
 11
735.02552974323
 21
841.9035454423139
 31
0.0
  0
LINE
  5
2F8
330
1F
100
AcDbEntity
  8
0-0
  6
JWW_DASHED1
 62
   120
370
     5
100
AcDbLine
 10
515.5255297432489
 20
632.3030403775487
 30
0.0
 11
735.025529743253
 21
851.8030403775533
 31
0.0
  0
LINE
  5
2F9
330
1F
100
AcDbEntity
  8
0-0
  6
JWW_DASHED1
 62
   120
370
     5
100
AcDbLine
 10
515.5255297432403
 20
642.2025353127569
 30
0.0
 11
735.0255297432449
 21
861.7025353127614
 31
0.0
  0
LINE
  5
2FA
330
1F
100
AcDbEntity
  8
0-0
  6
JWW_DASHED1
 62
   120
370
     5
100
AcDbLine
 10
515.5255297432462
 20
652.1020302479247
 30
0.0
 11
727.3517146110947
 21
863.928215115773
 31
0.0
  0
LINE
  5
2FB
330
1F
100
AcDbEntity
  8
0-0
  6
JWW_DASHED1
 62
   120
370
     5
100
AcDbLine
 10
515.5255297432514
 20
662.0015251831462
 30
0.0
 11
717.4522196758558
 21
863.9282151157506
 31
0.0
  0
LINE
  5
2FC
330
1F
100
AcDbEntity
  8
0-0
  6
JWW_DASHED1
 62
   120
370
     5
100
AcDbLine
 10
515.5255297432428
 20
671.901020118354
 30
0.0
 11
707.5527247406479
 21
863.9282151157591
 31
0.0
  0
LINE
  5
2FD
330
1F
100
AcDbEntity
  8
0-0
  6
JWW_DASHED1
 62
   120
370
     5
100
AcDbLine
 10
515.5255297432484
 20
681.8005150535213
 30
0.0
 11
697.6532298054964
 21
863.9282151157694
 31
0.0
  0
LINE
  5
2FE
330
1F
100
AcDbEntity
  8
0-0
  6
JWW_DASHED1
 62
   120
370
     5
100
AcDbLine
 10
515.5255297432403
 20
691.700009988729
 30
0.0
 11
687.7537348702754
 21
863.9282151157646
 31
0.0
  0
LINE
  5
2FF
330
1F
100
AcDbEntity
  8
0-0
  6
JWW_DASHED1
 62
   120
370
     5
100
AcDbLine
 10
515.5255297432454
 20
701.599504923951
 30
0.0
 11
677.8542399350517
 21
863.9282151157574
 31
0.0
  0
LINE
  5
300
330
1F
100
AcDbEntity
  8
0-0
  6
JWW_DASHED1
 62
   120
370
     5
100
AcDbLine
 10
515.5255297432489
 20
711.4989998591158
 30
0.0
 11
667.9547449998981
 21
863.9282151157655
 31
0.0
  0
LINE
  5
301
330
1F
100
AcDbEntity
  8
0-0
  6
JWW_DASHED1
 62
   120
370
     5
100
AcDbLine
 10
515.5255297432425
 20
721.3984947943258
 30
0.0
 11
658.0552500646899
 21
863.928215115773
 31
0.0
  0
LINE
  5
302
330
1F
100
AcDbEntity
  8
0-0
  6
JWW_DASHED1
 62
   120
370
     5
100
AcDbLine
 10
515.525529743248
 20
731.2979897295481
 30
0.0
 11
648.1557551294555
 21
863.9282151157557
 31
0.0
  0
LINE
  5
303
330
1F
100
AcDbEntity
  8
0-0
  6
JWW_DASHED1
 62
   120
370
     5
100
AcDbLine
 10
515.5255297432352
 20
741.1974846646971
 30
0.0
 11
638.2562601943066
 21
863.9282151157685
 31
0.0
  0
LINE
  5
304
330
1F
100
AcDbEntity
  8
0-0
  6
JWW_DASHED1
 62
   120
370
     5
100
AcDbLine
 10
515.5255297432445
 20
751.0969795999229
 30
0.0
 11
628.356765259091
 21
863.9282151157694
 31
0.0
  0
LINE
  5
305
330
1F
100
AcDbEntity
  8
0-0
  6
JWW_DASHED1
 62
   120
370
     5
100
AcDbLine
 10
515.5255297432506
 20
760.9964745351451
 30
0.0
 11
618.4572703238593
 21
863.928215115754
 31
0.0
  0
LINE
  5
306
330
1F
100
AcDbEntity
  8
0-0
  6
JWW_DASHED1
 62
   120
370
     5
100
AcDbLine
 10
515.5255297432382
 20
770.8959694702942
 30
0.0
 11
608.5577753887104
 21
863.9282151157668
 31
0.0
  0
LINE
  5
307
330
1F
100
AcDbEntity
  8
0-0
  6
JWW_DASHED1
 62
   120
370
     5
100
AcDbLine
 10
515.5255297432467
 20
780.7954644055193
 30
0.0
 11
598.6582804534931
 21
863.928215115766
 31
0.0
  0
LINE
  5
308
330
1F
100
AcDbEntity
  8
0-0
  6
JWW_DASHED1
 62
   120
370
     5
100
AcDbLine
 10
515.5255297432489
 20
790.6949593406833
 30
0.0
 11
588.758785518322
 21
863.9282151157565
 31
0.0
  0
LINE
  5
309
330
1F
100
AcDbEntity
  8
0-0
  6
JWW_DASHED1
 62
   120
370
     5
100
AcDbLine
 10
515.5255297432403
 20
800.5944542758912
 30
0.0
 11
578.8592905831142
 21
863.928215115765
 31
0.0
  0
LINE
  5
30A
330
1F
100
AcDbEntity
  8
0-0
  6
JWW_DASHED1
 62
   120
370
     5
100
AcDbLine
 10
515.5255297432489
 20
810.493949211116
 30
0.0
 11
568.9597956478945
 21
863.9282151157616
 31
0.0
  0
LINE
  5
30B
330
1F
100
AcDbEntity
  8
0-0
  6
JWW_DASHED1
 62
   120
370
     5
100
AcDbLine
 10
515.5255297432514
 20
820.3934441462804
 30
0.0
 11
559.0603007127258
 21
863.9282151157548
 31
0.0
  0
LINE
  5
30C
330
1F
100
AcDbEntity
  8
0-0
  6
JWW_DASHED1
 62
   120
370
     5
100
AcDbLine
 10
515.5255297432428
 20
830.2929390814883
 30
0.0
 11
549.160805777518
 21
863.9282151157634
 31
0.0
  0
LINE
  5
30D
330
1F
100
AcDbEntity
  8
0-0
  6
JWW_DASHED1
 62
   120
370
     5
100
AcDbLine
 10
515.5255297432506
 20
840.1924340167122
 30
0.0
 11
539.2613108422966
 21
863.9282151157582
 31
0.0
  0
LINE
  5
30E
330
1F
100
AcDbEntity
  8
0-0
  6
JWW_DASHED1
 62
   120
370
     5
100
AcDbLine
 10
515.5255297432382
 20
850.0919289518616
 30
0.0
 11
529.3618159071458
 21
863.9282151157694
 31
0.0
  0
LINE
  5
30F
330
1F
100
AcDbEntity
  8
0-0
  6
JWW_DASHED1
 62
   120
370
     5
100
AcDbLine
 10
515.5255297432454
 20
859.9914238870853
 30
0.0
 11
519.4623209719218
 21
863.9282151157616
 31
0.0
  0
LINE
  5
310
330
1F
100
AcDbEntity
  8
0-0
  6
Continuous
 62
     7
370
     9
100
AcDbLine
 10
511.5255297432209
 20
867.9282151157626
 30
0.0
 11
739.0255297432391
 21
867.9282151157626
 31
0.0
  0
LINE
  5
311
330
1F
100
AcDbEntity
  8
0-0
  6
Continuous
 62
    92
370
    13
100
AcDbLine
 10
515.5255297432445
 20
863.9282151157628
 30
0.0
 11
735.0255297432427
 21
863.9282151157628
 31
0.0
  0
LINE
  5
312
330
1F
100
AcDbEntity
  8
0-0
  6
Continuous
 62
     7
370
     9
100
AcDbLine
 10
739.0255297432391
 20
-1264.071784884238
 30
0.0
 11
511.5255297432209
 21
-1264.071784884238
 31
0.0
  0
LINE
  5
313
330
1F
100
AcDbEntity
  8
0-0
  6
Continuous
 62
    92
370
    13
100
AcDbLine
 10
735.0255297432427
 20
-1260.071784884237
 30
0.0
 11
515.5255297432445
 21
-1260.071784884237
 31
0.0
  0
LINE
  5
314
330
1F
100
AcDbEntity
  8
0-0
  6
Continuous
 62
     7
370
     9
100
AcDbLine
 10
-279.4744702567555
 20
867.9282151157626
 30
0.0
 11
-51.97447025676453
 21
867.9282151157626
 31
0.0
  0
LINE
  5
315
330
1F
100
AcDbEntity
  8
0-0
  6
Continuous
 62
    92
370
    13
100
AcDbLine
 10
-275.4744702567591
 20
863.9282151157628
 30
0.0
 11
-55.9744702567609
 21
863.9282151157628
 31
0.0
  0
LINE
  5
316
330
1F
100
AcDbEntity
  8
寸法
  6
Continuous
 62
   120
370
     5
100
AcDbLine
 10
-1297.474470256759
 20
-1360.071784884238
 30
0.0
 11
-847.474470256759
 21
-1360.071784884238
 31
0.0
  0
LINE
  5
317
330
1F
100
AcDbEntity
  8
寸法
  6
Continuous
 62
   120
370
     5
100
AcDbLine
 10
-797.4744702567567
 20
-2060.071784884238
 30
0.0
 11
-797.4744702567567
 21
-1410.071784884238
 31
0.0
  0
LINE
  5
318
330
1F
100
AcDbEntity
  8
寸法
  6
Continuous
 62
   120
370
     5
100
AcDbLine
 10
-764.9744702567573
 20
-1860.071784884237
 30
0.0
 11
-764.9744702567573
 21
-1410.071784884238
 31
0.0
  0
LINE
  5
319
330
1F
100
AcDbEntity
  8
寸法
  6
Continuous
 62
   120
370
     5
100
AcDbLine
 10
-1297.474470256759
 20
987.4282151157628
 30
0.0
 11
-1297.474470256759
 21
-1360.071784884238
 31
0.0
  0
LINE
  5
31A
330
1F
100
AcDbEntity
  8
寸法
  6
Continuous
 62
   120
370
     5
100
AcDbLine
 10
-1297.474470256759
 20
987.4282151157628
 30
0.0
 11
-847.474470256759
 21
987.4282151157628
 31
0.0
  0
LINE
  5
31B
330
1F
100
AcDbEntity
  8
寸法
  6
Continuous
 62
   120
370
     5
100
AcDbLine
 10
-1097.474470256757
 20
943.9282151157627
 30
0.0
 11
-847.474470256759
 21
943.9282151157627
 31
0.0
  0
LINE
  5
31C
330
1F
100
AcDbEntity
  8
寸法
  6
Continuous
 62
   120
370
     5
100
AcDbLine
 10
-1097.474470256757
 20
-1340.071784884237
 30
0.0
 11
-847.474470256759
 21
-1340.071784884237
 31
0.0
  0
LINE
  5
31D
330
1F
100
AcDbEntity
  8
寸法
  6
Continuous
 62
   120
370
     5
100
AcDbLine
 10
-1097.474470256757
 20
943.9282151157627
 30
0.0
 11
-1097.474470256757
 21
-1340.071784884237
 31
0.0
  0
LWPOLYLINE
  5
31E
330
1F
100
AcDbEntity
  8
寸法
  6
Continuous
 62
     7
370
     9
100
AcDbPolyline
 90
        4
 70
     1
 43
3.0
 10
-1295.974470256759
 20
-1360.071784884238
 42
0.4142135623731
 10
-1297.474470256759
 20
-1358.571784884238
 42
0.4142135623731
 10
-1298.974470256759
 20
-1360.071784884238
 42
0.4142135623731
 10
-1297.474470256759
 20
-1361.571784884238
 42
0.4142135623731
  0
LWPOLYLINE
  5
31F
330
1F
100
AcDbEntity
  8
寸法
  6
Continuous
 62
     7
370
     9
100
AcDbPolyline
 90
        4
 70
     1
 43
3.0
 10
-795.9744702567567
 20
-2060.071784884238
 42
0.4142135623731
 10
-797.4744702567567
 20
-2058.571784884238
 42
0.4142135623731
 10
-798.9744702567567
 20
-2060.071784884238
 42
0.4142135623731
 10
-797.4744702567567
 20
-2061.571784884238
 42
0.4142135623731
  0
LWPOLYLINE
  5
320
330
1F
100
AcDbEntity
  8
寸法
  6
Continuous
 62
     7
370
     9
100
AcDbPolyline
 90
        4
 70
     1
 43
3.0
 10
-763.4744702567573
 20
-1660.071784884237
 42
0.4142135623731
 10
-764.9744702567573
 20
-1658.571784884237
 42
0.4142135623731
 10
-766.4744702567573
 20
-1660.071784884237
 42
0.4142135623731
 10
-764.9744702567573
 20
-1661.571784884237
 42
0.4142135623731
  0
LWPOLYLINE
  5
321
330
1F
100
AcDbEntity
  8
寸法
  6
Continuous
 62
     7
370
     9
100
AcDbPolyline
 90
        4
 70
     1
 43
3.0
 10
-1295.974470256759
 20
987.4282151157628
 42
0.4142135623731
 10
-1297.474470256759
 20
988.9282151157627
 42
0.4142135623731
 10
-1298.974470256759
 20
987.4282151157628
 42
0.4142135623731
 10
-1297.474470256759
 20
985.9282151157628
 42
0.4142135623731
  0
LWPOLYLINE
  5
322
330
1F
100
AcDbEntity
  8
寸法
  6
Continuous
 62
     7
370
     9
100
AcDbPolyline
 90
        4
 70
     1
 43
3.0
 10
-1095.974470256757
 20
943.9282151157627
 42
0.4142135623731
 10
-1097.474470256757
 20
945.4282151157627
 42
0.4142135623731
 10
-1098.974470256757
 20
943.9282151157627
 42
0.4142135623731
 10
-1097.474470256757
 20
942.4282151157627
 42
0.4142135623731
  0
LWPOLYLINE
  5
323
330
1F
100
AcDbEntity
  8
寸法
  6
Continuous
 62
     7
370
     9
100
AcDbPolyline
 90
        4
 70
     1
 43
3.0
 10
-1095.974470256757
 20
-1340.071784884237
 42
0.4142135623731
 10
-1097.474470256757
 20
-1338.571784884237
 42
0.4142135623731
 10
-1098.974470256757
 20
-1340.071784884237
 42
0.4142135623731
 10
-1097.474470256757
 20
-1341.571784884237
 42
0.4142135623731
  0
LINE
  5
324
330
1F
100
AcDbEntity
  8
寸法
  6
Continuous
 62
   120
370
     5
100
AcDbLine
 10
-764.9744702567573
 20
-1660.071784884237
 30
0.0
 11
-370.9744702567575
 21
-1660.071784884237
 31
0.0
  0
LINE
  5
325
330
1F
100
AcDbEntity
  8
寸法
  6
Continuous
 62
   120
370
     5
100
AcDbLine
 10
-370.9744702567575
 20
-1660.071784884237
 30
0.0
 11
-370.9744702567575
 21
-1410.071784884238
 31
0.0
  0
LINE
  5
326
330
1F
100
AcDbEntity
  8
寸法
  6
Continuous
 62
   120
370
     5
100
AcDbLine
 10
-369.9744702567567
 20
-1660.071784884237
 30
0.0
 11
-369.9744702567567
 21
-1410.071784884238
 31
0.0
  0
LINE
  5
327
330
1F
100
AcDbEntity
  8
寸法
  6
Continuous
 62
   120
370
     5
100
AcDbLine
 10
24.02552974324308
 20
-1860.071784884237
 30
0.0
 11
24.02552974324308
 21
-1410.071784884238
 31
0.0
  0
LINE
  5
328
330
1F
100
AcDbEntity
  8
寸法
  6
Continuous
 62
   120
370
     5
100
AcDbLine
 10
26.02552974324126
 20
-1860.071784884237
 30
0.0
 11
26.02552974324126
 21
-1410.071784884238
 31
0.0
  0
LINE
  5
329
330
1F
100
AcDbEntity
  8
寸法
  6
Continuous
 62
   120
370
     5
100
AcDbLine
 10
-797.4744702567567
 20
-2060.071784884238
 30
0.0
 11
847.525529743241
 21
-2060.071784884237
 31
0.0
  0
LINE
  5
32A
330
1F
100
AcDbEntity
  8
寸法
  6
Continuous
 62
   120
370
     5
100
AcDbLine
 10
847.525529743241
 20
-2060.071784884237
 30
0.0
 11
847.525529743241
 21
-1410.071784884237
 31
0.0
  0
LINE
  5
32B
330
1F
100
AcDbEntity
  8
寸法
  6
Continuous
 62
   120
370
     5
100
AcDbLine
 10
26.02552974324126
 20
-1860.071784884237
 30
0.0
 11
815.0255297432416
 21
-1860.071784884237
 31
0.0
  0
LINE
  5
32C
330
1F
100
AcDbEntity
  8
寸法
  6
Continuous
 62
   120
370
     5
100
AcDbLine
 10
815.0255297432416
 20
-1860.071784884237
 30
0.0
 11
815.0255297432416
 21
-1410.071784884238
 31
0.0
  0
LWPOLYLINE
  5
32D
330
1F
100
AcDbEntity
  8
寸法
  6
Continuous
 62
     7
370
     9
100
AcDbPolyline
 90
        4
 70
     1
 43
3.0
 10
849.025529743241
 20
-2060.071784884237
 42
0.4142135623731
 10
847.525529743241
 20
-2058.571784884237
 42
0.4142135623731
 10
846.025529743241
 20
-2060.071784884237
 42
0.4142135623731
 10
847.525529743241
 20
-2061.571784884237
 42
0.4142135623731
  0
LWPOLYLINE
  5
32E
330
1F
100
AcDbEntity
  8
寸法
  6
Continuous
 62
     7
370
     9
100
AcDbPolyline
 90
        4
 70
     1
 43
3.0
 10
816.5255297432416
 20
-1860.071784884237
 42
0.4142135623731
 10
815.0255297432416
 20
-1858.571784884237
 42
0.4142135623731
 10
813.5255297432416
 20
-1860.071784884237
 42
0.4142135623731
 10
815.0255297432416
 20
-1861.571784884237
 42
0.4142135623731
  0
LWPOLYLINE
  5
32F
330
1F
100
AcDbEntity
  8
寸法
  6
Continuous
 62
     7
370
     9
100
AcDbPolyline
 90
        4
 70
     1
 43
3.0
 10
-763.4744702567573
 20
-1860.071784884237
 42
0.4142135623731
 10
-764.9744702567573
 20
-1858.571784884237
 42
0.4142135623731
 10
-766.4744702567573
 20
-1860.071784884237
 42
0.4142135623731
 10
-764.9744702567573
 20
-1861.571784884237
 42
0.4142135623731
  0
LINE
  5
330
330
1F
100
AcDbEntity
  8
寸法
  6
Continuous
 62
   120
370
     5
100
AcDbLine
 10
-764.9744702567573
 20
-1860.071784884237
 30
0.0
 11
24.02552974324308
 21
-1860.071784884237
 31
0.0
  0
MTEXT
  5
331
330
1F
100
AcDbEntity
  8
寸法
  6
Continuous
 62
     7
370
    70
100
AcDbMText
 10
-1112.474470256757
 20
-413.2467848842372
 30
0.0
 40
57.14999999999999
 41
412.5
 46
0.0
 71
     7
 72
     1
  1
{\fＭＳ ゴシック|b0|i0|c128|p49;ＤＨ＝2,284}
 11
6.123031769111886E-17
 21
1.0
 31
0.0
 73
     1
 44
1.0
  0
MTEXT
  5
332
330
1F
100
AcDbEntity
  8
寸法
  6
Continuous
 62
     7
370
    70
100
AcDbMText
 10
-1312.474470256759
 20
-438.9967848842377
 30
0.0
 40
57.15000000000001
 41
487.5
 46
0.0
 71
     7
 72
     1
  1
{\fＭＳ ゴシック|b0|i0|c128|p49;枠外＝2,347.5}
 11
6.123031769111886E-17
 21
1.0
 31
0.0
 73
     1
 44
1.0
  0
MTEXT
  5
333
330
1F
100
AcDbEntity
  8
寸法
  6
Continuous
 62
     7
370
   211
100
AcDbMText
 10
-335.614488622354
 20
-1538.897562273724
 30
0.0
 40
57.15
 41
37.5
 46
0.0
 71
     7
 72
     1
  1
{\fＭＳ ゴシック|b0|i0|c128|p49;1}
 73
     1
 44
1.0
  0
MTEXT
  5
334
330
1F
100
AcDbEntity
  8
寸法
  6
Continuous
 62
     7
370
   211
100
AcDbMText
 10
-613.2244702567572
 20
-1653.996784884237
 30
0.0
 40
57.15
 41
112.5
 46
0.0
 71
     7
 72
     1
  1
{\fＭＳ ゴシック|b0|i0|c128|p49;394}
 73
     1
 44
1.0
  0
MTEXT
  5
335
330
1F
100
AcDbEntity
  8
寸法
  6
Continuous
 62
     7
370
   211
100
AcDbMText
 10
-218.2244702567583
 20
-1653.996784884237
 30
0.0
 40
57.15
 41
112.5
 46
0.0
 71
     7
 72
     1
  1
{\fＭＳ ゴシック|b0|i0|c128|p49;394}
 73
     1
 44
1.0
  0
MTEXT
  5
336
330
1F
100
AcDbEntity
  8
寸法
  6
Continuous
 62
     7
370
   211
100
AcDbMText
 10
59.88551137764617
 20
-1738.897562273724
 30
0.0
 40
57.15
 41
37.5
 46
0.0
 71
     7
 72
     1
  1
{\fＭＳ ゴシック|b0|i0|c128|p49;2}
 73
     1
 44
1.0
  0
MTEXT
  5
337
330
1F
100
AcDbEntity
  8
寸法
  6
Continuous
 62
     7
370
   211
100
AcDbMText
 10
-541.9744702567572
 20
-1853.996784884237
 30
0.0
 40
57.15
 41
337.5
 46
0.0
 71
     7
 72
     1
  1
{\fＭＳ ゴシック|b0|i0|c128|p49;ＤＷ＝789}
 73
     1
 44
1.0
  0
MTEXT
  5
338
330
1F
100
AcDbEntity
  8
寸法
  6
Continuous
 62
     7
370
   211
100
AcDbMText
 10
251.7755297432422
 20
-1853.996784884237
 30
0.0
 40
57.15000000000001
 41
337.5000000000001
 46
0.0
 71
     7
 72
     1
  1
{\fＭＳ ゴシック|b0|i0|c128|p49;ＤＷ＝789}
 73
     1
 44
1.0
  0
MTEXT
  5
339
330
1F
100
AcDbEntity
  8
寸法
  6
Continuous
 62
     7
370
   211
100
AcDbMText
 10
-256.2244702567579
 20
-2053.996784884238
 30
0.0
 40
57.15000000000001
 41
562.5
 46
0.0
 71
     7
 72
     1
  1
{\fＭＳ ゴシック|b0|i0|c128|p49;枠外寸法＝1,645}
 73
     1
 44
1.0
  0
LINE
  5
33A
330
1F
100
AcDbEntity
  8
寸法
  6
Continuous
 62
   120
370
     5
100
AcDbLine
 10
-370.474470256758
 20
-1660.071784884237
 30
0.0
 11
-335.614488622354
 21
-1529.972562273724
 31
0.0
  0
LINE
  5
33B
330
1F
100
AcDbEntity
  8
寸法
  6
Continuous
 62
   120
370
     5
100
AcDbLine
 10
-335.614488622354
 20
-1529.972562273724
 30
0.0
 11
-287.7442275400215
 21
-1529.972562273724
 31
0.0
  0
LINE
  5
33C
330
1F
100
AcDbEntity
  8
寸法
  6
Continuous
 62
   120
370
     5
100
AcDbLine
 10
25.02552974324217
 20
-1860.071784884237
 30
0.0
 11
59.88551137764617
 21
-1729.972562273724
 31
0.0
  0
LINE
  5
33D
330
1F
100
AcDbEntity
  8
寸法
  6
Continuous
 62
   120
370
     5
100
AcDbLine
 10
59.88551137764617
 20
-1729.972562273724
 30
0.0
 11
107.7557724599787
 21
-1729.972562273724
 31
0.0
  0
LINE
  5
33E
330
1F
100
AcDbEntity
  8
寸法
  6
Continuous
 62
   120
370
     5
100
AcDbLine
 10
-370.9744702567575
 20
-1660.071784884237
 30
0.0
 11
-369.9744702567567
 21
-1660.071784884237
 31
0.0
  0
LWPOLYLINE
  5
33F
330
1F
100
AcDbEntity
  8
寸法
  6
Continuous
 62
     7
370
     9
100
AcDbPolyline
 90
        4
 70
     1
 43
3.0
 10
-369.4744702567575
 20
-1660.071784884237
 42
0.4142135623731
 10
-370.9744702567575
 20
-1658.571784884237
 42
0.4142135623731
 10
-372.4744702567575
 20
-1660.071784884237
 42
0.4142135623731
 10
-370.9744702567575
 20
-1661.571784884237
 42
0.4142135623731
  0
LWPOLYLINE
  5
340
330
1F
100
AcDbEntity
  8
寸法
  6
Continuous
 62
     7
370
     9
100
AcDbPolyline
 90
        4
 70
     1
 43
3.0
 10
-368.4744702567567
 20
-1660.071784884237
 42
0.4142135623731
 10
-369.9744702567567
 20
-1658.571784884237
 42
0.4142135623731
 10
-371.4744702567567
 20
-1660.071784884237
 42
0.4142135623731
 10
-369.9744702567567
 20
-1661.571784884237
 42
0.4142135623731
  0
LINE
  5
341
330
1F
100
AcDbEntity
  8
寸法
  6
Continuous
 62
   120
370
     5
100
AcDbLine
 10
-369.9744702567567
 20
-1660.071784884237
 30
0.0
 11
24.02552974324308
 21
-1660.071784884237
 31
0.0
  0
LINE
  5
342
330
1F
100
AcDbEntity
  8
寸法
  6
Continuous
 62
   120
370
     5
100
AcDbLine
 10
24.02552974324308
 20
-1860.071784884237
 30
0.0
 11
26.02552974324126
 21
-1860.071784884237
 31
0.0
  0
LWPOLYLINE
  5
343
330
1F
100
AcDbEntity
  8
寸法
  6
Continuous
 62
     7
370
     9
100
AcDbPolyline
 90
        4
 70
     1
 43
3.0
 10
25.52552974324308
 20
-1860.071784884237
 42
0.4142135623731
 10
24.02552974324308
 20
-1858.571784884237
 42
0.4142135623731
 10
22.52552974324308
 20
-1860.071784884237
 42
0.4142135623731
 10
24.02552974324308
 20
-1861.571784884237
 42
0.4142135623731
  0
LWPOLYLINE
  5
344
330
1F
100
AcDbEntity
  8
寸法
  6
Continuous
 62
     7
370
     9
100
AcDbPolyline
 90
        4
 70
     1
 43
3.0
 10
25.52552974324308
 20
-1660.071784884237
 42
0.4142135623731
 10
24.02552974324308
 20
-1658.571784884237
 42
0.4142135623731
 10
22.52552974324308
 20
-1660.071784884237
 42
0.4142135623731
 10
24.02552974324308
 20
-1661.571784884237
 42
0.4142135623731
  0
LWPOLYLINE
  5
345
330
1F
100
AcDbEntity
  8
寸法
  6
Continuous
 62
     7
370
     9
100
AcDbPolyline
 90
        4
 70
     1
 43
3.0
 10
27.52552974324126
 20
-1860.071784884237
 42
0.4142135623731
 10
26.02552974324126
 20
-1858.571784884237
 42
0.4142135623731
 10
24.52552974324126
 20
-1860.071784884237
 42
0.4142135623731
 10
26.02552974324126
 20
-1861.571784884237
 42
0.4142135623731
  0
ENDSEC
  0
SECTION
  2
OBJECTS
  0
DICTIONARY
  5
C
330
0
100
AcDbDictionary
281
     1
  3
ACAD_GROUP
350
D
  3
ACAD_LAYOUT
350
1A
  3
ACAD_MATERIAL
350
3B
  3
ACAD_MLEADERSTYLE
350
347
  3
ACAD_MLINESTYLE
350
17
  3
ACAD_PLOTSETTINGS
350
19
  3
ACAD_PLOTSTYLENAME
350
E
  3
ACAD_TABLESTYLE
350
346
  3
ACAD_VISUALSTYLE
350
2A
  0
DICTIONARY
  5
D
102
{ACAD_REACTORS
330
C
102
}
330
C
100
AcDbDictionary
281
     1
  0
DICTIONARY
  5
1A
102
{ACAD_REACTORS
330
C
102
}
330
C
100
AcDbDictionary
281
     1
  3
Layout1
350
1E
  3
Layout2
350
26
  3
Model
350
22
  0
DICTIONARY
  5
3B
102
{ACAD_REACTORS
330
C
102
}
330
C
100
AcDbDictionary
281
     1
  3
ByBlock
350
3D
  3
ByLayer
350
3C
  3
Global
350
3E
  0
DICTIONARY
  5
347
102
{ACAD_REACTORS
330
C
102
}
330
C
100
AcDbDictionary
281
     1
  0
DICTIONARY
  5
17
102
{ACAD_REACTORS
330
C
102
}
330
C
100
AcDbDictionary
281
     1
  3
Standard
350
18
  0
DICTIONARY
  5
19
102
{ACAD_REACTORS
330
C
102
}
330
C
100
AcDbDictionary
281
     1
  0
ACDBDICTIONARYWDFLT
  5
E
102
{ACAD_REACTORS
330
C
102
}
330
C
100
AcDbDictionary
281
     1
  3
Normal
350
F
100
AcDbDictionaryWithDefault
340
F
  0
DICTIONARY
  5
346
102
{ACAD_REACTORS
330
C
102
}
330
C
100
AcDbDictionary
281
     1
  0
DICTIONARY
  5
2A
102
{ACAD_REACTORS
330
C
102
}
330
C
100
AcDbDictionary
281
     1
  3
2dWireframe
350
2F
  3
3D Hidden
350
31
  3
3dWireframe
350
30
  3
Basic
350
32
  3
Brighten
350
36
  3
ColorChange
350
3A
  3
Conceptual
350
34
  3
Dim
350
35
  3
Facepattern
350
39
  3
Flat
350
2B
  3
FlatWithEdges
350
2C
  3
Gouraud
350
2D
  3
GouraudWithEdges
350
2E
  3
Linepattern
350
38
  3
Realistic
350
33
  3
Thicken
350
37
  0
LAYOUT
  5
1E
102
{ACAD_REACTORS
330
1A
102
}
330
1A
100
AcDbPlotSettings
  1

  2
none_device
  4

  6

 40
0.0
 41
0.0
 42
0.0
 43
0.0
 44
0.0
 45
0.0
 46
0.0
 47
0.0
 48
0.0
 49
0.0
140
0.0
141
0.0
142
1.0
143
1.0
 70
   688
 72
     0
 73
     0
 74
     5
  7

 75
    16
 76
     0
 77
     5
 78
   300
147
1.0
148
0.0
149
0.0
100
AcDbLayout
  1
Layout1
 70
     1
 71
     1
 10
0.0
 20
0.0
 11
420.0
 21
297.0
 12
0.0
 22
0.0
 32
0.0
 14
1.000000000000000E+20
 24
1.000000000000000E+20
 34
1.000000000000000E+20
 15
-1.000000000000000E+20
 25
-1.000000000000000E+20
 35
-1.000000000000000E+20
146
0.0
 13
0.0
 23
0.0
 33
0.0
 16
1.0
 26
0.0
 36
0.0
 17
0.0
 27
1.0
 37
0.0
 76
     0
330
1B
  0
LAYOUT
  5
26
102
{ACAD_REACTORS
330
1A
102
}
330
1A
100
AcDbPlotSettings
  1

  2
none_device
  4

  6

 40
0.0
 41
0.0
 42
0.0
 43
0.0
 44
0.0
 45
0.0
 46
0.0
 47
0.0
 48
0.0
 49
0.0
140
0.0
141
0.0
142
1.0
143
1.0
 70
   688
 72
     0
 73
     0
 74
     5
  7

 75
    16
 76
     0
 77
     5
 78
   300
147
1.0
148
0.0
149
0.0
100
AcDbLayout
  1
Layout2
 70
     1
 71
     2
 10
0.0
 20
0.0
 11
0.0
 21
0.0
 12
0.0
 22
0.0
 32
0.0
 14
0.0
 24
0.0
 34
0.0
 15
0.0
 25
0.0
 35
0.0
146
0.0
 13
0.0
 23
0.0
 33
0.0
 16
1.0
 26
0.0
 36
0.0
 17
0.0
 27
1.0
 37
0.0
 76
     0
330
23
  0
LAYOUT
  5
22
102
{ACAD_REACTORS
330
1A
102
}
330
1A
100
AcDbPlotSettings
  1

  2
none_device
  4

  6

 40
0.0
 41
0.0
 42
0.0
 43
0.0
 44
0.0
 45
0.0
 46
0.0
 47
0.0
 48
0.0
 49
0.0
140
0.0
141
0.0
142
1.0
143
1.0
 70
  1712
 72
     0
 73
     0
 74
     0
  7

 75
     0
 76
     0
 77
     5
 78
   300
147
1.0
148
0.0
149
0.0
100
AcDbLayout
  1
Model
 70
     1
 71
     0
 10
-4455.0
 20
-3150.0
 11
4455.0
 21
3150.0
 12
0.0
 22
0.0
 32
0.0
 14
-4455.0
 24
-3150.0
 34
0.0
 15
4455.0
 25
3150.0
 35
0.0
146
0.0
 13
0.0
 23
0.0
 33
0.0
 16
1.0
 26
0.0
 36
0.0
 17
0.0
 27
1.0
 37
0.0
 76
     0
330
1F
331
29
  0
MATERIAL
  5
3D
102
{ACAD_REACTORS
330
3B
102
}
330
3B
100
AcDbMaterial
  1
ByBlock
 72
     1
 94
      127
  0
MATERIAL
  5
3C
102
{ACAD_REACTORS
330
3B
102
}
330
3B
100
AcDbMaterial
  1
ByLayer
 72
     1
 94
      127
  0
MATERIAL
  5
3E
102
{ACAD_REACTORS
330
3B
102
}
330
3B
100
AcDbMaterial
  1
Global
 72
     1
 94
      127
  0
MLINESTYLE
  5
18
102
{ACAD_REACTORS
330
17
102
}
330
17
100
AcDbMlineStyle
  2
Standard
 70
     0
  3

 62
   256
 51
90.0
 52
90.0
 71
     2
 49
0.5
 62
   256
  6
BYLAYER
 49
-0.5
 62
   256
  6
BYLAYER
  0
ACDBPLACEHOLDER
  5
F
102
{ACAD_REACTORS
330
E
102
}
330
E
  0
VISUALSTYLE
  5
2F
102
{ACAD_REACTORS
330
2A
102
}
330
2A
100
AcDbVisualStyle
  2
2dWireframe
 70
     4
177
     2
291
     0
 71
     0
176
     1
 72
     2
176
     1
 73
     0
176
     1
 90
        0
176
     1
 40
-0.6
176
     1
 41
-30.0
176
     1
 62
     5
 63
     7
421
 16777215
176
     1
 74
     1
176
     1
 91
        4
176
     1
 64
     7
176
     1
 65
   257
176
     1
 75
     1
176
     1
175
     1
176
     1
 42
1.0
176
     1
 92
        0
176
     1
 66
   257
176
     1
 43
1.0
176
     1
 76
     1
176
     1
 77
     6
176
     1
 78
     2
176
     1
 67
     7
176
     1
 79
     5
176
     1
170
     0
176
     1
171
     0
176
     1
290
     0
176
     1
 93
        1
176
     1
 44
0.0
176
     1
173
     0
176
     1
  0
VISUALSTYLE
  5
31
102
{ACAD_REACTORS
330
2A
102
}
330
2A
100
AcDbVisualStyle
  2
3D Hidden
 70
     6
177
     2
291
     0
 71
     1
176
     1
 72
     2
176
     1
 73
     2
176
     1
 90
        0
176
     1
 40
-0.6
176
     1
 41
-30.0
176
     1
 62
     5
 63
     7
421
 16777215
176
     1
 74
     2
176
     1
 91
        2
176
     1
 64
     7
176
     1
 65
   257
176
     1
 75
     2
176
     1
175
     1
176
     1
 42
40.0
176
     1
 92
        0
176
     1
 66
   257
176
     1
 43
1.0
176
     1
 76
     1
176
     1
 77
     6
176
     1
 78
     2
176
     1
 67
     7
176
     1
 79
     3
176
     1
170
     0
176
     1
171
     0
176
     1
290
     0
176
     1
 93
        1
176
     1
 44
0.0
176
     1
173
     0
176
     1
  0
VISUALSTYLE
  5
30
102
{ACAD_REACTORS
330
2A
102
}
330
2A
100
AcDbVisualStyle
  2
3dWireframe
 70
     5
177
     2
291
     0
 71
     0
176
     1
 72
     2
176
     1
 73
     0
176
     1
 90
        0
176
     1
 40
-0.6
176
     1
 41
-30.0
176
     1
 62
     5
 63
     7
421
 16777215
176
     1
 74
     1
176
     1
 91
        4
176
     1
 64
     7
176
     1
 65
   257
176
     1
 75
     1
176
     1
175
     1
176
     1
 42
1.0
176
     1
 92
        0
176
     1
 66
   257
176
     1
 43
1.0
176
     1
 76
     1
176
     1
 77
     6
176
     1
 78
     2
176
     1
 67
     7
176
     1
 79
     5
176
     1
170
     0
176
     1
171
     0
176
     1
290
     0
176
     1
 93
        1
176
     1
 44
0.0
176
     1
173
     0
176
     1
  0
VISUALSTYLE
  5
32
102
{ACAD_REACTORS
330
2A
102
}
330
2A
100
AcDbVisualStyle
  2
Basic
 70
     7
177
     2
291
     1
 71
     1
176
     1
 72
     0
176
     1
 73
     1
176
     1
 90
        0
176
     1
 40
-0.6
176
     1
 41
-30.0
176
     1
 62
     5
 63
     7
421
 16777215
176
     1
 74
     0
176
     1
 91
        4
176
     1
 64
     7
176
     1
 65
   257
176
     1
 75
     1
176
     1
175
     1
176
     1
 42
1.0
176
     1
 92
        8
176
     1
 66
     7
176
     1
 43
1.0
176
     1
 76
     1
176
     1
 77
     6
176
     1
 78
     2
176
     1
 67
     7
176
     1
 79
     5
176
     1
170
     0
176
     1
171
     0
176
     1
290
     0
176
     1
 93
        1
176
     1
 44
0.0
176
     1
173
     0
176
     1
  0
VISUALSTYLE
  5
36
102
{ACAD_REACTORS
330
2A
102
}
330
2A
100
AcDbVisualStyle
  2
Brighten
 70
    12
177
     2
291
     1
 71
     2
176
     1
 72
     2
176
     1
 73
     0
176
     1
 90
        0
176
     1
 40
-0.6
176
     1
 41
-30.0
176
     1
 62
     5
 63
     7
421
 16777215
176
     1
 74
     1
176
     1
 91
        4
176
     1
 64
     7
176
     1
 65
   257
176
     1
 75
     1
176
     1
175
     1
176
     1
 42
1.0
176
     1
 92
        8
176
     1
 66
     7
176
     1
 43
1.0
176
     1
 76
     1
176
     1
 77
     6
176
     1
 78
     2
176
     1
 67
     7
176
     1
 79
     5
176
     1
170
     0
176
     1
171
     0
176
     1
290
     0
176
     1
 93
        1
176
     1
 44
50.0
176
     1
173
     0
176
     1
  0
VISUALSTYLE
  5
3A
102
{ACAD_REACTORS
330
2A
102
}
330
2A
100
AcDbVisualStyle
  2
ColorChange
 70
    16
177
     2
291
     1
 71
     2
176
     1
 72
     2
176
     1
 73
     3
176
     1
 90
        0
176
     1
 40
-0.6
176
     1
 41
-30.0
176
     1
 62
     5
 63
     8
421
  8421504
176
     1
 74
     1
176
     1
 91
        4
176
     1
 64
     7
176
     1
 65
   257
176
     1
 75
     1
176
     1
175
     1
176
     1
 42
1.0
176
     1
 92
        8
176
     1
 66
     8
424
  8421504
176
     1
 43
1.0
176
     1
 76
     1
176
     1
 77
     6
176
     1
 78
     2
176
     1
 67
     7
176
     1
 79
     5
176
     1
170
     0
176
     1
171
     0
176
     1
290
     0
176
     1
 93
        1
176
     1
 44
0.0
176
     1
173
     0
176
     1
  0
VISUALSTYLE
  5
34
102
{ACAD_REACTORS
330
2A
102
}
330
2A
100
AcDbVisualStyle
  2
Conceptual
 70
     9
177
     2
291
     0
 71
     3
176
     1
 72
     2
176
     1
 73
     0
176
     1
 90
        0
176
     1
 40
-0.6
176
     1
 41
-30.0
176
     1
 62
     5
 63
     7
421
 16777215
176
     1
 74
     2
176
     1
 91
        2
176
     1
 64
     7
176
     1
 65
   257
176
     1
 75
     1
176
     1
175
     1
176
     1
 42
40.0
176
     1
 92
        8
176
     1
 66
     7
176
     1
 43
1.0
176
     1
 76
     1
176
     1
 77
     6
176
     1
 78
     2
176
     1
 67
     7
176
     1
 79
     3
176
     1
170
     0
176
     1
171
     0
176
     1
290
     0
176
     1
 93
        1
176
     1
 44
0.0
176
     1
173
     0
176
     1
  0
VISUALSTYLE
  5
35
102
{ACAD_REACTORS
330
2A
102
}
330
2A
100
AcDbVisualStyle
  2
Dim
 70
    11
177
     2
291
     1
 71
     2
176
     1
 72
     2
176
     1
 73
     0
176
     1
 90
        0
176
     1
 40
-0.6
176
     1
 41
-30.0
176
     1
 62
     5
 63
     7
421
 16777215
176
     1
 74
     1
176
     1
 91
        4
176
     1
 64
     7
176
     1
 65
   257
176
     1
 75
     1
176
     1
175
     1
176
     1
 42
1.0
176
     1
 92
        8
176
     1
 66
     7
176
     1
 43
1.0
176
     1
 76
     1
176
     1
 77
     6
176
     1
 78
     2
176
     1
 67
     7
176
     1
 79
     5
176
     1
170
     0
176
     1
171
     0
176
     1
290
     0
176
     1
 93
        1
176
     1
 44
-50.0
176
     1
173
     0
176
     1
  0
VISUALSTYLE
  5
39
102
{ACAD_REACTORS
330
2A
102
}
330
2A
100
AcDbVisualStyle
  2
Facepattern
 70
    15
177
     2
291
     1
 71
     2
176
     1
 72
     2
176
     1
 73
     0
176
     1
 90
        0
176
     1
 40
-0.6
176
     1
 41
-30.0
176
     1
 62
     5
 63
     7
421
 16777215
176
     1
 74
     1
176
     1
 91
        4
176
     1
 64
     7
176
     1
 65
   257
176
     1
 75
     1
176
     1
175
     1
176
     1
 42
1.0
176
     1
 92
        8
176
     1
 66
     7
176
     1
 43
1.0
176
     1
 76
     1
176
     1
 77
     6
176
     1
 78
     2
176
     1
 67
     7
176
     1
 79
     5
176
     1
170
     0
176
     1
171
     0
176
     1
290
     0
176
     1
 93
        1
176
     1
 44
0.0
176
     1
173
     0
176
     1
  0
VISUALSTYLE
  5
2B
102
{ACAD_REACTORS
330
2A
102
}
330
2A
100
AcDbVisualStyle
  2
Flat
 70
     0
177
     2
291
     1
 71
     2
176
     1
 72
     1
176
     1
 73
     1
176
     1
 90
        2
176
     1
 40
-0.6
176
     1
 41
30.0
176
     1
 62
     5
 63
     7
421
 16777215
176
     1
 74
     0
176
     1
 91
        4
176
     1
 64
     7
176
     1
 65
   257
176
     1
 75
     1
176
     1
175
     1
176
     1
 42
1.0
176
     1
 92
        8
176
     1
 66
     7
176
     1
 43
1.0
176
     1
 76
     1
176
     1
 77
     6
176
     1
 78
     2
176
     1
 67
     7
176
     1
 79
     5
176
     1
170
     0
176
     1
171
     0
176
     1
290
     0
176
     1
 93
       13
176
     1
 44
0.0
176
     1
173
     0
176
     1
  0
VISUALSTYLE
  5
2C
102
{ACAD_REACTORS
330
2A
102
}
330
2A
100
AcDbVisualStyle
  2
FlatWithEdges
 70
     1
177
     2
291
     1
 71
     2
176
     1
 72
     1
176
     1
 73
     1
176
     1
 90
        2
176
     1
 40
-0.6
176
     1
 41
30.0
176
     1
 62
     5
 63
     7
421
 16777215
176
     1
 74
     1
176
     1
 91
        4
176
     1
 64
     7
176
     1
 65
   257
176
     1
 75
     1
176
     1
175
     1
176
     1
 42
1.0
176
     1
 92
        0
176
     1
 66
   257
176
     1
 43
1.0
176
     1
 76
     1
176
     1
 77
     6
176
     1
 78
     2
176
     1
 67
     7
176
     1
 79
     5
176
     1
170
     0
176
     1
171
     0
176
     1
290
     0
176
     1
 93
       13
176
     1
 44
0.0
176
     1
173
     0
176
     1
  0
VISUALSTYLE
  5
2D
102
{ACAD_REACTORS
330
2A
102
}
330
2A
100
AcDbVisualStyle
  2
Gouraud
 70
     2
177
     2
291
     1
 71
     2
176
     1
 72
     2
176
     1
 73
     1
176
     1
 90
        2
176
     1
 40
-0.6
176
     1
 41
30.0
176
     1
 62
     5
 63
     7
421
 16777215
176
     1
 74
     0
176
     1
 91
        4
176
     1
 64
     7
176
     1
 65
   257
176
     1
 75
     1
176
     1
175
     1
176
     1
 42
1.0
176
     1
 92
        0
176
     1
 66
     7
176
     1
 43
1.0
176
     1
 76
     1
176
     1
 77
     6
176
     1
 78
     2
176
     1
 67
     7
176
     1
 79
     5
176
     1
170
     0
176
     1
171
     0
176
     1
290
     0
176
     1
 93
       13
176
     1
 44
0.0
176
     1
173
     0
176
     1
  0
VISUALSTYLE
  5
2E
102
{ACAD_REACTORS
330
2A
102
}
330
2A
100
AcDbVisualStyle
  2
GouraudWithEdges
 70
     3
177
     2
291
     1
 71
     2
176
     1
 72
     2
176
     1
 73
     1
176
     1
 90
        2
176
     1
 40
-0.6
176
     1
 41
30.0
176
     1
 62
     5
 63
     7
421
 16777215
176
     1
 74
     1
176
     1
 91
        4
176
     1
 64
     7
176
     1
 65
   257
176
     1
 75
     1
176
     1
175
     1
176
     1
 42
1.0
176
     1
 92
        0
176
     1
 66
   257
176
     1
 43
1.0
176
     1
 76
     1
176
     1
 77
     6
176
     1
 78
     2
176
     1
 67
     7
176
     1
 79
     5
176
     1
170
     0
176
     1
171
     0
176
     1
290
     0
176
     1
 93
       13
176
     1
 44
0.0
176
     1
173
     0
176
     1
  0
VISUALSTYLE
  5
38
102
{ACAD_REACTORS
330
2A
102
}
330
2A
100
AcDbVisualStyle
  2
Linepattern
 70
    14
177
     2
291
     1
 71
     2
176
     1
 72
     2
176
     1
 73
     0
176
     1
 90
        0
176
     1
 40
-0.6
176
     1
 41
-30.0
176
     1
 62
     5
 63
     7
421
 16777215
176
     1
 74
     1
176
     1
 91
        4
176
     1
 64
     7
176
     1
 65
   257
176
     1
 75
     7
176
     1
175
     7
176
     1
 42
1.0
176
     1
 92
        8
176
     1
 66
     7
176
     1
 43
1.0
176
     1
 76
     1
176
     1
 77
     6
176
     1
 78
     2
176
     1
 67
     7
176
     1
 79
     5
176
     1
170
     0
176
     1
171
     0
176
     1
290
     0
176
     1
 93
        1
176
     1
 44
0.0
176
     1
173
     0
176
     1
  0
VISUALSTYLE
  5
33
102
{ACAD_REACTORS
330
2A
102
}
330
2A
100
AcDbVisualStyle
  2
Realistic
 70
     8
177
     2
291
     0
 71
     2
176
     1
 72
     2
176
     1
 73
     0
176
     1
 90
        0
176
     1
 40
-0.6
176
     1
 41
-30.0
176
     1
 62
     5
 63
     7
421
 16777215
176
     1
 74
     1
176
     1
 91
        0
176
     1
 64
     7
176
     1
 65
   257
176
     1
 75
     1
176
     1
175
     1
176
     1
 42
1.0
176
     1
 92
        8
176
     1
 66
     8
424
  7895160
176
     1
 43
1.0
176
     1
 76
     1
176
     1
 77
     6
176
     1
 78
     2
176
     1
 67
     7
176
     1
 79
     5
176
     1
170
     0
176
     1
171
     0
176
     1
290
     0
176
     1
 93
       13
176
     1
 44
0.0
176
     1
173
     0
176
     1
  0
VISUALSTYLE
  5
37
102
{ACAD_REACTORS
330
2A
102
}
330
2A
100
AcDbVisualStyle
  2
Thicken
 70
    13
177
     2
291
     1
 71
     2
176
     1
 72
     2
176
     1
 73
     0
176
     1
 90
        0
176
     1
 40
-0.6
176
     1
 41
-30.0
176
     1
 62
     5
 63
     7
421
 16777215
176
     1
 74
     1
176
     1
 91
        4
176
     1
 64
     7
176
     1
 65
   257
176
     1
 75
     1
176
     1
175
     1
176
     1
 42
1.0
176
     1
 92
       12
176
     1
 66
     7
176
     1
 43
1.0
176
     1
 76
     1
176
     1
 77
     6
176
     1
 78
     2
176
     1
 67
     7
176
     1
 79
     5
176
     1
170
     0
176
     1
171
     0
176
     1
290
     0
176
     1
 93
        1
176
     1
 44
0.0
176
     1
173
     0
176
     1
  0
ENDSEC
  0
EOF
