  0
SECTION
  2
HEADER
  9
$ACADVER
  1
AC1024
  9
$ACADMAINTVER
 70
     6
  9
$DWGCODEPAGE
  3
ANSI_932
  9
$INSBASE
 10
0.0
 20
0.0
 30
0.0
  9
$EXTMIN
 10
-6300.0
 20
-4455.0
 30
0.0
  9
$EXTMAX
 10
6300.0
 20
4455.0
 30
0.0
  9
$LIMMIN
 10
-6300.0
 20
-4455.0
  9
$LIMMAX
 10
6300.0
 20
4455.0
  9
$ORTHOMODE
 70
     0
  9
$REGENMODE
 70
     1
  9
$FILLMODE
 70
     1
  9
$QTEXTMODE
 70
     0
  9
$MIRRTEXT
 70
     1
  9
$LTSCALE
 40
30.0
  9
$ATTMODE
 70
     1
  9
$TEXTSIZE
 40
2.5
  9
$TRACEWID
 40
1.0
  9
$TEXTSTYLE
  7
Standard
  9
$CLAYER
  8
0
  9
$CELTYPE
  6
ByLayer
  9
$CECOLOR
 62
   256
  9
$CELTSCALE
 40
1.0
  9
$DISPSILH
 70
     0
  9
$DIMSCALE
 40
1.0
  9
$DIMASZ
 40
2.5
  9
$DIMEXO
 40
0.625
  9
$DIMDLI
 40
3.75
  9
$DIMRND
 40
0.0
  9
$DIMDLE
 40
0.0
  9
$DIMEXE
 40
1.25
  9
$DIMTP
 40
0.0
  9
$DIMTM
 40
0.0
  9
$DIMTXT
 40
2.5
  9
$DIMCEN
 40
2.5
  9
$DIMTSZ
 40
0.0
  9
$DIMTOL
 70
     0
  9
$DIMLIM
 70
     0
  9
$DIMTIH
 70
     0
  9
$DIMTOH
 70
     0
  9
$DIMSE1
 70
     0
  9
$DIMSE2
 70
     0
  9
$DIMTAD
 70
     1
  9
$DIMZIN
 70
     8
  9
$DIMBLK
  1

  9
$DIMASO
 70
     1
  9
$DIMSHO
 70
     1
  9
$DIMPOST
  1

  9
$DIMAPOST
  1

  9
$DIMALT
 70
     0
  9
$DIMALTD
 70
     3
  9
$DIMALTF
 40
0.03937007874016
  9
$DIMLFAC
 40
1.0
  9
$DIMTOFL
 70
     1
  9
$DIMTVP
 40
0.0
  9
$DIMTIX
 70
     0
  9
$DIMSOXD
 70
     0
  9
$DIMSAH
 70
     0
  9
$DIMBLK1
  1

  9
$DIMBLK2
  1

  9
$DIMSTYLE
  2
ISO-25
  9
$DIMCLRD
 70
     0
  9
$DIMCLRE
 70
     0
  9
$DIMCLRT
 70
     0
  9
$DIMTFAC
 40
1.0
  9
$DIMGAP
 40
0.625
  9
$DIMJUST
 70
     0
  9
$DIMSD1
 70
     0
  9
$DIMSD2
 70
     0
  9
$DIMTOLJ
 70
     0
  9
$DIMTZIN
 70
     8
  9
$DIMALTZ
 70
     0
  9
$DIMALTTZ
 70
     0
  9
$DIMUPT
 70
     0
  9
$DIMDEC
 70
     2
  9
$DIMTDEC
 70
     2
  9
$DIMALTU
 70
     2
  9
$DIMALTTD
 70
     3
  9
$DIMTXSTY
  7
Standard
  9
$DIMAUNIT
 70
     0
  9
$DIMADEC
 70
     0
  9
$DIMALTRND
 40
0.0
  9
$DIMAZIN
 70
     0
  9
$DIMDSEP
 70
    44
  9
$DIMATFIT
 70
     3
  9
$DIMFRAC
 70
     0
  9
$DIMLDRBLK
  1

  9
$DIMLUNIT
 70
     2
  9
$DIMLWD
 70
    -2
  9
$DIMLWE
 70
    -2
  9
$DIMTMOVE
 70
     0
  9
$DIMFXL
 40
1.0
  9
$DIMFXLON
 70
     0
  9
$DIMJOGANG
 40
0.7853981633974483
  9
$DIMTFILL
 70
     0
  9
$DIMTFILLCLR
 70
     0
  9
$DIMARCSYM
 70
     0
  9
$DIMLTYPE
  6

  9
$DIMLTEX1
  6

  9
$DIMLTEX2
  6

  9
$DIMTXTDIRECTION
 70
     0
  9
$LUNITS
 70
     2
  9
$LUPREC
 70
     4
  9
$SKETCHINC
 40
1.0
  9
$FILLETRAD
 40
10.0
  9
$AUNITS
 70
     0
  9
$AUPREC
 70
     0
  9
$MENU
  1
.
  9
$ELEVATION
 40
0.0
  9
$PELEVATION
 40
0.0
  9
$THICKNESS
 40
0.0
  9
$LIMCHECK
 70
     0
  9
$CHAMFERA
 40
0.0
  9
$CHAMFERB
 40
0.0
  9
$CHAMFERC
 40
0.0
  9
$CHAMFERD
 40
0.0
  9
$SKPOLY
 70
     0
  9
$TDCREATE
 40
2458467.796624641
  9
$TDUCREATE
 40
2458467.421624641
  9
$TDUPDATE
 40
2458467.796625012
  9
$TDUUPDATE
 40
2458467.421625012
  9
$TDINDWG
 40
0.0000000116
  9
$TDUSRTIMER
 40
0.0000000116
  9
$USRTIMER
 70
     1
  9
$ANGBASE
 50
0.0
  9
$ANGDIR
 70
     0
  9
$PDMODE
 70
     0
  9
$PDSIZE
 40
0.0
  9
$PLINEWID
 40
0.0
  9
$SPLFRAME
 70
     0
  9
$SPLINETYPE
 70
     6
  9
$SPLINESEGS
 70
     8
  9
$HANDSEED
  5
39B
  9
$SURFTAB1
 70
     6
  9
$SURFTAB2
 70
     6
  9
$SURFTYPE
 70
     6
  9
$SURFU
 70
     6
  9
$SURFV
 70
     6
  9
$UCSBASE
  2

  9
$UCSNAME
  2

  9
$UCSORG
 10
0.0
 20
0.0
 30
0.0
  9
$UCSXDIR
 10
1.0
 20
0.0
 30
0.0
  9
$UCSYDIR
 10
0.0
 20
1.0
 30
0.0
  9
$UCSORTHOREF
  2

  9
$UCSORTHOVIEW
 70
     0
  9
$UCSORGTOP
 10
0.0
 20
0.0
 30
0.0
  9
$UCSORGBOTTOM
 10
0.0
 20
0.0
 30
0.0
  9
$UCSORGLEFT
 10
0.0
 20
0.0
 30
0.0
  9
$UCSORGRIGHT
 10
0.0
 20
0.0
 30
0.0
  9
$UCSORGFRONT
 10
0.0
 20
0.0
 30
0.0
  9
$UCSORGBACK
 10
0.0
 20
0.0
 30
0.0
  9
$PUCSBASE
  2

  9
$PUCSNAME
  2

  9
$PUCSORG
 10
0.0
 20
0.0
 30
0.0
  9
$PUCSXDIR
 10
1.0
 20
0.0
 30
0.0
  9
$PUCSYDIR
 10
0.0
 20
1.0
 30
0.0
  9
$PUCSORTHOREF
  2

  9
$PUCSORTHOVIEW
 70
     0
  9
$PUCSORGTOP
 10
0.0
 20
0.0
 30
0.0
  9
$PUCSORGBOTTOM
 10
0.0
 20
0.0
 30
0.0
  9
$PUCSORGLEFT
 10
0.0
 20
0.0
 30
0.0
  9
$PUCSORGRIGHT
 10
0.0
 20
0.0
 30
0.0
  9
$PUCSORGFRONT
 10
0.0
 20
0.0
 30
0.0
  9
$PUCSORGBACK
 10
0.0
 20
0.0
 30
0.0
  9
$USERI1
 70
     0
  9
$USERI2
 70
     0
  9
$USERI3
 70
     0
  9
$USERI4
 70
     0
  9
$USERI5
 70
     0
  9
$USERR1
 40
0.0
  9
$USERR2
 40
0.0
  9
$USERR3
 40
0.0
  9
$USERR4
 40
0.0
  9
$USERR5
 40
0.0
  9
$WORLDVIEW
 70
     1
  9
$SHADEDGE
 70
     3
  9
$SHADEDIF
 70
    70
  9
$TILEMODE
 70
     1
  9
$MAXACTVP
 70
    64
  9
$PINSBASE
 10
0.0
 20
0.0
 30
0.0
  9
$PLIMCHECK
 70
     0
  9
$PEXTMIN
 10
1.000000000000000E+20
 20
1.000000000000000E+20
 30
1.000000000000000E+20
  9
$PEXTMAX
 10
-1.000000000000000E+20
 20
-1.000000000000000E+20
 30
-1.000000000000000E+20
  9
$PLIMMIN
 10
0.0
 20
0.0
  9
$PLIMMAX
 10
420.0
 20
297.0
  9
$UNITMODE
 70
     0
  9
$VISRETAIN
 70
     1
  9
$PLINEGEN
 70
     0
  9
$PSLTSCALE
 70
     1
  9
$TREEDEPTH
 70
  3020
  9
$CMLSTYLE
  2
Standard
  9
$CMLJUST
 70
     0
  9
$CMLSCALE
 40
20.0
  9
$PROXYGRAPHICS
 70
     1
  9
$MEASUREMENT
 70
     1
  9
$CELWEIGHT
370
    -1
  9
$ENDCAPS
280
     0
  9
$JOINSTYLE
280
     0
  9
$LWDISPLAY
290
     0
  9
$INSUNITS
 70
     4
  9
$HYPERLINKBASE
  1

  9
$STYLESHEET
  1

  9
$XEDIT
290
     1
  9
$CEPSNTYPE
380
     0
  9
$PSTYLEMODE
290
     1
  9
$FINGERPRINTGUID
  2
{8AABDF79-8027-437E-82C8-03EC0DA5FA88}
  9
$VERSIONGUID
  2
{FAEB1C32-E019-11D5-929B-00C0DF256EC4}
  9
$EXTNAMES
290
     1
  9
$PSVPSCALE
 40
0.0
  9
$OLESTARTUP
290
     0
  9
$SORTENTS
280
   127
  9
$INDEXCTL
280
     0
  9
$HIDETEXT
280
     1
  9
$XCLIPFRAME
280
     2
  9
$HALOGAP
280
     0
  9
$OBSCOLOR
 70
   257
  9
$OBSLTYPE
280
     0
  9
$INTERSECTIONDISPLAY
280
     0
  9
$INTERSECTIONCOLOR
 70
   257
  9
$DIMASSOC
280
     2
  9
$PROJECTNAME
  1

  9
$CAMERADISPLAY
290
     0
  9
$LENSLENGTH
 40
50.0
  9
$CAMERAHEIGHT
 40
0.0
  9
$STEPSPERSEC
 40
2.0
  9
$STEPSIZE
 40
6.0
  9
$3DDWFPREC
 40
2.0
  9
$PSOLWIDTH
 40
5.0
  9
$PSOLHEIGHT
 40
80.0
  9
$LOFTANG1
 40
1.570796326794897
  9
$LOFTANG2
 40
1.570796326794897
  9
$LOFTMAG1
 40
0.0
  9
$LOFTMAG2
 40
0.0
  9
$LOFTPARAM
 70
     7
  9
$LOFTNORMALS
280
     1
  9
$LATITUDE
 40
37.795
  9
$LONGITUDE
 40
-122.394
  9
$NORTHDIRECTION
 40
0.0
  9
$TIMEZONE
 70
 -8000
  9
$LIGHTGLYPHDISPLAY
280
     1
  9
$TILEMODELIGHTSYNCH
280
     1
  9
$CMATERIAL
347
44
  9
$SOLIDHIST
280
     0
  9
$SHOWHIST
280
     1
  9
$DWFFRAME
280
     2
  9
$DGNFRAME
280
     2
  9
$REALWORLDSCALE
290
     1
  9
$INTERFERECOLOR
 62
   256
  9
$CSHADOW
280
     0
  9
$SHADOWPLANELOCATION
 40
0.0
  0
ENDSEC
  0
SECTION
  2
CLASSES
  0
CLASS
  1
ACDBDICTIONARYWDFLT
  2
AcDbDictionaryWithDefault
  3
ObjectDBX Classes
 90
        0
 91
        4
280
     0
281
     0
  0
CLASS
  1
VISUALSTYLE
  2
AcDbVisualStyle
  3
ObjectDBX Classes
 90
     4095
 91
        4
280
     0
281
     0
  0
CLASS
  1
MATERIAL
  2
AcDbMaterial
  3
ObjectDBX Classes
 90
     1153
 91
        4
280
     0
281
     0
  0
CLASS
  1
SCALE
  2
AcDbScale
  3
ObjectDBX Classes
 90
     1153
 91
        4
280
     0
281
     0
  0
CLASS
  1
TABLESTYLE
  2
AcDbTableStyle
  3
ObjectDBX Classes
 90
     4095
 91
        4
280
     0
281
     0
  0
CLASS
  1
MLEADERSTYLE
  2
AcDbMLeaderStyle
  3
ACDB_MLEADERSTYLE_CLASS
 90
     4095
 91
        4
280
     0
281
     0
  0
CLASS
  1
SUN
  2
AcDbSun
  3
SCENEOE
 90
     1153
 91
        4
280
     0
281
     0
  0
CLASS
  1
DICTIONARYVAR
  2
AcDbDictionaryVar
  3
ObjectDBX Classes
 90
        0
 91
        4
280
     0
281
     0
  0
CLASS
  1
CELLSTYLEMAP
  2
AcDbCellStyleMap
  3
ObjectDBX Classes
 90
     1152
 91
        4
280
     0
281
     0
  0
ENDSEC
  0
SECTION
  2
TABLES
  0
TABLE
  2
VPORT
  5
8
330
0
100
AcDbSymbolTable
 70
     1
  0
VPORT
  5
29
330
8
100
AcDbSymbolTableRecord
100
AcDbViewportTableRecord
  2
*Active
 70
     0
 10
0.0
 20
0.0
 11
1.0
 21
1.0
 12
0.0
 22
0.0
 13
0.0
 23
0.0
 14
10.0
 24
10.0
 15
10.0
 25
10.0
 16
0.0
 26
0.0
 36
1.0
 17
0.0
 27
0.0
 37
0.0
 40
9801.0
 41
1.414141414141414
 42
50.0
 43
0.0
 44
0.0
 50
0.0
 51
0.0
 71
     0
 72
 10000
 73
     1
 74
     3
 75
     0
 76
     0
 77
     0
 78
     0
281
     0
 65
     1
110
0.0
120
0.0
130
0.0
111
1.0
121
0.0
131
0.0
112
0.0
122
1.0
132
0.0
 79
     0
146
0.0
348
2F
 60
     3
 61
     5
292
     1
282
     1
141
0.0
142
0.0
 63
   250
361
6D
  0
ENDTAB
  0
TABLE
  2
LTYPE
  5
5
330
0
100
AcDbSymbolTable
 70
     5
  0
LTYPE
  5
14
330
5
100
AcDbSymbolTableRecord
100
AcDbLinetypeTableRecord
  2
ByBlock
 70
     0
  3

 72
    65
 73
     0
 40
0.0
  0
LTYPE
  5
15
330
5
100
AcDbSymbolTableRecord
100
AcDbLinetypeTableRecord
  2
ByLayer
 70
     0
  3

 72
    65
 73
     0
 40
0.0
  0
LTYPE
  5
16
330
5
100
AcDbSymbolTableRecord
100
AcDbLinetypeTableRecord
  2
Continuous
 70
     0
  3
Solid line
 72
    65
 73
     0
 40
0.0
  0
LTYPE
  5
70
330
5
100
AcDbSymbolTableRecord
100
AcDbLinetypeTableRecord
  2
JWW_HOJO
 70
     0
  3
  -   -   -   -   -   -   -   - 
 72
    65
 73
     2
 40
1.693333333333333
 49
-1.27
 74
     0
 49
0.4233333333333333
 74
     0
  0
LTYPE
  5
71
330
5
100
AcDbSymbolTableRecord
100
AcDbLinetypeTableRecord
  2
JWW_DASHED1
 70
     0
  3
-  --  --  --  --  --  --  --  -
 72
    65
 73
     2
 40
1.693333333333333
 49
0.8466666666666667
 74
     0
 49
-0.8466666666666667
 74
     0
  0
LTYPE
  5
72
330
5
100
AcDbSymbolTableRecord
100
AcDbLinetypeTableRecord
  2
JWW_CENTER1
 70
     0
  3
-----  --  ----------  --  -----
 72
    65
 73
     4
 40
6.773333333333333
 49
4.233333333333333
 74
     0
 49
-0.8466666666666667
 74
     0
 49
0.8466666666666667
 74
     0
 49
-0.8466666666666667
 74
     0
  0
LTYPE
  5
73
330
5
100
AcDbSymbolTableRecord
100
AcDbLinetypeTableRecord
  2
JWW_DASHED2
 70
     0
  3
--    ----    ----    ----    --
 72
    65
 73
     2
 40
3.386666666666667
 49
1.693333333333333
 74
     0
 49
-1.693333333333333
 74
     0
  0
ENDTAB
  0
TABLE
  2
LAYER
  5
2
330
0
100
AcDbSymbolTable
 70
    14
  0
LAYER
  5
10
330
2
100
AcDbSymbolTableRecord
100
AcDbLayerTableRecord
  2
0
 70
     0
 62
     7
  6
Continuous
370
    -3
390
F
347
46
  0
LAYER
  5
74
330
2
100
AcDbSymbolTableRecord
100
AcDbLayerTableRecord
  2
F-0_補助線
 70
     0
 62
     7
  6
Continuous
370
    -3
390
F
347
46
  0
LAYER
  5
75
330
2
100
AcDbSymbolTableRecord
100
AcDbLayerTableRecord
  2
F-1_通り芯
 70
     0
 62
     7
  6
Continuous
370
    -3
390
F
347
46
  0
LAYER
  5
76
330
2
100
AcDbSymbolTableRecord
100
AcDbLayerTableRecord
  2
F-A_文字
 70
     0
 62
     7
  6
Continuous
370
    -3
390
F
347
46
  0
LAYER
  5
77
330
2
100
AcDbSymbolTableRecord
100
AcDbLayerTableRecord
  2
0-A_文字
 70
     0
 62
     7
  6
Continuous
370
    -3
390
F
347
46
  0
LAYER
  5
78
330
2
100
AcDbSymbolTableRecord
100
AcDbLayerTableRecord
  2
0-0_補助線
 70
     0
 62
     7
  6
Continuous
370
    -3
390
F
347
46
  0
LAYER
  5
79
330
2
100
AcDbSymbolTableRecord
100
AcDbLayerTableRecord
  2
0-8_戸当
 70
     0
 62
     7
  6
Continuous
370
    -3
390
F
347
46
  0
LAYER
  5
7A
330
2
100
AcDbSymbolTableRecord
100
AcDbLayerTableRecord
  2
0-B_寸法
 70
     0
 62
     7
  6
Continuous
370
    -3
390
F
347
46
  0
LAYER
  5
7B
330
2
100
AcDbSymbolTableRecord
100
AcDbLayerTableRecord
  2
0-C_ﾊｯﾁ
 70
     0
 62
     7
  6
Continuous
370
    -3
390
F
347
46
  0
LAYER
  5
7C
330
2
100
AcDbSymbolTableRecord
100
AcDbLayerTableRecord
  2
0-4_枠
 70
     0
 62
     7
  6
Continuous
370
    -3
390
F
347
46
  0
LAYER
  5
7D
330
2
100
AcDbSymbolTableRecord
100
AcDbLayerTableRecord
  2
0-3_仕上
 70
     0
 62
     7
  6
Continuous
370
    -3
390
F
347
46
  0
LAYER
  5
7E
330
2
100
AcDbSymbolTableRecord
100
AcDbLayerTableRecord
  2
0-1_通り芯
 70
     0
 62
     7
  6
Continuous
370
    -3
390
F
347
46
  0
LAYER
  5
7F
330
2
100
AcDbSymbolTableRecord
100
AcDbLayerTableRecord
  2
0-6_扉
 70
     0
 62
     7
  6
Continuous
370
    -3
390
F
347
46
  0
LAYER
  5
80
330
2
100
AcDbSymbolTableRecord
100
AcDbLayerTableRecord
  2
0-7_金物
 70
     0
 62
     7
  6
Continuous
370
    -3
390
F
347
46
  0
ENDTAB
  0
TABLE
  2
STYLE
  5
3
330
0
100
AcDbSymbolTable
 70
     3
  0
STYLE
  5
11
330
3
100
AcDbSymbolTableRecord
100
AcDbTextStyleTableRecord
  2
Standard
 70
     0
 40
0.0
 41
1.0
 50
0.0
 71
     0
 42
2.5
  3
txt
  4

  0
STYLE
  5
6E
330
3
100
AcDbSymbolTableRecord
100
AcDbTextStyleTableRecord
  2
ＭＳ ゴシック
 70
     0
 40
1.0
 41
1.0
 50
0.0
 71
     0
 42
2.5
  3

  4

1001
ACAD
1000
MS Gothic
1071
    32817
  0
STYLE
  5
6F
330
3
100
AcDbSymbolTableRecord
100
AcDbTextStyleTableRecord
  2
HG明朝B
 70
     0
 40
1.0
 41
1.0
 50
0.0
 71
     0
 42
2.5
  3

  4

1001
ACAD
1000
HGMinchoB
1071
    32785
  0
ENDTAB
  0
TABLE
  2
VIEW
  5
6
330
0
100
AcDbSymbolTable
 70
     0
  0
ENDTAB
  0
TABLE
  2
UCS
  5
7
330
0
100
AcDbSymbolTable
 70
     0
  0
ENDTAB
  0
TABLE
  2
APPID
  5
9
330
0
100
AcDbSymbolTable
 70
     1
  0
APPID
  5
12
330
9
100
AcDbSymbolTableRecord
100
AcDbRegAppTableRecord
  2
ACAD
 70
     0
  0
ENDTAB
  0
TABLE
  2
DIMSTYLE
  5
A
330
0
100
AcDbSymbolTable
 70
     1
100
AcDbDimStyleTable
  0
DIMSTYLE
105
27
330
A
100
AcDbSymbolTableRecord
100
AcDbDimStyleTableRecord
  2
ISO-25
 70
     0
 41
2.5
 42
0.625
 43
3.75
 44
1.25
 73
     0
 74
     0
 77
     1
 78
     8
140
2.5
141
2.5
143
0.03937007874016
147
0.625
171
     3
172
     1
178
     0
271
     2
272
     2
274
     3
278
    44
283
     0
284
     8
340
11
  0
ENDTAB
  0
TABLE
  2
BLOCK_RECORD
  5
1
330
0
100
AcDbSymbolTable
 70
     3
  0
BLOCK_RECORD
  5
1F
330
1
100
AcDbSymbolTableRecord
100
AcDbBlockTableRecord
  2
*Model_Space
340
22
 70
     0
280
     1
281
     0
  0
BLOCK_RECORD
  5
1B
330
1
100
AcDbSymbolTableRecord
100
AcDbBlockTableRecord
  2
*Paper_Space
340
1E
 70
     0
280
     1
281
     0
  0
BLOCK_RECORD
  5
23
330
1
100
AcDbSymbolTableRecord
100
AcDbBlockTableRecord
  2
*Paper_Space0
340
26
 70
     0
280
     1
281
     0
  0
BLOCK_RECORD
  5
81
330
1
100
AcDbSymbolTableRecord
100
AcDbBlockTableRecord
  2
02@@SfigorgFlag@@4_0-0_
340
0
102
{BLKREFS
331
282
102
}
 70
     0
280
     1
281
     0
  0
BLOCK_RECORD
  5
84
330
1
100
AcDbSymbolTableRecord
100
AcDbBlockTableRecord
  2
04@@SfigorgFlag@@4_0-0_
340
0
102
{BLKREFS
331
2D4
102
}
 70
     0
280
     1
281
     0
  0
ENDTAB
  0
ENDSEC
  0
SECTION
  2
BLOCKS
  0
BLOCK
  5
20
330
1F
100
AcDbEntity
  8
0
100
AcDbBlockBegin
  2
*Model_Space
 70
     0
 10
0.0
 20
0.0
 30
0.0
  3
*Model_Space
  1

  0
ENDBLK
  5
21
330
1F
100
AcDbEntity
  8
0
100
AcDbBlockEnd
  0
BLOCK
  5
1C
330
1B
100
AcDbEntity
 67
     1
  8
0
100
AcDbBlockBegin
  2
*Paper_Space
 70
     0
 10
0.0
 20
0.0
 30
0.0
  3
*Paper_Space
  1

  0
ENDBLK
  5
1D
330
1B
100
AcDbEntity
 67
     1
  8
0
100
AcDbBlockEnd
  0
BLOCK
  5
24
330
23
100
AcDbEntity
  8
0
100
AcDbBlockBegin
  2
*Paper_Space0
 70
     0
 10
0.0
 20
0.0
 30
0.0
  3
*Paper_Space0
  1

  0
ENDBLK
  5
25
330
23
100
AcDbEntity
  8
0
100
AcDbBlockEnd
  0
BLOCK
  5
82
330
81
100
AcDbEntity
  8
0
100
AcDbBlockBegin
  2
02@@SfigorgFlag@@4_0-0_
 70
     0
 10
0.0
 20
0.0
 30
0.0
  3
02@@SfigorgFlag@@4_0-0_
  1

  0
ARC
  5
343
330
81
100
AcDbEntity
  8
0-0_補助線
  6
Continuous
 62
     7
370
     9
100
AcDbCircle
 10
1.160448776651236
 20
3.352222230456135
 30
0.0
 40
0.2
100
AcDbArc
 50
0.0
 51
90.00000000000001
  0
ARC
  5
344
330
81
100
AcDbEntity
  8
0-0_補助線
  6
Continuous
 62
     7
370
     9
100
AcDbCircle
 10
1.160448776651236
 20
-1.847777769543882
 30
0.0
 40
0.2
100
AcDbArc
 50
270.0
 51
0.0
  0
LINE
  5
345
330
81
100
AcDbEntity
  8
0-0_補助線
  6
Continuous
 62
     7
370
     9
100
AcDbLine
 10
1.360448776651225
 20
3.352222230456135
 30
0.0
 11
1.360448776651225
 21
-1.847777769543882
 31
0.0
  0
LINE
  5
346
330
81
100
AcDbEntity
  8
0-0_補助線
  6
Continuous
 62
     7
370
     9
100
AcDbLine
 10
1.160448776651236
 20
-2.04777776954387
 30
0.0
 11
0.5404487766512318
 21
-2.04777776954387
 31
0.0
  0
LINE
  5
347
330
81
100
AcDbEntity
  8
0-0_補助線
  6
Continuous
 62
     7
370
     9
100
AcDbLine
 10
0.5404487766512318
 20
-0.6477777695438647
 30
0.0
 11
0.5404487766512318
 21
-2.04777776954387
 31
0.0
  0
LINE
  5
348
330
81
100
AcDbEntity
  8
0-0_補助線
  6
Continuous
 62
     7
370
     9
100
AcDbLine
 10
0.5404487766512318
 20
-0.6477777695438647
 30
0.0
 11
-0.139551223348775
 21
-0.6477777695438647
 31
0.0
  0
LINE
  5
349
330
81
100
AcDbEntity
  8
0-0_補助線
  6
Continuous
 62
     7
370
     9
100
AcDbLine
 10
-0.139551223348775
 20
-0.6477777695438647
 30
0.0
 11
-0.139551223348775
 21
-2.04777776954387
 31
0.0
  0
LINE
  5
34A
330
81
100
AcDbEntity
  8
0-0_補助線
  6
Continuous
 62
     7
370
     9
100
AcDbLine
 10
-0.9995512233487602
 20
-2.04777776954387
 30
0.0
 11
-0.139551223348775
 21
-2.04777776954387
 31
0.0
  0
LINE
  5
34B
330
81
100
AcDbEntity
  8
0-0_補助線
  6
Continuous
 62
     7
370
     9
100
AcDbLine
 10
1.160448776651236
 20
3.552222230456124
 30
0.0
 11
-0.639551223348775
 21
3.552222230456124
 31
0.0
  0
LINE
  5
34C
330
81
100
AcDbEntity
  8
0-0_補助線
  6
Continuous
 62
     7
370
     9
100
AcDbLine
 10
-0.9995512233487602
 20
2.95222223045613
 30
0.0
 11
-0.639551223348775
 21
2.95222223045613
 31
0.0
  0
LINE
  5
34D
330
81
100
AcDbEntity
  8
0-0_補助線
  6
Continuous
 62
     7
370
     9
100
AcDbLine
 10
-0.639551223348775
 20
2.95222223045613
 30
0.0
 11
-0.639551223348775
 21
3.552222230456124
 31
0.0
  0
LINE
  5
34E
330
81
100
AcDbEntity
  8
0-0_補助線
  6
Continuous
 62
     7
370
     9
100
AcDbLine
 10
-0.9995512233487602
 20
-2.04777776954387
 30
0.0
 11
-0.9995512233487602
 21
2.95222223045613
 31
0.0
  0
LINE
  5
34F
330
81
100
AcDbEntity
  8
0-0_補助線
  6
Continuous
 62
     7
370
     9
100
AcDbLine
 10
-0.6938384209962578
 20
-2.04777776954387
 30
0.0
 11
-0.5738384209962533
 21
-2.167777769543875
 31
0.0
  0
LINE
  5
350
330
81
100
AcDbEntity
  8
0-0_補助線
  6
Continuous
 62
     7
370
     9
100
AcDbLine
 10
-0.5738384209962533
 20
-2.167777769543875
 30
0.0
 11
0.8804490577045101
 21
-2.167777769543875
 31
0.0
  0
LINE
  5
351
330
81
100
AcDbEntity
  8
0-0_補助線
  6
Continuous
 62
     7
370
     9
100
AcDbLine
 10
1.000448761284588
 20
-2.047778065963797
 30
0.0
 11
0.8804490577045101
 21
-2.167777769543875
 31
0.0
  0
ENDBLK
  5
83
330
81
100
AcDbEntity
  8
0
100
AcDbBlockEnd
  0
BLOCK
  5
85
330
84
100
AcDbEntity
  8
0
100
AcDbBlockBegin
  2
04@@SfigorgFlag@@4_0-0_
 70
     0
 10
0.0
 20
0.0
 30
0.0
  3
04@@SfigorgFlag@@4_0-0_
  1

  0
ARC
  5
352
330
84
100
AcDbEntity
  8
0-0_補助線
  6
Continuous
 62
     7
370
     9
100
AcDbCircle
 10
-1.169466739176244
 20
3.182801011029426
 30
0.0
 40
0.2
100
AcDbArc
 50
90.0
 51
180.0
  0
ARC
  5
353
330
84
100
AcDbEntity
  8
0-0_補助線
  6
Continuous
 62
     7
370
     9
100
AcDbCircle
 10
-1.169466739176244
 20
-2.017198988970591
 30
0.0
 40
0.2
100
AcDbArc
 50
180.0
 51
270.0
  0
LINE
  5
354
330
84
100
AcDbEntity
  8
0-0_補助線
  6
Continuous
 62
     7
370
     9
100
AcDbLine
 10
-1.369466739176232
 20
3.182801011029426
 30
0.0
 11
-1.369466739176232
 21
-2.017198988970591
 31
0.0
  0
LINE
  5
355
330
84
100
AcDbEntity
  8
0-0_補助線
  6
Continuous
 62
     7
370
     9
100
AcDbLine
 10
-1.169466739176244
 20
-2.21719898897058
 30
0.0
 11
-0.5494667391762391
 21
-2.21719898897058
 31
0.0
  0
LINE
  5
356
330
84
100
AcDbEntity
  8
0-0_補助線
  6
Continuous
 62
     7
370
     9
100
AcDbLine
 10
-0.5494667391762391
 20
-0.8171989889705742
 30
0.0
 11
-0.5494667391762391
 21
-2.21719898897058
 31
0.0
  0
LINE
  5
357
330
84
100
AcDbEntity
  8
0-0_補助線
  6
Continuous
 62
     7
370
     9
100
AcDbLine
 10
-0.5494667391762391
 20
-0.8171989889705742
 30
0.0
 11
0.1305332608237677
 21
-0.8171989889705742
 31
0.0
  0
LINE
  5
358
330
84
100
AcDbEntity
  8
0-0_補助線
  6
Continuous
 62
     7
370
     9
100
AcDbLine
 10
0.1305332608237677
 20
-0.8171989889705742
 30
0.0
 11
0.1305332608237677
 21
-2.21719898897058
 31
0.0
  0
LINE
  5
359
330
84
100
AcDbEntity
  8
0-0_補助線
  6
Continuous
 62
     7
370
     9
100
AcDbLine
 10
0.9905332608237671
 20
-2.21719898897058
 30
0.0
 11
0.1305332608237677
 21
-2.21719898897058
 31
0.0
  0
LINE
  5
35A
330
84
100
AcDbEntity
  8
0-0_補助線
  6
Continuous
 62
     7
370
     9
100
AcDbLine
 10
-1.169466739176244
 20
3.382801011029414
 30
0.0
 11
0.6305332608237677
 21
3.382801011029414
 31
0.0
  0
LINE
  5
35B
330
84
100
AcDbEntity
  8
0-0_補助線
  6
Continuous
 62
     7
370
     9
100
AcDbLine
 10
0.9905332608237671
 20
2.78280101102942
 30
0.0
 11
0.6305332608237677
 21
2.78280101102942
 31
0.0
  0
LINE
  5
35C
330
84
100
AcDbEntity
  8
0-0_補助線
  6
Continuous
 62
     7
370
     9
100
AcDbLine
 10
0.6305332608237677
 20
2.78280101102942
 30
0.0
 11
0.6305332608237677
 21
3.382801011029414
 31
0.0
  0
LINE
  5
35D
330
84
100
AcDbEntity
  8
0-0_補助線
  6
Continuous
 62
     7
370
     9
100
AcDbLine
 10
0.9905332608237671
 20
-2.21719898897058
 30
0.0
 11
0.9905332608237671
 21
2.78280101102942
 31
0.0
  0
ARC
  5
35E
330
84
100
AcDbEntity
  8
0-0_補助線
  6
Continuous
 62
     7
370
     9
100
AcDbCircle
 10
-0.1623231844886419
 20
-1.921007582720591
 30
0.0
 40
0.8974306106567383
100
AcDbArc
 50
199.2714538574219
 51
340.7285614013672
  0
ARC
  5
35F
330
84
100
AcDbEntity
  8
0-0_補助線
  6
Continuous
 62
     7
370
     9
100
AcDbCircle
 10
-0.1623231844886419
 20
-1.921007582720591
 30
0.0
 40
0.7774306106567384
100
AcDbArc
 50
202.3948689984843
 51
337.6051310015157
  0
ENDBLK
  5
86
330
84
100
AcDbEntity
  8
0
100
AcDbBlockEnd
  0
ENDSEC
  0
SECTION
  2
ENTITIES
  0
LINE
  5
87
330
1F
100
AcDbEntity
  8
F-0_補助線
  6
JWW_HOJO
 62
   120
370
     5
100
AcDbLine
 10
-6140.081333436773
 20
-4455.0
 30
0.0
 11
-6140.081333436773
 21
4424.999604096284
 31
0.0
  0
LINE
  5
88
330
1F
100
AcDbEntity
  8
F-0_補助線
  6
JWW_HOJO
 62
   120
370
     5
100
AcDbLine
 10
-6140.081333436773
 20
4424.999604096284
 30
0.0
 11
6159.917676803936
 21
4424.999604096284
 31
0.0
  0
LINE
  5
89
330
1F
100
AcDbEntity
  8
F-0_補助線
  6
JWW_HOJO
 62
   120
370
     5
100
AcDbLine
 10
6159.917676803936
 20
4424.999604096284
 30
0.0
 11
6159.917676803936
 21
-4455.0
 31
0.0
  0
LINE
  5
8A
330
1F
100
AcDbEntity
  8
F-0_補助線
  6
JWW_HOJO
 62
   120
370
     5
100
AcDbLine
 10
6159.917676803936
 20
-4455.0
 30
0.0
 11
-6140.081333436773
 21
-4455.0
 31
0.0
  0
LINE
  5
8B
330
1F
100
AcDbEntity
  8
F-0_補助線
  6
JWW_HOJO
 62
     7
370
     9
100
AcDbLine
 10
1009.918254163523
 20
-3795.000003092998
 30
0.0
 11
1009.918254163523
 21
-4195.000008247994
 31
0.0
  0
LINE
  5
8C
330
1F
100
AcDbEntity
  8
F-0_補助線
  6
JWW_HOJO
 62
     7
370
     9
100
AcDbLine
 10
509.9185840832865
 20
-3795.000003092998
 30
0.0
 11
509.9185840832865
 21
-4195.000008247994
 31
0.0
  0
LINE
  5
8D
330
1F
100
AcDbEntity
  8
F-1_通り芯
  6
Continuous
 62
   200
370
    20
100
AcDbLine
 10
5859.917429364114
 20
4174.999769056166
 30
0.0
 11
5859.917429364114
 21
-4205.000164959882
 31
0.0
  0
LINE
  5
8E
330
1F
100
AcDbEntity
  8
F-1_通り芯
  6
Continuous
 62
   200
370
    20
100
AcDbLine
 10
-5840.081317971782
 20
4174.999769056166
 30
0.0
 11
-5840.081317971782
 21
-4205.000164959882
 31
0.0
  0
LINE
  5
8F
330
1F
100
AcDbEntity
  8
F-1_通り芯
  6
Continuous
 62
   200
370
    20
100
AcDbLine
 10
5859.917429364114
 20
-4205.000002577498
 30
0.0
 11
-5840.081085996952
 21
-4205.000002577498
 31
0.0
  0
LINE
  5
90
330
1F
100
AcDbEntity
  8
F-1_通り芯
  6
Continuous
 62
   200
370
    20
100
AcDbLine
 10
-5830.081323642279
 20
4174.999769056166
 30
0.0
 11
-5830.081323642279
 21
-4205.000164959882
 31
0.0
  0
LINE
  5
91
330
1F
100
AcDbEntity
  8
F-1_通り芯
  6
Continuous
 62
   200
370
    20
100
AcDbLine
 10
-5835.081309208291
 20
4174.999769056166
 30
0.0
 11
-5835.081309208291
 21
-4205.000164959882
 31
0.0
  0
LINE
  5
92
330
1F
100
AcDbEntity
  8
F-1_通り芯
  6
Continuous
 62
   200
370
    20
100
AcDbLine
 10
5854.917165428304
 20
4174.999769056166
 30
0.0
 11
5854.917165428304
 21
-4205.000164959882
 31
0.0
  0
LINE
  5
93
330
1F
100
AcDbEntity
  8
F-1_通り芯
  6
Continuous
 62
   200
370
    20
100
AcDbLine
 10
5849.917643811961
 20
4174.999769056166
 30
0.0
 11
5849.917643811961
 21
-4205.000164959882
 31
0.0
  0
LINE
  5
94
330
1F
100
AcDbEntity
  8
F-1_通り芯
  6
Continuous
 62
   200
370
    20
100
AcDbLine
 10
5859.917429364114
 20
-4199.999993814004
 30
0.0
 11
-5840.081085996952
 21
-4199.999993814004
 31
0.0
  0
LINE
  5
95
330
1F
100
AcDbEntity
  8
F-1_通り芯
  6
Continuous
 62
   200
370
    20
100
AcDbLine
 10
5859.917429364114
 20
-4195.000008247994
 30
0.0
 11
-5840.081085996952
 21
-4195.000008247994
 31
0.0
  0
LINE
  5
96
330
1F
100
AcDbEntity
  8
F-1_通り芯
  6
Continuous
 62
   200
370
    20
100
AcDbLine
 10
4349.917891251784
 20
-3795.000003092998
 30
0.0
 11
4349.917891251784
 21
-4195.000008247994
 31
0.0
  0
LINE
  5
97
330
1F
100
AcDbEntity
  8
F-1_通り芯
  6
Continuous
 62
   200
370
    20
100
AcDbLine
 10
2849.917396372139
 20
-3795.000003092998
 30
0.0
 11
2849.917396372139
 21
-4195.000008247994
 31
0.0
  0
LINE
  5
98
330
1F
100
AcDbEntity
  8
F-1_通り芯
  6
Continuous
 62
   200
370
    20
100
AcDbLine
 10
9.918542843316231
 20
-3795.000003092998
 30
0.0
 11
9.918542843316231
 21
-4195.000008247994
 31
0.0
  0
LINE
  5
99
330
1F
100
AcDbEntity
  8
F-1_通り芯
  6
Continuous
 62
   200
370
    20
100
AcDbLine
 10
9.918542843316231
 20
-3994.999936078046
 30
0.0
 11
5849.917643811961
 21
-3995.005364289155
 31
0.0
  0
LINE
  5
9A
330
1F
100
AcDbEntity
  8
F-1_通り芯
  6
Continuous
 62
   200
370
    20
100
AcDbLine
 10
-5840.081085996952
 20
4174.999769056166
 30
0.0
 11
5859.917429364114
 21
4174.999769056166
 31
0.0
  0
LINE
  5
9B
330
1F
100
AcDbEntity
  8
F-1_通り芯
  6
Continuous
 62
   200
370
    20
100
AcDbLine
 10
-5840.081085996952
 20
4164.999983504013
 30
0.0
 11
5859.917429364114
 21
4164.999983504013
 31
0.0
  0
LINE
  5
9C
330
1F
100
AcDbEntity
  8
F-1_通り芯
  6
Continuous
 62
   200
370
    20
100
AcDbLine
 10
-5840.081085996952
 20
4169.999505120355
 30
0.0
 11
5859.917429364114
 21
4169.999505120355
 31
0.0
  0
LINE
  5
9D
330
1F
100
AcDbEntity
  8
F-0_補助線
  6
JWW_HOJO
 62
     7
370
     9
100
AcDbLine
 10
-5830.081323642279
 20
-3994.99993607839
 30
0.0
 11
9.918542843316231
 21
-3994.99993607839
 31
0.0
  0
LINE
  5
9E
330
1F
100
AcDbEntity
  8
F-0_補助線
  6
JWW_HOJO
 62
     7
370
     9
100
AcDbLine
 10
-5830.081323642279
 20
-3904.99993607839
 30
0.0
 11
9.918542843316231
 21
-3904.99993607839
 31
0.0
  0
LINE
  5
9F
330
1F
100
AcDbEntity
  8
F-0_補助線
  6
JWW_HOJO
 62
     7
370
     9
100
AcDbLine
 10
-5830.081323642279
 20
-4084.99993607839
 30
0.0
 11
9.918542843316231
 21
-4084.99993607839
 31
0.0
  0
LINE
  5
A0
330
1F
100
AcDbEntity
  8
F-0_補助線
  6
JWW_HOJO
 62
     7
370
     9
100
AcDbLine
 10
9.918408067688347
 20
-4139.999739777983
 30
0.0
 11
5849.917509036332
 21
-4140.005167989091
 31
0.0
  0
LINE
  5
A1
330
1F
100
AcDbEntity
  8
F-0_補助線
  6
JWW_HOJO
 62
     7
370
     9
100
AcDbLine
 10
9.918491721639953
 20
-4049.999739778022
 30
0.0
 11
5849.917592690284
 21
-4050.005167989131
 31
0.0
  0
LINE
  5
A2
330
1F
100
AcDbEntity
  8
F-0_補助線
  6
JWW_HOJO
 62
     7
370
     9
100
AcDbLine
 10
9.918593965360003
 20
-3939.99973721807
 30
0.0
 11
5849.917694934004
 21
-3940.005165429179
 31
0.0
  0
LINE
  5
A3
330
1F
100
AcDbEntity
  8
F-0_補助線
  6
JWW_HOJO
 62
     7
370
     9
100
AcDbLine
 10
9.918677619311609
 20
-3849.999737218109
 30
0.0
 11
5849.917778587956
 21
-3850.005165429218
 31
0.0
  0
LINE
  5
A4
330
1F
100
AcDbEntity
  8
F-0_補助線
  6
JWW_HOJO
 62
     7
370
     9
100
AcDbLine
 10
2939.917396372139
 20
-3795.000003092998
 30
0.0
 11
2939.917396372139
 21
-4195.000008247994
 31
0.0
  0
LINE
  5
A5
330
1F
100
AcDbEntity
  8
F-0_補助線
  6
JWW_HOJO
 62
     7
370
     9
100
AcDbLine
 10
99.91854284331623
 20
-3795.000003092998
 30
0.0
 11
99.91854284331623
 21
-4195.000008247994
 31
0.0
  0
LINE
  5
A6
330
1F
100
AcDbEntity
  8
F-0_補助線
  6
JWW_HOJO
 62
     7
370
     9
100
AcDbLine
 10
4439.917891251784
 20
-3795.000003092998
 30
0.0
 11
4439.917891251784
 21
-4195.000008247994
 31
0.0
  0
LINE
  5
A7
330
1F
100
AcDbEntity
  8
F-1_通り芯
  6
Continuous
 62
   200
370
    20
100
AcDbLine
 10
5859.917429364114
 20
-3795.000003092998
 30
0.0
 11
-5840.081085996952
 21
-3795.000003092998
 31
0.0
  0
LINE
  5
A8
330
1F
100
AcDbEntity
  8
F-1_通り芯
  6
Continuous
 62
   200
370
    20
100
AcDbLine
 10
5859.917429364114
 20
-3790.000017526987
 30
0.0
 11
-5840.081085996952
 21
-3790.000017526987
 31
0.0
  0
LINE
  5
A9
330
1F
100
AcDbEntity
  8
F-0_補助線
  6
JWW_HOJO
 62
     7
370
     9
100
AcDbLine
 10
-5087.628710189611
 20
-3795.000003092999
 30
0.0
 11
-5087.628710189611
 21
-4205.000164959882
 31
0.0
  0
LINE
  5
AA
330
1F
100
AcDbEntity
  8
F-0_補助線
  6
JWW_HOJO
 62
     7
370
     9
100
AcDbLine
 10
-50.08145715668377
 20
-3795.000003092998
 30
0.0
 11
-50.08145715668377
 21
-4195.000008247994
 31
0.0
  0
TEXT
  5
AB
330
1F
100
AcDbEntity
  8
F-A_文字
  6
Continuous
 62
     7
370
     0
100
AcDbText
 10
99.91854284331623
 20
-3871.539820871936
 30
0.0
 40
45.72
  1
図面名
  7
ＭＳ ゴシック
100
AcDbText
  0
TEXT
  5
AC
330
1F
100
AcDbEntity
  8
F-A_文字
  6
Continuous
 62
     7
370
     0
100
AcDbText
 10
2939.917396372139
 20
-3871.542460617774
 30
0.0
 40
45.72
  1
ＳＣＡＬＥ
  7
ＭＳ ゴシック
100
AcDbText
  0
TEXT
  5
AD
330
1F
100
AcDbEntity
  8
F-A_文字
  6
Continuous
 62
     7
370
     0
100
AcDbText
 10
4439.917891251784
 20
-3871.543854850754
 30
0.0
 40
45.72
  1
ＤＡＴＥ
  7
ＭＳ ゴシック
100
AcDbText
  0
TEXT
  5
AE
330
1F
100
AcDbEntity
  8
F-A_文字
  6
Continuous
 62
     7
370
     0
100
AcDbText
 10
2939.917396372139
 20
-4071.54246317786
 30
0.0
 40
45.72
  1
ＦＩＬＥ
  7
ＭＳ ゴシック
100
AcDbText
  0
TEXT
  5
AF
330
1F
100
AcDbEntity
  8
F-A_文字
  6
Continuous
 62
     7
370
     0
100
AcDbText
 10
4439.917891251784
 20
-4071.543857410839
 30
0.0
 40
45.72
  1
ＮＯ．
  7
ＭＳ ゴシック
100
AcDbText
  0
TEXT
  5
B0
330
1F
100
AcDbEntity
  8
F-A_文字
  6
Continuous
 62
     7
370
     0
100
AcDbText
 10
1394.917396372138
 20
-4080.540669266148
 30
0.0
 40
45.72
  1
株式
  7
ＭＳ ゴシック
100
AcDbText
  0
TEXT
  5
B1
330
1F
100
AcDbEntity
  8
F-A_文字
  6
Continuous
 62
     7
370
     0
100
AcDbText
 10
1604.917396372138
 20
-4138.082379523928
 30
0.0
 40
91.44
  1
ウッドワン・・・
 41
1.109375
  7
ＭＳ ゴシック
100
AcDbText
  0
TEXT
  5
B2
330
1F
100
AcDbEntity
  8
F-A_文字
  6
Continuous
 62
     7
370
     0
100
AcDbText
 10
1394.917396372138
 20
-4152.540669266186
 30
0.0
 40
45.72
  1
会社
  7
ＭＳ ゴシック
100
AcDbText
  0
TEXT
  5
B3
330
1F
100
AcDbEntity
  8
F-A_文字
  6
Continuous
 62
     7
370
     0
100
AcDbText
 10
5768.321977672939
 20
-4291.441419020919
 30
0.0
 40
68.58
  1
）
  7
ＭＳ ゴシック
100
AcDbText
  0
TEXT
  5
B4
330
1F
100
AcDbEntity
  8
F-A_文字
  6
Continuous
 62
     7
370
     0
100
AcDbText
 10
5350.114617405298
 20
-4292.835443869856
 30
0.0
 40
68.58
  1
,
  7
ＭＳ ゴシック
100
AcDbText
  0
TEXT
  5
B5
330
1F
100
AcDbEntity
  8
F-A_文字
  6
Continuous
 62
     7
370
     0
100
AcDbText
 10
5083.855928478601
 20
-4294.229467288283
 30
0.0
 40
68.58
  1
$y
 41
1.083333333333333
  7
ＭＳ ゴシック
100
AcDbText
  0
TEXT
  5
B6
330
1F
100
AcDbEntity
  8
F-A_文字
  6
Continuous
 62
     7
370
     0
100
AcDbText
 10
5238.592649517422
 20
-4294.229467288283
 30
0.0
 40
68.58
  1
$m
 41
1.083333333333333
  7
ＭＳ ゴシック
100
AcDbText
  0
TEXT
  5
B7
330
1F
100
AcDbEntity
  8
F-A_文字
  6
Continuous
 62
     7
370
     0
100
AcDbText
 10
5393.32938200033
 20
-4294.229467288283
 30
0.0
 40
68.58
  1
$d
 41
1.083333333333333
  7
ＭＳ ゴシック
100
AcDbText
  0
TEXT
  5
B8
330
1F
100
AcDbEntity
  8
F-A_文字
  6
Continuous
 62
     7
370
     0
100
AcDbText
 10
5548.066114483239
 20
-4294.229467288283
 30
0.0
 40
68.58
  1
印刷
 41
1.083333333333333
  7
ＭＳ ゴシック
100
AcDbText
  0
TEXT
  5
B9
330
1F
100
AcDbEntity
  8
F-A_文字
  6
Continuous
 62
     7
370
     0
100
AcDbText
 10
4943.952040816226
 20
-4295.623493567732
 30
0.0
 40
68.58
  1
（
  7
ＭＳ ゴシック
100
AcDbText
  0
TEXT
  5
BA
330
1F
100
AcDbEntity
  8
F-A_文字
  6
Continuous
 62
     7
370
     0
100
AcDbText
 10
5191.195810375571
 20
-4295.623493567732
 30
0.0
 40
68.58
  1
,
  7
ＭＳ ゴシック
100
AcDbText
  0
TEXT
  5
BB
330
1F
100
AcDbEntity
  8
F-A_文字
  6
Continuous
 62
     7
370
     9
100
AcDbText
 10
5096.167700144057
 20
-4127.314512699985
 30
0.0
 40
68.58
  1
01
 41
1.083333333333333
  7
ＭＳ ゴシック
100
AcDbText
  0
TEXT
  5
BC
330
1F
100
AcDbEntity
  8
F-A_文字
  6
Continuous
 62
     7
370
     0
100
AcDbText
 10
3569.917643811961
 20
-3927.313115907308
 30
0.0
 40
68.58
  1
1/5
 41
1.111111111111111
  7
ＭＳ ゴシック
100
AcDbText
  0
TEXT
  5
BD
330
1F
100
AcDbEntity
  8
F-0_補助線
  6
Continuous
 62
     7
370
     0
100
AcDbText
 10
1359.766326241251
 20
-3928.097291872503
 30
0.0
 40
68.58
  1
建具納まり図
 41
1.138888888888888
  7
ＭＳ ゴシック
100
AcDbText
  0
TEXT
  5
BE
330
1F
100
AcDbEntity
  8
F-0_補助線
  6
Continuous
 62
     7
370
     0
100
AcDbText
 10
509.9185840832865
 20
-3928.097291872504
 30
0.0
 40
66.06
  1
ＰＩＮＯＥＡＲＴＨ
 41
0.8333333333333334
  7
HG明朝B
100
AcDbText
  0
LINE
  5
BF
330
1F
100
AcDbEntity
  8
F-0_補助線
  6
JWW_HOJO
 62
   120
370
     5
100
AcDbLine
 10
-6140.081333436773
 20
194.9998020481422
 30
0.0
 11
6159.917676803936
 21
194.9998020481422
 31
0.0
  0
LINE
  5
C0
330
1F
100
AcDbEntity
  8
F-0_補助線
  6
JWW_HOJO
 62
   120
370
     5
100
AcDbLine
 10
-5659.999495325861
 20
4424.999604096284
 30
0.0
 11
-5659.999495325861
 21
-4455.0
 31
0.0
  0
LINE
  5
C1
330
1F
100
AcDbEntity
  8
F-0_補助線
  6
JWW_HOJO
 62
   120
370
     5
100
AcDbLine
 10
-6140.081333436773
 20
2438.999683277028
 30
0.0
 11
6159.917676803936
 21
2438.999683277028
 31
0.0
  0
LINE
  5
C2
330
1F
100
AcDbEntity
  8
F-0_補助線
  6
JWW_HOJO
 62
   120
370
     5
100
AcDbLine
 10
-6140.081333436773
 20
-3159.000197951857
 30
0.0
 11
6159.917676803936
 21
-3159.000197951857
 31
0.0
  0
LINE
  5
C3
330
1F
100
AcDbEntity
  8
F-0_補助線
  6
JWW_HOJO
 62
   120
370
     5
100
AcDbLine
 10
-200.0818283164182
 20
-4455.0
 30
0.0
 11
-200.0818283164182
 21
194.9998020481422
 31
0.0
  0
LINE
  5
C4
330
1F
100
AcDbEntity
  8
F-0_補助線
  6
JWW_HOJO
 62
   120
370
     5
100
AcDbLine
 10
9.918171683581818
 20
-4455.0
 30
0.0
 11
9.918171683581818
 21
4424.999604096284
 31
0.0
  0
LINE
  5
C5
330
1F
100
AcDbEntity
  8
F-0_補助線
  6
JWW_HOJO
 62
   120
370
     5
100
AcDbLine
 10
219.9181716835818
 20
-4455.0
 30
0.0
 11
219.9181716835818
 21
194.9998020481422
 31
0.0
  0
LINE
  5
C6
330
1F
100
AcDbEntity
  8
F-0_補助線
  6
JWW_HOJO
 62
   120
370
     5
100
AcDbLine
 10
5679.835838693025
 20
4000.000181455871
 30
0.0
 11
5679.835838693025
 21
-4455.0
 31
0.0
  0
LINE
  5
C7
330
1F
100
AcDbEntity
  8
F-0_補助線
  6
JWW_HOJO
 62
   120
370
     5
100
AcDbLine
 10
-6140.081333436773
 20
3730.000181455871
 30
0.0
 11
6159.917676803936
 21
3730.000181455871
 31
0.0
  0
LINE
  5
C8
330
1F
100
AcDbEntity
  8
F-0_補助線
  6
JWW_HOJO
 62
   120
370
     5
100
AcDbLine
 10
-6140.081333436773
 20
4000.000181455871
 30
0.0
 11
6159.917676803936
 21
4000.000181455871
 31
0.0
  0
LINE
  5
C9
330
1F
100
AcDbEntity
  8
0-A_文字
  6
Continuous
 62
    92
370
    13
100
AcDbLine
 10
-5659.999495325861
 20
3730.000181455871
 30
0.0
 11
-5659.999495325861
 21
4000.000181455871
 31
0.0
  0
LINE
  5
CA
330
1F
100
AcDbEntity
  8
0-A_文字
  6
Continuous
 62
    92
370
    13
100
AcDbLine
 10
-5659.999495325861
 20
4000.000181455871
 30
0.0
 11
-2242.520838941434
 21
4000.000181455871
 31
0.0
  0
LINE
  5
CB
330
1F
100
AcDbEntity
  8
0-A_文字
  6
Continuous
 62
    92
370
    13
100
AcDbLine
 10
-2242.520838941434
 20
3730.000181455871
 30
0.0
 11
-2242.520838941434
 21
4000.000181455871
 31
0.0
  0
LINE
  5
CC
330
1F
100
AcDbEntity
  8
0-A_文字
  6
Continuous
 62
    92
370
    13
100
AcDbLine
 10
-5659.999495325861
 20
3730.000181455871
 30
0.0
 11
-2242.520838941434
 21
3730.000181455871
 31
0.0
  0
LINE
  5
CD
330
1F
100
AcDbEntity
  8
0-A_文字
  6
Continuous
 62
    92
370
    13
100
AcDbLine
 10
-2242.520838941434
 20
4000.000181455871
 30
0.0
 11
-2242.520838941434
 21
3730.000181455871
 31
0.0
  0
LINE
  5
CE
330
1F
100
AcDbEntity
  8
0-A_文字
  6
Continuous
 62
    92
370
    13
100
AcDbLine
 10
-2242.520838941434
 20
3730.000181455871
 30
0.0
 11
-2242.520838941434
 21
4000.000181455871
 31
0.0
  0
LINE
  5
CF
330
1F
100
AcDbEntity
  8
0-A_文字
  6
Continuous
 62
    92
370
    13
100
AcDbLine
 10
-2242.520838941434
 20
4000.000181455871
 30
0.0
 11
-654.8943594885884
 21
4000.000181455871
 31
0.0
  0
LINE
  5
D0
330
1F
100
AcDbEntity
  8
0-A_文字
  6
Continuous
 62
    92
370
    13
100
AcDbLine
 10
-654.8943594885884
 20
4000.000181455871
 30
0.0
 11
-654.8943594885884
 21
3730.000181455871
 31
0.0
  0
LINE
  5
D1
330
1F
100
AcDbEntity
  8
0-A_文字
  6
Continuous
 62
    92
370
    13
100
AcDbLine
 10
-2242.520838941434
 20
3730.000181455871
 30
0.0
 11
-654.8943594885884
 21
3730.000181455871
 31
0.0
  0
TEXT
  5
D2
330
1F
100
AcDbEntity
  8
0-A_文字
  6
Continuous
 62
    92
370
    13
100
AcDbText
 10
-2133.770838941434
 20
3800.380181455871
 30
0.0
 40
137.16
  1
ドア気密タイプ
 41
1.071428571428571
  7
ＭＳ ゴシック
100
AcDbText
  0
LINE
  5
D3
330
1F
100
AcDbEntity
  8
0-A_文字
  6
Continuous
 62
    92
370
    13
100
AcDbLine
 10
-2242.520838941434
 20
4000.000181455871
 30
0.0
 11
-2242.520838941434
 21
3730.000181455871
 31
0.0
  0
LINE
  5
D4
330
1F
100
AcDbEntity
  8
0-A_文字
  6
Continuous
 62
    92
370
    13
100
AcDbLine
 10
-669.8943594885884
 20
3985.000181455871
 30
0.0
 11
-669.8943594885884
 21
3745.000181455871
 31
0.0
  0
LINE
  5
D5
330
1F
100
AcDbEntity
  8
0-A_文字
  6
Continuous
 62
    92
370
    13
100
AcDbLine
 10
-2227.520838941434
 20
3745.000181455871
 30
0.0
 11
-669.8943594885884
 21
3745.000181455871
 31
0.0
  0
LINE
  5
D6
330
1F
100
AcDbEntity
  8
0-A_文字
  6
Continuous
 62
    92
370
    13
100
AcDbLine
 10
-2227.520838941434
 20
3985.000181455871
 30
0.0
 11
-669.8943594885884
 21
3985.000181455871
 31
0.0
  0
LINE
  5
D7
330
1F
100
AcDbEntity
  8
0-A_文字
  6
Continuous
 62
    92
370
    13
100
AcDbLine
 10
-2227.520838941434
 20
3985.000181455871
 30
0.0
 11
-2227.520838941434
 21
3745.000181455871
 31
0.0
  0
LINE
  5
D8
330
1F
100
AcDbEntity
  8
0-A_文字
  6
Continuous
 62
    92
370
    13
100
AcDbLine
 10
4083.835838693025
 20
3730.000181455871
 30
0.0
 11
4083.835838693025
 21
2764.000181455871
 31
0.0
  0
LINE
  5
D9
330
1F
100
AcDbEntity
  8
0-A_文字
  6
Continuous
 62
    92
370
    13
100
AcDbLine
 10
4083.835838693025
 20
3604.000181455871
 30
0.0
 11
5679.835838693025
 21
3604.000181455871
 31
0.0
  0
LINE
  5
DA
330
1F
100
AcDbEntity
  8
0-A_文字
  6
Continuous
 62
    92
370
    13
100
AcDbLine
 10
5679.835838693025
 20
3730.000181455871
 30
0.0
 11
4083.835838693025
 21
3730.000181455871
 31
0.0
  0
LINE
  5
DB
330
1F
100
AcDbEntity
  8
0-A_文字
  6
Continuous
 62
    92
370
    13
100
AcDbLine
 10
5679.835838693025
 20
3730.000181455871
 30
0.0
 11
5679.835838693025
 21
2764.000181455871
 31
0.0
  0
LINE
  5
DC
330
1F
100
AcDbEntity
  8
0-A_文字
  6
Continuous
 62
    92
370
    13
100
AcDbLine
 10
5679.835838693025
 20
2764.000181455871
 30
0.0
 11
4083.835838693025
 21
2764.000181455871
 31
0.0
  0
LINE
  5
DD
330
1F
100
AcDbEntity
  8
0-A_文字
  6
Continuous
 62
    92
370
    13
100
AcDbLine
 10
4881.835838693025
 20
3730.000181455871
 30
0.0
 11
4881.835838693025
 21
2764.000181455871
 31
0.0
  0
LINE
  5
DE
330
1F
100
AcDbEntity
  8
0-0_補助線
  6
JWW_HOJO
 62
   120
370
     5
100
AcDbLine
 10
5658.835838693025
 20
3730.000181455871
 30
0.0
 11
5658.835838693025
 21
2764.000181455871
 31
0.0
  0
LINE
  5
DF
330
1F
100
AcDbEntity
  8
0-0_補助線
  6
JWW_HOJO
 62
   120
370
     5
100
AcDbLine
 10
4902.835838693025
 20
3730.000181455871
 30
0.0
 11
4902.835838693025
 21
2764.000181455871
 31
0.0
  0
LINE
  5
E0
330
1F
100
AcDbEntity
  8
0-8_戸当
  6
Continuous
 62
    40
370
    15
100
AcDbLine
 10
5436.235838693025
 20
3481.846273380329
 30
0.0
 11
5658.835838693025
 21
3481.846273380329
 31
0.0
  0
LINE
  5
E1
330
1F
100
AcDbEntity
  8
0-8_戸当
  6
Continuous
 62
    40
370
    15
100
AcDbLine
 10
5436.235838693025
 20
3481.846273380329
 30
0.0
 11
5436.235838693025
 21
3444.046273380329
 31
0.0
  0
LINE
  5
E2
330
1F
100
AcDbEntity
  8
0-8_戸当
  6
Continuous
 62
    40
370
    15
100
AcDbLine
 10
5125.435838693026
 20
3481.846273380329
 30
0.0
 11
4902.835838693025
 21
3481.846273380329
 31
0.0
  0
LINE
  5
E3
330
1F
100
AcDbEntity
  8
0-8_戸当
  6
Continuous
 62
    40
370
    15
100
AcDbLine
 10
4638.235838693025
 20
3481.846273380329
 30
0.0
 11
4860.835838693025
 21
3481.846273380329
 31
0.0
  0
LINE
  5
E4
330
1F
100
AcDbEntity
  8
0-8_戸当
  6
Continuous
 62
    40
370
    15
100
AcDbLine
 10
4327.435838693025
 20
3481.846273380329
 30
0.0
 11
4327.435838693025
 21
3444.046273380329
 31
0.0
  0
LINE
  5
E5
330
1F
100
AcDbEntity
  8
0-8_戸当
  6
Continuous
 62
    40
370
    15
100
AcDbLine
 10
4327.435838693025
 20
3481.846273380329
 30
0.0
 11
4104.835838693025
 21
3481.846273380329
 31
0.0
  0
LINE
  5
E6
330
1F
100
AcDbEntity
  8
0-0_補助線
  6
JWW_HOJO
 62
   120
370
     5
100
AcDbLine
 10
4860.835838693025
 20
3730.000181455871
 30
0.0
 11
4860.835838693025
 21
2764.000181455871
 31
0.0
  0
LINE
  5
E7
330
1F
100
AcDbEntity
  8
0-0_補助線
  6
JWW_HOJO
 62
   120
370
     5
100
AcDbLine
 10
4104.835838693025
 20
3730.000181455871
 30
0.0
 11
4104.835838693025
 21
2764.000181455871
 31
0.0
  0
LINE
  5
E8
330
1F
100
AcDbEntity
  8
0-8_戸当
  6
Continuous
 62
    40
370
    15
100
AcDbLine
 10
4104.835838693025
 20
3444.046273380329
 30
0.0
 11
4860.835838693025
 21
3444.046273380329
 31
0.0
  0
LINE
  5
E9
330
1F
100
AcDbEntity
  8
0-8_戸当
  6
Continuous
 62
    40
370
    15
100
AcDbLine
 10
4638.235838693025
 20
3481.846273380329
 30
0.0
 11
4638.235838693025
 21
3133.246273380328
 31
0.0
  0
ARC
  5
EA
330
1F
100
AcDbEntity
  8
0-8_戸当
  6
Continuous
 62
    40
370
    15
100
AcDbCircle
 10
4638.235838693025
 20
3444.046273380329
 30
0.0
 40
310.8
100
AcDbArc
 50
180.0
 51
270.0
  0
LINE
  5
EB
330
1F
100
AcDbEntity
  8
0-8_戸当
  6
Continuous
 62
    40
370
    15
100
AcDbLine
 10
5658.835838693025
 20
3444.046273380329
 30
0.0
 11
4902.835838693025
 21
3444.046273380329
 31
0.0
  0
LINE
  5
EC
330
1F
100
AcDbEntity
  8
0-8_戸当
  6
Continuous
 62
    40
370
    15
100
AcDbLine
 10
5125.435838693026
 20
3481.846273380329
 30
0.0
 11
5125.435838693024
 21
3133.246273380328
 31
0.0
  0
ARC
  5
ED
330
1F
100
AcDbEntity
  8
0-8_戸当
  6
Continuous
 62
    40
370
    15
100
AcDbCircle
 10
5125.435838693024
 20
3444.046273380329
 30
0.0
 40
310.8
100
AcDbArc
 50
270.0
 51
0.0
  0
ELLIPSE
  5
EE
330
1F
100
AcDbEntity
  8
0-8_戸当
  6
Continuous
 62
    92
370
    13
100
AcDbEllipse
 10
5207.192036141518
 20
2972.884428393056
 30
0.0
 11
-17.7763823922528
 21
100.8148742797557
 31
0.0
210
0.0
220
0.0
230
1.0
 40
0.4000000000000001
 41
1.85063327265668
 42
2.442876790075129
  0
ELLIPSE
  5
EF
330
1F
100
AcDbEntity
  8
0-8_戸当
  6
Continuous
 62
    92
370
    13
100
AcDbEllipse
 10
5207.192036141518
 20
2972.884428393056
 30
0.0
 11
-17.7763823922528
 21
100.8148742797557
 31
0.0
210
0.0
220
0.0
230
1.0
 40
0.4000000000000001
 41
3.840308517104467
 42
4.432552034522944
  0
ELLIPSE
  5
F0
330
1F
100
AcDbEntity
  8
0-8_戸当
  6
Continuous
 62
    92
370
    13
100
AcDbEllipse
 10
5206.772290091618
 20
2975.264926534712
 30
0.0
 11
-14.67024424252691
 21
83.19908946199425
 31
0.0
210
0.0
220
0.0
230
1.0
 40
0.5
 41
4.340591432030095
 42
8.225779182329084
  0
LINE
  5
F1
330
1F
100
AcDbEntity
  8
0-8_戸当
  6
Continuous
 62
    92
370
    13
100
AcDbLine
 10
5246.74191991428
 20
2900.267379069787
 30
0.0
 11
5194.863795824744
 21
2891.119866084259
 31
0.0
  0
LINE
  5
F2
330
1F
100
AcDbEntity
  8
0-8_戸当
  6
Continuous
 62
    92
370
    13
100
AcDbLine
 10
5248.929886952883
 20
2887.858801381833
 30
0.0
 11
5197.051762863347
 21
2878.711288396305
 31
0.0
  0
ELLIPSE
  5
F3
330
1F
100
AcDbEntity
  8
0-8_戸当
  6
Continuous
 62
    92
370
    13
100
AcDbEllipse
 10
5222.990824908115
 20
2883.285044889069
 30
0.0
 11
-7.622927487939132
 21
43.23177007461331
 31
0.0
210
0.0
220
0.0
230
1.0
 40
0.6
 41
1.570796326794897
 42
4.71238898038469
  0
ELLIPSE
  5
F4
330
1F
100
AcDbEntity
  8
0-8_戸当
  6
Continuous
 62
    92
370
    13
100
AcDbEllipse
 10
5361.652805079396
 20
3008.935263882863
 30
0.0
 11
26.49533313827762
 21
98.88192943551533
 31
0.0
210
0.0
220
0.0
230
1.0
 40
0.4
 41
1.85063327265668
 42
2.442876790075129
  0
ELLIPSE
  5
F5
330
1F
100
AcDbEntity
  8
0-8_戸当
  6
Continuous
 62
    92
370
    13
100
AcDbEllipse
 10
5361.652805079396
 20
3008.935263882863
 30
0.0
 11
26.49533313827762
 21
98.88192943551533
 31
0.0
210
0.0
220
0.0
230
1.0
 40
0.4
 41
3.840308517104467
 42
4.432552034522944
  0
ELLIPSE
  5
F6
330
1F
100
AcDbEntity
  8
0-8_戸当
  6
Continuous
 62
    92
370
    13
100
AcDbEllipse
 10
5362.278427952497
 20
3011.270120231655
 30
0.0
 11
21.86569797210526
 21
81.6038957748525
 31
0.0
210
0.0
220
0.0
230
1.0
 40
0.5
 41
4.340591432030095
 42
8.225779182329084
  0
LINE
  5
F7
330
1F
100
AcDbEntity
  8
0-8_戸当
  6
Continuous
 62
    92
370
    13
100
AcDbLine
 10
5366.807881561305
 20
2926.407363477469
 30
0.0
 11
5315.924427684911
 21
2940.041543851755
 31
0.0
  0
LINE
  5
F8
330
1F
100
AcDbEntity
  8
0-8_戸当
  6
Continuous
 62
    92
370
    13
100
AcDbLine
 10
5363.546761593014
 20
2914.236698066227
 30
0.0
 11
5312.66330771662
 21
2927.870878440513
 31
0.0
  0
ELLIPSE
  5
F9
330
1F
100
AcDbEntity
  8
0-8_戸当
  6
Continuous
 62
    92
370
    13
100
AcDbEllipse
 10
5338.105034654818
 20
2921.05378825337
 30
0.0
 11
11.36181697857171
 21
42.40287823032828
 31
0.0
210
0.0
220
0.0
230
1.0
 40
0.6
 41
1.570796326794897
 42
4.71238898038469
  0
LINE
  5
FA
330
1F
100
AcDbEntity
  8
0-0_補助線
  6
JWW_HOJO
 62
   120
370
     5
100
AcDbLine
 10
5280.835838693025
 20
3730.000181455871
 30
0.0
 11
5280.835838693025
 21
2764.000181455871
 31
0.0
  0
LINE
  5
FB
330
1F
100
AcDbEntity
  8
0-0_補助線
  6
JWW_HOJO
 62
   120
370
     5
100
AcDbLine
 10
4482.835838693024
 20
3730.000181455871
 30
0.0
 11
4482.835838693024
 21
2764.000181455871
 31
0.0
  0
ELLIPSE
  5
FC
330
1F
100
AcDbEntity
  8
0-8_戸当
  6
Continuous
 62
    92
370
    13
100
AcDbEllipse
 10
4409.192036141519
 20
2972.884428393056
 30
0.0
 11
-17.7763823922528
 21
100.8148742797557
 31
0.0
210
0.0
220
0.0
230
1.0
 40
0.4000000000000001
 41
1.85063327265668
 42
2.442876790075129
  0
ELLIPSE
  5
FD
330
1F
100
AcDbEntity
  8
0-8_戸当
  6
Continuous
 62
    92
370
    13
100
AcDbEllipse
 10
4409.192036141519
 20
2972.884428393056
 30
0.0
 11
-17.7763823922528
 21
100.8148742797557
 31
0.0
210
0.0
220
0.0
230
1.0
 40
0.4000000000000001
 41
3.840308517104467
 42
4.432552034522944
  0
ELLIPSE
  5
FE
330
1F
100
AcDbEntity
  8
0-8_戸当
  6
Continuous
 62
    92
370
    13
100
AcDbEllipse
 10
4408.772290091617
 20
2975.264926534712
 30
0.0
 11
-14.67024424252691
 21
83.19908946199425
 31
0.0
210
0.0
220
0.0
230
1.0
 40
0.5
 41
4.340591432030095
 42
8.225779182329084
  0
LINE
  5
FF
330
1F
100
AcDbEntity
  8
0-8_戸当
  6
Continuous
 62
    92
370
    13
100
AcDbLine
 10
4448.741919914279
 20
2900.267379069787
 30
0.0
 11
4396.863795824744
 21
2891.119866084259
 31
0.0
  0
LINE
  5
100
330
1F
100
AcDbEntity
  8
0-8_戸当
  6
Continuous
 62
    92
370
    13
100
AcDbLine
 10
4450.929886952883
 20
2887.858801381833
 30
0.0
 11
4399.051762863347
 21
2878.711288396305
 31
0.0
  0
ELLIPSE
  5
101
330
1F
100
AcDbEntity
  8
0-8_戸当
  6
Continuous
 62
    92
370
    13
100
AcDbEllipse
 10
4424.990824908115
 20
2883.285044889069
 30
0.0
 11
-7.622927487939132
 21
43.23177007461331
 31
0.0
210
0.0
220
0.0
230
1.0
 40
0.6
 41
1.570796326794897
 42
4.71238898038469
  0
ELLIPSE
  5
102
330
1F
100
AcDbEntity
  8
0-8_戸当
  6
Continuous
 62
    92
370
    13
100
AcDbEllipse
 10
4563.652805079395
 20
3008.935263882863
 30
0.0
 11
26.49533313827762
 21
98.88192943551533
 31
0.0
210
0.0
220
0.0
230
1.0
 40
0.4
 41
1.85063327265668
 42
2.442876790075129
  0
ELLIPSE
  5
103
330
1F
100
AcDbEntity
  8
0-8_戸当
  6
Continuous
 62
    92
370
    13
100
AcDbEllipse
 10
4563.652805079395
 20
3008.935263882863
 30
0.0
 11
26.49533313827762
 21
98.88192943551533
 31
0.0
210
0.0
220
0.0
230
1.0
 40
0.4
 41
3.840308517104467
 42
4.432552034522944
  0
ELLIPSE
  5
104
330
1F
100
AcDbEntity
  8
0-8_戸当
  6
Continuous
 62
    92
370
    13
100
AcDbEllipse
 10
4564.278427952496
 20
3011.270120231655
 30
0.0
 11
21.86569797210526
 21
81.6038957748525
 31
0.0
210
0.0
220
0.0
230
1.0
 40
0.5
 41
4.340591432030095
 42
8.225779182329084
  0
LINE
  5
105
330
1F
100
AcDbEntity
  8
0-8_戸当
  6
Continuous
 62
    92
370
    13
100
AcDbLine
 10
4568.807881561304
 20
2926.407363477469
 30
0.0
 11
4517.92442768491
 21
2940.041543851755
 31
0.0
  0
LINE
  5
106
330
1F
100
AcDbEntity
  8
0-8_戸当
  6
Continuous
 62
    92
370
    13
100
AcDbLine
 10
4565.546761593013
 20
2914.236698066227
 30
0.0
 11
4514.66330771662
 21
2927.870878440513
 31
0.0
  0
ELLIPSE
  5
107
330
1F
100
AcDbEntity
  8
0-8_戸当
  6
Continuous
 62
    92
370
    13
100
AcDbEllipse
 10
4540.105034654816
 20
2921.05378825337
 30
0.0
 11
11.36181697857171
 21
42.40287823032828
 31
0.0
210
0.0
220
0.0
230
1.0
 40
0.6
 41
1.570796326794897
 42
4.71238898038469
  0
TEXT
  5
108
330
1F
100
AcDbEntity
  8
0-A_文字
  6
Continuous
 62
     7
370
     9
100
AcDbText
 10
4083.835838693027
 20
3776.920181455872
 30
0.0
 40
91.44
  1
■吊り手方向
 41
1.104166666666667
  7
ＭＳ ゴシック
100
AcDbText
  0
TEXT
  5
109
330
1F
100
AcDbEntity
  8
0-A_文字
  6
Continuous
 62
     7
370
     9
100
AcDbText
 10
4332.835838693027
 20
3634.690181455871
 30
0.0
 40
68.58
  1
右吊元
 41
1.111111111111111
  7
ＭＳ ゴシック
100
AcDbText
  0
TEXT
  5
10A
330
1F
100
AcDbEntity
  8
0-A_文字
  6
Continuous
 62
     7
370
     9
100
AcDbText
 10
5130.835838693025
 20
3634.690181455871
 30
0.0
 40
68.58
  1
左吊元
 41
1.111111111111111
  7
ＭＳ ゴシック
100
AcDbText
  0
LINE
  5
10B
330
1F
100
AcDbEntity
  8
0-A_文字
  6
Continuous
 62
    92
370
    13
100
AcDbLine
 10
219.9181716835831
 20
-404.9999919582028
 30
0.0
 11
219.9181716835831
 21
-2124.04154883779
 31
0.0
  0
LINE
  5
10C
330
1F
100
AcDbEntity
  8
0-A_文字
  6
Continuous
 62
    92
370
    13
100
AcDbLine
 10
1719.918171683585
 20
-2124.04154883779
 30
0.0
 11
219.9181716835831
 21
-2124.04154883779
 31
0.0
  0
LINE
  5
10D
330
1F
100
AcDbEntity
  8
0-A_文字
  6
Continuous
 62
    92
370
    13
100
AcDbLine
 10
1719.918171683583
 20
-404.9999919582028
 30
0.0
 11
219.9181716835814
 21
-404.9999919582028
 31
0.0
  0
LINE
  5
10E
330
1F
100
AcDbEntity
  8
0-A_文字
  6
Continuous
 62
    92
370
    13
100
AcDbLine
 10
1719.918171683585
 20
-584.9999919582028
 30
0.0
 11
219.9181716835814
 21
-584.9999919582028
 31
0.0
  0
LINE
  5
10F
330
1F
100
AcDbEntity
  8
0-A_文字
  6
Continuous
 62
    92
370
    13
100
AcDbLine
 10
1719.918171683585
 20
-404.9999919582028
 30
0.0
 11
1719.918171683585
 21
-2124.04154883779
 31
0.0
  0
TEXT
  5
110
330
1F
100
AcDbEntity
  8
0-A_文字
  6
Continuous
 62
     7
370
     9
100
AcDbText
 10
549.9181716835831
 20
-538.0799919582029
 30
0.0
 40
91.44
  1
竪枠下端加工図
  7
ＭＳ ゴシック
100
AcDbText
  0
LINE
  5
111
330
1F
100
AcDbEntity
  8
0-B_寸法
  6
Continuous
 62
   120
370
     5
100
AcDbLine
 10
634.9453859169778
 20
-773.3626323731964
 30
0.0
 11
634.9453859169778
 21
-923.3626323731964
 31
0.0
  0
LINE
  5
112
330
1F
100
AcDbEntity
  8
0-B_寸法
  6
Continuous
 62
   120
370
     5
100
AcDbLine
 10
634.9453859169778
 20
-773.3626323731964
 30
0.0
 11
1564.945385916981
 21
-773.3626323731964
 31
0.0
  0
LINE
  5
113
330
1F
100
AcDbEntity
  8
0-B_寸法
  6
Continuous
 62
   120
370
     5
100
AcDbLine
 10
1564.945385916981
 20
-773.3626323731964
 30
0.0
 11
1564.945385916981
 21
-923.3626323731964
 31
0.0
  0
LWPOLYLINE
  5
114
330
1F
100
AcDbEntity
  8
0-B_寸法
  6
Continuous
 62
     7
370
     9
100
AcDbPolyline
 90
        4
 70
     1
 43
6.0
 10
637.9453859169778
 20
-773.3626323731964
 42
0.4142135623731
 10
634.9453859169778
 20
-770.3626323731963
 42
0.4142135623731
 10
631.9453859169777
 20
-773.3626323731964
 42
0.4142135623731
 10
634.9453859169778
 20
-776.3626323731964
 42
0.4142135623731
  0
LWPOLYLINE
  5
115
330
1F
100
AcDbEntity
  8
0-B_寸法
  6
Continuous
 62
     7
370
     9
100
AcDbPolyline
 90
        4
 70
     1
 43
6.0
 10
1567.945385916981
 20
-773.3626323731964
 42
0.4142135623731
 10
1564.945385916981
 20
-770.3626323731963
 42
0.4142135623731
 10
1561.945385916981
 20
-773.3626323731964
 42
0.4142135623731
 10
1564.945385916981
 20
-776.3626323731964
 42
0.4142135623731
  0
TEXT
  5
116
330
1F
100
AcDbEntity
  8
0-B_寸法
  6
Continuous
 62
     7
370
     0
100
AcDbText
 10
981.0840467817097
 20
-743.1506681113336
 30
0.0
 40
91.44
  1
155
  7
ＭＳ ゴシック
100
AcDbText
  0
LINE
  5
117
330
1F
100
AcDbEntity
  8
0-A_文字
  6
Continuous
 62
     7
370
     9
100
AcDbLine
 10
1001.754036885788
 20
-1666.911251404969
 30
0.0
 11
1180.27009697348
 21
-1419.950183264979
 31
0.0
  0
LINE
  5
118
330
1F
100
AcDbEntity
  8
0-A_文字
  6
Continuous
 62
     7
370
     9
100
AcDbLine
 10
1001.754036885788
 20
-1666.911251404969
 30
0.0
 11
1024.236170359726
 21
-1605.068575349891
 31
0.0
  0
TEXT
  5
119
330
1F
100
AcDbEntity
  8
0-A_文字
  6
Continuous
 62
     7
370
     0
100
AcDbText
 10
1034.458851405589
 20
-1385.05391691956
 30
0.0
 40
91.44
  1
現場ｶｯﾄ
  7
ＭＳ ゴシック
100
AcDbText
  0
LINE
  5
11A
330
1F
100
AcDbEntity
  8
0-C_ﾊｯﾁ
  6
JWW_DASHED1
 62
   120
370
     5
100
AcDbLine
 10
1508.022213567795
 20
-1706.877906267157
 30
0.0
 11
1556.022213567803
 21
-1658.877906267149
 31
0.0
  0
LINE
  5
11B
330
1F
100
AcDbEntity
  8
0-C_ﾊｯﾁ
  6
JWW_DASHED1
 62
   120
370
     5
100
AcDbLine
 10
897.0819546226498
 20
-1706.877906267154
 30
0.0
 11
945.0819546226539
 21
-1658.877906267149
 31
0.0
  0
LINE
  5
11C
330
1F
100
AcDbEntity
  8
0-C_ﾊｯﾁ
  6
JWW_DASHED1
 62
   120
370
     5
100
AcDbLine
 10
922.5377987453548
 20
-1706.877906267146
 30
0.0
 11
970.5377987453487
 21
-1658.877906267149
 31
0.0
  0
LINE
  5
11D
330
1F
100
AcDbEntity
  8
0-C_ﾊｯﾁ
  6
JWW_DASHED1
 62
   120
370
     5
100
AcDbLine
 10
947.9936428680462
 20
-1706.877906267153
 30
0.0
 11
995.9936428680503
 21
-1658.877906267149
 31
0.0
  0
LINE
  5
11E
330
1F
100
AcDbEntity
  8
0-C_ﾊｯﾁ
  6
JWW_DASHED1
 62
   120
370
     5
100
AcDbLine
 10
973.4494869907963
 20
-1706.877906267157
 30
0.0
 11
1021.449486990804
 21
-1658.877906267149
 31
0.0
  0
LINE
  5
11F
330
1F
100
AcDbEntity
  8
0-C_ﾊｯﾁ
  6
JWW_DASHED1
 62
   120
370
     5
100
AcDbLine
 10
998.905331113504
 20
-1706.877906267147
 30
0.0
 11
1046.905331113502
 21
-1658.877906267149
 31
0.0
  0
LINE
  5
120
330
1F
100
AcDbEntity
  8
0-C_ﾊｯﾁ
  6
JWW_DASHED1
 62
   120
370
     5
100
AcDbLine
 10
1049.817019358941
 20
-1706.877906267157
 30
0.0
 11
1097.817019358952
 21
-1658.877906267149
 31
0.0
  0
LINE
  5
121
330
1F
100
AcDbEntity
  8
0-C_ﾊｯﾁ
  6
JWW_DASHED1
 62
   120
370
     5
100
AcDbLine
 10
1024.361175236193
 20
-1706.877906267154
 30
0.0
 11
1072.361175236201
 21
-1658.877906267149
 31
0.0
  0
LINE
  5
122
330
1F
100
AcDbEntity
  8
0-C_ﾊｯﾁ
  6
JWW_DASHED1
 62
   120
370
     5
100
AcDbLine
 10
1075.272863481651
 20
-1706.877906267148
 30
0.0
 11
1123.272863481647
 21
-1658.877906267149
 31
0.0
  0
LINE
  5
123
330
1F
100
AcDbEntity
  8
0-C_ﾊｯﾁ
  6
JWW_DASHED1
 62
   120
370
     5
100
AcDbLine
 10
1482.566369445047
 20
-1706.877906267153
 30
0.0
 11
1530.56636944505
 21
-1658.877906267149
 31
0.0
  0
LINE
  5
124
330
1F
100
AcDbEntity
  8
0-C_ﾊｯﾁ
  6
JWW_DASHED1
 62
   120
370
     5
100
AcDbLine
 10
1100.728707604346
 20
-1706.87790626715
 30
0.0
 11
1148.728707604346
 21
-1658.877906267149
 31
0.0
  0
LINE
  5
125
330
1F
100
AcDbEntity
  8
0-C_ﾊｯﾁ
  6
JWW_DASHED1
 62
   120
370
     5
100
AcDbLine
 10
1457.110525322346
 20
-1706.87790626715
 30
0.0
 11
1505.110525322346
 21
-1658.877906267149
 31
0.0
  0
LINE
  5
126
330
1F
100
AcDbEntity
  8
0-C_ﾊｯﾁ
  6
JWW_DASHED1
 62
   120
370
     5
100
AcDbLine
 10
1126.18455172705
 20
-1706.87790626715
 30
0.0
 11
1174.18455172705
 21
-1658.877906267149
 31
0.0
  0
LINE
  5
127
330
1F
100
AcDbEntity
  8
0-C_ﾊｯﾁ
  6
JWW_DASHED1
 62
   120
370
     5
100
AcDbLine
 10
1151.640395849801
 20
-1706.87790626715
 30
0.0
 11
1199.640395849803
 21
-1658.877906267149
 31
0.0
  0
LINE
  5
128
330
1F
100
AcDbEntity
  8
0-C_ﾊｯﾁ
  6
JWW_DASHED1
 62
   120
370
     5
100
AcDbLine
 10
1177.096239972499
 20
-1706.87790626715
 30
0.0
 11
1225.096239972501
 21
-1658.877906267149
 31
0.0
  0
LINE
  5
129
330
1F
100
AcDbEntity
  8
0-C_ﾊｯﾁ
  6
JWW_DASHED1
 62
   120
370
     5
100
AcDbLine
 10
1202.552084095196
 20
-1706.87790626715
 30
0.0
 11
1250.5520840952
 21
-1658.877906267149
 31
0.0
  0
LINE
  5
12A
330
1F
100
AcDbEntity
  8
0-C_ﾊｯﾁ
  6
JWW_DASHED1
 62
   120
370
     5
100
AcDbLine
 10
1228.007928217949
 20
-1706.87790626715
 30
0.0
 11
1276.007928217953
 21
-1658.877906267149
 31
0.0
  0
LINE
  5
12B
330
1F
100
AcDbEntity
  8
0-C_ﾊｯﾁ
  6
JWW_DASHED1
 62
   120
370
     5
100
AcDbLine
 10
1253.463772340649
 20
-1706.87790626715
 30
0.0
 11
1301.463772340647
 21
-1658.877906267149
 31
0.0
  0
LINE
  5
12C
330
1F
100
AcDbEntity
  8
0-C_ﾊｯﾁ
  6
JWW_DASHED1
 62
   120
370
     5
100
AcDbLine
 10
1278.919616463343
 20
-1706.87790626715
 30
0.0
 11
1326.919616463345
 21
-1658.877906267149
 31
0.0
  0
LINE
  5
12D
330
1F
100
AcDbEntity
  8
0-C_ﾊｯﾁ
  6
JWW_DASHED1
 62
   120
370
     5
100
AcDbLine
 10
1304.37546058605
 20
-1706.87790626715
 30
0.0
 11
1352.375460586049
 21
-1658.877906267149
 31
0.0
  0
LINE
  5
12E
330
1F
100
AcDbEntity
  8
0-C_ﾊｯﾁ
  6
JWW_DASHED1
 62
   120
370
     5
100
AcDbLine
 10
1329.831304708801
 20
-1706.87790626715
 30
0.0
 11
1377.831304708803
 21
-1658.877906267149
 31
0.0
  0
LINE
  5
12F
330
1F
100
AcDbEntity
  8
0-C_ﾊｯﾁ
  6
JWW_DASHED1
 62
   120
370
     5
100
AcDbLine
 10
1355.287148831499
 20
-1706.87790626715
 30
0.0
 11
1403.287148831501
 21
-1658.877906267149
 31
0.0
  0
LINE
  5
130
330
1F
100
AcDbEntity
  8
0-C_ﾊｯﾁ
  6
JWW_DASHED1
 62
   120
370
     5
100
AcDbLine
 10
1380.742992954196
 20
-1706.87790626715
 30
0.0
 11
1428.7429929542
 21
-1658.877906267149
 31
0.0
  0
LINE
  5
131
330
1F
100
AcDbEntity
  8
0-C_ﾊｯﾁ
  6
JWW_DASHED1
 62
   120
370
     5
100
AcDbLine
 10
1406.198837076949
 20
-1706.87790626715
 30
0.0
 11
1454.198837076952
 21
-1658.877906267149
 31
0.0
  0
LINE
  5
132
330
1F
100
AcDbEntity
  8
0-C_ﾊｯﾁ
  6
JWW_DASHED1
 62
   120
370
     5
100
AcDbLine
 10
1431.654681199649
 20
-1706.87790626715
 30
0.0
 11
1479.654681199647
 21
-1658.877906267149
 31
0.0
  0
LINE
  5
133
330
1F
100
AcDbEntity
  8
0-C_ﾊｯﾁ
  6
JWW_DASHED1
 62
   120
370
     5
100
AcDbLine
 10
1533.478057690547
 20
-1706.877906267157
 30
0.0
 11
1564.945385916981
 21
-1675.410578040723
 31
0.0
  0
LINE
  5
134
330
1F
100
AcDbEntity
  8
0-C_ﾊｯﾁ
  6
JWW_DASHED1
 62
   120
370
     5
100
AcDbLine
 10
1558.933901813299
 20
-1706.877906267157
 30
0.0
 11
1564.945385916981
 21
-1700.866422163474
 31
0.0
  0
LINE
  5
135
330
1F
100
AcDbEntity
  8
0-4_枠
  6
Continuous
 62
    92
370
    13
100
AcDbLine
 10
1564.945385916981
 20
-994.9558114187848
 30
0.0
 11
1564.945385916981
 21
-1706.87790626715
 31
0.0
  0
LINE
  5
136
330
1F
100
AcDbEntity
  8
0-B_寸法
  6
Continuous
 62
   120
370
     5
100
AcDbLine
 10
442.598744937331
 20
-1706.87790626715
 30
0.0
 11
442.598744937331
 21
-1616.87790626715
 31
0.0
  0
LWPOLYLINE
  5
137
330
1F
100
AcDbEntity
  8
0-B_寸法
  6
Continuous
 62
     7
370
     9
100
AcDbPolyline
 90
        4
 70
     1
 43
6.0
 10
445.598744937331
 20
-1706.87790626715
 42
0.4142135623731
 10
442.598744937331
 20
-1703.877906267149
 42
0.4142135623731
 10
439.5987449373311
 20
-1706.87790626715
 42
0.4142135623731
 10
442.598744937331
 20
-1709.87790626715
 42
0.4142135623731
  0
LINE
  5
138
330
1F
100
AcDbEntity
  8
0-B_寸法
  6
Continuous
 62
   120
370
     5
100
AcDbLine
 10
442.598744937331
 20
-1706.87790626715
 30
0.0
 11
562.598744937331
 21
-1706.87790626715
 31
0.0
  0
LWPOLYLINE
  5
139
330
1F
100
AcDbEntity
  8
0-B_寸法
  6
Continuous
 62
     7
370
     9
100
AcDbPolyline
 90
        4
 70
     1
 43
6.0
 10
445.598744937331
 20
-1658.877906267149
 42
0.4142135623731
 10
442.598744937331
 20
-1655.877906267149
 42
0.4142135623731
 10
439.5987449373311
 20
-1658.877906267149
 42
0.4142135623731
 10
442.598744937331
 20
-1661.87790626715
 42
0.4142135623731
  0
LINE
  5
13A
330
1F
100
AcDbEntity
  8
0-B_寸法
  6
Continuous
 62
   120
370
     5
100
AcDbLine
 10
442.598744937331
 20
-1658.877906267149
 30
0.0
 11
562.598744937331
 21
-1658.877906267149
 31
0.0
  0
TEXT
  5
13B
330
1F
100
AcDbEntity
  8
0-B_寸法
  6
Continuous
 62
     7
370
   211
100
AcDbText
 10
410.678744937331
 20
-1710.22026146673
 30
0.0
 40
91.44
  1
8
 50
90.0
  7
ＭＳ ゴシック
100
AcDbText
  0
LINE
  5
13C
330
1F
100
AcDbEntity
  8
0-4_枠
  6
Continuous
 62
    92
370
    13
100
AcDbLine
 10
634.9453859169778
 20
-994.9558114187848
 30
0.0
 11
634.9453859169778
 21
-1706.87790626715
 31
0.0
  0
LINE
  5
13D
330
1F
100
AcDbEntity
  8
0-4_枠
  6
Continuous
 62
    92
370
    13
100
AcDbLine
 10
1564.945385916981
 20
-1658.877906267149
 30
0.0
 11
634.9453859169778
 21
-1658.877906267149
 31
0.0
  0
LINE
  5
13E
330
1F
100
AcDbEntity
  8
0-4_枠
  6
Continuous
 62
    92
370
    13
100
AcDbLine
 10
634.9453859169778
 20
-1706.87790626715
 30
0.0
 11
1564.945385916981
 21
-1706.87790626715
 31
0.0
  0
LINE
  5
13F
330
1F
100
AcDbEntity
  8
0-C_ﾊｯﾁ
  6
JWW_DASHED1
 62
   120
370
     5
100
AcDbLine
 10
871.6261104999013
 20
-1706.87790626715
 30
0.0
 11
919.6261104998978
 21
-1658.877906267149
 31
0.0
  0
LINE
  5
140
330
1F
100
AcDbEntity
  8
0-C_ﾊｯﾁ
  6
JWW_DASHED1
 62
   120
370
     5
100
AcDbLine
 10
846.170266377175
 20
-1706.87790626715
 30
0.0
 11
894.1702663772072
 21
-1658.877906267149
 31
0.0
  0
LINE
  5
141
330
1F
100
AcDbEntity
  8
0-C_ﾊｯﾁ
  6
JWW_DASHED1
 62
   120
370
     5
100
AcDbLine
 10
693.4352016409049
 20
-1706.877906267154
 30
0.0
 11
741.435201640909
 21
-1658.877906267149
 31
0.0
  0
LINE
  5
142
330
1F
100
AcDbEntity
  8
0-C_ﾊｯﾁ
  6
JWW_DASHED1
 62
   120
370
     5
100
AcDbLine
 10
718.8910457636099
 20
-1706.877906267146
 30
0.0
 11
766.8910457636038
 21
-1658.877906267149
 31
0.0
  0
LINE
  5
143
330
1F
100
AcDbEntity
  8
0-C_ﾊｯﾁ
  6
JWW_DASHED1
 62
   120
370
     5
100
AcDbLine
 10
744.3468898863013
 20
-1706.877906267153
 30
0.0
 11
792.3468898863053
 21
-1658.877906267149
 31
0.0
  0
LINE
  5
144
330
1F
100
AcDbEntity
  8
0-C_ﾊｯﾁ
  6
JWW_DASHED1
 62
   120
370
     5
100
AcDbLine
 10
769.8027340090515
 20
-1706.877906267157
 30
0.0
 11
817.802734009059
 21
-1658.877906267149
 31
0.0
  0
LINE
  5
145
330
1F
100
AcDbEntity
  8
0-C_ﾊｯﾁ
  6
JWW_DASHED1
 62
   120
370
     5
100
AcDbLine
 10
795.258578131759
 20
-1706.877906267147
 30
0.0
 11
843.2585781317572
 21
-1658.877906267149
 31
0.0
  0
LINE
  5
146
330
1F
100
AcDbEntity
  8
0-C_ﾊｯﾁ
  6
JWW_DASHED1
 62
   120
370
     5
100
AcDbLine
 10
820.7144222544479
 20
-1706.877906267154
 30
0.0
 11
868.7144222544562
 21
-1658.877906267149
 31
0.0
  0
LINE
  5
147
330
1F
100
AcDbEntity
  8
0-C_ﾊｯﾁ
  6
JWW_DASHED1
 62
   120
370
     5
100
AcDbLine
 10
667.9793575181565
 20
-1706.87790626715
 30
0.0
 11
715.9793575181528
 21
-1658.877906267149
 31
0.0
  0
LINE
  5
148
330
1F
100
AcDbEntity
  8
0-C_ﾊｯﾁ
  6
JWW_DASHED1
 62
   120
370
     5
100
AcDbLine
 10
642.5235133954301
 20
-1706.87790626715
 30
0.0
 11
690.5235133954624
 21
-1658.877906267149
 31
0.0
  0
LINE
  5
149
330
1F
100
AcDbEntity
  8
0-C_ﾊｯﾁ
  6
JWW_DASHED1
 62
   120
370
     5
100
AcDbLine
 10
634.9453859169778
 20
-1663.54434550025
 30
0.0
 11
639.6118251500814
 21
-1658.877906267149
 31
0.0
  0
LINE
  5
14A
330
1F
100
AcDbEntity
  8
0-C_ﾊｯﾁ
  6
JWW_DASHED1
 62
   120
370
     5
100
AcDbLine
 10
634.9453859169778
 20
-1689.000189622923
 30
0.0
 11
665.0676692727718
 21
-1658.877906267149
 31
0.0
  0
TEXT
  5
14B
330
1F
100
AcDbEntity
  8
F-A_文字
  6
Continuous
 62
     7
370
     0
100
AcDbText
 10
4938.667793092893
 20
-3919.814510139966
 30
0.0
 40
68.58
  1
2018.10.30
 41
1.15
  7
ＭＳ ゴシック
100
AcDbText
  0
TEXT
  5
14C
330
1F
100
AcDbEntity
  8
0-A_文字
  6
Continuous
 62
    92
370
    13
100
AcDbText
 10
-5453.749495325861
 20
3800.380181455871
 30
0.0
 40
137.16
  1
トイレドア　３方枠[固定枠155巾]
 41
1.080645161290323
  7
ＭＳ ゴシック
100
AcDbText
  0
TEXT
  5
14D
330
1F
100
AcDbEntity
  8
F-A_文字
  6
Continuous
 62
     7
370
     0
100
AcDbText
 10
-5027.581323642279
 20
-4027.30993607839
 30
0.0
 40
68.58
  1
ピノアース　トイレドア　固定枠155　気密　３方枠　ドアＨ1,995　枠外Ｗ共通
 41
1.162037037037037
  7
ＭＳ ゴシック
100
AcDbText
  0
LINE
  5
14E
330
1F
100
AcDbEntity
  8
0-C_ﾊｯﾁ
  6
JWW_DASHED1
 62
   120
370
     5
100
AcDbLine
 10
-1895.081828316433
 20
2784.643690385343
 30
0.0
 11
-1925.725835424738
 21
2753.999683277038
 31
0.0
  0
LINE
  5
14F
330
1F
100
AcDbEntity
  8
0-C_ﾊｯﾁ
  6
JWW_DASHED1
 62
   120
370
     5
100
AcDbLine
 10
-1895.081828316433
 20
2827.070097256543
 30
0.0
 11
-1968.152242295932
 21
2753.999683277041
 31
0.0
  0
LINE
  5
150
330
1F
100
AcDbEntity
  8
0-C_ﾊｯﾁ
  6
JWW_DASHED1
 62
   120
370
     5
100
AcDbLine
 10
-1935.578649167132
 20
2828.999683277041
 30
0.0
 11
-2010.578649167132
 21
2753.999683277044
 31
0.0
  0
LINE
  5
151
330
1F
100
AcDbEntity
  8
0-C_ﾊｯﾁ
  6
JWW_DASHED1
 62
   120
370
     5
100
AcDbLine
 10
-1978.005056038345
 20
2828.999683277031
 30
0.0
 11
-2053.005056038338
 21
2753.999683277036
 31
0.0
  0
LINE
  5
152
330
1F
100
AcDbEntity
  8
0-C_ﾊｯﾁ
  6
JWW_DASHED1
 62
   120
370
     5
100
AcDbLine
 10
-2020.431462909538
 20
2828.999683277034
 30
0.0
 11
-2095.431462909552
 21
2753.999683277024
 31
0.0
  0
LINE
  5
153
330
1F
100
AcDbEntity
  8
0-C_ﾊｯﾁ
  6
JWW_DASHED1
 62
   120
370
     5
100
AcDbLine
 10
-2062.857869780738
 20
2828.999683277034
 30
0.0
 11
-2137.857869780752
 21
2753.999683277021
 31
0.0
  0
LINE
  5
154
330
1F
100
AcDbEntity
  8
0-C_ﾊｯﾁ
  6
JWW_DASHED1
 62
   120
370
     5
100
AcDbLine
 10
-2105.284276651952
 20
2828.999683277021
 30
0.0
 11
-2180.284276651952
 21
2753.999683277024
 31
0.0
  0
LINE
  5
155
330
1F
100
AcDbEntity
  8
0-C_ﾊｯﾁ
  6
JWW_DASHED1
 62
   120
370
     5
100
AcDbLine
 10
-2147.710683523152
 20
2828.999683277024
 30
0.0
 11
-2222.710683523145
 21
2753.999683277028
 31
0.0
  0
LINE
  5
156
330
1F
100
AcDbEntity
  8
0-C_ﾊｯﾁ
  6
JWW_DASHED1
 62
   120
370
     5
100
AcDbLine
 10
-2190.137090394291
 20
2828.999683277031
 30
0.0
 11
-2265.137090394284
 21
2753.999683277034
 31
0.0
  0
LINE
  5
157
330
1F
100
AcDbEntity
  8
0-C_ﾊｯﾁ
  6
JWW_DASHED1
 62
   120
370
     5
100
AcDbLine
 10
-2232.563497265484
 20
2828.999683277033
 30
0.0
 11
-2307.563497265484
 21
2753.999683277034
 31
0.0
  0
LINE
  5
158
330
1F
100
AcDbEntity
  8
0-C_ﾊｯﾁ
  6
JWW_DASHED1
 62
   120
370
     5
100
AcDbLine
 10
-2274.989904136684
 20
2828.999683277036
 30
0.0
 11
-2349.989904136684
 21
2753.999683277038
 31
0.0
  0
LINE
  5
159
330
1F
100
AcDbEntity
  8
0-C_ﾊｯﾁ
  6
JWW_DASHED1
 62
   120
370
     5
100
AcDbLine
 10
-2317.416311007884
 20
2828.999683277034
 30
0.0
 11
-2392.416311007877
 21
2753.999683277039
 31
0.0
  0
LINE
  5
15A
330
1F
100
AcDbEntity
  8
0-C_ﾊｯﾁ
  6
JWW_DASHED1
 62
   120
370
     5
100
AcDbLine
 10
-2359.842717879104
 20
2828.999683277038
 30
0.0
 11
-2434.842717879104
 21
2753.999683277012
 31
0.0
  0
LINE
  5
15B
330
1F
100
AcDbEntity
  8
0-C_ﾊｯﾁ
  6
JWW_DASHED1
 62
   120
370
     5
100
AcDbLine
 10
-1895.081828316419
 20
2063.394773575115
 30
0.0
 11
-1909.476918614509
 21
2048.999683277031
 31
0.0
  0
LINE
  5
15C
330
1F
100
AcDbEntity
  8
0-C_ﾊｯﾁ
  6
JWW_DASHED1
 62
   120
370
     5
100
AcDbLine
 10
-1895.081828316426
 20
2105.821180446314
 30
0.0
 11
-1951.903325485702
 21
2048.999683277034
 31
0.0
  0
LINE
  5
15D
330
1F
100
AcDbEntity
  8
0-C_ﾊｯﾁ
  6
JWW_DASHED1
 62
   120
370
     5
100
AcDbLine
 10
-1919.329732356847
 20
2123.999683277038
 30
0.0
 11
-1994.32973235684
 21
2048.999683277041
 31
0.0
  0
LINE
  5
15E
330
1F
100
AcDbEntity
  8
0-C_ﾊｯﾁ
  6
JWW_DASHED1
 62
   120
370
     5
100
AcDbLine
 10
-1961.75613922804
 20
2123.999683277039
 30
0.0
 11
-2036.75613922804
 21
2048.999683277043
 31
0.0
  0
LINE
  5
15F
330
1F
100
AcDbEntity
  8
0-C_ﾊｯﾁ
  6
JWW_DASHED1
 62
   120
370
     5
100
AcDbLine
 10
-2004.18254609924
 20
2123.999683277043
 30
0.0
 11
-2079.18254609924
 21
2048.999683277044
 31
0.0
  0
LINE
  5
160
330
1F
100
AcDbEntity
  8
0-C_ﾊｯﾁ
  6
JWW_DASHED1
 62
   120
370
     5
100
AcDbLine
 10
-2046.608952970447
 20
2123.999683277034
 30
0.0
 11
-2121.608952970461
 21
2048.999683277024
 31
0.0
  0
LINE
  5
161
330
1F
100
AcDbEntity
  8
0-C_ﾊｯﾁ
  6
JWW_DASHED1
 62
   120
370
     5
100
AcDbLine
 10
-2089.035359841647
 20
2123.999683277033
 30
0.0
 11
-2164.035359841661
 21
2048.999683277019
 31
0.0
  0
LINE
  5
162
330
1F
100
AcDbEntity
  8
0-C_ﾊｯﾁ
  6
JWW_DASHED1
 62
   120
370
     5
100
AcDbLine
 10
-2131.461766712861
 20
2123.999683277019
 30
0.0
 11
-2206.461766712861
 21
2048.999683277022
 31
0.0
  0
LINE
  5
163
330
1F
100
AcDbEntity
  8
0-C_ﾊｯﾁ
  6
JWW_DASHED1
 62
   120
370
     5
100
AcDbLine
 10
-2173.888173584061
 20
2123.999683277021
 30
0.0
 11
-2248.888173584061
 21
2048.999683277024
 31
0.0
  0
LINE
  5
164
330
1F
100
AcDbEntity
  8
0-C_ﾊｯﾁ
  6
JWW_DASHED1
 62
   120
370
     5
100
AcDbLine
 10
-2216.314580455261
 20
2123.999683277024
 30
0.0
 11
-2291.314580455254
 21
2048.999683277028
 31
0.0
  0
LINE
  5
165
330
1F
100
AcDbEntity
  8
0-C_ﾊｯﾁ
  6
JWW_DASHED1
 62
   120
370
     5
100
AcDbLine
 10
-2258.7409873264
 20
2123.999683277031
 30
0.0
 11
-2333.740987326393
 21
2048.999683277034
 31
0.0
  0
LINE
  5
166
330
1F
100
AcDbEntity
  8
0-C_ﾊｯﾁ
  6
JWW_DASHED1
 62
   120
370
     5
100
AcDbLine
 10
-2301.167394197593
 20
2123.999683277034
 30
0.0
 11
-2376.167394197593
 21
2048.999683277038
 31
0.0
  0
LINE
  5
167
330
1F
100
AcDbEntity
  8
0-C_ﾊｯﾁ
  6
JWW_DASHED1
 62
   120
370
     5
100
AcDbLine
 10
-2343.593801068793
 20
2123.999683277034
 30
0.0
 11
-2418.593801068806
 21
2048.999683277024
 31
0.0
  0
LINE
  5
168
330
1F
100
AcDbEntity
  8
0-C_ﾊｯﾁ
  6
JWW_DASHED1
 62
   120
370
     5
100
AcDbLine
 10
-2630.725835424766
 20
2048.999683277029
 30
0.0
 11
-2555.725835424772
 21
2123.999683277024
 31
0.0
  0
LINE
  5
169
330
1F
100
AcDbEntity
  8
0-C_ﾊｯﾁ
  6
JWW_DASHED1
 62
   120
370
     5
100
AcDbLine
 10
-2588.299428553566
 20
2048.999683277028
 30
0.0
 11
-2513.299428553572
 21
2123.999683277021
 31
0.0
  0
LINE
  5
16A
330
1F
100
AcDbEntity
  8
0-C_ﾊｯﾁ
  6
JWW_DASHED1
 62
   120
370
     5
100
AcDbLine
 10
-2545.873021682413
 20
2048.999683277031
 30
0.0
 11
-2470.8730216824
 21
2123.999683277044
 31
0.0
  0
LINE
  5
16B
330
1F
100
AcDbEntity
  8
0-C_ﾊｯﾁ
  6
JWW_DASHED1
 62
   120
370
     5
100
AcDbLine
 10
-2503.44661481122
 20
2048.999683277028
 30
0.0
 11
-2428.446614811206
 21
2123.999683277043
 31
0.0
  0
LINE
  5
16C
330
1F
100
AcDbEntity
  8
0-C_ﾊｯﾁ
  6
JWW_DASHED1
 62
   120
370
     5
100
AcDbLine
 10
-2461.020207940006
 20
2048.99968327704
 30
0.0
 11
-2386.020207940006
 21
2123.999683277039
 31
0.0
  0
LINE
  5
16D
330
1F
100
AcDbEntity
  8
0-C_ﾊｯﾁ
  6
JWW_DASHED1
 62
   120
370
     5
100
AcDbLine
 10
-2604.54834536385
 20
2753.999683277031
 30
0.0
 11
-2529.548345363864
 21
2828.999683277024
 31
0.0
  0
LINE
  5
16E
330
1F
100
AcDbEntity
  8
0-C_ﾊｯﾁ
  6
JWW_DASHED1
 62
   120
370
     5
100
AcDbLine
 10
-2562.121938492711
 20
2753.999683277026
 30
0.0
 11
-2487.121938492698
 21
2828.999683277041
 31
0.0
  0
LINE
  5
16F
330
1F
100
AcDbEntity
  8
0-C_ﾊｯﾁ
  6
JWW_DASHED1
 62
   120
370
     5
100
AcDbLine
 10
-2519.695531621511
 20
2753.999683277024
 30
0.0
 11
-2444.695531621498
 21
2828.999683277039
 31
0.0
  0
LINE
  5
170
330
1F
100
AcDbEntity
  8
0-C_ﾊｯﾁ
  6
JWW_DASHED1
 62
   120
370
     5
100
AcDbLine
 10
-2477.269124750298
 20
2753.999683277041
 30
0.0
 11
-2402.269124750298
 21
2828.999683277041
 31
0.0
  0
LINE
  5
171
330
1F
100
AcDbEntity
  8
0-B_寸法
  6
Continuous
 62
   120
370
     5
100
AcDbLine
 10
-1442.551838630343
 20
2903.999683277028
 30
0.0
 11
-1649.683977453941
 21
2903.999683277028
 31
0.0
  0
LINE
  5
172
330
1F
100
AcDbEntity
  8
0-B_寸法
  6
Continuous
 62
   120
370
     5
100
AcDbLine
 10
-1442.551838630343
 20
1973.999683277028
 30
0.0
 11
-1649.683977453941
 21
1973.999683277028
 31
0.0
  0
LINE
  5
173
330
1F
100
AcDbEntity
  8
0-B_寸法
  6
Continuous
 62
   120
370
     5
100
AcDbLine
 10
-1442.551838630343
 20
2903.999683277028
 30
0.0
 11
-1442.551838630343
 21
1973.999683277028
 31
0.0
  0
LWPOLYLINE
  5
174
330
1F
100
AcDbEntity
  8
0-B_寸法
  6
Continuous
 62
     7
370
     9
100
AcDbPolyline
 90
        4
 70
     1
 43
6.0
 10
-1439.551838630343
 20
2903.999683277028
 42
0.4142135623731
 10
-1442.551838630343
 20
2906.999683277027
 42
0.4142135623731
 10
-1445.551838630343
 20
2903.999683277028
 42
0.4142135623731
 10
-1442.551838630343
 20
2900.999683277028
 42
0.4142135623731
  0
LWPOLYLINE
  5
175
330
1F
100
AcDbEntity
  8
0-B_寸法
  6
Continuous
 62
     7
370
     9
100
AcDbPolyline
 90
        4
 70
     1
 43
6.0
 10
-1439.551838630343
 20
1973.999683277028
 42
0.4142135623731
 10
-1442.551838630343
 20
1976.999683277028
 42
0.4142135623731
 10
-1445.551838630343
 20
1973.999683277028
 42
0.4142135623731
 10
-1442.551838630343
 20
1970.999683277028
 42
0.4142135623731
  0
LINE
  5
176
330
1F
100
AcDbEntity
  8
0-C_ﾊｯﾁ
  6
JWW_DASHED1
 62
   120
370
     5
100
AcDbLine
 10
-3012.563497265504
 20
2048.999683277024
 30
0.0
 11
-2937.563497265494
 21
2123.999683277035
 31
0.0
  0
LINE
  5
177
330
1F
100
AcDbEntity
  8
0-C_ﾊｯﾁ
  6
JWW_DASHED1
 62
   120
370
     5
100
AcDbLine
 10
-2970.137090394294
 20
2048.999683277035
 30
0.0
 11
-2895.137090394298
 21
2123.999683277031
 31
0.0
  0
LINE
  5
178
330
1F
100
AcDbEntity
  8
0-C_ﾊｯﾁ
  6
JWW_DASHED1
 62
   120
370
     5
100
AcDbLine
 10
-2927.710683523097
 20
2048.999683277031
 30
0.0
 11
-2852.710683523104
 21
2123.999683277027
 31
0.0
  0
LINE
  5
179
330
1F
100
AcDbEntity
  8
0-C_ﾊｯﾁ
  6
JWW_DASHED1
 62
   120
370
     5
100
AcDbLine
 10
-2885.284276651897
 20
2048.999683277033
 30
0.0
 11
-2810.284276651908
 21
2123.999683277022
 31
0.0
  0
LINE
  5
17A
330
1F
100
AcDbEntity
  8
0-C_ﾊｯﾁ
  6
JWW_DASHED1
 62
   120
370
     5
100
AcDbLine
 10
-2842.857869780701
 20
2048.999683277029
 30
0.0
 11
-2767.857869780711
 21
2123.999683277017
 31
0.0
  0
LINE
  5
17B
330
1F
100
AcDbEntity
  8
0-C_ﾊｯﾁ
  6
JWW_DASHED1
 62
   120
370
     5
100
AcDbLine
 10
-2800.431462909504
 20
2048.999683277026
 30
0.0
 11
-2725.431462909518
 21
2123.999683277014
 31
0.0
  0
LINE
  5
17C
330
1F
100
AcDbEntity
  8
0-C_ﾊｯﾁ
  6
JWW_DASHED1
 62
   120
370
     5
100
AcDbLine
 10
-2758.005056038366
 20
2048.999683277018
 30
0.0
 11
-2683.005056038352
 21
2123.999683277033
 31
0.0
  0
LINE
  5
17D
330
1F
100
AcDbEntity
  8
0-C_ﾊｯﾁ
  6
JWW_DASHED1
 62
   120
370
     5
100
AcDbLine
 10
-2715.578649167172
 20
2048.999683277014
 30
0.0
 11
-2640.578649167152
 21
2123.999683277029
 31
0.0
  0
LINE
  5
17E
330
1F
100
AcDbEntity
  8
0-C_ﾊｯﾁ
  6
JWW_DASHED1
 62
   120
370
     5
100
AcDbLine
 10
-2673.152242295956
 20
2048.999683277028
 30
0.0
 11
-2598.152242295959
 21
2123.999683277028
 31
0.0
  0
LINE
  5
17F
330
1F
100
AcDbEntity
  8
0-C_ﾊｯﾁ
  6
JWW_DASHED1
 62
   120
370
     5
100
AcDbLine
 10
-3028.812414075806
 20
2753.999683277015
 30
0.0
 11
-2953.812414075792
 21
2828.999683277028
 31
0.0
  0
LINE
  5
180
330
1F
100
AcDbEntity
  8
0-C_ﾊｯﾁ
  6
JWW_DASHED1
 62
   120
370
     5
100
AcDbLine
 10
-2986.386007204609
 20
2753.999683277012
 30
0.0
 11
-2911.386007204595
 21
2828.999683277025
 31
0.0
  0
LINE
  5
181
330
1F
100
AcDbEntity
  8
0-C_ﾊｯﾁ
  6
JWW_DASHED1
 62
   120
370
     5
100
AcDbLine
 10
-2943.959600333385
 20
2753.999683277036
 30
0.0
 11
-2868.959600333389
 21
2828.999683277031
 31
0.0
  0
LINE
  5
182
330
1F
100
AcDbEntity
  8
0-C_ﾊｯﾁ
  6
JWW_DASHED1
 62
   120
370
     5
100
AcDbLine
 10
-2901.533193462189
 20
2753.999683277031
 30
0.0
 11
-2826.533193462195
 21
2828.999683277027
 31
0.0
  0
LINE
  5
183
330
1F
100
AcDbEntity
  8
0-C_ﾊｯﾁ
  6
JWW_DASHED1
 62
   120
370
     5
100
AcDbLine
 10
-2859.106786590989
 20
2753.999683277033
 30
0.0
 11
-2784.106786590999
 21
2828.999683277022
 31
0.0
  0
LINE
  5
184
330
1F
100
AcDbEntity
  8
0-C_ﾊｯﾁ
  6
JWW_DASHED1
 62
   120
370
     5
100
AcDbLine
 10
-2816.680379719789
 20
2753.999683277029
 30
0.0
 11
-2741.680379719802
 21
2828.999683277018
 31
0.0
  0
LINE
  5
185
330
1F
100
AcDbEntity
  8
0-C_ﾊｯﾁ
  6
JWW_DASHED1
 62
   120
370
     5
100
AcDbLine
 10
-2774.253972848595
 20
2753.999683277026
 30
0.0
 11
-2699.253972848609
 21
2828.999683277014
 31
0.0
  0
LINE
  5
186
330
1F
100
AcDbEntity
  8
0-C_ﾊｯﾁ
  6
JWW_DASHED1
 62
   120
370
     5
100
AcDbLine
 10
-2731.827565977457
 20
2753.999683277018
 30
0.0
 11
-2656.827565977443
 21
2828.999683277033
 31
0.0
  0
LINE
  5
187
330
1F
100
AcDbEntity
  8
0-C_ﾊｯﾁ
  6
JWW_DASHED1
 62
   120
370
     5
100
AcDbLine
 10
-2689.40115910626
 20
2753.999683277015
 30
0.0
 11
-2614.401159106243
 21
2828.999683277029
 31
0.0
  0
LINE
  5
188
330
1F
100
AcDbEntity
  8
0-C_ﾊｯﾁ
  6
JWW_DASHED1
 62
   120
370
     5
100
AcDbLine
 10
-2646.974752235043
 20
2753.999683277028
 30
0.0
 11
-2571.97475223505
 21
2828.999683277028
 31
0.0
  0
TEXT
  5
189
330
1F
100
AcDbEntity
  8
0-B_寸法
  6
Continuous
 62
     7
370
     0
100
AcDbText
 10
-1474.471838630343
 20
2348.999683277028
 30
0.0
 40
91.44
  1
155
 50
90.0
  7
ＭＳ ゴシック
100
AcDbText
  0
LINE
  5
18A
330
1F
100
AcDbEntity
  8
0-0_補助線
  6
JWW_HOJO
 62
   120
370
     5
100
AcDbLine
 10
3114.918171683583
 20
1793.999683277027
 30
0.0
 11
3114.918171683583
 21
3083.999683277027
 31
0.0
  0
LINE
  5
18B
330
1F
100
AcDbEntity
  8
0-C_ﾊｯﾁ
  6
JWW_DASHED1
 62
   120
370
     5
100
AcDbLine
 10
1958.414992534298
 20
2048.999683277014
 30
0.0
 11
2033.414992534295
 21
2123.99968327701
 31
0.0
  0
LINE
  5
18C
330
1F
100
AcDbEntity
  8
0-C_ﾊｯﾁ
  6
JWW_DASHED1
 62
   120
370
     5
100
AcDbLine
 10
2000.841399405508
 20
2048.999683277024
 30
0.0
 11
2075.841399405503
 21
2123.999683277019
 31
0.0
  0
LINE
  5
18D
330
1F
100
AcDbEntity
  8
0-C_ﾊｯﾁ
  6
JWW_DASHED1
 62
   120
370
     5
100
AcDbLine
 10
2043.267806276705
 20
2048.999683277021
 30
0.0
 11
2118.267806276715
 21
2123.999683277031
 31
0.0
  0
LINE
  5
18E
330
1F
100
AcDbEntity
  8
0-C_ﾊｯﾁ
  6
JWW_DASHED1
 62
   120
370
     5
100
AcDbLine
 10
2085.694213147905
 20
2048.999683277021
 30
0.0
 11
2160.694213147919
 21
2123.999683277034
 31
0.0
  0
LINE
  5
18F
330
1F
100
AcDbEntity
  8
0-C_ﾊｯﾁ
  6
JWW_DASHED1
 62
   120
370
     5
100
AcDbLine
 10
2128.120620019119
 20
2048.999683277034
 30
0.0
 11
2203.120620019115
 21
2123.999683277031
 31
0.0
  0
LINE
  5
190
330
1F
100
AcDbEntity
  8
0-C_ﾊｯﾁ
  6
JWW_DASHED1
 62
   120
370
     5
100
AcDbLine
 10
2170.547026890315
 20
2048.999683277031
 30
0.0
 11
2245.547026890312
 21
2123.999683277028
 31
0.0
  0
LINE
  5
191
330
1F
100
AcDbEntity
  8
0-C_ﾊｯﾁ
  6
JWW_DASHED1
 62
   120
370
     5
100
AcDbLine
 10
2212.973433761454
 20
2048.999683277024
 30
0.0
 11
2287.97343376145
 21
2123.999683277021
 31
0.0
  0
LINE
  5
192
330
1F
100
AcDbEntity
  8
0-C_ﾊｯﾁ
  6
JWW_DASHED1
 62
   120
370
     5
100
AcDbLine
 10
2255.39984063265
 20
2048.999683277022
 30
0.0
 11
2330.399840632651
 21
2123.999683277021
 31
0.0
  0
LINE
  5
193
330
1F
100
AcDbEntity
  8
0-C_ﾊｯﾁ
  6
JWW_DASHED1
 62
   120
370
     5
100
AcDbLine
 10
2297.826247503847
 20
2048.999683277019
 30
0.0
 11
2372.826247503845
 21
2123.999683277017
 31
0.0
  0
LINE
  5
194
330
1F
100
AcDbEntity
  8
0-C_ﾊｯﾁ
  6
JWW_DASHED1
 62
   120
370
     5
100
AcDbLine
 10
2340.252654375051
 20
2048.999683277021
 30
0.0
 11
2415.252654375044
 21
2123.999683277015
 31
0.0
  0
LINE
  5
195
330
1F
100
AcDbEntity
  8
0-C_ﾊｯﾁ
  6
JWW_DASHED1
 62
   120
370
     5
100
AcDbLine
 10
2382.679061246259
 20
2048.999683277031
 30
0.0
 11
2457.679061246272
 21
2123.999683277043
 31
0.0
  0
LINE
  5
196
330
1F
100
AcDbEntity
  8
0-C_ﾊｯﾁ
  6
JWW_DASHED1
 62
   120
370
     5
100
AcDbLine
 10
2425.105468117454
 20
2048.999683277026
 30
0.0
 11
2500.105468117454
 21
2123.999683277025
 31
0.0
  0
LINE
  5
197
330
1F
100
AcDbEntity
  8
0-C_ﾊｯﾁ
  6
JWW_DASHED1
 62
   120
370
     5
100
AcDbLine
 10
2467.531874988665
 20
2048.999683277036
 30
0.0
 11
2542.531874988651
 21
2123.999683277022
 31
0.0
  0
LINE
  5
198
330
1F
100
AcDbEntity
  8
0-C_ﾊｯﾁ
  6
JWW_DASHED1
 62
   120
370
     5
100
AcDbLine
 10
1942.166075724014
 20
2753.999683277017
 30
0.0
 11
2017.166075724007
 21
2828.999683277014
 31
0.0
  0
LINE
  5
199
330
1F
100
AcDbEntity
  8
0-C_ﾊｯﾁ
  6
JWW_DASHED1
 62
   120
370
     5
100
AcDbLine
 10
1984.592482595207
 20
2753.999683277015
 30
0.0
 11
2059.592482595205
 21
2828.999683277012
 31
0.0
  0
LINE
  5
19A
330
1F
100
AcDbEntity
  8
0-C_ﾊｯﾁ
  6
JWW_DASHED1
 62
   120
370
     5
100
AcDbLine
 10
2027.018889466405
 20
2753.999683277012
 30
0.0
 11
2102.0188894664
 21
2828.99968327701
 31
0.0
  0
LINE
  5
19B
330
1F
100
AcDbEntity
  8
0-C_ﾊｯﾁ
  6
JWW_DASHED1
 62
   120
370
     5
100
AcDbLine
 10
2069.445296337614
 20
2753.999683277021
 30
0.0
 11
2144.445296337624
 21
2828.999683277031
 31
0.0
  0
LINE
  5
19C
330
1F
100
AcDbEntity
  8
0-C_ﾊｯﾁ
  6
JWW_DASHED1
 62
   120
370
     5
100
AcDbLine
 10
2111.871703208814
 20
2753.999683277022
 30
0.0
 11
2186.871703208828
 21
2828.999683277036
 31
0.0
  0
LINE
  5
19D
330
1F
100
AcDbEntity
  8
0-C_ﾊｯﾁ
  6
JWW_DASHED1
 62
   120
370
     5
100
AcDbLine
 10
2154.298110080028
 20
2753.999683277036
 30
0.0
 11
2229.298110080028
 21
2828.999683277033
 31
0.0
  0
LINE
  5
19E
330
1F
100
AcDbEntity
  8
0-C_ﾊｯﾁ
  6
JWW_DASHED1
 62
   120
370
     5
100
AcDbLine
 10
2196.724516951228
 20
2753.999683277034
 30
0.0
 11
2271.724516951221
 21
2828.999683277031
 31
0.0
  0
LINE
  5
19F
330
1F
100
AcDbEntity
  8
0-C_ﾊｯﾁ
  6
JWW_DASHED1
 62
   120
370
     5
100
AcDbLine
 10
2239.150923822421
 20
2753.999683277031
 30
0.0
 11
2314.150923822421
 21
2828.999683277028
 31
0.0
  0
LINE
  5
1A0
330
1F
100
AcDbEntity
  8
0-C_ﾊｯﾁ
  6
JWW_DASHED1
 62
   120
370
     5
100
AcDbLine
 10
2281.577330693559
 20
2753.999683277024
 30
0.0
 11
2356.57733069356
 21
2828.999683277021
 31
0.0
  0
LINE
  5
1A1
330
1F
100
AcDbEntity
  8
0-C_ﾊｯﾁ
  6
JWW_DASHED1
 62
   120
370
     5
100
AcDbLine
 10
2324.00373756476
 20
2753.999683277021
 30
0.0
 11
2399.003737564756
 21
2828.999683277017
 31
0.0
  0
LINE
  5
1A2
330
1F
100
AcDbEntity
  8
0-C_ﾊｯﾁ
  6
JWW_DASHED1
 62
   120
370
     5
100
AcDbLine
 10
2366.43014443596
 20
2753.999683277021
 30
0.0
 11
2441.430144435971
 21
2828.999683277031
 31
0.0
  0
LINE
  5
1A3
330
1F
100
AcDbEntity
  8
0-C_ﾊｯﾁ
  6
JWW_DASHED1
 62
   120
370
     5
100
AcDbLine
 10
2408.856551307154
 20
2753.999683277017
 30
0.0
 11
2473.905834263585
 21
2819.048966233446
 31
0.0
  0
LINE
  5
1A4
330
1F
100
AcDbEntity
  8
0-C_ﾊｯﾁ
  6
JWW_DASHED1
 62
   120
370
     5
100
AcDbLine
 10
2451.282958178363
 20
2753.999683277026
 30
0.0
 11
2526.282958178363
 21
2828.999683277026
 31
0.0
  0
LINE
  5
1A5
330
1F
100
AcDbEntity
  8
0-3_仕上
  6
Continuous
 62
    92
370
    13
100
AcDbLine
 10
2307.223903601686
 20
2123.999683277028
 30
0.0
 11
2307.223903601686
 21
2753.999683277028
 31
0.0
  0
LINE
  5
1A6
330
1F
100
AcDbEntity
  8
0-C_ﾊｯﾁ
  6
JWW_DASHED1
 62
   120
370
     5
100
AcDbLine
 10
1914.918171683581
 20
2769.178186107736
 30
0.0
 11
1974.739668852868
 21
2828.999683277021
 31
0.0
  0
LINE
  5
1A7
330
1F
100
AcDbEntity
  8
0-C_ﾊｯﾁ
  6
JWW_DASHED1
 62
   120
370
     5
100
AcDbLine
 10
1914.918171683581
 20
2811.604592978934
 30
0.0
 11
1932.313261981675
 21
2828.999683277024
 31
0.0
  0
LINE
  5
1A8
330
1F
100
AcDbEntity
  8
0-C_ﾊｯﾁ
  6
JWW_DASHED1
 62
   120
370
     5
100
AcDbLine
 10
1915.45337867335
 20
2048.464476287262
 30
0.0
 11
1990.988585663098
 21
2123.999683277014
 31
0.0
  0
LINE
  5
1A9
330
1F
100
AcDbEntity
  8
0-C_ﾊｯﾁ
  6
JWW_DASHED1
 62
   120
370
     5
100
AcDbLine
 10
1914.918171683581
 20
2090.3556761687
 30
0.0
 11
1948.562178791901
 21
2123.999683277017
 31
0.0
  0
LINE
  5
1AA
330
1F
100
AcDbEntity
  8
0-3_仕上
  6
Continuous
 62
     7
370
     9
100
AcDbLine
 10
2307.223903601686
 20
2753.999683277028
 30
0.0
 11
2937.223903601686
 21
2123.999683277028
 31
0.0
  0
LINE
  5
1AB
330
1F
100
AcDbEntity
  8
0-3_仕上
  6
Continuous
 62
     7
370
     9
100
AcDbLine
 10
2307.223903601686
 20
2123.999683277028
 30
0.0
 11
2937.223903601686
 21
2753.999683277028
 31
0.0
  0
LINE
  5
1AC
330
1F
100
AcDbEntity
  8
0-3_仕上
  6
Continuous
 62
    92
370
    13
100
AcDbLine
 10
2937.223903601686
 20
2123.999683277028
 30
0.0
 11
2937.223903601686
 21
2753.999683277028
 31
0.0
  0
LINE
  5
1AD
330
1F
100
AcDbEntity
  8
0-C_ﾊｯﾁ
  6
JWW_DASHED1
 62
   120
370
     5
100
AcDbLine
 10
2509.958281859861
 20
2048.999683277033
 30
0.0
 11
2584.958281859847
 21
2123.999683277019
 31
0.0
  0
LINE
  5
1AE
330
1F
100
AcDbEntity
  8
0-C_ﾊｯﾁ
  6
JWW_DASHED1
 62
   120
370
     5
100
AcDbLine
 10
2552.384688730997
 20
2048.999683277024
 30
0.0
 11
2627.384688731013
 21
2123.999683277038
 31
0.0
  0
LINE
  5
1AF
330
1F
100
AcDbEntity
  8
0-C_ﾊｯﾁ
  6
JWW_DASHED1
 62
   120
370
     5
100
AcDbLine
 10
2594.811095602194
 20
2048.999683277021
 30
0.0
 11
2669.81109560221
 21
2123.999683277034
 31
0.0
  0
LINE
  5
1B0
330
1F
100
AcDbEntity
  8
0-C_ﾊｯﾁ
  6
JWW_DASHED1
 62
   120
370
     5
100
AcDbLine
 10
2637.237502473396
 20
2048.999683277022
 30
0.0
 11
2712.237502473411
 21
2123.999683277037
 31
0.0
  0
LINE
  5
1B1
330
1F
100
AcDbEntity
  8
0-C_ﾊｯﾁ
  6
JWW_DASHED1
 62
   120
370
     5
100
AcDbLine
 10
2679.66390934461
 20
2048.999683277036
 30
0.0
 11
2754.663909344607
 21
2123.999683277034
 31
0.0
  0
LINE
  5
1B2
330
1F
100
AcDbEntity
  8
0-C_ﾊｯﾁ
  6
JWW_DASHED1
 62
   120
370
     5
100
AcDbLine
 10
2722.090316215807
 20
2048.999683277033
 30
0.0
 11
2797.090316215804
 21
2123.999683277031
 31
0.0
  0
LINE
  5
1B3
330
1F
100
AcDbEntity
  8
0-C_ﾊｯﾁ
  6
JWW_DASHED1
 62
   120
370
     5
100
AcDbLine
 10
2764.516723087011
 20
2048.999683277037
 30
0.0
 11
2839.516723087001
 21
2123.999683277028
 31
0.0
  0
LINE
  5
1B4
330
1F
100
AcDbEntity
  8
0-C_ﾊｯﾁ
  6
JWW_DASHED1
 62
   120
370
     5
100
AcDbLine
 10
2806.943129958207
 20
2048.999683277033
 30
0.0
 11
2881.9431299582
 21
2123.999683277024
 31
0.0
  0
LINE
  5
1B5
330
1F
100
AcDbEntity
  8
0-C_ﾊｯﾁ
  6
JWW_DASHED1
 62
   120
370
     5
100
AcDbLine
 10
2849.369536829403
 20
2048.999683277029
 30
0.0
 11
2924.369536829397
 21
2123.999683277021
 31
0.0
  0
LINE
  5
1B6
330
1F
100
AcDbEntity
  8
0-C_ﾊｯﾁ
  6
JWW_DASHED1
 62
   120
370
     5
100
AcDbLine
 10
2891.795943700542
 20
2048.999683277021
 30
0.0
 11
2966.795943700552
 21
2123.999683277033
 31
0.0
  0
LINE
  5
1B7
330
1F
100
AcDbEntity
  8
0-C_ﾊｯﾁ
  6
JWW_DASHED1
 62
   120
370
     5
100
AcDbLine
 10
2934.222350571738
 20
2048.999683277017
 30
0.0
 11
3009.222350571749
 21
2123.999683277029
 31
0.0
  0
LINE
  5
1B8
330
1F
100
AcDbEntity
  8
0-C_ﾊｯﾁ
  6
JWW_DASHED1
 62
   120
370
     5
100
AcDbLine
 10
2976.648757442936
 20
2048.999683277017
 30
0.0
 11
3051.648757442959
 21
2123.999683277039
 31
0.0
  0
LINE
  5
1B9
330
1F
100
AcDbEntity
  8
0-C_ﾊｯﾁ
  6
JWW_DASHED1
 62
   120
370
     5
100
AcDbLine
 10
2493.709365049574
 20
2753.999683277036
 30
0.0
 11
2568.70936504956
 21
2828.999683277022
 31
0.0
  0
LINE
  5
1BA
330
1F
100
AcDbEntity
  8
0-C_ﾊｯﾁ
  6
JWW_DASHED1
 62
   120
370
     5
100
AcDbLine
 10
2536.13577192077
 20
2753.999683277033
 30
0.0
 11
2611.135771920756
 21
2828.999683277019
 31
0.0
  0
LINE
  5
1BB
330
1F
100
AcDbEntity
  8
0-C_ﾊｯﾁ
  6
JWW_DASHED1
 62
   120
370
     5
100
AcDbLine
 10
2578.562178791906
 20
2753.999683277024
 30
0.0
 11
2653.562178791922
 21
2828.999683277039
 31
0.0
  0
LINE
  5
1BC
330
1F
100
AcDbEntity
  8
0-C_ﾊｯﾁ
  6
JWW_DASHED1
 62
   120
370
     5
100
AcDbLine
 10
2620.988585663103
 20
2753.999683277021
 30
0.0
 11
2695.988585663119
 21
2828.999683277035
 31
0.0
  0
LINE
  5
1BD
330
1F
100
AcDbEntity
  8
0-C_ﾊｯﾁ
  6
JWW_DASHED1
 62
   120
370
     5
100
AcDbLine
 10
2663.414992534299
 20
2753.999683277017
 30
0.0
 11
2738.414992534313
 21
2828.999683277031
 31
0.0
  0
LINE
  5
1BE
330
1F
100
AcDbEntity
  8
0-C_ﾊｯﾁ
  6
JWW_DASHED1
 62
   120
370
     5
100
AcDbLine
 10
2705.841399405519
 20
2753.999683277036
 30
0.0
 11
2780.841399405519
 21
2828.999683277034
 31
0.0
  0
LINE
  5
1BF
330
1F
100
AcDbEntity
  8
0-C_ﾊｯﾁ
  6
JWW_DASHED1
 62
   120
370
     5
100
AcDbLine
 10
2748.267806276715
 20
2753.999683277033
 30
0.0
 11
2823.267806276715
 21
2828.999683277032
 31
0.0
  0
LINE
  5
1C0
330
1F
100
AcDbEntity
  8
0-C_ﾊｯﾁ
  6
JWW_DASHED1
 62
   120
370
     5
100
AcDbLine
 10
2790.69421314792
 20
2753.999683277038
 30
0.0
 11
2865.694213147912
 21
2828.999683277029
 31
0.0
  0
LINE
  5
1C1
330
1F
100
AcDbEntity
  8
0-C_ﾊｯﾁ
  6
JWW_DASHED1
 62
   120
370
     5
100
AcDbLine
 10
2833.120620019115
 20
2753.999683277033
 30
0.0
 11
2908.120620019109
 21
2828.999683277026
 31
0.0
  0
LINE
  5
1C2
330
1F
100
AcDbEntity
  8
0-C_ﾊｯﾁ
  6
JWW_DASHED1
 62
   120
370
     5
100
AcDbLine
 10
2875.547026890312
 20
2753.999683277029
 30
0.0
 11
2950.547026890305
 21
2828.999683277022
 31
0.0
  0
LINE
  5
1C3
330
1F
100
AcDbEntity
  8
0-C_ﾊｯﾁ
  6
JWW_DASHED1
 62
   120
370
     5
100
AcDbLine
 10
2917.973433761451
 20
2753.999683277022
 30
0.0
 11
2992.973433761461
 21
2828.999683277033
 31
0.0
  0
LINE
  5
1C4
330
1F
100
AcDbEntity
  8
0-C_ﾊｯﾁ
  6
JWW_DASHED1
 62
   120
370
     5
100
AcDbLine
 10
2960.399840632647
 20
2753.999683277018
 30
0.0
 11
3035.399840632661
 21
2828.999683277033
 31
0.0
  0
LINE
  5
1C5
330
1F
100
AcDbEntity
  8
0-3_仕上
  6
Continuous
 62
    40
370
    15
100
AcDbLine
 10
3114.918171683583
 20
2048.999683277028
 30
0.0
 11
1914.918171683581
 21
2048.999683277028
 31
0.0
  0
LINE
  5
1C6
330
1F
100
AcDbEntity
  8
0-3_仕上
  6
Continuous
 62
    40
370
    15
100
AcDbLine
 10
3114.918171683583
 20
2828.999683277028
 30
0.0
 11
1914.918171683581
 21
2828.999683277028
 31
0.0
  0
LINE
  5
1C7
330
1F
100
AcDbEntity
  8
0-3_仕上
  6
Continuous
 62
    40
370
    15
100
AcDbLine
 10
3114.918171683583
 20
2753.999683277028
 30
0.0
 11
1914.918171683581
 21
2753.999683277028
 31
0.0
  0
LINE
  5
1C8
330
1F
100
AcDbEntity
  8
0-3_仕上
  6
Continuous
 62
    40
370
    15
100
AcDbLine
 10
3114.918171683583
 20
2123.999683277028
 30
0.0
 11
1914.918171683581
 21
2123.999683277028
 31
0.0
  0
LINE
  5
1C9
330
1F
100
AcDbEntity
  8
0-C_ﾊｯﾁ
  6
JWW_DASHED1
 62
   120
370
     5
100
AcDbLine
 10
3019.075164314135
 20
2048.999683277017
 30
0.0
 11
3094.075164314146
 21
2123.999683277029
 31
0.0
  0
LINE
  5
1CA
330
1F
100
AcDbEntity
  8
0-C_ﾊｯﾁ
  6
JWW_DASHED1
 62
   120
370
     5
100
AcDbLine
 10
3002.826247503851
 20
2753.999683277022
 30
0.0
 11
3077.826247503861
 21
2828.999683277033
 31
0.0
  0
LINE
  5
1CB
330
1F
100
AcDbEntity
  8
0-C_ﾊｯﾁ
  6
JWW_DASHED1
 62
   120
370
     5
100
AcDbLine
 10
3045.252654375051
 20
2753.999683277022
 30
0.0
 11
3114.918171683583
 21
2823.665200585555
 31
0.0
  0
LINE
  5
1CC
330
1F
100
AcDbEntity
  8
0-C_ﾊｯﾁ
  6
JWW_DASHED1
 62
   120
370
     5
100
AcDbLine
 10
3087.679061246251
 20
2753.999683277022
 30
0.0
 11
3114.918171683583
 21
2781.238793714355
 31
0.0
  0
LINE
  5
1CD
330
1F
100
AcDbEntity
  8
0-C_ﾊｯﾁ
  6
JWW_DASHED1
 62
   120
370
     5
100
AcDbLine
 10
3103.927978056535
 20
2048.999683277017
 30
0.0
 11
3114.918171683583
 21
2059.989876904067
 31
0.0
  0
LINE
  5
1CE
330
1F
100
AcDbEntity
  8
0-C_ﾊｯﾁ
  6
JWW_DASHED1
 62
   120
370
     5
100
AcDbLine
 10
3061.501571185335
 20
2048.999683277017
 30
0.0
 11
3114.918171683583
 21
2102.416283775266
 31
0.0
  0
LINE
  5
1CF
330
1F
100
AcDbEntity
  8
0-0_補助線
  6
JWW_HOJO
 62
   120
370
     5
100
AcDbLine
 10
-41.08182831641699
 20
3083.999683277027
 30
0.0
 11
-41.08182831641699
 21
1793.999683277027
 31
0.0
  0
LINE
  5
1D0
330
1F
100
AcDbEntity
  8
0-0_補助線
  6
JWW_HOJO
 62
   120
370
     5
100
AcDbLine
 10
78.91817168358301
 20
3083.999683277027
 30
0.0
 11
78.91817168358301
 21
1793.999683277027
 31
0.0
  0
LINE
  5
1D1
330
1F
100
AcDbEntity
  8
0-3_仕上
  6
Continuous
 62
    40
370
    15
100
AcDbLine
 10
-1895.081828316419
 20
2828.999683277028
 30
0.0
 11
-3095.081828316419
 21
2828.999683277028
 31
0.0
  0
LINE
  5
1D2
330
1F
100
AcDbEntity
  8
0-3_仕上
  6
Continuous
 62
    40
370
    15
100
AcDbLine
 10
-1895.081828316419
 20
2048.999683277028
 30
0.0
 11
-3095.081828316419
 21
2048.999683277028
 31
0.0
  0
LINE
  5
1D3
330
1F
100
AcDbEntity
  8
0-3_仕上
  6
Continuous
 62
    40
370
    15
100
AcDbLine
 10
-1895.081828316419
 20
2123.999683277028
 30
0.0
 11
-3095.081828316419
 21
2123.999683277028
 31
0.0
  0
LINE
  5
1D4
330
1F
100
AcDbEntity
  8
0-3_仕上
  6
Continuous
 62
    40
370
    15
100
AcDbLine
 10
-1895.081828316419
 20
2753.999683277028
 30
0.0
 11
-3095.081828316419
 21
2753.999683277028
 31
0.0
  0
LINE
  5
1D5
330
1F
100
AcDbEntity
  8
0-C_ﾊｯﾁ
  6
JWW_DASHED1
 62
   120
370
     5
100
AcDbLine
 10
-3022.416311007898
 20
2123.999683277031
 30
0.0
 11
-3095.081828316409
 21
2051.334165968521
 31
0.0
  0
LINE
  5
1D6
330
1F
100
AcDbEntity
  8
0-C_ﾊｯﾁ
  6
JWW_DASHED1
 62
   120
370
     5
100
AcDbLine
 10
-2979.989904136704
 20
2123.999683277028
 30
0.0
 11
-3054.989904136715
 21
2048.999683277015
 31
0.0
  0
LINE
  5
1D7
330
1F
100
AcDbEntity
  8
0-C_ﾊｯﾁ
  6
JWW_DASHED1
 62
   120
370
     5
100
AcDbLine
 10
-3038.665227818145
 20
2828.999683277021
 30
0.0
 11
-3095.081828316416
 21
2772.58308277875
 31
0.0
  0
LINE
  5
1D8
330
1F
100
AcDbEntity
  8
0-C_ﾊｯﾁ
  6
JWW_DASHED1
 62
   120
370
     5
100
AcDbLine
 10
-2996.238820946989
 20
2828.999683277031
 30
0.0
 11
-3071.238820947002
 21
2753.999683277019
 31
0.0
  0
LINE
  5
1D9
330
1F
100
AcDbEntity
  8
0-C_ﾊｯﾁ
  6
JWW_DASHED1
 62
   120
370
     5
100
AcDbLine
 10
-3095.081828316412
 20
2093.760572839662
 30
0.0
 11
-3064.842717879057
 21
2123.999683277021
 31
0.0
  0
LINE
  5
1DA
330
1F
100
AcDbEntity
  8
0-C_ﾊｯﾁ
  6
JWW_DASHED1
 62
   120
370
     5
100
AcDbLine
 10
-3095.081828316419
 20
2815.00948964995
 30
0.0
 11
-3081.091634689341
 21
2828.999683277026
 31
0.0
  0
LINE
  5
1DB
330
1F
100
AcDbEntity
  8
0-1_通り芯
  6
JWW_CENTER1
 62
   120
370
     5
100
AcDbLine
 10
3114.918171683583
 20
2438.999683277028
 30
0.0
 11
-3095.081828316419
 21
2438.999683277028
 31
0.0
  0
LINE
  5
1DC
330
1F
100
AcDbEntity
  8
0-0_補助線
  6
JWW_HOJO
 62
   120
370
     5
100
AcDbLine
 10
3114.918171683583
 20
1793.999683277027
 30
0.0
 11
-3095.081828316419
 21
1793.999683277027
 31
0.0
  0
LINE
  5
1DD
330
1F
100
AcDbEntity
  8
0-0_補助線
  6
JWW_HOJO
 62
   120
370
     5
100
AcDbLine
 10
3114.918171683583
 20
3083.999683277027
 30
0.0
 11
-3095.081828316419
 21
3083.999683277027
 31
0.0
  0
LINE
  5
1DE
330
1F
100
AcDbEntity
  8
0-0_補助線
  6
JWW_HOJO
 62
   120
370
     5
100
AcDbLine
 10
-3095.081828316419
 20
1793.999683277027
 30
0.0
 11
-3095.081828316419
 21
3083.999683277027
 31
0.0
  0
TEXT
  5
1DF
330
1F
100
AcDbEntity
  8
0-A_文字
  6
Continuous
 62
     7
370
     9
100
AcDbText
 10
-3095.081828316419
 20
3228.357783538346
 30
0.0
 40
91.44
  1
■横断面図
 41
1.099999999999994
  7
ＭＳ ゴシック
100
AcDbText
  0
LINE
  5
1E0
330
1F
100
AcDbEntity
  8
0-0_補助線
  6
JWW_HOJO
 62
   120
370
     5
100
AcDbLine
 10
-1987.342732648237
 20
2348.999683277028
 30
0.0
 11
2037.689620836699
 21
2348.999683277028
 31
0.0
  0
LINE
  5
1E1
330
1F
100
AcDbEntity
  8
0-0_補助線
  6
Continuous
 62
     7
370
     9
100
AcDbLine
 10
-1912.937209637681
 20
2438.999980204815
 30
0.0
 11
-1912.937209637681
 21
2259.000128668708
 31
0.0
  0
LINE
  5
1E2
330
1F
100
AcDbEntity
  8
0-0_補助線
  6
Continuous
 62
     7
370
     9
100
AcDbLine
 10
-1924.937546155841
 20
2259.000128668708
 30
0.0
 11
-1912.937209637681
 21
2259.000128668708
 31
0.0
  0
LINE
  5
1E3
330
1F
100
AcDbEntity
  8
0-0_補助線
  6
Continuous
 62
     7
370
     9
100
AcDbLine
 10
-1924.937546155841
 20
2438.999980204815
 30
0.0
 11
-1912.937209637681
 21
2438.999980204815
 31
0.0
  0
LINE
  5
1E4
330
1F
100
AcDbEntity
  8
0-0_補助線
  6
Continuous
 62
     7
370
     9
100
AcDbLine
 10
-1912.937209637681
 20
2408.999881228886
 30
0.0
 11
-1900.937615438991
 21
2408.999881228886
 31
0.0
  0
LINE
  5
1E5
330
1F
100
AcDbEntity
  8
0-0_補助線
  6
Continuous
 62
     7
370
     9
100
AcDbLine
 10
-1912.937209637681
 20
2289.000227644638
 30
0.0
 11
-1900.937615438991
 21
2289.000227644638
 31
0.0
  0
LINE
  5
1E6
330
1F
100
AcDbEntity
  8
0-0_補助線
  6
Continuous
 62
     7
370
     9
100
AcDbLine
 10
-1900.937615438991
 20
2408.999881228886
 30
0.0
 11
-1900.937615438991
 21
2289.000227644638
 31
0.0
  0
LINE
  5
1E7
330
1F
100
AcDbEntity
  8
0-0_補助線
  6
Continuous
 62
     7
370
     9
100
AcDbLine
 10
-1900.937615438991
 20
2294.999653584249
 30
0.0
 11
-1895.081828316419
 21
2294.999653584249
 31
0.0
  0
LINE
  5
1E8
330
1F
100
AcDbEntity
  8
0-0_補助線
  6
Continuous
 62
     7
370
     9
100
AcDbLine
 10
-1900.937615438991
 20
2402.999712969807
 30
0.0
 11
-1895.081828316419
 21
2402.999712969807
 31
0.0
  0
LINE
  5
1E9
330
1F
100
AcDbEntity
  8
0-0_補助線
  6
Continuous
 62
     7
370
     9
100
AcDbLine
 10
-1924.937546155841
 20
2438.999980204815
 30
0.0
 11
-1924.937546155841
 21
2259.000128668708
 31
0.0
  0
LINE
  5
1EA
330
1F
100
AcDbEntity
  8
0-0_補助線
  6
Continuous
 62
     7
370
     9
100
AcDbLine
 10
1932.773553004847
 20
2258.999386349241
 30
0.0
 11
1932.773553004847
 21
2438.999237885347
 31
0.0
  0
LINE
  5
1EB
330
1F
100
AcDbEntity
  8
0-0_補助線
  6
Continuous
 62
     7
370
     9
100
AcDbLine
 10
1944.773889523007
 20
2438.999237885347
 30
0.0
 11
1932.773553004847
 21
2438.999237885347
 31
0.0
  0
LINE
  5
1EC
330
1F
100
AcDbEntity
  8
0-0_補助線
  6
Continuous
 62
     7
370
     9
100
AcDbLine
 10
1944.773889523007
 20
2258.999386349241
 30
0.0
 11
1932.773553004847
 21
2258.999386349241
 31
0.0
  0
LINE
  5
1ED
330
1F
100
AcDbEntity
  8
0-0_補助線
  6
Continuous
 62
     7
370
     9
100
AcDbLine
 10
1932.773553004847
 20
2288.999485325169
 30
0.0
 11
1920.773958806156
 21
2288.999485325169
 31
0.0
  0
LINE
  5
1EE
330
1F
100
AcDbEntity
  8
0-0_補助線
  6
Continuous
 62
     7
370
     9
100
AcDbLine
 10
1932.773553004847
 20
2408.999138909418
 30
0.0
 11
1920.773958806156
 21
2408.999138909418
 31
0.0
  0
LINE
  5
1EF
330
1F
100
AcDbEntity
  8
0-0_補助線
  6
Continuous
 62
     7
370
     9
100
AcDbLine
 10
1920.773958806156
 20
2288.999485325169
 30
0.0
 11
1920.773958806156
 21
2408.999138909418
 31
0.0
  0
LINE
  5
1F0
330
1F
100
AcDbEntity
  8
0-0_補助線
  6
Continuous
 62
     7
370
     9
100
AcDbLine
 10
1920.773958806156
 20
2402.999712969807
 30
0.0
 11
1914.918171683581
 21
2402.999712969807
 31
0.0
  0
LINE
  5
1F1
330
1F
100
AcDbEntity
  8
0-0_補助線
  6
Continuous
 62
     7
370
     9
100
AcDbLine
 10
1920.773958806156
 20
2294.999653584249
 30
0.0
 11
1914.918171683581
 21
2294.999653584249
 31
0.0
  0
LINE
  5
1F2
330
1F
100
AcDbEntity
  8
0-0_補助線
  6
Continuous
 62
     7
370
     9
100
AcDbLine
 10
1944.773889523007
 20
2258.999386349241
 30
0.0
 11
1944.773889523007
 21
2438.999237885347
 31
0.0
  0
LINE
  5
1F3
330
1F
100
AcDbEntity
  8
0-C_ﾊｯﾁ
  6
Continuous
 62
   120
370
     5
100
AcDbLine
 10
-1895.081828316422
 20
2518.705178566341
 30
0.0
 11
-1763.081828316416
 21
2386.705343042059
 31
0.0
  0
LINE
  5
1F4
330
1F
100
AcDbEntity
  8
0-C_ﾊｯﾁ
  6
Continuous
 62
   120
370
     5
100
AcDbLine
 10
-1895.081828316419
 20
2450.822877886268
 30
0.0
 11
-1763.081828316416
 21
2318.823232085135
 31
0.0
  0
LINE
  5
1F5
330
1F
100
AcDbEntity
  8
0-C_ﾊｯﾁ
  6
Continuous
 62
   120
370
     5
100
AcDbLine
 10
-1895.081828316419
 20
2382.940861258699
 30
0.0
 11
-1754.081393440928
 21
2241.941441407387
 31
0.0
  0
LINE
  5
1F6
330
1F
100
AcDbEntity
  8
0-C_ﾊｯﾁ
  6
Continuous
 62
   120
370
     5
100
AcDbLine
 10
-1802.201294392318
 20
2901.00011815252
 30
0.0
 11
-1754.081393440928
 21
2852.879726306818
 31
0.0
  0
LINE
  5
1F7
330
1F
100
AcDbEntity
  8
0-C_ﾊｯﾁ
  6
Continuous
 62
   120
370
     5
100
AcDbLine
 10
-1870.082060786275
 20
2901.00011815252
 30
0.0
 11
-1754.081393440928
 21
2784.997871295833
 31
0.0
  0
LINE
  5
1F8
330
1F
100
AcDbEntity
  8
0-C_ﾊｯﾁ
  6
Continuous
 62
   120
370
     5
100
AcDbLine
 10
-1895.081828316419
 20
2790.235932418812
 30
0.0
 11
-1754.081393440928
 21
2649.233577625176
 31
0.0
  0
LINE
  5
1F9
330
1F
100
AcDbEntity
  8
0-C_ﾊｯﾁ
  6
Continuous
 62
   120
370
     5
100
AcDbLine
 10
-1895.081828316419
 20
2722.353012254415
 30
0.0
 11
-1754.081393440928
 21
2581.351138965509
 31
0.0
  0
LINE
  5
1FA
330
1F
100
AcDbEntity
  8
0-C_ﾊｯﾁ
  6
Continuous
 62
   120
370
     5
100
AcDbLine
 10
-1895.081828316419
 20
2654.470173954674
 30
0.0
 11
-1754.081393440928
 21
2513.46928395452
 31
0.0
  0
LINE
  5
1FB
330
1F
100
AcDbEntity
  8
0-C_ﾊｯﾁ
  6
Continuous
 62
   120
370
     5
100
AcDbLine
 10
-1895.081828316419
 20
2586.587667245072
 30
0.0
 11
-1754.081393440928
 21
2445.586845294854
 31
0.0
  0
LINE
  5
1FC
330
1F
100
AcDbEntity
  8
0-C_ﾊｯﾁ
  6
Continuous
 62
   120
370
     5
100
AcDbLine
 10
-1895.081828316419
 20
2315.055617156952
 30
0.0
 11
-1754.081393440928
 21
2174.058257953546
 31
0.0
  0
LINE
  5
1FD
330
1F
100
AcDbEntity
  8
0-C_ﾊｯﾁ
  6
Continuous
 62
   120
370
     5
100
AcDbLine
 10
-1895.081828316419
 20
2247.17579614085
 30
0.0
 11
-1754.081393440928
 21
2106.175807849785
 31
0.0
  0
LINE
  5
1FE
330
1F
100
AcDbEntity
  8
0-C_ﾊｯﾁ
  6
Continuous
 62
   120
370
     5
100
AcDbLine
 10
-1895.081828316419
 20
2179.293582788167
 30
0.0
 11
-1754.081393440928
 21
2038.293369190116
 31
0.0
  0
LINE
  5
1FF
330
1F
100
AcDbEntity
  8
0-4_枠
  6
Continuous
 62
    92
370
    13
100
AcDbLine
 10
-1895.081828316419
 20
2903.999683277031
 30
0.0
 11
-1895.081828316419
 21
1973.999683277031
 31
0.0
  0
LINE
  5
200
330
1F
100
AcDbEntity
  8
0-4_枠
  6
Continuous
 62
    92
370
    13
100
AcDbLine
 10
-1751.081828316414
 20
2270.999683277031
 30
0.0
 11
-1763.081828316416
 21
2270.999683277031
 31
0.0
  0
LINE
  5
201
330
1F
100
AcDbEntity
  8
0-4_枠
  6
Continuous
 62
    92
370
    13
100
AcDbLine
 10
-1763.081828316416
 20
2270.999683277031
 30
0.0
 11
-1763.081828316416
 21
2426.999683277031
 31
0.0
  0
LINE
  5
202
330
1F
100
AcDbEntity
  8
0-4_枠
  6
Continuous
 62
    92
370
    13
100
AcDbLine
 10
-1763.081828316416
 20
2426.999683277031
 30
0.0
 11
-1751.081828316414
 21
2426.999683277031
 31
0.0
  0
ARC
  5
203
330
1F
100
AcDbEntity
  8
0-8_戸当
  6
Continuous
 62
     7
370
     9
100
AcDbCircle
 10
-1728.496134957044
 20
2282.88542546453
 30
0.0
 40
26.92291831970215
100
AcDbArc
 50
199.2714385986328
 51
340.7285461425781
  0
ARC
  5
204
330
1F
100
AcDbEntity
  8
0-8_戸当
  6
Continuous
 62
     7
370
     9
100
AcDbCircle
 10
-1697.081828316415
 20
2279.99968327703
 30
0.0
 40
5.999999999999999
100
AcDbArc
 50
270.0
 51
0.0
  0
LINE
  5
205
330
1F
100
AcDbEntity
  8
0-8_戸当
  6
Continuous
 62
     7
370
     9
100
AcDbLine
 10
-1697.081828316415
 20
2273.99968327703
 30
0.0
 11
-1715.081828316419
 21
2273.99968327703
 31
0.0
  0
LINE
  5
206
330
1F
100
AcDbEntity
  8
0-8_戸当
  6
Continuous
 62
     7
370
     9
100
AcDbLine
 10
-1751.081828316417
 20
2441.999683277029
 30
0.0
 11
-1751.081828316417
 21
2423.99968327703
 31
0.0
  0
LINE
  5
207
330
1F
100
AcDbEntity
  8
0-8_戸当
  6
Continuous
 62
     7
370
     9
100
AcDbLine
 10
-1763.081828316416
 20
2423.99968327703
 30
0.0
 11
-1751.081828316417
 21
2423.99968327703
 31
0.0
  0
LINE
  5
208
330
1F
100
AcDbEntity
  8
0-8_戸当
  6
Continuous
 62
     7
370
     9
100
AcDbLine
 10
-1763.081828316416
 20
2273.99968327703
 30
0.0
 11
-1763.081828316416
 21
2423.99968327703
 31
0.0
  0
LINE
  5
209
330
1F
100
AcDbEntity
  8
0-8_戸当
  6
Continuous
 62
     7
370
     9
100
AcDbLine
 10
-1763.081828316416
 20
2273.99968327703
 30
0.0
 11
-1739.081828316418
 21
2273.99968327703
 31
0.0
  0
LINE
  5
20A
330
1F
100
AcDbEntity
  8
0-8_戸当
  6
Continuous
 62
     7
370
     9
100
AcDbLine
 10
-1739.081828316418
 20
2315.99968327703
 30
0.0
 11
-1715.081828316419
 21
2315.99968327703
 31
0.0
  0
LINE
  5
20B
330
1F
100
AcDbEntity
  8
0-8_戸当
  6
Continuous
 62
     7
370
     9
100
AcDbLine
 10
-1739.081828316418
 20
2315.99968327703
 30
0.0
 11
-1739.081828316418
 21
2273.99968327703
 31
0.0
  0
LINE
  5
20C
330
1F
100
AcDbEntity
  8
0-8_戸当
  6
Continuous
 62
     7
370
     9
100
AcDbLine
 10
-1715.081828316419
 20
2315.99968327703
 30
0.0
 11
-1715.081828316419
 21
2273.99968327703
 31
0.0
  0
ARC
  5
20D
330
1F
100
AcDbEntity
  8
0-8_戸当
  6
Continuous
 62
     7
370
     9
100
AcDbCircle
 10
-1697.081828316415
 20
2435.99968327703
 30
0.0
 40
5.999999999999999
100
AcDbArc
 50
0.0
 51
90.0
  0
LINE
  5
20E
330
1F
100
AcDbEntity
  8
0-8_戸当
  6
Continuous
 62
     7
370
     9
100
AcDbLine
 10
-1691.081828316417
 20
2435.99968327703
 30
0.0
 11
-1691.081828316417
 21
2279.99968327703
 31
0.0
  0
LINE
  5
20F
330
1F
100
AcDbEntity
  8
0-8_戸当
  6
Continuous
 62
     7
370
     9
100
AcDbLine
 10
-1697.081828316415
 20
2441.999683277029
 30
0.0
 11
-1751.081828316417
 21
2441.999683277029
 31
0.0
  0
LINE
  5
210
330
1F
100
AcDbEntity
  8
0-4_枠
  6
Continuous
 62
    92
370
    13
100
AcDbLine
 10
-1768.052391064895
 20
2903.999683277031
 30
0.0
 11
-1895.081828316419
 21
2903.999683277031
 31
0.0
  0
LINE
  5
211
330
1F
100
AcDbEntity
  8
0-4_枠
  6
Continuous
 62
    92
370
    13
100
AcDbLine
 10
-1751.081828316417
 20
2887.029120528553
 30
0.0
 11
-1751.081828316417
 21
2426.999683277031
 31
0.0
  0
LINE
  5
212
330
1F
100
AcDbEntity
  8
0-4_枠
  6
Continuous
 62
    92
370
    13
100
AcDbLine
 10
-1768.052391064895
 20
2903.999683277031
 30
0.0
 11
-1751.081828316417
 21
2887.029120528553
 31
0.0
  0
LINE
  5
213
330
1F
100
AcDbEntity
  8
0-4_枠
  6
Continuous
 62
    92
370
    13
100
AcDbLine
 10
-1768.052391064895
 20
1973.999683277031
 30
0.0
 11
-1895.081828316419
 21
1973.999683277031
 31
0.0
  0
LINE
  5
214
330
1F
100
AcDbEntity
  8
0-4_枠
  6
Continuous
 62
    92
370
    13
100
AcDbLine
 10
-1751.081828316417
 20
1990.970246025508
 30
0.0
 11
-1751.081828316417
 21
2270.999683277031
 31
0.0
  0
LINE
  5
215
330
1F
100
AcDbEntity
  8
0-4_枠
  6
Continuous
 62
    92
370
    13
100
AcDbLine
 10
-1768.052391064895
 20
1973.999683277031
 30
0.0
 11
-1751.081828316417
 21
1990.970246025508
 31
0.0
  0
LINE
  5
216
330
1F
100
AcDbEntity
  8
0-4_枠
  6
Continuous
 62
    92
370
    13
100
AcDbLine
 10
-1769.295466627502
 20
2901.00011815252
 30
0.0
 11
-1754.081393440928
 21
2885.786044965943
 31
0.0
  0
LINE
  5
217
330
1F
100
AcDbEntity
  8
0-4_枠
  6
Continuous
 62
    92
370
    13
100
AcDbLine
 10
-1754.081393440928
 20
2885.786044965943
 30
0.0
 11
-1754.081393440928
 21
2426.999683277031
 31
0.0
  0
LINE
  5
218
330
1F
100
AcDbEntity
  8
0-4_枠
  6
Continuous
 62
    92
370
    13
100
AcDbLine
 10
-1754.081393440928
 20
1992.213321588118
 30
0.0
 11
-1754.081393440928
 21
2270.999683277031
 31
0.0
  0
LINE
  5
219
330
1F
100
AcDbEntity
  8
0-4_枠
  6
Continuous
 62
    92
370
    13
100
AcDbLine
 10
-1769.294871534727
 20
1976.999843494317
 30
0.0
 11
-1754.081393440928
 21
1992.213321588118
 31
0.0
  0
LINE
  5
21A
330
1F
100
AcDbEntity
  8
0-C_ﾊｯﾁ
  6
Continuous
 62
   120
370
     5
100
AcDbLine
 10
-1895.081828316419
 20
2111.411694616312
 30
0.0
 11
-1764.982348626792
 21
1981.312366402255
 31
0.0
  0
LINE
  5
21B
330
1F
100
AcDbEntity
  8
0-4_枠
  6
Continuous
 62
    92
370
    13
100
AcDbLine
 10
-1892.081828316418
 20
2063.99968327703
 30
0.0
 11
-1895.081828316419
 21
2063.99968327703
 31
0.0
  0
LINE
  5
21C
330
1F
100
AcDbEntity
  8
0-4_枠
  6
Continuous
 62
    92
370
    13
100
AcDbLine
 10
-1892.081828316418
 20
2063.99968327703
 30
0.0
 11
-1892.081828316418
 21
1976.999843494317
 31
0.0
  0
LINE
  5
21D
330
1F
100
AcDbEntity
  8
0-4_枠
  6
Continuous
 62
    92
370
    13
100
AcDbLine
 10
-1769.294871534727
 20
1976.999843494317
 30
0.0
 11
-1892.081828316418
 21
1976.999843494317
 31
0.0
  0
LINE
  5
21E
330
1F
100
AcDbEntity
  8
0-4_枠
  6
Continuous
 62
    92
370
    13
100
AcDbLine
 10
-1892.081828316418
 20
2813.999683277031
 30
0.0
 11
-1895.081828316419
 21
2813.999683277031
 31
0.0
  0
LINE
  5
21F
330
1F
100
AcDbEntity
  8
0-4_枠
  6
Continuous
 62
    92
370
    13
100
AcDbLine
 10
-1892.081828316418
 20
2813.999683277031
 30
0.0
 11
-1892.081828316418
 21
2901.00011815252
 31
0.0
  0
LINE
  5
220
330
1F
100
AcDbEntity
  8
0-4_枠
  6
Continuous
 62
    92
370
    13
100
AcDbLine
 10
-1769.295466627502
 20
2901.00011815252
 30
0.0
 11
-1892.081828316418
 21
2901.00011815252
 31
0.0
  0
LINE
  5
221
330
1F
100
AcDbEntity
  8
0-C_ﾊｯﾁ
  6
Continuous
 62
   120
370
     5
100
AcDbLine
 10
-1892.081828316418
 20
2855.117275320623
 30
0.0
 11
-1754.081393440928
 21
2717.115432636163
 31
0.0
  0
LINE
  5
222
330
1F
100
AcDbEntity
  8
0-C_ﾊｯﾁ
  6
Continuous
 62
   120
370
     5
100
AcDbLine
 10
-1892.081828316418
 20
2040.529542281555
 30
0.0
 11
-1828.552055561103
 21
1976.999843494317
 31
0.0
  0
LINE
  5
223
330
1F
100
AcDbEntity
  8
0-C_ﾊｯﾁ
  6
Continuous
 62
   120
370
     5
100
AcDbLine
 10
1914.918171683581
 20
2111.41169461631
 30
0.0
 11
1784.818691993954
 21
1981.312366402252
 31
0.0
  0
LINE
  5
224
330
1F
100
AcDbEntity
  8
0-4_枠
  6
Continuous
 62
    92
370
    13
100
AcDbLine
 10
1789.131214901889
 20
1976.999843494317
 30
0.0
 11
1773.91773680809
 21
1992.213321588116
 31
0.0
  0
LINE
  5
225
330
1F
100
AcDbEntity
  8
0-4_枠
  6
Continuous
 62
    92
370
    13
100
AcDbLine
 10
1789.131809994378
 20
2901.00011815223
 30
0.0
 11
1773.91773680809
 21
2885.786044965944
 31
0.0
  0
LINE
  5
226
330
1F
100
AcDbEntity
  8
0-4_枠
  6
Continuous
 62
    92
370
    13
100
AcDbLine
 10
1787.888734432057
 20
1973.99968327703
 30
0.0
 11
1770.918171683579
 21
1990.970246025508
 31
0.0
  0
LINE
  5
227
330
1F
100
AcDbEntity
  8
0-4_枠
  6
Continuous
 62
    92
370
    13
100
AcDbLine
 10
1787.888734432057
 20
1973.99968327703
 30
0.0
 11
1914.918171683581
 21
1973.99968327703
 31
0.0
  0
LINE
  5
228
330
1F
100
AcDbEntity
  8
0-4_枠
  6
Continuous
 62
    92
370
    13
100
AcDbLine
 10
1787.888734432057
 20
2903.999683277029
 30
0.0
 11
1770.918171683579
 21
2887.029120528553
 31
0.0
  0
LINE
  5
229
330
1F
100
AcDbEntity
  8
0-4_枠
  6
Continuous
 62
    92
370
    13
100
AcDbLine
 10
1770.918171683579
 20
2887.029120528553
 30
0.0
 11
1770.918171683579
 21
2426.999683277031
 31
0.0
  0
LINE
  5
22A
330
1F
100
AcDbEntity
  8
0-4_枠
  6
Continuous
 62
    92
370
    13
100
AcDbLine
 10
1787.888734432057
 20
2903.999683277029
 30
0.0
 11
1914.918171683581
 21
2903.999683277029
 31
0.0
  0
LINE
  5
22B
330
1F
100
AcDbEntity
  8
0-C_ﾊｯﾁ
  6
Continuous
 62
   120
370
     5
100
AcDbLine
 10
1914.918171683581
 20
2382.940861258697
 30
0.0
 11
1773.91773680809
 21
2241.941441407385
 31
0.0
  0
LINE
  5
22C
330
1F
100
AcDbEntity
  8
0-C_ﾊｯﾁ
  6
Continuous
 62
   120
370
     5
100
AcDbLine
 10
1914.918171683581
 20
2315.055617156952
 30
0.0
 11
1773.91773680809
 21
2174.058257953546
 31
0.0
  0
LINE
  5
22D
330
1F
100
AcDbEntity
  8
0-4_枠
  6
Continuous
 62
    92
370
    13
100
AcDbLine
 10
1914.918171683581
 20
2903.999683277029
 30
0.0
 11
1914.918171683581
 21
1973.99968327703
 31
0.0
  0
LINE
  5
22E
330
1F
100
AcDbEntity
  8
0-C_ﾊｯﾁ
  6
Continuous
 62
   120
370
     5
100
AcDbLine
 10
1914.918171683581
 20
2179.293582788166
 30
0.0
 11
1773.91773680809
 21
2038.293369190116
 31
0.0
  0
LINE
  5
22F
330
1F
100
AcDbEntity
  8
0-C_ﾊｯﾁ
  6
Continuous
 62
   120
370
     5
100
AcDbLine
 10
1914.918171683581
 20
2247.17579614085
 30
0.0
 11
1773.91773680809
 21
2106.175807849785
 31
0.0
  0
LINE
  5
230
330
1F
100
AcDbEntity
  8
0-C_ﾊｯﾁ
  6
Continuous
 62
   120
370
     5
100
AcDbLine
 10
1914.918171683581
 20
2586.587667245072
 30
0.0
 11
1773.91773680809
 21
2445.586845294854
 31
0.0
  0
LINE
  5
231
330
1F
100
AcDbEntity
  8
0-C_ﾊｯﾁ
  6
Continuous
 62
   120
370
     5
100
AcDbLine
 10
1914.918171683581
 20
2654.470173954674
 30
0.0
 11
1773.91773680809
 21
2513.46928395452
 31
0.0
  0
LINE
  5
232
330
1F
100
AcDbEntity
  8
0-C_ﾊｯﾁ
  6
Continuous
 62
   120
370
     5
100
AcDbLine
 10
1914.918171683581
 20
2722.353012254415
 30
0.0
 11
1773.91773680809
 21
2581.351138965509
 31
0.0
  0
LINE
  5
233
330
1F
100
AcDbEntity
  8
0-C_ﾊｯﾁ
  6
Continuous
 62
   120
370
     5
100
AcDbLine
 10
1914.918171683581
 20
2790.235932418811
 30
0.0
 11
1773.91773680809
 21
2649.233577625176
 31
0.0
  0
LINE
  5
234
330
1F
100
AcDbEntity
  8
0-C_ﾊｯﾁ
  6
Continuous
 62
   120
370
     5
100
AcDbLine
 10
1889.918404153437
 20
2901.000118152519
 30
0.0
 11
1773.91773680809
 21
2784.997871295833
 31
0.0
  0
LINE
  5
235
330
1F
100
AcDbEntity
  8
0-C_ﾊｯﾁ
  6
Continuous
 62
   120
370
     5
100
AcDbLine
 10
1822.037637759483
 20
2901.000118152519
 30
0.0
 11
1773.91773680809
 21
2852.879726306818
 31
0.0
  0
LINE
  5
236
330
1F
100
AcDbEntity
  8
0-4_枠
  6
Continuous
 62
    92
370
    13
100
AcDbLine
 10
1911.918171683581
 20
2063.99968327703
 30
0.0
 11
1911.918171683581
 21
1976.999843494317
 31
0.0
  0
LINE
  5
237
330
1F
100
AcDbEntity
  8
0-4_枠
  6
Continuous
 62
    92
370
    13
100
AcDbLine
 10
1911.918171683581
 20
2063.99968327703
 30
0.0
 11
1914.918171683581
 21
2063.99968327703
 31
0.0
  0
LINE
  5
238
330
1F
100
AcDbEntity
  8
0-4_枠
  6
Continuous
 62
    92
370
    13
100
AcDbLine
 10
1789.131214901889
 20
1976.999843494317
 30
0.0
 11
1911.918171683581
 21
1976.999843494317
 31
0.0
  0
LINE
  5
239
330
1F
100
AcDbEntity
  8
0-4_枠
  6
Continuous
 62
    92
370
    13
100
AcDbLine
 10
1911.918171683581
 20
2813.999683277029
 30
0.0
 11
1911.918171683581
 21
2901.000118152519
 31
0.0
  0
LINE
  5
23A
330
1F
100
AcDbEntity
  8
0-4_枠
  6
Continuous
 62
    92
370
    13
100
AcDbLine
 10
1911.918171683581
 20
2813.999683277029
 30
0.0
 11
1914.918171683581
 21
2813.999683277029
 31
0.0
  0
LINE
  5
23B
330
1F
100
AcDbEntity
  8
0-4_枠
  6
Continuous
 62
    92
370
    13
100
AcDbLine
 10
1911.918171683581
 20
2901.00011815223
 30
0.0
 11
1789.131809994378
 21
2901.00011815223
 31
0.0
  0
LINE
  5
23C
330
1F
100
AcDbEntity
  8
0-C_ﾊｯﾁ
  6
Continuous
 62
   120
370
     5
100
AcDbLine
 10
1911.918171683581
 20
2855.117275320623
 30
0.0
 11
1773.91773680809
 21
2717.115432636163
 31
0.0
  0
LINE
  5
23D
330
1F
100
AcDbEntity
  8
0-C_ﾊｯﾁ
  6
Continuous
 62
   120
370
     5
100
AcDbLine
 10
1911.918171683581
 20
2040.529542281554
 30
0.0
 11
1848.388398928265
 21
1976.999843494317
 31
0.0
  0
LINE
  5
23E
330
1F
100
AcDbEntity
  8
0-3_仕上
  6
Continuous
 62
    92
370
    13
100
AcDbLine
 10
-1924.937546155841
 20
2753.999683277039
 30
0.0
 11
-1924.937546155841
 21
2123.999683277034
 31
0.0
  0
LINE
  5
23F
330
1F
100
AcDbEntity
  8
0-3_仕上
  6
Continuous
 62
     7
370
     9
100
AcDbLine
 10
-2554.937546155841
 20
2123.999683277034
 30
0.0
 11
-1924.937546155841
 21
2753.999683277039
 31
0.0
  0
LINE
  5
240
330
1F
100
AcDbEntity
  8
0-3_仕上
  6
Continuous
 62
     7
370
     9
100
AcDbLine
 10
-1924.937546155841
 20
2123.999683277034
 30
0.0
 11
-2554.937546155841
 21
2753.999683277039
 31
0.0
  0
LINE
  5
241
330
1F
100
AcDbEntity
  8
0-3_仕上
  6
Continuous
 62
    92
370
    13
100
AcDbLine
 10
-2554.937546155841
 20
2753.999683277039
 30
0.0
 11
-2554.937546155841
 21
2123.999683277034
 31
0.0
  0
LINE
  5
242
330
1F
100
AcDbEntity
  8
0-3_仕上
  6
Continuous
 62
     7
370
     9
100
AcDbLine
 10
2214.773889523007
 20
2123.999683277028
 30
0.0
 11
1944.773889523007
 21
2753.999683277028
 31
0.0
  0
LINE
  5
243
330
1F
100
AcDbEntity
  8
0-3_仕上
  6
Continuous
 62
    92
370
    13
100
AcDbLine
 10
1944.773889523007
 20
2753.999683277028
 30
0.0
 11
1944.773889523007
 21
2123.999683277028
 31
0.0
  0
LINE
  5
244
330
1F
100
AcDbEntity
  8
0-3_仕上
  6
Continuous
 62
    92
370
    13
100
AcDbLine
 10
2214.773889523007
 20
2123.999683277028
 30
0.0
 11
2214.773889523007
 21
2753.999683277028
 31
0.0
  0
LWPOLYLINE
  5
245
330
1F
100
AcDbEntity
  8
0-B_寸法
  6
Continuous
 62
     7
370
     9
100
AcDbPolyline
 90
        4
 70
     1
 43
6.0
 10
-1718.08182831642
 20
1223.999683277027
 42
0.4142135623731
 10
-1721.08182831642
 20
1226.999683277027
 42
0.4142135623731
 10
-1724.08182831642
 20
1223.999683277027
 42
0.4142135623731
 10
-1721.08182831642
 20
1220.999683277027
 42
0.4142135623731
  0
LWPOLYLINE
  5
246
330
1F
100
AcDbEntity
  8
0-B_寸法
  6
Continuous
 62
     7
370
     9
100
AcDbPolyline
 90
        4
 70
     1
 43
6.0
 10
-1748.08182831642
 20
1223.999683277027
 42
0.4142135623731
 10
-1751.08182831642
 20
1226.999683277027
 42
0.4142135623731
 10
-1754.08182831642
 20
1223.999683277027
 42
0.4142135623731
 10
-1751.08182831642
 20
1220.999683277027
 42
0.4142135623731
  0
TEXT
  5
247
330
1F
100
AcDbEntity
  8
0-B_寸法
  6
Continuous
 62
     7
370
   211
100
AcDbText
 10
-1712.16734728034
 20
1255.919683277027
 30
0.0
 40
91.44
  1
5
  7
ＭＳ ゴシック
100
AcDbText
  0
LINE
  5
248
330
1F
100
AcDbEntity
  8
0-B_寸法
  6
Continuous
 62
   120
370
     5
100
AcDbLine
 10
-1721.08182831642
 20
1223.999683277027
 30
0.0
 11
-1721.08182831642
 21
1793.999683277027
 31
0.0
  0
LWPOLYLINE
  5
249
330
1F
100
AcDbEntity
  8
0-B_寸法
  6
Continuous
 62
     7
370
     9
100
AcDbPolyline
 90
        4
 70
     1
 43
6.0
 10
1773.918171683583
 20
1223.999683277027
 42
0.4142135623731
 10
1770.918171683583
 20
1226.999683277027
 42
0.4142135623731
 10
1767.918171683582
 20
1223.999683277027
 42
0.4142135623731
 10
1770.918171683583
 20
1220.999683277027
 42
0.4142135623731
  0
LWPOLYLINE
  5
24A
330
1F
100
AcDbEntity
  8
0-B_寸法
  6
Continuous
 62
     7
370
     9
100
AcDbPolyline
 90
        4
 70
     1
 43
6.0
 10
1761.918171683583
 20
1223.999683277027
 42
0.4142135623731
 10
1758.918171683583
 20
1226.999683277027
 42
0.4142135623731
 10
1755.918171683583
 20
1223.999683277027
 42
0.4142135623731
 10
1758.918171683583
 20
1220.999683277027
 42
0.4142135623731
  0
TEXT
  5
24B
330
1F
100
AcDbEntity
  8
0-B_寸法
  6
Continuous
 62
     7
370
   211
100
AcDbText
 10
1687.543543323605
 20
1255.919683277027
 30
0.0
 40
91.44
  1
2
  7
ＭＳ ゴシック
100
AcDbText
  0
LINE
  5
24C
330
1F
100
AcDbEntity
  8
0-B_寸法
  6
Continuous
 62
   120
370
     5
100
AcDbLine
 10
1758.918171683583
 20
1223.999683277027
 30
0.0
 11
1758.918171683583
 21
1793.999683277027
 31
0.0
  0
LWPOLYLINE
  5
24D
330
1F
100
AcDbEntity
  8
0-B_寸法
  6
Continuous
 62
     7
370
     9
100
AcDbPolyline
 90
        4
 70
     1
 43
6.0
 10
-1748.08182831642
 20
1013.999683277027
 42
0.4142135623731
 10
-1751.08182831642
 20
1016.999683277027
 42
0.4142135623731
 10
-1754.08182831642
 20
1013.999683277027
 42
0.4142135623731
 10
-1751.08182831642
 20
1010.999683277027
 42
0.4142135623731
  0
LWPOLYLINE
  5
24E
330
1F
100
AcDbEntity
  8
0-B_寸法
  6
Continuous
 62
     7
370
     9
100
AcDbPolyline
 90
        4
 70
     1
 43
6.0
 10
-1892.081828316419
 20
1013.999683277027
 42
0.4142135623731
 10
-1895.081828316419
 20
1016.999683277027
 42
0.4142135623731
 10
-1898.081828316419
 20
1013.999683277027
 42
0.4142135623731
 10
-1895.081828316419
 20
1010.999683277027
 42
0.4142135623731
  0
TEXT
  5
24F
330
1F
100
AcDbEntity
  8
0-B_寸法
  6
Continuous
 62
     7
370
   211
100
AcDbText
 10
-1883.081828316416
 20
1045.919683277027
 30
0.0
 40
91.44
  1
24
  7
ＭＳ ゴシック
100
AcDbText
  0
LINE
  5
250
330
1F
100
AcDbEntity
  8
0-B_寸法
  6
Continuous
 62
   120
370
     5
100
AcDbLine
 10
-1751.08182831642
 20
1013.999683277027
 30
0.0
 11
-1751.08182831642
 21
1793.999683277027
 31
0.0
  0
LINE
  5
251
330
1F
100
AcDbEntity
  8
0-B_寸法
  6
Continuous
 62
   120
370
     5
100
AcDbLine
 10
1914.918171683581
 20
1013.999683277027
 30
0.0
 11
-1895.081828316419
 21
1013.999683277027
 31
0.0
  0
LWPOLYLINE
  5
252
330
1F
100
AcDbEntity
  8
0-B_寸法
  6
Continuous
 62
     7
370
     9
100
AcDbPolyline
 90
        4
 70
     1
 43
6.0
 10
1917.918171683581
 20
1013.999683277027
 42
0.4142135623731
 10
1914.918171683581
 20
1016.999683277027
 42
0.4142135623731
 10
1911.918171683581
 20
1013.999683277027
 42
0.4142135623731
 10
1914.918171683581
 20
1010.999683277027
 42
0.4142135623731
  0
LWPOLYLINE
  5
253
330
1F
100
AcDbEntity
  8
0-B_寸法
  6
Continuous
 62
     7
370
     9
100
AcDbPolyline
 90
        4
 70
     1
 43
6.0
 10
1773.918171683583
 20
1013.999683277027
 42
0.4142135623731
 10
1770.918171683583
 20
1016.999683277027
 42
0.4142135623731
 10
1767.918171683582
 20
1013.999683277027
 42
0.4142135623731
 10
1770.918171683583
 20
1010.999683277027
 42
0.4142135623731
  0
TEXT
  5
254
330
1F
100
AcDbEntity
  8
0-B_寸法
  6
Continuous
 62
     7
370
   211
100
AcDbText
 10
1782.918171683582
 20
1045.919683277027
 30
0.0
 40
91.44
  1
24
  7
ＭＳ ゴシック
100
AcDbText
  0
LINE
  5
255
330
1F
100
AcDbEntity
  8
0-B_寸法
  6
Continuous
 62
   120
370
     5
100
AcDbLine
 10
1770.918171683583
 20
1013.999683277027
 30
0.0
 11
1770.918171683583
 21
1793.999683277027
 31
0.0
  0
LWPOLYLINE
  5
256
330
1F
100
AcDbEntity
  8
0-B_寸法
  6
Continuous
 62
     7
370
     9
100
AcDbPolyline
 90
        4
 70
     1
 43
6.0
 10
-1892.081828316419
 20
803.9996832770273
 42
0.4142135623731
 10
-1895.081828316419
 20
806.9996832770274
 42
0.4142135623731
 10
-1898.081828316419
 20
803.9996832770273
 42
0.4142135623731
 10
-1895.081828316419
 20
800.9996832770273
 42
0.4142135623731
  0
LINE
  5
257
330
1F
100
AcDbEntity
  8
0-B_寸法
  6
Continuous
 62
   120
370
     5
100
AcDbLine
 10
-1895.081828316419
 20
803.9996832770273
 30
0.0
 11
-1895.081828316419
 21
1793.999683277027
 31
0.0
  0
LINE
  5
258
330
1F
100
AcDbEntity
  8
0-B_寸法
  6
Continuous
 62
   120
370
     5
100
AcDbLine
 10
1914.918171683581
 20
803.9996832770273
 30
0.0
 11
-1895.081828316419
 21
803.9996832770273
 31
0.0
  0
LWPOLYLINE
  5
259
330
1F
100
AcDbEntity
  8
0-B_寸法
  6
Continuous
 62
     7
370
     9
100
AcDbPolyline
 90
        4
 70
     1
 43
6.0
 10
1917.918171683581
 20
803.9996832770273
 42
0.4142135623731
 10
1914.918171683581
 20
806.9996832770274
 42
0.4142135623731
 10
1911.918171683581
 20
803.9996832770273
 42
0.4142135623731
 10
1914.918171683581
 20
800.9996832770273
 42
0.4142135623731
  0
LINE
  5
25A
330
1F
100
AcDbEntity
  8
0-B_寸法
  6
Continuous
 62
   120
370
     5
100
AcDbLine
 10
1914.918171683581
 20
803.9996832770273
 30
0.0
 11
1914.918171683581
 21
1793.999683277027
 31
0.0
  0
LINE
  5
25B
330
1F
100
AcDbEntity
  8
0-B_寸法
  6
Continuous
 62
   120
370
     5
100
AcDbLine
 10
1770.918171683583
 20
1223.999683277027
 30
0.0
 11
-1751.08182831642
 21
1223.999683277027
 31
0.0
  0
LINE
  5
25C
330
1F
100
AcDbEntity
  8
0-B_寸法
  6
Continuous
 62
   120
370
     5
100
AcDbLine
 10
-1895.081828316419
 20
803.9996832770273
 30
0.0
 11
-1925.081828316419
 21
803.9996832770273
 31
0.0
  0
LWPOLYLINE
  5
25D
330
1F
100
AcDbEntity
  8
0-B_寸法
  6
Continuous
 62
     7
370
     9
100
AcDbPolyline
 90
        4
 70
     1
 43
6.0
 10
-1922.081828316419
 20
803.9996832770273
 42
0.4142135623731
 10
-1925.081828316419
 20
806.9996832770274
 42
0.4142135623731
 10
-1928.081828316419
 20
803.9996832770273
 42
0.4142135623731
 10
-1925.081828316419
 20
800.9996832770273
 42
0.4142135623731
  0
LINE
  5
25E
330
1F
100
AcDbEntity
  8
0-B_寸法
  6
Continuous
 62
   120
370
     5
100
AcDbLine
 10
-1925.081828316419
 20
593.9996832770273
 30
0.0
 11
-1925.081828316419
 21
1793.999683277027
 31
0.0
  0
LINE
  5
25F
330
1F
100
AcDbEntity
  8
0-B_寸法
  6
Continuous
 62
   120
370
     5
100
AcDbLine
 10
1914.918171683581
 20
803.9996832770273
 30
0.0
 11
1944.918171683581
 21
803.9996832770273
 31
0.0
  0
LWPOLYLINE
  5
260
330
1F
100
AcDbEntity
  8
0-B_寸法
  6
Continuous
 62
     7
370
     9
100
AcDbPolyline
 90
        4
 70
     1
 43
6.0
 10
1947.918171683581
 20
803.9996832770273
 42
0.4142135623731
 10
1944.918171683581
 20
806.9996832770274
 42
0.4142135623731
 10
1941.918171683581
 20
803.9996832770273
 42
0.4142135623731
 10
1944.918171683581
 20
800.9996832770273
 42
0.4142135623731
  0
LINE
  5
261
330
1F
100
AcDbEntity
  8
0-B_寸法
  6
Continuous
 62
   120
370
     5
100
AcDbLine
 10
1944.918171683581
 20
593.9996832770273
 30
0.0
 11
1944.918171683581
 21
1793.999683277027
 31
0.0
  0
LINE
  5
262
330
1F
100
AcDbEntity
  8
0-B_寸法
  6
Continuous
 62
   120
370
     5
100
AcDbLine
 10
1944.918171683581
 20
593.9996832770273
 30
0.0
 11
-1925.081828316419
 21
593.9996832770273
 31
0.0
  0
LWPOLYLINE
  5
263
330
1F
100
AcDbEntity
  8
0-B_寸法
  6
Continuous
 62
     7
370
     9
100
AcDbPolyline
 90
        4
 70
     1
 43
6.0
 10
1947.918171683581
 20
593.9996832770273
 42
0.4142135623731
 10
1944.918171683581
 20
596.9996832770274
 42
0.4142135623731
 10
1941.918171683581
 20
593.9996832770273
 42
0.4142135623731
 10
1944.918171683581
 20
590.9996832770273
 42
0.4142135623731
  0
LWPOLYLINE
  5
264
330
1F
100
AcDbEntity
  8
0-B_寸法
  6
Continuous
 62
     7
370
     9
100
AcDbPolyline
 90
        4
 70
     1
 43
6.0
 10
-1922.081828316419
 20
593.9996832770273
 42
0.4142135623731
 10
-1925.081828316419
 20
596.9996832770274
 42
0.4142135623731
 10
-1928.081828316419
 20
593.9996832770273
 42
0.4142135623731
 10
-1925.081828316419
 20
590.9996832770273
 42
0.4142135623731
  0
TEXT
  5
265
330
1F
100
AcDbEntity
  8
0-B_寸法
  6
Continuous
 62
     7
370
   211
100
AcDbText
 10
-1880.439565421242
 20
835.9196832770273
 30
0.0
 40
91.44
  1
5
  7
ＭＳ ゴシック
100
AcDbText
  0
TEXT
  5
266
330
1F
100
AcDbEntity
  8
0-B_寸法
  6
Continuous
 62
     7
370
   211
100
AcDbText
 10
1848.234866081807
 20
835.9196832770273
 30
0.0
 40
91.44
  1
5
  7
ＭＳ ゴシック
100
AcDbText
  0
LINE
  5
267
330
1F
100
AcDbEntity
  8
0-B_寸法
  6
Continuous
 62
   120
370
     5
100
AcDbLine
 10
-1691.08193131324
 20
1433.999683277027
 30
0.0
 11
1410.949247653483
 21
1433.999683277027
 31
0.0
  0
LWPOLYLINE
  5
268
330
1F
100
AcDbEntity
  8
0-B_寸法
  6
Continuous
 62
     7
370
     9
100
AcDbPolyline
 90
        4
 70
     1
 43
6.0
 10
-1688.08193131324
 20
1433.999683277027
 42
0.4142135623731
 10
-1691.08193131324
 20
1436.999683277027
 42
0.4142135623731
 10
-1694.08193131324
 20
1433.999683277027
 42
0.4142135623731
 10
-1691.08193131324
 20
1430.999683277026
 42
0.4142135623731
  0
LWPOLYLINE
  5
269
330
1F
100
AcDbEntity
  8
0-B_寸法
  6
Continuous
 62
     7
370
     9
100
AcDbPolyline
 90
        4
 70
     1
 43
6.0
 10
1413.949247653483
 20
1433.999683277027
 42
0.4142135623731
 10
1410.949247653483
 20
1436.999683277027
 42
0.4142135623731
 10
1407.949247653483
 20
1433.999683277027
 42
0.4142135623731
 10
1410.949247653483
 20
1430.999683277026
 42
0.4142135623731
  0
LINE
  5
26A
330
1F
100
AcDbEntity
  8
0-B_寸法
  6
Continuous
 62
   120
370
     5
100
AcDbLine
 10
-1691.08193131324
 20
1433.999683277027
 30
0.0
 11
-1691.08193131324
 21
1793.999683277027
 31
0.0
  0
LINE
  5
26B
330
1F
100
AcDbEntity
  8
0-B_寸法
  6
Continuous
 62
   120
370
     5
100
AcDbLine
 10
1410.949247653483
 20
1433.999683277027
 30
0.0
 11
1410.949247653483
 21
1793.999683277027
 31
0.0
  0
TEXT
  5
26C
330
1F
100
AcDbEntity
  8
0-A_文字
  6
Continuous
 62
     7
370
     9
100
AcDbText
 10
1751.008767730368
 20
1829.551515849175
 30
0.0
 40
91.44
  1
（丁番側）
 41
1.1
  7
ＭＳ ゴシック
100
AcDbText
  0
TEXT
  5
26D
330
1F
100
AcDbEntity
  8
0-A_文字
  6
Continuous
 62
     7
370
     9
100
AcDbText
 10
-2255.081828316416
 20
1840.919683277027
 30
0.0
 40
91.44
  1
（ラッチ側）
 41
1.0
  7
ＭＳ ゴシック
100
AcDbText
  0
LINE
  5
26E
330
1F
100
AcDbEntity
  8
0-6_扉
  6
Continuous
 62
   200
370
    20
100
AcDbLine
 10
-1721.08182831642
 20
2033.999683277028
 30
0.0
 11
-1721.08182831642
 21
2249.999683277028
 31
0.0
  0
LINE
  5
26F
330
1F
100
AcDbEntity
  8
0-6_扉
  6
Continuous
 62
   200
370
    20
100
AcDbLine
 10
1758.918171683583
 20
2249.999683277028
 30
0.0
 11
1758.918171683583
 21
2033.999683277028
 31
0.0
  0
LINE
  5
270
330
1F
100
AcDbEntity
  8
0-6_扉
  6
Continuous
 62
   200
370
    20
100
AcDbLine
 10
-1721.08182831642
 20
2033.999683277028
 30
0.0
 11
-41.08182831641699
 21
2033.999683277028
 31
0.0
  0
LINE
  5
271
330
1F
100
AcDbEntity
  8
0-6_扉
  6
Continuous
 62
   200
370
    20
100
AcDbLine
 10
78.91817168358301
 20
2033.999683277028
 30
0.0
 11
1758.918171683583
 21
2033.999683277028
 31
0.0
  0
LINE
  5
272
330
1F
100
AcDbEntity
  8
0-6_扉
  6
Continuous
 62
   200
370
    20
100
AcDbLine
 10
-1721.08182831642
 20
2249.999683277028
 30
0.0
 11
-41.08182831641699
 21
2249.999683277028
 31
0.0
  0
LINE
  5
273
330
1F
100
AcDbEntity
  8
0-6_扉
  6
Continuous
 62
   200
370
    20
100
AcDbLine
 10
78.91817168358301
 20
2249.999683277028
 30
0.0
 11
1758.918171683583
 21
2249.999683277028
 31
0.0
  0
LINE
  5
274
330
1F
100
AcDbEntity
  8
0-B_寸法
  6
Continuous
 62
   120
370
     5
100
AcDbLine
 10
-1051.14672016334
 20
2249.999683277028
 30
0.0
 11
-1051.14672016334
 21
2033.999683277028
 31
0.0
  0
LWPOLYLINE
  5
275
330
1F
100
AcDbEntity
  8
0-B_寸法
  6
Continuous
 62
     7
370
     9
100
AcDbPolyline
 90
        4
 70
     1
 43
6.0
 10
-1048.14672016334
 20
2249.999683277028
 42
0.4142135623731
 10
-1051.14672016334
 20
2252.999683277028
 42
0.4142135623731
 10
-1054.14672016334
 20
2249.999683277028
 42
0.4142135623731
 10
-1051.14672016334
 20
2246.999683277028
 42
0.4142135623731
  0
LWPOLYLINE
  5
276
330
1F
100
AcDbEntity
  8
0-B_寸法
  6
Continuous
 62
     7
370
     9
100
AcDbPolyline
 90
        4
 70
     1
 43
6.0
 10
-1048.14672016334
 20
2033.999683277028
 42
0.4142135623731
 10
-1051.14672016334
 20
2036.999683277028
 42
0.4142135623731
 10
-1054.14672016334
 20
2033.999683277028
 42
0.4142135623731
 10
-1051.14672016334
 20
2030.999683277028
 42
0.4142135623731
  0
TEXT
  5
277
330
1F
100
AcDbEntity
  8
0-B_寸法
  6
Continuous
 62
     7
370
   211
100
AcDbText
 10
-1083.06672016334
 20
2081.999683277028
 30
0.0
 40
91.44
  1
36
 50
90.0
  7
ＭＳ ゴシック
100
AcDbText
  0
LINE
  5
278
330
1F
100
AcDbEntity
  8
0-0_補助線
  6
JWW_HOJO
 62
   120
370
     5
100
AcDbLine
 10
3114.918171683583
 20
2141.999683277028
 30
0.0
 11
-3095.081828316419
 21
2141.999683277028
 31
0.0
  0
LINE
  5
279
330
1F
100
AcDbEntity
  8
0-6_扉
  6
JWW_DASHED2
 62
   200
370
    20
100
AcDbLine
 10
1410.949247653483
 20
1877.448156947584
 30
0.0
 11
1626.949247653483
 21
1877.448156947584
 31
0.0
  0
CIRCLE
  5
27A
330
1F
100
AcDbEntity
  8
0-7_金物
  6
Continuous
 62
     7
370
     9
100
AcDbCircle
 10
1753.20947283325
 20
1871.739458097256
 30
0.0
 40
30.0
  0
CIRCLE
  5
27B
330
1F
100
AcDbEntity
  8
0-7_金物
  6
Continuous
 62
     7
370
     9
100
AcDbCircle
 10
1753.20947283325
 20
1871.739458097256
 30
0.0
 40
21.00000000000001
  0
LINE
  5
27C
330
1F
100
AcDbEntity
  8
0-6_扉
  6
JWW_DASHED2
 62
   200
370
    20
100
AcDbLine
 10
1410.949247653483
 20
1877.448156947584
 30
0.0
 11
1410.949247653483
 21
1793.999683277027
 31
0.0
  0
LINE
  5
27D
330
1F
100
AcDbEntity
  8
0-6_扉
  6
JWW_DASHED2
 62
   200
370
    20
100
AcDbLine
 10
1626.949247653483
 20
1877.448156947584
 30
0.0
 11
1626.949247653483
 21
1793.999683277027
 31
0.0
  0
LINE
  5
27E
330
1F
100
AcDbEntity
  8
0-0_補助線
  6
JWW_HOJO
 62
   120
370
     5
100
AcDbLine
 10
9.918171683581818
 20
1793.999683277027
 30
0.0
 11
9.918171683581818
 21
3083.999683277027
 31
0.0
  0
TEXT
  5
27F
330
1F
100
AcDbEntity
  8
0-A_文字
  6
Continuous
 62
     7
370
     9
100
AcDbText
 10
2301.030782765187
 20
690.6820440037562
 30
0.0
 40
68.58
  1
※図示：右吊り元
  7
ＭＳ ゴシック
100
AcDbText
  0
LINE
  5
280
330
1F
100
AcDbEntity
  8
0-0_補助線
  6
Continuous
 62
    92
370
    13
100
AcDbLine
 10
1784.51788353289
 20
2421.026920053947
 30
0.0
 11
1770.918171683581
 21
2421.026920053947
 31
0.0
  0
LINE
  5
281
330
1F
100
AcDbEntity
  8
0-0_補助線
  6
Continuous
 62
    92
370
    13
100
AcDbLine
 10
1784.51788353289
 20
2265.026920053947
 30
0.0
 11
1784.51788353289
 21
2421.026920053947
 31
0.0
  0
INSERT
  5
282
330
1F
100
AcDbEntity
  8
0-0_補助線
  6
Continuous
 62
     7
370
     9
100
AcDbBlockReference
  2
02@@SfigorgFlag@@4_0-0_
 10
1751.731634983117
 20
2329.460253140263
 30
0.0
 41
-30.0
 42
30.0
  0
LINE
  5
283
330
1F
100
AcDbEntity
  8
0-4_枠
  6
Continuous
 62
    92
370
    13
100
AcDbLine
 10
1773.91773680809
 20
2885.786044965944
 30
0.0
 11
1773.91773680809
 21
2421.026920053947
 31
0.0
  0
LINE
  5
284
330
1F
100
AcDbEntity
  8
0-C_ﾊｯﾁ
  6
Continuous
 62
   120
370
     5
100
AcDbLine
 10
1914.918171683571
 20
2518.705178566355
 30
0.0
 11
1784.51788353289
 21
2388.305052898083
 31
0.0
  0
LINE
  5
285
330
1F
100
AcDbEntity
  8
0-C_ﾊｯﾁ
  6
Continuous
 62
   120
370
     5
100
AcDbLine
 10
1914.918171683581
 20
2450.822877886267
 30
0.0
 11
1784.51788353289
 21
2320.422939641896
 31
0.0
  0
LINE
  5
286
330
1F
100
AcDbEntity
  8
0-4_枠
  6
Continuous
 62
    92
370
    13
100
AcDbLine
 10
1773.91773680809
 20
1992.213321588116
 30
0.0
 11
1773.91773680809
 21
2265.026920053947
 31
0.0
  0
LINE
  5
287
330
1F
100
AcDbEntity
  8
0-0_補助線
  6
Continuous
 62
    92
370
    13
100
AcDbLine
 10
1770.918171683579
 20
2265.026920053947
 30
0.0
 11
1784.51788353289
 21
2265.026920053947
 31
0.0
  0
LINE
  5
288
330
1F
100
AcDbEntity
  8
0-4_枠
  6
Continuous
 62
    92
370
    13
100
AcDbLine
 10
1770.918171683579
 20
1990.970246025508
 30
0.0
 11
1770.918171683579
 21
2265.026920053947
 31
0.0
  0
TEXT
  5
289
330
1F
100
AcDbEntity
  8
0-B_寸法
  6
Continuous
 62
     7
370
   211
100
AcDbText
 10
-540.8818283164212
 20
1465.919683277027
 30
0.0
 40
91.44
  1
有効開口寸法＝536
 41
1.117647058823529
  7
ＭＳ ゴシック
100
AcDbText
  0
TEXT
  5
28A
330
1F
100
AcDbEntity
  8
0-B_寸法
  6
Continuous
 62
     7
370
     0
100
AcDbText
 10
-294.8818283164172
 20
1259.834814902354
 30
0.0
 40
91.44
  1
ＤＷ＝599
 41
1.111111111111111
  7
ＭＳ ゴシック
100
AcDbText
  0
TEXT
  5
28B
330
1F
100
AcDbEntity
  8
0-B_寸法
  6
Continuous
 62
     7
370
   211
100
AcDbText
 10
-294.8818283164172
 20
1045.919683277027
 30
0.0
 40
91.44
  1
枠内＝606
 41
1.111111111111111
  7
ＭＳ ゴシック
100
AcDbText
  0
TEXT
  5
28C
330
1F
100
AcDbEntity
  8
0-B_寸法
  6
Continuous
 62
     7
370
     0
100
AcDbText
 10
-294.8818283164172
 20
828.7582299385236
 30
0.0
 40
91.44
  1
枠外＝654
 41
1.111111111111111
  7
ＭＳ ゴシック
100
AcDbText
  0
TEXT
  5
28D
330
1F
100
AcDbEntity
  8
0-B_寸法
  6
Continuous
 62
     7
370
   211
100
AcDbText
 10
-362.3818283164185
 20
625.9196832770273
 30
0.0
 40
91.44
  1
ＲＯＷ＝664
 41
1.113636363636364
  7
ＭＳ ゴシック
100
AcDbText
  0
TEXT
  5
28E
330
1F
100
AcDbEntity
  8
0-B_寸法
  6
Continuous
 62
     7
370
   211
100
AcDbText
 10
-1544.222016680676
 20
-441.2169312169312
 30
0.0
 40
91.44
  1
11
 50
90.0
  7
ＭＳ ゴシック
100
AcDbText
  0
LINE
  5
28F
330
1F
100
AcDbEntity
  8
0-3_仕上
  6
Continuous
 62
     7
370
     9
100
AcDbLine
 10
-1513.7330513463
 20
-3096.000403945509
 30
0.0
 11
-2863.733051346299
 21
-3096.000403945509
 31
0.0
  0
LINE
  5
290
330
1F
100
AcDbEntity
  8
0-3_仕上
  6
Continuous
 62
     7
370
     9
100
AcDbLine
 10
-1513.7330513463
 20
-3105.000403945508
 30
0.0
 11
-2863.733051346299
 21
-3105.000403945508
 31
0.0
  0
LINE
  5
291
330
1F
100
AcDbEntity
  8
0-3_仕上
  6
Continuous
 62
     7
370
     9
100
AcDbLine
 10
-1513.7330513463
 20
-3114.000403945509
 30
0.0
 11
-2863.733051346299
 21
-3114.000403945509
 31
0.0
  0
LINE
  5
292
330
1F
100
AcDbEntity
  8
0-3_仕上
  6
Continuous
 62
     7
370
     9
100
AcDbLine
 10
-1513.7330513463
 20
-3123.000403945509
 30
0.0
 11
-2863.733051346299
 21
-3123.000403945509
 31
0.0
  0
LINE
  5
293
330
1F
100
AcDbEntity
  8
0-3_仕上
  6
Continuous
 62
     7
370
     9
100
AcDbLine
 10
-1513.7330513463
 20
-3132.000403945508
 30
0.0
 11
-2863.733051346299
 21
-3132.000403945508
 31
0.0
  0
LINE
  5
294
330
1F
100
AcDbEntity
  8
0-3_仕上
  6
Continuous
 62
     7
370
     9
100
AcDbLine
 10
-1513.7330513463
 20
-3141.000403945509
 30
0.0
 11
-2863.733051346299
 21
-3141.000403945509
 31
0.0
  0
LINE
  5
295
330
1F
100
AcDbEntity
  8
0-3_仕上
  6
Continuous
 62
     7
370
     9
100
AcDbLine
 10
-1513.7330513463
 20
-3150.000403945508
 30
0.0
 11
-2863.733051346299
 21
-3150.000403945508
 31
0.0
  0
LINE
  5
296
330
1F
100
AcDbEntity
  8
0-3_仕上
  6
Continuous
 62
    40
370
    15
100
AcDbLine
 10
-1513.7330513463
 20
-3087.000403945511
 30
0.0
 11
-2863.733051346299
 21
-3087.000403945511
 31
0.0
  0
LINE
  5
297
330
1F
100
AcDbEntity
  8
0-3_仕上
  6
Continuous
 62
    40
370
    15
100
AcDbLine
 10
-1513.7330513463
 20
-3159.000403945509
 30
0.0
 11
-2863.733051346299
 21
-3159.000403945509
 31
0.0
  0
LINE
  5
298
330
1F
100
AcDbEntity
  8
0-1_通り芯
  6
JWW_CENTER1
 62
   120
370
     5
100
AcDbLine
 10
-2863.733051346299
 20
-3159.000197951857
 30
0.0
 11
-1513.7330513463
 21
-3159.000197951857
 31
0.0
  0
LINE
  5
299
330
1F
100
AcDbEntity
  8
0-0_補助線
  6
JWW_HOJO
 62
   120
370
     5
100
AcDbLine
 10
-1454.124195067321
 20
-1729.500300948684
 30
0.0
 11
-2767.341907625268
 21
-1729.500300948684
 31
0.0
  0
LINE
  5
29A
330
1F
100
AcDbEntity
  8
0-0_補助線
  6
JWW_HOJO
 62
   120
370
     5
100
AcDbLine
 10
-1454.124195067321
 20
-1849.500300948684
 30
0.0
 11
-2767.341907625268
 21
-1849.500300948684
 31
0.0
  0
LINE
  5
29B
330
1F
100
AcDbEntity
  8
0-4_枠
  6
Continuous
 62
   120
370
     5
100
AcDbLine
 10
-2653.733051346299
 20
-3087.000403945511
 30
0.0
 11
-2653.733051346299
 21
-1849.500300948684
 31
0.0
  0
LINE
  5
29C
330
1F
100
AcDbEntity
  8
0-4_枠
  6
Continuous
 62
   120
370
     5
100
AcDbLine
 10
-1723.7330513463
 20
-3087.000403945511
 30
0.0
 11
-1723.7330513463
 21
-1849.500300948684
 31
0.0
  0
LWPOLYLINE
  5
29D
330
1F
100
AcDbEntity
  8
0-B_寸法
  6
Continuous
 62
     7
370
     9
100
AcDbPolyline
 90
        4
 70
     1
 43
6.0
 10
-1300.733051346299
 20
-3087.000403945511
 42
0.4142135623731
 10
-1303.733051346299
 20
-3084.000403945511
 42
0.4142135623731
 10
-1306.733051346299
 20
-3087.000403945511
 42
0.4142135623731
 10
-1303.733051346299
 20
-3090.000403945511
 42
0.4142135623731
  0
LWPOLYLINE
  5
29E
330
1F
100
AcDbEntity
  8
0-B_寸法
  6
Continuous
 62
     7
370
     9
100
AcDbPolyline
 90
        4
 70
     1
 43
6.0
 10
-1090.733051346299
 20
-3087.000403945511
 42
0.4142135623731
 10
-1093.733051346299
 20
-3084.000403945511
 42
0.4142135623731
 10
-1096.733051346299
 20
-3087.000403945511
 42
0.4142135623731
 10
-1093.733051346299
 20
-3090.000403945511
 42
0.4142135623731
  0
LINE
  5
29F
330
1F
100
AcDbEntity
  8
0-4_枠
  6
Continuous
 62
   120
370
     5
100
AcDbLine
 10
-2629.733051346301
 20
-404.9999919582028
 30
0.0
 11
-2653.733051346299
 21
-404.9999919582028
 31
0.0
  0
LINE
  5
2A0
330
1F
100
AcDbEntity
  8
0-4_枠
  6
Continuous
 62
   120
370
     5
100
AcDbLine
 10
-1747.7330513463
 20
-404.9999919582028
 30
0.0
 11
-1723.7330513463
 21
-404.9999919582028
 31
0.0
  0
LINE
  5
2A1
330
1F
100
AcDbEntity
  8
0-4_枠
  6
Continuous
 62
   120
370
     5
100
AcDbLine
 10
-2653.733051346299
 20
-1729.500300948684
 30
0.0
 11
-2653.733051346299
 21
-404.9999919582028
 31
0.0
  0
LINE
  5
2A2
330
1F
100
AcDbEntity
  8
0-4_枠
  6
Continuous
 62
   120
370
     5
100
AcDbLine
 10
-1723.7330513463
 20
-1729.500300948684
 30
0.0
 11
-1723.7330513463
 21
-404.9999919582028
 31
0.0
  0
LWPOLYLINE
  5
2A3
330
1F
100
AcDbEntity
  8
0-B_寸法
  6
Continuous
 62
     7
370
     9
100
AcDbPolyline
 90
        4
 70
     1
 43
6.0
 10
-2626.733051346301
 20
-857.5299816442788
 42
0.4142135623731
 10
-2629.733051346301
 20
-854.5299816442788
 42
0.4142135623731
 10
-2632.7330513463
 20
-857.5299816442788
 42
0.4142135623731
 10
-2629.733051346301
 20
-860.5299816442788
 42
0.4142135623731
  0
LWPOLYLINE
  5
2A4
330
1F
100
AcDbEntity
  8
0-B_寸法
  6
Continuous
 62
     7
370
     9
100
AcDbPolyline
 90
        4
 70
     1
 43
6.0
 10
-1744.7330513463
 20
-857.5299816442788
 42
0.4142135623731
 10
-1747.7330513463
 20
-854.5299816442788
 42
0.4142135623731
 10
-1750.7330513463
 20
-857.5299816442788
 42
0.4142135623731
 10
-1747.7330513463
 20
-860.5299816442788
 42
0.4142135623731
  0
LINE
  5
2A5
330
1F
100
AcDbEntity
  8
0-B_寸法
  6
Continuous
 62
   120
370
     5
100
AcDbLine
 10
-2629.733051346301
 20
-857.5299816442788
 30
0.0
 11
-2629.733051346301
 21
-650.3978428206776
 31
0.0
  0
LINE
  5
2A6
330
1F
100
AcDbEntity
  8
0-B_寸法
  6
Continuous
 62
   120
370
     5
100
AcDbLine
 10
-2629.733051346301
 20
-857.5299816442788
 30
0.0
 11
-1747.7330513463
 21
-857.5299816442788
 31
0.0
  0
LINE
  5
2A7
330
1F
100
AcDbEntity
  8
0-B_寸法
  6
Continuous
 62
   120
370
     5
100
AcDbLine
 10
-1747.7330513463
 20
-857.5299816442788
 30
0.0
 11
-1747.7330513463
 21
-650.3978428206776
 31
0.0
  0
LINE
  5
2A8
330
1F
100
AcDbEntity
  8
0-B_寸法
  6
Continuous
 62
   120
370
     5
100
AcDbLine
 10
-1303.733051346299
 20
-3057.000403945511
 30
0.0
 11
-1513.7330513463
 21
-3057.000403945511
 31
0.0
  0
LWPOLYLINE
  5
2A9
330
1F
100
AcDbEntity
  8
0-B_寸法
  6
Continuous
 62
     7
370
     9
100
AcDbPolyline
 90
        4
 70
     1
 43
6.0
 10
-1300.733051346299
 20
-3057.000403945511
 42
0.4142135623731
 10
-1303.733051346299
 20
-3054.000403945511
 42
0.4142135623731
 10
-1306.733051346299
 20
-3057.000403945511
 42
0.4142135623731
 10
-1303.733051346299
 20
-3060.000403945511
 42
0.4142135623731
  0
LINE
  5
2AA
330
1F
100
AcDbEntity
  8
0-B_寸法
  6
Continuous
 62
   120
370
     5
100
AcDbLine
 10
-884.5899185209973
 20
-3159.000197951857
 30
0.0
 11
-1513.7330513463
 21
-3159.000197951857
 31
0.0
  0
LWPOLYLINE
  5
2AB
330
1F
100
AcDbEntity
  8
0-B_寸法
  6
Continuous
 62
     7
370
     9
100
AcDbPolyline
 90
        4
 70
     1
 43
6.0
 10
-881.5899185209972
 20
-3159.000197951857
 42
0.4142135623731
 10
-884.5899185209973
 20
-3156.000197951857
 42
0.4142135623731
 10
-887.5899185209973
 20
-3159.000197951857
 42
0.4142135623731
 10
-884.5899185209973
 20
-3162.000197951856
 42
0.4142135623731
  0
LWPOLYLINE
  5
2AC
330
1F
100
AcDbEntity
  8
0-B_寸法
  6
Continuous
 62
     7
370
     9
100
AcDbPolyline
 90
        4
 70
     1
 43
6.0
 10
-881.5899185209972
 20
-3087.000403945511
 42
0.4142135623731
 10
-884.5899185209973
 20
-3084.000403945511
 42
0.4142135623731
 10
-887.5899185209973
 20
-3087.000403945511
 42
0.4142135623731
 10
-884.5899185209973
 20
-3090.000403945511
 42
0.4142135623731
  0
LINE
  5
2AD
330
1F
100
AcDbEntity
  8
0-B_寸法
  6
Continuous
 62
   120
370
     5
100
AcDbLine
 10
-884.5899185209973
 20
-3087.000403945511
 30
0.0
 11
-1513.7330513463
 21
-3087.000403945511
 31
0.0
  0
LINE
  5
2AE
330
1F
100
AcDbEntity
  8
0-C_ﾊｯﾁ
  6
Continuous
 62
   120
370
     5
100
AcDbLine
 10
-1861.145062685581
 20
-404.9999919582028
 30
0.0
 11
-1750.733211563588
 21
-515.4119716334956
 31
0.0
  0
LINE
  5
2AF
330
1F
100
AcDbEntity
  8
0-C_ﾊｯﾁ
  6
Continuous
 62
   120
370
     5
100
AcDbLine
 10
-1929.026950857436
 20
-404.9999919582028
 30
0.0
 11
-1788.026737259385
 21
-546.0004268336909
 31
0.0
  0
LINE
  5
2B0
330
1F
100
AcDbEntity
  8
0-C_ﾊｯﾁ
  6
Continuous
 62
   120
370
     5
100
AcDbLine
 10
-1996.909164210121
 20
-404.9999919582028
 30
0.0
 11
-1855.909175919054
 21
-546.0004268336909
 31
0.0
  0
LINE
  5
2B1
330
1F
100
AcDbEntity
  8
0-C_ﾊｯﾁ
  6
Continuous
 62
   120
370
     5
100
AcDbLine
 10
-2404.203542023947
 20
-404.9999919582028
 30
0.0
 11
-2263.202652023791
 21
-546.0004268336909
 31
0.0
  0
LINE
  5
2B2
330
1F
100
AcDbEntity
  8
0-C_ﾊｯﾁ
  6
Continuous
 62
   120
370
     5
100
AcDbLine
 10
-2472.086380323684
 20
-404.9999919582028
 30
0.0
 11
-2331.084507034779
 21
-546.0004268336909
 31
0.0
  0
LINE
  5
2B3
330
1F
100
AcDbEntity
  8
0-C_ﾊｯﾁ
  6
Continuous
 62
   120
370
     5
100
AcDbLine
 10
-2539.969300488082
 20
-404.9999919582028
 30
0.0
 11
-2398.966945694445
 21
-546.0004268336909
 31
0.0
  0
LINE
  5
2B4
330
1F
100
AcDbEntity
  8
0-4_枠
  6
Continuous
 62
    92
370
    13
100
AcDbLine
 10
-2629.733051346301
 20
-404.9999919582028
 30
0.0
 11
-1747.7330513463
 21
-404.9999919582028
 31
0.0
  0
LINE
  5
2B5
330
1F
100
AcDbEntity
  8
0-C_ﾊｯﾁ
  6
Continuous
 62
   120
370
     5
100
AcDbLine
 10
-2064.788985226223
 20
-404.9999919582028
 30
0.0
 11
-1923.791626022816
 21
-546.0004268336909
 31
0.0
  0
LINE
  5
2B6
330
1F
100
AcDbEntity
  8
0-C_ﾊｯﾁ
  6
Continuous
 62
   120
370
     5
100
AcDbLine
 10
-2336.321035314342
 20
-404.9999919582028
 30
0.0
 11
-2195.320213364125
 21
-546.0004268336909
 31
0.0
  0
LINE
  5
2B7
330
1F
100
AcDbEntity
  8
0-4_枠
  6
Continuous
 62
    92
370
    13
100
AcDbLine
 10
-2626.733486221788
 20
-543.5142731371709
 30
0.0
 11
-2626.733486221788
 21
-407.9999919582039
 31
0.0
  0
LINE
  5
2B8
330
1F
100
AcDbEntity
  8
0-4_枠
  6
Continuous
 62
    92
370
    13
100
AcDbLine
 10
-2624.24733255615
 20
-546.0004246716136
 30
0.0
 11
-2626.733486221788
 21
-543.5142731371709
 31
0.0
  0
LINE
  5
2B9
330
1F
100
AcDbEntity
  8
0-4_枠
  6
Continuous
 62
    92
370
    13
100
AcDbLine
 10
-2625.490408840731
 20
-548.9999883212984
 30
0.0
 11
-2629.733051346301
 21
-544.7573494526321
 31
0.0
  0
LINE
  5
2BA
330
1F
100
AcDbEntity
  8
0-4_枠
  6
Continuous
 62
    92
370
    13
100
AcDbLine
 10
-2629.733051346301
 20
-544.7573494526321
 30
0.0
 11
-2629.733051346301
 21
-404.9999919582028
 31
0.0
  0
LINE
  5
2BB
330
1F
100
AcDbEntity
  8
0-4_枠
  6
Continuous
 62
    92
370
    13
100
AcDbLine
 10
-2569.733051346301
 20
-407.9999919582039
 30
0.0
 11
-2626.733486221788
 21
-407.9999919582039
 31
0.0
  0
LINE
  5
2BC
330
1F
100
AcDbEntity
  8
0-4_枠
  6
Continuous
 62
    92
370
    13
100
AcDbLine
 10
-1750.733211563585
 20
-543.5148708012498
 30
0.0
 11
-1750.733211563585
 21
-407.9999919582039
 31
0.0
  0
LINE
  5
2BD
330
1F
100
AcDbEntity
  8
0-4_枠
  6
Continuous
 62
    92
370
    13
100
AcDbLine
 10
-1753.218767596028
 20
-546.0004268336917
 30
0.0
 11
-1750.733211563585
 21
-543.5148708012498
 31
0.0
  0
LINE
  5
2BE
330
1F
100
AcDbEntity
  8
0-4_枠
  6
Continuous
 62
    92
370
    13
100
AcDbLine
 10
-1751.97569203342
 20
-548.9999919582035
 30
0.0
 11
-1747.7330513463
 21
-544.7573512710849
 31
0.0
  0
LINE
  5
2BF
330
1F
100
AcDbEntity
  8
0-4_枠
  6
Continuous
 62
    92
370
    13
100
AcDbLine
 10
-1747.7330513463
 20
-544.7573512710849
 30
0.0
 11
-1747.7330513463
 21
-404.9999919582028
 31
0.0
  0
LINE
  5
2C0
330
1F
100
AcDbEntity
  8
0-4_枠
  6
Continuous
 62
    92
370
    13
100
AcDbLine
 10
-1807.7330513463
 20
-407.9999919582039
 30
0.0
 11
-1750.733211563585
 21
-407.9999919582039
 31
0.0
  0
LINE
  5
2C1
330
1F
100
AcDbEntity
  8
0-C_ﾊｯﾁ
  6
Continuous
 62
   120
370
     5
100
AcDbLine
 10
-2626.733486221788
 20
-453.9994326992274
 30
0.0
 11
-2534.731239365103
 21
-546.0004268336909
 31
0.0
  0
LINE
  5
2C2
330
1F
100
AcDbEntity
  8
0-C_ﾊｯﾁ
  6
Continuous
 62
   120
370
     5
100
AcDbLine
 10
-2604.850643389892
 20
-407.9999919582039
 30
0.0
 11
-2466.848800705433
 21
-546.0004268336909
 31
0.0
  0
LINE
  5
2C3
330
1F
100
AcDbEntity
  8
0-C_ﾊｯﾁ
  6
Continuous
 62
   120
370
     5
100
AcDbLine
 10
-1790.262910350826
 20
-407.9999919582039
 30
0.0
 11
-1750.733211563588
 21
-447.5297367701498
 31
0.0
  0
TEXT
  5
2C4
330
1F
100
AcDbEntity
  8
0-B_寸法
  6
Continuous
 62
     7
370
     0
100
AcDbText
 10
-2323.733051346302
 20
-825.6099816442788
 30
0.0
 40
91.44
  1
147
  7
ＭＳ ゴシック
100
AcDbText
  0
TEXT
  5
2C5
330
1F
100
AcDbEntity
  8
0-B_寸法
  6
Continuous
 62
     7
370
     0
100
AcDbText
 10
-1336.905119353992
 20
-3038.793731000781
 30
0.0
 40
91.44
  1
5
 50
90.0
  7
ＭＳ ゴシック
100
AcDbText
  0
TEXT
  5
2C6
330
1F
100
AcDbEntity
  8
0-B_寸法
  6
Continuous
 62
     7
370
     0
100
AcDbText
 10
-911.5293304742967
 20
-3282.784577556004
 30
0.0
 40
91.44
  1
12
 50
90.0
  7
ＭＳ ゴシック
100
AcDbText
  0
LINE
  5
2C7
330
1F
100
AcDbEntity
  8
0-6_扉
  6
Continuous
 62
   200
370
    20
100
AcDbLine
 10
-1999.7330513463
 20
-566.9999919582026
 30
0.0
 11
-1783.7330513463
 21
-566.9999919582026
 31
0.0
  0
LINE
  5
2C8
330
1F
100
AcDbEntity
  8
0-6_扉
  6
Continuous
 62
   200
370
    20
100
AcDbLine
 10
-1999.7330513463
 20
-566.9999919582026
 30
0.0
 11
-1999.7330513463
 21
-1729.500300948684
 31
0.0
  0
LINE
  5
2C9
330
1F
100
AcDbEntity
  8
0-6_扉
  6
Continuous
 62
   200
370
    20
100
AcDbLine
 10
-1783.7330513463
 20
-566.9999919582026
 30
0.0
 11
-1783.7330513463
 21
-1729.500300948684
 31
0.0
  0
LINE
  5
2CA
330
1F
100
AcDbEntity
  8
0-B_寸法
  6
Continuous
 62
   120
370
     5
100
AcDbLine
 10
-1999.7330513463
 20
-1145.289086671892
 30
0.0
 11
-1783.7330513463
 21
-1145.289086671892
 31
0.0
  0
LWPOLYLINE
  5
2CB
330
1F
100
AcDbEntity
  8
0-B_寸法
  6
Continuous
 62
     7
370
     9
100
AcDbPolyline
 90
        4
 70
     1
 43
6.0
 10
-1996.7330513463
 20
-1145.289086671892
 42
0.4142135623731
 10
-1999.7330513463
 20
-1142.289086671892
 42
0.4142135623731
 10
-2002.7330513463
 20
-1145.289086671892
 42
0.4142135623731
 10
-1999.7330513463
 20
-1148.289086671892
 42
0.4142135623731
  0
LWPOLYLINE
  5
2CC
330
1F
100
AcDbEntity
  8
0-B_寸法
  6
Continuous
 62
     7
370
     9
100
AcDbPolyline
 90
        4
 70
     1
 43
6.0
 10
-1780.7330513463
 20
-1145.289086671892
 42
0.4142135623731
 10
-1783.7330513463
 20
-1142.289086671892
 42
0.4142135623731
 10
-1786.7330513463
 20
-1145.289086671892
 42
0.4142135623731
 10
-1783.7330513463
 20
-1148.289086671892
 42
0.4142135623731
  0
LINE
  5
2CD
330
1F
100
AcDbEntity
  8
0-6_扉
  6
Continuous
 62
   200
370
    20
100
AcDbLine
 10
-1783.7330513463
 20
-3057.000403945511
 30
0.0
 11
-1999.7330513463
 21
-3057.000403945511
 31
0.0
  0
LINE
  5
2CE
330
1F
100
AcDbEntity
  8
0-6_扉
  6
Continuous
 62
   200
370
    20
100
AcDbLine
 10
-1999.7330513463
 20
-1849.500300948684
 30
0.0
 11
-1999.7330513463
 21
-3057.000403945511
 31
0.0
  0
LINE
  5
2CF
330
1F
100
AcDbEntity
  8
0-6_扉
  6
Continuous
 62
   200
370
    20
100
AcDbLine
 10
-1783.7330513463
 20
-1849.500300948684
 30
0.0
 11
-1783.7330513463
 21
-3057.000403945511
 31
0.0
  0
TEXT
  5
2D0
330
1F
100
AcDbEntity
  8
0-B_寸法
  6
Continuous
 62
     7
370
   211
100
AcDbText
 10
-1951.7330513463
 20
-1113.369086671892
 30
0.0
 40
91.44
  1
36
  7
ＭＳ ゴシック
100
AcDbText
  0
TEXT
  5
2D1
330
1F
100
AcDbEntity
  8
0-B_寸法
  6
Continuous
 62
     7
370
     0
100
AcDbText
 10
-1333.733871990979
 20
-2118.00004631764
 30
0.0
 40
91.44
  1
ＤＨ＝1,995
 50
90.0
  7
ＭＳ ゴシック
100
AcDbText
  0
TEXT
  5
2D2
330
1F
100
AcDbEntity
  8
0-B_寸法
  6
Continuous
 62
     7
370
   211
100
AcDbText
 10
-1125.653051346299
 20
-2118.00004631764
 30
0.0
 40
91.44
  1
枠内＝2,003
 50
90.0
  7
ＭＳ ゴシック
100
AcDbText
  0
TEXT
  5
2D3
330
1F
100
AcDbEntity
  8
0-B_寸法
  6
Continuous
 62
     7
370
     0
100
AcDbText
 10
-909.5677017730036
 20
-2118.00004631764
 30
0.0
 40
91.44
  1
枠外＝2,027
 50
90.0
  7
ＭＳ ゴシック
100
AcDbText
  0
INSERT
  5
2D4
330
1F
100
AcDbEntity
  8
0-0_補助線
  6
Continuous
 62
     7
370
     9
100
AcDbBlockReference
  2
04@@SfigorgFlag@@4_0-0_
 10
-2084.276257792322
 20
-567.9159861460114
 30
0.0
 41
30.0
 42
30.0
 50
90.0
  0
LINE
  5
2D5
330
1F
100
AcDbEntity
  8
0-0_補助線
  6
Continuous
 62
    92
370
    13
100
AcDbLine
 10
-2014.760288123205
 20
-535.4002764719895
 30
0.0
 11
-2170.760288123205
 21
-535.4002764719895
 31
0.0
  0
LINE
  5
2D6
330
1F
100
AcDbEntity
  8
0-0_補助線
  6
Continuous
 62
    92
370
    13
100
AcDbLine
 10
-2170.760288123205
 20
-535.4002764719895
 30
0.0
 11
-2170.760288123205
 21
-548.9999883212984
 31
0.0
  0
LINE
  5
2D7
330
1F
100
AcDbEntity
  8
0-0_補助線
  6
Continuous
 62
    92
370
    13
100
AcDbLine
 10
-2014.760288123205
 20
-548.9999883212984
 30
0.0
 11
-2014.760288123205
 21
-535.4002764719895
 31
0.0
  0
LINE
  5
2D8
330
1F
100
AcDbEntity
  8
0-C_ﾊｯﾁ
  6
Continuous
 62
   120
370
     5
100
AcDbLine
 10
-2200.556245955537
 20
-404.9999919582028
 30
0.0
 11
-2070.156311348062
 21
-535.4002764719895
 31
0.0
  0
LINE
  5
2D9
330
1F
100
AcDbEntity
  8
0-C_ﾊｯﾁ
  6
Continuous
 62
   120
370
     5
100
AcDbLine
 10
-2268.438546635618
 20
-404.9999919582028
 30
0.0
 11
-2138.038424604253
 21
-535.4002764719895
 31
0.0
  0
LINE
  5
2DA
330
1F
100
AcDbEntity
  8
0-C_ﾊｯﾁ
  6
Continuous
 62
   120
370
     5
100
AcDbLine
 10
-2132.674229327969
 20
-404.9999919582028
 30
0.0
 11
-1991.674809476659
 21
-546.0004268336909
 31
0.0
  0
LINE
  5
2DB
330
1F
100
AcDbEntity
  8
0-4_枠
  6
Continuous
 62
    92
370
    13
100
AcDbLine
 10
-2624.247335096575
 20
-546.0004268336909
 30
0.0
 11
-2170.760288123205
 21
-546.0004268336909
 31
0.0
  0
LINE
  5
2DC
330
1F
100
AcDbEntity
  8
0-4_枠
  6
Continuous
 62
    92
370
    13
100
AcDbLine
 10
-2625.490410659181
 20
-548.999991958204
 30
0.0
 11
-2170.760288123205
 21
-548.999991958204
 31
0.0
  0
LINE
  5
2DD
330
1F
100
AcDbEntity
  8
0-4_枠
  6
Continuous
 62
    92
370
    13
100
AcDbLine
 10
-1753.218767596027
 20
-546.0004268336909
 30
0.0
 11
-2014.760288123205
 21
-546.0004268336909
 31
0.0
  0
LINE
  5
2DE
330
1F
100
AcDbEntity
  8
0-4_枠
  6
Continuous
 62
    92
370
    13
100
AcDbLine
 10
-1751.97569203342
 20
-548.999991958204
 30
0.0
 11
-2014.760288123205
 21
-548.999991958204
 31
0.0
  0
LINE
  5
2DF
330
1F
100
AcDbEntity
  8
0-4_枠
  6
Continuous
 62
   120
370
     5
100
AcDbLine
 10
-2629.733051346301
 20
-404.9999919582028
 30
0.0
 11
-2653.733051346303
 21
-404.9999919582028
 31
0.0
  0
LINE
  5
2E0
330
1F
100
AcDbEntity
  8
0-4_枠
  6
Continuous
 62
   120
370
     5
100
AcDbLine
 10
-1747.733051346298
 20
-404.9999919582028
 30
0.0
 11
-1723.733051346299
 21
-404.9999919582028
 31
0.0
  0
LINE
  5
2E1
330
1F
100
AcDbEntity
  8
0-4_枠
  6
Continuous
 62
    92
370
    13
100
AcDbLine
 10
-2629.733051346301
 20
-404.9999919582028
 30
0.0
 11
-1747.733051346298
 21
-404.9999919582028
 31
0.0
  0
TEXT
  5
2E2
330
1F
100
AcDbEntity
  8
0-A_文字
  6
Continuous
 62
     7
370
     9
100
AcDbText
 10
-3081.283234041099
 20
300.456424004185
 30
0.0
 40
91.44
  1
■縦断面図
 41
1.1
  7
ＭＳ ゴシック
100
AcDbText
  0
LINE
  5
2E3
330
1F
100
AcDbEntity
  8
0-0_補助線
  6
JWW_HOJO
 62
   120
370
     5
100
AcDbLine
 10
-3116.430605286535
 20
-3159.000197951857
 30
0.0
 11
-884.5899185209973
 21
-3159.000197951857
 31
0.0
  0
LWPOLYLINE
  5
2E4
330
1F
100
AcDbEntity
  8
0-B_寸法
  6
Continuous
 62
     7
370
     9
100
AcDbPolyline
 90
        4
 70
     1
 43
6.0
 10
-3092.081828316419
 20
-3159.000197951856
 42
0.4142135623731
 10
-3095.081828316419
 20
-3156.000197951856
 42
0.4142135623731
 10
-3098.081828316419
 20
-3159.000197951856
 42
0.4142135623731
 10
-3095.081828316419
 20
-3162.000197951856
 42
0.4142135623731
  0
LINE
  5
2E5
330
1F
100
AcDbEntity
  8
0-B_寸法
  6
Continuous
 62
   120
370
     5
100
AcDbLine
 10
-3095.081828316419
 20
-3159.000197951856
 30
0.0
 11
-2863.733051346303
 21
-3159.000197951856
 31
0.0
  0
LINE
  5
2E6
330
1F
100
AcDbEntity
  8
0-B_寸法
  6
Continuous
 62
   120
370
     5
100
AcDbLine
 10
-1303.7330513463
 20
-566.9999919582026
 30
0.0
 11
-1513.7330513463
 21
-566.9999919582026
 31
0.0
  0
LWPOLYLINE
  5
2E7
330
1F
100
AcDbEntity
  8
0-B_寸法
  6
Continuous
 62
     7
370
     9
100
AcDbPolyline
 90
        4
 70
     1
 43
6.0
 10
-1300.7330513463
 20
-548.9999919582019
 42
0.4142135623731
 10
-1303.7330513463
 20
-545.9999919582018
 42
0.4142135623731
 10
-1306.7330513463
 20
-548.9999919582019
 42
0.4142135623731
 10
-1303.7330513463
 20
-551.9999919582019
 42
0.4142135623731
  0
LWPOLYLINE
  5
2E8
330
1F
100
AcDbEntity
  8
0-B_寸法
  6
Continuous
 62
     7
370
     9
100
AcDbPolyline
 90
        4
 70
     1
 43
6.0
 10
-1300.7330513463
 20
-566.9999919582026
 42
0.4142135623731
 10
-1303.7330513463
 20
-563.9999919582025
 42
0.4142135623731
 10
-1306.7330513463
 20
-566.9999919582026
 42
0.4142135623731
 10
-1303.7330513463
 20
-569.9999919582026
 42
0.4142135623731
  0
LINE
  5
2E9
330
1F
100
AcDbEntity
  8
0-B_寸法
  6
Continuous
 62
   120
370
     5
100
AcDbLine
 10
-1093.7330513463
 20
-548.9999919582019
 30
0.0
 11
-1513.7330513463
 21
-548.9999919582019
 31
0.0
  0
LWPOLYLINE
  5
2EA
330
1F
100
AcDbEntity
  8
0-B_寸法
  6
Continuous
 62
     7
370
     9
100
AcDbPolyline
 90
        4
 70
     1
 43
6.0
 10
-1090.7330513463
 20
-404.9999919581998
 42
0.4142135623731
 10
-1093.7330513463
 20
-401.9999919581998
 42
0.4142135623731
 10
-1096.7330513463
 20
-404.9999919581998
 42
0.4142135623731
 10
-1093.7330513463
 20
-407.9999919581998
 42
0.4142135623731
  0
LWPOLYLINE
  5
2EB
330
1F
100
AcDbEntity
  8
0-B_寸法
  6
Continuous
 62
     7
370
     9
100
AcDbPolyline
 90
        4
 70
     1
 43
6.0
 10
-1090.7330513463
 20
-548.9999919582019
 42
0.4142135623731
 10
-1093.7330513463
 20
-545.9999919582018
 42
0.4142135623731
 10
-1096.7330513463
 20
-548.9999919582019
 42
0.4142135623731
 10
-1093.7330513463
 20
-551.9999919582019
 42
0.4142135623731
  0
LINE
  5
2EC
330
1F
100
AcDbEntity
  8
0-B_寸法
  6
Continuous
 62
   120
370
     5
100
AcDbLine
 10
-883.7330513463002
 20
-404.9999919581998
 30
0.0
 11
-1513.7330513463
 21
-404.9999919581998
 31
0.0
  0
LWPOLYLINE
  5
2ED
330
1F
100
AcDbEntity
  8
0-B_寸法
  6
Continuous
 62
     7
370
     9
100
AcDbPolyline
 90
        4
 70
     1
 43
6.0
 10
-880.7330513463002
 20
-404.9999919581998
 42
0.4142135623731
 10
-883.7330513463002
 20
-401.9999919581998
 42
0.4142135623731
 10
-886.7330513463002
 20
-404.9999919581998
 42
0.4142135623731
 10
-883.7330513463002
 20
-407.9999919581998
 42
0.4142135623731
  0
TEXT
  5
2EE
330
1F
100
AcDbEntity
  8
0-B_寸法
  6
Continuous
 62
     7
370
   211
100
AcDbText
 10
-1125.6530513463
 20
-540.7499919582026
 30
0.0
 40
91.44
  1
24
 50
90.0
 41
1.0625
  7
ＭＳ ゴシック
100
AcDbText
  0
TEXT
  5
2EF
330
1F
100
AcDbEntity
  8
0-B_寸法
  6
Continuous
 62
     7
370
     0
100
AcDbText
 10
-1537.167342959335
 20
-589.4366963833089
 30
0.0
 40
91.44
  1
3
 50
90.0
  7
ＭＳ ゴシック
100
AcDbText
  0
LINE
  5
2F0
330
1F
100
AcDbEntity
  8
0-0_補助線
  6
JWW_HOJO
 62
   120
370
     5
100
AcDbLine
 10
-1303.733051346299
 20
-3159.000197951857
 30
0.0
 11
-1303.733051346299
 21
-548.9999919582019
 31
0.0
  0
LINE
  5
2F1
330
1F
100
AcDbEntity
  8
0-B_寸法
  6
Continuous
 62
   120
370
     5
100
AcDbLine
 10
-1303.733051346299
 20
-548.9999919582019
 30
0.0
 11
-1303.733051346299
 21
-3087.000403945511
 31
0.0
  0
LINE
  5
2F2
330
1F
100
AcDbEntity
  8
0-B_寸法
  6
Continuous
 62
   120
370
     5
100
AcDbLine
 10
-1093.733051346299
 20
-404.9999919581998
 30
0.0
 11
-1093.733051346299
 21
-3087.000403945511
 31
0.0
  0
LINE
  5
2F3
330
1F
100
AcDbEntity
  8
0-0_補助線
  6
JWW_HOJO
 62
   120
370
     5
100
AcDbLine
 10
-1093.733051346299
 20
-3159.000197951857
 30
0.0
 11
-1093.733051346299
 21
-404.9999919581998
 31
0.0
  0
LINE
  5
2F4
330
1F
100
AcDbEntity
  8
0-7_金物
  6
Continuous
 62
     7
370
     9
100
AcDbLine
 10
-2008.732754418512
 20
-351.0005016842364
 30
0.0
 11
-2188.732605954618
 21
-351.0005016842364
 31
0.0
  0
LINE
  5
2F5
330
1F
100
AcDbEntity
  8
0-7_金物
  6
Continuous
 62
     7
370
     9
100
AcDbLine
 10
-2188.732605954618
 20
-339.0001651660787
 30
0.0
 11
-2188.732605954618
 21
-351.0005016842364
 31
0.0
  0
LINE
  5
2F6
330
1F
100
AcDbEntity
  8
0-7_金物
  6
Continuous
 62
     7
370
     9
100
AcDbLine
 10
-2008.732754418512
 20
-339.0001651660787
 30
0.0
 11
-2008.732754418512
 21
-351.0005016842364
 31
0.0
  0
LINE
  5
2F7
330
1F
100
AcDbEntity
  8
0-7_金物
  6
Continuous
 62
     7
370
     9
100
AcDbLine
 10
-2038.732853394443
 20
-351.0005016842364
 30
0.0
 11
-2038.732853394443
 21
-363.0000958829287
 31
0.0
  0
LINE
  5
2F8
330
1F
100
AcDbEntity
  8
0-7_金物
  6
Continuous
 62
     7
370
     9
100
AcDbLine
 10
-2158.73250697869
 20
-351.0005016842364
 30
0.0
 11
-2158.73250697869
 21
-363.0000958829287
 31
0.0
  0
LINE
  5
2F9
330
1F
100
AcDbEntity
  8
0-7_金物
  6
Continuous
 62
     7
370
     9
100
AcDbLine
 10
-2038.732853394443
 20
-363.0000958829287
 30
0.0
 11
-2158.73250697869
 21
-363.0000958829287
 31
0.0
  0
LINE
  5
2FA
330
1F
100
AcDbEntity
  8
0-7_金物
  6
Continuous
 62
     7
370
     9
100
AcDbLine
 10
-2152.733081039081
 20
-363.0000958829287
 30
0.0
 11
-2152.733081039081
 21
-404.9999919582028
 31
0.0
  0
LINE
  5
2FB
330
1F
100
AcDbEntity
  8
0-7_金物
  6
Continuous
 62
     7
370
     9
100
AcDbLine
 10
-2044.733021653521
 20
-363.0000958829287
 30
0.0
 11
-2044.733021653521
 21
-404.9999919582028
 31
0.0
  0
LINE
  5
2FC
330
1F
100
AcDbEntity
  8
0-3_仕上
  6
Continuous
 62
     7
370
     9
100
AcDbLine
 10
-2503.733051346296
 20
-308.9999919582043
 30
0.0
 11
-1873.733051346296
 21
-38.99999195820421
 31
0.0
  0
LINE
  5
2FD
330
1F
100
AcDbEntity
  8
0-3_仕上
  6
Continuous
 62
    92
370
    13
100
AcDbLine
 10
-2503.733051346296
 20
-38.99999195820421
 30
0.0
 11
-1873.733051346296
 21
-38.99999195820421
 31
0.0
  0
LINE
  5
2FE
330
1F
100
AcDbEntity
  8
0-C_ﾊｯﾁ
  6
JWW_DASHED1
 62
   120
370
     5
100
AcDbLine
 10
-2578.733051346309
 20
-268.5031711074892
 30
0.0
 11
-2503.733051346313
 21
-193.5031711074917
 31
0.0
  0
LINE
  5
2FF
330
1F
100
AcDbEntity
  8
0-C_ﾊｯﾁ
  6
JWW_DASHED1
 62
   120
370
     5
100
AcDbLine
 10
-2578.733051346299
 20
-226.0767642362781
 30
0.0
 11
-2503.733051346303
 21
-151.0767642362827
 31
0.0
  0
LINE
  5
300
330
1F
100
AcDbEntity
  8
0-C_ﾊｯﾁ
  6
JWW_DASHED1
 62
   120
370
     5
100
AcDbLine
 10
-2578.733051346303
 20
-183.6503573650823
 30
0.0
 11
-2503.733051346293
 21
-108.6503573650712
 31
0.0
  0
LINE
  5
301
330
1F
100
AcDbEntity
  8
0-C_ﾊｯﾁ
  6
JWW_DASHED1
 62
   120
370
     5
100
AcDbLine
 10
-2578.733051346303
 20
-141.2239504938823
 30
0.0
 11
-2503.733051346289
 21
-66.2239504938686
 31
0.0
  0
LINE
  5
302
330
1F
100
AcDbEntity
  8
0-C_ﾊｯﾁ
  6
JWW_DASHED1
 62
   120
370
     5
100
AcDbLine
 10
-2578.733051346289
 20
-98.79754362266864
 30
0.0
 11
-2503.733051346293
 21
-23.79754362267114
 31
0.0
  0
LINE
  5
303
330
1F
100
AcDbEntity
  8
0-C_ﾊｯﾁ
  6
JWW_DASHED1
 62
   120
370
     5
100
AcDbLine
 10
-2578.733051346293
 20
-56.37113675147113
 30
0.0
 11
-2503.733051346296
 21
18.62886324852461
 31
0.0
  0
LINE
  5
304
330
1F
100
AcDbEntity
  8
0-C_ﾊｯﾁ
  6
JWW_DASHED1
 62
   120
370
     5
100
AcDbLine
 10
-2578.733051346299
 20
-13.9447298803325
 30
0.0
 11
-2503.733051346303
 21
61.05527011966323
 31
0.0
  0
LINE
  5
305
330
1F
100
AcDbEntity
  8
0-C_ﾊｯﾁ
  6
JWW_DASHED1
 62
   120
370
     5
100
AcDbLine
 10
-2578.733051346303
 20
28.48167699086666
 30
0.0
 11
-2503.733051346303
 21
103.4816769908632
 31
0.0
  0
LINE
  5
306
330
1F
100
AcDbEntity
  8
0-C_ﾊｯﾁ
  6
JWW_DASHED1
 62
   120
370
     5
100
AcDbLine
 10
-2578.733051346303
 20
70.90808386206326
 30
0.0
 11
-2503.733051346306
 21
145.9080838620599
 31
0.0
  0
LINE
  5
307
330
1F
100
AcDbEntity
  8
0-C_ﾊｯﾁ
  6
JWW_DASHED1
 62
   120
370
     5
100
AcDbLine
 10
-1873.733051346306
 20
-284.752087917776
 30
0.0
 11
-1798.733051346306
 21
-209.7520879177803
 31
0.0
  0
LINE
  5
308
330
1F
100
AcDbEntity
  8
0-C_ﾊｯﾁ
  6
JWW_DASHED1
 62
   120
370
     5
100
AcDbLine
 10
-1873.733051346306
 20
-242.3256810465803
 30
0.0
 11
-1798.73305134631
 21
-167.3256810465828
 31
0.0
  0
LINE
  5
309
330
1F
100
AcDbEntity
  8
0-C_ﾊｯﾁ
  6
JWW_DASHED1
 62
   120
370
     5
100
AcDbLine
 10
-1873.73305134631
 20
-199.8992741753807
 30
0.0
 11
-1798.73305134631
 21
-124.8992741753841
 31
0.0
  0
LINE
  5
30A
330
1F
100
AcDbEntity
  8
0-C_ﾊｯﾁ
  6
JWW_DASHED1
 62
   120
370
     5
100
AcDbLine
 10
-1873.733051346303
 20
-157.4728673041734
 30
0.0
 11
-1798.733051346289
 21
-82.47286730416234
 31
0.0
  0
LINE
  5
30B
330
1F
100
AcDbEntity
  8
0-C_ﾊｯﾁ
  6
JWW_DASHED1
 62
   120
370
     5
100
AcDbLine
 10
-1873.733051346303
 20
-115.0464604329704
 30
0.0
 11
-1798.733051346289
 21
-40.04646043295971
 31
0.0
  0
LINE
  5
30C
330
1F
100
AcDbEntity
  8
0-C_ﾊｯﾁ
  6
JWW_DASHED1
 62
   120
370
     5
100
AcDbLine
 10
-1873.733051346289
 20
-72.6200535617567
 30
0.0
 11
-1798.733051346289
 21
2.37994643824031
 31
0.0
  0
LINE
  5
30D
330
1F
100
AcDbEntity
  8
0-C_ﾊｯﾁ
  6
JWW_DASHED1
 62
   120
370
     5
100
AcDbLine
 10
-1873.733051346289
 20
-30.19364669055967
 30
0.0
 11
-1798.733051346289
 21
44.80635330943777
 31
0.0
  0
LINE
  5
30E
330
1F
100
AcDbEntity
  8
0-C_ﾊｯﾁ
  6
JWW_DASHED1
 62
   120
370
     5
100
AcDbLine
 10
-1873.733051346293
 20
12.23276018063693
 30
0.0
 11
-1798.733051346293
 21
87.23276018063352
 31
0.0
  0
LINE
  5
30F
330
1F
100
AcDbEntity
  8
0-C_ﾊｯﾁ
  6
JWW_DASHED1
 62
   120
370
     5
100
AcDbLine
 10
-1873.733051346299
 20
54.65916705177555
 30
0.0
 11
-1798.733051346303
 21
129.659167051773
 31
0.0
  0
LINE
  5
310
330
1F
100
AcDbEntity
  8
0-C_ﾊｯﾁ
  6
JWW_DASHED1
 62
   120
370
     5
100
AcDbLine
 10
-1873.733051346303
 20
97.08557392297216
 30
0.0
 11
-1798.733051346303
 21
172.08557392297
 31
0.0
  0
LINE
  5
311
330
1F
100
AcDbEntity
  8
0-C_ﾊｯﾁ
  6
JWW_DASHED1
 62
   120
370
     5
100
AcDbLine
 10
-2578.733051346296
 20
-310.9295779786756
 30
0.0
 11
-2503.733051346309
 21
-235.9295779786892
 31
0.0
  0
LINE
  5
312
330
1F
100
AcDbEntity
  8
0-C_ﾊｯﾁ
  6
JWW_DASHED1
 62
   120
370
     5
100
AcDbLine
 10
-2578.733051346296
 20
-353.3559848498725
 30
0.0
 11
-2503.733051346306
 21
-278.3559848498862
 31
0.0
  0
LINE
  5
313
330
1F
100
AcDbEntity
  8
0-C_ﾊｯﾁ
  6
JWW_DASHED1
 62
   120
370
     5
100
AcDbLine
 10
-1873.733051346296
 20
-327.1784947889125
 30
0.0
 11
-1798.733051346303
 21
-252.1784947889189
 31
0.0
  0
LINE
  5
314
330
1F
100
AcDbEntity
  8
0-C_ﾊｯﾁ
  6
JWW_DASHED1
 62
   120
370
     5
100
AcDbLine
 10
-1905.159568264156
 20
-339.0001651660787
 30
0.0
 11
-1875.159568264163
 21
-309.0001651660855
 31
0.0
  0
LINE
  5
315
330
1F
100
AcDbEntity
  8
0-C_ﾊｯﾁ
  6
JWW_DASHED1
 62
   120
370
     5
100
AcDbLine
 10
-1947.585975135356
 20
-339.0001651660753
 30
0.0
 11
-1917.585975135363
 21
-309.0001651660821
 31
0.0
  0
LINE
  5
316
330
1F
100
AcDbEntity
  8
0-C_ﾊｯﾁ
  6
JWW_DASHED1
 62
   120
370
     5
100
AcDbLine
 10
-1990.012382006508
 20
-339.0001651660855
 30
0.0
 11
-1960.012382006501
 21
-309.0001651660753
 31
0.0
  0
LINE
  5
317
330
1F
100
AcDbEntity
  8
0-C_ﾊｯﾁ
  6
JWW_DASHED1
 62
   120
370
     5
100
AcDbLine
 10
-2032.438788877708
 20
-339.0001651660787
 30
0.0
 11
-2002.438788877695
 21
-309.0001651660719
 31
0.0
  0
LINE
  5
318
330
1F
100
AcDbEntity
  8
0-C_ﾊｯﾁ
  6
JWW_DASHED1
 62
   120
370
     5
100
AcDbLine
 10
-2074.865195748908
 20
-339.0001651660855
 30
0.0
 11
-2044.865195748901
 21
-309.0001651660787
 31
0.0
  0
LINE
  5
319
330
1F
100
AcDbEntity
  8
0-C_ﾊｯﾁ
  6
JWW_DASHED1
 62
   120
370
     5
100
AcDbLine
 10
-2117.291602620108
 20
-339.0001651660787
 30
0.0
 11
-2087.291602620095
 21
-309.0001651660719
 31
0.0
  0
LINE
  5
31A
330
1F
100
AcDbEntity
  8
0-C_ﾊｯﾁ
  6
JWW_DASHED1
 62
   120
370
     5
100
AcDbLine
 10
-2159.718009491301
 20
-339.0001651660787
 30
0.0
 11
-2129.71800949131
 21
-309.0001651660855
 31
0.0
  0
LINE
  5
31B
330
1F
100
AcDbEntity
  8
0-C_ﾊｯﾁ
  6
JWW_DASHED1
 62
   120
370
     5
100
AcDbLine
 10
-2202.144416362509
 20
-339.0001651660855
 30
0.0
 11
-2172.144416362516
 21
-309.0001651660924
 31
0.0
  0
LINE
  5
31C
330
1F
100
AcDbEntity
  8
0-C_ﾊｯﾁ
  6
JWW_DASHED1
 62
   120
370
     5
100
AcDbLine
 10
-2244.570823233708
 20
-339.0001651660821
 30
0.0
 11
-2214.570823233715
 21
-309.0001651660924
 31
0.0
  0
LINE
  5
31D
330
1F
100
AcDbEntity
  8
0-C_ﾊｯﾁ
  6
JWW_DASHED1
 62
   120
370
     5
100
AcDbLine
 10
-2286.997230104862
 20
-339.0001651660924
 30
0.0
 11
-2256.997230104854
 21
-309.0001651660855
 31
0.0
  0
LINE
  5
31E
330
1F
100
AcDbEntity
  8
0-C_ﾊｯﾁ
  6
JWW_DASHED1
 62
   120
370
     5
100
AcDbLine
 10
-2329.423636976061
 20
-339.0001651660889
 30
0.0
 11
-2299.423636976054
 21
-309.0001651660787
 31
0.0
  0
LINE
  5
31F
330
1F
100
AcDbEntity
  8
0-C_ﾊｯﾁ
  6
JWW_DASHED1
 62
   120
370
     5
100
AcDbLine
 10
-2371.849870639374
 20
-338.9999919582043
 30
0.0
 11
-2341.850043847248
 21
-309.0001651660787
 31
0.0
  0
LINE
  5
320
330
1F
100
AcDbEntity
  8
0-3_仕上
  6
Continuous
 62
     7
370
     9
100
AcDbLine
 10
-2503.733051346296
 20
-308.9999919582043
 30
0.0
 11
-1873.733051346296
 21
-308.9999919582043
 31
0.0
  0
LINE
  5
321
330
1F
100
AcDbEntity
  8
0-3_仕上
  6
Continuous
 62
     7
370
     9
100
AcDbLine
 10
-2503.733051346296
 20
-338.9999919582043
 30
0.0
 11
-1873.733051346296
 21
-338.9999919582043
 31
0.0
  0
LINE
  5
322
330
1F
100
AcDbEntity
  8
0-C_ﾊｯﾁ
  6
JWW_DASHED1
 62
   120
370
     5
100
AcDbLine
 10
-1873.733051346296
 20
-369.6049016601036
 30
0.0
 11
-1798.733051346296
 21
-294.6049016601147
 31
0.0
  0
LINE
  5
323
330
1F
100
AcDbEntity
  8
0-C_ﾊｯﾁ
  6
JWW_DASHED1
 62
   120
370
     5
100
AcDbLine
 10
-2569.950651583435
 20
-404.9999919582028
 30
0.0
 11
-2503.733051346296
 21
-320.7823917210688
 31
0.0
  0
LINE
  5
324
330
1F
100
AcDbEntity
  8
0-C_ﾊｯﾁ
  6
JWW_DASHED1
 62
   120
370
     5
100
AcDbLine
 10
-2527.524244712249
 20
-404.9999919582028
 30
0.0
 11
-2503.733051346296
 21
-363.2087985922512
 31
0.0
  0
LINE
  5
325
330
1F
100
AcDbEntity
  8
0-C_ﾊｯﾁ
  6
JWW_DASHED1
 62
   120
370
     5
100
AcDbLine
 10
-1848.701734773196
 20
-404.9999919582028
 30
0.0
 11
-1798.733051346296
 21
-337.0313085313105
 31
0.0
  0
TEXT
  5
326
330
1F
100
AcDbEntity
  8
0-B_寸法
  6
Continuous
 62
     7
370
   211
100
AcDbText
 10
-914.4456295688694
 20
-291.2144329267397
 30
0.0
 40
91.44
  1
5
 50
90.0
 41
0.9999999999999929
  7
ＭＳ ゴシック
100
AcDbText
  0
LWPOLYLINE
  5
327
330
1F
100
AcDbEntity
  8
0-B_寸法
  6
Continuous
 62
     7
370
     9
100
AcDbPolyline
 90
        4
 70
     1
 43
6.0
 10
-880.7330513463002
 20
-338.9999919581995
 42
0.4142135623731
 10
-883.7330513463002
 20
-335.9999919581995
 42
0.4142135623731
 10
-886.7330513463002
 20
-338.9999919581995
 42
0.4142135623731
 10
-883.7330513463002
 20
-341.9999919581995
 42
0.4142135623731
  0
LINE
  5
328
330
1F
100
AcDbEntity
  8
0-B_寸法
  6
Continuous
 62
   120
370
     5
100
AcDbLine
 10
-883.7330513463002
 20
-338.9999919581995
 30
0.0
 11
-1513.7330513463
 21
-338.9999919581995
 31
0.0
  0
LWPOLYLINE
  5
329
330
1F
100
AcDbEntity
  8
0-B_寸法
  6
Continuous
 62
     7
370
     9
100
AcDbPolyline
 90
        4
 70
     1
 43
6.0
 10
-880.7330513463002
 20
-308.9999919581995
 42
0.4142135623731
 10
-883.7330513463002
 20
-305.9999919581995
 42
0.4142135623731
 10
-886.7330513463002
 20
-308.9999919581995
 42
0.4142135623731
 10
-883.7330513463002
 20
-311.9999919581995
 42
0.4142135623731
  0
LINE
  5
32A
330
1F
100
AcDbEntity
  8
0-B_寸法
  6
Continuous
 62
   120
370
     5
100
AcDbLine
 10
-883.7330513463002
 20
-308.9999919581995
 30
0.0
 11
-1513.7330513463
 21
-308.9999919581995
 31
0.0
  0
LINE
  5
32B
330
1F
100
AcDbEntity
  8
0-0_補助線
  6
JWW_HOJO
 62
   120
370
     5
100
AcDbLine
 10
-884.5899185209973
 20
-3159.000197951857
 30
0.0
 11
-884.5899185209973
 21
-308.9999919581995
 31
0.0
  0
LINE
  5
32C
330
1F
100
AcDbEntity
  8
0-B_寸法
  6
Continuous
 62
   120
370
     5
100
AcDbLine
 10
-884.5899185209973
 20
-308.9999919581995
 30
0.0
 11
-884.5899185209973
 21
-3159.000197951857
 31
0.0
  0
LWPOLYLINE
  5
32D
330
1F
100
AcDbEntity
  8
0-B_寸法
  6
Continuous
 62
     7
370
     9
100
AcDbPolyline
 90
        4
 70
     1
 43
6.0
 10
-3092.081828316419
 20
-308.9999919582043
 42
0.4142135623731
 10
-3095.081828316419
 20
-305.9999919582043
 42
0.4142135623731
 10
-3098.081828316419
 20
-308.9999919582043
 42
0.4142135623731
 10
-3095.081828316419
 20
-311.9999919582043
 42
0.4142135623731
  0
LINE
  5
32E
330
1F
100
AcDbEntity
  8
0-B_寸法
  6
Continuous
 62
   120
370
     5
100
AcDbLine
 10
-3095.081828316419
 20
-3159.000197951856
 30
0.0
 11
-3095.081828316419
 21
-308.9999919582043
 31
0.0
  0
LINE
  5
32F
330
1F
100
AcDbEntity
  8
0-B_寸法
  6
Continuous
 62
   120
370
     5
100
AcDbLine
 10
-2863.733051346303
 20
-308.9999919582043
 30
0.0
 11
-3095.081828316419
 21
-308.9999919582043
 31
0.0
  0
LINE
  5
330
330
1F
100
AcDbEntity
  8
0-1_通り芯
  6
JWW_CENTER1
 62
   120
370
     5
100
AcDbLine
 10
-2863.733051346303
 20
-308.9999919582043
 30
0.0
 11
-1499.589918520997
 21
-308.9999919582043
 31
0.0
  0
LINE
  5
331
330
1F
100
AcDbEntity
  8
0-C_ﾊｯﾁ
  6
JWW_DASHED1
 62
   120
370
     5
100
AcDbLine
 10
-2414.276277510572
 20
-339.0001651660821
 30
0.0
 11
-2384.276277510579
 21
-309.0001651660924
 31
0.0
  0
LINE
  5
332
330
1F
100
AcDbEntity
  8
0-C_ﾊｯﾁ
  6
JWW_DASHED1
 62
   120
370
     5
100
AcDbLine
 10
-2456.702684381726
 20
-339.0001651660924
 30
0.0
 11
-2426.702684381718
 21
-309.0001651660855
 31
0.0
  0
LINE
  5
333
330
1F
100
AcDbEntity
  8
0-C_ﾊｯﾁ
  6
JWW_DASHED1
 62
   120
370
     5
100
AcDbLine
 10
-2499.129091252924
 20
-339.0001651660889
 30
0.0
 11
-2469.129091252918
 21
-309.0001651660787
 31
0.0
  0
LINE
  5
334
330
1F
100
AcDbEntity
  8
0-0_補助線
  6
JWW_HOJO
 62
   120
370
     5
100
AcDbLine
 10
-3095.081828316419
 20
-3159.000197951857
 30
0.0
 11
-3095.081828316419
 21
194.9998020481422
 31
0.0
  0
LINE
  5
335
330
1F
100
AcDbEntity
  8
0-0_補助線
  6
JWW_HOJO
 62
   120
370
     5
100
AcDbLine
 10
-2863.733051346299
 20
-3159.000197951857
 30
0.0
 11
-2863.733051346299
 21
194.9998020481422
 31
0.0
  0
LINE
  5
336
330
1F
100
AcDbEntity
  8
0-3_仕上
  6
Continuous
 62
    40
370
    15
100
AcDbLine
 10
-2578.733051346296
 20
-404.9999919582028
 30
0.0
 11
-2578.733051346296
 21
194.9998020481422
 31
0.0
  0
LINE
  5
337
330
1F
100
AcDbEntity
  8
0-C_ﾊｯﾁ
  6
JWW_DASHED1
 62
   120
370
     5
100
AcDbLine
 10
-2578.733051346293
 20
155.7608976044735
 30
0.0
 11
-2539.494146902623
 21
194.9998020481422
 31
0.0
  0
LINE
  5
338
330
1F
100
AcDbEntity
  8
0-3_仕上
  6
Continuous
 62
    40
370
    15
100
AcDbLine
 10
-2503.733051346296
 20
-404.9999919582028
 30
0.0
 11
-2503.733051346296
 21
194.9998020481422
 31
0.0
  0
LINE
  5
339
330
1F
100
AcDbEntity
  8
0-C_ﾊｯﾁ
  6
JWW_DASHED1
 62
   120
370
     5
100
AcDbLine
 10
-2578.733051346303
 20
113.3344907332633
 30
0.0
 11
-2503.733051346296
 21
188.334490733268
 31
0.0
  0
LINE
  5
33A
330
1F
100
AcDbEntity
  8
0-1_通り芯
  6
JWW_CENTER1
 62
   120
370
     5
100
AcDbLine
 10
-2188.733051346296
 20
-3159.000197951857
 30
0.0
 11
-2188.733051346296
 21
194.9998020481422
 31
0.0
  0
LINE
  5
33B
330
1F
100
AcDbEntity
  8
0-0_補助線
  6
JWW_HOJO
 62
   120
370
     5
100
AcDbLine
 10
-1891.733051346298
 20
-3159.000197951857
 30
0.0
 11
-1891.733051346298
 21
194.9998020481422
 31
0.0
  0
LINE
  5
33C
330
1F
100
AcDbEntity
  8
0-3_仕上
  6
Continuous
 62
    40
370
    15
100
AcDbLine
 10
-1873.733051346296
 20
-404.9999919582028
 30
0.0
 11
-1873.733051346296
 21
194.9998020481422
 31
0.0
  0
LINE
  5
33D
330
1F
100
AcDbEntity
  8
0-C_ﾊｯﾁ
  6
JWW_DASHED1
 62
   120
370
     5
100
AcDbLine
 10
-1873.733051346303
 20
139.511980794173
 30
0.0
 11
-1818.245230092332
 21
194.9998020481422
 31
0.0
  0
LINE
  5
33E
330
1F
100
AcDbEntity
  8
0-3_仕上
  6
Continuous
 62
    40
370
    15
100
AcDbLine
 10
-1798.733051346293
 20
-404.9999919582028
 30
0.0
 11
-1798.733051346293
 21
194.9998020481422
 31
0.0
  0
LINE
  5
33F
330
1F
100
AcDbEntity
  8
0-0_補助線
  6
JWW_HOJO
 62
   120
370
     5
100
AcDbLine
 10
-1513.7330513463
 20
-3159.000197951857
 30
0.0
 11
-1513.7330513463
 21
194.9998020481422
 31
0.0
  0
TEXT
  5
340
330
1F
100
AcDbEntity
  8
0-B_寸法
  6
Continuous
 62
     7
370
     0
100
AcDbText
 10
-3118.498355213704
 20
-2139.000197951855
 30
0.0
 40
91.44
  1
ＲＯＨ＝2,055
 50
90.0
  7
ＭＳ ゴシック
100
AcDbText
  0
LINE
  5
341
330
1F
100
AcDbEntity
  8
0-0_補助線
  6
JWW_HOJO
 62
   120
370
     5
100
AcDbLine
 10
-3095.081828316419
 20
194.9998020481422
 30
0.0
 11
-1513.7330513463
 21
194.9998020481422
 31
0.0
  0
TEXT
  5
342
330
1F
100
AcDbEntity
  8
F-A_文字
  6
Continuous
 62
     7
370
     9
100
AcDbText
 10
3281.167643811961
 20
-4127.313118467413
 30
0.0
 40
68.58
  1
S03-D0654K3e_S01
 41
1.15625
  7
ＭＳ ゴシック
100
AcDbText
  0
ENDSEC
  0
SECTION
  2
OBJECTS
  0
DICTIONARY
  5
C
330
0
100
AcDbDictionary
281
     1
  3
ACAD_DETAILVIEWSTYLE
350
397
  3
ACAD_GROUP
350
D
  3
ACAD_LAYOUT
350
1A
  3
ACAD_MATERIAL
350
43
  3
ACAD_MLEADERSTYLE
350
6B
  3
ACAD_MLINESTYLE
350
17
  3
ACAD_PLOTSETTINGS
350
19
  3
ACAD_PLOTSTYLENAME
350
E
  3
ACAD_SCALELIST
350
47
  3
ACAD_SECTIONVIEWSTYLE
350
398
  3
ACAD_TABLESTYLE
350
69
  3
ACAD_VISUALSTYLE
350
2A
  3
ACDB_RECOMPOSE_DATA
350
394
  3
AcDbVariableDictionary
350
360
  0
SUN
  5
6D
330
29
100
AcDbSun
 90
        1
290
     0
 63
     7
421
 16777215
 40
1.0
291
     1
 91
  2455826
 92
 54000000
292
     0
 70
     2
 71
   256
280
     1
  0
DICTIONARY
  5
397
102
{ACAD_REACTORS
330
C
102
}
330
C
100
AcDbDictionary
281
     1
  0
DICTIONARY
  5
D
102
{ACAD_REACTORS
330
C
102
}
330
C
100
AcDbDictionary
281
     1
  0
DICTIONARY
  5
1A
102
{ACAD_REACTORS
330
C
102
}
330
C
100
AcDbDictionary
281
     1
  3
Layout1
350
1E
  3
Layout2
350
26
  3
Model
350
22
  0
DICTIONARY
  5
43
102
{ACAD_REACTORS
330
C
102
}
330
C
100
AcDbDictionary
281
     1
  3
ByBlock
350
45
  3
ByLayer
350
44
  3
Global
350
46
  0
DICTIONARY
  5
6B
102
{ACAD_REACTORS
330
C
102
}
330
C
100
AcDbDictionary
281
     1
  3
Standard
350
6C
  0
DICTIONARY
  5
17
102
{ACAD_REACTORS
330
C
102
}
330
C
100
AcDbDictionary
281
     1
  3
Standard
350
18
  0
DICTIONARY
  5
19
102
{ACAD_REACTORS
330
C
102
}
330
C
100
AcDbDictionary
281
     1
  0
ACDBDICTIONARYWDFLT
  5
E
102
{ACAD_REACTORS
330
C
102
}
330
C
100
AcDbDictionary
281
     1
  3
Normal
350
F
100
AcDbDictionaryWithDefault
340
F
  0
DICTIONARY
  5
47
102
{ACAD_REACTORS
330
C
102
}
330
C
100
AcDbDictionary
281
     1
  3
A0
350
48
  3
A1
350
49
  3
A2
350
4A
  3
A3
350
4B
  3
A4
350
4C
  3
A5
350
4D
  3
A6
350
4E
  3
A7
350
4F
  3
A8
350
50
  3
A9
350
51
  3
B0
350
52
  3
B1
350
53
  3
B2
350
54
  3
B3
350
55
  3
B4
350
56
  3
B5
350
57
  3
B6
350
58
  3
B7
350
59
  3
B8
350
5A
  3
B9
350
5B
  3
C0
350
5C
  3
C1
350
5D
  3
C2
350
5E
  3
C3
350
5F
  3
C4
350
60
  3
C5
350
61
  3
C6
350
62
  3
C7
350
63
  3
C8
350
64
  3
C9
350
65
  3
D0
350
66
  3
D1
350
67
  3
D2
350
68
  0
DICTIONARY
  5
398
102
{ACAD_REACTORS
330
C
102
}
330
C
100
AcDbDictionary
281
     1
  0
DICTIONARY
  5
69
102
{ACAD_REACTORS
330
C
102
}
330
C
100
AcDbDictionary
281
     1
  3
Standard
350
6A
  0
DICTIONARY
  5
2A
102
{ACAD_REACTORS
330
C
102
}
330
C
100
AcDbDictionary
281
     1
  3
2dWireframe
350
2F
  3
Basic
350
32
  3
Brighten
350
36
  3
ColorChange
350
3A
  3
Conceptual
350
34
  3
Dim
350
35
  3
EdgeColorOff
350
3D
  3
Facepattern
350
39
  3
Flat
350
2B
  3
FlatWithEdges
350
2C
  3
Gouraud
350
2D
  3
GouraudWithEdges
350
2E
  3
Hidden
350
31
  3
JitterOff
350
3B
  3
Linepattern
350
38
  3
OverhangOff
350
3C
  3
Realistic
350
33
  3
Shaded
350
42
  3
Shaded with edges
350
41
  3
Shades of Gray
350
3E
  3
Sketchy
350
3F
  3
Thicken
350
37
  3
Wireframe
350
30
  3
X-Ray
350
40
  0
XRECORD
  5
394
102
{ACAD_REACTORS
330
C
102
}
330
C
100
AcDbXrecord
280
     1
 90
        1
330
6A
  0
DICTIONARY
  5
360
102
{ACAD_REACTORS
330
C
102
}
330
C
100
AcDbDictionary
281
     1
  3
CANNOSCALE
350
361
  3
CENTEREXE
350
399
  3
CENTERLTYPEFILE
350
39A
  3
CMLEADERSTYLE
350
396
  3
CTABLESTYLE
350
395
  0
LAYOUT
  5
1E
102
{ACAD_REACTORS
330
1A
102
}
330
1A
100
AcDbPlotSettings
  1

  2
none_device
  4

  6

 40
0.0
 41
0.0
 42
0.0
 43
0.0
 44
0.0
 45
0.0
 46
0.0
 47
0.0
 48
0.0
 49
0.0
140
0.0
141
0.0
142
1.0
143
1.0
 70
   688
 72
     1
 73
     0
 74
     5
  7

 75
    16
 76
     0
 77
     5
 78
   300
147
1.0
148
0.0
149
0.0
100
AcDbLayout
  1
Layout1
 70
     1
 71
     1
 10
0.0
 20
0.0
 11
420.0
 21
297.0
 12
0.0
 22
0.0
 32
0.0
 14
1.000000000000000E+20
 24
1.000000000000000E+20
 34
1.000000000000000E+20
 15
-1.000000000000000E+20
 25
-1.000000000000000E+20
 35
-1.000000000000000E+20
146
0.0
 13
0.0
 23
0.0
 33
0.0
 16
1.0
 26
0.0
 36
0.0
 17
0.0
 27
1.0
 37
0.0
 76
     0
330
1B
  0
LAYOUT
  5
26
102
{ACAD_REACTORS
330
1A
102
}
330
1A
100
AcDbPlotSettings
  1

  2
none_device
  4

  6

 40
0.0
 41
0.0
 42
0.0
 43
0.0
 44
0.0
 45
0.0
 46
0.0
 47
0.0
 48
0.0
 49
0.0
140
0.0
141
0.0
142
1.0
143
1.0
 70
   688
 72
     1
 73
     0
 74
     5
  7

 75
    16
 76
     0
 77
     5
 78
   300
147
1.0
148
0.0
149
0.0
100
AcDbLayout
  1
Layout2
 70
     1
 71
     2
 10
0.0
 20
0.0
 11
0.0
 21
0.0
 12
0.0
 22
0.0
 32
0.0
 14
0.0
 24
0.0
 34
0.0
 15
0.0
 25
0.0
 35
0.0
146
0.0
 13
0.0
 23
0.0
 33
0.0
 16
1.0
 26
0.0
 36
0.0
 17
0.0
 27
1.0
 37
0.0
 76
     0
330
23
  0
LAYOUT
  5
22
102
{ACAD_REACTORS
330
1A
102
}
330
1A
100
AcDbPlotSettings
  1

  2
none_device
  4
Letter_(8.50_x_11.00_Inches)
  6

 40
6.35
 41
6.35
 42
6.35000508
 43
6.35000508
 44
215.9
 45
279.4
 46
0.0
 47
0.0
 48
0.0
 49
0.0
140
0.0
141
0.0
142
1.0
143
1.0
 70
  1712
 72
     1
 73
     0
 74
     0
  7

 75
     0
 76
     0
 77
     5
 78
   300
147
1.0
148
0.0
149
0.0
100
AcDbLayout
  1
Model
 70
     1
 71
     0
 10
-6300.0
 20
-4455.0
 11
6300.0
 21
4455.0
 12
0.0
 22
0.0
 32
0.0
 14
-6300.0
 24
-4455.0
 34
0.0
 15
6300.0
 25
4455.0
 35
0.0
146
0.0
 13
0.0
 23
0.0
 33
0.0
 16
1.0
 26
0.0
 36
0.0
 17
0.0
 27
1.0
 37
0.0
 76
     0
330
1F
331
29
  0
MATERIAL
  5
45
102
{ACAD_REACTORS
330
43
102
}
330
43
100
AcDbMaterial
  1
ByBlock
 72
     1
 94
      127
  0
MATERIAL
  5
44
102
{ACAD_REACTORS
330
43
102
}
330
43
100
AcDbMaterial
  1
ByLayer
 72
     1
 94
      127
  0
MATERIAL
  5
46
102
{ACAD_REACTORS
330
43
102
}
330
43
100
AcDbMaterial
  1
Global
 72
     1
 94
      127
  0
MLEADERSTYLE
  5
6C
102
{ACAD_REACTORS
330
6B
102
}
330
6B
100
AcDbMLeaderStyle
179
     2
170
     2
171
     1
172
     0
 90
        2
 40
0.0
 41
0.0
173
     1
 91
-1056964608
340
14
 92
       -2
290
     1
 42
2.0
291
     1
 43
8.0
  3
Standard
341
0
 44
4.0
300

342
11
174
     1
178
     6
175
     1
176
     0
 93
-1056964608
 45
4.0
292
     0
297
     0
 46
4.0
343
0
 94
-1056964608
 47
1.0
 49
1.0
140
1.0
293
     1
141
0.0
294
     1
177
     0
142
1.0
295
     0
296
     0
143
3.75
271
     0
272
     9
273
     9
  0
MLINESTYLE
  5
18
102
{ACAD_REACTORS
330
17
102
}
330
17
100
AcDbMlineStyle
  2
Standard
 70
     0
  3

 62
   256
 51
90.0
 52
90.0
 71
     2
 49
0.5
 62
   256
  6
BYLAYER
 49
-0.5
 62
   256
  6
BYLAYER
  0
ACDBPLACEHOLDER
  5
F
102
{ACAD_REACTORS
330
E
102
}
330
E
  0
SCALE
  5
48
102
{ACAD_REACTORS
330
47
102
}
330
47
100
AcDbScale
 70
     0
300
1:1
140
1.0
141
1.0
290
     1
  0
SCALE
  5
49
102
{ACAD_REACTORS
330
47
102
}
330
47
100
AcDbScale
 70
     0
300
1:2
140
1.0
141
2.0
290
     0
  0
SCALE
  5
4A
102
{ACAD_REACTORS
330
47
102
}
330
47
100
AcDbScale
 70
     0
300
1:4
140
1.0
141
4.0
290
     0
  0
SCALE
  5
4B
102
{ACAD_REACTORS
330
47
102
}
330
47
100
AcDbScale
 70
     0
300
1:5
140
1.0
141
5.0
290
     0
  0
SCALE
  5
4C
102
{ACAD_REACTORS
330
47
102
}
330
47
100
AcDbScale
 70
     0
300
1:8
140
1.0
141
8.0
290
     0
  0
SCALE
  5
4D
102
{ACAD_REACTORS
330
47
102
}
330
47
100
AcDbScale
 70
     0
300
1:10
140
1.0
141
10.0
290
     0
  0
SCALE
  5
4E
102
{ACAD_REACTORS
330
47
102
}
330
47
100
AcDbScale
 70
     0
300
1:16
140
1.0
141
16.0
290
     0
  0
SCALE
  5
4F
102
{ACAD_REACTORS
330
47
102
}
330
47
100
AcDbScale
 70
     0
300
1:20
140
1.0
141
20.0
290
     0
  0
SCALE
  5
50
102
{ACAD_REACTORS
330
47
102
}
330
47
100
AcDbScale
 70
     0
300
1:30
140
1.0
141
30.0
290
     0
  0
SCALE
  5
51
102
{ACAD_REACTORS
330
47
102
}
330
47
100
AcDbScale
 70
     0
300
1:40
140
1.0
141
40.0
290
     0
  0
SCALE
  5
52
102
{ACAD_REACTORS
330
47
102
}
330
47
100
AcDbScale
 70
     0
300
1:50
140
1.0
141
50.0
290
     0
  0
SCALE
  5
53
102
{ACAD_REACTORS
330
47
102
}
330
47
100
AcDbScale
 70
     0
300
1:100
140
1.0
141
100.0
290
     0
  0
SCALE
  5
54
102
{ACAD_REACTORS
330
47
102
}
330
47
100
AcDbScale
 70
     0
300
2:1
140
2.0
141
1.0
290
     0
  0
SCALE
  5
55
102
{ACAD_REACTORS
330
47
102
}
330
47
100
AcDbScale
 70
     0
300
4:1
140
4.0
141
1.0
290
     0
  0
SCALE
  5
56
102
{ACAD_REACTORS
330
47
102
}
330
47
100
AcDbScale
 70
     0
300
8:1
140
8.0
141
1.0
290
     0
  0
SCALE
  5
57
102
{ACAD_REACTORS
330
47
102
}
330
47
100
AcDbScale
 70
     0
300
10:1
140
10.0
141
1.0
290
     0
  0
SCALE
  5
58
102
{ACAD_REACTORS
330
47
102
}
330
47
100
AcDbScale
 70
     0
300
100:1
140
100.0
141
1.0
290
     0
  0
SCALE
  5
59
102
{ACAD_REACTORS
330
47
102
}
330
47
100
AcDbScale
 70
     0
300
1/128" = 1'-0"
140
0.0078125
141
12.0
290
     0
  0
SCALE
  5
5A
102
{ACAD_REACTORS
330
47
102
}
330
47
100
AcDbScale
 70
     0
300
1/64" = 1'-0"
140
0.015625
141
12.0
290
     0
  0
SCALE
  5
5B
102
{ACAD_REACTORS
330
47
102
}
330
47
100
AcDbScale
 70
     0
300
1/32" = 1'-0"
140
0.03125
141
12.0
290
     0
  0
SCALE
  5
5C
102
{ACAD_REACTORS
330
47
102
}
330
47
100
AcDbScale
 70
     0
300
1/16" = 1'-0"
140
0.0625
141
12.0
290
     0
  0
SCALE
  5
5D
102
{ACAD_REACTORS
330
47
102
}
330
47
100
AcDbScale
 70
     0
300
3/32" = 1'-0"
140
0.09375
141
12.0
290
     0
  0
SCALE
  5
5E
102
{ACAD_REACTORS
330
47
102
}
330
47
100
AcDbScale
 70
     0
300
1/8" = 1'-0"
140
0.125
141
12.0
290
     0
  0
SCALE
  5
5F
102
{ACAD_REACTORS
330
47
102
}
330
47
100
AcDbScale
 70
     0
300
3/16" = 1'-0"
140
0.1875
141
12.0
290
     0
  0
SCALE
  5
60
102
{ACAD_REACTORS
330
47
102
}
330
47
100
AcDbScale
 70
     0
300
1/4" = 1'-0"
140
0.25
141
12.0
290
     0
  0
SCALE
  5
61
102
{ACAD_REACTORS
330
47
102
}
330
47
100
AcDbScale
 70
     0
300
3/8" = 1'-0"
140
0.375
141
12.0
290
     0
  0
SCALE
  5
62
102
{ACAD_REACTORS
330
47
102
}
330
47
100
AcDbScale
 70
     0
300
1/2" = 1'-0"
140
0.5
141
12.0
290
     0
  0
SCALE
  5
63
102
{ACAD_REACTORS
330
47
102
}
330
47
100
AcDbScale
 70
     0
300
3/4" = 1'-0"
140
0.75
141
12.0
290
     0
  0
SCALE
  5
64
102
{ACAD_REACTORS
330
47
102
}
330
47
100
AcDbScale
 70
     0
300
1" = 1'-0"
140
1.0
141
12.0
290
     0
  0
SCALE
  5
65
102
{ACAD_REACTORS
330
47
102
}
330
47
100
AcDbScale
 70
     0
300
1-1/2" = 1'-0"
140
1.5
141
12.0
290
     0
  0
SCALE
  5
66
102
{ACAD_REACTORS
330
47
102
}
330
47
100
AcDbScale
 70
     0
300
3" = 1'-0"
140
3.0
141
12.0
290
     0
  0
SCALE
  5
67
102
{ACAD_REACTORS
330
47
102
}
330
47
100
AcDbScale
 70
     0
300
6" = 1'-0"
140
6.0
141
12.0
290
     0
  0
SCALE
  5
68
102
{ACAD_REACTORS
330
47
102
}
330
47
100
AcDbScale
 70
     0
300
1'-0" = 1'-0"
140
12.0
141
12.0
290
     0
  0
TABLESTYLE
  5
6A
102
{ACAD_REACTORS
330
69
102
}
102
{ACAD_XDICTIONARY
360
392
102
}
330
69
100
AcDbTableStyle
  3
Standard
 70
     0
 71
     0
 40
0.06
 41
0.06
280
     0
281
     0
  7
Standard
140
4.5
170
     2
 62
     0
 63
   257
283
     0
 90
        4
 91
        0
  1

274
    -2
284
     1
 64
     0
275
    -2
285
     1
 65
     0
276
    -2
286
     1
 66
     0
277
    -2
287
     1
 67
     0
278
    -2
288
     1
 68
     0
279
    -2
289
     1
 69
     0
  7
Standard
140
6.0
170
     5
 62
     0
 63
   257
283
     0
 90
        4
 91
        0
  1

274
    -2
284
     1
 64
     0
275
    -2
285
     1
 65
     0
276
    -2
286
     1
 66
     0
277
    -2
287
     1
 67
     0
278
    -2
288
     1
 68
     0
279
    -2
289
     1
 69
     0
  7
Standard
140
4.5
170
     5
 62
     0
 63
   257
283
     0
 90
        4
 91
        0
  1

274
    -2
284
     1
 64
     0
275
    -2
285
     1
 65
     0
276
    -2
286
     1
 66
     0
277
    -2
287
     1
 67
     0
278
    -2
288
     1
 68
     0
279
    -2
289
     1
 69
     0
  0
VISUALSTYLE
  5
2F
102
{ACAD_REACTORS
330
2A
102
}
102
{ACAD_XDICTIONARY
360
36A
102
}
330
2A
100
AcDbVisualStyle
  2
2dWireframe
 70
     4
177
     2
291
     0
 71
     0
176
     1
 72
     2
176
     1
 73
     0
176
     1
 90
        0
176
     1
 40
0.6
176
     1
 41
30.0
176
     1
 62
     5
 63
     7
421
 16777215
176
     1
 74
     1
176
     1
 91
        4
176
     1
 64
     7
176
     1
 65
   257
176
     1
 75
     1
176
     1
175
     1
176
     1
 42
1.0
176
     1
 92
        0
176
     1
 66
   257
176
     1
 43
1.0
176
     1
 76
     1
176
     1
 77
     6
176
     1
 78
     2
176
     1
 67
     7
176
     1
 79
     5
176
     1
170
     0
176
     1
171
     0
176
     1
290
     0
176
     1
 93
        1
176
     1
 44
0.0
176
     1
173
     0
176
     1
  0
VISUALSTYLE
  5
32
102
{ACAD_REACTORS
330
2A
102
}
102
{ACAD_XDICTIONARY
360
370
102
}
330
2A
100
AcDbVisualStyle
  2
Basic
 70
     7
177
     2
291
     1
 71
     1
176
     1
 72
     0
176
     1
 73
     1
176
     1
 90
        0
176
     1
 40
0.6
176
     1
 41
30.0
176
     1
 62
     5
 63
     7
421
 16777215
176
     1
 74
     0
176
     1
 91
        4
176
     1
 64
     7
176
     1
 65
   257
176
     1
 75
     1
176
     1
175
     1
176
     1
 42
1.0
176
     1
 92
        8
176
     1
 66
     7
176
     1
 43
1.0
176
     1
 76
     1
176
     1
 77
     6
176
     1
 78
     2
176
     1
 67
     7
176
     1
 79
     5
176
     1
170
     0
176
     1
171
     0
176
     1
290
     0
176
     1
 93
        1
176
     1
 44
0.0
176
     1
173
     0
176
     1
  0
VISUALSTYLE
  5
36
102
{ACAD_REACTORS
330
2A
102
}
102
{ACAD_XDICTIONARY
360
378
102
}
330
2A
100
AcDbVisualStyle
  2
Brighten
 70
    12
177
     2
291
     1
 71
     2
176
     1
 72
     2
176
     1
 73
     0
176
     1
 90
        0
176
     1
 40
0.6
176
     1
 41
30.0
176
     1
 62
     5
 63
     7
421
 16777215
176
     1
 74
     1
176
     1
 91
        4
176
     1
 64
     7
176
     1
 65
   257
176
     1
 75
     1
176
     1
175
     1
176
     1
 42
1.0
176
     1
 92
        8
176
     1
 66
     7
176
     1
 43
1.0
176
     1
 76
     1
176
     1
 77
     6
176
     1
 78
     2
176
     1
 67
     7
176
     1
 79
     5
176
     1
170
     0
176
     1
171
     0
176
     1
290
     0
176
     1
 93
        1
176
     1
 44
50.0
176
     1
173
     0
176
     1
  0
VISUALSTYLE
  5
3A
102
{ACAD_REACTORS
330
2A
102
}
102
{ACAD_XDICTIONARY
360
380
102
}
330
2A
100
AcDbVisualStyle
  2
ColorChange
 70
    16
177
     2
291
     1
 71
     2
176
     1
 72
     2
176
     1
 73
     3
176
     1
 90
        0
176
     1
 40
0.6
176
     1
 41
30.0
176
     1
 62
     5
 63
     8
421
  8421504
176
     1
 74
     1
176
     1
 91
        4
176
     1
 64
     7
176
     1
 65
   257
176
     1
 75
     1
176
     1
175
     1
176
     1
 42
1.0
176
     1
 92
        8
176
     1
 66
     8
424
  8421504
176
     1
 43
1.0
176
     1
 76
     1
176
     1
 77
     6
176
     1
 78
     2
176
     1
 67
     7
176
     1
 79
     5
176
     1
170
     0
176
     1
171
     0
176
     1
290
     0
176
     1
 93
        1
176
     1
 44
0.0
176
     1
173
     0
176
     1
  0
VISUALSTYLE
  5
34
102
{ACAD_REACTORS
330
2A
102
}
102
{ACAD_XDICTIONARY
360
374
102
}
330
2A
100
AcDbVisualStyle
  2
Conceptual
 70
     9
177
     2
291
     0
 71
     3
176
     1
 72
     2
176
     1
 73
     0
176
     1
 90
        0
176
     1
 40
0.6
176
     1
 41
30.0
176
     1
 62
     5
 63
     7
421
 16777215
176
     1
 74
     2
176
     1
 91
        2
176
     1
 64
     7
176
     1
 65
   257
176
     1
 75
     1
176
     1
175
     1
176
     1
 42
179.0
176
     1
 92
        8
176
     1
 66
     7
176
     1
 43
1.0
176
     1
 76
     1
176
     1
 77
     6
176
     1
 78
     2
176
     1
 67
     7
176
     1
 79
     3
176
     1
170
     0
176
     1
171
     0
176
     1
290
     0
176
     1
 93
        1
176
     1
 44
0.0
176
     1
173
     0
176
     1
  0
VISUALSTYLE
  5
35
102
{ACAD_REACTORS
330
2A
102
}
102
{ACAD_XDICTIONARY
360
376
102
}
330
2A
100
AcDbVisualStyle
  2
Dim
 70
    11
177
     2
291
     1
 71
     2
176
     1
 72
     2
176
     1
 73
     0
176
     1
 90
        0
176
     1
 40
0.6
176
     1
 41
30.0
176
     1
 62
     5
 63
     7
421
 16777215
176
     1
 74
     1
176
     1
 91
        4
176
     1
 64
     7
176
     1
 65
   257
176
     1
 75
     1
176
     1
175
     1
176
     1
 42
1.0
176
     1
 92
        8
176
     1
 66
     7
176
     1
 43
1.0
176
     1
 76
     1
176
     1
 77
     6
176
     1
 78
     2
176
     1
 67
     7
176
     1
 79
     5
176
     1
170
     0
176
     1
171
     0
176
     1
290
     0
176
     1
 93
        1
176
     1
 44
-50.0
176
     1
173
     0
176
     1
  0
VISUALSTYLE
  5
3D
102
{ACAD_REACTORS
330
2A
102
}
102
{ACAD_XDICTIONARY
360
386
102
}
330
2A
100
AcDbVisualStyle
  2
EdgeColorOff
 70
    22
177
     2
291
     1
 71
     2
176
     0
 72
     2
176
     0
 73
     0
176
     0
 90
        0
176
     0
 40
0.6
176
     0
 41
30.0
176
     0
 62
     5
 63
     7
421
 16777215
176
     0
 74
     1
176
     0
 91
        4
176
     0
 64
     7
176
     0
 65
   257
176
     0
 75
     1
176
     0
175
     1
176
     0
 42
1.0
176
     0
 92
        8
176
     2
 66
     7
176
     0
 43
1.0
176
     0
 76
     1
176
     0
 77
     6
176
     0
 78
     2
176
     0
 67
     7
176
     0
 79
     5
176
     0
170
     0
176
     0
171
     0
176
     0
290
     0
176
     0
 93
        1
176
     0
 44
0.0
176
     0
173
     0
176
     0
  0
VISUALSTYLE
  5
39
102
{ACAD_REACTORS
330
2A
102
}
102
{ACAD_XDICTIONARY
360
37E
102
}
330
2A
100
AcDbVisualStyle
  2
Facepattern
 70
    15
177
     2
291
     1
 71
     2
176
     1
 72
     2
176
     1
 73
     0
176
     1
 90
        0
176
     1
 40
0.6
176
     1
 41
30.0
176
     1
 62
     5
 63
     7
421
 16777215
176
     1
 74
     1
176
     1
 91
        4
176
     1
 64
     7
176
     1
 65
   257
176
     1
 75
     1
176
     1
175
     1
176
     1
 42
1.0
176
     1
 92
        8
176
     1
 66
     7
176
     1
 43
1.0
176
     1
 76
     1
176
     1
 77
     6
176
     1
 78
     2
176
     1
 67
     7
176
     1
 79
     5
176
     1
170
     0
176
     1
171
     0
176
     1
290
     0
176
     1
 93
        1
176
     1
 44
0.0
176
     1
173
     0
176
     1
  0
VISUALSTYLE
  5
2B
102
{ACAD_REACTORS
330
2A
102
}
102
{ACAD_XDICTIONARY
360
362
102
}
330
2A
100
AcDbVisualStyle
  2
Flat
 70
     0
177
     2
291
     1
 71
     2
176
     1
 72
     1
176
     1
 73
     1
176
     1
 90
        2
176
     1
 40
0.6
176
     1
 41
30.0
176
     1
 62
     5
 63
     7
421
 16777215
176
     1
 74
     0
176
     1
 91
        0
176
     1
 64
     7
176
     1
 65
   257
176
     1
 75
     1
176
     1
175
     1
176
     1
 42
1.0
176
     1
 92
        8
176
     1
 66
     7
176
     1
 43
1.0
176
     1
 76
     1
176
     1
 77
     6
176
     1
 78
     2
176
     1
 67
     7
176
     1
 79
     5
176
     1
170
     0
176
     1
171
     0
176
     1
290
     0
176
     1
 93
       13
176
     1
 44
0.0
176
     1
173
     0
176
     1
  0
VISUALSTYLE
  5
2C
102
{ACAD_REACTORS
330
2A
102
}
102
{ACAD_XDICTIONARY
360
364
102
}
330
2A
100
AcDbVisualStyle
  2
FlatWithEdges
 70
     1
177
     2
291
     1
 71
     2
176
     1
 72
     1
176
     1
 73
     1
176
     1
 90
        2
176
     1
 40
0.6
176
     1
 41
30.0
176
     1
 62
     5
 63
     7
421
 16777215
176
     1
 74
     1
176
     1
 91
        0
176
     1
 64
     7
176
     1
 65
   257
176
     1
 75
     1
176
     1
175
     1
176
     1
 42
1.0
176
     1
 92
        0
176
     1
 66
   257
176
     1
 43
1.0
176
     1
 76
     1
176
     1
 77
     6
176
     1
 78
     2
176
     1
 67
     7
176
     1
 79
     5
176
     1
170
     0
176
     1
171
     0
176
     1
290
     0
176
     1
 93
       13
176
     1
 44
0.0
176
     1
173
     0
176
     1
  0
VISUALSTYLE
  5
2D
102
{ACAD_REACTORS
330
2A
102
}
102
{ACAD_XDICTIONARY
360
366
102
}
330
2A
100
AcDbVisualStyle
  2
Gouraud
 70
     2
177
     2
291
     1
 71
     2
176
     1
 72
     2
176
     1
 73
     1
176
     1
 90
        2
176
     1
 40
0.6
176
     1
 41
30.0
176
     1
 62
     5
 63
     7
421
 16777215
176
     1
 74
     0
176
     1
 91
        0
176
     1
 64
     7
176
     1
 65
   257
176
     1
 75
     1
176
     1
175
     1
176
     1
 42
1.0
176
     1
 92
        0
176
     1
 66
     7
176
     1
 43
1.0
176
     1
 76
     1
176
     1
 77
     6
176
     1
 78
     2
176
     1
 67
     7
176
     1
 79
     5
176
     1
170
     0
176
     1
171
     0
176
     1
290
     0
176
     1
 93
       13
176
     1
 44
0.0
176
     1
173
     0
176
     1
  0
VISUALSTYLE
  5
2E
102
{ACAD_REACTORS
330
2A
102
}
102
{ACAD_XDICTIONARY
360
368
102
}
330
2A
100
AcDbVisualStyle
  2
GouraudWithEdges
 70
     3
177
     2
291
     1
 71
     2
176
     1
 72
     2
176
     1
 73
     1
176
     1
 90
        2
176
     1
 40
0.6
176
     1
 41
30.0
176
     1
 62
     5
 63
     7
421
 16777215
176
     1
 74
     1
176
     1
 91
        0
176
     1
 64
     7
176
     1
 65
   257
176
     1
 75
     1
176
     1
175
     1
176
     1
 42
1.0
176
     1
 92
        0
176
     1
 66
   257
176
     1
 43
1.0
176
     1
 76
     1
176
     1
 77
     6
176
     1
 78
     2
176
     1
 67
     7
176
     1
 79
     5
176
     1
170
     0
176
     1
171
     0
176
     1
290
     0
176
     1
 93
       13
176
     1
 44
0.0
176
     1
173
     0
176
     1
  0
VISUALSTYLE
  5
31
102
{ACAD_REACTORS
330
2A
102
}
102
{ACAD_XDICTIONARY
360
36E
102
}
330
2A
100
AcDbVisualStyle
  2
Hidden
 70
     6
177
     2
291
     0
 71
     1
176
     1
 72
     2
176
     1
 73
     2
176
     1
 90
        0
176
     1
 40
0.6
176
     1
 41
30.0
176
     1
 62
     5
 63
     7
421
 16777215
176
     1
 74
     2
176
     1
 91
        2
176
     1
 64
     7
176
     1
 65
   257
176
     1
 75
     2
176
     1
175
     1
176
     1
 42
40.0
176
     1
 92
        0
176
     1
 66
   257
176
     1
 43
1.0
176
     1
 76
     1
176
     1
 77
     6
176
     1
 78
     2
176
     1
 67
     7
176
     1
 79
     3
176
     1
170
     0
176
     1
171
     0
176
     1
290
     0
176
     1
 93
        1
176
     1
 44
0.0
176
     1
173
     0
176
     1
  0
VISUALSTYLE
  5
3B
102
{ACAD_REACTORS
330
2A
102
}
102
{ACAD_XDICTIONARY
360
382
102
}
330
2A
100
AcDbVisualStyle
  2
JitterOff
 70
    20
177
     2
291
     1
 71
     2
176
     0
 72
     2
176
     0
 73
     0
176
     0
 90
        0
176
     0
 40
0.6
176
     0
 41
30.0
176
     0
 62
     5
 63
     7
421
 16777215
176
     0
 74
     1
176
     0
 91
        4
176
     0
 64
     7
176
     0
 65
   257
176
     0
 75
     1
176
     0
175
     1
176
     0
 42
1.0
176
     0
 92
       10
176
     2
 66
     7
176
     0
 43
1.0
176
     0
 76
     1
176
     0
 77
     6
176
     0
 78
     2
176
     0
 67
     7
176
     0
 79
     5
176
     0
170
     0
176
     0
171
     0
176
     0
290
     0
176
     0
 93
        1
176
     0
 44
0.0
176
     0
173
     0
176
     0
  0
VISUALSTYLE
  5
38
102
{ACAD_REACTORS
330
2A
102
}
102
{ACAD_XDICTIONARY
360
37C
102
}
330
2A
100
AcDbVisualStyle
  2
Linepattern
 70
    14
177
     2
291
     1
 71
     2
176
     1
 72
     2
176
     1
 73
     0
176
     1
 90
        0
176
     1
 40
0.6
176
     1
 41
30.0
176
     1
 62
     5
 63
     7
421
 16777215
176
     1
 74
     1
176
     1
 91
        4
176
     1
 64
     7
176
     1
 65
   257
176
     1
 75
     7
176
     1
175
     7
176
     1
 42
1.0
176
     1
 92
        8
176
     1
 66
     7
176
     1
 43
1.0
176
     1
 76
     1
176
     1
 77
     6
176
     1
 78
     2
176
     1
 67
     7
176
     1
 79
     5
176
     1
170
     0
176
     1
171
     0
176
     1
290
     0
176
     1
 93
        1
176
     1
 44
0.0
176
     1
173
     0
176
     1
  0
VISUALSTYLE
  5
3C
102
{ACAD_REACTORS
330
2A
102
}
102
{ACAD_XDICTIONARY
360
384
102
}
330
2A
100
AcDbVisualStyle
  2
OverhangOff
 70
    21
177
     2
291
     1
 71
     2
176
     0
 72
     2
176
     0
 73
     0
176
     0
 90
        0
176
     0
 40
0.6
176
     0
 41
30.0
176
     0
 62
     5
 63
     7
421
 16777215
176
     0
 74
     1
176
     0
 91
        4
176
     0
 64
     7
176
     0
 65
   257
176
     0
 75
     1
176
     0
175
     1
176
     0
 42
1.0
176
     0
 92
        9
176
     2
 66
     7
176
     0
 43
1.0
176
     0
 76
     1
176
     0
 77
     6
176
     0
 78
     2
176
     0
 67
     7
176
     0
 79
     5
176
     0
170
     0
176
     0
171
     0
176
     0
290
     0
176
     0
 93
        1
176
     0
 44
0.0
176
     0
173
     0
176
     0
  0
VISUALSTYLE
  5
33
102
{ACAD_REACTORS
330
2A
102
}
102
{ACAD_XDICTIONARY
360
372
102
}
330
2A
100
AcDbVisualStyle
  2
Realistic
 70
     8
177
     2
291
     0
 71
     2
176
     1
 72
     3
176
     1
 73
     0
176
     1
 90
        2
176
     1
 40
0.6
176
     1
 41
30.0
176
     1
 62
     5
 63
     7
421
 16777215
176
     1
 74
     0
176
     1
 91
        0
176
     1
 64
     7
176
     1
 65
   257
176
     1
 75
     1
176
     1
175
     1
176
     1
 42
1.0
176
     1
 92
        8
176
     1
 66
   257
176
     1
 43
1.0
176
     1
 76
     1
176
     1
 77
     6
176
     1
 78
     2
176
     1
 67
     7
176
     1
 79
     3
176
     1
170
     0
176
     1
171
     0
176
     1
290
     0
176
     1
 93
       13
176
     1
 44
0.0
176
     1
173
     0
176
     1
  0
VISUALSTYLE
  5
42
102
{ACAD_REACTORS
330
2A
102
}
102
{ACAD_XDICTIONARY
360
390
102
}
330
2A
100
AcDbVisualStyle
  2
Shaded
 70
    27
177
     2
291
     0
 71
     2
176
     1
 72
     2
176
     1
 73
     1
176
     1
 90
        2
176
     1
 40
0.6
176
     1
 41
30.0
176
     1
 62
     5
 63
     7
421
 16777215
176
     1
 74
     0
176
     1
 91
        4
176
     1
 64
     7
176
     1
 65
   257
176
     1
 75
     1
176
     1
175
     1
176
     1
 42
1.0
176
     1
 92
        8
176
     1
 66
   257
176
     1
 43
1.0
176
     1
 76
     1
176
     1
 77
     6
176
     1
 78
     2
176
     1
 67
     8
425
  7895160
176
     1
 79
     3
176
     1
170
     0
176
     1
171
     0
176
     1
290
     0
176
     1
 93
        5
176
     1
 44
0.0
176
     1
173
     0
176
     1
  0
VISUALSTYLE
  5
41
102
{ACAD_REACTORS
330
2A
102
}
102
{ACAD_XDICTIONARY
360
38E
102
}
330
2A
100
AcDbVisualStyle
  2
Shaded with edges
 70
    26
177
     2
291
     0
 71
     2
176
     1
 72
     2
176
     1
 73
     1
176
     1
 90
        2
176
     1
 40
0.6
176
     1
 41
30.0
176
     1
 62
     5
 63
     7
421
 16777215
176
     1
 74
     1
176
     1
 91
       10
176
     1
 64
     7
176
     1
 65
   257
176
     1
 75
     2
176
     1
175
     1
176
     1
 42
1.0
176
     1
 92
        8
176
     1
 66
   257
176
     1
 43
1.0
176
     1
 76
     1
176
     1
 77
     6
176
     1
 78
     2
176
     1
 67
     7
176
     1
 79
     3
176
     1
170
     0
176
     1
171
     0
176
     1
290
     0
176
     1
 93
        5
176
     1
 44
0.0
176
     1
173
     0
176
     1
  0
VISUALSTYLE
  5
3E
102
{ACAD_REACTORS
330
2A
102
}
102
{ACAD_XDICTIONARY
360
388
102
}
330
2A
100
AcDbVisualStyle
  2
Shades of Gray
 70
    23
177
     2
291
     0
 71
     2
176
     1
 72
     2
176
     1
 73
     3
176
     1
 90
        0
176
     1
 40
0.6
176
     1
 41
30.0
176
     1
 62
     5
 63
     7
421
 16777215
176
     1
 74
     2
176
     1
 91
        2
176
     1
 64
     7
176
     1
 65
     7
176
     1
 75
     1
176
     1
175
     1
176
     1
 42
40.0
176
     1
 92
        8
176
     1
 66
     7
176
     1
 43
1.0
176
     1
 76
     1
176
     1
 77
     6
176
     1
 78
     2
176
     1
 67
     7
176
     1
 79
     3
176
     1
170
     0
176
     1
171
     0
176
     1
290
     0
176
     1
 93
        1
176
     1
 44
0.0
176
     1
173
     0
176
     1
  0
VISUALSTYLE
  5
3F
102
{ACAD_REACTORS
330
2A
102
}
102
{ACAD_XDICTIONARY
360
38A
102
}
330
2A
100
AcDbVisualStyle
  2
Sketchy
 70
    24
177
     2
291
     0
 71
     1
176
     1
 72
     2
176
     1
 73
     2
176
     1
 90
        0
176
     1
 40
0.6
176
     1
 41
30.0
176
     1
 62
     5
 63
     7
421
 16777215
176
     1
 74
     2
176
     1
 91
        2
176
     1
 64
     7
176
     1
 65
     7
176
     1
 75
     1
176
     1
175
     1
176
     1
 42
40.0
176
     1
 92
       11
176
     1
 66
     7
176
     1
 43
1.0
176
     1
 76
     1
176
     1
 77
     6
176
     1
 78
     2
176
     1
 67
     7
176
     1
 79
     6
176
     1
170
     0
176
     1
171
     0
176
     1
290
     0
176
     1
 93
        1
176
     1
 44
0.0
176
     1
173
     0
176
     1
  0
VISUALSTYLE
  5
37
102
{ACAD_REACTORS
330
2A
102
}
102
{ACAD_XDICTIONARY
360
37A
102
}
330
2A
100
AcDbVisualStyle
  2
Thicken
 70
    13
177
     2
291
     1
 71
     2
176
     1
 72
     2
176
     1
 73
     0
176
     1
 90
        0
176
     1
 40
0.6
176
     1
 41
30.0
176
     1
 62
     5
 63
     7
421
 16777215
176
     1
 74
     1
176
     1
 91
        4
176
     1
 64
     7
176
     1
 65
   257
176
     1
 75
     1
176
     1
175
     1
176
     1
 42
1.0
176
     1
 92
       12
176
     1
 66
     7
176
     1
 43
1.0
176
     1
 76
     1
176
     1
 77
     6
176
     1
 78
     2
176
     1
 67
     7
176
     1
 79
     5
176
     1
170
     0
176
     1
171
     0
176
     1
290
     0
176
     1
 93
        1
176
     1
 44
0.0
176
     1
173
     0
176
     1
  0
VISUALSTYLE
  5
30
102
{ACAD_REACTORS
330
2A
102
}
102
{ACAD_XDICTIONARY
360
36C
102
}
330
2A
100
AcDbVisualStyle
  2
Wireframe
 70
     5
177
     2
291
     0
 71
     0
176
     1
 72
     2
176
     1
 73
     0
176
     1
 90
        0
176
     1
 40
0.6
176
     1
 41
30.0
176
     1
 62
     5
 63
     7
421
 16777215
176
     1
 74
     1
176
     1
 91
        4
176
     1
 64
     7
176
     1
 65
   257
176
     1
 75
     1
176
     1
175
     1
176
     1
 42
1.0
176
     1
 92
        0
176
     1
 66
   257
176
     1
 43
1.0
176
     1
 76
     1
176
     1
 77
     6
176
     1
 78
     2
176
     1
 67
     7
176
     1
 79
     3
176
     1
170
     0
176
     1
171
     0
176
     1
290
     0
176
     1
 93
        1
176
     1
 44
0.0
176
     1
173
     0
176
     1
  0
VISUALSTYLE
  5
40
102
{ACAD_REACTORS
330
2A
102
}
102
{ACAD_XDICTIONARY
360
38C
102
}
330
2A
100
AcDbVisualStyle
  2
X-Ray
 70
    25
177
     2
291
     0
 71
     2
176
     1
 72
     2
176
     1
 73
     1
176
     1
 90
        1
176
     1
 40
0.5
176
     1
 41
30.0
176
     1
 62
     5
 63
     7
421
 16777215
176
     1
 74
     1
176
     1
 91
        0
176
     1
 64
     7
176
     1
 65
   257
176
     1
 75
     1
176
     1
175
     1
176
     1
 42
1.0
176
     1
 92
        8
176
     1
 66
     7
176
     1
 43
1.0
176
     1
 76
     1
176
     1
 77
     6
176
     1
 78
     2
176
     1
 67
     7
176
     1
 79
     3
176
     1
170
     0
176
     1
171
     0
176
     1
290
     0
176
     1
 93
       13
176
     1
 44
0.0
176
     1
173
     0
176
     1
  0
DICTIONARYVAR
  5
361
102
{ACAD_REACTORS
330
360
102
}
330
360
100
DictionaryVariables
280
     0
  1
1:1
  0
DICTIONARYVAR
  5
399
102
{ACAD_REACTORS
330
360
102
}
330
360
100
DictionaryVariables
280
     0
  1
3.500000
  0
DICTIONARYVAR
  5
39A
102
{ACAD_REACTORS
330
360
102
}
330
360
100
DictionaryVariables
280
     0
  1
acadiso.lin
  0
DICTIONARYVAR
  5
396
102
{ACAD_REACTORS
330
360
102
}
330
360
100
DictionaryVariables
280
     0
  1
Standard
  0
DICTIONARYVAR
  5
395
102
{ACAD_REACTORS
330
360
102
}
330
360
100
DictionaryVariables
280
     0
  1
Standard
  0
DICTIONARY
  5
392
330
6A
100
AcDbDictionary
280
     1
281
     1
  3
ACAD_ROUNDTRIP_2008_TABLESTYLE_CELLSTYLEMAP
360
393
  0
DICTIONARY
  5
36A
330
2F
100
AcDbDictionary
280
     1
281
     1
  3
ACAD_XREC_ROUNDTRIP
360
36B
  0
DICTIONARY
  5
370
330
32
100
AcDbDictionary
280
     1
281
     1
  3
ACAD_XREC_ROUNDTRIP
360
371
  0
DICTIONARY
  5
378
330
36
100
AcDbDictionary
280
     1
281
     1
  3
ACAD_XREC_ROUNDTRIP
360
379
  0
DICTIONARY
  5
380
330
3A
100
AcDbDictionary
280
     1
281
     1
  3
ACAD_XREC_ROUNDTRIP
360
381
  0
DICTIONARY
  5
374
330
34
100
AcDbDictionary
280
     1
281
     1
  3
ACAD_XREC_ROUNDTRIP
360
375
  0
DICTIONARY
  5
376
330
35
100
AcDbDictionary
280
     1
281
     1
  3
ACAD_XREC_ROUNDTRIP
360
377
  0
DICTIONARY
  5
386
330
3D
100
AcDbDictionary
280
     1
281
     1
  3
ACAD_XREC_ROUNDTRIP
360
387
  0
DICTIONARY
  5
37E
330
39
100
AcDbDictionary
280
     1
281
     1
  3
ACAD_XREC_ROUNDTRIP
360
37F
  0
DICTIONARY
  5
362
330
2B
100
AcDbDictionary
280
     1
281
     1
  3
ACAD_XREC_ROUNDTRIP
360
363
  0
DICTIONARY
  5
364
330
2C
100
AcDbDictionary
280
     1
281
     1
  3
ACAD_XREC_ROUNDTRIP
360
365
  0
DICTIONARY
  5
366
330
2D
100
AcDbDictionary
280
     1
281
     1
  3
ACAD_XREC_ROUNDTRIP
360
367
  0
DICTIONARY
  5
368
330
2E
100
AcDbDictionary
280
     1
281
     1
  3
ACAD_XREC_ROUNDTRIP
360
369
  0
DICTIONARY
  5
36E
330
31
100
AcDbDictionary
280
     1
281
     1
  3
ACAD_XREC_ROUNDTRIP
360
36F
  0
DICTIONARY
  5
382
330
3B
100
AcDbDictionary
280
     1
281
     1
  3
ACAD_XREC_ROUNDTRIP
360
383
  0
DICTIONARY
  5
37C
330
38
100
AcDbDictionary
280
     1
281
     1
  3
ACAD_XREC_ROUNDTRIP
360
37D
  0
DICTIONARY
  5
384
330
3C
100
AcDbDictionary
280
     1
281
     1
  3
ACAD_XREC_ROUNDTRIP
360
385
  0
DICTIONARY
  5
372
330
33
100
AcDbDictionary
280
     1
281
     1
  3
ACAD_XREC_ROUNDTRIP
360
373
  0
DICTIONARY
  5
390
330
42
100
AcDbDictionary
280
     1
281
     1
  3
ACAD_XREC_ROUNDTRIP
360
391
  0
DICTIONARY
  5
38E
330
41
100
AcDbDictionary
280
     1
281
     1
  3
ACAD_XREC_ROUNDTRIP
360
38F
  0
DICTIONARY
  5
388
330
3E
100
AcDbDictionary
280
     1
281
     1
  3
ACAD_XREC_ROUNDTRIP
360
389
  0
DICTIONARY
  5
38A
330
3F
100
AcDbDictionary
280
     1
281
     1
  3
ACAD_XREC_ROUNDTRIP
360
38B
  0
DICTIONARY
  5
37A
330
37
100
AcDbDictionary
280
     1
281
     1
  3
ACAD_XREC_ROUNDTRIP
360
37B
  0
DICTIONARY
  5
36C
330
30
100
AcDbDictionary
280
     1
281
     1
  3
ACAD_XREC_ROUNDTRIP
360
36D
  0
DICTIONARY
  5
38C
330
40
100
AcDbDictionary
280
     1
281
     1
  3
ACAD_XREC_ROUNDTRIP
360
38D
  0
CELLSTYLEMAP
  5
393
102
{ACAD_REACTORS
330
392
102
}
330
392
100
AcDbCellStyleMap
 90
        3
300
CELLSTYLE
  1
TABLEFORMAT_BEGIN
 90
        5
170
     1
 91
        0
 92
    32768
 62
   257
 93
        1
300
CONTENTFORMAT
  1
CONTENTFORMAT_BEGIN
 90
        0
 91
        0
 92
        4
 93
        0
300

 40
0.0
140
1.0
 94
        5
 62
     0
340
11
144
6.0
309
CONTENTFORMAT_END
171
     1
301
MARGIN
  1
CELLMARGIN_BEGIN
 40
1.5
 40
1.5
 40
1.5
 40
1.5
 40
1.5
 40
1.5
309
CELLMARGIN_END
 94
        6
 95
        1
302
GRIDFORMAT
  1
GRIDFORMAT_BEGIN
 90
        0
 91
        1
 62
     0
 92
       -2
340
14
 93
        0
 40
0.045
309
GRIDFORMAT_END
 95
        2
302
GRIDFORMAT
  1
GRIDFORMAT_BEGIN
 90
        0
 91
        1
 62
     0
 92
       -2
340
14
 93
        0
 40
0.045
309
GRIDFORMAT_END
 95
        4
302
GRIDFORMAT
  1
GRIDFORMAT_BEGIN
 90
        0
 91
        1
 62
     0
 92
       -2
340
14
 93
        0
 40
0.045
309
GRIDFORMAT_END
 95
        8
302
GRIDFORMAT
  1
GRIDFORMAT_BEGIN
 90
        0
 91
        1
 62
     0
 92
       -2
340
14
 93
        0
 40
0.045
309
GRIDFORMAT_END
 95
       16
302
GRIDFORMAT
  1
GRIDFORMAT_BEGIN
 90
        0
 91
        1
 62
     0
 92
       -2
340
14
 93
        0
 40
0.045
309
GRIDFORMAT_END
 95
       32
302
GRIDFORMAT
  1
GRIDFORMAT_BEGIN
 90
        0
 91
        1
 62
     0
 92
       -2
340
14
 93
        0
 40
0.045
309
GRIDFORMAT_END
309
TABLEFORMAT_END
  1
CELLSTYLE_BEGIN
 90
        1
 91
        1
300
_TITLE
309
CELLSTYLE_END
300
CELLSTYLE
  1
TABLEFORMAT_BEGIN
 90
        5
170
     1
 91
        0
 92
        0
 62
   257
 93
        1
300
CONTENTFORMAT
  1
CONTENTFORMAT_BEGIN
 90
        0
 91
        0
 92
        4
 93
        0
300

 40
0.0
140
1.0
 94
        5
 62
     0
340
11
144
4.5
309
CONTENTFORMAT_END
171
     1
301
MARGIN
  1
CELLMARGIN_BEGIN
 40
1.5
 40
1.5
 40
1.5
 40
1.5
 40
1.5
 40
1.5
309
CELLMARGIN_END
 94
        6
 95
        1
302
GRIDFORMAT
  1
GRIDFORMAT_BEGIN
 90
        0
 91
        1
 62
     0
 92
       -2
340
14
 93
        0
 40
0.045
309
GRIDFORMAT_END
 95
        2
302
GRIDFORMAT
  1
GRIDFORMAT_BEGIN
 90
        0
 91
        1
 62
     0
 92
       -2
340
14
 93
        0
 40
0.045
309
GRIDFORMAT_END
 95
        4
302
GRIDFORMAT
  1
GRIDFORMAT_BEGIN
 90
        0
 91
        1
 62
     0
 92
       -2
340
14
 93
        0
 40
0.045
309
GRIDFORMAT_END
 95
        8
302
GRIDFORMAT
  1
GRIDFORMAT_BEGIN
 90
        0
 91
        1
 62
     0
 92
       -2
340
14
 93
        0
 40
0.045
309
GRIDFORMAT_END
 95
       16
302
GRIDFORMAT
  1
GRIDFORMAT_BEGIN
 90
        0
 91
        1
 62
     0
 92
       -2
340
14
 93
        0
 40
0.045
309
GRIDFORMAT_END
 95
       32
302
GRIDFORMAT
  1
GRIDFORMAT_BEGIN
 90
        0
 91
        1
 62
     0
 92
       -2
340
14
 93
        0
 40
0.045
309
GRIDFORMAT_END
309
TABLEFORMAT_END
  1
CELLSTYLE_BEGIN
 90
        2
 91
        1
300
_HEADER
309
CELLSTYLE_END
300
CELLSTYLE
  1
TABLEFORMAT_BEGIN
 90
        5
170
     1
 91
        0
 92
        0
 62
   257
 93
        1
300
CONTENTFORMAT
  1
CONTENTFORMAT_BEGIN
 90
        0
 91
        0
 92
        4
 93
        0
300

 40
0.0
140
1.0
 94
        2
 62
     0
340
11
144
4.5
309
CONTENTFORMAT_END
171
     1
301
MARGIN
  1
CELLMARGIN_BEGIN
 40
1.5
 40
1.5
 40
1.5
 40
1.5
 40
1.5
 40
1.5
309
CELLMARGIN_END
 94
        6
 95
        1
302
GRIDFORMAT
  1
GRIDFORMAT_BEGIN
 90
        0
 91
        1
 62
     0
 92
       -2
340
14
 93
        0
 40
0.045
309
GRIDFORMAT_END
 95
        2
302
GRIDFORMAT
  1
GRIDFORMAT_BEGIN
 90
        0
 91
        1
 62
     0
 92
       -2
340
14
 93
        0
 40
0.045
309
GRIDFORMAT_END
 95
        4
302
GRIDFORMAT
  1
GRIDFORMAT_BEGIN
 90
        0
 91
        1
 62
     0
 92
       -2
340
14
 93
        0
 40
0.045
309
GRIDFORMAT_END
 95
        8
302
GRIDFORMAT
  1
GRIDFORMAT_BEGIN
 90
        0
 91
        1
 62
     0
 92
       -2
340
14
 93
        0
 40
0.045
309
GRIDFORMAT_END
 95
       16
302
GRIDFORMAT
  1
GRIDFORMAT_BEGIN
 90
        0
 91
        1
 62
     0
 92
       -2
340
14
 93
        0
 40
0.045
309
GRIDFORMAT_END
 95
       32
302
GRIDFORMAT
  1
GRIDFORMAT_BEGIN
 90
        0
 91
        1
 62
     0
 92
       -2
340
14
 93
        0
 40
0.045
309
GRIDFORMAT_END
309
TABLEFORMAT_END
  1
CELLSTYLE_BEGIN
 90
        3
 91
        2
300
_DATA
309
CELLSTYLE_END
  0
XRECORD
  5
36B
102
{ACAD_REACTORS
330
36A
102
}
330
36A
100
AcDbXrecord
280
     1
102
RTVSPost2010Prop28
280
     1
102
RTVSPost2010PropOp28
 70
     1
102
RTVSPost2010Prop29
280
     1
102
RTVSPost2010PropOp29
 70
     1
102
RTVSPost2010Prop30
280
     0
102
RTVSPost2010PropOp30
 70
     1
102
RTVSPost2010Prop31
280
     0
102
RTVSPost2010PropOp31
 70
     1
102
RTVSPost2010Prop32
280
     0
102
RTVSPost2010PropOp32
 70
     1
102
RTVSPost2010Prop33
280
     0
102
RTVSPost2010PropOp33
 70
     1
102
RTVSPost2010Prop34
280
     0
102
RTVSPost2010PropOp34
 70
     1
102
RTVSPost2010Prop35
280
     0
102
RTVSPost2010PropOp35
 70
     1
102
RTVSPost2010Prop36
280
     0
102
RTVSPost2010PropOp36
 70
     1
102
RTVSPost2010Prop37
 90
       50
102
RTVSPost2010PropOp37
 70
     1
102
RTVSPost2010Prop38
140
0.0
102
RTVSPost2010PropOp38
 70
     1
102
RTVSPost2010Prop39
140
1.0
102
RTVSPost2010PropOp39
 70
     1
102
RTVSPost2010Prop40
 90
        0
102
RTVSPost2010PropOp40
 70
     1
102
RTVSPost2010Prop41ColorIndex
 90
       18
102
RTVSPost2010Prop41ColorRGB
 90
        0
102
RTVSPost2010PropOp41
 70
     1
102
RTVSPost2010Prop42
 90
       50
102
RTVSPost2010PropOp42
 70
     1
102
RTVSPost2010Prop43
 90
        3
102
RTVSPost2010PropOp43
 70
     1
102
RTVSPost2010Prop44ColorIndex
 90
        5
102
RTVSPost2010Prop44ColorRGB
 90
      255
102
RTVSPost2010PropOp44
 70
     1
102
RTVSPost2010Prop45
280
     0
102
RTVSPost2010PropOp45
 70
     1
102
RTVSPost2010Prop46
 90
       50
102
RTVSPost2010PropOp46
 70
     1
102
RTVSPost2010Prop47
 90
       50
102
RTVSPost2010PropOp47
 70
     1
102
RTVSPost2010Prop48
 90
       50
102
RTVSPost2010PropOp48
 70
     1
102
RTVSPost2010Prop49
280
     0
102
RTVSPost2010PropOp49
 70
     1
102
RTVSPost2010Prop50
 90
       50
102
RTVSPost2010PropOp50
 70
     1
102
RTVSPost2010Prop51ColorIndex
 90
      256
102
RTVSPost2010Prop51ColorRGB
 90
-16777216
102
RTVSPost2010PropOp51
 70
     0
102
RTVSPost2010Prop52
140
1.0
102
RTVSPost2010PropOp52
 70
     0
102
RTVSPost2010Prop53
 90
        2
102
RTVSPost2010PropOp53
 70
     1
102
RTVSPost2010Prop54
  1
strokes_ogs.tif
102
RTVSPost2010PropOp54
 70
     1
102
RTVSPost2010Prop55
280
     0
102
RTVSPost2010PropOp55
 70
     1
102
RTVSPost2010Prop56
140
1.0
102
RTVSPost2010PropOp56
 70
     1
102
RTVSPost2010Prop57
140
1.0
102
RTVSPost2010PropOp57
 70
     1
  0
XRECORD
  5
371
102
{ACAD_REACTORS
330
370
102
}
330
370
100
AcDbXrecord
280
     1
102
RTVSPost2010Prop28
280
     0
102
RTVSPost2010PropOp28
 70
     1
102
RTVSPost2010Prop29
280
     1
102
RTVSPost2010PropOp29
 70
     1
102
RTVSPost2010Prop30
280
     1
102
RTVSPost2010PropOp30
 70
     1
102
RTVSPost2010Prop31
280
     0
102
RTVSPost2010PropOp31
 70
     1
102
RTVSPost2010Prop32
280
     0
102
RTVSPost2010PropOp32
 70
     1
102
RTVSPost2010Prop33
280
     0
102
RTVSPost2010PropOp33
 70
     1
102
RTVSPost2010Prop34
280
     0
102
RTVSPost2010PropOp34
 70
     1
102
RTVSPost2010Prop35
280
     0
102
RTVSPost2010PropOp35
 70
     1
102
RTVSPost2010Prop36
280
     0
102
RTVSPost2010PropOp36
 70
     1
102
RTVSPost2010Prop37
 90
       50
102
RTVSPost2010PropOp37
 70
     1
102
RTVSPost2010Prop38
140
0.0
102
RTVSPost2010PropOp38
 70
     1
102
RTVSPost2010Prop39
140
1.0
102
RTVSPost2010PropOp39
 70
     1
102
RTVSPost2010Prop40
 90
        0
102
RTVSPost2010PropOp40
 70
     1
102
RTVSPost2010Prop41ColorIndex
 90
       18
102
RTVSPost2010Prop41ColorRGB
 90
        0
102
RTVSPost2010PropOp41
 70
     1
102
RTVSPost2010Prop42
 90
       50
102
RTVSPost2010PropOp42
 70
     1
102
RTVSPost2010Prop43
 90
        3
102
RTVSPost2010PropOp43
 70
     1
102
RTVSPost2010Prop44ColorIndex
 90
        5
102
RTVSPost2010Prop44ColorRGB
 90
      255
102
RTVSPost2010PropOp44
 70
     1
102
RTVSPost2010Prop45
280
     0
102
RTVSPost2010PropOp45
 70
     1
102
RTVSPost2010Prop46
 90
       50
102
RTVSPost2010PropOp46
 70
     1
102
RTVSPost2010Prop47
 90
       50
102
RTVSPost2010PropOp47
 70
     1
102
RTVSPost2010Prop48
 90
       50
102
RTVSPost2010PropOp48
 70
     1
102
RTVSPost2010Prop49
280
     0
102
RTVSPost2010PropOp49
 70
     1
102
RTVSPost2010Prop50
 90
       50
102
RTVSPost2010PropOp50
 70
     1
102
RTVSPost2010Prop51ColorIndex
 90
      256
102
RTVSPost2010Prop51ColorRGB
 90
-16777216
102
RTVSPost2010PropOp51
 70
     0
102
RTVSPost2010Prop52
140
1.0
102
RTVSPost2010PropOp52
 70
     0
102
RTVSPost2010Prop53
 90
        2
102
RTVSPost2010PropOp53
 70
     1
102
RTVSPost2010Prop54
  1
strokes_ogs.tif
102
RTVSPost2010PropOp54
 70
     1
102
RTVSPost2010Prop55
280
     0
102
RTVSPost2010PropOp55
 70
     1
102
RTVSPost2010Prop56
140
1.0
102
RTVSPost2010PropOp56
 70
     1
102
RTVSPost2010Prop57
140
1.0
102
RTVSPost2010PropOp57
 70
     1
  0
XRECORD
  5
379
102
{ACAD_REACTORS
330
378
102
}
330
378
100
AcDbXrecord
280
     1
102
RTVSPost2010Prop28
280
     0
102
RTVSPost2010PropOp28
 70
     1
102
RTVSPost2010Prop29
280
     1
102
RTVSPost2010PropOp29
 70
     1
102
RTVSPost2010Prop30
280
     1
102
RTVSPost2010PropOp30
 70
     1
102
RTVSPost2010Prop31
280
     0
102
RTVSPost2010PropOp31
 70
     1
102
RTVSPost2010Prop32
280
     0
102
RTVSPost2010PropOp32
 70
     1
102
RTVSPost2010Prop33
280
     0
102
RTVSPost2010PropOp33
 70
     1
102
RTVSPost2010Prop34
280
     0
102
RTVSPost2010PropOp34
 70
     1
102
RTVSPost2010Prop35
280
     0
102
RTVSPost2010PropOp35
 70
     1
102
RTVSPost2010Prop36
280
     0
102
RTVSPost2010PropOp36
 70
     1
102
RTVSPost2010Prop37
 90
       50
102
RTVSPost2010PropOp37
 70
     1
102
RTVSPost2010Prop38
140
0.0
102
RTVSPost2010PropOp38
 70
     1
102
RTVSPost2010Prop39
140
1.0
102
RTVSPost2010PropOp39
 70
     1
102
RTVSPost2010Prop40
 90
        0
102
RTVSPost2010PropOp40
 70
     1
102
RTVSPost2010Prop41ColorIndex
 90
       18
102
RTVSPost2010Prop41ColorRGB
 90
        0
102
RTVSPost2010PropOp41
 70
     1
102
RTVSPost2010Prop42
 90
       50
102
RTVSPost2010PropOp42
 70
     1
102
RTVSPost2010Prop43
 90
        3
102
RTVSPost2010PropOp43
 70
     1
102
RTVSPost2010Prop44ColorIndex
 90
        5
102
RTVSPost2010Prop44ColorRGB
 90
      255
102
RTVSPost2010PropOp44
 70
     1
102
RTVSPost2010Prop45
280
     0
102
RTVSPost2010PropOp45
 70
     1
102
RTVSPost2010Prop46
 90
       50
102
RTVSPost2010PropOp46
 70
     1
102
RTVSPost2010Prop47
 90
       50
102
RTVSPost2010PropOp47
 70
     1
102
RTVSPost2010Prop48
 90
       50
102
RTVSPost2010PropOp48
 70
     1
102
RTVSPost2010Prop49
280
     0
102
RTVSPost2010PropOp49
 70
     1
102
RTVSPost2010Prop50
 90
       50
102
RTVSPost2010PropOp50
 70
     1
102
RTVSPost2010Prop51ColorIndex
 90
      256
102
RTVSPost2010Prop51ColorRGB
 90
-16777216
102
RTVSPost2010PropOp51
 70
     0
102
RTVSPost2010Prop52
140
1.0
102
RTVSPost2010PropOp52
 70
     0
102
RTVSPost2010Prop53
 90
        2
102
RTVSPost2010PropOp53
 70
     1
102
RTVSPost2010Prop54
  1
strokes_ogs.tif
102
RTVSPost2010PropOp54
 70
     1
102
RTVSPost2010Prop55
280
     0
102
RTVSPost2010PropOp55
 70
     1
102
RTVSPost2010Prop56
140
1.0
102
RTVSPost2010PropOp56
 70
     1
102
RTVSPost2010Prop57
140
1.0
102
RTVSPost2010PropOp57
 70
     1
  0
XRECORD
  5
381
102
{ACAD_REACTORS
330
380
102
}
330
380
100
AcDbXrecord
280
     1
102
RTVSPost2010Prop28
280
     0
102
RTVSPost2010PropOp28
 70
     1
102
RTVSPost2010Prop29
280
     1
102
RTVSPost2010PropOp29
 70
     1
102
RTVSPost2010Prop30
280
     1
102
RTVSPost2010PropOp30
 70
     1
102
RTVSPost2010Prop31
280
     0
102
RTVSPost2010PropOp31
 70
     1
102
RTVSPost2010Prop32
280
     0
102
RTVSPost2010PropOp32
 70
     1
102
RTVSPost2010Prop33
280
     0
102
RTVSPost2010PropOp33
 70
     1
102
RTVSPost2010Prop34
280
     0
102
RTVSPost2010PropOp34
 70
     1
102
RTVSPost2010Prop35
280
     0
102
RTVSPost2010PropOp35
 70
     1
102
RTVSPost2010Prop36
280
     0
102
RTVSPost2010PropOp36
 70
     1
102
RTVSPost2010Prop37
 90
       50
102
RTVSPost2010PropOp37
 70
     1
102
RTVSPost2010Prop38
140
0.0
102
RTVSPost2010PropOp38
 70
     1
102
RTVSPost2010Prop39
140
1.0
102
RTVSPost2010PropOp39
 70
     1
102
RTVSPost2010Prop40
 90
        0
102
RTVSPost2010PropOp40
 70
     1
102
RTVSPost2010Prop41ColorIndex
 90
       18
102
RTVSPost2010Prop41ColorRGB
 90
        0
102
RTVSPost2010PropOp41
 70
     1
102
RTVSPost2010Prop42
 90
       50
102
RTVSPost2010PropOp42
 70
     1
102
RTVSPost2010Prop43
 90
        3
102
RTVSPost2010PropOp43
 70
     1
102
RTVSPost2010Prop44ColorIndex
 90
        5
102
RTVSPost2010Prop44ColorRGB
 90
      255
102
RTVSPost2010PropOp44
 70
     1
102
RTVSPost2010Prop45
280
     0
102
RTVSPost2010PropOp45
 70
     1
102
RTVSPost2010Prop46
 90
       50
102
RTVSPost2010PropOp46
 70
     1
102
RTVSPost2010Prop47
 90
       50
102
RTVSPost2010PropOp47
 70
     1
102
RTVSPost2010Prop48
 90
       50
102
RTVSPost2010PropOp48
 70
     1
102
RTVSPost2010Prop49
280
     0
102
RTVSPost2010PropOp49
 70
     1
102
RTVSPost2010Prop50
 90
       50
102
RTVSPost2010PropOp50
 70
     1
102
RTVSPost2010Prop51ColorIndex
 90
      256
102
RTVSPost2010Prop51ColorRGB
 90
-16777216
102
RTVSPost2010PropOp51
 70
     0
102
RTVSPost2010Prop52
140
1.0
102
RTVSPost2010PropOp52
 70
     0
102
RTVSPost2010Prop53
 90
        2
102
RTVSPost2010PropOp53
 70
     1
102
RTVSPost2010Prop54
  1
strokes_ogs.tif
102
RTVSPost2010PropOp54
 70
     1
102
RTVSPost2010Prop55
280
     0
102
RTVSPost2010PropOp55
 70
     1
102
RTVSPost2010Prop56
140
1.0
102
RTVSPost2010PropOp56
 70
     1
102
RTVSPost2010Prop57
140
1.0
102
RTVSPost2010PropOp57
 70
     1
  0
XRECORD
  5
375
102
{ACAD_REACTORS
330
374
102
}
330
374
100
AcDbXrecord
280
     1
102
RTVSPost2010Prop28
280
     0
102
RTVSPost2010PropOp28
 70
     1
102
RTVSPost2010Prop29
280
     1
102
RTVSPost2010PropOp29
 70
     1
102
RTVSPost2010Prop30
280
     1
102
RTVSPost2010PropOp30
 70
     1
102
RTVSPost2010Prop31
280
     0
102
RTVSPost2010PropOp31
 70
     1
102
RTVSPost2010Prop32
280
     0
102
RTVSPost2010PropOp32
 70
     1
102
RTVSPost2010Prop33
280
     0
102
RTVSPost2010PropOp33
 70
     1
102
RTVSPost2010Prop34
280
     0
102
RTVSPost2010PropOp34
 70
     1
102
RTVSPost2010Prop35
280
     0
102
RTVSPost2010PropOp35
 70
     1
102
RTVSPost2010Prop36
280
     0
102
RTVSPost2010PropOp36
 70
     1
102
RTVSPost2010Prop37
 90
       50
102
RTVSPost2010PropOp37
 70
     1
102
RTVSPost2010Prop38
140
0.0
102
RTVSPost2010PropOp38
 70
     1
102
RTVSPost2010Prop39
140
1.0
102
RTVSPost2010PropOp39
 70
     1
102
RTVSPost2010Prop40
 90
        0
102
RTVSPost2010PropOp40
 70
     1
102
RTVSPost2010Prop41ColorIndex
 90
       18
102
RTVSPost2010Prop41ColorRGB
 90
        0
102
RTVSPost2010PropOp41
 70
     1
102
RTVSPost2010Prop42
 90
       50
102
RTVSPost2010PropOp42
 70
     1
102
RTVSPost2010Prop43
 90
        3
102
RTVSPost2010PropOp43
 70
     1
102
RTVSPost2010Prop44ColorIndex
 90
        5
102
RTVSPost2010Prop44ColorRGB
 90
      255
102
RTVSPost2010PropOp44
 70
     1
102
RTVSPost2010Prop45
280
     0
102
RTVSPost2010PropOp45
 70
     1
102
RTVSPost2010Prop46
 90
       50
102
RTVSPost2010PropOp46
 70
     1
102
RTVSPost2010Prop47
 90
       50
102
RTVSPost2010PropOp47
 70
     1
102
RTVSPost2010Prop48
 90
       50
102
RTVSPost2010PropOp48
 70
     1
102
RTVSPost2010Prop49
280
     0
102
RTVSPost2010PropOp49
 70
     1
102
RTVSPost2010Prop50
 90
       50
102
RTVSPost2010PropOp50
 70
     1
102
RTVSPost2010Prop51ColorIndex
 90
      256
102
RTVSPost2010Prop51ColorRGB
 90
-16777216
102
RTVSPost2010PropOp51
 70
     0
102
RTVSPost2010Prop52
140
1.0
102
RTVSPost2010PropOp52
 70
     0
102
RTVSPost2010Prop53
 90
        2
102
RTVSPost2010PropOp53
 70
     1
102
RTVSPost2010Prop54
  1
strokes_ogs.tif
102
RTVSPost2010PropOp54
 70
     1
102
RTVSPost2010Prop55
280
     0
102
RTVSPost2010PropOp55
 70
     1
102
RTVSPost2010Prop56
140
1.0
102
RTVSPost2010PropOp56
 70
     1
102
RTVSPost2010Prop57
140
1.0
102
RTVSPost2010PropOp57
 70
     1
  0
XRECORD
  5
377
102
{ACAD_REACTORS
330
376
102
}
330
376
100
AcDbXrecord
280
     1
102
RTVSPost2010Prop28
280
     0
102
RTVSPost2010PropOp28
 70
     1
102
RTVSPost2010Prop29
280
     1
102
RTVSPost2010PropOp29
 70
     1
102
RTVSPost2010Prop30
280
     1
102
RTVSPost2010PropOp30
 70
     1
102
RTVSPost2010Prop31
280
     0
102
RTVSPost2010PropOp31
 70
     1
102
RTVSPost2010Prop32
280
     0
102
RTVSPost2010PropOp32
 70
     1
102
RTVSPost2010Prop33
280
     0
102
RTVSPost2010PropOp33
 70
     1
102
RTVSPost2010Prop34
280
     0
102
RTVSPost2010PropOp34
 70
     1
102
RTVSPost2010Prop35
280
     0
102
RTVSPost2010PropOp35
 70
     1
102
RTVSPost2010Prop36
280
     0
102
RTVSPost2010PropOp36
 70
     1
102
RTVSPost2010Prop37
 90
       50
102
RTVSPost2010PropOp37
 70
     1
102
RTVSPost2010Prop38
140
0.0
102
RTVSPost2010PropOp38
 70
     1
102
RTVSPost2010Prop39
140
1.0
102
RTVSPost2010PropOp39
 70
     1
102
RTVSPost2010Prop40
 90
        0
102
RTVSPost2010PropOp40
 70
     1
102
RTVSPost2010Prop41ColorIndex
 90
       18
102
RTVSPost2010Prop41ColorRGB
 90
        0
102
RTVSPost2010PropOp41
 70
     1
102
RTVSPost2010Prop42
 90
       50
102
RTVSPost2010PropOp42
 70
     1
102
RTVSPost2010Prop43
 90
        3
102
RTVSPost2010PropOp43
 70
     1
102
RTVSPost2010Prop44ColorIndex
 90
        5
102
RTVSPost2010Prop44ColorRGB
 90
      255
102
RTVSPost2010PropOp44
 70
     1
102
RTVSPost2010Prop45
280
     0
102
RTVSPost2010PropOp45
 70
     1
102
RTVSPost2010Prop46
 90
       50
102
RTVSPost2010PropOp46
 70
     1
102
RTVSPost2010Prop47
 90
       50
102
RTVSPost2010PropOp47
 70
     1
102
RTVSPost2010Prop48
 90
       50
102
RTVSPost2010PropOp48
 70
     1
102
RTVSPost2010Prop49
280
     0
102
RTVSPost2010PropOp49
 70
     1
102
RTVSPost2010Prop50
 90
       50
102
RTVSPost2010PropOp50
 70
     1
102
RTVSPost2010Prop51ColorIndex
 90
      256
102
RTVSPost2010Prop51ColorRGB
 90
-16777216
102
RTVSPost2010PropOp51
 70
     0
102
RTVSPost2010Prop52
140
1.0
102
RTVSPost2010PropOp52
 70
     0
102
RTVSPost2010Prop53
 90
        2
102
RTVSPost2010PropOp53
 70
     1
102
RTVSPost2010Prop54
  1
strokes_ogs.tif
102
RTVSPost2010PropOp54
 70
     1
102
RTVSPost2010Prop55
280
     0
102
RTVSPost2010PropOp55
 70
     1
102
RTVSPost2010Prop56
140
1.0
102
RTVSPost2010PropOp56
 70
     1
102
RTVSPost2010Prop57
140
1.0
102
RTVSPost2010PropOp57
 70
     1
  0
XRECORD
  5
387
102
{ACAD_REACTORS
330
386
102
}
330
386
100
AcDbXrecord
280
     1
102
RTVSPost2010Prop28
280
     0
102
RTVSPost2010PropOp28
 70
     0
102
RTVSPost2010Prop29
280
     1
102
RTVSPost2010PropOp29
 70
     0
102
RTVSPost2010Prop30
280
     1
102
RTVSPost2010PropOp30
 70
     0
102
RTVSPost2010Prop31
280
     0
102
RTVSPost2010PropOp31
 70
     0
102
RTVSPost2010Prop32
280
     0
102
RTVSPost2010PropOp32
 70
     0
102
RTVSPost2010Prop33
280
     0
102
RTVSPost2010PropOp33
 70
     0
102
RTVSPost2010Prop34
280
     0
102
RTVSPost2010PropOp34
 70
     0
102
RTVSPost2010Prop35
280
     0
102
RTVSPost2010PropOp35
 70
     0
102
RTVSPost2010Prop36
280
     0
102
RTVSPost2010PropOp36
 70
     0
102
RTVSPost2010Prop37
 90
       50
102
RTVSPost2010PropOp37
 70
     0
102
RTVSPost2010Prop38
140
0.0
102
RTVSPost2010PropOp38
 70
     0
102
RTVSPost2010Prop39
140
1.0
102
RTVSPost2010PropOp39
 70
     0
102
RTVSPost2010Prop40
 90
        0
102
RTVSPost2010PropOp40
 70
     0
102
RTVSPost2010Prop41ColorIndex
 90
       18
102
RTVSPost2010Prop41ColorRGB
 90
        0
102
RTVSPost2010PropOp41
 70
     0
102
RTVSPost2010Prop42
 90
       50
102
RTVSPost2010PropOp42
 70
     0
102
RTVSPost2010Prop43
 90
        3
102
RTVSPost2010PropOp43
 70
     0
102
RTVSPost2010Prop44ColorIndex
 90
        5
102
RTVSPost2010Prop44ColorRGB
 90
      255
102
RTVSPost2010PropOp44
 70
     0
102
RTVSPost2010Prop45
280
     0
102
RTVSPost2010PropOp45
 70
     0
102
RTVSPost2010Prop46
 90
       50
102
RTVSPost2010PropOp46
 70
     0
102
RTVSPost2010Prop47
 90
       50
102
RTVSPost2010PropOp47
 70
     0
102
RTVSPost2010Prop48
 90
       50
102
RTVSPost2010PropOp48
 70
     0
102
RTVSPost2010Prop49
280
     0
102
RTVSPost2010PropOp49
 70
     0
102
RTVSPost2010Prop50
 90
       50
102
RTVSPost2010PropOp50
 70
     0
102
RTVSPost2010Prop51ColorIndex
 90
      256
102
RTVSPost2010Prop51ColorRGB
 90
-16777216
102
RTVSPost2010PropOp51
 70
     0
102
RTVSPost2010Prop52
140
1.0
102
RTVSPost2010PropOp52
 70
     0
102
RTVSPost2010Prop53
 90
        2
102
RTVSPost2010PropOp53
 70
     0
102
RTVSPost2010Prop54
  1
strokes_ogs.tif
102
RTVSPost2010PropOp54
 70
     0
102
RTVSPost2010Prop55
280
     0
102
RTVSPost2010PropOp55
 70
     0
102
RTVSPost2010Prop56
140
1.0
102
RTVSPost2010PropOp56
 70
     0
102
RTVSPost2010Prop57
140
1.0
102
RTVSPost2010PropOp57
 70
     0
  0
XRECORD
  5
37F
102
{ACAD_REACTORS
330
37E
102
}
330
37E
100
AcDbXrecord
280
     1
102
RTVSPost2010Prop28
280
     0
102
RTVSPost2010PropOp28
 70
     1
102
RTVSPost2010Prop29
280
     1
102
RTVSPost2010PropOp29
 70
     1
102
RTVSPost2010Prop30
280
     1
102
RTVSPost2010PropOp30
 70
     1
102
RTVSPost2010Prop31
280
     0
102
RTVSPost2010PropOp31
 70
     1
102
RTVSPost2010Prop32
280
     0
102
RTVSPost2010PropOp32
 70
     1
102
RTVSPost2010Prop33
280
     0
102
RTVSPost2010PropOp33
 70
     1
102
RTVSPost2010Prop34
280
     0
102
RTVSPost2010PropOp34
 70
     1
102
RTVSPost2010Prop35
280
     0
102
RTVSPost2010PropOp35
 70
     1
102
RTVSPost2010Prop36
280
     0
102
RTVSPost2010PropOp36
 70
     1
102
RTVSPost2010Prop37
 90
       50
102
RTVSPost2010PropOp37
 70
     1
102
RTVSPost2010Prop38
140
0.0
102
RTVSPost2010PropOp38
 70
     1
102
RTVSPost2010Prop39
140
1.0
102
RTVSPost2010PropOp39
 70
     1
102
RTVSPost2010Prop40
 90
        0
102
RTVSPost2010PropOp40
 70
     1
102
RTVSPost2010Prop41ColorIndex
 90
       18
102
RTVSPost2010Prop41ColorRGB
 90
        0
102
RTVSPost2010PropOp41
 70
     1
102
RTVSPost2010Prop42
 90
       50
102
RTVSPost2010PropOp42
 70
     1
102
RTVSPost2010Prop43
 90
        3
102
RTVSPost2010PropOp43
 70
     1
102
RTVSPost2010Prop44ColorIndex
 90
        5
102
RTVSPost2010Prop44ColorRGB
 90
      255
102
RTVSPost2010PropOp44
 70
     1
102
RTVSPost2010Prop45
280
     0
102
RTVSPost2010PropOp45
 70
     1
102
RTVSPost2010Prop46
 90
       50
102
RTVSPost2010PropOp46
 70
     1
102
RTVSPost2010Prop47
 90
       50
102
RTVSPost2010PropOp47
 70
     1
102
RTVSPost2010Prop48
 90
       50
102
RTVSPost2010PropOp48
 70
     1
102
RTVSPost2010Prop49
280
     0
102
RTVSPost2010PropOp49
 70
     1
102
RTVSPost2010Prop50
 90
       50
102
RTVSPost2010PropOp50
 70
     1
102
RTVSPost2010Prop51ColorIndex
 90
      256
102
RTVSPost2010Prop51ColorRGB
 90
-16777216
102
RTVSPost2010PropOp51
 70
     0
102
RTVSPost2010Prop52
140
1.0
102
RTVSPost2010PropOp52
 70
     0
102
RTVSPost2010Prop53
 90
        2
102
RTVSPost2010PropOp53
 70
     1
102
RTVSPost2010Prop54
  1
strokes_ogs.tif
102
RTVSPost2010PropOp54
 70
     1
102
RTVSPost2010Prop55
280
     0
102
RTVSPost2010PropOp55
 70
     1
102
RTVSPost2010Prop56
140
1.0
102
RTVSPost2010PropOp56
 70
     1
102
RTVSPost2010Prop57
140
1.0
102
RTVSPost2010PropOp57
 70
     1
  0
XRECORD
  5
363
102
{ACAD_REACTORS
330
362
102
}
330
362
100
AcDbXrecord
280
     1
102
RTVSPost2010Prop28
280
     0
102
RTVSPost2010PropOp28
 70
     1
102
RTVSPost2010Prop29
280
     1
102
RTVSPost2010PropOp29
 70
     1
102
RTVSPost2010Prop30
280
     1
102
RTVSPost2010PropOp30
 70
     1
102
RTVSPost2010Prop31
280
     0
102
RTVSPost2010PropOp31
 70
     1
102
RTVSPost2010Prop32
280
     0
102
RTVSPost2010PropOp32
 70
     1
102
RTVSPost2010Prop33
280
     0
102
RTVSPost2010PropOp33
 70
     1
102
RTVSPost2010Prop34
280
     0
102
RTVSPost2010PropOp34
 70
     1
102
RTVSPost2010Prop35
280
     0
102
RTVSPost2010PropOp35
 70
     1
102
RTVSPost2010Prop36
280
     0
102
RTVSPost2010PropOp36
 70
     1
102
RTVSPost2010Prop37
 90
       50
102
RTVSPost2010PropOp37
 70
     1
102
RTVSPost2010Prop38
140
0.0
102
RTVSPost2010PropOp38
 70
     1
102
RTVSPost2010Prop39
140
1.0
102
RTVSPost2010PropOp39
 70
     1
102
RTVSPost2010Prop40
 90
        0
102
RTVSPost2010PropOp40
 70
     1
102
RTVSPost2010Prop41ColorIndex
 90
       18
102
RTVSPost2010Prop41ColorRGB
 90
        0
102
RTVSPost2010PropOp41
 70
     1
102
RTVSPost2010Prop42
 90
       50
102
RTVSPost2010PropOp42
 70
     1
102
RTVSPost2010Prop43
 90
        3
102
RTVSPost2010PropOp43
 70
     1
102
RTVSPost2010Prop44ColorIndex
 90
        5
102
RTVSPost2010Prop44ColorRGB
 90
      255
102
RTVSPost2010PropOp44
 70
     1
102
RTVSPost2010Prop45
280
     0
102
RTVSPost2010PropOp45
 70
     1
102
RTVSPost2010Prop46
 90
       50
102
RTVSPost2010PropOp46
 70
     1
102
RTVSPost2010Prop47
 90
       50
102
RTVSPost2010PropOp47
 70
     1
102
RTVSPost2010Prop48
 90
       50
102
RTVSPost2010PropOp48
 70
     1
102
RTVSPost2010Prop49
280
     0
102
RTVSPost2010PropOp49
 70
     1
102
RTVSPost2010Prop50
 90
       50
102
RTVSPost2010PropOp50
 70
     1
102
RTVSPost2010Prop51ColorIndex
 90
      256
102
RTVSPost2010Prop51ColorRGB
 90
-16777216
102
RTVSPost2010PropOp51
 70
     0
102
RTVSPost2010Prop52
140
1.0
102
RTVSPost2010PropOp52
 70
     0
102
RTVSPost2010Prop53
 90
        2
102
RTVSPost2010PropOp53
 70
     1
102
RTVSPost2010Prop54
  1
strokes_ogs.tif
102
RTVSPost2010PropOp54
 70
     1
102
RTVSPost2010Prop55
280
     0
102
RTVSPost2010PropOp55
 70
     1
102
RTVSPost2010Prop56
140
1.0
102
RTVSPost2010PropOp56
 70
     1
102
RTVSPost2010Prop57
140
1.0
102
RTVSPost2010PropOp57
 70
     1
  0
XRECORD
  5
365
102
{ACAD_REACTORS
330
364
102
}
330
364
100
AcDbXrecord
280
     1
102
RTVSPost2010Prop28
280
     0
102
RTVSPost2010PropOp28
 70
     1
102
RTVSPost2010Prop29
280
     1
102
RTVSPost2010PropOp29
 70
     1
102
RTVSPost2010Prop30
280
     1
102
RTVSPost2010PropOp30
 70
     1
102
RTVSPost2010Prop31
280
     0
102
RTVSPost2010PropOp31
 70
     1
102
RTVSPost2010Prop32
280
     0
102
RTVSPost2010PropOp32
 70
     1
102
RTVSPost2010Prop33
280
     0
102
RTVSPost2010PropOp33
 70
     1
102
RTVSPost2010Prop34
280
     0
102
RTVSPost2010PropOp34
 70
     1
102
RTVSPost2010Prop35
280
     0
102
RTVSPost2010PropOp35
 70
     1
102
RTVSPost2010Prop36
280
     0
102
RTVSPost2010PropOp36
 70
     1
102
RTVSPost2010Prop37
 90
       50
102
RTVSPost2010PropOp37
 70
     1
102
RTVSPost2010Prop38
140
0.0
102
RTVSPost2010PropOp38
 70
     1
102
RTVSPost2010Prop39
140
1.0
102
RTVSPost2010PropOp39
 70
     1
102
RTVSPost2010Prop40
 90
        0
102
RTVSPost2010PropOp40
 70
     1
102
RTVSPost2010Prop41ColorIndex
 90
       18
102
RTVSPost2010Prop41ColorRGB
 90
        0
102
RTVSPost2010PropOp41
 70
     1
102
RTVSPost2010Prop42
 90
       50
102
RTVSPost2010PropOp42
 70
     1
102
RTVSPost2010Prop43
 90
        3
102
RTVSPost2010PropOp43
 70
     1
102
RTVSPost2010Prop44ColorIndex
 90
        5
102
RTVSPost2010Prop44ColorRGB
 90
      255
102
RTVSPost2010PropOp44
 70
     1
102
RTVSPost2010Prop45
280
     0
102
RTVSPost2010PropOp45
 70
     1
102
RTVSPost2010Prop46
 90
       50
102
RTVSPost2010PropOp46
 70
     1
102
RTVSPost2010Prop47
 90
       50
102
RTVSPost2010PropOp47
 70
     1
102
RTVSPost2010Prop48
 90
       50
102
RTVSPost2010PropOp48
 70
     1
102
RTVSPost2010Prop49
280
     0
102
RTVSPost2010PropOp49
 70
     1
102
RTVSPost2010Prop50
 90
       50
102
RTVSPost2010PropOp50
 70
     1
102
RTVSPost2010Prop51ColorIndex
 90
      256
102
RTVSPost2010Prop51ColorRGB
 90
-16777216
102
RTVSPost2010PropOp51
 70
     0
102
RTVSPost2010Prop52
140
1.0
102
RTVSPost2010PropOp52
 70
     0
102
RTVSPost2010Prop53
 90
        2
102
RTVSPost2010PropOp53
 70
     1
102
RTVSPost2010Prop54
  1
strokes_ogs.tif
102
RTVSPost2010PropOp54
 70
     1
102
RTVSPost2010Prop55
280
     0
102
RTVSPost2010PropOp55
 70
     1
102
RTVSPost2010Prop56
140
1.0
102
RTVSPost2010PropOp56
 70
     1
102
RTVSPost2010Prop57
140
1.0
102
RTVSPost2010PropOp57
 70
     1
  0
XRECORD
  5
367
102
{ACAD_REACTORS
330
366
102
}
330
366
100
AcDbXrecord
280
     1
102
RTVSPost2010Prop28
280
     0
102
RTVSPost2010PropOp28
 70
     1
102
RTVSPost2010Prop29
280
     1
102
RTVSPost2010PropOp29
 70
     1
102
RTVSPost2010Prop30
280
     1
102
RTVSPost2010PropOp30
 70
     1
102
RTVSPost2010Prop31
280
     0
102
RTVSPost2010PropOp31
 70
     1
102
RTVSPost2010Prop32
280
     0
102
RTVSPost2010PropOp32
 70
     1
102
RTVSPost2010Prop33
280
     0
102
RTVSPost2010PropOp33
 70
     1
102
RTVSPost2010Prop34
280
     0
102
RTVSPost2010PropOp34
 70
     1
102
RTVSPost2010Prop35
280
     0
102
RTVSPost2010PropOp35
 70
     1
102
RTVSPost2010Prop36
280
     0
102
RTVSPost2010PropOp36
 70
     1
102
RTVSPost2010Prop37
 90
       50
102
RTVSPost2010PropOp37
 70
     1
102
RTVSPost2010Prop38
140
0.0
102
RTVSPost2010PropOp38
 70
     1
102
RTVSPost2010Prop39
140
1.0
102
RTVSPost2010PropOp39
 70
     1
102
RTVSPost2010Prop40
 90
        0
102
RTVSPost2010PropOp40
 70
     1
102
RTVSPost2010Prop41ColorIndex
 90
       18
102
RTVSPost2010Prop41ColorRGB
 90
        0
102
RTVSPost2010PropOp41
 70
     1
102
RTVSPost2010Prop42
 90
       50
102
RTVSPost2010PropOp42
 70
     1
102
RTVSPost2010Prop43
 90
        3
102
RTVSPost2010PropOp43
 70
     1
102
RTVSPost2010Prop44ColorIndex
 90
        5
102
RTVSPost2010Prop44ColorRGB
 90
      255
102
RTVSPost2010PropOp44
 70
     1
102
RTVSPost2010Prop45
280
     0
102
RTVSPost2010PropOp45
 70
     1
102
RTVSPost2010Prop46
 90
       50
102
RTVSPost2010PropOp46
 70
     1
102
RTVSPost2010Prop47
 90
       50
102
RTVSPost2010PropOp47
 70
     1
102
RTVSPost2010Prop48
 90
       50
102
RTVSPost2010PropOp48
 70
     1
102
RTVSPost2010Prop49
280
     0
102
RTVSPost2010PropOp49
 70
     1
102
RTVSPost2010Prop50
 90
       50
102
RTVSPost2010PropOp50
 70
     1
102
RTVSPost2010Prop51ColorIndex
 90
      256
102
RTVSPost2010Prop51ColorRGB
 90
-16777216
102
RTVSPost2010PropOp51
 70
     0
102
RTVSPost2010Prop52
140
1.0
102
RTVSPost2010PropOp52
 70
     0
102
RTVSPost2010Prop53
 90
        2
102
RTVSPost2010PropOp53
 70
     1
102
RTVSPost2010Prop54
  1
strokes_ogs.tif
102
RTVSPost2010PropOp54
 70
     1
102
RTVSPost2010Prop55
280
     0
102
RTVSPost2010PropOp55
 70
     1
102
RTVSPost2010Prop56
140
1.0
102
RTVSPost2010PropOp56
 70
     1
102
RTVSPost2010Prop57
140
1.0
102
RTVSPost2010PropOp57
 70
     1
  0
XRECORD
  5
369
102
{ACAD_REACTORS
330
368
102
}
330
368
100
AcDbXrecord
280
     1
102
RTVSPost2010Prop28
280
     0
102
RTVSPost2010PropOp28
 70
     1
102
RTVSPost2010Prop29
280
     1
102
RTVSPost2010PropOp29
 70
     1
102
RTVSPost2010Prop30
280
     1
102
RTVSPost2010PropOp30
 70
     1
102
RTVSPost2010Prop31
280
     0
102
RTVSPost2010PropOp31
 70
     1
102
RTVSPost2010Prop32
280
     0
102
RTVSPost2010PropOp32
 70
     1
102
RTVSPost2010Prop33
280
     0
102
RTVSPost2010PropOp33
 70
     1
102
RTVSPost2010Prop34
280
     0
102
RTVSPost2010PropOp34
 70
     1
102
RTVSPost2010Prop35
280
     0
102
RTVSPost2010PropOp35
 70
     1
102
RTVSPost2010Prop36
280
     0
102
RTVSPost2010PropOp36
 70
     1
102
RTVSPost2010Prop37
 90
       50
102
RTVSPost2010PropOp37
 70
     1
102
RTVSPost2010Prop38
140
0.0
102
RTVSPost2010PropOp38
 70
     1
102
RTVSPost2010Prop39
140
1.0
102
RTVSPost2010PropOp39
 70
     1
102
RTVSPost2010Prop40
 90
        0
102
RTVSPost2010PropOp40
 70
     1
102
RTVSPost2010Prop41ColorIndex
 90
       18
102
RTVSPost2010Prop41ColorRGB
 90
        0
102
RTVSPost2010PropOp41
 70
     1
102
RTVSPost2010Prop42
 90
       50
102
RTVSPost2010PropOp42
 70
     1
102
RTVSPost2010Prop43
 90
        3
102
RTVSPost2010PropOp43
 70
     1
102
RTVSPost2010Prop44ColorIndex
 90
        5
102
RTVSPost2010Prop44ColorRGB
 90
      255
102
RTVSPost2010PropOp44
 70
     1
102
RTVSPost2010Prop45
280
     0
102
RTVSPost2010PropOp45
 70
     1
102
RTVSPost2010Prop46
 90
       50
102
RTVSPost2010PropOp46
 70
     1
102
RTVSPost2010Prop47
 90
       50
102
RTVSPost2010PropOp47
 70
     1
102
RTVSPost2010Prop48
 90
       50
102
RTVSPost2010PropOp48
 70
     1
102
RTVSPost2010Prop49
280
     0
102
RTVSPost2010PropOp49
 70
     1
102
RTVSPost2010Prop50
 90
       50
102
RTVSPost2010PropOp50
 70
     1
102
RTVSPost2010Prop51ColorIndex
 90
      256
102
RTVSPost2010Prop51ColorRGB
 90
-16777216
102
RTVSPost2010PropOp51
 70
     0
102
RTVSPost2010Prop52
140
1.0
102
RTVSPost2010PropOp52
 70
     0
102
RTVSPost2010Prop53
 90
        2
102
RTVSPost2010PropOp53
 70
     1
102
RTVSPost2010Prop54
  1
strokes_ogs.tif
102
RTVSPost2010PropOp54
 70
     1
102
RTVSPost2010Prop55
280
     0
102
RTVSPost2010PropOp55
 70
     1
102
RTVSPost2010Prop56
140
1.0
102
RTVSPost2010PropOp56
 70
     1
102
RTVSPost2010Prop57
140
1.0
102
RTVSPost2010PropOp57
 70
     1
  0
XRECORD
  5
36F
102
{ACAD_REACTORS
330
36E
102
}
330
36E
100
AcDbXrecord
280
     1
102
RTVSPost2010Prop28
280
     0
102
RTVSPost2010PropOp28
 70
     1
102
RTVSPost2010Prop29
280
     1
102
RTVSPost2010PropOp29
 70
     1
102
RTVSPost2010Prop30
280
     1
102
RTVSPost2010PropOp30
 70
     1
102
RTVSPost2010Prop31
280
     0
102
RTVSPost2010PropOp31
 70
     1
102
RTVSPost2010Prop32
280
     0
102
RTVSPost2010PropOp32
 70
     1
102
RTVSPost2010Prop33
280
     0
102
RTVSPost2010PropOp33
 70
     1
102
RTVSPost2010Prop34
280
     0
102
RTVSPost2010PropOp34
 70
     1
102
RTVSPost2010Prop35
280
     0
102
RTVSPost2010PropOp35
 70
     1
102
RTVSPost2010Prop36
280
     0
102
RTVSPost2010PropOp36
 70
     1
102
RTVSPost2010Prop37
 90
       50
102
RTVSPost2010PropOp37
 70
     1
102
RTVSPost2010Prop38
140
0.0
102
RTVSPost2010PropOp38
 70
     1
102
RTVSPost2010Prop39
140
1.0
102
RTVSPost2010PropOp39
 70
     1
102
RTVSPost2010Prop40
 90
        0
102
RTVSPost2010PropOp40
 70
     1
102
RTVSPost2010Prop41ColorIndex
 90
       18
102
RTVSPost2010Prop41ColorRGB
 90
        0
102
RTVSPost2010PropOp41
 70
     1
102
RTVSPost2010Prop42
 90
       50
102
RTVSPost2010PropOp42
 70
     1
102
RTVSPost2010Prop43
 90
        3
102
RTVSPost2010PropOp43
 70
     1
102
RTVSPost2010Prop44ColorIndex
 90
        5
102
RTVSPost2010Prop44ColorRGB
 90
      255
102
RTVSPost2010PropOp44
 70
     1
102
RTVSPost2010Prop45
280
     0
102
RTVSPost2010PropOp45
 70
     1
102
RTVSPost2010Prop46
 90
       50
102
RTVSPost2010PropOp46
 70
     1
102
RTVSPost2010Prop47
 90
       50
102
RTVSPost2010PropOp47
 70
     1
102
RTVSPost2010Prop48
 90
       50
102
RTVSPost2010PropOp48
 70
     1
102
RTVSPost2010Prop49
280
     0
102
RTVSPost2010PropOp49
 70
     1
102
RTVSPost2010Prop50
 90
       50
102
RTVSPost2010PropOp50
 70
     1
102
RTVSPost2010Prop51ColorIndex
 90
      256
102
RTVSPost2010Prop51ColorRGB
 90
-16777216
102
RTVSPost2010PropOp51
 70
     0
102
RTVSPost2010Prop52
140
1.0
102
RTVSPost2010PropOp52
 70
     0
102
RTVSPost2010Prop53
 90
        2
102
RTVSPost2010PropOp53
 70
     1
102
RTVSPost2010Prop54
  1
strokes_ogs.tif
102
RTVSPost2010PropOp54
 70
     1
102
RTVSPost2010Prop55
280
     0
102
RTVSPost2010PropOp55
 70
     1
102
RTVSPost2010Prop56
140
1.0
102
RTVSPost2010PropOp56
 70
     1
102
RTVSPost2010Prop57
140
1.0
102
RTVSPost2010PropOp57
 70
     1
  0
XRECORD
  5
383
102
{ACAD_REACTORS
330
382
102
}
330
382
100
AcDbXrecord
280
     1
102
RTVSPost2010Prop28
280
     0
102
RTVSPost2010PropOp28
 70
     0
102
RTVSPost2010Prop29
280
     1
102
RTVSPost2010PropOp29
 70
     0
102
RTVSPost2010Prop30
280
     1
102
RTVSPost2010PropOp30
 70
     0
102
RTVSPost2010Prop31
280
     0
102
RTVSPost2010PropOp31
 70
     0
102
RTVSPost2010Prop32
280
     0
102
RTVSPost2010PropOp32
 70
     0
102
RTVSPost2010Prop33
280
     0
102
RTVSPost2010PropOp33
 70
     0
102
RTVSPost2010Prop34
280
     0
102
RTVSPost2010PropOp34
 70
     0
102
RTVSPost2010Prop35
280
     0
102
RTVSPost2010PropOp35
 70
     0
102
RTVSPost2010Prop36
280
     0
102
RTVSPost2010PropOp36
 70
     0
102
RTVSPost2010Prop37
 90
       50
102
RTVSPost2010PropOp37
 70
     0
102
RTVSPost2010Prop38
140
0.0
102
RTVSPost2010PropOp38
 70
     0
102
RTVSPost2010Prop39
140
1.0
102
RTVSPost2010PropOp39
 70
     0
102
RTVSPost2010Prop40
 90
        0
102
RTVSPost2010PropOp40
 70
     0
102
RTVSPost2010Prop41ColorIndex
 90
       18
102
RTVSPost2010Prop41ColorRGB
 90
        0
102
RTVSPost2010PropOp41
 70
     0
102
RTVSPost2010Prop42
 90
       50
102
RTVSPost2010PropOp42
 70
     0
102
RTVSPost2010Prop43
 90
        3
102
RTVSPost2010PropOp43
 70
     0
102
RTVSPost2010Prop44ColorIndex
 90
        5
102
RTVSPost2010Prop44ColorRGB
 90
      255
102
RTVSPost2010PropOp44
 70
     0
102
RTVSPost2010Prop45
280
     0
102
RTVSPost2010PropOp45
 70
     0
102
RTVSPost2010Prop46
 90
       50
102
RTVSPost2010PropOp46
 70
     0
102
RTVSPost2010Prop47
 90
       50
102
RTVSPost2010PropOp47
 70
     0
102
RTVSPost2010Prop48
 90
       50
102
RTVSPost2010PropOp48
 70
     0
102
RTVSPost2010Prop49
280
     0
102
RTVSPost2010PropOp49
 70
     0
102
RTVSPost2010Prop50
 90
       50
102
RTVSPost2010PropOp50
 70
     0
102
RTVSPost2010Prop51ColorIndex
 90
      256
102
RTVSPost2010Prop51ColorRGB
 90
-16777216
102
RTVSPost2010PropOp51
 70
     0
102
RTVSPost2010Prop52
140
1.0
102
RTVSPost2010PropOp52
 70
     0
102
RTVSPost2010Prop53
 90
        2
102
RTVSPost2010PropOp53
 70
     0
102
RTVSPost2010Prop54
  1
strokes_ogs.tif
102
RTVSPost2010PropOp54
 70
     0
102
RTVSPost2010Prop55
280
     0
102
RTVSPost2010PropOp55
 70
     0
102
RTVSPost2010Prop56
140
1.0
102
RTVSPost2010PropOp56
 70
     0
102
RTVSPost2010Prop57
140
1.0
102
RTVSPost2010PropOp57
 70
     0
  0
XRECORD
  5
37D
102
{ACAD_REACTORS
330
37C
102
}
330
37C
100
AcDbXrecord
280
     1
102
RTVSPost2010Prop28
280
     0
102
RTVSPost2010PropOp28
 70
     1
102
RTVSPost2010Prop29
280
     1
102
RTVSPost2010PropOp29
 70
     1
102
RTVSPost2010Prop30
280
     1
102
RTVSPost2010PropOp30
 70
     1
102
RTVSPost2010Prop31
280
     0
102
RTVSPost2010PropOp31
 70
     1
102
RTVSPost2010Prop32
280
     0
102
RTVSPost2010PropOp32
 70
     1
102
RTVSPost2010Prop33
280
     0
102
RTVSPost2010PropOp33
 70
     1
102
RTVSPost2010Prop34
280
     0
102
RTVSPost2010PropOp34
 70
     1
102
RTVSPost2010Prop35
280
     0
102
RTVSPost2010PropOp35
 70
     1
102
RTVSPost2010Prop36
280
     0
102
RTVSPost2010PropOp36
 70
     1
102
RTVSPost2010Prop37
 90
       50
102
RTVSPost2010PropOp37
 70
     1
102
RTVSPost2010Prop38
140
0.0
102
RTVSPost2010PropOp38
 70
     1
102
RTVSPost2010Prop39
140
1.0
102
RTVSPost2010PropOp39
 70
     1
102
RTVSPost2010Prop40
 90
        0
102
RTVSPost2010PropOp40
 70
     1
102
RTVSPost2010Prop41ColorIndex
 90
       18
102
RTVSPost2010Prop41ColorRGB
 90
        0
102
RTVSPost2010PropOp41
 70
     1
102
RTVSPost2010Prop42
 90
       50
102
RTVSPost2010PropOp42
 70
     1
102
RTVSPost2010Prop43
 90
        3
102
RTVSPost2010PropOp43
 70
     1
102
RTVSPost2010Prop44ColorIndex
 90
        5
102
RTVSPost2010Prop44ColorRGB
 90
      255
102
RTVSPost2010PropOp44
 70
     1
102
RTVSPost2010Prop45
280
     0
102
RTVSPost2010PropOp45
 70
     1
102
RTVSPost2010Prop46
 90
       50
102
RTVSPost2010PropOp46
 70
     1
102
RTVSPost2010Prop47
 90
       50
102
RTVSPost2010PropOp47
 70
     1
102
RTVSPost2010Prop48
 90
       50
102
RTVSPost2010PropOp48
 70
     1
102
RTVSPost2010Prop49
280
     0
102
RTVSPost2010PropOp49
 70
     1
102
RTVSPost2010Prop50
 90
       50
102
RTVSPost2010PropOp50
 70
     1
102
RTVSPost2010Prop51ColorIndex
 90
      256
102
RTVSPost2010Prop51ColorRGB
 90
-16777216
102
RTVSPost2010PropOp51
 70
     0
102
RTVSPost2010Prop52
140
1.0
102
RTVSPost2010PropOp52
 70
     0
102
RTVSPost2010Prop53
 90
        2
102
RTVSPost2010PropOp53
 70
     1
102
RTVSPost2010Prop54
  1
strokes_ogs.tif
102
RTVSPost2010PropOp54
 70
     1
102
RTVSPost2010Prop55
280
     0
102
RTVSPost2010PropOp55
 70
     1
102
RTVSPost2010Prop56
140
1.0
102
RTVSPost2010PropOp56
 70
     1
102
RTVSPost2010Prop57
140
1.0
102
RTVSPost2010PropOp57
 70
     1
  0
XRECORD
  5
385
102
{ACAD_REACTORS
330
384
102
}
330
384
100
AcDbXrecord
280
     1
102
RTVSPost2010Prop28
280
     0
102
RTVSPost2010PropOp28
 70
     0
102
RTVSPost2010Prop29
280
     1
102
RTVSPost2010PropOp29
 70
     0
102
RTVSPost2010Prop30
280
     1
102
RTVSPost2010PropOp30
 70
     0
102
RTVSPost2010Prop31
280
     0
102
RTVSPost2010PropOp31
 70
     0
102
RTVSPost2010Prop32
280
     0
102
RTVSPost2010PropOp32
 70
     0
102
RTVSPost2010Prop33
280
     0
102
RTVSPost2010PropOp33
 70
     0
102
RTVSPost2010Prop34
280
     0
102
RTVSPost2010PropOp34
 70
     0
102
RTVSPost2010Prop35
280
     0
102
RTVSPost2010PropOp35
 70
     0
102
RTVSPost2010Prop36
280
     0
102
RTVSPost2010PropOp36
 70
     0
102
RTVSPost2010Prop37
 90
       50
102
RTVSPost2010PropOp37
 70
     0
102
RTVSPost2010Prop38
140
0.0
102
RTVSPost2010PropOp38
 70
     0
102
RTVSPost2010Prop39
140
1.0
102
RTVSPost2010PropOp39
 70
     0
102
RTVSPost2010Prop40
 90
        0
102
RTVSPost2010PropOp40
 70
     0
102
RTVSPost2010Prop41ColorIndex
 90
       18
102
RTVSPost2010Prop41ColorRGB
 90
        0
102
RTVSPost2010PropOp41
 70
     0
102
RTVSPost2010Prop42
 90
       50
102
RTVSPost2010PropOp42
 70
     0
102
RTVSPost2010Prop43
 90
        3
102
RTVSPost2010PropOp43
 70
     0
102
RTVSPost2010Prop44ColorIndex
 90
        5
102
RTVSPost2010Prop44ColorRGB
 90
      255
102
RTVSPost2010PropOp44
 70
     0
102
RTVSPost2010Prop45
280
     0
102
RTVSPost2010PropOp45
 70
     0
102
RTVSPost2010Prop46
 90
       50
102
RTVSPost2010PropOp46
 70
     0
102
RTVSPost2010Prop47
 90
       50
102
RTVSPost2010PropOp47
 70
     0
102
RTVSPost2010Prop48
 90
       50
102
RTVSPost2010PropOp48
 70
     0
102
RTVSPost2010Prop49
280
     0
102
RTVSPost2010PropOp49
 70
     0
102
RTVSPost2010Prop50
 90
       50
102
RTVSPost2010PropOp50
 70
     0
102
RTVSPost2010Prop51ColorIndex
 90
      256
102
RTVSPost2010Prop51ColorRGB
 90
-16777216
102
RTVSPost2010PropOp51
 70
     0
102
RTVSPost2010Prop52
140
1.0
102
RTVSPost2010PropOp52
 70
     0
102
RTVSPost2010Prop53
 90
        2
102
RTVSPost2010PropOp53
 70
     0
102
RTVSPost2010Prop54
  1
strokes_ogs.tif
102
RTVSPost2010PropOp54
 70
     0
102
RTVSPost2010Prop55
280
     0
102
RTVSPost2010PropOp55
 70
     0
102
RTVSPost2010Prop56
140
1.0
102
RTVSPost2010PropOp56
 70
     0
102
RTVSPost2010Prop57
140
1.0
102
RTVSPost2010PropOp57
 70
     0
  0
XRECORD
  5
373
102
{ACAD_REACTORS
330
372
102
}
330
372
100
AcDbXrecord
280
     1
102
RTVSPost2010Prop28
280
     0
102
RTVSPost2010PropOp28
 70
     1
102
RTVSPost2010Prop29
280
     1
102
RTVSPost2010PropOp29
 70
     1
102
RTVSPost2010Prop30
280
     1
102
RTVSPost2010PropOp30
 70
     1
102
RTVSPost2010Prop31
280
     0
102
RTVSPost2010PropOp31
 70
     1
102
RTVSPost2010Prop32
280
     0
102
RTVSPost2010PropOp32
 70
     1
102
RTVSPost2010Prop33
280
     0
102
RTVSPost2010PropOp33
 70
     1
102
RTVSPost2010Prop34
280
     0
102
RTVSPost2010PropOp34
 70
     1
102
RTVSPost2010Prop35
280
     0
102
RTVSPost2010PropOp35
 70
     1
102
RTVSPost2010Prop36
280
     0
102
RTVSPost2010PropOp36
 70
     1
102
RTVSPost2010Prop37
 90
       50
102
RTVSPost2010PropOp37
 70
     1
102
RTVSPost2010Prop38
140
0.0
102
RTVSPost2010PropOp38
 70
     1
102
RTVSPost2010Prop39
140
1.0
102
RTVSPost2010PropOp39
 70
     1
102
RTVSPost2010Prop40
 90
        0
102
RTVSPost2010PropOp40
 70
     1
102
RTVSPost2010Prop41ColorIndex
 90
       18
102
RTVSPost2010Prop41ColorRGB
 90
        0
102
RTVSPost2010PropOp41
 70
     1
102
RTVSPost2010Prop42
 90
       50
102
RTVSPost2010PropOp42
 70
     1
102
RTVSPost2010Prop43
 90
        3
102
RTVSPost2010PropOp43
 70
     1
102
RTVSPost2010Prop44ColorIndex
 90
        5
102
RTVSPost2010Prop44ColorRGB
 90
      255
102
RTVSPost2010PropOp44
 70
     1
102
RTVSPost2010Prop45
280
     0
102
RTVSPost2010PropOp45
 70
     1
102
RTVSPost2010Prop46
 90
       50
102
RTVSPost2010PropOp46
 70
     1
102
RTVSPost2010Prop47
 90
       50
102
RTVSPost2010PropOp47
 70
     1
102
RTVSPost2010Prop48
 90
       50
102
RTVSPost2010PropOp48
 70
     1
102
RTVSPost2010Prop49
280
     0
102
RTVSPost2010PropOp49
 70
     1
102
RTVSPost2010Prop50
 90
       50
102
RTVSPost2010PropOp50
 70
     1
102
RTVSPost2010Prop51ColorIndex
 90
      256
102
RTVSPost2010Prop51ColorRGB
 90
-16777216
102
RTVSPost2010PropOp51
 70
     0
102
RTVSPost2010Prop52
140
1.0
102
RTVSPost2010PropOp52
 70
     0
102
RTVSPost2010Prop53
 90
        2
102
RTVSPost2010PropOp53
 70
     1
102
RTVSPost2010Prop54
  1
strokes_ogs.tif
102
RTVSPost2010PropOp54
 70
     1
102
RTVSPost2010Prop55
280
     0
102
RTVSPost2010PropOp55
 70
     1
102
RTVSPost2010Prop56
140
1.0
102
RTVSPost2010PropOp56
 70
     1
102
RTVSPost2010Prop57
140
1.0
102
RTVSPost2010PropOp57
 70
     1
  0
XRECORD
  5
391
102
{ACAD_REACTORS
330
390
102
}
330
390
100
AcDbXrecord
280
     1
102
RTVSPost2010Prop28
280
     0
102
RTVSPost2010PropOp28
 70
     1
102
RTVSPost2010Prop29
280
     1
102
RTVSPost2010PropOp29
 70
     1
102
RTVSPost2010Prop30
280
     1
102
RTVSPost2010PropOp30
 70
     1
102
RTVSPost2010Prop31
280
     0
102
RTVSPost2010PropOp31
 70
     1
102
RTVSPost2010Prop32
280
     0
102
RTVSPost2010PropOp32
 70
     1
102
RTVSPost2010Prop33
280
     0
102
RTVSPost2010PropOp33
 70
     1
102
RTVSPost2010Prop34
280
     0
102
RTVSPost2010PropOp34
 70
     1
102
RTVSPost2010Prop35
280
     0
102
RTVSPost2010PropOp35
 70
     1
102
RTVSPost2010Prop36
280
     0
102
RTVSPost2010PropOp36
 70
     1
102
RTVSPost2010Prop37
 90
       50
102
RTVSPost2010PropOp37
 70
     1
102
RTVSPost2010Prop38
140
0.0
102
RTVSPost2010PropOp38
 70
     1
102
RTVSPost2010Prop39
140
1.0
102
RTVSPost2010PropOp39
 70
     1
102
RTVSPost2010Prop40
 90
        0
102
RTVSPost2010PropOp40
 70
     1
102
RTVSPost2010Prop41ColorIndex
 90
       18
102
RTVSPost2010Prop41ColorRGB
 90
        0
102
RTVSPost2010PropOp41
 70
     1
102
RTVSPost2010Prop42
 90
       50
102
RTVSPost2010PropOp42
 70
     1
102
RTVSPost2010Prop43
 90
        3
102
RTVSPost2010PropOp43
 70
     1
102
RTVSPost2010Prop44ColorIndex
 90
        5
102
RTVSPost2010Prop44ColorRGB
 90
      255
102
RTVSPost2010PropOp44
 70
     1
102
RTVSPost2010Prop45
280
     0
102
RTVSPost2010PropOp45
 70
     1
102
RTVSPost2010Prop46
 90
       50
102
RTVSPost2010PropOp46
 70
     1
102
RTVSPost2010Prop47
 90
       50
102
RTVSPost2010PropOp47
 70
     1
102
RTVSPost2010Prop48
 90
       50
102
RTVSPost2010PropOp48
 70
     1
102
RTVSPost2010Prop49
280
     0
102
RTVSPost2010PropOp49
 70
     1
102
RTVSPost2010Prop50
 90
       50
102
RTVSPost2010PropOp50
 70
     1
102
RTVSPost2010Prop51ColorIndex
 90
      256
102
RTVSPost2010Prop51ColorRGB
 90
-16777216
102
RTVSPost2010PropOp51
 70
     0
102
RTVSPost2010Prop52
140
1.0
102
RTVSPost2010PropOp52
 70
     0
102
RTVSPost2010Prop53
 90
        2
102
RTVSPost2010PropOp53
 70
     1
102
RTVSPost2010Prop54
  1
strokes_ogs.tif
102
RTVSPost2010PropOp54
 70
     1
102
RTVSPost2010Prop55
280
     0
102
RTVSPost2010PropOp55
 70
     1
102
RTVSPost2010Prop56
140
1.0
102
RTVSPost2010PropOp56
 70
     1
102
RTVSPost2010Prop57
140
1.0
102
RTVSPost2010PropOp57
 70
     1
  0
XRECORD
  5
38F
102
{ACAD_REACTORS
330
38E
102
}
330
38E
100
AcDbXrecord
280
     1
102
RTVSPost2010Prop28
280
     0
102
RTVSPost2010PropOp28
 70
     1
102
RTVSPost2010Prop29
280
     1
102
RTVSPost2010PropOp29
 70
     1
102
RTVSPost2010Prop30
280
     1
102
RTVSPost2010PropOp30
 70
     1
102
RTVSPost2010Prop31
280
     0
102
RTVSPost2010PropOp31
 70
     1
102
RTVSPost2010Prop32
280
     0
102
RTVSPost2010PropOp32
 70
     1
102
RTVSPost2010Prop33
280
     0
102
RTVSPost2010PropOp33
 70
     1
102
RTVSPost2010Prop34
280
     0
102
RTVSPost2010PropOp34
 70
     1
102
RTVSPost2010Prop35
280
     0
102
RTVSPost2010PropOp35
 70
     1
102
RTVSPost2010Prop36
280
     0
102
RTVSPost2010PropOp36
 70
     1
102
RTVSPost2010Prop37
 90
       50
102
RTVSPost2010PropOp37
 70
     1
102
RTVSPost2010Prop38
140
0.0
102
RTVSPost2010PropOp38
 70
     1
102
RTVSPost2010Prop39
140
1.0
102
RTVSPost2010PropOp39
 70
     1
102
RTVSPost2010Prop40
 90
        0
102
RTVSPost2010PropOp40
 70
     1
102
RTVSPost2010Prop41ColorIndex
 90
       18
102
RTVSPost2010Prop41ColorRGB
 90
        0
102
RTVSPost2010PropOp41
 70
     1
102
RTVSPost2010Prop42
 90
       50
102
RTVSPost2010PropOp42
 70
     1
102
RTVSPost2010Prop43
 90
        3
102
RTVSPost2010PropOp43
 70
     1
102
RTVSPost2010Prop44ColorIndex
 90
        5
102
RTVSPost2010Prop44ColorRGB
 90
      255
102
RTVSPost2010PropOp44
 70
     1
102
RTVSPost2010Prop45
280
     0
102
RTVSPost2010PropOp45
 70
     1
102
RTVSPost2010Prop46
 90
       50
102
RTVSPost2010PropOp46
 70
     1
102
RTVSPost2010Prop47
 90
       50
102
RTVSPost2010PropOp47
 70
     1
102
RTVSPost2010Prop48
 90
       50
102
RTVSPost2010PropOp48
 70
     1
102
RTVSPost2010Prop49
280
     0
102
RTVSPost2010PropOp49
 70
     1
102
RTVSPost2010Prop50
 90
       50
102
RTVSPost2010PropOp50
 70
     1
102
RTVSPost2010Prop51ColorIndex
 90
      256
102
RTVSPost2010Prop51ColorRGB
 90
-16777216
102
RTVSPost2010PropOp51
 70
     0
102
RTVSPost2010Prop52
140
1.0
102
RTVSPost2010PropOp52
 70
     0
102
RTVSPost2010Prop53
 90
        2
102
RTVSPost2010PropOp53
 70
     1
102
RTVSPost2010Prop54
  1
strokes_ogs.tif
102
RTVSPost2010PropOp54
 70
     1
102
RTVSPost2010Prop55
280
     0
102
RTVSPost2010PropOp55
 70
     1
102
RTVSPost2010Prop56
140
1.0
102
RTVSPost2010PropOp56
 70
     1
102
RTVSPost2010Prop57
140
1.0
102
RTVSPost2010PropOp57
 70
     1
  0
XRECORD
  5
389
102
{ACAD_REACTORS
330
388
102
}
330
388
100
AcDbXrecord
280
     1
102
RTVSPost2010Prop28
280
     0
102
RTVSPost2010PropOp28
 70
     1
102
RTVSPost2010Prop29
280
     1
102
RTVSPost2010PropOp29
 70
     1
102
RTVSPost2010Prop30
280
     1
102
RTVSPost2010PropOp30
 70
     1
102
RTVSPost2010Prop31
280
     0
102
RTVSPost2010PropOp31
 70
     1
102
RTVSPost2010Prop32
280
     0
102
RTVSPost2010PropOp32
 70
     1
102
RTVSPost2010Prop33
280
     0
102
RTVSPost2010PropOp33
 70
     1
102
RTVSPost2010Prop34
280
     0
102
RTVSPost2010PropOp34
 70
     1
102
RTVSPost2010Prop35
280
     0
102
RTVSPost2010PropOp35
 70
     1
102
RTVSPost2010Prop36
280
     0
102
RTVSPost2010PropOp36
 70
     1
102
RTVSPost2010Prop37
 90
       50
102
RTVSPost2010PropOp37
 70
     1
102
RTVSPost2010Prop38
140
0.0
102
RTVSPost2010PropOp38
 70
     1
102
RTVSPost2010Prop39
140
1.0
102
RTVSPost2010PropOp39
 70
     1
102
RTVSPost2010Prop40
 90
        0
102
RTVSPost2010PropOp40
 70
     1
102
RTVSPost2010Prop41ColorIndex
 90
       18
102
RTVSPost2010Prop41ColorRGB
 90
        0
102
RTVSPost2010PropOp41
 70
     1
102
RTVSPost2010Prop42
 90
       50
102
RTVSPost2010PropOp42
 70
     1
102
RTVSPost2010Prop43
 90
        3
102
RTVSPost2010PropOp43
 70
     1
102
RTVSPost2010Prop44ColorIndex
 90
        5
102
RTVSPost2010Prop44ColorRGB
 90
      255
102
RTVSPost2010PropOp44
 70
     1
102
RTVSPost2010Prop45
280
     0
102
RTVSPost2010PropOp45
 70
     1
102
RTVSPost2010Prop46
 90
       50
102
RTVSPost2010PropOp46
 70
     1
102
RTVSPost2010Prop47
 90
       50
102
RTVSPost2010PropOp47
 70
     1
102
RTVSPost2010Prop48
 90
       50
102
RTVSPost2010PropOp48
 70
     1
102
RTVSPost2010Prop49
280
     0
102
RTVSPost2010PropOp49
 70
     1
102
RTVSPost2010Prop50
 90
       50
102
RTVSPost2010PropOp50
 70
     1
102
RTVSPost2010Prop51ColorIndex
 90
      256
102
RTVSPost2010Prop51ColorRGB
 90
-16777216
102
RTVSPost2010PropOp51
 70
     0
102
RTVSPost2010Prop52
140
1.0
102
RTVSPost2010PropOp52
 70
     0
102
RTVSPost2010Prop53
 90
        2
102
RTVSPost2010PropOp53
 70
     1
102
RTVSPost2010Prop54
  1
strokes_ogs.tif
102
RTVSPost2010PropOp54
 70
     1
102
RTVSPost2010Prop55
280
     0
102
RTVSPost2010PropOp55
 70
     1
102
RTVSPost2010Prop56
140
1.0
102
RTVSPost2010PropOp56
 70
     1
102
RTVSPost2010Prop57
140
1.0
102
RTVSPost2010PropOp57
 70
     1
  0
XRECORD
  5
38B
102
{ACAD_REACTORS
330
38A
102
}
330
38A
100
AcDbXrecord
280
     1
102
RTVSPost2010Prop28
280
     0
102
RTVSPost2010PropOp28
 70
     1
102
RTVSPost2010Prop29
280
     1
102
RTVSPost2010PropOp29
 70
     1
102
RTVSPost2010Prop30
280
     1
102
RTVSPost2010PropOp30
 70
     1
102
RTVSPost2010Prop31
280
     0
102
RTVSPost2010PropOp31
 70
     1
102
RTVSPost2010Prop32
280
     0
102
RTVSPost2010PropOp32
 70
     1
102
RTVSPost2010Prop33
280
     0
102
RTVSPost2010PropOp33
 70
     1
102
RTVSPost2010Prop34
280
     0
102
RTVSPost2010PropOp34
 70
     1
102
RTVSPost2010Prop35
280
     0
102
RTVSPost2010PropOp35
 70
     1
102
RTVSPost2010Prop36
280
     0
102
RTVSPost2010PropOp36
 70
     1
102
RTVSPost2010Prop37
 90
       50
102
RTVSPost2010PropOp37
 70
     1
102
RTVSPost2010Prop38
140
0.0
102
RTVSPost2010PropOp38
 70
     1
102
RTVSPost2010Prop39
140
1.0
102
RTVSPost2010PropOp39
 70
     1
102
RTVSPost2010Prop40
 90
        0
102
RTVSPost2010PropOp40
 70
     1
102
RTVSPost2010Prop41ColorIndex
 90
       18
102
RTVSPost2010Prop41ColorRGB
 90
        0
102
RTVSPost2010PropOp41
 70
     1
102
RTVSPost2010Prop42
 90
       50
102
RTVSPost2010PropOp42
 70
     1
102
RTVSPost2010Prop43
 90
        3
102
RTVSPost2010PropOp43
 70
     1
102
RTVSPost2010Prop44ColorIndex
 90
        5
102
RTVSPost2010Prop44ColorRGB
 90
      255
102
RTVSPost2010PropOp44
 70
     1
102
RTVSPost2010Prop45
280
     0
102
RTVSPost2010PropOp45
 70
     1
102
RTVSPost2010Prop46
 90
       50
102
RTVSPost2010PropOp46
 70
     1
102
RTVSPost2010Prop47
 90
       50
102
RTVSPost2010PropOp47
 70
     1
102
RTVSPost2010Prop48
 90
       50
102
RTVSPost2010PropOp48
 70
     1
102
RTVSPost2010Prop49
280
     0
102
RTVSPost2010PropOp49
 70
     1
102
RTVSPost2010Prop50
 90
       50
102
RTVSPost2010PropOp50
 70
     1
102
RTVSPost2010Prop51ColorIndex
 90
      256
102
RTVSPost2010Prop51ColorRGB
 90
-16777216
102
RTVSPost2010PropOp51
 70
     0
102
RTVSPost2010Prop52
140
1.0
102
RTVSPost2010PropOp52
 70
     0
102
RTVSPost2010Prop53
 90
        2
102
RTVSPost2010PropOp53
 70
     1
102
RTVSPost2010Prop54
  1
strokes_ogs.tif
102
RTVSPost2010PropOp54
 70
     1
102
RTVSPost2010Prop55
280
     0
102
RTVSPost2010PropOp55
 70
     1
102
RTVSPost2010Prop56
140
1.0
102
RTVSPost2010PropOp56
 70
     1
102
RTVSPost2010Prop57
140
1.0
102
RTVSPost2010PropOp57
 70
     1
  0
XRECORD
  5
37B
102
{ACAD_REACTORS
330
37A
102
}
330
37A
100
AcDbXrecord
280
     1
102
RTVSPost2010Prop28
280
     0
102
RTVSPost2010PropOp28
 70
     1
102
RTVSPost2010Prop29
280
     1
102
RTVSPost2010PropOp29
 70
     1
102
RTVSPost2010Prop30
280
     1
102
RTVSPost2010PropOp30
 70
     1
102
RTVSPost2010Prop31
280
     0
102
RTVSPost2010PropOp31
 70
     1
102
RTVSPost2010Prop32
280
     0
102
RTVSPost2010PropOp32
 70
     1
102
RTVSPost2010Prop33
280
     0
102
RTVSPost2010PropOp33
 70
     1
102
RTVSPost2010Prop34
280
     0
102
RTVSPost2010PropOp34
 70
     1
102
RTVSPost2010Prop35
280
     0
102
RTVSPost2010PropOp35
 70
     1
102
RTVSPost2010Prop36
280
     0
102
RTVSPost2010PropOp36
 70
     1
102
RTVSPost2010Prop37
 90
       50
102
RTVSPost2010PropOp37
 70
     1
102
RTVSPost2010Prop38
140
0.0
102
RTVSPost2010PropOp38
 70
     1
102
RTVSPost2010Prop39
140
1.0
102
RTVSPost2010PropOp39
 70
     1
102
RTVSPost2010Prop40
 90
        0
102
RTVSPost2010PropOp40
 70
     1
102
RTVSPost2010Prop41ColorIndex
 90
       18
102
RTVSPost2010Prop41ColorRGB
 90
        0
102
RTVSPost2010PropOp41
 70
     1
102
RTVSPost2010Prop42
 90
       50
102
RTVSPost2010PropOp42
 70
     1
102
RTVSPost2010Prop43
 90
        3
102
RTVSPost2010PropOp43
 70
     1
102
RTVSPost2010Prop44ColorIndex
 90
        5
102
RTVSPost2010Prop44ColorRGB
 90
      255
102
RTVSPost2010PropOp44
 70
     1
102
RTVSPost2010Prop45
280
     0
102
RTVSPost2010PropOp45
 70
     1
102
RTVSPost2010Prop46
 90
       50
102
RTVSPost2010PropOp46
 70
     1
102
RTVSPost2010Prop47
 90
       50
102
RTVSPost2010PropOp47
 70
     1
102
RTVSPost2010Prop48
 90
       50
102
RTVSPost2010PropOp48
 70
     1
102
RTVSPost2010Prop49
280
     0
102
RTVSPost2010PropOp49
 70
     1
102
RTVSPost2010Prop50
 90
       50
102
RTVSPost2010PropOp50
 70
     1
102
RTVSPost2010Prop51ColorIndex
 90
      256
102
RTVSPost2010Prop51ColorRGB
 90
-16777216
102
RTVSPost2010PropOp51
 70
     0
102
RTVSPost2010Prop52
140
1.0
102
RTVSPost2010PropOp52
 70
     0
102
RTVSPost2010Prop53
 90
        2
102
RTVSPost2010PropOp53
 70
     1
102
RTVSPost2010Prop54
  1
strokes_ogs.tif
102
RTVSPost2010PropOp54
 70
     1
102
RTVSPost2010Prop55
280
     0
102
RTVSPost2010PropOp55
 70
     1
102
RTVSPost2010Prop56
140
1.0
102
RTVSPost2010PropOp56
 70
     1
102
RTVSPost2010Prop57
140
1.0
102
RTVSPost2010PropOp57
 70
     1
  0
XRECORD
  5
36D
102
{ACAD_REACTORS
330
36C
102
}
330
36C
100
AcDbXrecord
280
     1
102
RTVSPost2010Prop28
280
     0
102
RTVSPost2010PropOp28
 70
     1
102
RTVSPost2010Prop29
280
     1
102
RTVSPost2010PropOp29
 70
     1
102
RTVSPost2010Prop30
280
     1
102
RTVSPost2010PropOp30
 70
     1
102
RTVSPost2010Prop31
280
     0
102
RTVSPost2010PropOp31
 70
     1
102
RTVSPost2010Prop32
280
     0
102
RTVSPost2010PropOp32
 70
     1
102
RTVSPost2010Prop33
280
     0
102
RTVSPost2010PropOp33
 70
     1
102
RTVSPost2010Prop34
280
     0
102
RTVSPost2010PropOp34
 70
     1
102
RTVSPost2010Prop35
280
     0
102
RTVSPost2010PropOp35
 70
     1
102
RTVSPost2010Prop36
280
     0
102
RTVSPost2010PropOp36
 70
     1
102
RTVSPost2010Prop37
 90
       50
102
RTVSPost2010PropOp37
 70
     1
102
RTVSPost2010Prop38
140
0.0
102
RTVSPost2010PropOp38
 70
     1
102
RTVSPost2010Prop39
140
1.0
102
RTVSPost2010PropOp39
 70
     1
102
RTVSPost2010Prop40
 90
        0
102
RTVSPost2010PropOp40
 70
     1
102
RTVSPost2010Prop41ColorIndex
 90
       18
102
RTVSPost2010Prop41ColorRGB
 90
        0
102
RTVSPost2010PropOp41
 70
     1
102
RTVSPost2010Prop42
 90
       50
102
RTVSPost2010PropOp42
 70
     1
102
RTVSPost2010Prop43
 90
        3
102
RTVSPost2010PropOp43
 70
     1
102
RTVSPost2010Prop44ColorIndex
 90
        5
102
RTVSPost2010Prop44ColorRGB
 90
      255
102
RTVSPost2010PropOp44
 70
     1
102
RTVSPost2010Prop45
280
     0
102
RTVSPost2010PropOp45
 70
     1
102
RTVSPost2010Prop46
 90
       50
102
RTVSPost2010PropOp46
 70
     1
102
RTVSPost2010Prop47
 90
       50
102
RTVSPost2010PropOp47
 70
     1
102
RTVSPost2010Prop48
 90
       50
102
RTVSPost2010PropOp48
 70
     1
102
RTVSPost2010Prop49
280
     0
102
RTVSPost2010PropOp49
 70
     1
102
RTVSPost2010Prop50
 90
       50
102
RTVSPost2010PropOp50
 70
     1
102
RTVSPost2010Prop51ColorIndex
 90
      256
102
RTVSPost2010Prop51ColorRGB
 90
-16777216
102
RTVSPost2010PropOp51
 70
     0
102
RTVSPost2010Prop52
140
1.0
102
RTVSPost2010PropOp52
 70
     0
102
RTVSPost2010Prop53
 90
        2
102
RTVSPost2010PropOp53
 70
     1
102
RTVSPost2010Prop54
  1
strokes_ogs.tif
102
RTVSPost2010PropOp54
 70
     1
102
RTVSPost2010Prop55
280
     0
102
RTVSPost2010PropOp55
 70
     1
102
RTVSPost2010Prop56
140
1.0
102
RTVSPost2010PropOp56
 70
     1
102
RTVSPost2010Prop57
140
1.0
102
RTVSPost2010PropOp57
 70
     1
  0
XRECORD
  5
38D
102
{ACAD_REACTORS
330
38C
102
}
330
38C
100
AcDbXrecord
280
     1
102
RTVSPost2010Prop28
280
     0
102
RTVSPost2010PropOp28
 70
     1
102
RTVSPost2010Prop29
280
     1
102
RTVSPost2010PropOp29
 70
     1
102
RTVSPost2010Prop30
280
     1
102
RTVSPost2010PropOp30
 70
     1
102
RTVSPost2010Prop31
280
     0
102
RTVSPost2010PropOp31
 70
     1
102
RTVSPost2010Prop32
280
     0
102
RTVSPost2010PropOp32
 70
     1
102
RTVSPost2010Prop33
280
     0
102
RTVSPost2010PropOp33
 70
     1
102
RTVSPost2010Prop34
280
     0
102
RTVSPost2010PropOp34
 70
     1
102
RTVSPost2010Prop35
280
     0
102
RTVSPost2010PropOp35
 70
     1
102
RTVSPost2010Prop36
280
     0
102
RTVSPost2010PropOp36
 70
     1
102
RTVSPost2010Prop37
 90
       50
102
RTVSPost2010PropOp37
 70
     1
102
RTVSPost2010Prop38
140
0.0
102
RTVSPost2010PropOp38
 70
     1
102
RTVSPost2010Prop39
140
1.0
102
RTVSPost2010PropOp39
 70
     1
102
RTVSPost2010Prop40
 90
        0
102
RTVSPost2010PropOp40
 70
     1
102
RTVSPost2010Prop41ColorIndex
 90
       18
102
RTVSPost2010Prop41ColorRGB
 90
        0
102
RTVSPost2010PropOp41
 70
     1
102
RTVSPost2010Prop42
 90
       50
102
RTVSPost2010PropOp42
 70
     1
102
RTVSPost2010Prop43
 90
        3
102
RTVSPost2010PropOp43
 70
     1
102
RTVSPost2010Prop44ColorIndex
 90
        5
102
RTVSPost2010Prop44ColorRGB
 90
      255
102
RTVSPost2010PropOp44
 70
     1
102
RTVSPost2010Prop45
280
     0
102
RTVSPost2010PropOp45
 70
     1
102
RTVSPost2010Prop46
 90
       50
102
RTVSPost2010PropOp46
 70
     1
102
RTVSPost2010Prop47
 90
       50
102
RTVSPost2010PropOp47
 70
     1
102
RTVSPost2010Prop48
 90
       50
102
RTVSPost2010PropOp48
 70
     1
102
RTVSPost2010Prop49
280
     0
102
RTVSPost2010PropOp49
 70
     1
102
RTVSPost2010Prop50
 90
       50
102
RTVSPost2010PropOp50
 70
     1
102
RTVSPost2010Prop51ColorIndex
 90
      256
102
RTVSPost2010Prop51ColorRGB
 90
-16777216
102
RTVSPost2010PropOp51
 70
     0
102
RTVSPost2010Prop52
140
1.0
102
RTVSPost2010PropOp52
 70
     0
102
RTVSPost2010Prop53
 90
        2
102
RTVSPost2010PropOp53
 70
     1
102
RTVSPost2010Prop54
  1
strokes_ogs.tif
102
RTVSPost2010PropOp54
 70
     1
102
RTVSPost2010Prop55
280
     0
102
RTVSPost2010PropOp55
 70
     1
102
RTVSPost2010Prop56
140
1.0
102
RTVSPost2010PropOp56
 70
     1
102
RTVSPost2010Prop57
140
1.0
102
RTVSPost2010PropOp57
 70
     1
  0
ENDSEC
  0
EOF
