  0
SECTION
  2
HEADER
  9
$ACADVER
  1
AC1024
  9
$ACADMAINTVER
 70
     6
  9
$DWGCODEPAGE
  3
ANSI_932
  9
$INSBASE
 10
0.0
 20
0.0
 30
0.0
  9
$EXTMIN
 10
-6300.0
 20
-4455.0
 30
0.0
  9
$EXTMAX
 10
6300.0
 20
4455.0
 30
0.0
  9
$LIMMIN
 10
-6300.0
 20
-4455.0
  9
$LIMMAX
 10
6300.0
 20
4455.0
  9
$ORTHOMODE
 70
     0
  9
$REGENMODE
 70
     1
  9
$FILLMODE
 70
     1
  9
$QTEXTMODE
 70
     0
  9
$MIRRTEXT
 70
     1
  9
$LTSCALE
 40
30.0
  9
$ATTMODE
 70
     1
  9
$TEXTSIZE
 40
2.5
  9
$TRACEWID
 40
1.0
  9
$TEXTSTYLE
  7
Standard
  9
$CLAYER
  8
0
  9
$CELTYPE
  6
ByLayer
  9
$CECOLOR
 62
   256
  9
$CELTSCALE
 40
1.0
  9
$DISPSILH
 70
     0
  9
$DIMSCALE
 40
1.0
  9
$DIMASZ
 40
2.5
  9
$DIMEXO
 40
0.625
  9
$DIMDLI
 40
3.75
  9
$DIMRND
 40
0.0
  9
$DIMDLE
 40
0.0
  9
$DIMEXE
 40
1.25
  9
$DIMTP
 40
0.0
  9
$DIMTM
 40
0.0
  9
$DIMTXT
 40
2.5
  9
$DIMCEN
 40
2.5
  9
$DIMTSZ
 40
0.0
  9
$DIMTOL
 70
     0
  9
$DIMLIM
 70
     0
  9
$DIMTIH
 70
     0
  9
$DIMTOH
 70
     0
  9
$DIMSE1
 70
     0
  9
$DIMSE2
 70
     0
  9
$DIMTAD
 70
     1
  9
$DIMZIN
 70
     8
  9
$DIMBLK
  1

  9
$DIMASO
 70
     1
  9
$DIMSHO
 70
     1
  9
$DIMPOST
  1

  9
$DIMAPOST
  1

  9
$DIMALT
 70
     0
  9
$DIMALTD
 70
     3
  9
$DIMALTF
 40
0.03937007874016
  9
$DIMLFAC
 40
1.0
  9
$DIMTOFL
 70
     1
  9
$DIMTVP
 40
0.0
  9
$DIMTIX
 70
     0
  9
$DIMSOXD
 70
     0
  9
$DIMSAH
 70
     0
  9
$DIMBLK1
  1

  9
$DIMBLK2
  1

  9
$DIMSTYLE
  2
ISO-25
  9
$DIMCLRD
 70
     0
  9
$DIMCLRE
 70
     0
  9
$DIMCLRT
 70
     0
  9
$DIMTFAC
 40
1.0
  9
$DIMGAP
 40
0.625
  9
$DIMJUST
 70
     0
  9
$DIMSD1
 70
     0
  9
$DIMSD2
 70
     0
  9
$DIMTOLJ
 70
     0
  9
$DIMTZIN
 70
     8
  9
$DIMALTZ
 70
     0
  9
$DIMALTTZ
 70
     0
  9
$DIMUPT
 70
     0
  9
$DIMDEC
 70
     2
  9
$DIMTDEC
 70
     2
  9
$DIMALTU
 70
     2
  9
$DIMALTTD
 70
     3
  9
$DIMTXSTY
  7
Standard
  9
$DIMAUNIT
 70
     0
  9
$DIMADEC
 70
     0
  9
$DIMALTRND
 40
0.0
  9
$DIMAZIN
 70
     0
  9
$DIMDSEP
 70
    44
  9
$DIMATFIT
 70
     3
  9
$DIMFRAC
 70
     0
  9
$DIMLDRBLK
  1

  9
$DIMLUNIT
 70
     2
  9
$DIMLWD
 70
    -2
  9
$DIMLWE
 70
    -2
  9
$DIMTMOVE
 70
     0
  9
$DIMFXL
 40
1.0
  9
$DIMFXLON
 70
     0
  9
$DIMJOGANG
 40
0.7853981633974483
  9
$DIMTFILL
 70
     0
  9
$DIMTFILLCLR
 70
     0
  9
$DIMARCSYM
 70
     0
  9
$DIMLTYPE
  6

  9
$DIMLTEX1
  6

  9
$DIMLTEX2
  6

  9
$DIMTXTDIRECTION
 70
     0
  9
$LUNITS
 70
     2
  9
$LUPREC
 70
     4
  9
$SKETCHINC
 40
1.0
  9
$FILLETRAD
 40
10.0
  9
$AUNITS
 70
     0
  9
$AUPREC
 70
     0
  9
$MENU
  1
.
  9
$ELEVATION
 40
0.0
  9
$PELEVATION
 40
0.0
  9
$THICKNESS
 40
0.0
  9
$LIMCHECK
 70
     0
  9
$CHAMFERA
 40
10.0
  9
$CHAMFERB
 40
10.0
  9
$CHAMFERC
 40
20.0
  9
$CHAMFERD
 40
0.0
  9
$SKPOLY
 70
     0
  9
$TDCREATE
 40
2459530.414881759
  9
$TDUCREATE
 40
2459530.039881759
  9
$TDUPDATE
 40
2459530.414881771
  9
$TDUUPDATE
 40
2459530.039881771
  9
$TDINDWG
 40
0.0000000116
  9
$TDUSRTIMER
 40
0.0000000116
  9
$USRTIMER
 70
     1
  9
$ANGBASE
 50
0.0
  9
$ANGDIR
 70
     0
  9
$PDMODE
 70
     0
  9
$PDSIZE
 40
0.0
  9
$PLINEWID
 40
0.0
  9
$SPLFRAME
 70
     0
  9
$SPLINETYPE
 70
     6
  9
$SPLINESEGS
 70
     8
  9
$HANDSEED
  5
380
  9
$SURFTAB1
 70
     6
  9
$SURFTAB2
 70
     6
  9
$SURFTYPE
 70
     6
  9
$SURFU
 70
     6
  9
$SURFV
 70
     6
  9
$UCSBASE
  2

  9
$UCSNAME
  2

  9
$UCSORG
 10
0.0
 20
0.0
 30
0.0
  9
$UCSXDIR
 10
1.0
 20
0.0
 30
0.0
  9
$UCSYDIR
 10
0.0
 20
1.0
 30
0.0
  9
$UCSORTHOREF
  2

  9
$UCSORTHOVIEW
 70
     0
  9
$UCSORGTOP
 10
0.0
 20
0.0
 30
0.0
  9
$UCSORGBOTTOM
 10
0.0
 20
0.0
 30
0.0
  9
$UCSORGLEFT
 10
0.0
 20
0.0
 30
0.0
  9
$UCSORGRIGHT
 10
0.0
 20
0.0
 30
0.0
  9
$UCSORGFRONT
 10
0.0
 20
0.0
 30
0.0
  9
$UCSORGBACK
 10
0.0
 20
0.0
 30
0.0
  9
$PUCSBASE
  2

  9
$PUCSNAME
  2

  9
$PUCSORG
 10
0.0
 20
0.0
 30
0.0
  9
$PUCSXDIR
 10
1.0
 20
0.0
 30
0.0
  9
$PUCSYDIR
 10
0.0
 20
1.0
 30
0.0
  9
$PUCSORTHOREF
  2

  9
$PUCSORTHOVIEW
 70
     0
  9
$PUCSORGTOP
 10
0.0
 20
0.0
 30
0.0
  9
$PUCSORGBOTTOM
 10
0.0
 20
0.0
 30
0.0
  9
$PUCSORGLEFT
 10
0.0
 20
0.0
 30
0.0
  9
$PUCSORGRIGHT
 10
0.0
 20
0.0
 30
0.0
  9
$PUCSORGFRONT
 10
0.0
 20
0.0
 30
0.0
  9
$PUCSORGBACK
 10
0.0
 20
0.0
 30
0.0
  9
$USERI1
 70
     0
  9
$USERI2
 70
     0
  9
$USERI3
 70
     0
  9
$USERI4
 70
     0
  9
$USERI5
 70
     0
  9
$USERR1
 40
0.0
  9
$USERR2
 40
0.0
  9
$USERR3
 40
0.0
  9
$USERR4
 40
0.0
  9
$USERR5
 40
0.0
  9
$WORLDVIEW
 70
     1
  9
$SHADEDGE
 70
     3
  9
$SHADEDIF
 70
    70
  9
$TILEMODE
 70
     1
  9
$MAXACTVP
 70
    64
  9
$PINSBASE
 10
0.0
 20
0.0
 30
0.0
  9
$PLIMCHECK
 70
     0
  9
$PEXTMIN
 10
1.000000000000000E+20
 20
1.000000000000000E+20
 30
1.000000000000000E+20
  9
$PEXTMAX
 10
-1.000000000000000E+20
 20
-1.000000000000000E+20
 30
-1.000000000000000E+20
  9
$PLIMMIN
 10
0.0
 20
0.0
  9
$PLIMMAX
 10
420.0
 20
297.0
  9
$UNITMODE
 70
     0
  9
$VISRETAIN
 70
     1
  9
$PLINEGEN
 70
     0
  9
$PSLTSCALE
 70
     1
  9
$TREEDEPTH
 70
  3020
  9
$CMLSTYLE
  2
Standard
  9
$CMLJUST
 70
     0
  9
$CMLSCALE
 40
20.0
  9
$PROXYGRAPHICS
 70
     1
  9
$MEASUREMENT
 70
     1
  9
$CELWEIGHT
370
    -1
  9
$ENDCAPS
280
     0
  9
$JOINSTYLE
280
     0
  9
$LWDISPLAY
290
     0
  9
$INSUNITS
 70
     4
  9
$HYPERLINKBASE
  1

  9
$STYLESHEET
  1

  9
$XEDIT
290
     1
  9
$CEPSNTYPE
380
     0
  9
$PSTYLEMODE
290
     1
  9
$FINGERPRINTGUID
  2
{F60ECA2F-AEE4-4FA7-B76E-3858C60614DA}
  9
$VERSIONGUID
  2
{FAEB1C32-E019-11D5-929B-00C0DF256EC4}
  9
$EXTNAMES
290
     1
  9
$PSVPSCALE
 40
0.0
  9
$OLESTARTUP
290
     0
  9
$SORTENTS
280
   127
  9
$INDEXCTL
280
     0
  9
$HIDETEXT
280
     1
  9
$XCLIPFRAME
280
     2
  9
$HALOGAP
280
     0
  9
$OBSCOLOR
 70
   257
  9
$OBSLTYPE
280
     0
  9
$INTERSECTIONDISPLAY
280
     0
  9
$INTERSECTIONCOLOR
 70
   257
  9
$DIMASSOC
280
     2
  9
$PROJECTNAME
  1

  9
$CAMERADISPLAY
290
     0
  9
$LENSLENGTH
 40
50.0
  9
$CAMERAHEIGHT
 40
0.0
  9
$STEPSPERSEC
 40
2.0
  9
$STEPSIZE
 40
6.0
  9
$3DDWFPREC
 40
2.0
  9
$PSOLWIDTH
 40
5.0
  9
$PSOLHEIGHT
 40
80.0
  9
$LOFTANG1
 40
1.570796326794897
  9
$LOFTANG2
 40
1.570796326794897
  9
$LOFTMAG1
 40
0.0
  9
$LOFTMAG2
 40
0.0
  9
$LOFTPARAM
 70
     7
  9
$LOFTNORMALS
280
     1
  9
$LATITUDE
 40
37.795
  9
$LONGITUDE
 40
-122.394
  9
$NORTHDIRECTION
 40
0.0
  9
$TIMEZONE
 70
 -8000
  9
$LIGHTGLYPHDISPLAY
280
     1
  9
$TILEMODELIGHTSYNCH
280
     1
  9
$SOLIDHIST
280
     1
  9
$SHOWHIST
280
     1
  9
$DWFFRAME
280
     2
  9
$DGNFRAME
280
     2
  9
$REALWORLDSCALE
290
     1
  9
$INTERFERECOLOR
 62
   256
  9
$CSHADOW
280
     0
  9
$SHADOWPLANELOCATION
 40
0.0
  0
ENDSEC
  0
SECTION
  2
CLASSES
  0
CLASS
  1
ACDBDICTIONARYWDFLT
  2
AcDbDictionaryWithDefault
  3
ObjectDBX Classes
 90
        0
 91
        4
280
     0
281
     0
  0
CLASS
  1
VISUALSTYLE
  2
AcDbVisualStyle
  3
ObjectDBX Classes
 90
     4095
 91
        4
280
     0
281
     0
  0
CLASS
  1
MATERIAL
  2
AcDbMaterial
  3
ObjectDBX Classes
 90
     1153
 91
        4
280
     0
281
     0
  0
ENDSEC
  0
SECTION
  2
TABLES
  0
TABLE
  2
VPORT
  5
8
330
0
100
AcDbSymbolTable
 70
     1
  0
VPORT
  5
29
330
8
100
AcDbSymbolTableRecord
100
AcDbViewportTableRecord
  2
*Active
 70
     0
 10
0.0
 20
0.0
 11
1.0
 21
1.0
 12
0.0
 22
0.0
 13
0.0
 23
0.0
 14
10.0
 24
10.0
 15
10.0
 25
10.0
 16
0.0
 26
0.0
 36
1.0
 17
0.0
 27
0.0
 37
0.0
 40
9801.0
 41
1.414141414141414
 42
50.0
 43
0.0
 44
0.0
 50
0.0
 51
0.0
 71
     0
 72
 10000
 73
     1
 74
     3
 75
     0
 76
     0
 77
     0
 78
     0
281
     0
 65
     1
110
0.0
120
0.0
130
0.0
111
1.0
121
0.0
131
0.0
112
0.0
122
1.0
132
0.0
 79
     0
146
0.0
 60
     3
 61
     5
292
     1
282
     1
141
0.0
142
0.0
 63
   250
  0
ENDTAB
  0
TABLE
  2
LTYPE
  5
5
330
0
100
AcDbSymbolTable
 70
     4
  0
LTYPE
  5
14
330
5
100
AcDbSymbolTableRecord
100
AcDbLinetypeTableRecord
  2
ByBlock
 70
     0
  3

 72
    65
 73
     0
 40
0.0
  0
LTYPE
  5
15
330
5
100
AcDbSymbolTableRecord
100
AcDbLinetypeTableRecord
  2
ByLayer
 70
     0
  3

 72
    65
 73
     0
 40
0.0
  0
LTYPE
  5
16
330
5
100
AcDbSymbolTableRecord
100
AcDbLinetypeTableRecord
  2
Continuous
 70
     0
  3
Solid line
 72
    65
 73
     0
 40
0.0
  0
LTYPE
  5
3F
330
5
100
AcDbSymbolTableRecord
100
AcDbLinetypeTableRecord
  2
JWW_HOJO
 70
     0
  3
  -   -   -   -   -   -   -   - 
 72
    65
 73
     2
 40
1.693333333333333
 49
-1.27
 74
     0
 49
0.4233333333333333
 74
     0
  0
LTYPE
  5
40
330
5
100
AcDbSymbolTableRecord
100
AcDbLinetypeTableRecord
  2
JWW_DASHED1
 70
     0
  3
-  --  --  --  --  --  --  --  -
 72
    65
 73
     2
 40
1.693333333333333
 49
0.8466666666666667
 74
     0
 49
-0.8466666666666667
 74
     0
  0
LTYPE
  5
41
330
5
100
AcDbSymbolTableRecord
100
AcDbLinetypeTableRecord
  2
JWW_CENTER1
 70
     0
  3
-----  --  ----------  --  -----
 72
    65
 73
     4
 40
6.773333333333333
 49
4.233333333333333
 74
     0
 49
-0.8466666666666667
 74
     0
 49
0.8466666666666667
 74
     0
 49
-0.8466666666666667
 74
     0
  0
ENDTAB
  0
TABLE
  2
LAYER
  5
2
330
0
100
AcDbSymbolTable
 70
    13
  0
LAYER
  5
10
330
2
100
AcDbSymbolTableRecord
100
AcDbLayerTableRecord
  2
0
 70
     0
 62
     7
  6
Continuous
370
    -3
390
F
347
3E
  0
LAYER
  5
42
330
2
100
AcDbSymbolTableRecord
100
AcDbLayerTableRecord
  2
F-0_補助線
 70
     0
 62
     7
  6
Continuous
370
    -3
390
F
347
3E
  0
LAYER
  5
43
330
2
100
AcDbSymbolTableRecord
100
AcDbLayerTableRecord
  2
F-1_枠
 70
     0
 62
     7
  6
Continuous
370
    -3
390
F
347
3E
  0
LAYER
  5
44
330
2
100
AcDbSymbolTableRecord
100
AcDbLayerTableRecord
  2
0-3_仕上げ
 70
     0
 62
     7
  6
Continuous
370
    -3
390
F
347
3E
  0
LAYER
  5
45
330
2
100
AcDbSymbolTableRecord
100
AcDbLayerTableRecord
  2
0-0_補助線
 70
     0
 62
     7
  6
Continuous
370
    -3
390
F
347
3E
  0
LAYER
  5
46
330
2
100
AcDbSymbolTableRecord
100
AcDbLayerTableRecord
  2
0-B_寸法
 70
     0
 62
     7
  6
Continuous
370
    -3
390
F
347
3E
  0
LAYER
  5
47
330
2
100
AcDbSymbolTableRecord
100
AcDbLayerTableRecord
  2
0-C_ハッチ
 70
     0
 62
     7
  6
Continuous
370
    -3
390
F
347
3E
  0
LAYER
  5
48
330
2
100
AcDbSymbolTableRecord
100
AcDbLayerTableRecord
  2
0-6_扉
 70
     0
 62
     7
  6
Continuous
370
    -3
390
F
347
3E
  0
LAYER
  5
49
330
2
100
AcDbSymbolTableRecord
100
AcDbLayerTableRecord
  2
0-7_金物
 70
     0
 62
     7
  6
Continuous
370
    -3
390
F
347
3E
  0
LAYER
  5
4A
330
2
100
AcDbSymbolTableRecord
100
AcDbLayerTableRecord
  2
0-1_通り芯
 70
     0
 62
     7
  6
Continuous
370
    -3
390
F
347
3E
  0
LAYER
  5
4B
330
2
100
AcDbSymbolTableRecord
100
AcDbLayerTableRecord
  2
F-A_文字
 70
     0
 62
     7
  6
Continuous
370
    -3
390
F
347
3E
  0
LAYER
  5
4C
330
2
100
AcDbSymbolTableRecord
100
AcDbLayerTableRecord
  2
0-A_文字
 70
     0
 62
     7
  6
Continuous
370
    -3
390
F
347
3E
  0
LAYER
  5
4D
330
2
100
AcDbSymbolTableRecord
100
AcDbLayerTableRecord
  2
0-4_枠
 70
     0
 62
     7
  6
Continuous
370
    -3
390
F
347
3E
  0
ENDTAB
  0
TABLE
  2
STYLE
  5
3
330
0
100
AcDbSymbolTable
 70
     1
  0
STYLE
  5
11
330
3
100
AcDbSymbolTableRecord
100
AcDbTextStyleTableRecord
  2
Standard
 70
     0
 40
0.0
 41
1.0
 50
0.0
 71
     0
 42
2.5
  3
txt
  4

  0
ENDTAB
  0
TABLE
  2
VIEW
  5
6
330
0
100
AcDbSymbolTable
 70
     0
  0
ENDTAB
  0
TABLE
  2
UCS
  5
7
330
0
100
AcDbSymbolTable
 70
     0
  0
ENDTAB
  0
TABLE
  2
APPID
  5
9
330
0
100
AcDbSymbolTable
 70
     1
  0
APPID
  5
12
330
9
100
AcDbSymbolTableRecord
100
AcDbRegAppTableRecord
  2
ACAD
 70
     0
  0
ENDTAB
  0
TABLE
  2
DIMSTYLE
  5
A
330
0
100
AcDbSymbolTable
 70
     1
100
AcDbDimStyleTable
  0
DIMSTYLE
105
27
330
A
100
AcDbSymbolTableRecord
100
AcDbDimStyleTableRecord
  2
ISO-25
 70
     0
 41
2.5
 42
0.625
 43
3.75
 44
1.25
 73
     0
 74
     0
 77
     1
 78
     8
140
2.5
141
2.5
143
0.03937007874016
147
0.625
171
     3
172
     1
178
     0
271
     2
272
     2
274
     3
278
    44
283
     0
284
     8
340
11
  0
ENDTAB
  0
TABLE
  2
BLOCK_RECORD
  5
1
330
0
100
AcDbSymbolTable
 70
     1
  0
BLOCK_RECORD
  5
1F
330
1
100
AcDbSymbolTableRecord
100
AcDbBlockTableRecord
  2
*Model_Space
340
22
 70
     0
280
     1
281
     0
  0
BLOCK_RECORD
  5
1B
330
1
100
AcDbSymbolTableRecord
100
AcDbBlockTableRecord
  2
*Paper_Space
340
1E
 70
     0
280
     1
281
     0
  0
BLOCK_RECORD
  5
23
330
1
100
AcDbSymbolTableRecord
100
AcDbBlockTableRecord
  2
*Paper_Space0
340
26
 70
     0
280
     1
281
     0
  0
ENDTAB
  0
ENDSEC
  0
SECTION
  2
BLOCKS
  0
BLOCK
  5
20
330
1F
100
AcDbEntity
  8
0
100
AcDbBlockBegin
  2
*Model_Space
 70
     0
 10
0.0
 20
0.0
 30
0.0
  3
*Model_Space
  1

  0
ENDBLK
  5
21
330
1F
100
AcDbEntity
  8
0
100
AcDbBlockEnd
  0
BLOCK
  5
1C
330
1B
100
AcDbEntity
 67
     1
  8
0
100
AcDbBlockBegin
  2
*Paper_Space
 70
     0
 10
0.0
 20
0.0
 30
0.0
  3
*Paper_Space
  1

  0
ENDBLK
  5
1D
330
1B
100
AcDbEntity
 67
     1
  8
0
100
AcDbBlockEnd
  0
BLOCK
  5
24
330
23
100
AcDbEntity
  8
0
100
AcDbBlockBegin
  2
*Paper_Space0
 70
     0
 10
0.0
 20
0.0
 30
0.0
  3
*Paper_Space0
  1

  0
ENDBLK
  5
25
330
23
100
AcDbEntity
  8
0
100
AcDbBlockEnd
  0
ENDSEC
  0
SECTION
  2
ENTITIES
  0
LINE
  5
4E
330
1F
100
AcDbEntity
  8
F-0_補助線
  6
JWW_HOJO
 62
     7
370
     9
100
AcDbLine
 10
509.9185840832865
 20
-3795.000003092998
 30
0.0
 11
509.9185840832865
 21
-4195.000008247994
 31
0.0
  0
LINE
  5
4F
330
1F
100
AcDbEntity
  8
F-1_枠
  6
Continuous
 62
   200
370
    20
100
AcDbLine
 10
5859.917429364114
 20
-4195.000008247994
 30
0.0
 11
-5840.081085996952
 21
-4195.000008247994
 31
0.0
  0
LINE
  5
50
330
1F
100
AcDbEntity
  8
0-3_仕上げ
  6
Continuous
 62
    40
370
    15
100
AcDbLine
 10
1689.877524811936
 20
-141.1117444918575
 30
0.0
 11
1689.877524811936
 21
194.9998020481414
 31
0.0
  0
LINE
  5
51
330
1F
100
AcDbEntity
  8
0-0_補助線
  6
JWW_HOJO
 62
   120
370
     5
100
AcDbLine
 10
5646.877599043863
 20
2946.000445391029
 30
0.0
 11
5646.877599043863
 21
1190.999648635453
 31
0.0
  0
LINE
  5
52
330
1F
100
AcDbEntity
  8
0-0_補助線
  6
JWW_HOJO
 62
   120
370
     5
100
AcDbLine
 10
1866.877005188301
 20
2933.999683277028
 30
0.0
 11
1866.877005188301
 21
1943.999683277028
 31
0.0
  0
LINE
  5
53
330
1F
100
AcDbEntity
  8
0-0_補助線
  6
JWW_HOJO
 62
   120
370
     5
100
AcDbLine
 10
3882.877005188305
 20
2933.999683277028
 30
0.0
 11
3882.877005188305
 21
1943.999683277028
 31
0.0
  0
LINE
  5
54
330
1F
100
AcDbEntity
  8
0-0_補助線
  6
JWW_HOJO
 62
   120
370
     5
100
AcDbLine
 10
1746.877005188301
 20
2933.999683277028
 30
0.0
 11
1746.877005188301
 21
1943.999683277028
 31
0.0
  0
LINE
  5
55
330
1F
100
AcDbEntity
  8
0-0_補助線
  6
JWW_HOJO
 62
   120
370
     5
100
AcDbLine
 10
3762.877005188304
 20
2933.999683277028
 30
0.0
 11
3762.877005188304
 21
1943.999683277028
 31
0.0
  0
LWPOLYLINE
  5
56
330
1F
100
AcDbEntity
  8
0-B_寸法
  6
Continuous
 62
     7
370
     9
100
AcDbPolyline
 90
        4
 70
     1
 43
3.0
 10
644.3767824924672
 20
1190.999648635453
 42
0.4142135623731
 10
642.8767824924672
 20
1192.499648635453
 42
0.4142135623731
 10
641.3767824924672
 20
1190.999648635453
 42
0.4142135623731
 10
642.8767824924672
 20
1189.499648635453
 42
0.4142135623731
  0
LWPOLYLINE
  5
57
330
1F
100
AcDbEntity
  8
0-B_寸法
  6
Continuous
 62
     7
370
     9
100
AcDbPolyline
 90
        4
 70
     1
 43
3.0
 10
5048.377599043863
 20
1190.999648635453
 42
0.4142135623731
 10
5046.877599043863
 20
1192.499648635453
 42
0.4142135623731
 10
5045.377599043862
 20
1190.999648635453
 42
0.4142135623731
 10
5046.877599043863
 20
1189.499648635453
 42
0.4142135623731
  0
LINE
  5
58
330
1F
100
AcDbEntity
  8
0-B_寸法
  6
Continuous
 62
   120
370
     5
100
AcDbLine
 10
2838.877005188303
 20
1550.999648635453
 30
0.0
 11
2838.877005188303
 21
1943.999683277028
 31
0.0
  0
LINE
  5
59
330
1F
100
AcDbEntity
  8
0-B_寸法
  6
Continuous
 62
   120
370
     5
100
AcDbLine
 10
2850.877005188303
 20
1550.999648635453
 30
0.0
 11
2850.877005188303
 21
1943.999683277028
 31
0.0
  0
MTEXT
  5
5A
330
1F
100
AcDbEntity
  8
0-B_寸法
  6
Continuous
 62
     7
370
     0
100
AcDbMText
 10
2574.877190768165
 20
1188.719203243772
 30
0.0
 40
91.43999999999998
 41
540.0
 46
0.0
 71
     7
 72
     1
  1
{\fＭＳ ゴシック|b0|i0|c128|p49;枠外＝734}
 73
     1
 44
1.0
  0
MTEXT
  5
5B
330
1F
100
AcDbEntity
  8
0-B_寸法
  6
Continuous
 62
     7
370
     0
100
AcDbMText
 10
2574.877190768165
 20
1368.719425939612
 30
0.0
 40
91.43999999999998
 41
540.0
 46
0.0
 71
     7
 72
     1
  1
{\fＭＳ ゴシック|b0|i0|c128|p49;枠内＝674}
 73
     1
 44
1.0
  0
MTEXT
  5
5C
330
1F
100
AcDbEntity
  8
0-B_寸法
  6
Continuous
 62
     7
370
   211
100
AcDbMText
 10
3582.877005188303
 20
1551.719648635453
 30
0.0
 40
91.43999999999998
 41
540.0
 46
0.0
 71
     7
 72
     1
  1
{\fＭＳ ゴシック|b0|i0|c128|p49;ＤＷ＝334}
 73
     1
 44
1.0
  0
LINE
  5
5D
330
1F
100
AcDbEntity
  8
0-B_寸法
  6
Continuous
 62
   120
370
     5
100
AcDbLine
 10
5046.877599043863
 20
1943.999683277028
 30
0.0
 11
5046.877599043863
 21
1190.999203243772
 31
0.0
  0
LINE
  5
5E
330
1F
100
AcDbEntity
  8
0-B_寸法
  6
Continuous
 62
   120
370
     5
100
AcDbLine
 10
4866.877747507756
 20
1943.999683277028
 30
0.0
 11
4866.877747507756
 21
1370.999425939612
 31
0.0
  0
LINE
  5
5F
330
1F
100
AcDbEntity
  8
0-B_寸法
  6
Continuous
 62
   120
370
     5
100
AcDbLine
 10
4854.877005188305
 20
1550.999648635453
 30
0.0
 11
4854.877005188305
 21
1943.999683277028
 31
0.0
  0
LINE
  5
60
330
1F
100
AcDbEntity
  8
0-B_寸法
  6
Continuous
 62
   120
370
     5
100
AcDbLine
 10
834.8770051883004
 20
1550.999648635453
 30
0.0
 11
834.8770051883004
 21
1943.999683277028
 31
0.0
  0
LINE
  5
61
330
1F
100
AcDbEntity
  8
0-B_寸法
  6
Continuous
 62
   120
370
     5
100
AcDbLine
 10
822.8766340285734
 20
1943.999683277028
 30
0.0
 11
822.8766340285734
 21
1370.999425939612
 31
0.0
  0
LINE
  5
62
330
1F
100
AcDbEntity
  8
0-B_寸法
  6
Continuous
 62
   120
370
     5
100
AcDbLine
 10
642.8767824924672
 20
1190.999203243772
 30
0.0
 11
642.8767824924672
 21
1943.999683277028
 31
0.0
  0
MTEXT
  5
63
330
1F
100
AcDbEntity
  8
0-B_寸法
  6
Continuous
 62
     7
370
   211
100
AcDbMText
 10
1566.877005188301
 20
1551.719648635453
 30
0.0
 40
91.43999999999998
 41
540.0
 46
0.0
 71
     7
 72
     1
  1
{\fＭＳ ゴシック|b0|i0|c128|p49;ＤＷ＝334}
 73
     1
 44
1.0
  0
LINE
  5
64
330
1F
100
AcDbEntity
  8
0-B_寸法
  6
Continuous
 62
   120
370
     5
100
AcDbLine
 10
4866.877747507756
 20
1550.999648635453
 30
0.0
 11
822.8766340285734
 21
1550.999648635453
 31
0.0
  0
LINE
  5
65
330
1F
100
AcDbEntity
  8
0-B_寸法
  6
Continuous
 62
   120
370
     5
100
AcDbLine
 10
642.8767824924672
 20
1190.999203243772
 30
0.0
 11
5046.877599043863
 21
1190.999203243772
 31
0.0
  0
LINE
  5
66
330
1F
100
AcDbEntity
  8
0-B_寸法
  6
Continuous
 62
   120
370
     5
100
AcDbLine
 10
642.8767824924672
 20
1370.999425939612
 30
0.0
 11
5046.877599043863
 21
1370.999425939612
 31
0.0
  0
MTEXT
  5
67
330
1F
100
AcDbEntity
  8
0-B_寸法
  6
Continuous
 62
     7
370
     0
100
AcDbMText
 10
4893.127846483685
 20
1371.719475427577
 30
0.0
 40
91.44
 41
120.0
 46
0.0
 71
     7
 72
     1
  1
{\fＭＳ ゴシック|b0|i0|c128|p49;30}
 73
     1
 44
1.0
  0
MTEXT
  5
68
330
1F
100
AcDbEntity
  8
0-B_寸法
  6
Continuous
 62
     7
370
   211
100
AcDbMText
 10
4792.230404734915
 20
1551.719648635453
 30
0.0
 40
91.44
 41
60.0
 46
0.0
 71
     7
 72
     1
  1
{\fＭＳ ゴシック|b0|i0|c128|p49;2}
 73
     1
 44
1.0
  0
LINE
  5
69
330
1F
100
AcDbEntity
  8
0-B_寸法
  6
Continuous
 62
   120
370
     5
100
AcDbLine
 10
4866.877005188291
 20
1550.999648635453
 30
0.0
 11
4866.877005188291
 21
1880.999920819258
 31
0.0
  0
LWPOLYLINE
  5
6A
330
1F
100
AcDbEntity
  8
0-B_寸法
  6
Continuous
 62
     7
370
     9
100
AcDbPolyline
 90
        4
 70
     1
 43
3.0
 10
4868.377005188291
 20
1550.999648635453
 42
0.4142135623731
 10
4866.877005188291
 20
1552.499648635453
 42
0.4142135623731
 10
4865.37700518829
 20
1550.999648635453
 42
0.4142135623731
 10
4866.877005188291
 20
1549.499648635453
 42
0.4142135623731
  0
LWPOLYLINE
  5
6B
330
1F
100
AcDbEntity
  8
0-B_寸法
  6
Continuous
 62
     7
370
     9
100
AcDbPolyline
 90
        4
 70
     1
 43
3.0
 10
4856.377005188306
 20
1550.999648635453
 42
0.4142135623731
 10
4854.877005188305
 20
1552.499648635453
 42
0.4142135623731
 10
4853.377005188305
 20
1550.999648635453
 42
0.4142135623731
 10
4854.877005188305
 20
1549.499648635453
 42
0.4142135623731
  0
LWPOLYLINE
  5
6C
330
1F
100
AcDbEntity
  8
0-B_寸法
  6
Continuous
 62
     7
370
     9
100
AcDbPolyline
 90
        4
 70
     1
 43
3.0
 10
5048.377599043863
 20
1370.999425939612
 42
0.4142135623731
 10
5046.877599043863
 20
1372.499425939612
 42
0.4142135623731
 10
5045.377599043862
 20
1370.999425939612
 42
0.4142135623731
 10
5046.877599043863
 20
1369.499425939612
 42
0.4142135623731
  0
LWPOLYLINE
  5
6D
330
1F
100
AcDbEntity
  8
0-B_寸法
  6
Continuous
 62
     7
370
     9
100
AcDbPolyline
 90
        4
 70
     1
 43
3.0
 10
5048.377599043863
 20
1190.999203243772
 42
0.4142135623731
 10
5046.877599043863
 20
1192.499203243772
 42
0.4142135623731
 10
5045.377599043862
 20
1190.999203243772
 42
0.4142135623731
 10
5046.877599043863
 20
1189.499203243772
 42
0.4142135623731
  0
LWPOLYLINE
  5
6E
330
1F
100
AcDbEntity
  8
0-B_寸法
  6
Continuous
 62
     7
370
     9
100
AcDbPolyline
 90
        4
 70
     1
 43
3.0
 10
4868.377747507757
 20
1370.999425939612
 42
0.4142135623731
 10
4866.877747507756
 20
1372.499425939612
 42
0.4142135623731
 10
4865.377747507756
 20
1370.999425939612
 42
0.4142135623731
 10
4866.877747507756
 20
1369.499425939612
 42
0.4142135623731
  0
MTEXT
  5
6F
330
1F
100
AcDbEntity
  8
0-B_寸法
  6
Continuous
 62
     7
370
   211
100
AcDbMText
 10
2856.046631653005
 20
1551.719648635453
 30
0.0
 40
91.44
 41
60.0
 46
0.0
 71
     7
 72
     1
  1
{\fＭＳ ゴシック|b0|i0|c128|p49;2}
 73
     1
 44
1.0
  0
LWPOLYLINE
  5
70
330
1F
100
AcDbEntity
  8
0-B_寸法
  6
Continuous
 62
     7
370
     9
100
AcDbPolyline
 90
        4
 70
     1
 43
3.0
 10
2852.377005188303
 20
1550.999648635453
 42
0.4142135623731
 10
2850.877005188303
 20
1552.499648635453
 42
0.4142135623731
 10
2849.377005188303
 20
1550.999648635453
 42
0.4142135623731
 10
2850.877005188303
 20
1549.499648635453
 42
0.4142135623731
  0
LWPOLYLINE
  5
71
330
1F
100
AcDbEntity
  8
0-B_寸法
  6
Continuous
 62
     7
370
     9
100
AcDbPolyline
 90
        4
 70
     1
 43
3.0
 10
2840.377005188303
 20
1550.999648635453
 42
0.4142135623731
 10
2838.877005188303
 20
1552.499648635453
 42
0.4142135623731
 10
2837.377005188303
 20
1550.999648635453
 42
0.4142135623731
 10
2838.877005188303
 20
1549.499648635453
 42
0.4142135623731
  0
MTEXT
  5
72
330
1F
100
AcDbEntity
  8
0-B_寸法
  6
Continuous
 62
     7
370
     0
100
AcDbMText
 10
669.1266958885298
 20
1371.719475427577
 30
0.0
 40
91.44
 41
120.0
 46
0.0
 71
     7
 72
     1
  1
{\fＭＳ ゴシック|b0|i0|c128|p49;30}
 73
     1
 44
1.0
  0
MTEXT
  5
73
330
1F
100
AcDbEntity
  8
0-B_寸法
  6
Continuous
 62
     7
370
   211
100
AcDbMText
 10
836.598164158744
 20
1551.719648635453
 30
0.0
 40
91.44
 41
60.0
 46
0.0
 71
     7
 72
     1
  1
{\fＭＳ ゴシック|b0|i0|c128|p49;2}
 73
     1
 44
1.0
  0
LWPOLYLINE
  5
74
330
1F
100
AcDbEntity
  8
0-B_寸法
  6
Continuous
 62
     7
370
     9
100
AcDbPolyline
 90
        4
 70
     1
 43
3.0
 10
836.3770051883004
 20
1550.999648635453
 42
0.4142135623731
 10
834.8770051883004
 20
1552.499648635453
 42
0.4142135623731
 10
833.3770051883004
 20
1550.999648635453
 42
0.4142135623731
 10
834.8770051883004
 20
1549.499648635453
 42
0.4142135623731
  0
LWPOLYLINE
  5
75
330
1F
100
AcDbEntity
  8
0-B_寸法
  6
Continuous
 62
     7
370
     9
100
AcDbPolyline
 90
        4
 70
     1
 43
3.0
 10
824.3766340285734
 20
1550.999648635453
 42
0.4142135623731
 10
822.8766340285734
 20
1552.499648635453
 42
0.4142135623731
 10
821.3766340285734
 20
1550.999648635453
 42
0.4142135623731
 10
822.8766340285734
 20
1549.499648635453
 42
0.4142135623731
  0
LWPOLYLINE
  5
76
330
1F
100
AcDbEntity
  8
0-B_寸法
  6
Continuous
 62
     7
370
     9
100
AcDbPolyline
 90
        4
 70
     1
 43
3.0
 10
644.3767824924672
 20
1370.999425939612
 42
0.4142135623731
 10
642.8767824924672
 20
1372.499425939612
 42
0.4142135623731
 10
641.3767824924672
 20
1370.999425939612
 42
0.4142135623731
 10
642.8767824924672
 20
1369.499425939612
 42
0.4142135623731
  0
LWPOLYLINE
  5
77
330
1F
100
AcDbEntity
  8
0-B_寸法
  6
Continuous
 62
     7
370
     9
100
AcDbPolyline
 90
        4
 70
     1
 43
3.0
 10
824.3766340285734
 20
1370.999425939612
 42
0.4142135623731
 10
822.8766340285734
 20
1372.499425939612
 42
0.4142135623731
 10
821.3766340285734
 20
1370.999425939612
 42
0.4142135623731
 10
822.8766340285734
 20
1369.499425939612
 42
0.4142135623731
  0
LWPOLYLINE
  5
78
330
1F
100
AcDbEntity
  8
0-B_寸法
  6
Continuous
 62
     7
370
     9
100
AcDbPolyline
 90
        4
 70
     1
 43
3.0
 10
644.3767824924672
 20
1190.999203243772
 42
0.4142135623731
 10
642.8767824924672
 20
1192.499203243772
 42
0.4142135623731
 10
641.3767824924672
 20
1190.999203243772
 42
0.4142135623731
 10
642.8767824924672
 20
1189.499203243772
 42
0.4142135623731
  0
LINE
  5
79
330
1F
100
AcDbEntity
  8
0-C_ハッチ
  6
JWW_DASHED1
 62
   120
370
     5
100
AcDbLine
 10
5204.140947597497
 20
2195.999683277029
 30
0.0
 11
5279.141195037319
 21
2270.999930716853
 31
0.0
  0
LINE
  5
7A
330
1F
100
AcDbEntity
  8
0-C_ハッチ
  6
JWW_DASHED1
 62
   120
370
     5
100
AcDbLine
 10
5161.714420728831
 20
2195.999683277029
 30
0.0
 11
5236.714668168654
 21
2270.999930716853
 31
0.0
  0
LINE
  5
7B
330
1F
100
AcDbEntity
  8
0-C_ハッチ
  6
JWW_DASHED1
 62
   120
370
     5
100
AcDbLine
 10
5119.287893860166
 20
2195.999683277029
 30
0.0
 11
5194.288141299988
 21
2270.999930716853
 31
0.0
  0
LINE
  5
7C
330
1F
100
AcDbEntity
  8
0-C_ハッチ
  6
JWW_DASHED1
 62
   120
370
     5
100
AcDbLine
 10
5076.8613669915
 20
2195.999683277029
 30
0.0
 11
5151.861614431322
 21
2270.999930716853
 31
0.0
  0
LINE
  5
7D
330
1F
100
AcDbEntity
  8
0-C_ハッチ
  6
JWW_DASHED1
 62
   120
370
     5
100
AcDbLine
 10
5046.877599043863
 20
2208.441699878591
 30
0.0
 11
5109.435829882125
 21
2270.999930716853
 31
0.0
  0
LINE
  5
7E
330
1F
100
AcDbEntity
  8
0-C_ハッチ
  6
JWW_DASHED1
 62
   120
370
     5
100
AcDbLine
 10
284.9763588754906
 20
2195.999683277029
 30
0.0
 11
359.9766063153158
 21
2270.999930716853
 31
0.0
  0
LINE
  5
7F
330
1F
100
AcDbEntity
  8
0-C_ハッチ
  6
JWW_DASHED1
 62
   120
370
     5
100
AcDbLine
 10
327.402885744158
 20
2195.999683277029
 30
0.0
 11
402.4031331839798
 21
2270.999930716853
 31
0.0
  0
LINE
  5
80
330
1F
100
AcDbEntity
  8
0-C_ハッチ
  6
JWW_DASHED1
 62
   120
370
     5
100
AcDbLine
 10
369.8294126128219
 20
2195.999683277029
 30
0.0
 11
444.8296600526471
 21
2270.999930716853
 31
0.0
  0
LINE
  5
81
330
1F
100
AcDbEntity
  8
0-C_ハッチ
  6
JWW_DASHED1
 62
   120
370
     5
100
AcDbLine
 10
412.2551971620221
 20
2195.999683277029
 30
0.0
 11
487.2554446018422
 21
2270.999930716853
 31
0.0
  0
LINE
  5
82
330
1F
100
AcDbEntity
  8
0-C_ハッチ
  6
JWW_DASHED1
 62
   120
370
     5
100
AcDbLine
 10
454.6817240306877
 20
2195.999683277029
 30
0.0
 11
529.6819714705096
 21
2270.999930716853
 31
0.0
  0
LINE
  5
83
330
1F
100
AcDbEntity
  8
0-C_ハッチ
  6
JWW_DASHED1
 62
   120
370
     5
100
AcDbLine
 10
497.1082508993517
 20
2195.999683277029
 30
0.0
 11
572.1084983391752
 21
2270.999930716853
 31
0.0
  0
LINE
  5
84
330
1F
100
AcDbEntity
  8
0-C_ハッチ
  6
JWW_DASHED1
 62
   120
370
     5
100
AcDbLine
 10
539.5344066082846
 20
2195.999683277029
 30
0.0
 11
614.5346540481064
 21
2270.999930716853
 31
0.0
  0
LINE
  5
85
330
1F
100
AcDbEntity
  8
0-C_ハッチ
  6
JWW_DASHED1
 62
   120
370
     5
100
AcDbLine
 10
581.9609334769485
 20
2195.999683277029
 30
0.0
 11
642.8767824924672
 21
2256.915903452283
 31
0.0
  0
LINE
  5
86
330
1F
100
AcDbEntity
  8
0-C_ハッチ
  6
JWW_DASHED1
 62
   120
370
     5
100
AcDbLine
 10
624.3874603456159
 20
2195.999683277029
 30
0.0
 11
642.8767824924672
 21
2214.48863426415
 31
0.0
  0
LINE
  5
87
330
1F
100
AcDbEntity
  8
0-B_寸法
  6
Continuous
 62
   120
370
     5
100
AcDbLine
 10
1215.483239352158
 20
2753.999683277026
 30
0.0
 11
1215.483239352158
 21
2123.999683277028
 31
0.0
  0
LWPOLYLINE
  5
88
330
1F
100
AcDbEntity
  8
0-B_寸法
  6
Continuous
 62
     7
370
     9
100
AcDbPolyline
 90
        4
 70
     1
 43
3.0
 10
1216.983239352158
 20
2753.999683277026
 42
0.4142135623731
 10
1215.483239352158
 20
2755.499683277026
 42
0.4142135623731
 10
1213.983239352158
 20
2753.999683277026
 42
0.4142135623731
 10
1215.483239352158
 20
2752.499683277026
 42
0.4142135623731
  0
LWPOLYLINE
  5
89
330
1F
100
AcDbEntity
  8
0-B_寸法
  6
Continuous
 62
     7
370
     9
100
AcDbPolyline
 90
        4
 70
     1
 43
3.0
 10
1216.983239352158
 20
2123.999683277028
 42
0.4142135623731
 10
1215.483239352158
 20
2125.499683277028
 42
0.4142135623731
 10
1213.983239352158
 20
2123.999683277028
 42
0.4142135623731
 10
1215.483239352158
 20
2122.499683277029
 42
0.4142135623731
  0
LINE
  5
8A
330
1F
100
AcDbEntity
  8
0-B_寸法
  6
Continuous
 62
   120
370
     5
100
AcDbLine
 10
1215.483239352158
 20
2753.999683277026
 30
0.0
 11
1035.483239352158
 21
2753.999683277026
 31
0.0
  0
LINE
  5
8B
330
1F
100
AcDbEntity
  8
0-B_寸法
  6
Continuous
 62
   120
370
     5
100
AcDbLine
 10
1215.483239352158
 20
2123.999683277028
 30
0.0
 11
1035.483239352158
 21
2123.999683277028
 31
0.0
  0
MTEXT
  5
8C
330
1F
100
AcDbEntity
  8
0-B_寸法
  6
Continuous
 62
     7
370
   211
100
AcDbMText
 10
1200.483239352158
 20
2331.029683277027
 30
0.0
 40
99.06
 41
195.0
 46
0.0
 71
     7
 72
     1
  1
{\fＭＳ ゴシック|b0|i0|c128|p49;105}
 11
6.123031769111886E-17
 21
1.0
 31
0.0
 73
     1
 44
1.0
  0
MTEXT
  5
8D
330
1F
100
AcDbEntity
  8
0-B_寸法
  6
Continuous
 62
     7
370
     0
100
AcDbMText
 10
1621.313158162609
 20
2114.968416385137
 30
0.0
 40
91.44
 41
240.0
 46
0.0
 71
     7
 72
     1
  1
{\fＭＳ ゴシック|b0|i0|c128|p49;(24)}
 11
6.123031769111886E-17
 21
1.0
 31
0.0
 73
     1
 44
1.0
  0
LINE
  5
8E
330
1F
100
AcDbEntity
  8
0-6_扉
  6
Continuous
 62
   200
370
    20
100
AcDbLine
 10
834.8770051883004
 20
2333.999772355364
 30
0.0
 11
834.8770051883004
 21
2171.999683277028
 31
0.0
  0
LINE
  5
8F
330
1F
100
AcDbEntity
  8
0-6_扉
  6
Continuous
 62
   200
370
    20
100
AcDbLine
 10
4854.877005188305
 20
2333.999772355364
 30
0.0
 11
4854.877005188305
 21
2171.999683277028
 31
0.0
  0
MTEXT
  5
90
330
1F
100
AcDbEntity
  8
0-B_寸法
  6
Continuous
 62
     7
370
     0
100
AcDbMText
 10
1471.313059186681
 20
2174.968416385137
 30
0.0
 40
91.44
 41
120.0
 46
0.0
 71
     7
 72
     1
  1
{\fＭＳ ゴシック|b0|i0|c128|p49;27}
 11
6.123031769111886E-17
 21
1.0
 31
0.0
 73
     1
 44
1.0
  0
LINE
  5
91
330
1F
100
AcDbEntity
  8
0-B_寸法
  6
Continuous
 62
   120
370
     5
100
AcDbLine
 10
1486.313108674645
 20
2333.999772355364
 30
0.0
 11
1486.313108674645
 21
2171.997456318625
 31
0.0
  0
LINE
  5
92
330
1F
100
AcDbEntity
  8
0-B_寸法
  6
Continuous
 62
   120
370
     5
100
AcDbLine
 10
1414.951711266495
 20
2333.999772355364
 30
0.0
 11
1486.313108674645
 21
2333.999772355364
 31
0.0
  0
LINE
  5
93
330
1F
100
AcDbEntity
  8
0-B_寸法
  6
Continuous
 62
   120
370
     5
100
AcDbLine
 10
1414.951711266495
 20
2171.997456318625
 30
0.0
 11
1486.313108674645
 21
2171.997456318625
 31
0.0
  0
LWPOLYLINE
  5
94
330
1F
100
AcDbEntity
  8
0-B_寸法
  6
Continuous
 62
     7
370
     9
100
AcDbPolyline
 90
        4
 70
     1
 43
3.0
 10
1487.813108674645
 20
2333.999772355364
 42
0.4142135623731
 10
1486.313108674645
 20
2335.499772355364
 42
0.4142135623731
 10
1484.813108674645
 20
2333.999772355364
 42
0.4142135623731
 10
1486.313108674645
 20
2332.499772355364
 42
0.4142135623731
  0
LWPOLYLINE
  5
95
330
1F
100
AcDbEntity
  8
0-B_寸法
  6
Continuous
 62
     7
370
     9
100
AcDbPolyline
 90
        4
 70
     1
 43
3.0
 10
1487.813108674645
 20
2171.997456318625
 42
0.4142135623731
 10
1486.313108674645
 20
2173.497456318624
 42
0.4142135623731
 10
1484.813108674645
 20
2171.997456318625
 42
0.4142135623731
 10
1486.313108674645
 20
2170.497456318625
 42
0.4142135623731
  0
LINE
  5
96
330
1F
100
AcDbEntity
  8
0-6_扉
  6
Continuous
 62
   200
370
    20
100
AcDbLine
 10
3882.877005188305
 20
2333.999772355364
 30
0.0
 11
4854.877005188305
 21
2333.999772355364
 31
0.0
  0
LINE
  5
97
330
1F
100
AcDbEntity
  8
0-6_扉
  6
Continuous
 62
   200
370
    20
100
AcDbLine
 10
3882.877005188305
 20
2171.999683277028
 30
0.0
 11
4854.877005188305
 21
2171.999683277028
 31
0.0
  0
LINE
  5
98
330
1F
100
AcDbEntity
  8
0-6_扉
  6
Continuous
 62
   200
370
    20
100
AcDbLine
 10
1866.877005188301
 20
2333.999772355364
 30
0.0
 11
2838.877005188303
 21
2333.999772355364
 31
0.0
  0
LINE
  5
99
330
1F
100
AcDbEntity
  8
0-6_扉
  6
Continuous
 62
   200
370
    20
100
AcDbLine
 10
2838.877005188303
 20
2333.999772355364
 30
0.0
 11
2838.877005188303
 21
2171.999683277028
 31
0.0
  0
LINE
  5
9A
330
1F
100
AcDbEntity
  8
0-6_扉
  6
Continuous
 62
   200
370
    20
100
AcDbLine
 10
2850.877005188303
 20
2333.999772355364
 30
0.0
 11
2850.877005188303
 21
2171.999683277028
 31
0.0
  0
LINE
  5
9B
330
1F
100
AcDbEntity
  8
0-6_扉
  6
Continuous
 62
   200
370
    20
100
AcDbLine
 10
1866.877005188301
 20
2171.999683277028
 30
0.0
 11
2838.877005188303
 21
2171.999683277028
 31
0.0
  0
LINE
  5
9C
330
1F
100
AcDbEntity
  8
0-6_扉
  6
Continuous
 62
   200
370
    20
100
AcDbLine
 10
834.8770051883004
 20
2333.999772355364
 30
0.0
 11
1746.877005188301
 21
2333.999772355364
 31
0.0
  0
LINE
  5
9D
330
1F
100
AcDbEntity
  8
0-6_扉
  6
Continuous
 62
   200
370
    20
100
AcDbLine
 10
834.8770051883004
 20
2171.999683277028
 30
0.0
 11
1746.877005188301
 21
2171.999683277028
 31
0.0
  0
LINE
  5
9E
330
1F
100
AcDbEntity
  8
0-6_扉
  6
Continuous
 62
   200
370
    20
100
AcDbLine
 10
2850.877005188303
 20
2333.999772355364
 30
0.0
 11
3762.877005188304
 21
2333.999772355364
 31
0.0
  0
LINE
  5
9F
330
1F
100
AcDbEntity
  8
0-6_扉
  6
Continuous
 62
   200
370
    20
100
AcDbLine
 10
2850.877005188303
 20
2171.999683277028
 30
0.0
 11
3762.877005188304
 21
2171.999683277028
 31
0.0
  0
LINE
  5
A0
330
1F
100
AcDbEntity
  8
0-7_金物
  6
Continuous
 62
     7
370
     9
100
AcDbLine
 10
4784.496021204083
 20
2729.999772355365
 30
0.0
 11
4842.877005188282
 21
2729.999772355365
 31
0.0
  0
LINE
  5
A1
330
1F
100
AcDbEntity
  8
0-7_金物
  6
JWW_DASHED1
 62
     7
370
     9
100
AcDbLine
 10
4620.877005188297
 20
2333.999772355364
 30
0.0
 11
4620.877005188297
 21
2270.999772355365
 31
0.0
  0
LINE
  5
A2
330
1F
100
AcDbEntity
  8
0-7_金物
  6
JWW_DASHED1
 62
     7
370
     9
100
AcDbLine
 10
4620.877005188297
 20
2270.999772355365
 30
0.0
 11
4830.877005188297
 21
2270.999772355365
 31
0.0
  0
LINE
  5
A3
330
1F
100
AcDbEntity
  8
0-7_金物
  6
JWW_DASHED1
 62
     7
370
     9
100
AcDbLine
 10
4830.877005188297
 20
2333.999772355364
 30
0.0
 11
4830.877005188297
 21
2270.999772355365
 31
0.0
  0
LINE
  5
A4
330
1F
100
AcDbEntity
  8
0-7_金物
  6
Continuous
 62
     7
370
     9
100
AcDbLine
 10
4608.877005188298
 20
2351.999772355364
 30
0.0
 11
4608.877005188298
 21
2333.999772355364
 31
0.0
  0
LINE
  5
A5
330
1F
100
AcDbEntity
  8
0-7_金物
  6
Continuous
 62
     7
370
     9
100
AcDbLine
 10
4728.877005188298
 20
2351.999772355364
 30
0.0
 11
4608.877005188298
 21
2351.999772355364
 31
0.0
  0
LINE
  5
A6
330
1F
100
AcDbEntity
  8
0-7_金物
  6
Continuous
 62
     7
370
     9
100
AcDbLine
 10
4728.877005188298
 20
2351.999772355364
 30
0.0
 11
4728.877005188298
 21
2333.999772355364
 31
0.0
  0
LINE
  5
A7
330
1F
100
AcDbEntity
  8
0-7_金物
  6
Continuous
 62
     7
370
     9
100
AcDbLine
 10
4638.87700518828
 20
2351.999772355364
 30
0.0
 11
4638.87700518828
 21
2376.965583449049
 31
0.0
  0
LINE
  5
A8
330
1F
100
AcDbEntity
  8
0-7_金物
  6
Continuous
 62
     7
370
     9
100
AcDbLine
 10
4734.249330427413
 20
2447.311128306281
 30
0.0
 11
4638.87700518828
 21
2376.965583449049
 31
0.0
  0
LINE
  5
A9
330
1F
100
AcDbEntity
  8
0-7_金物
  6
Continuous
 62
     7
370
     9
100
AcDbLine
 10
4758.28189696358
 20
2489.106351651315
 30
0.0
 11
4784.496021204083
 21
2729.999772355365
 31
0.0
  0
ARC
  5
AA
330
1F
100
AcDbEntity
  8
0-7_金物
  6
Continuous
 62
     7
370
     9
100
AcDbCircle
 10
4698.634029142194
 20
2495.597257933358
 30
0.0
 40
60.0
100
AcDbArc
 50
306.4120644035237
 51
353.7894867559143
  0
LINE
  5
AB
330
1F
100
AcDbEntity
  8
0-7_金物
  6
Continuous
 62
     7
370
     9
100
AcDbLine
 10
4808.166197148805
 20
2383.217398185177
 30
0.0
 11
4728.877005188298
 21
2346.364675161279
 31
0.0
  0
LINE
  5
AC
330
1F
100
AcDbEntity
  8
0-7_金物
  6
Continuous
 62
     7
370
     9
100
AcDbLine
 10
4842.877005188282
 20
2437.627477857823
 30
0.0
 11
4842.877005188282
 21
2729.999772355365
 31
0.0
  0
ARC
  5
AD
330
1F
100
AcDbEntity
  8
0-7_金物
  6
Continuous
 62
     7
370
     9
100
AcDbCircle
 10
4782.877005188282
 20
2437.627477857823
 30
0.0
 40
60.0
100
AcDbArc
 50
294.9284741354608
 51
0.0000000000000254
  0
LINE
  5
AE
330
1F
100
AcDbEntity
  8
0-7_金物
  6
Continuous
 62
     7
370
     9
100
AcDbLine
 10
4842.877005188282
 20
2666.999772355364
 30
0.0
 11
4866.877005188281
 21
2666.999772355364
 31
0.0
  0
LINE
  5
AF
330
1F
100
AcDbEntity
  8
0-7_金物
  6
Continuous
 62
     7
370
     9
100
AcDbLine
 10
4842.877005188282
 20
2456.999772355364
 30
0.0
 11
4866.877005188285
 21
2456.999772355364
 31
0.0
  0
LINE
  5
B0
330
1F
100
AcDbEntity
  8
0-7_金物
  6
JWW_CENTER1
 62
     7
370
     9
100
AcDbLine
 10
4793.472130041231
 20
2561.999772355364
 30
0.0
 11
4921.980771704674
 21
2561.999772355364
 31
0.0
  0
LINE
  5
B1
330
1F
100
AcDbEntity
  8
0-7_金物
  6
Continuous
 62
     7
370
     9
100
AcDbLine
 10
905.2579891725106
 20
2729.999772355365
 30
0.0
 11
846.8770051883116
 21
2729.999772355365
 31
0.0
  0
LINE
  5
B2
330
1F
100
AcDbEntity
  8
0-7_金物
  6
JWW_DASHED1
 62
     7
370
     9
100
AcDbLine
 10
1068.877005188296
 20
2333.999772355364
 30
0.0
 11
1068.877005188296
 21
2270.999772355365
 31
0.0
  0
LINE
  5
B3
330
1F
100
AcDbEntity
  8
0-7_金物
  6
JWW_DASHED1
 62
     7
370
     9
100
AcDbLine
 10
1068.877005188296
 20
2270.999772355365
 30
0.0
 11
858.8770051882956
 21
2270.999772355365
 31
0.0
  0
LINE
  5
B4
330
1F
100
AcDbEntity
  8
0-7_金物
  6
JWW_DASHED1
 62
     7
370
     9
100
AcDbLine
 10
858.8770051882956
 20
2333.999772355364
 30
0.0
 11
858.8770051882956
 21
2270.999772355365
 31
0.0
  0
LINE
  5
B5
330
1F
100
AcDbEntity
  8
0-7_金物
  6
Continuous
 62
     7
370
     9
100
AcDbLine
 10
1080.877005188295
 20
2351.999772355364
 30
0.0
 11
1080.877005188295
 21
2333.999772355364
 31
0.0
  0
LINE
  5
B6
330
1F
100
AcDbEntity
  8
0-7_金物
  6
Continuous
 62
     7
370
     9
100
AcDbLine
 10
960.8770051882949
 20
2351.999772355364
 30
0.0
 11
1080.877005188295
 21
2351.999772355364
 31
0.0
  0
LINE
  5
B7
330
1F
100
AcDbEntity
  8
0-7_金物
  6
Continuous
 62
     7
370
     9
100
AcDbLine
 10
960.8770051882949
 20
2351.999772355364
 30
0.0
 11
960.8770051882949
 21
2333.999772355364
 31
0.0
  0
LINE
  5
B8
330
1F
100
AcDbEntity
  8
0-7_金物
  6
Continuous
 62
     7
370
     9
100
AcDbLine
 10
1050.877005188312
 20
2351.999772355364
 30
0.0
 11
1050.877005188312
 21
2376.965583449049
 31
0.0
  0
LINE
  5
B9
330
1F
100
AcDbEntity
  8
0-7_金物
  6
Continuous
 62
     7
370
     9
100
AcDbLine
 10
955.5046799491806
 20
2447.311128306281
 30
0.0
 11
1050.877005188312
 21
2376.965583449049
 31
0.0
  0
LINE
  5
BA
330
1F
100
AcDbEntity
  8
0-7_金物
  6
Continuous
 62
     7
370
     9
100
AcDbLine
 10
931.4721134130134
 20
2489.106351651315
 30
0.0
 11
905.2579891725106
 21
2729.999772355365
 31
0.0
  0
ARC
  5
BB
330
1F
100
AcDbEntity
  8
0-7_金物
  6
Continuous
 62
     7
370
     9
100
AcDbCircle
 10
991.1199812343996
 20
2495.597257933358
 30
0.0
 40
60.0
100
AcDbArc
 50
186.2105132440857
 51
233.5879355964763
  0
LINE
  5
BC
330
1F
100
AcDbEntity
  8
0-7_金物
  6
Continuous
 62
     7
370
     9
100
AcDbLine
 10
881.5878132277875
 20
2383.217398185177
 30
0.0
 11
960.8770051882949
 21
2346.364675161279
 31
0.0
  0
LINE
  5
BD
330
1F
100
AcDbEntity
  8
0-7_金物
  6
Continuous
 62
     7
370
     9
100
AcDbLine
 10
846.8770051883116
 20
2437.627477857823
 30
0.0
 11
846.8770051883116
 21
2729.999772355365
 31
0.0
  0
ARC
  5
BE
330
1F
100
AcDbEntity
  8
0-7_金物
  6
Continuous
 62
     7
370
     9
100
AcDbCircle
 10
906.8770051883116
 20
2437.627477857823
 30
0.0
 40
60.0
100
AcDbArc
 50
180.0
 51
245.0715258645393
  0
LINE
  5
BF
330
1F
100
AcDbEntity
  8
0-7_金物
  6
Continuous
 62
     7
370
     9
100
AcDbLine
 10
846.8770051883116
 20
2666.999772355364
 30
0.0
 11
822.8770051883113
 21
2666.999772355364
 31
0.0
  0
LINE
  5
C0
330
1F
100
AcDbEntity
  8
0-7_金物
  6
Continuous
 62
     7
370
     9
100
AcDbLine
 10
846.8770051883116
 20
2456.999772355364
 30
0.0
 11
822.8770051883079
 21
2456.999772355364
 31
0.0
  0
LINE
  5
C1
330
1F
100
AcDbEntity
  8
0-7_金物
  6
JWW_CENTER1
 62
     7
370
     9
100
AcDbLine
 10
896.2818803353623
 20
2561.999772355364
 30
0.0
 11
767.7732386719186
 21
2561.999772355364
 31
0.0
  0
LINE
  5
C2
330
1F
100
AcDbEntity
  8
0-0_補助線
  6
JWW_HOJO
 62
   120
370
     5
100
AcDbLine
 10
2844.877005188304
 20
2933.999683277028
 30
0.0
 11
2844.877005188304
 21
1944.75519856681
 31
0.0
  0
LINE
  5
C3
330
1F
100
AcDbEntity
  8
0-0_補助線
  6
JWW_HOJO
 62
   120
370
     5
100
AcDbLine
 10
5406.877599043863
 20
2946.000445391029
 30
0.0
 11
5406.877599043863
 21
1190.999648635453
 31
0.0
  0
LINE
  5
C4
330
1F
100
AcDbEntity
  8
0-3_仕上げ
  6
Continuous
 62
    40
370
    15
100
AcDbLine
 10
5046.877599043863
 20
2195.999683277029
 30
0.0
 11
5406.877599043863
 21
2195.999683277029
 31
0.0
  0
LINE
  5
C5
330
1F
100
AcDbEntity
  8
0-3_仕上げ
  6
Continuous
 62
    40
370
    15
100
AcDbLine
 10
5046.877599043863
 20
2270.999930716853
 30
0.0
 11
5406.877599043863
 21
2270.999930716853
 31
0.0
  0
LINE
  5
C6
330
1F
100
AcDbEntity
  8
0-0_補助線
  6
JWW_HOJO
 62
   120
370
     5
100
AcDbLine
 10
5466.877599043863
 20
2946.000445391029
 30
0.0
 11
5466.877599043863
 21
1190.999648635453
 31
0.0
  0
LINE
  5
C7
330
1F
100
AcDbEntity
  8
0-B_寸法
  6
Continuous
 62
   120
370
     5
100
AcDbLine
 10
5646.877599043863
 20
2123.999683277028
 30
0.0
 11
5646.877599043863
 21
2171.999683277028
 31
0.0
  0
LWPOLYLINE
  5
C8
330
1F
100
AcDbEntity
  8
0-B_寸法
  6
Continuous
 62
     7
370
     9
100
AcDbPolyline
 90
        4
 70
     1
 43
3.0
 10
5648.377599043863
 20
2123.999683277028
 42
0.4142135623731
 10
5646.877599043863
 20
2125.499683277028
 42
0.4142135623731
 10
5645.377599043862
 20
2123.999683277028
 42
0.4142135623731
 10
5646.877599043863
 20
2122.499683277029
 42
0.4142135623731
  0
LWPOLYLINE
  5
C9
330
1F
100
AcDbEntity
  8
0-B_寸法
  6
Continuous
 62
     7
370
     9
100
AcDbPolyline
 90
        4
 70
     1
 43
3.0
 10
5648.377599043863
 20
2171.999683277028
 42
0.4142135623731
 10
5646.877599043863
 20
2173.499683277028
 42
0.4142135623731
 10
5645.377599043862
 20
2171.999683277028
 42
0.4142135623731
 10
5646.877599043863
 20
2170.499683277028
 42
0.4142135623731
  0
LINE
  5
CA
330
1F
100
AcDbEntity
  8
0-B_寸法
  6
Continuous
 62
   120
370
     5
100
AcDbLine
 10
5646.877599043863
 20
2123.999683277028
 30
0.0
 11
5466.877599043863
 21
2123.999683277028
 31
0.0
  0
LINE
  5
CB
330
1F
100
AcDbEntity
  8
0-B_寸法
  6
Continuous
 62
   120
370
     5
100
AcDbLine
 10
5646.877599043863
 20
2171.999683277028
 30
0.0
 11
5466.877599043863
 21
2171.999683277028
 31
0.0
  0
MTEXT
  5
CC
330
1F
100
AcDbEntity
  8
0-B_寸法
  6
Continuous
 62
     7
370
   211
100
AcDbMText
 10
5631.877599043863
 20
2103.719683277029
 30
0.0
 40
91.44
 41
60.0
 46
0.0
 71
     7
 72
     1
  1
{\fＭＳ ゴシック|b0|i0|c128|p49;8}
 11
6.123031769111886E-17
 21
1.0
 31
0.0
 73
     1
 44
1.0
  0
LINE
  5
CD
330
1F
100
AcDbEntity
  8
0-B_寸法
  6
Continuous
 62
   120
370
     5
100
AcDbLine
 10
5646.877599043863
 20
2171.999683277028
 30
0.0
 11
5646.877599043863
 21
2333.999772355364
 31
0.0
  0
LWPOLYLINE
  5
CE
330
1F
100
AcDbEntity
  8
0-B_寸法
  6
Continuous
 62
     7
370
     9
100
AcDbPolyline
 90
        4
 70
     1
 43
3.0
 10
5648.377599043863
 20
2333.999772355364
 42
0.4142135623731
 10
5646.877599043863
 20
2335.499772355364
 42
0.4142135623731
 10
5645.377599043862
 20
2333.999772355364
 42
0.4142135623731
 10
5646.877599043863
 20
2332.499772355364
 42
0.4142135623731
  0
LINE
  5
CF
330
1F
100
AcDbEntity
  8
0-B_寸法
  6
Continuous
 62
   120
370
     5
100
AcDbLine
 10
5646.877599043863
 20
2333.999772355364
 30
0.0
 11
5466.877599043863
 21
2333.999772355364
 31
0.0
  0
MTEXT
  5
D0
330
1F
100
AcDbEntity
  8
0-B_寸法
  6
Continuous
 62
     7
370
   211
100
AcDbMText
 10
5631.877599043863
 20
2177.827227816196
 30
0.0
 40
97.15499999999999
 41
127.5
 46
0.0
 71
     7
 72
     1
  1
{\fＭＳ ゴシック|b0|i0|c128|p49;27}
 11
6.123031769111886E-17
 21
1.0
 31
0.0
 73
     1
 44
1.0
  0
LINE
  5
D1
330
1F
100
AcDbEntity
  8
0-C_ハッチ
  6
JWW_DASHED1
 62
   120
370
     5
100
AcDbLine
 10
5246.567474466163
 20
2195.999683277029
 30
0.0
 11
5321.567721905984
 21
2270.999930716853
 31
0.0
  0
LINE
  5
D2
330
1F
100
AcDbEntity
  8
0-C_ハッチ
  6
JWW_DASHED1
 62
   120
370
     5
100
AcDbLine
 10
5288.994001334829
 20
2195.999683277029
 30
0.0
 11
5363.99424877465
 21
2270.999930716853
 31
0.0
  0
LINE
  5
D3
330
1F
100
AcDbEntity
  8
0-C_ハッチ
  6
JWW_DASHED1
 62
   120
370
     5
100
AcDbLine
 10
5331.420528203494
 20
2195.999683277029
 30
0.0
 11
5406.420775643316
 21
2270.999930716853
 31
0.0
  0
LINE
  5
D4
330
1F
100
AcDbEntity
  8
0-C_ハッチ
  6
JWW_DASHED1
 62
   120
370
     5
100
AcDbLine
 10
5373.847055072159
 20
2195.999683277029
 30
0.0
 11
5406.877599043863
 21
2229.030227248732
 31
0.0
  0
LINE
  5
D5
330
1F
100
AcDbEntity
  8
0-0_補助線
  6
JWW_HOJO
 62
   120
370
     5
100
AcDbLine
 10
282.8764113327481
 20
2946.000445391029
 30
0.0
 11
282.8764113327481
 21
1190.999648635453
 31
0.0
  0
LINE
  5
D6
330
1F
100
AcDbEntity
  8
0-0_補助線
  6
JWW_HOJO
 62
   120
370
     5
100
AcDbLine
 10
5646.877599043866
 20
2946.000445391029
 30
0.0
 11
282.8764113327481
 21
2946.000445391029
 31
0.0
  0
LINE
  5
D7
330
1F
100
AcDbEntity
  8
0-1_通り芯
  6
JWW_CENTER1
 62
   120
370
     5
100
AcDbLine
 10
5406.877599043863
 20
2438.999683277027
 30
0.0
 11
282.8764113327481
 21
2438.999683277027
 31
0.0
  0
LINE
  5
D8
330
1F
100
AcDbEntity
  8
0-3_仕上げ
  6
Continuous
 62
    40
370
    15
100
AcDbLine
 10
642.8767824924672
 20
2270.999930716853
 30
0.0
 11
282.8764113327481
 21
2270.999930716853
 31
0.0
  0
LINE
  5
D9
330
1F
100
AcDbEntity
  8
0-C_ハッチ
  6
JWW_DASHED1
 62
   120
370
     5
100
AcDbLine
 10
282.8764113327481
 20
2236.326262602951
 30
0.0
 11
317.5500794466502
 21
2270.999930716853
 31
0.0
  0
LINE
  5
DA
330
1F
100
AcDbEntity
  8
0-3_仕上げ
  6
Continuous
 62
    40
370
    15
100
AcDbLine
 10
642.8767824924672
 20
2195.999683277029
 30
0.0
 11
282.8764113327481
 21
2195.999683277029
 31
0.0
  0
LINE
  5
DB
330
1F
100
AcDbEntity
  8
0-0_補助線
  6
JWW_HOJO
 62
   120
370
     5
100
AcDbLine
 10
5646.877599043863
 20
1943.999683277028
 30
0.0
 11
282.8764113327481
 21
1943.999683277028
 31
0.0
  0
LINE
  5
DC
330
1F
100
AcDbEntity
  8
0-0_補助線
  6
JWW_HOJO
 62
   120
370
     5
100
AcDbLine
 10
5646.877599043863
 20
1550.999648635453
 30
0.0
 11
282.8764113327481
 21
1550.999648635453
 31
0.0
  0
LINE
  5
DD
330
1F
100
AcDbEntity
  8
0-0_補助線
  6
JWW_HOJO
 62
   120
370
     5
100
AcDbLine
 10
5646.877599043863
 20
1370.999648635453
 30
0.0
 11
282.8764113327481
 21
1370.999648635453
 31
0.0
  0
LINE
  5
DE
330
1F
100
AcDbEntity
  8
0-0_補助線
  6
JWW_HOJO
 62
   120
370
     5
100
AcDbLine
 10
282.8764113327481
 20
1190.999648635453
 30
0.0
 11
5646.877599043863
 21
1190.999648635453
 31
0.0
  0
LINE
  5
DF
330
1F
100
AcDbEntity
  8
F-1_枠
  6
Continuous
 62
   200
370
    20
100
AcDbLine
 10
5859.917429364114
 20
-3790.000017526987
 30
0.0
 11
-5840.081085996952
 21
-3790.000017526987
 31
0.0
  0
LINE
  5
E0
330
1F
100
AcDbEntity
  8
F-0_補助線
  6
JWW_HOJO
 62
   120
370
     5
100
AcDbLine
 10
-6140.081333436773
 20
-4455.0
 30
0.0
 11
-6140.081333436773
 21
4424.999604096284
 31
0.0
  0
LINE
  5
E1
330
1F
100
AcDbEntity
  8
F-0_補助線
  6
JWW_HOJO
 62
   120
370
     5
100
AcDbLine
 10
-6140.081333436773
 20
4424.999604096284
 30
0.0
 11
6159.917676803936
 21
4424.999604096284
 31
0.0
  0
LINE
  5
E2
330
1F
100
AcDbEntity
  8
F-0_補助線
  6
JWW_HOJO
 62
   120
370
     5
100
AcDbLine
 10
6159.917676803936
 20
4424.999604096284
 30
0.0
 11
6159.917676803936
 21
-4455.0
 31
0.0
  0
LINE
  5
E3
330
1F
100
AcDbEntity
  8
F-0_補助線
  6
JWW_HOJO
 62
   120
370
     5
100
AcDbLine
 10
6159.917676803936
 20
-4455.0
 30
0.0
 11
-6140.081333436773
 21
-4455.0
 31
0.0
  0
LINE
  5
E4
330
1F
100
AcDbEntity
  8
F-1_枠
  6
Continuous
 62
   200
370
    20
100
AcDbLine
 10
5859.917429364114
 20
4174.999769056166
 30
0.0
 11
5859.917429364114
 21
-4205.000164959882
 31
0.0
  0
LINE
  5
E5
330
1F
100
AcDbEntity
  8
F-1_枠
  6
Continuous
 62
   200
370
    20
100
AcDbLine
 10
-5840.081317971782
 20
4174.999769056166
 30
0.0
 11
-5840.081317971782
 21
-4205.000164959882
 31
0.0
  0
LINE
  5
E6
330
1F
100
AcDbEntity
  8
F-1_枠
  6
Continuous
 62
   200
370
    20
100
AcDbLine
 10
5859.917429364114
 20
-4205.000002577498
 30
0.0
 11
-5840.081085996952
 21
-4205.000002577498
 31
0.0
  0
LINE
  5
E7
330
1F
100
AcDbEntity
  8
F-1_枠
  6
Continuous
 62
   200
370
    20
100
AcDbLine
 10
-5830.081323642279
 20
4174.999769056166
 30
0.0
 11
-5830.081323642279
 21
-4205.000164959882
 31
0.0
  0
LINE
  5
E8
330
1F
100
AcDbEntity
  8
F-1_枠
  6
Continuous
 62
   200
370
    20
100
AcDbLine
 10
-5835.081309208291
 20
4174.999769056166
 30
0.0
 11
-5835.081309208291
 21
-4205.000164959882
 31
0.0
  0
LINE
  5
E9
330
1F
100
AcDbEntity
  8
F-1_枠
  6
Continuous
 62
   200
370
    20
100
AcDbLine
 10
5854.917165428304
 20
4174.999769056166
 30
0.0
 11
5854.917165428304
 21
-4205.000164959882
 31
0.0
  0
LINE
  5
EA
330
1F
100
AcDbEntity
  8
F-1_枠
  6
Continuous
 62
   200
370
    20
100
AcDbLine
 10
5849.917643811961
 20
4174.999769056166
 30
0.0
 11
5849.917643811961
 21
-4205.000164959882
 31
0.0
  0
LINE
  5
EB
330
1F
100
AcDbEntity
  8
F-1_枠
  6
Continuous
 62
   200
370
    20
100
AcDbLine
 10
5859.917429364114
 20
-4199.999993814004
 30
0.0
 11
-5840.081085996952
 21
-4199.999993814004
 31
0.0
  0
LINE
  5
EC
330
1F
100
AcDbEntity
  8
F-1_枠
  6
Continuous
 62
   200
370
    20
100
AcDbLine
 10
4349.917891251784
 20
-3795.000003092998
 30
0.0
 11
4349.917891251784
 21
-4195.000008247994
 31
0.0
  0
LINE
  5
ED
330
1F
100
AcDbEntity
  8
F-1_枠
  6
Continuous
 62
   200
370
    20
100
AcDbLine
 10
2849.917396372139
 20
-3795.000003092998
 30
0.0
 11
2849.917396372139
 21
-4195.000008247994
 31
0.0
  0
LINE
  5
EE
330
1F
100
AcDbEntity
  8
F-1_枠
  6
Continuous
 62
   200
370
    20
100
AcDbLine
 10
9.918542843316231
 20
-3795.000003092998
 30
0.0
 11
9.918542843316231
 21
-4195.000008247994
 31
0.0
  0
LINE
  5
EF
330
1F
100
AcDbEntity
  8
F-1_枠
  6
Continuous
 62
   200
370
    20
100
AcDbLine
 10
9.918542843316231
 20
-3994.999936078046
 30
0.0
 11
5849.917643811961
 21
-3995.005364289155
 31
0.0
  0
LINE
  5
F0
330
1F
100
AcDbEntity
  8
F-1_枠
  6
Continuous
 62
   200
370
    20
100
AcDbLine
 10
-5840.081085996952
 20
4174.999769056166
 30
0.0
 11
5859.917429364114
 21
4174.999769056166
 31
0.0
  0
LINE
  5
F1
330
1F
100
AcDbEntity
  8
F-1_枠
  6
Continuous
 62
   200
370
    20
100
AcDbLine
 10
-5840.081085996952
 20
4164.999983504013
 30
0.0
 11
5859.917429364114
 21
4164.999983504013
 31
0.0
  0
LINE
  5
F2
330
1F
100
AcDbEntity
  8
F-1_枠
  6
Continuous
 62
   200
370
    20
100
AcDbLine
 10
-5840.081085996952
 20
4169.999505120355
 30
0.0
 11
5859.917429364114
 21
4169.999505120355
 31
0.0
  0
LINE
  5
F3
330
1F
100
AcDbEntity
  8
F-0_補助線
  6
JWW_HOJO
 62
     7
370
     9
100
AcDbLine
 10
-5830.081323642279
 20
-3994.99993607839
 30
0.0
 11
9.918542843316231
 21
-3994.99993607839
 31
0.0
  0
LINE
  5
F4
330
1F
100
AcDbEntity
  8
F-0_補助線
  6
JWW_HOJO
 62
     7
370
     9
100
AcDbLine
 10
-5830.081323642279
 20
-3904.99993607839
 30
0.0
 11
9.918542843316231
 21
-3904.99993607839
 31
0.0
  0
LINE
  5
F5
330
1F
100
AcDbEntity
  8
F-0_補助線
  6
JWW_HOJO
 62
     7
370
     9
100
AcDbLine
 10
-5830.081323642279
 20
-4084.99993607839
 30
0.0
 11
9.918542843316231
 21
-4084.99993607839
 31
0.0
  0
LINE
  5
F6
330
1F
100
AcDbEntity
  8
F-0_補助線
  6
JWW_HOJO
 62
     7
370
     9
100
AcDbLine
 10
9.918408067688347
 20
-4139.999739777983
 30
0.0
 11
5849.917509036332
 21
-4140.005167989091
 31
0.0
  0
LINE
  5
F7
330
1F
100
AcDbEntity
  8
F-0_補助線
  6
JWW_HOJO
 62
     7
370
     9
100
AcDbLine
 10
9.918491721639953
 20
-4049.999739778022
 30
0.0
 11
5849.917592690284
 21
-4050.005167989131
 31
0.0
  0
LINE
  5
F8
330
1F
100
AcDbEntity
  8
F-0_補助線
  6
JWW_HOJO
 62
     7
370
     9
100
AcDbLine
 10
9.918593965360003
 20
-3939.99973721807
 30
0.0
 11
5849.917694934004
 21
-3940.005165429179
 31
0.0
  0
LINE
  5
F9
330
1F
100
AcDbEntity
  8
F-0_補助線
  6
JWW_HOJO
 62
     7
370
     9
100
AcDbLine
 10
9.918677619311609
 20
-3849.999737218109
 30
0.0
 11
5849.917778587956
 21
-3850.005165429218
 31
0.0
  0
LINE
  5
FA
330
1F
100
AcDbEntity
  8
F-0_補助線
  6
JWW_HOJO
 62
     7
370
     9
100
AcDbLine
 10
2939.917396372139
 20
-3795.000003092998
 30
0.0
 11
2939.917396372139
 21
-4195.000008247994
 31
0.0
  0
LINE
  5
FB
330
1F
100
AcDbEntity
  8
F-0_補助線
  6
JWW_HOJO
 62
     7
370
     9
100
AcDbLine
 10
99.91854284331623
 20
-3795.000003092998
 30
0.0
 11
99.91854284331623
 21
-4195.000008247994
 31
0.0
  0
LINE
  5
FC
330
1F
100
AcDbEntity
  8
F-0_補助線
  6
JWW_HOJO
 62
     7
370
     9
100
AcDbLine
 10
4439.917891251784
 20
-3795.000003092998
 30
0.0
 11
4439.917891251784
 21
-4195.000008247994
 31
0.0
  0
MTEXT
  5
FD
330
1F
100
AcDbEntity
  8
F-A_文字
  6
Continuous
 62
     7
370
     0
100
AcDbMText
 10
99.91854284331623
 20
-3887.139820871936
 30
0.0
 40
45.72
 41
180.0
 46
0.0
 71
     7
 72
     1
  1
{\fＭＳ ゴシック|b0|i0|c128|p49;図面名}
 73
     1
 44
1.0
  0
MTEXT
  5
FE
330
1F
100
AcDbEntity
  8
F-A_文字
  6
Continuous
 62
     7
370
     0
100
AcDbMText
 10
2939.917396372139
 20
-3887.142460617774
 30
0.0
 40
45.72
 41
300.0
 46
0.0
 71
     7
 72
     1
  1
{\fＭＳ ゴシック|b0|i0|c128|p49;ＳＣＡＬＥ}
 73
     1
 44
1.0
  0
MTEXT
  5
FF
330
1F
100
AcDbEntity
  8
F-A_文字
  6
Continuous
 62
     7
370
     0
100
AcDbMText
 10
4439.917891251784
 20
-3887.143854850754
 30
0.0
 40
45.72
 41
240.0
 46
0.0
 71
     7
 72
     1
  1
{\fＭＳ ゴシック|b0|i0|c128|p49;ＤＡＴＥ}
 73
     1
 44
1.0
  0
LINE
  5
100
330
1F
100
AcDbEntity
  8
F-1_枠
  6
Continuous
 62
   200
370
    20
100
AcDbLine
 10
5859.917429364114
 20
-3795.000003092998
 30
0.0
 11
-5840.081085996952
 21
-3795.000003092998
 31
0.0
  0
LINE
  5
101
330
1F
100
AcDbEntity
  8
F-0_補助線
  6
JWW_HOJO
 62
     7
370
     9
100
AcDbLine
 10
-5087.628710189611
 20
-3795.000003092999
 30
0.0
 11
-5087.628710189611
 21
-4205.000164959882
 31
0.0
  0
LINE
  5
102
330
1F
100
AcDbEntity
  8
F-0_補助線
  6
JWW_HOJO
 62
     7
370
     9
100
AcDbLine
 10
-50.08145715668377
 20
-3795.000003092998
 30
0.0
 11
-50.08145715668377
 21
-4195.000008247994
 31
0.0
  0
MTEXT
  5
103
330
1F
100
AcDbEntity
  8
F-A_文字
  6
Continuous
 62
     7
370
     0
100
AcDbMText
 10
2939.917396372139
 20
-4087.14246317786
 30
0.0
 40
45.72
 41
240.0
 46
0.0
 71
     7
 72
     1
  1
{\fＭＳ ゴシック|b0|i0|c128|p49;ＦＩＬＥ}
 73
     1
 44
1.0
  0
MTEXT
  5
104
330
1F
100
AcDbEntity
  8
F-A_文字
  6
Continuous
 62
     7
370
     0
100
AcDbMText
 10
4439.917891251784
 20
-4087.143857410839
 30
0.0
 40
45.72
 41
180.0
 46
0.0
 71
     7
 72
     1
  1
{\fＭＳ ゴシック|b0|i0|c128|p49;ＮＯ．}
 73
     1
 44
1.0
  0
MTEXT
  5
105
330
1F
100
AcDbEntity
  8
F-A_文字
  6
Continuous
 62
     7
370
     0
100
AcDbMText
 10
1394.917396372138
 20
-4096.140669266149
 30
0.0
 40
45.72
 41
120.0
 46
0.0
 71
     7
 72
     1
  1
{\fＭＳ ゴシック|b0|i0|c128|p49;株式}
 73
     1
 44
1.0
  0
MTEXT
  5
106
330
1F
100
AcDbEntity
  8
F-A_文字
  6
Continuous
 62
     7
370
     0
100
AcDbMText
 10
1604.917396372138
 20
-4164.281754523929
 30
0.0
 40
101.44125
 41
1065.0
 46
0.0
 71
     7
 72
     1
  1
{\fＭＳ ゴシック|b0|i0|c128|p49;ウッドワン・・・}
 73
     1
 44
1.0
  0
MTEXT
  5
107
330
1F
100
AcDbEntity
  8
F-A_文字
  6
Continuous
 62
     7
370
     0
100
AcDbMText
 10
1394.917396372138
 20
-4168.140669266187
 30
0.0
 40
45.72
 41
120.0
 46
0.0
 71
     7
 72
     1
  1
{\fＭＳ ゴシック|b0|i0|c128|p49;会社}
 73
     1
 44
1.0
  0
MTEXT
  5
108
330
1F
100
AcDbEntity
  8
F-A_文字
  6
Continuous
 62
     7
370
     0
100
AcDbMText
 10
5768.321977672939
 20
-4314.841419020919
 30
0.0
 40
68.58
 41
90.0
 46
0.0
 71
     7
 72
     1
  1
{\fＭＳ ゴシック|b0|i0|c128|p49;）}
 73
     1
 44
1.0
  0
MTEXT
  5
109
330
1F
100
AcDbEntity
  8
F-A_文字
  6
Continuous
 62
     7
370
     0
100
AcDbMText
 10
5350.114617405298
 20
-4316.235443869856
 30
0.0
 40
68.58
 41
45.0
 46
0.0
 71
     7
 72
     1
  1
{\fＭＳ ゴシック|b0|i0|c128|p49;,}
 73
     1
 44
1.0
  0
MTEXT
  5
10A
330
1F
100
AcDbEntity
  8
F-A_文字
  6
Continuous
 62
     7
370
     0
100
AcDbMText
 10
5083.855928478601
 20
-4314.771967288282
 30
0.0
 40
74.295
 41
97.5
 46
0.0
 71
     7
 72
     1
  1
{\fＭＳ ゴシック|b0|i0|c128|p49;$y}
 73
     1
 44
1.0
  0
MTEXT
  5
10B
330
1F
100
AcDbEntity
  8
F-A_文字
  6
Continuous
 62
     7
370
     0
100
AcDbMText
 10
5238.592649517422
 20
-4314.771967288282
 30
0.0
 40
74.295
 41
97.5
 46
0.0
 71
     7
 72
     1
  1
{\fＭＳ ゴシック|b0|i0|c128|p49;$m}
 73
     1
 44
1.0
  0
MTEXT
  5
10C
330
1F
100
AcDbEntity
  8
F-A_文字
  6
Continuous
 62
     7
370
     0
100
AcDbMText
 10
5393.32938200033
 20
-4314.771967288282
 30
0.0
 40
74.295
 41
97.5
 46
0.0
 71
     7
 72
     1
  1
{\fＭＳ ゴシック|b0|i0|c128|p49;$d}
 73
     1
 44
1.0
  0
MTEXT
  5
10D
330
1F
100
AcDbEntity
  8
F-A_文字
  6
Continuous
 62
     7
370
     0
100
AcDbMText
 10
5548.066114483239
 20
-4314.771967288282
 30
0.0
 40
74.295
 41
195.0
 46
0.0
 71
     7
 72
     1
  1
{\fＭＳ ゴシック|b0|i0|c128|p49;印刷}
 73
     1
 44
1.0
  0
MTEXT
  5
10E
330
1F
100
AcDbEntity
  8
F-A_文字
  6
Continuous
 62
     7
370
     0
100
AcDbMText
 10
4943.952040816226
 20
-4319.023493567732
 30
0.0
 40
68.58
 41
90.0
 46
0.0
 71
     7
 72
     1
  1
{\fＭＳ ゴシック|b0|i0|c128|p49;（}
 73
     1
 44
1.0
  0
MTEXT
  5
10F
330
1F
100
AcDbEntity
  8
F-A_文字
  6
Continuous
 62
     7
370
     0
100
AcDbMText
 10
5191.195810375571
 20
-4319.023493567732
 30
0.0
 40
68.58
 41
45.0
 46
0.0
 71
     7
 72
     1
  1
{\fＭＳ ゴシック|b0|i0|c128|p49;,}
 73
     1
 44
1.0
  0
MTEXT
  5
110
330
1F
100
AcDbEntity
  8
F-A_文字
  6
Continuous
 62
     7
370
     9
100
AcDbMText
 10
5096.167700144058
 20
-4147.857012699985
 30
0.0
 40
74.295
 41
97.5
 46
0.0
 71
     7
 72
     1
  1
{\fＭＳ ゴシック|b0|i0|c128|p49;01}
 73
     1
 44
1.0
  0
LINE
  5
111
330
1F
100
AcDbEntity
  8
F-0_補助線
  6
JWW_HOJO
 62
     7
370
     9
100
AcDbLine
 10
3764.917643811961
 20
-3795.000003092998
 30
0.0
 11
3764.917643811961
 21
-4195.000008247994
 31
0.0
  0
MTEXT
  5
112
330
1F
100
AcDbEntity
  8
F-A_文字
  6
Continuous
 62
     7
370
     0
100
AcDbMText
 10
3689.917643811961
 20
-3946.903115907308
 30
0.0
 40
76.19999999999999
 41
150.0
 46
0.0
 71
     7
 72
     1
  1
{\fＭＳ ゴシック|b0|i0|c128|p49;1/5}
 73
     1
 44
1.0
  0
LINE
  5
113
330
1F
100
AcDbEntity
  8
0-0_補助線
  6
JWW_HOJO
 62
   120
370
     5
100
AcDbLine
 10
-6140.081333436773
 20
4000.000181455871
 30
0.0
 11
6159.917676803938
 21
4000.000181455871
 31
0.0
  0
LINE
  5
114
330
1F
100
AcDbEntity
  8
0-0_補助線
  6
JWW_HOJO
 62
   120
370
     5
100
AcDbLine
 10
-6140.081333436773
 20
3730.000181455871
 30
0.0
 11
6159.917676803938
 21
3730.000181455871
 31
0.0
  0
LINE
  5
115
330
1F
100
AcDbEntity
  8
0-0_補助線
  6
JWW_HOJO
 62
   120
370
     5
100
AcDbLine
 10
-6140.081333436773
 20
194.9998020481414
 30
0.0
 11
6159.917676803938
 21
194.9998020481414
 31
0.0
  0
LINE
  5
116
330
1F
100
AcDbEntity
  8
0-0_補助線
  6
JWW_HOJO
 62
   120
370
     5
100
AcDbLine
 10
-6140.081333436773
 20
-3159.000197951857
 30
0.0
 11
6159.917676803938
 21
-3159.000197951857
 31
0.0
  0
LINE
  5
117
330
1F
100
AcDbEntity
  8
0-0_補助線
  6
JWW_HOJO
 62
   120
370
     5
100
AcDbLine
 10
5679.835838693025
 20
4424.999604096284
 30
0.0
 11
5679.835838693025
 21
-4455.000000000002
 31
0.0
  0
LINE
  5
118
330
1F
100
AcDbEntity
  8
0-0_補助線
  6
JWW_HOJO
 62
   120
370
     5
100
AcDbLine
 10
2844.877005188304
 20
-4455.000000000002
 30
0.0
 11
2844.877005188304
 21
4424.999604096284
 31
0.0
  0
LINE
  5
119
330
1F
100
AcDbEntity
  8
0-0_補助線
  6
JWW_HOJO
 62
   120
370
     5
100
AcDbLine
 10
9.91817168358267
 20
-4455.000000000002
 30
0.0
 11
9.91817168358267
 21
4424.999604096284
 31
0.0
  0
LINE
  5
11A
330
1F
100
AcDbEntity
  8
0-0_補助線
  6
JWW_HOJO
 62
   120
370
     5
100
AcDbLine
 10
-2825.040661821139
 20
4424.999604096284
 30
0.0
 11
-2825.040661821139
 21
-4455.000000000002
 31
0.0
  0
LINE
  5
11B
330
1F
100
AcDbEntity
  8
0-0_補助線
  6
JWW_HOJO
 62
   120
370
     5
100
AcDbLine
 10
-5659.999495325861
 20
4424.999604096284
 30
0.0
 11
-5659.999495325861
 21
-4455.000000000002
 31
0.0
  0
LINE
  5
11C
330
1F
100
AcDbEntity
  8
0-0_補助線
  6
JWW_HOJO
 62
   120
370
     5
100
AcDbLine
 10
-6140.081333436773
 20
2438.999683277028
 30
0.0
 11
6159.917676803938
 21
2438.999683277028
 31
0.0
  0
LINE
  5
11D
330
1F
100
AcDbEntity
  8
0-0_補助線
  6
JWW_HOJO
 62
   120
370
     5
100
AcDbLine
 10
-5387.041255676697
 20
2946.000445391029
 30
0.0
 11
-5387.041255676697
 21
980.9992032437724
 31
0.0
  0
LINE
  5
11E
330
1F
100
AcDbEntity
  8
0-7_金物
  6
Continuous
 62
     7
370
     9
100
AcDbLine
 10
-5027.040513357256
 20
2531.999717609306
 30
0.0
 11
-5033.040582021797
 21
2531.999717609306
 31
0.0
  0
LINE
  5
11F
330
1F
100
AcDbEntity
  8
0-7_金物
  6
Continuous
 62
     7
370
     9
100
AcDbLine
 10
-5033.040582021797
 20
2423.999648944755
 30
0.0
 11
-5027.040513357256
 21
2423.999648944755
 31
0.0
  0
LINE
  5
120
330
1F
100
AcDbEntity
  8
0-7_金物
  6
Continuous
 62
     7
370
     9
100
AcDbLine
 10
-5033.040582021797
 20
2417.999483005424
 30
0.0
 11
-5033.040582021797
 21
2537.99913968267
 31
0.0
  0
LINE
  5
121
330
1F
100
AcDbEntity
  8
0-7_金物
  6
Continuous
 62
     7
370
     9
100
AcDbLine
 10
-5045.040175756536
 20
2537.99913968267
 30
0.0
 11
-5033.040582021797
 21
2537.99913968267
 31
0.0
  0
LINE
  5
122
330
1F
100
AcDbEntity
  8
0-7_金物
  6
Continuous
 62
     7
370
     9
100
AcDbLine
 10
-5045.040175756536
 20
2417.999483005424
 30
0.0
 11
-5033.040582021797
 21
2417.999483005424
 31
0.0
  0
LINE
  5
123
330
1F
100
AcDbEntity
  8
0-7_金物
  6
Continuous
 62
     7
370
     9
100
AcDbLine
 10
-5057.040513357243
 20
2387.999380008599
 30
0.0
 11
-5057.040513357243
 21
2567.999242679497
 31
0.0
  0
LINE
  5
124
330
1F
100
AcDbEntity
  8
0-7_金物
  6
Continuous
 62
     7
370
     9
100
AcDbLine
 10
-5057.040513357243
 20
2387.999380008599
 30
0.0
 11
-5045.040175756536
 21
2387.999380008599
 31
0.0
  0
LINE
  5
125
330
1F
100
AcDbEntity
  8
0-7_金物
  6
Continuous
 62
     7
370
     9
100
AcDbLine
 10
-5057.040513357243
 20
2567.999242679497
 30
0.0
 11
-5045.040175756536
 21
2567.999242679497
 31
0.0
  0
LINE
  5
126
330
1F
100
AcDbEntity
  8
0-7_金物
  6
Continuous
 62
     7
370
     9
100
AcDbLine
 10
-5045.040175756536
 20
2387.999380008599
 30
0.0
 11
-5045.040175756536
 21
2567.999242679497
 31
0.0
  0
LINE
  5
127
330
1F
100
AcDbEntity
  8
0-7_金物
  6
Continuous
 62
     7
370
     9
100
AcDbLine
 10
-623.040067965582
 20
2531.999717609306
 30
0.0
 11
-617.0399993010408
 21
2531.999717609306
 31
0.0
  0
LINE
  5
128
330
1F
100
AcDbEntity
  8
0-7_金物
  6
Continuous
 62
     7
370
     9
100
AcDbLine
 10
-617.0399993010408
 20
2423.999648944755
 30
0.0
 11
-623.040067965582
 21
2423.999648944755
 31
0.0
  0
LINE
  5
129
330
1F
100
AcDbEntity
  8
0-7_金物
  6
Continuous
 62
     7
370
     9
100
AcDbLine
 10
-617.0399993010408
 20
2417.999483005424
 30
0.0
 11
-617.0399993010408
 21
2537.99913968267
 31
0.0
  0
LINE
  5
12A
330
1F
100
AcDbEntity
  8
0-7_金物
  6
Continuous
 62
     7
370
     9
100
AcDbLine
 10
-605.0404055662999
 20
2537.99913968267
 30
0.0
 11
-617.0399993010408
 21
2537.99913968267
 31
0.0
  0
LINE
  5
12B
330
1F
100
AcDbEntity
  8
0-7_金物
  6
Continuous
 62
     7
370
     9
100
AcDbLine
 10
-605.0404055662999
 20
2417.999483005424
 30
0.0
 11
-617.0399993010408
 21
2417.999483005424
 31
0.0
  0
LINE
  5
12C
330
1F
100
AcDbEntity
  8
0-7_金物
  6
Continuous
 62
     7
370
     9
100
AcDbLine
 10
-593.0400679655905
 20
2387.999380008599
 30
0.0
 11
-593.0400679655905
 21
2567.999242679497
 31
0.0
  0
LINE
  5
12D
330
1F
100
AcDbEntity
  8
0-7_金物
  6
Continuous
 62
     7
370
     9
100
AcDbLine
 10
-593.0400679655905
 20
2387.999380008599
 30
0.0
 11
-605.0404055662999
 21
2387.999380008599
 31
0.0
  0
LINE
  5
12E
330
1F
100
AcDbEntity
  8
0-7_金物
  6
Continuous
 62
     7
370
     9
100
AcDbLine
 10
-593.0400679655905
 20
2567.999242679497
 30
0.0
 11
-605.0404055662999
 21
2567.999242679497
 31
0.0
  0
LINE
  5
12F
330
1F
100
AcDbEntity
  8
0-7_金物
  6
Continuous
 62
     7
370
     9
100
AcDbLine
 10
-605.0404055662999
 20
2387.999380008599
 30
0.0
 11
-605.0404055662999
 21
2567.999242679497
 31
0.0
  0
LINE
  5
130
330
1F
100
AcDbEntity
  8
0-0_補助線
  6
JWW_HOJO
 62
   120
370
     5
100
AcDbLine
 10
-3803.040661821142
 20
2933.999683277028
 30
0.0
 11
-3803.040661821142
 21
1943.999683277028
 31
0.0
  0
LINE
  5
131
330
1F
100
AcDbEntity
  8
0-0_補助線
  6
JWW_HOJO
 62
   120
370
     5
100
AcDbLine
 10
-1787.040661821139
 20
2933.999683277028
 30
0.0
 11
-1787.040661821139
 21
1943.999683277028
 31
0.0
  0
LINE
  5
132
330
1F
100
AcDbEntity
  8
0-0_補助線
  6
JWW_HOJO
 62
   120
370
     5
100
AcDbLine
 10
-2825.04066182114
 20
2933.999683277028
 30
0.0
 11
-2825.04066182114
 21
1943.999683277028
 31
0.0
  0
LINE
  5
133
330
1F
100
AcDbEntity
  8
0-0_補助線
  6
JWW_HOJO
 62
   120
370
     5
100
AcDbLine
 10
-3923.040661821141
 20
2933.999683277028
 30
0.0
 11
-3923.040661821141
 21
1943.999683277028
 31
0.0
  0
LINE
  5
134
330
1F
100
AcDbEntity
  8
0-0_補助線
  6
JWW_HOJO
 62
   120
370
     5
100
AcDbLine
 10
-1907.040661821139
 20
2933.999683277028
 30
0.0
 11
-1907.040661821139
 21
1943.999683277028
 31
0.0
  0
LWPOLYLINE
  5
135
330
1F
100
AcDbEntity
  8
0-B_寸法
  6
Continuous
 62
     7
370
     9
100
AcDbPolyline
 90
        4
 70
     1
 43
3.0
 10
-5025.540884516976
 20
1190.999648635453
 42
0.4142135623731
 10
-5027.040884516976
 20
1192.499648635453
 42
0.4142135623731
 10
-5028.540884516977
 20
1190.999648635453
 42
0.4142135623731
 10
-5027.040884516976
 20
1189.499648635453
 42
0.4142135623731
  0
LWPOLYLINE
  5
136
330
1F
100
AcDbEntity
  8
0-B_寸法
  6
Continuous
 62
     7
370
     9
100
AcDbPolyline
 90
        4
 70
     1
 43
3.0
 10
-621.540067965582
 20
1190.999648635453
 42
0.4142135623731
 10
-623.040067965582
 20
1192.499648635453
 42
0.4142135623731
 10
-624.540067965582
 20
1190.999648635453
 42
0.4142135623731
 10
-623.040067965582
 20
1189.499648635453
 42
0.4142135623731
  0
LINE
  5
137
330
1F
100
AcDbEntity
  8
0-B_寸法
  6
Continuous
 62
   120
370
     5
100
AcDbLine
 10
-2831.040661821141
 20
1550.999648635453
 30
0.0
 11
-2831.040661821141
 21
1943.999683277028
 31
0.0
  0
LINE
  5
138
330
1F
100
AcDbEntity
  8
0-B_寸法
  6
Continuous
 62
   120
370
     5
100
AcDbLine
 10
-2819.04066182114
 20
1550.999648635453
 30
0.0
 11
-2819.04066182114
 21
1943.999683277028
 31
0.0
  0
MTEXT
  5
139
330
1F
100
AcDbEntity
  8
0-B_寸法
  6
Continuous
 62
     7
370
     0
100
AcDbMText
 10
-3095.04047624128
 20
1188.719203243772
 30
0.0
 40
91.43999999999998
 41
540.0
 46
0.0
 71
     7
 72
     1
  1
{\fＭＳ ゴシック|b0|i0|c128|p49;枠外＝734}
 73
     1
 44
1.0
  0
MTEXT
  5
13A
330
1F
100
AcDbEntity
  8
0-B_寸法
  6
Continuous
 62
     7
370
     0
100
AcDbMText
 10
-3095.04047624128
 20
1368.719425939612
 30
0.0
 40
91.43999999999998
 41
540.0
 46
0.0
 71
     7
 72
     1
  1
{\fＭＳ ゴシック|b0|i0|c128|p49;枠内＝674}
 73
     1
 44
1.0
  0
MTEXT
  5
13B
330
1F
100
AcDbEntity
  8
0-B_寸法
  6
Continuous
 62
     7
370
   211
100
AcDbMText
 10
-2087.04066182114
 20
1551.719648635453
 30
0.0
 40
91.43999999999998
 41
540.0
 46
0.0
 71
     7
 72
     1
  1
{\fＭＳ ゴシック|b0|i0|c128|p49;ＤＷ＝334}
 73
     1
 44
1.0
  0
LINE
  5
13C
330
1F
100
AcDbEntity
  8
0-B_寸法
  6
Continuous
 62
   120
370
     5
100
AcDbLine
 10
-623.040067965582
 20
1943.999683277028
 30
0.0
 11
-623.040067965582
 21
1190.999203243772
 31
0.0
  0
LINE
  5
13D
330
1F
100
AcDbEntity
  8
0-B_寸法
  6
Continuous
 62
   120
370
     5
100
AcDbLine
 10
-803.0399195016884
 20
1943.999683277028
 30
0.0
 11
-803.0399195016884
 21
1370.999425939612
 31
0.0
  0
LINE
  5
13E
330
1F
100
AcDbEntity
  8
0-B_寸法
  6
Continuous
 62
   120
370
     5
100
AcDbLine
 10
-815.0406618211395
 20
1550.999648635453
 30
0.0
 11
-815.0406618211395
 21
1943.999683277028
 31
0.0
  0
LINE
  5
13F
330
1F
100
AcDbEntity
  8
0-B_寸法
  6
Continuous
 62
   120
370
     5
100
AcDbLine
 10
-4835.040661821143
 20
1550.999648635453
 30
0.0
 11
-4835.040661821143
 21
1943.999683277028
 31
0.0
  0
LINE
  5
140
330
1F
100
AcDbEntity
  8
0-B_寸法
  6
Continuous
 62
   120
370
     5
100
AcDbLine
 10
-4847.04103298087
 20
1943.999683277028
 30
0.0
 11
-4847.04103298087
 21
1370.999425939612
 31
0.0
  0
LINE
  5
141
330
1F
100
AcDbEntity
  8
0-B_寸法
  6
Continuous
 62
   120
370
     5
100
AcDbLine
 10
-5027.040884516976
 20
1190.999203243772
 30
0.0
 11
-5027.040884516976
 21
1943.999683277028
 31
0.0
  0
MTEXT
  5
142
330
1F
100
AcDbEntity
  8
0-B_寸法
  6
Continuous
 62
     7
370
   211
100
AcDbMText
 10
-4103.04066182114
 20
1551.719648635453
 30
0.0
 40
91.4399999999995
 41
539.999999999997
 46
0.0
 71
     7
 72
     1
  1
{\fＭＳ ゴシック|b0|i0|c128|p49;ＤＷ＝334}
 73
     1
 44
1.0
  0
LINE
  5
143
330
1F
100
AcDbEntity
  8
0-B_寸法
  6
Continuous
 62
   120
370
     5
100
AcDbLine
 10
-803.0399195016884
 20
1550.999648635453
 30
0.0
 11
-4847.04103298087
 21
1550.999648635453
 31
0.0
  0
LINE
  5
144
330
1F
100
AcDbEntity
  8
0-B_寸法
  6
Continuous
 62
   120
370
     5
100
AcDbLine
 10
-5027.040884516976
 20
1190.999203243772
 30
0.0
 11
-623.040067965582
 21
1190.999203243772
 31
0.0
  0
LINE
  5
145
330
1F
100
AcDbEntity
  8
0-B_寸法
  6
Continuous
 62
   120
370
     5
100
AcDbLine
 10
-5027.040884516976
 20
1370.999425939612
 30
0.0
 11
-623.040067965582
 21
1370.999425939612
 31
0.0
  0
MTEXT
  5
146
330
1F
100
AcDbEntity
  8
0-B_寸法
  6
Continuous
 62
     7
370
     0
100
AcDbMText
 10
-776.7898205257587
 20
1371.719475427577
 30
0.0
 40
91.44
 41
120.0
 46
0.0
 71
     7
 72
     1
  1
{\fＭＳ ゴシック|b0|i0|c128|p49;30}
 73
     1
 44
1.0
  0
MTEXT
  5
147
330
1F
100
AcDbEntity
  8
0-B_寸法
  6
Continuous
 62
     7
370
   211
100
AcDbMText
 10
-877.6872622745293
 20
1551.719648635453
 30
0.0
 40
91.44
 41
60.0
 46
0.0
 71
     7
 72
     1
  1
{\fＭＳ ゴシック|b0|i0|c128|p49;2}
 73
     1
 44
1.0
  0
LINE
  5
148
330
1F
100
AcDbEntity
  8
0-B_寸法
  6
Continuous
 62
   120
370
     5
100
AcDbLine
 10
-803.0406618211538
 20
1550.999648635453
 30
0.0
 11
-803.0406618211538
 21
1880.999920819258
 31
0.0
  0
LWPOLYLINE
  5
149
330
1F
100
AcDbEntity
  8
0-B_寸法
  6
Continuous
 62
     7
370
     9
100
AcDbPolyline
 90
        4
 70
     1
 43
3.0
 10
-801.5406618211537
 20
1550.999648635453
 42
0.4142135623731
 10
-803.0406618211538
 20
1552.499648635453
 42
0.4142135623731
 10
-804.5406618211538
 20
1550.999648635453
 42
0.4142135623731
 10
-803.0406618211538
 20
1549.499648635453
 42
0.4142135623731
  0
LWPOLYLINE
  5
14A
330
1F
100
AcDbEntity
  8
0-B_寸法
  6
Continuous
 62
     7
370
     9
100
AcDbPolyline
 90
        4
 70
     1
 43
3.0
 10
-813.5406618211393
 20
1550.999648635453
 42
0.4142135623731
 10
-815.0406618211395
 20
1552.499648635453
 42
0.4142135623731
 10
-816.5406618211395
 20
1550.999648635453
 42
0.4142135623731
 10
-815.0406618211395
 20
1549.499648635453
 42
0.4142135623731
  0
LWPOLYLINE
  5
14B
330
1F
100
AcDbEntity
  8
0-B_寸法
  6
Continuous
 62
     7
370
     9
100
AcDbPolyline
 90
        4
 70
     1
 43
3.0
 10
-621.540067965582
 20
1370.999425939612
 42
0.4142135623731
 10
-623.040067965582
 20
1372.499425939612
 42
0.4142135623731
 10
-624.540067965582
 20
1370.999425939612
 42
0.4142135623731
 10
-623.040067965582
 20
1369.499425939612
 42
0.4142135623731
  0
LWPOLYLINE
  5
14C
330
1F
100
AcDbEntity
  8
0-B_寸法
  6
Continuous
 62
     7
370
     9
100
AcDbPolyline
 90
        4
 70
     1
 43
3.0
 10
-621.540067965582
 20
1190.999203243772
 42
0.4142135623731
 10
-623.040067965582
 20
1192.499203243772
 42
0.4142135623731
 10
-624.540067965582
 20
1190.999203243772
 42
0.4142135623731
 10
-623.040067965582
 20
1189.499203243772
 42
0.4142135623731
  0
LWPOLYLINE
  5
14D
330
1F
100
AcDbEntity
  8
0-B_寸法
  6
Continuous
 62
     7
370
     9
100
AcDbPolyline
 90
        4
 70
     1
 43
3.0
 10
-801.5399195016882
 20
1370.999425939612
 42
0.4142135623731
 10
-803.0399195016884
 20
1372.499425939612
 42
0.4142135623731
 10
-804.5399195016884
 20
1370.999425939612
 42
0.4142135623731
 10
-803.0399195016884
 20
1369.499425939612
 42
0.4142135623731
  0
MTEXT
  5
14E
330
1F
100
AcDbEntity
  8
0-B_寸法
  6
Continuous
 62
     7
370
   211
100
AcDbMText
 10
-2813.871035356438
 20
1551.719648635453
 30
0.0
 40
91.44
 41
60.0
 46
0.0
 71
     7
 72
     1
  1
{\fＭＳ ゴシック|b0|i0|c128|p49;2}
 73
     1
 44
1.0
  0
LWPOLYLINE
  5
14F
330
1F
100
AcDbEntity
  8
0-B_寸法
  6
Continuous
 62
     7
370
     9
100
AcDbPolyline
 90
        4
 70
     1
 43
3.0
 10
-2817.54066182114
 20
1550.999648635453
 42
0.4142135623731
 10
-2819.04066182114
 20
1552.499648635453
 42
0.4142135623731
 10
-2820.54066182114
 20
1550.999648635453
 42
0.4142135623731
 10
-2819.04066182114
 20
1549.499648635453
 42
0.4142135623731
  0
LWPOLYLINE
  5
150
330
1F
100
AcDbEntity
  8
0-B_寸法
  6
Continuous
 62
     7
370
     9
100
AcDbPolyline
 90
        4
 70
     1
 43
3.0
 10
-2829.540661821141
 20
1550.999648635453
 42
0.4142135623731
 10
-2831.040661821141
 20
1552.499648635453
 42
0.4142135623731
 10
-2832.540661821141
 20
1550.999648635453
 42
0.4142135623731
 10
-2831.040661821141
 20
1549.499648635453
 42
0.4142135623731
  0
MTEXT
  5
151
330
1F
100
AcDbEntity
  8
0-B_寸法
  6
Continuous
 62
     7
370
     0
100
AcDbMText
 10
-5000.790971120914
 20
1371.719475427577
 30
0.0
 40
91.44
 41
120.0
 46
0.0
 71
     7
 72
     1
  1
{\fＭＳ ゴシック|b0|i0|c128|p49;30}
 73
     1
 44
1.0
  0
MTEXT
  5
152
330
1F
100
AcDbEntity
  8
0-B_寸法
  6
Continuous
 62
     7
370
   211
100
AcDbMText
 10
-4833.3195028507
 20
1551.719648635453
 30
0.0
 40
91.44
 41
60.0
 46
0.0
 71
     7
 72
     1
  1
{\fＭＳ ゴシック|b0|i0|c128|p49;2}
 73
     1
 44
1.0
  0
LWPOLYLINE
  5
153
330
1F
100
AcDbEntity
  8
0-B_寸法
  6
Continuous
 62
     7
370
     9
100
AcDbPolyline
 90
        4
 70
     1
 43
3.0
 10
-4833.540661821143
 20
1550.999648635453
 42
0.4142135623731
 10
-4835.040661821143
 20
1552.499648635453
 42
0.4142135623731
 10
-4836.540661821144
 20
1550.999648635453
 42
0.4142135623731
 10
-4835.040661821143
 20
1549.499648635453
 42
0.4142135623731
  0
LWPOLYLINE
  5
154
330
1F
100
AcDbEntity
  8
0-B_寸法
  6
Continuous
 62
     7
370
     9
100
AcDbPolyline
 90
        4
 70
     1
 43
3.0
 10
-4845.54103298087
 20
1550.999648635453
 42
0.4142135623731
 10
-4847.04103298087
 20
1552.499648635453
 42
0.4142135623731
 10
-4848.54103298087
 20
1550.999648635453
 42
0.4142135623731
 10
-4847.04103298087
 20
1549.499648635453
 42
0.4142135623731
  0
LWPOLYLINE
  5
155
330
1F
100
AcDbEntity
  8
0-B_寸法
  6
Continuous
 62
     7
370
     9
100
AcDbPolyline
 90
        4
 70
     1
 43
3.0
 10
-5025.540884516976
 20
1370.999425939612
 42
0.4142135623731
 10
-5027.040884516976
 20
1372.499425939612
 42
0.4142135623731
 10
-5028.540884516977
 20
1370.999425939612
 42
0.4142135623731
 10
-5027.040884516976
 20
1369.499425939612
 42
0.4142135623731
  0
LWPOLYLINE
  5
156
330
1F
100
AcDbEntity
  8
0-B_寸法
  6
Continuous
 62
     7
370
     9
100
AcDbPolyline
 90
        4
 70
     1
 43
3.0
 10
-4845.54103298087
 20
1370.999425939612
 42
0.4142135623731
 10
-4847.04103298087
 20
1372.499425939612
 42
0.4142135623731
 10
-4848.54103298087
 20
1370.999425939612
 42
0.4142135623731
 10
-4847.04103298087
 20
1369.499425939612
 42
0.4142135623731
  0
LWPOLYLINE
  5
157
330
1F
100
AcDbEntity
  8
0-B_寸法
  6
Continuous
 62
     7
370
     9
100
AcDbPolyline
 90
        4
 70
     1
 43
3.0
 10
-5025.540884516976
 20
1190.999203243772
 42
0.4142135623731
 10
-5027.040884516976
 20
1192.499203243772
 42
0.4142135623731
 10
-5028.540884516977
 20
1190.999203243772
 42
0.4142135623731
 10
-5027.040884516976
 20
1189.499203243772
 42
0.4142135623731
  0
LINE
  5
158
330
1F
100
AcDbEntity
  8
0-B_寸法
  6
Continuous
 62
   120
370
     5
100
AcDbLine
 10
-593.0395978299306
 20
1190.999203243772
 30
0.0
 11
-623.040067965582
 21
1190.999203243772
 31
0.0
  0
LWPOLYLINE
  5
159
330
1F
100
AcDbEntity
  8
0-B_寸法
  6
Continuous
 62
     7
370
     9
100
AcDbPolyline
 90
        4
 70
     1
 43
3.0
 10
-591.5400679655905
 20
1190.999203243772
 42
0.4142135623731
 10
-593.0400679655905
 20
1192.499203243772
 42
0.4142135623731
 10
-594.5400679655905
 20
1190.999203243772
 42
0.4142135623731
 10
-593.0400679655905
 20
1189.499203243772
 42
0.4142135623731
  0
LINE
  5
15A
330
1F
100
AcDbEntity
  8
0-B_寸法
  6
Continuous
 62
   120
370
     5
100
AcDbLine
 10
-593.0400679655905
 20
1190.999203243772
 30
0.0
 11
-593.0400679655905
 21
1943.999683277028
 31
0.0
  0
LWPOLYLINE
  5
15B
330
1F
100
AcDbEntity
  8
0-B_寸法
  6
Continuous
 62
     7
370
     9
100
AcDbPolyline
 90
        4
 70
     1
 43
3.0
 10
-591.5395978299306
 20
1190.999203243772
 42
0.4142135623731
 10
-593.0395978299306
 20
1192.499203243772
 42
0.4142135623731
 10
-594.5395978299306
 20
1190.999203243772
 42
0.4142135623731
 10
-593.0395978299306
 20
1189.499203243772
 42
0.4142135623731
  0
LINE
  5
15C
330
1F
100
AcDbEntity
  8
0-B_寸法
  6
Continuous
 62
   120
370
     5
100
AcDbLine
 10
-593.0395978299306
 20
980.9992032437724
 30
0.0
 11
-593.0395978299306
 21
1943.999683277028
 31
0.0
  0
LINE
  5
15D
330
1F
100
AcDbEntity
  8
0-B_寸法
  6
Continuous
 62
   120
370
     5
100
AcDbLine
 10
-5057.040513357243
 20
1190.999203243772
 30
0.0
 11
-5027.040884516976
 21
1190.999203243772
 31
0.0
  0
LWPOLYLINE
  5
15E
330
1F
100
AcDbEntity
  8
0-B_寸法
  6
Continuous
 62
     7
370
     9
100
AcDbPolyline
 90
        4
 70
     1
 43
3.0
 10
-5055.540513357242
 20
1190.999203243772
 42
0.4142135623731
 10
-5057.040513357243
 20
1192.499203243772
 42
0.4142135623731
 10
-5058.540513357243
 20
1190.999203243772
 42
0.4142135623731
 10
-5057.040513357243
 20
1189.499203243772
 42
0.4142135623731
  0
LINE
  5
15F
330
1F
100
AcDbEntity
  8
0-B_寸法
  6
Continuous
 62
   120
370
     5
100
AcDbLine
 10
-5057.040513357243
 20
980.9992032437724
 30
0.0
 11
-5057.040513357243
 21
1943.999683277028
 31
0.0
  0
LINE
  5
160
330
1F
100
AcDbEntity
  8
0-B_寸法
  6
Continuous
 62
   120
370
     5
100
AcDbLine
 10
-5057.040513357243
 20
980.9992032437724
 30
0.0
 11
-593.0395978299306
 21
980.9992032437724
 31
0.0
  0
LWPOLYLINE
  5
161
330
1F
100
AcDbEntity
  8
0-B_寸法
  6
Continuous
 62
     7
370
     9
100
AcDbPolyline
 90
        4
 70
     1
 43
3.0
 10
-5055.540513357242
 20
980.9992032437724
 42
0.4142135623731
 10
-5057.040513357243
 20
982.4992032437723
 42
0.4142135623731
 10
-5058.540513357243
 20
980.9992032437724
 42
0.4142135623731
 10
-5057.040513357243
 20
979.4992032437724
 42
0.4142135623731
  0
LWPOLYLINE
  5
162
330
1F
100
AcDbEntity
  8
0-B_寸法
  6
Continuous
 62
     7
370
     9
100
AcDbPolyline
 90
        4
 70
     1
 43
3.0
 10
-591.5395978299306
 20
980.9992032437724
 42
0.4142135623731
 10
-593.0395978299306
 20
982.4992032437723
 42
0.4142135623731
 10
-594.5395978299306
 20
980.9992032437724
 42
0.4142135623731
 10
-593.0395978299306
 20
979.4992032437724
 42
0.4142135623731
  0
MTEXT
  5
163
330
1F
100
AcDbEntity
  8
0-B_寸法
  6
Continuous
 62
     7
370
   211
100
AcDbMText
 10
-5005.080651764782
 20
1191.719203243772
 30
0.0
 40
91.44
 41
60.0
 46
0.0
 71
     7
 72
     1
  1
{\fＭＳ ゴシック|b0|i0|c128|p49;5}
 73
     1
 44
1.0
  0
MTEXT
  5
164
330
1F
100
AcDbEntity
  8
0-B_寸法
  6
Continuous
 62
     7
370
   211
100
AcDbMText
 10
-701.5977047556634
 20
1191.719203243772
 30
0.0
 40
91.44
 41
60.0
 46
0.0
 71
     7
 72
     1
  1
{\fＭＳ ゴシック|b0|i0|c128|p49;5}
 73
     1
 44
1.0
  0
MTEXT
  5
165
330
1F
100
AcDbEntity
  8
0-B_寸法
  6
Continuous
 62
     7
370
   211
100
AcDbMText
 10
-3192.540055593587
 20
986.9146577892269
 30
0.0
 40
101.8309090909091
 41
735.0
 46
0.0
 71
     7
 72
     1
  1
{\fＭＳ ゴシック|b0|i0|c128|p49;ＲＯＷ＝744}
 73
     1
 44
1.0
  0
LINE
  5
166
330
1F
100
AcDbEntity
  8
0-C_ハッチ
  6
JWW_DASHED1
 62
   120
370
     5
100
AcDbLine
 10
-465.7767194119474
 20
2195.999683277029
 30
0.0
 11
-390.7764719721256
 21
2270.999930716853
 31
0.0
  0
LINE
  5
167
330
1F
100
AcDbEntity
  8
0-C_ハッチ
  6
JWW_DASHED1
 62
   120
370
     5
100
AcDbLine
 10
-508.203246280613
 20
2195.999683277029
 30
0.0
 11
-433.2029988407912
 21
2270.999930716853
 31
0.0
  0
LINE
  5
168
330
1F
100
AcDbEntity
  8
0-C_ハッチ
  6
JWW_DASHED1
 62
   120
370
     5
100
AcDbLine
 10
-550.6297731492787
 20
2195.999683277029
 30
0.0
 11
-475.6295257094569
 21
2270.999930716853
 31
0.0
  0
LINE
  5
169
330
1F
100
AcDbEntity
  8
0-C_ハッチ
  6
JWW_DASHED1
 62
   120
370
     5
100
AcDbLine
 10
-593.0563000179443
 20
2195.999683277029
 30
0.0
 11
-518.0560525781225
 21
2270.999930716853
 31
0.0
  0
LINE
  5
16A
330
1F
100
AcDbEntity
  8
0-C_ハッチ
  6
JWW_DASHED1
 62
   120
370
     5
100
AcDbLine
 10
-623.040067965582
 20
2208.441699878591
 30
0.0
 11
-560.4818371273193
 21
2270.999930716853
 31
0.0
  0
LINE
  5
16B
330
1F
100
AcDbEntity
  8
0-C_ハッチ
  6
JWW_DASHED1
 62
   120
370
     5
100
AcDbLine
 10
-5384.941308133952
 20
2195.999683277029
 30
0.0
 11
-5309.941060694126
 21
2270.999930716853
 31
0.0
  0
LINE
  5
16C
330
1F
100
AcDbEntity
  8
0-C_ハッチ
  6
JWW_DASHED1
 62
   120
370
     5
100
AcDbLine
 10
-5342.514781265286
 20
2195.999683277029
 30
0.0
 11
-5267.514533825463
 21
2270.999930716853
 31
0.0
  0
LINE
  5
16D
330
1F
100
AcDbEntity
  8
0-C_ハッチ
  6
JWW_DASHED1
 62
   120
370
     5
100
AcDbLine
 10
-5300.088254396621
 20
2195.999683277029
 30
0.0
 11
-5225.088006956796
 21
2270.999930716853
 31
0.0
  0
LINE
  5
16E
330
1F
100
AcDbEntity
  8
0-C_ハッチ
  6
JWW_DASHED1
 62
   120
370
     5
100
AcDbLine
 10
-5257.662469847421
 20
2195.999683277029
 30
0.0
 11
-5182.662222407601
 21
2270.999930716853
 31
0.0
  0
LINE
  5
16F
330
1F
100
AcDbEntity
  8
0-C_ハッチ
  6
JWW_DASHED1
 62
   120
370
     5
100
AcDbLine
 10
-5215.235942978755
 20
2195.999683277029
 30
0.0
 11
-5140.235695538933
 21
2270.999930716853
 31
0.0
  0
LINE
  5
170
330
1F
100
AcDbEntity
  8
0-C_ハッチ
  6
JWW_DASHED1
 62
   120
370
     5
100
AcDbLine
 10
-5172.809416110092
 20
2195.999683277029
 30
0.0
 11
-5097.809168670267
 21
2270.999930716853
 31
0.0
  0
LINE
  5
171
330
1F
100
AcDbEntity
  8
0-C_ハッチ
  6
JWW_DASHED1
 62
   120
370
     5
100
AcDbLine
 10
-5130.383260401158
 20
2195.999683277029
 30
0.0
 11
-5055.383012961336
 21
2270.999930716853
 31
0.0
  0
LINE
  5
172
330
1F
100
AcDbEntity
  8
0-C_ハッチ
  6
JWW_DASHED1
 62
   120
370
     5
100
AcDbLine
 10
-5087.956733532495
 20
2195.999683277029
 30
0.0
 11
-5027.040884516976
 21
2256.915903452283
 31
0.0
  0
LINE
  5
173
330
1F
100
AcDbEntity
  8
0-C_ハッチ
  6
JWW_DASHED1
 62
   120
370
     5
100
AcDbLine
 10
-5045.530206663827
 20
2195.999683277029
 30
0.0
 11
-5027.040884516976
 21
2214.48863426415
 31
0.0
  0
LINE
  5
174
330
1F
100
AcDbEntity
  8
0-3_仕上げ
  6
Continuous
 62
    92
370
    13
100
AcDbLine
 10
-593.0395978299306
 20
2270.999930716853
 30
0.0
 11
-593.0395978299306
 21
2761.879977170366
 31
0.0
  0
LINE
  5
175
330
1F
100
AcDbEntity
  8
0-3_仕上げ
  6
Continuous
 62
    92
370
    13
100
AcDbLine
 10
-5057.040612333183
 20
2270.999930716853
 30
0.0
 11
-5057.040612333183
 21
2794.491195545198
 31
0.0
  0
LINE
  5
176
330
1F
100
AcDbEntity
  8
0-B_寸法
  6
Continuous
 62
   120
370
     5
100
AcDbLine
 10
-4454.434427657285
 20
2753.999683277026
 30
0.0
 11
-4454.434427657285
 21
2123.999683277028
 31
0.0
  0
LWPOLYLINE
  5
177
330
1F
100
AcDbEntity
  8
0-B_寸法
  6
Continuous
 62
     7
370
     9
100
AcDbPolyline
 90
        4
 70
     1
 43
3.0
 10
-4452.934427657285
 20
2753.999683277026
 42
0.4142135623731
 10
-4454.434427657285
 20
2755.499683277026
 42
0.4142135623731
 10
-4455.934427657286
 20
2753.999683277026
 42
0.4142135623731
 10
-4454.434427657285
 20
2752.499683277026
 42
0.4142135623731
  0
LWPOLYLINE
  5
178
330
1F
100
AcDbEntity
  8
0-B_寸法
  6
Continuous
 62
     7
370
     9
100
AcDbPolyline
 90
        4
 70
     1
 43
3.0
 10
-4452.934427657285
 20
2123.999683277028
 42
0.4142135623731
 10
-4454.434427657285
 20
2125.499683277028
 42
0.4142135623731
 10
-4455.934427657286
 20
2123.999683277028
 42
0.4142135623731
 10
-4454.434427657285
 20
2122.499683277029
 42
0.4142135623731
  0
LINE
  5
179
330
1F
100
AcDbEntity
  8
0-B_寸法
  6
Continuous
 62
   120
370
     5
100
AcDbLine
 10
-4454.434427657285
 20
2753.999683277026
 30
0.0
 11
-4634.434427657286
 21
2753.999683277026
 31
0.0
  0
LINE
  5
17A
330
1F
100
AcDbEntity
  8
0-B_寸法
  6
Continuous
 62
   120
370
     5
100
AcDbLine
 10
-4454.434427657285
 20
2123.999683277028
 30
0.0
 11
-4634.434427657286
 21
2123.999683277028
 31
0.0
  0
MTEXT
  5
17B
330
1F
100
AcDbEntity
  8
0-B_寸法
  6
Continuous
 62
     7
370
   211
100
AcDbMText
 10
-4469.434427657285
 20
2331.029683277028
 30
0.0
 40
99.06
 41
195.0
 46
0.0
 71
     7
 72
     1
  1
{\fＭＳ ゴシック|b0|i0|c128|p49;105}
 11
6.123031769111886E-17
 21
1.0
 31
0.0
 73
     1
 44
1.0
  0
MTEXT
  5
17C
330
1F
100
AcDbEntity
  8
0-B_寸法
  6
Continuous
 62
     7
370
     0
100
AcDbMText
 10
-4048.604508846834
 20
2114.968416385137
 30
0.0
 40
91.44
 41
240.0
 46
0.0
 71
     7
 72
     1
  1
{\fＭＳ ゴシック|b0|i0|c128|p49;(24)}
 11
6.123031769111886E-17
 21
1.0
 31
0.0
 73
     1
 44
1.0
  0
LINE
  5
17D
330
1F
100
AcDbEntity
  8
0-6_扉
  6
Continuous
 62
   200
370
    20
100
AcDbLine
 10
-4835.040661821143
 20
2333.999772355364
 30
0.0
 11
-4835.040661821143
 21
2171.999683277028
 31
0.0
  0
LINE
  5
17E
330
1F
100
AcDbEntity
  8
0-6_扉
  6
Continuous
 62
   200
370
    20
100
AcDbLine
 10
-815.0406618211395
 20
2333.999772355364
 30
0.0
 11
-815.0406618211395
 21
2171.999683277028
 31
0.0
  0
MTEXT
  5
17F
330
1F
100
AcDbEntity
  8
0-B_寸法
  6
Continuous
 62
     7
370
     0
100
AcDbMText
 10
-4198.604607822762
 20
2174.968416385137
 30
0.0
 40
91.44
 41
120.0
 46
0.0
 71
     7
 72
     1
  1
{\fＭＳ ゴシック|b0|i0|c128|p49;27}
 11
6.123031769111886E-17
 21
1.0
 31
0.0
 73
     1
 44
1.0
  0
LINE
  5
180
330
1F
100
AcDbEntity
  8
0-B_寸法
  6
Continuous
 62
   120
370
     5
100
AcDbLine
 10
-4183.604558334798
 20
2333.999772355364
 30
0.0
 11
-4183.604558334798
 21
2171.997456318625
 31
0.0
  0
LINE
  5
181
330
1F
100
AcDbEntity
  8
0-B_寸法
  6
Continuous
 62
   120
370
     5
100
AcDbLine
 10
-4254.965955742948
 20
2333.999772355364
 30
0.0
 11
-4183.604558334798
 21
2333.999772355364
 31
0.0
  0
LINE
  5
182
330
1F
100
AcDbEntity
  8
0-B_寸法
  6
Continuous
 62
   120
370
     5
100
AcDbLine
 10
-4254.965955742948
 20
2171.997456318625
 30
0.0
 11
-4183.604558334798
 21
2171.997456318625
 31
0.0
  0
LWPOLYLINE
  5
183
330
1F
100
AcDbEntity
  8
0-B_寸法
  6
Continuous
 62
     7
370
     9
100
AcDbPolyline
 90
        4
 70
     1
 43
3.0
 10
-4182.104558334797
 20
2333.999772355364
 42
0.4142135623731
 10
-4183.604558334798
 20
2335.499772355364
 42
0.4142135623731
 10
-4185.104558334798
 20
2333.999772355364
 42
0.4142135623731
 10
-4183.604558334798
 20
2332.499772355364
 42
0.4142135623731
  0
LWPOLYLINE
  5
184
330
1F
100
AcDbEntity
  8
0-B_寸法
  6
Continuous
 62
     7
370
     9
100
AcDbPolyline
 90
        4
 70
     1
 43
3.0
 10
-4182.104558334797
 20
2171.997456318625
 42
0.4142135623731
 10
-4183.604558334798
 20
2173.497456318624
 42
0.4142135623731
 10
-4185.104558334798
 20
2171.997456318625
 42
0.4142135623731
 10
-4183.604558334798
 20
2170.497456318625
 42
0.4142135623731
  0
LINE
  5
185
330
1F
100
AcDbEntity
  8
0-6_扉
  6
Continuous
 62
   200
370
    20
100
AcDbLine
 10
-1787.040661821139
 20
2333.999772355364
 30
0.0
 11
-815.0406618211395
 21
2333.999772355364
 31
0.0
  0
LINE
  5
186
330
1F
100
AcDbEntity
  8
0-6_扉
  6
Continuous
 62
   200
370
    20
100
AcDbLine
 10
-1787.040661821139
 20
2171.999683277028
 30
0.0
 11
-815.0406618211395
 21
2171.999683277028
 31
0.0
  0
LINE
  5
187
330
1F
100
AcDbEntity
  8
0-6_扉
  6
Continuous
 62
   200
370
    20
100
AcDbLine
 10
-3803.040661821142
 20
2333.999772355364
 30
0.0
 11
-2831.040661821141
 21
2333.999772355364
 31
0.0
  0
LINE
  5
188
330
1F
100
AcDbEntity
  8
0-6_扉
  6
Continuous
 62
   200
370
    20
100
AcDbLine
 10
-2831.040661821141
 20
2333.999772355364
 30
0.0
 11
-2831.040661821141
 21
2171.999683277028
 31
0.0
  0
LINE
  5
189
330
1F
100
AcDbEntity
  8
0-6_扉
  6
Continuous
 62
   200
370
    20
100
AcDbLine
 10
-2819.04066182114
 20
2333.999772355364
 30
0.0
 11
-2819.04066182114
 21
2171.999683277028
 31
0.0
  0
LINE
  5
18A
330
1F
100
AcDbEntity
  8
0-6_扉
  6
Continuous
 62
   200
370
    20
100
AcDbLine
 10
-3803.040661821142
 20
2171.999683277028
 30
0.0
 11
-2831.040661821141
 21
2171.999683277028
 31
0.0
  0
LINE
  5
18B
330
1F
100
AcDbEntity
  8
0-6_扉
  6
Continuous
 62
   200
370
    20
100
AcDbLine
 10
-4835.040661821143
 20
2333.999772355364
 30
0.0
 11
-3923.040661821141
 21
2333.999772355364
 31
0.0
  0
LINE
  5
18C
330
1F
100
AcDbEntity
  8
0-6_扉
  6
Continuous
 62
   200
370
    20
100
AcDbLine
 10
-4835.040661821143
 20
2171.999683277028
 30
0.0
 11
-3923.040661821141
 21
2171.999683277028
 31
0.0
  0
LINE
  5
18D
330
1F
100
AcDbEntity
  8
0-6_扉
  6
Continuous
 62
   200
370
    20
100
AcDbLine
 10
-2819.04066182114
 20
2333.999772355364
 30
0.0
 11
-1907.040661821139
 21
2333.999772355364
 31
0.0
  0
LINE
  5
18E
330
1F
100
AcDbEntity
  8
0-6_扉
  6
Continuous
 62
   200
370
    20
100
AcDbLine
 10
-2819.04066182114
 20
2171.999683277028
 30
0.0
 11
-1907.040661821139
 21
2171.999683277028
 31
0.0
  0
LINE
  5
18F
330
1F
100
AcDbEntity
  8
0-7_金物
  6
Continuous
 62
     7
370
     9
100
AcDbLine
 10
-885.4216458053617
 20
2729.999772355364
 30
0.0
 11
-827.0406618211626
 21
2729.999772355364
 31
0.0
  0
LINE
  5
190
330
1F
100
AcDbEntity
  8
0-7_金物
  6
JWW_DASHED1
 62
     7
370
     9
100
AcDbLine
 10
-1049.040661821147
 20
2333.999772355364
 30
0.0
 11
-1049.040661821147
 21
2270.999772355365
 31
0.0
  0
LINE
  5
191
330
1F
100
AcDbEntity
  8
0-7_金物
  6
JWW_DASHED1
 62
     7
370
     9
100
AcDbLine
 10
-1049.040661821147
 20
2270.999772355365
 30
0.0
 11
-839.0406618211466
 21
2270.999772355365
 31
0.0
  0
LINE
  5
192
330
1F
100
AcDbEntity
  8
0-7_金物
  6
JWW_DASHED1
 62
     7
370
     9
100
AcDbLine
 10
-839.0406618211466
 20
2333.999772355364
 30
0.0
 11
-839.0406618211466
 21
2270.999772355365
 31
0.0
  0
LINE
  5
193
330
1F
100
AcDbEntity
  8
0-7_金物
  6
Continuous
 62
     7
370
     9
100
AcDbLine
 10
-1061.040661821144
 20
2351.999772355364
 30
0.0
 11
-1061.040661821144
 21
2333.999772355364
 31
0.0
  0
LINE
  5
194
330
1F
100
AcDbEntity
  8
0-7_金物
  6
Continuous
 62
     7
370
     9
100
AcDbLine
 10
-941.0406618211442
 20
2351.999772355364
 30
0.0
 11
-1061.040661821144
 21
2351.999772355364
 31
0.0
  0
LINE
  5
195
330
1F
100
AcDbEntity
  8
0-7_金物
  6
Continuous
 62
     7
370
     9
100
AcDbLine
 10
-941.0406618211442
 20
2351.999772355364
 30
0.0
 11
-941.0406618211442
 21
2333.999772355364
 31
0.0
  0
LINE
  5
196
330
1F
100
AcDbEntity
  8
0-7_金物
  6
Continuous
 62
     7
370
     9
100
AcDbLine
 10
-1031.040661821163
 20
2351.999772355364
 30
0.0
 11
-1031.040661821163
 21
2376.965583449049
 31
0.0
  0
LINE
  5
197
330
1F
100
AcDbEntity
  8
0-7_金物
  6
Continuous
 62
     7
370
     9
100
AcDbLine
 10
-935.6683365820317
 20
2447.31112830628
 30
0.0
 11
-1031.040661821163
 21
2376.965583449049
 31
0.0
  0
LINE
  5
198
330
1F
100
AcDbEntity
  8
0-7_金物
  6
Continuous
 62
     7
370
     9
100
AcDbLine
 10
-911.6357700458644
 20
2489.106351651315
 30
0.0
 11
-885.4216458053617
 21
2729.999772355364
 31
0.0
  0
ARC
  5
199
330
1F
100
AcDbEntity
  8
0-7_金物
  6
Continuous
 62
     7
370
     9
100
AcDbCircle
 10
-971.2836378672507
 20
2495.597257933358
 30
0.0
 40
60.0
100
AcDbArc
 50
306.4120644035237
 51
353.7894867559143
  0
LINE
  5
19A
330
1F
100
AcDbEntity
  8
0-7_金物
  6
Continuous
 62
     7
370
     9
100
AcDbLine
 10
-861.7514698606385
 20
2383.217398185177
 30
0.0
 11
-941.0406618211442
 21
2346.364675161279
 31
0.0
  0
LINE
  5
19B
330
1F
100
AcDbEntity
  8
0-7_金物
  6
Continuous
 62
     7
370
     9
100
AcDbLine
 10
-827.0406618211626
 20
2437.627477857823
 30
0.0
 11
-827.0406618211626
 21
2729.999772355364
 31
0.0
  0
ARC
  5
19C
330
1F
100
AcDbEntity
  8
0-7_金物
  6
Continuous
 62
     7
370
     9
100
AcDbCircle
 10
-887.0406618211626
 20
2437.627477857823
 30
0.0
 40
60.0
100
AcDbArc
 50
294.9284741354608
 51
0.0000000000000254
  0
LINE
  5
19D
330
1F
100
AcDbEntity
  8
0-7_金物
  6
Continuous
 62
     7
370
     9
100
AcDbLine
 10
-827.0406618211626
 20
2666.999772355365
 30
0.0
 11
-803.0406618211606
 21
2666.999772355365
 31
0.0
  0
LINE
  5
19E
330
1F
100
AcDbEntity
  8
0-7_金物
  6
Continuous
 62
     7
370
     9
100
AcDbLine
 10
-827.0406618211626
 20
2456.999772355365
 30
0.0
 11
-803.0406618211589
 21
2456.999772355365
 31
0.0
  0
LINE
  5
19F
330
1F
100
AcDbEntity
  8
0-7_金物
  6
JWW_CENTER1
 62
     7
370
     9
100
AcDbLine
 10
-876.4455369682133
 20
2561.999772355365
 30
0.0
 11
-747.9368953047679
 21
2561.999772355365
 31
0.0
  0
LINE
  5
1A0
330
1F
100
AcDbEntity
  8
0-7_金物
  6
Continuous
 62
     7
370
     9
100
AcDbLine
 10
-4764.659677836932
 20
2729.999772355364
 30
0.0
 11
-4823.040661821131
 21
2729.999772355364
 31
0.0
  0
LINE
  5
1A1
330
1F
100
AcDbEntity
  8
0-7_金物
  6
JWW_DASHED1
 62
     7
370
     9
100
AcDbLine
 10
-4601.040661821148
 20
2333.999772355364
 30
0.0
 11
-4601.040661821148
 21
2270.999772355365
 31
0.0
  0
LINE
  5
1A2
330
1F
100
AcDbEntity
  8
0-7_金物
  6
JWW_DASHED1
 62
     7
370
     9
100
AcDbLine
 10
-4601.040661821148
 20
2270.999772355365
 30
0.0
 11
-4811.040661821148
 21
2270.999772355365
 31
0.0
  0
LINE
  5
1A3
330
1F
100
AcDbEntity
  8
0-7_金物
  6
JWW_DASHED1
 62
     7
370
     9
100
AcDbLine
 10
-4811.040661821148
 20
2333.999772355364
 30
0.0
 11
-4811.040661821148
 21
2270.999772355365
 31
0.0
  0
LINE
  5
1A4
330
1F
100
AcDbEntity
  8
0-7_金物
  6
Continuous
 62
     7
370
     9
100
AcDbLine
 10
-4589.040661821147
 20
2351.999772355364
 30
0.0
 11
-4589.040661821147
 21
2333.999772355364
 31
0.0
  0
LINE
  5
1A5
330
1F
100
AcDbEntity
  8
0-7_金物
  6
Continuous
 62
     7
370
     9
100
AcDbLine
 10
-4709.040661821148
 20
2351.999772355364
 30
0.0
 11
-4589.040661821147
 21
2351.999772355364
 31
0.0
  0
LINE
  5
1A6
330
1F
100
AcDbEntity
  8
0-7_金物
  6
Continuous
 62
     7
370
     9
100
AcDbLine
 10
-4709.040661821148
 20
2351.999772355364
 30
0.0
 11
-4709.040661821148
 21
2333.999772355364
 31
0.0
  0
LINE
  5
1A7
330
1F
100
AcDbEntity
  8
0-7_金物
  6
Continuous
 62
     7
370
     9
100
AcDbLine
 10
-4619.040661821132
 20
2351.999772355364
 30
0.0
 11
-4619.040661821132
 21
2376.965583449049
 31
0.0
  0
LINE
  5
1A8
330
1F
100
AcDbEntity
  8
0-7_金物
  6
Continuous
 62
     7
370
     9
100
AcDbLine
 10
-4714.412987060262
 20
2447.31112830628
 30
0.0
 11
-4619.040661821132
 21
2376.965583449049
 31
0.0
  0
LINE
  5
1A9
330
1F
100
AcDbEntity
  8
0-7_金物
  6
Continuous
 62
     7
370
     9
100
AcDbLine
 10
-4738.445553596429
 20
2489.106351651315
 30
0.0
 11
-4764.659677836932
 21
2729.999772355364
 31
0.0
  0
ARC
  5
1AA
330
1F
100
AcDbEntity
  8
0-7_金物
  6
Continuous
 62
     7
370
     9
100
AcDbCircle
 10
-4678.797685775043
 20
2495.597257933358
 30
0.0
 40
60.0
100
AcDbArc
 50
186.2105132440857
 51
233.5879355964763
  0
LINE
  5
1AB
330
1F
100
AcDbEntity
  8
0-7_金物
  6
Continuous
 62
     7
370
     9
100
AcDbLine
 10
-4788.329853781656
 20
2383.217398185177
 30
0.0
 11
-4709.040661821148
 21
2346.364675161279
 31
0.0
  0
LINE
  5
1AC
330
1F
100
AcDbEntity
  8
0-7_金物
  6
Continuous
 62
     7
370
     9
100
AcDbLine
 10
-4823.040661821131
 20
2437.627477857823
 30
0.0
 11
-4823.040661821131
 21
2729.999772355364
 31
0.0
  0
ARC
  5
1AD
330
1F
100
AcDbEntity
  8
0-7_金物
  6
Continuous
 62
     7
370
     9
100
AcDbCircle
 10
-4763.040661821131
 20
2437.627477857823
 30
0.0
 40
60.0
100
AcDbArc
 50
180.0
 51
245.0715258645393
  0
LINE
  5
1AE
330
1F
100
AcDbEntity
  8
0-7_金物
  6
Continuous
 62
     7
370
     9
100
AcDbLine
 10
-4823.040661821131
 20
2666.999772355365
 30
0.0
 11
-4847.040661821132
 21
2666.999772355365
 31
0.0
  0
LINE
  5
1AF
330
1F
100
AcDbEntity
  8
0-7_金物
  6
Continuous
 62
     7
370
     9
100
AcDbLine
 10
-4823.040661821131
 20
2456.999772355365
 30
0.0
 11
-4847.040661821135
 21
2456.999772355365
 31
0.0
  0
LINE
  5
1B0
330
1F
100
AcDbEntity
  8
0-7_金物
  6
JWW_CENTER1
 62
     7
370
     9
100
AcDbLine
 10
-4773.63578667408
 20
2561.999772355365
 30
0.0
 11
-4902.144428337525
 21
2561.999772355365
 31
0.0
  0
LINE
  5
1B1
330
1F
100
AcDbEntity
  8
0-3_仕上げ
  6
Continuous
 62
    40
370
    15
100
AcDbLine
 10
-623.040067965582
 20
2195.999683277029
 30
0.0
 11
-263.040067965582
 21
2195.999683277029
 31
0.0
  0
LINE
  5
1B2
330
1F
100
AcDbEntity
  8
0-3_仕上げ
  6
Continuous
 62
    40
370
    15
100
AcDbLine
 10
-623.040067965582
 20
2270.999930716853
 30
0.0
 11
-263.040067965582
 21
2270.999930716853
 31
0.0
  0
LINE
  5
1B3
330
1F
100
AcDbEntity
  8
0-B_寸法
  6
Continuous
 62
   120
370
     5
100
AcDbLine
 10
-23.04006796558198
 20
2123.999683277028
 30
0.0
 11
-23.04006796558198
 21
2171.999683277028
 31
0.0
  0
LWPOLYLINE
  5
1B4
330
1F
100
AcDbEntity
  8
0-B_寸法
  6
Continuous
 62
     7
370
     9
100
AcDbPolyline
 90
        4
 70
     1
 43
3.0
 10
-21.54006796558198
 20
2123.999683277028
 42
0.4142135623731
 10
-23.04006796558198
 20
2125.499683277028
 42
0.4142135623731
 10
-24.54006796558198
 20
2123.999683277028
 42
0.4142135623731
 10
-23.04006796558198
 20
2122.499683277029
 42
0.4142135623731
  0
LWPOLYLINE
  5
1B5
330
1F
100
AcDbEntity
  8
0-B_寸法
  6
Continuous
 62
     7
370
     9
100
AcDbPolyline
 90
        4
 70
     1
 43
3.0
 10
-21.54006796558198
 20
2171.999683277028
 42
0.4142135623731
 10
-23.04006796558198
 20
2173.499683277028
 42
0.4142135623731
 10
-24.54006796558198
 20
2171.999683277028
 42
0.4142135623731
 10
-23.04006796558198
 20
2170.499683277028
 42
0.4142135623731
  0
LINE
  5
1B6
330
1F
100
AcDbEntity
  8
0-B_寸法
  6
Continuous
 62
   120
370
     5
100
AcDbLine
 10
-23.04006796558198
 20
2123.999683277028
 30
0.0
 11
-203.040067965582
 21
2123.999683277028
 31
0.0
  0
LINE
  5
1B7
330
1F
100
AcDbEntity
  8
0-B_寸法
  6
Continuous
 62
   120
370
     5
100
AcDbLine
 10
-23.04006796558198
 20
2171.999683277028
 30
0.0
 11
-203.040067965582
 21
2171.999683277028
 31
0.0
  0
MTEXT
  5
1B8
330
1F
100
AcDbEntity
  8
0-B_寸法
  6
Continuous
 62
     7
370
   211
100
AcDbMText
 10
-38.04006796558198
 20
2103.719683277028
 30
0.0
 40
91.44
 41
60.0
 46
0.0
 71
     7
 72
     1
  1
{\fＭＳ ゴシック|b0|i0|c128|p49;8}
 11
6.123031769111886E-17
 21
1.0
 31
0.0
 73
     1
 44
1.0
  0
LINE
  5
1B9
330
1F
100
AcDbEntity
  8
0-B_寸法
  6
Continuous
 62
   120
370
     5
100
AcDbLine
 10
-23.04006796558198
 20
2171.999683277028
 30
0.0
 11
-23.04006796558198
 21
2333.999772355364
 31
0.0
  0
LWPOLYLINE
  5
1BA
330
1F
100
AcDbEntity
  8
0-B_寸法
  6
Continuous
 62
     7
370
     9
100
AcDbPolyline
 90
        4
 70
     1
 43
3.0
 10
-21.54006796558198
 20
2333.999772355364
 42
0.4142135623731
 10
-23.04006796558198
 20
2335.499772355364
 42
0.4142135623731
 10
-24.54006796558198
 20
2333.999772355364
 42
0.4142135623731
 10
-23.04006796558198
 20
2332.499772355364
 42
0.4142135623731
  0
LINE
  5
1BB
330
1F
100
AcDbEntity
  8
0-B_寸法
  6
Continuous
 62
   120
370
     5
100
AcDbLine
 10
-23.04006796558198
 20
2333.999772355364
 30
0.0
 11
-203.040067965582
 21
2333.999772355364
 31
0.0
  0
MTEXT
  5
1BC
330
1F
100
AcDbEntity
  8
0-B_寸法
  6
Continuous
 62
     7
370
   211
100
AcDbMText
 10
-38.04006796558198
 20
2177.827227816196
 30
0.0
 40
97.15499999999999
 41
127.5
 46
0.0
 71
     7
 72
     1
  1
{\fＭＳ ゴシック|b0|i0|c128|p49;27}
 11
6.123031769111886E-17
 21
1.0
 31
0.0
 73
     1
 44
1.0
  0
LINE
  5
1BD
330
1F
100
AcDbEntity
  8
0-C_ハッチ
  6
JWW_DASHED1
 62
   120
370
     5
100
AcDbLine
 10
-423.3501925432818
 20
2195.999683277029
 30
0.0
 11
-348.34994510346
 21
2270.999930716853
 31
0.0
  0
LINE
  5
1BE
330
1F
100
AcDbEntity
  8
0-C_ハッチ
  6
JWW_DASHED1
 62
   120
370
     5
100
AcDbLine
 10
-380.9236656746161
 20
2195.999683277029
 30
0.0
 11
-305.9234182347943
 21
2270.999930716853
 31
0.0
  0
LINE
  5
1BF
330
1F
100
AcDbEntity
  8
0-C_ハッチ
  6
JWW_DASHED1
 62
   120
370
     5
100
AcDbLine
 10
-338.4971388059505
 20
2195.999683277029
 30
0.0
 11
-263.4968913661287
 21
2270.999930716853
 31
0.0
  0
LINE
  5
1C0
330
1F
100
AcDbEntity
  8
0-C_ハッチ
  6
JWW_DASHED1
 62
   120
370
     5
100
AcDbLine
 10
-296.0706119372849
 20
2195.999683277029
 30
0.0
 11
-263.040067965582
 21
2229.030227248733
 31
0.0
  0
LINE
  5
1C1
330
1F
100
AcDbEntity
  8
0-3_仕上げ
  6
Continuous
 62
    40
370
    15
100
AcDbLine
 10
-5027.040884516976
 20
2270.999930716853
 30
0.0
 11
-5387.041255676697
 21
2270.999930716853
 31
0.0
  0
LINE
  5
1C2
330
1F
100
AcDbEntity
  8
0-3_仕上げ
  6
Continuous
 62
    40
370
    15
100
AcDbLine
 10
-5027.040884516976
 20
2195.999683277029
 30
0.0
 11
-5387.041255676697
 21
2195.999683277029
 31
0.0
  0
LINE
  5
1C3
330
1F
100
AcDbEntity
  8
0-1_通り芯
  6
JWW_CENTER1
 62
   120
370
     5
100
AcDbLine
 10
-263.040067965582
 20
2438.999683277028
 30
0.0
 11
-5387.041255676697
 21
2438.999683277028
 31
0.0
  0
LINE
  5
1C4
330
1F
100
AcDbEntity
  8
0-C_ハッチ
  6
JWW_DASHED1
 62
   120
370
     5
100
AcDbLine
 10
-5387.041255676697
 20
2236.32626260295
 30
0.0
 11
-5352.367587562792
 21
2270.999930716853
 31
0.0
  0
LINE
  5
1C5
330
1F
100
AcDbEntity
  8
0-0_補助線
  6
JWW_HOJO
 62
   120
370
     5
100
AcDbLine
 10
-23.04006796558198
 20
1943.999683277028
 30
0.0
 11
-5387.041255676697
 21
1943.999683277028
 31
0.0
  0
LINE
  5
1C6
330
1F
100
AcDbEntity
  8
0-0_補助線
  6
JWW_HOJO
 62
   120
370
     5
100
AcDbLine
 10
-23.04006796558198
 20
1550.999648635453
 30
0.0
 11
-5387.041255676697
 21
1550.999648635453
 31
0.0
  0
LINE
  5
1C7
330
1F
100
AcDbEntity
  8
0-0_補助線
  6
JWW_HOJO
 62
   120
370
     5
100
AcDbLine
 10
-23.04006796558198
 20
2946.000445391029
 30
0.0
 11
-5387.041255676697
 21
2946.000445391029
 31
0.0
  0
LINE
  5
1C8
330
1F
100
AcDbEntity
  8
0-0_補助線
  6
JWW_HOJO
 62
   120
370
     5
100
AcDbLine
 10
-5387.041255676697
 20
980.9992032437724
 30
0.0
 11
-23.04006796558198
 21
980.9992032437724
 31
0.0
  0
LINE
  5
1C9
330
1F
100
AcDbEntity
  8
0-0_補助線
  6
JWW_HOJO
 62
   120
370
     5
100
AcDbLine
 10
-5387.041255676697
 20
1190.999648635453
 30
0.0
 11
-23.04006796558198
 21
1190.999648635453
 31
0.0
  0
LINE
  5
1CA
330
1F
100
AcDbEntity
  8
0-0_補助線
  6
JWW_HOJO
 62
   120
370
     5
100
AcDbLine
 10
-23.04006796558198
 20
1370.999648635453
 30
0.0
 11
-5387.041255676697
 21
1370.999648635453
 31
0.0
  0
MTEXT
  5
1CB
330
1F
100
AcDbEntity
  8
0-A_文字
  6
Continuous
 62
     7
370
     9
100
AcDbMText
 10
-5375.978274287698
 20
3047.661009999628
 30
0.0
 40
91.43999999999983
 41
1919.999999999997
 46
0.0
 71
     7
 72
     1
  1
{\fＭＳ ゴシック|b0|i0|c128|p49;■横断面図　Ｈ＝８尺、７尺、６尺}
 73
     1
 44
1.0
  0
MTEXT
  5
1CC
330
1F
100
AcDbEntity
  8
0-B_寸法
  6
Continuous
 62
     7
370
     0
100
AcDbMText
 10
2253.01288727159
 20
953.3149453910282
 30
0.0
 40
79.62899999999999
 41
3135.0
 46
0.0
 71
     7
 72
     1
  1
{\fＭＳ ゴシック|b0|i0|c128|p49;※Ｈ＝３尺、４尺の竪枠には躯体接合金具は装備されていません。}
 73
     1
 44
1.0
  0
MTEXT
  5
1CD
330
1F
100
AcDbEntity
  8
0-A_文字
  6
Continuous
 62
     7
370
     9
100
AcDbMText
 10
293.9393927217475
 20
3047.661009999628
 30
0.0
 40
91.43999999999957
 41
1559.999999999993
 46
0.0
 71
     7
 72
     1
  1
{\fＭＳ ゴシック|b0|i0|c128|p49;■横断面図　Ｈ＝４尺、３尺}
 73
     1
 44
1.0
  0
LINE
  5
1CE
330
1F
100
AcDbEntity
  8
0-0_補助線
  6
JWW_HOJO
 62
   120
370
     5
100
AcDbLine
 10
-263.0400679655824
 20
2946.000445391029
 30
0.0
 11
-263.0400679655824
 21
980.9992032437724
 31
0.0
  0
LINE
  5
1CF
330
1F
100
AcDbEntity
  8
0-4_枠
  6
Continuous
 62
    92
370
    13
100
AcDbLine
 10
642.8767824924694
 20
2165.999683277028
 30
0.0
 11
672.8767824924694
 21
2165.999683277028
 31
0.0
  0
LINE
  5
1D0
330
1F
100
AcDbEntity
  8
0-4_枠
  6
Continuous
 62
    92
370
    13
100
AcDbLine
 10
672.8767824924694
 20
2123.999683277027
 30
0.0
 11
672.8767824924694
 21
2165.999683277028
 31
0.0
  0
LINE
  5
1D1
330
1F
100
AcDbEntity
  8
0-4_枠
  6
Continuous
 62
    92
370
    13
100
AcDbLine
 10
672.8767824924694
 20
2123.999683277027
 30
0.0
 11
708.8767824924707
 21
2123.999683277027
 31
0.0
  0
LINE
  5
1D2
330
1F
100
AcDbEntity
  8
0-4_枠
  6
Continuous
 62
    92
370
    13
100
AcDbLine
 10
762.8767824924694
 20
2123.999683277027
 30
0.0
 11
822.8770051883083
 21
2123.999683277027
 31
0.0
  0
LINE
  5
1D3
330
1F
100
AcDbEntity
  8
0-C_ハッチ
  6
Continuous
 62
   120
370
     5
100
AcDbLine
 10
778.1430190648416
 20
2123.999683277034
 30
0.0
 11
822.8770051883032
 21
2168.733669400497
 31
0.0
  0
LINE
  5
1D4
330
1F
100
AcDbEntity
  8
0-C_ハッチ
  6
Continuous
 62
   120
370
     5
100
AcDbLine
 10
642.8767824924557
 20
2166.924355563644
 30
0.0
 11
822.8770051883032
 21
2346.924578259494
 31
0.0
  0
LINE
  5
1D5
330
1F
100
AcDbEntity
  8
0-C_ハッチ
  6
Continuous
 62
   120
370
     5
100
AcDbLine
 10
642.8767824924677
 20
2226.321325183302
 30
0.0
 11
822.8770051883083
 21
2406.321547879144
 31
0.0
  0
LINE
  5
1D6
330
1F
100
AcDbEntity
  8
0-C_ハッチ
  6
Continuous
 62
   120
370
     5
100
AcDbLine
 10
642.8767824924677
 20
2285.718294803005
 30
0.0
 11
822.8770051883083
 21
2465.718517498846
 31
0.0
  0
LINE
  5
1D7
330
1F
100
AcDbEntity
  8
0-C_ハッチ
  6
Continuous
 62
   120
370
     5
100
AcDbLine
 10
642.8767824924626
 20
2345.115264422648
 30
0.0
 11
822.8770051883066
 21
2525.115487118492
 31
0.0
  0
LINE
  5
1D8
330
1F
100
AcDbEntity
  8
0-C_ハッチ
  6
Continuous
 62
   120
370
     5
100
AcDbLine
 10
642.8767824924626
 20
2404.51223404235
 30
0.0
 11
822.8770051883066
 21
2584.512456738194
 31
0.0
  0
LINE
  5
1D9
330
1F
100
AcDbEntity
  8
0-C_ハッチ
  6
Continuous
 62
   120
370
     5
100
AcDbLine
 10
642.8767824924591
 20
2463.909203661993
 30
0.0
 11
822.8770051883015
 21
2643.909426357835
 31
0.0
  0
LINE
  5
1DA
330
1F
100
AcDbEntity
  8
0-4_枠
  6
Continuous
 62
    92
370
    13
100
AcDbLine
 10
708.8767824924707
 20
2123.999683277027
 30
0.0
 11
708.8767824924707
 21
2183.999683277027
 31
0.0
  0
LINE
  5
1DB
330
1F
100
AcDbEntity
  8
0-4_枠
  6
Continuous
 62
    92
370
    13
100
AcDbLine
 10
708.8767824924707
 20
2183.999683277027
 30
0.0
 11
762.8767824924694
 21
2183.999683277027
 31
0.0
  0
LINE
  5
1DC
330
1F
100
AcDbEntity
  8
0-4_枠
  6
Continuous
 62
    92
370
    13
100
AcDbLine
 10
762.8767824924694
 20
2123.999683277027
 30
0.0
 11
762.8767824924694
 21
2183.999683277027
 31
0.0
  0
LINE
  5
1DD
330
1F
100
AcDbEntity
  8
0-C_ハッチ
  6
Continuous
 62
   120
370
     5
100
AcDbLine
 10
762.8767824924694
 20
2168.130416324309
 30
0.0
 11
822.8770051882998
 21
2228.130639020141
 31
0.0
  0
LINE
  5
1DE
330
1F
100
AcDbEntity
  8
0-C_ハッチ
  6
Continuous
 62
   120
370
     5
100
AcDbLine
 10
719.3490798254874
 20
2183.999683277027
 30
0.0
 11
822.8770051883168
 21
2287.52760863986
 31
0.0
  0
LINE
  5
1DF
330
1F
100
AcDbEntity
  8
0-C_ハッチ
  6
Continuous
 62
   120
370
     5
100
AcDbLine
 10
672.8767824924694
 20
2137.527385944011
 30
0.0
 11
708.8767824924707
 21
2173.527385944012
 31
0.0
  0
LINE
  5
1E0
330
1F
100
AcDbEntity
  8
0-4_枠
  6
Continuous
 62
    92
370
    13
100
AcDbLine
 10
5016.877005188288
 20
2123.999683277027
 30
0.0
 11
5016.877005188288
 21
2165.999683277028
 31
0.0
  0
LINE
  5
1E1
330
1F
100
AcDbEntity
  8
0-4_枠
  6
Continuous
 62
    92
370
    13
100
AcDbLine
 10
5016.877005188288
 20
2123.999683277027
 30
0.0
 11
4980.877005188287
 21
2123.999683277027
 31
0.0
  0
LINE
  5
1E2
330
1F
100
AcDbEntity
  8
0-4_枠
  6
Continuous
 62
    92
370
    13
100
AcDbLine
 10
4926.877005188288
 20
2123.999683277027
 30
0.0
 11
4866.877005188288
 21
2123.999683277027
 31
0.0
  0
LINE
  5
1E3
330
1F
100
AcDbEntity
  8
0-4_枠
  6
Continuous
 62
    92
370
    13
100
AcDbLine
 10
5016.877005188288
 20
2165.999683277028
 30
0.0
 11
5046.877005188288
 21
2165.999683277028
 31
0.0
  0
LINE
  5
1E4
330
1F
100
AcDbEntity
  8
0-C_ハッチ
  6
Continuous
 62
   120
370
     5
100
AcDbLine
 10
4866.877005188295
 20
2493.450604151561
 30
0.0
 11
5046.877005188288
 21
2673.450604151553
 31
0.0
  0
LINE
  5
1E5
330
1F
100
AcDbEntity
  8
0-C_ハッチ
  6
Continuous
 62
   120
370
     5
100
AcDbLine
 10
4866.877005188295
 20
2137.068786433567
 30
0.0
 11
5046.877005188288
 21
2317.06878643356
 31
0.0
  0
LINE
  5
1E6
330
1F
100
AcDbEntity
  8
0-C_ハッチ
  6
Continuous
 62
   120
370
     5
100
AcDbLine
 10
4866.877005188291
 20
2196.465756053211
 30
0.0
 11
5046.877005188288
 21
2376.465756053208
 31
0.0
  0
LINE
  5
1E7
330
1F
100
AcDbEntity
  8
0-C_ハッチ
  6
Continuous
 62
   120
370
     5
100
AcDbLine
 10
4866.877005188291
 20
2255.862725672913
 30
0.0
 11
5046.877005188288
 21
2435.86272567291
 31
0.0
  0
LINE
  5
1E8
330
1F
100
AcDbEntity
  8
0-C_ハッチ
  6
Continuous
 62
   120
370
     5
100
AcDbLine
 10
4866.877005188306
 20
2315.259695292572
 30
0.0
 11
5046.877005188288
 21
2495.259695292557
 31
0.0
  0
LINE
  5
1E9
330
1F
100
AcDbEntity
  8
0-C_ハッチ
  6
Continuous
 62
   120
370
     5
100
AcDbLine
 10
4866.877005188285
 20
2374.656664912201
 30
0.0
 11
5046.877005188288
 21
2554.656664912204
 31
0.0
  0
LINE
  5
1EA
330
1F
100
AcDbEntity
  8
0-C_ハッチ
  6
Continuous
 62
   120
370
     5
100
AcDbLine
 10
4866.8770051883
 20
2434.05363453192
 30
0.0
 11
5046.877005188288
 21
2614.053634531906
 31
0.0
  0
LINE
  5
1EB
330
1F
100
AcDbEntity
  8
0-C_ハッチ
  6
Continuous
 62
   120
370
     5
100
AcDbLine
 10
4980.877005188287
 20
2132.274847194211
 30
0.0
 11
5046.877005188288
 21
2198.274847194211
 31
0.0
  0
LINE
  5
1EC
330
1F
100
AcDbEntity
  8
0-C_ハッチ
  6
Continuous
 62
   120
370
     5
100
AcDbLine
 10
4913.204871651453
 20
2123.999683277023
 30
0.0
 11
4926.877005188288
 21
2137.671816813859
 31
0.0
  0
LINE
  5
1ED
330
1F
100
AcDbEntity
  8
0-4_枠
  6
Continuous
 62
    92
370
    13
100
AcDbLine
 10
4980.877005188287
 20
2123.999683277027
 30
0.0
 11
4980.877005188287
 21
2183.999683277027
 31
0.0
  0
LINE
  5
1EE
330
1F
100
AcDbEntity
  8
0-4_枠
  6
Continuous
 62
    92
370
    13
100
AcDbLine
 10
4980.877005188287
 20
2183.999683277027
 30
0.0
 11
4926.877005188288
 21
2183.999683277027
 31
0.0
  0
LINE
  5
1EF
330
1F
100
AcDbEntity
  8
0-4_枠
  6
Continuous
 62
    92
370
    13
100
AcDbLine
 10
4926.877005188288
 20
2183.999683277027
 30
0.0
 11
4926.877005188288
 21
2123.999683277027
 31
0.0
  0
LINE
  5
1F0
330
1F
100
AcDbEntity
  8
0-C_ハッチ
  6
Continuous
 62
   120
370
     5
100
AcDbLine
 10
4973.204871651456
 20
2183.999683277027
 30
0.0
 11
5046.877005188288
 21
2257.671816813859
 31
0.0
  0
LINE
  5
1F1
330
1F
100
AcDbEntity
  8
0-4_枠
  6
Continuous
 62
    92
370
    13
100
AcDbLine
 10
792.8770051883083
 20
2753.999683277027
 30
0.0
 11
642.8767824924694
 21
2753.999683277027
 31
0.0
  0
ARC
  5
1F2
330
1F
100
AcDbEntity
  8
0-4_枠
  6
Continuous
 62
    92
370
    13
100
AcDbCircle
 10
792.8770051883083
 20
2723.999683277027
 30
0.0
 40
30.0
100
AcDbArc
 50
0.0
 51
90.00000000000001
  0
LINE
  5
1F3
330
1F
100
AcDbEntity
  8
0-4_枠
  6
Continuous
 62
    92
370
    13
100
AcDbLine
 10
642.8767824924694
 20
2165.999683277028
 30
0.0
 11
642.8767824924694
 21
2754.553565347136
 31
0.0
  0
LINE
  5
1F4
330
1F
100
AcDbEntity
  8
0-4_枠
  6
Continuous
 62
    92
370
    13
100
AcDbLine
 10
822.8770051883083
 20
2723.999683277027
 30
0.0
 11
822.8770051883083
 21
2123.999683277027
 31
0.0
  0
ARC
  5
1F5
330
1F
100
AcDbEntity
  8
0-4_枠
  6
Continuous
 62
    92
370
    13
100
AcDbCircle
 10
4896.877005188288
 20
2723.999683277027
 30
0.0
 40
30.0
100
AcDbArc
 50
90.0
 51
180.0
  0
LINE
  5
1F6
330
1F
100
AcDbEntity
  8
0-4_枠
  6
Continuous
 62
    92
370
    13
100
AcDbLine
 10
4866.877005188288
 20
2723.999683277027
 30
0.0
 11
4866.877005188288
 21
2123.999683277027
 31
0.0
  0
LINE
  5
1F7
330
1F
100
AcDbEntity
  8
0-4_枠
  6
Continuous
 62
    92
370
    13
100
AcDbLine
 10
4896.877005188288
 20
2753.999683277027
 30
0.0
 11
5046.877005188288
 21
2753.999683277027
 31
0.0
  0
LINE
  5
1F8
330
1F
100
AcDbEntity
  8
0-4_枠
  6
Continuous
 62
    92
370
    13
100
AcDbLine
 10
5046.877005188288
 20
2165.999683277028
 30
0.0
 11
5046.877005188288
 21
2753.999683277027
 31
0.0
  0
LINE
  5
1F9
330
1F
100
AcDbEntity
  8
0-C_ハッチ
  6
Continuous
 62
   120
370
     5
100
AcDbLine
 10
642.8767824924694
 20
2701.49708214064
 30
0.0
 11
695.3793836288535
 21
2753.999683277027
 31
0.0
  0
LINE
  5
1FA
330
1F
100
AcDbEntity
  8
0-C_ハッチ
  6
Continuous
 62
   120
370
     5
100
AcDbLine
 10
642.8767824924694
 20
2642.100112520998
 30
0.0
 11
754.776353248493
 21
2753.999683277027
 31
0.0
  0
LINE
  5
1FB
330
1F
100
AcDbEntity
  8
0-C_ハッチ
  6
Continuous
 62
   120
370
     5
100
AcDbLine
 10
642.8767824924711
 20
2582.703142901354
 30
0.0
 11
809.2871841254473
 21
2749.113544534331
 31
0.0
  0
LINE
  5
1FC
330
1F
100
AcDbEntity
  8
0-C_ハッチ
  6
Continuous
 62
   120
370
     5
100
AcDbLine
 10
642.8767824924762
 20
2523.306173281712
 30
0.0
 11
822.8770051883083
 21
2703.306395977546
 31
0.0
  0
LINE
  5
1FD
330
1F
100
AcDbEntity
  8
0-C_ハッチ
  6
Continuous
 62
   120
370
     5
100
AcDbLine
 10
4868.011986360647
 20
2732.173463802578
 30
0.0
 11
4888.703224662737
 21
2752.86470210467
 31
0.0
  0
LINE
  5
1FE
330
1F
100
AcDbEntity
  8
0-C_ハッチ
  6
Continuous
 62
   120
370
     5
100
AcDbLine
 10
4866.877005188307
 20
2671.64151301058
 30
0.0
 11
4949.235175454752
 21
2753.999683277027
 31
0.0
  0
LINE
  5
1FF
330
1F
100
AcDbEntity
  8
0-C_ハッチ
  6
Continuous
 62
   120
370
     5
100
AcDbLine
 10
4866.877005188307
 20
2612.244543390923
 30
0.0
 11
5008.632145074411
 21
2753.999683277027
 31
0.0
  0
LINE
  5
200
330
1F
100
AcDbEntity
  8
0-C_ハッチ
  6
Continuous
 62
   120
370
     5
100
AcDbLine
 10
4866.877005188295
 20
2552.847573771263
 30
0.0
 11
5046.877005188288
 21
2732.847573771253
 31
0.0
  0
LINE
  5
201
330
1F
100
AcDbEntity
  8
0-4_枠
  6
Continuous
 62
    92
370
    13
100
AcDbLine
 10
-5027.040884516974
 20
2165.999683277028
 30
0.0
 11
-4997.040884516974
 21
2165.999683277028
 31
0.0
  0
LINE
  5
202
330
1F
100
AcDbEntity
  8
0-4_枠
  6
Continuous
 62
    92
370
    13
100
AcDbLine
 10
-4997.040884516974
 20
2123.999683277028
 30
0.0
 11
-4997.040884516974
 21
2165.999683277028
 31
0.0
  0
LINE
  5
203
330
1F
100
AcDbEntity
  8
0-4_枠
  6
Continuous
 62
    92
370
    13
100
AcDbLine
 10
-4997.040884516974
 20
2123.999683277028
 30
0.0
 11
-4961.040884516972
 21
2123.999683277028
 31
0.0
  0
LINE
  5
204
330
1F
100
AcDbEntity
  8
0-4_枠
  6
Continuous
 62
    92
370
    13
100
AcDbLine
 10
-4907.040884516974
 20
2123.999683277028
 30
0.0
 11
-4847.040661821135
 21
2123.999683277028
 31
0.0
  0
LINE
  5
205
330
1F
100
AcDbEntity
  8
0-C_ハッチ
  6
Continuous
 62
   120
370
     5
100
AcDbLine
 10
-4891.774647944601
 20
2123.999683277034
 30
0.0
 11
-4847.04066182114
 21
2168.733669400498
 31
0.0
  0
LINE
  5
206
330
1F
100
AcDbEntity
  8
0-C_ハッチ
  6
Continuous
 62
   120
370
     5
100
AcDbLine
 10
-5027.040884516988
 20
2166.924355563645
 30
0.0
 11
-4847.04066182114
 21
2346.924578259494
 31
0.0
  0
LINE
  5
207
330
1F
100
AcDbEntity
  8
0-C_ハッチ
  6
Continuous
 62
   120
370
     5
100
AcDbLine
 10
-5027.040884516975
 20
2226.321325183302
 30
0.0
 11
-4847.040661821135
 21
2406.321547879144
 31
0.0
  0
LINE
  5
208
330
1F
100
AcDbEntity
  8
0-C_ハッチ
  6
Continuous
 62
   120
370
     5
100
AcDbLine
 10
-5027.040884516975
 20
2285.718294803006
 30
0.0
 11
-4847.040661821135
 21
2465.718517498846
 31
0.0
  0
LINE
  5
209
330
1F
100
AcDbEntity
  8
0-C_ハッチ
  6
Continuous
 62
   120
370
     5
100
AcDbLine
 10
-5027.04088451698
 20
2345.115264422648
 30
0.0
 11
-4847.040661821136
 21
2525.115487118492
 31
0.0
  0
LINE
  5
20A
330
1F
100
AcDbEntity
  8
0-C_ハッチ
  6
Continuous
 62
   120
370
     5
100
AcDbLine
 10
-5027.04088451698
 20
2404.51223404235
 30
0.0
 11
-4847.040661821136
 21
2584.512456738194
 31
0.0
  0
LINE
  5
20B
330
1F
100
AcDbEntity
  8
0-C_ハッチ
  6
Continuous
 62
   120
370
     5
100
AcDbLine
 10
-5027.040884516984
 20
2463.909203661994
 30
0.0
 11
-4847.040661821142
 21
2643.909426357836
 31
0.0
  0
LINE
  5
20C
330
1F
100
AcDbEntity
  8
0-4_枠
  6
Continuous
 62
    92
370
    13
100
AcDbLine
 10
-4961.040884516972
 20
2123.999683277028
 30
0.0
 11
-4961.040884516972
 21
2183.999683277028
 31
0.0
  0
LINE
  5
20D
330
1F
100
AcDbEntity
  8
0-4_枠
  6
Continuous
 62
    92
370
    13
100
AcDbLine
 10
-4961.040884516972
 20
2183.999683277028
 30
0.0
 11
-4907.040884516974
 21
2183.999683277028
 31
0.0
  0
LINE
  5
20E
330
1F
100
AcDbEntity
  8
0-4_枠
  6
Continuous
 62
    92
370
    13
100
AcDbLine
 10
-4907.040884516974
 20
2123.999683277028
 30
0.0
 11
-4907.040884516974
 21
2183.999683277028
 31
0.0
  0
LINE
  5
20F
330
1F
100
AcDbEntity
  8
0-C_ハッチ
  6
Continuous
 62
   120
370
     5
100
AcDbLine
 10
-4907.040884516974
 20
2168.130416324309
 30
0.0
 11
-4847.040661821144
 21
2228.130639020141
 31
0.0
  0
LINE
  5
210
330
1F
100
AcDbEntity
  8
0-C_ハッチ
  6
Continuous
 62
   120
370
     5
100
AcDbLine
 10
-4950.568587183956
 20
2183.999683277028
 30
0.0
 11
-4847.040661821126
 21
2287.52760863986
 31
0.0
  0
LINE
  5
211
330
1F
100
AcDbEntity
  8
0-C_ハッチ
  6
Continuous
 62
   120
370
     5
100
AcDbLine
 10
-4997.040884516974
 20
2137.527385944011
 30
0.0
 11
-4961.040884516972
 21
2173.527385944013
 31
0.0
  0
LINE
  5
212
330
1F
100
AcDbEntity
  8
0-4_枠
  6
Continuous
 62
    92
370
    13
100
AcDbLine
 10
-653.0406618211549
 20
2123.999683277028
 30
0.0
 11
-653.0406618211549
 21
2165.999683277028
 31
0.0
  0
LINE
  5
213
330
1F
100
AcDbEntity
  8
0-4_枠
  6
Continuous
 62
    92
370
    13
100
AcDbLine
 10
-653.0406618211549
 20
2123.999683277028
 30
0.0
 11
-689.0406618211563
 21
2123.999683277028
 31
0.0
  0
LINE
  5
214
330
1F
100
AcDbEntity
  8
0-4_枠
  6
Continuous
 62
    92
370
    13
100
AcDbLine
 10
-743.0406618211549
 20
2123.999683277028
 30
0.0
 11
-803.0406618211549
 21
2123.999683277028
 31
0.0
  0
LINE
  5
215
330
1F
100
AcDbEntity
  8
0-4_枠
  6
Continuous
 62
    92
370
    13
100
AcDbLine
 10
-653.0406618211549
 20
2165.999683277028
 30
0.0
 11
-623.0406618211549
 21
2165.999683277028
 31
0.0
  0
LINE
  5
216
330
1F
100
AcDbEntity
  8
0-C_ハッチ
  6
Continuous
 62
   120
370
     5
100
AcDbLine
 10
-803.0406618211481
 20
2493.450604151562
 30
0.0
 11
-623.0406618211549
 21
2673.450604151554
 31
0.0
  0
LINE
  5
217
330
1F
100
AcDbEntity
  8
0-C_ハッチ
  6
Continuous
 62
   120
370
     5
100
AcDbLine
 10
-803.0406618211481
 20
2137.068786433568
 30
0.0
 11
-623.0406618211549
 21
2317.068786433561
 31
0.0
  0
LINE
  5
218
330
1F
100
AcDbEntity
  8
0-C_ハッチ
  6
Continuous
 62
   120
370
     5
100
AcDbLine
 10
-803.0406618211515
 20
2196.465756053211
 30
0.0
 11
-623.0406618211549
 21
2376.465756053208
 31
0.0
  0
LINE
  5
219
330
1F
100
AcDbEntity
  8
0-C_ハッチ
  6
Continuous
 62
   120
370
     5
100
AcDbLine
 10
-803.0406618211515
 20
2255.862725672913
 30
0.0
 11
-623.0406618211549
 21
2435.86272567291
 31
0.0
  0
LINE
  5
21A
330
1F
100
AcDbEntity
  8
0-C_ハッチ
  6
Continuous
 62
   120
370
     5
100
AcDbLine
 10
-803.0406618211379
 20
2315.259695292572
 30
0.0
 11
-623.0406618211549
 21
2495.259695292557
 31
0.0
  0
LINE
  5
21B
330
1F
100
AcDbEntity
  8
0-C_ハッチ
  6
Continuous
 62
   120
370
     5
100
AcDbLine
 10
-803.0406618211583
 20
2374.656664912201
 30
0.0
 11
-623.0406618211549
 21
2554.656664912205
 31
0.0
  0
LINE
  5
21C
330
1F
100
AcDbEntity
  8
0-C_ハッチ
  6
Continuous
 62
   120
370
     5
100
AcDbLine
 10
-803.040661821143
 20
2434.05363453192
 30
0.0
 11
-623.0406618211549
 21
2614.053634531906
 31
0.0
  0
LINE
  5
21D
330
1F
100
AcDbEntity
  8
0-C_ハッチ
  6
Continuous
 62
   120
370
     5
100
AcDbLine
 10
-689.0406618211563
 20
2132.274847194212
 30
0.0
 11
-623.0406618211549
 21
2198.274847194212
 31
0.0
  0
LINE
  5
21E
330
1F
100
AcDbEntity
  8
0-C_ハッチ
  6
Continuous
 62
   120
370
     5
100
AcDbLine
 10
-756.7127953579899
 20
2123.999683277024
 30
0.0
 11
-743.0406618211549
 21
2137.671816813859
 31
0.0
  0
LINE
  5
21F
330
1F
100
AcDbEntity
  8
0-4_枠
  6
Continuous
 62
    92
370
    13
100
AcDbLine
 10
-689.0406618211563
 20
2123.999683277028
 30
0.0
 11
-689.0406618211563
 21
2183.999683277028
 31
0.0
  0
LINE
  5
220
330
1F
100
AcDbEntity
  8
0-4_枠
  6
Continuous
 62
    92
370
    13
100
AcDbLine
 10
-689.0406618211563
 20
2183.999683277028
 30
0.0
 11
-743.0406618211549
 21
2183.999683277028
 31
0.0
  0
LINE
  5
221
330
1F
100
AcDbEntity
  8
0-4_枠
  6
Continuous
 62
    92
370
    13
100
AcDbLine
 10
-743.0406618211549
 20
2183.999683277028
 30
0.0
 11
-743.0406618211549
 21
2123.999683277028
 31
0.0
  0
LINE
  5
222
330
1F
100
AcDbEntity
  8
0-C_ハッチ
  6
Continuous
 62
   120
370
     5
100
AcDbLine
 10
-696.7127953579865
 20
2183.999683277028
 30
0.0
 11
-623.0406618211549
 21
2257.671816813859
 31
0.0
  0
LINE
  5
223
330
1F
100
AcDbEntity
  8
0-4_枠
  6
Continuous
 62
    92
370
    13
100
AcDbLine
 10
-4877.040661821135
 20
2753.999683277028
 30
0.0
 11
-5027.040884516974
 21
2753.999683277028
 31
0.0
  0
ARC
  5
224
330
1F
100
AcDbEntity
  8
0-4_枠
  6
Continuous
 62
    92
370
    13
100
AcDbCircle
 10
-4877.040661821135
 20
2723.999683277028
 30
0.0
 40
30.0
100
AcDbArc
 50
0.0
 51
90.00000000000001
  0
LINE
  5
225
330
1F
100
AcDbEntity
  8
0-4_枠
  6
Continuous
 62
    92
370
    13
100
AcDbLine
 10
-5027.040884516974
 20
2165.999683277028
 30
0.0
 11
-5027.040884516974
 21
2754.553565347137
 31
0.0
  0
LINE
  5
226
330
1F
100
AcDbEntity
  8
0-4_枠
  6
Continuous
 62
    92
370
    13
100
AcDbLine
 10
-4847.040661821135
 20
2723.999683277028
 30
0.0
 11
-4847.040661821135
 21
2123.999683277028
 31
0.0
  0
ARC
  5
227
330
1F
100
AcDbEntity
  8
0-4_枠
  6
Continuous
 62
    92
370
    13
100
AcDbCircle
 10
-773.0406618211549
 20
2723.999683277028
 30
0.0
 40
30.0
100
AcDbArc
 50
90.0
 51
180.0
  0
LINE
  5
228
330
1F
100
AcDbEntity
  8
0-4_枠
  6
Continuous
 62
    92
370
    13
100
AcDbLine
 10
-803.0406618211549
 20
2723.999683277028
 30
0.0
 11
-803.0406618211549
 21
2123.999683277028
 31
0.0
  0
LINE
  5
229
330
1F
100
AcDbEntity
  8
0-4_枠
  6
Continuous
 62
    92
370
    13
100
AcDbLine
 10
-773.0406618211549
 20
2753.999683277028
 30
0.0
 11
-623.0406618211549
 21
2753.999683277028
 31
0.0
  0
LINE
  5
22A
330
1F
100
AcDbEntity
  8
0-4_枠
  6
Continuous
 62
    92
370
    13
100
AcDbLine
 10
-623.0406618211549
 20
2165.999683277028
 30
0.0
 11
-623.0406618211549
 21
2753.999683277028
 31
0.0
  0
LINE
  5
22B
330
1F
100
AcDbEntity
  8
0-C_ハッチ
  6
Continuous
 62
   120
370
     5
100
AcDbLine
 10
-5027.040884516974
 20
2701.497082140641
 30
0.0
 11
-4974.53828338059
 21
2753.999683277028
 31
0.0
  0
LINE
  5
22C
330
1F
100
AcDbEntity
  8
0-C_ハッチ
  6
Continuous
 62
   120
370
     5
100
AcDbLine
 10
-5027.040884516974
 20
2642.100112520999
 30
0.0
 11
-4915.14131376095
 21
2753.999683277028
 31
0.0
  0
LINE
  5
22D
330
1F
100
AcDbEntity
  8
0-C_ハッチ
  6
Continuous
 62
   120
370
     5
100
AcDbLine
 10
-5027.040884516972
 20
2582.703142901355
 30
0.0
 11
-4860.630482883996
 21
2749.113544534332
 31
0.0
  0
LINE
  5
22E
330
1F
100
AcDbEntity
  8
0-C_ハッチ
  6
Continuous
 62
   120
370
     5
100
AcDbLine
 10
-5027.040884516967
 20
2523.306173281713
 30
0.0
 11
-4847.040661821135
 21
2703.306395977546
 31
0.0
  0
LINE
  5
22F
330
1F
100
AcDbEntity
  8
0-C_ハッチ
  6
Continuous
 62
   120
370
     5
100
AcDbLine
 10
-801.9056806487959
 20
2732.173463802579
 30
0.0
 11
-781.214442346706
 21
2752.86470210467
 31
0.0
  0
LINE
  5
230
330
1F
100
AcDbEntity
  8
0-C_ハッチ
  6
Continuous
 62
   120
370
     5
100
AcDbLine
 10
-803.0406618211362
 20
2671.641513010581
 30
0.0
 11
-720.6824915546912
 21
2753.999683277028
 31
0.0
  0
LINE
  5
231
330
1F
100
AcDbEntity
  8
0-C_ハッチ
  6
Continuous
 62
   120
370
     5
100
AcDbLine
 10
-803.0406618211362
 20
2612.244543390923
 30
0.0
 11
-661.285521935032
 21
2753.999683277028
 31
0.0
  0
LINE
  5
232
330
1F
100
AcDbEntity
  8
0-C_ハッチ
  6
Continuous
 62
   120
370
     5
100
AcDbLine
 10
-803.0406618211481
 20
2552.847573771264
 30
0.0
 11
-623.0406618211549
 21
2732.847573771254
 31
0.0
  0
LINE
  5
233
330
1F
100
AcDbEntity
  8
0-0_補助線
  6
JWW_HOJO
 62
   120
370
     5
100
AcDbLine
 10
219.9181716835827
 20
-4455.000000000002
 30
0.0
 11
219.9181716835827
 21
488.8882695786485
 31
0.0
  0
LINE
  5
234
330
1F
100
AcDbEntity
  8
0-0_補助線
  6
JWW_HOJO
 62
   120
370
     5
100
AcDbLine
 10
-200.0818283164165
 20
-4455.000000000002
 30
0.0
 11
-200.0818283164165
 21
488.8882695786485
 31
0.0
  0
LINE
  5
235
330
1F
100
AcDbEntity
  8
0-0_補助線
  6
JWW_HOJO
 62
   120
370
     5
100
AcDbLine
 10
-3587.775967787494
 20
-1758.000420556447
 30
0.0
 11
-4858.303574288062
 21
-1758.000420556447
 31
0.0
  0
LINE
  5
236
330
1F
100
AcDbEntity
  8
0-B_寸法
  6
Continuous
 62
   120
370
     5
100
AcDbLine
 10
-3395.039771037773
 20
-3087.000168259079
 30
0.0
 11
-3185.039771037773
 21
-3087.000168259079
 31
0.0
  0
LWPOLYLINE
  5
237
330
1F
100
AcDbEntity
  8
0-B_寸法
  6
Continuous
 62
     7
370
     9
100
AcDbPolyline
 90
        4
 70
     1
 43
3.0
 10
-3183.539771037773
 20
-3087.000405801309
 42
0.4142135623731
 10
-3185.039771037773
 20
-3085.500405801309
 42
0.4142135623731
 10
-3186.539771037773
 20
-3087.000405801309
 42
0.4142135623731
 10
-3185.039771037773
 20
-3088.500405801309
 42
0.4142135623731
  0
LWPOLYLINE
  5
238
330
1F
100
AcDbEntity
  8
0-B_寸法
  6
Continuous
 62
     7
370
     9
100
AcDbPolyline
 90
        4
 70
     1
 43
3.0
 10
-3183.539771037773
 20
-3087.000168259079
 42
0.4142135623731
 10
-3185.039771037773
 20
-3085.50016825908
 42
0.4142135623731
 10
-3186.539771037773
 20
-3087.000168259079
 42
0.4142135623731
 10
-3185.039771037773
 20
-3088.500168259079
 42
0.4142135623731
  0
LWPOLYLINE
  5
239
330
1F
100
AcDbEntity
  8
0-B_寸法
  6
Continuous
 62
     7
370
     9
100
AcDbPolyline
 90
        4
 70
     1
 43
3.0
 10
-2973.539771037773
 20
-3159.000197951857
 42
0.4142135623731
 10
-2975.039771037773
 20
-3157.500197951857
 42
0.4142135623731
 10
-2976.539771037773
 20
-3159.000197951857
 42
0.4142135623731
 10
-2975.039771037773
 20
-3160.500197951857
 42
0.4142135623731
  0
LINE
  5
23A
330
1F
100
AcDbEntity
  8
0-B_寸法
  6
Continuous
 62
   120
370
     5
100
AcDbLine
 10
-3605.039850217872
 20
-3158.99972286813
 30
0.0
 11
-2975.039771037773
 21
-3159.000197951857
 31
0.0
  0
LINE
  5
23B
330
1F
100
AcDbEntity
  8
0-0_補助線
  6
JWW_HOJO
 62
   120
370
     5
100
AcDbLine
 10
-2975.040958748919
 20
-3159.000197735092
 30
0.0
 11
-5057.040513357243
 21
-3159.000197735092
 31
0.0
  0
LINE
  5
23C
330
1F
100
AcDbEntity
  8
0-3_仕上げ
  6
Continuous
 62
    40
370
    15
100
AcDbLine
 10
-4847.040513357243
 20
-3087.000168259079
 30
0.0
 11
-3605.039771037771
 21
-3087.000168259079
 31
0.0
  0
LINE
  5
23D
330
1F
100
AcDbEntity
  8
0-3_仕上げ
  6
Continuous
 62
     7
370
     9
100
AcDbLine
 10
-3605.039771037771
 20
-3135.000772012246
 30
0.0
 11
-4847.040513357243
 21
-3135.000772012246
 31
0.0
  0
LINE
  5
23E
330
1F
100
AcDbEntity
  8
0-3_仕上げ
  6
Continuous
 62
     7
370
     9
100
AcDbLine
 10
-3605.039771037771
 20
-3111.000098975929
 30
0.0
 11
-4847.040513357243
 21
-3111.000098975929
 31
0.0
  0
LINE
  5
23F
330
1F
100
AcDbEntity
  8
0-3_仕上げ
  6
Continuous
 62
     7
370
     9
100
AcDbLine
 10
-3605.039771037771
 20
-3099.000504777238
 30
0.0
 11
-4847.040513357243
 21
-3099.000504777238
 31
0.0
  0
LINE
  5
240
330
1F
100
AcDbEntity
  8
0-3_仕上げ
  6
Continuous
 62
     7
370
     9
100
AcDbLine
 10
-3605.039771037771
 20
-3123.000435494088
 30
0.0
 11
-4847.040513357243
 21
-3123.000435494088
 31
0.0
  0
LINE
  5
241
330
1F
100
AcDbEntity
  8
0-3_仕上げ
  6
Continuous
 62
     7
370
     9
100
AcDbLine
 10
-3605.039771037771
 20
-3147.000366210936
 30
0.0
 11
-4847.040513357243
 21
-3147.000366210936
 31
0.0
  0
LINE
  5
242
330
1F
100
AcDbEntity
  8
0-3_仕上げ
  6
Continuous
 62
    40
370
    15
100
AcDbLine
 10
-3605.039771037771
 20
-3158.999960409628
 30
0.0
 11
-4847.040513357243
 21
-3158.999960409628
 31
0.0
  0
LINE
  5
243
330
1F
100
AcDbEntity
  8
0-B_寸法
  6
Continuous
 62
   120
370
     5
100
AcDbLine
 10
-3605.039771037771
 20
-3087.000405801309
 30
0.0
 11
-2975.039771037773
 21
-3087.000405801309
 31
0.0
  0
LWPOLYLINE
  5
244
330
1F
100
AcDbEntity
  8
0-B_寸法
  6
Continuous
 62
     7
370
     9
100
AcDbPolyline
 90
        4
 70
     1
 43
3.0
 10
-2973.539771037773
 20
-3087.000405801309
 42
0.4142135623731
 10
-2975.039771037773
 20
-3085.500405801309
 42
0.4142135623731
 10
-2976.539771037773
 20
-3087.000405801309
 42
0.4142135623731
 10
-2975.039771037773
 20
-3088.500405801309
 42
0.4142135623731
  0
LWPOLYLINE
  5
245
330
1F
100
AcDbEntity
  8
0-B_寸法
  6
Continuous
 62
     7
370
     9
100
AcDbPolyline
 90
        4
 70
     1
 43
3.0
 10
-5055.540513357242
 20
-3159.000197735092
 42
0.4142135623731
 10
-5057.040513357243
 20
-3157.500197735092
 42
0.4142135623731
 10
-5058.540513357243
 20
-3159.000197735092
 42
0.4142135623731
 10
-5057.040513357243
 20
-3160.500197735092
 42
0.4142135623731
  0
LINE
  5
246
330
1F
100
AcDbEntity
  8
0-B_寸法
  6
Continuous
 62
   120
370
     5
100
AcDbLine
 10
-5057.040513357243
 20
-3159.000197735092
 30
0.0
 11
-4847.040513357243
 21
-3159.000197735092
 31
0.0
  0
LWPOLYLINE
  5
247
330
1F
100
AcDbEntity
  8
0-B_寸法
  6
Continuous
 62
     7
370
     9
100
AcDbPolyline
 90
        4
 70
     1
 43
3.0
 10
-3393.539771037773
 20
-3087.000405801309
 42
0.4142135623731
 10
-3395.039771037773
 20
-3085.500405801309
 42
0.4142135623731
 10
-3396.539771037773
 20
-3087.000405801309
 42
0.4142135623731
 10
-3395.039771037773
 20
-3088.500405801309
 42
0.4142135623731
  0
LINE
  5
248
330
1F
100
AcDbEntity
  8
0-B_寸法
  6
Continuous
 62
   120
370
     5
100
AcDbLine
 10
-3605.039771037771
 20
-3027.00016825908
 30
0.0
 11
-3395.039771037773
 21
-3027.00016825908
 31
0.0
  0
LWPOLYLINE
  5
249
330
1F
100
AcDbEntity
  8
0-B_寸法
  6
Continuous
 62
     7
370
     9
100
AcDbPolyline
 90
        4
 70
     1
 43
3.0
 10
-3393.539771037773
 20
-3027.00016825908
 42
0.4142135623731
 10
-3395.039771037773
 20
-3025.500168259081
 42
0.4142135623731
 10
-3396.539771037773
 20
-3027.00016825908
 42
0.4142135623731
 10
-3395.039771037773
 20
-3028.50016825908
 42
0.4142135623731
  0
LINE
  5
24A
330
1F
100
AcDbEntity
  8
0-6_扉
  6
Continuous
 62
   200
370
    20
100
AcDbLine
 10
-4157.039860116109
 20
-3027.00016825908
 30
0.0
 11
-3995.039771037775
 21
-3027.00016825908
 31
0.0
  0
MTEXT
  5
24B
330
1F
100
AcDbEntity
  8
0-B_寸法
  6
Continuous
 62
     7
370
     0
100
AcDbMText
 10
-3616.840168862843
 20
-3085.332322163431
 30
0.0
 40
91.44
 41
120.0
 46
0.0
 71
     7
 72
     1
  1
{\fＭＳ ゴシック|b0|i0|c128|p49;10}
 11
6.123031769111886E-17
 21
1.0
 31
0.0
 73
     1
 44
1.0
  0
MTEXT
  5
24C
330
1F
100
AcDbEntity
  8
0-B_寸法
  6
Continuous
 62
     7
370
     0
100
AcDbMText
 10
-2816.559872996132
 20
-3200.646075621582
 30
0.0
 40
91.44
 41
120.0
 46
0.0
 71
     7
 72
     1
  1
{\fＭＳ ゴシック|b0|i0|c128|p49;12}
 11
6.123031769111886E-17
 21
1.0
 31
0.0
 73
     1
 44
1.0
  0
LINE
  5
24D
330
1F
100
AcDbEntity
  8
0-3_仕上げ
  6
Continuous
 62
   120
370
     5
100
AcDbLine
 10
-4433.039771037772
 20
86.88825550760811
 30
0.0
 11
-4433.039771037772
 21
-93.11174449239189
 31
0.0
  0
LINE
  5
24E
330
1F
100
AcDbEntity
  8
0-B_寸法
  6
Continuous
 62
   120
370
     5
100
AcDbLine
 10
-3605.039771037771
 20
-339.1117296454698
 30
0.0
 11
-3395.039771037773
 21
-339.1117296454698
 31
0.0
  0
LINE
  5
24F
330
1F
100
AcDbEntity
  8
0-B_寸法
  6
Continuous
 62
   120
370
     5
100
AcDbLine
 10
-3605.039771037771
 20
-321.1115960279659
 30
0.0
 11
-3395.039771037773
 21
-321.1115960279659
 31
0.0
  0
MTEXT
  5
250
330
1F
100
AcDbEntity
  8
0-B_寸法
  6
Continuous
 62
     7
370
     0
100
AcDbMText
 10
-3410.436961441067
 20
-414.6727008632698
 30
0.0
 40
91.44
 41
60.0
 46
0.0
 71
     7
 72
     1
  1
{\fＭＳ ゴシック|b0|i0|c128|p49;3}
 11
6.123031769111886E-17
 21
1.0
 31
0.0
 73
     1
 44
1.0
  0
LWPOLYLINE
  5
251
330
1F
100
AcDbEntity
  8
0-B_寸法
  6
Continuous
 62
     7
370
     9
100
AcDbPolyline
 90
        4
 70
     1
 43
3.0
 10
-3393.539771037773
 20
-339.1117296454698
 42
0.4142135623731
 10
-3395.039771037773
 20
-337.6117296454698
 42
0.4142135623731
 10
-3396.539771037773
 20
-339.1117296454698
 42
0.4142135623731
 10
-3395.039771037773
 20
-340.6117296454698
 42
0.4142135623731
  0
LWPOLYLINE
  5
252
330
1F
100
AcDbEntity
  8
0-B_寸法
  6
Continuous
 62
     7
370
     9
100
AcDbPolyline
 90
        4
 70
     1
 43
3.0
 10
-3393.539771037773
 20
-321.1115960279659
 42
0.4142135623731
 10
-3395.039771037773
 20
-319.6115960279659
 42
0.4142135623731
 10
-3396.539771037773
 20
-321.1115960279659
 42
0.4142135623731
 10
-3395.039771037773
 20
-322.6115960279659
 42
0.4142135623731
  0
LINE
  5
253
330
1F
100
AcDbEntity
  8
0-B_寸法
  6
Continuous
 62
   120
370
     5
100
AcDbLine
 10
-3395.039771037773
 20
-319.1533572716315
 30
0.0
 11
-3185.039771037773
 21
-319.1533572716315
 31
0.0
  0
LINE
  5
254
330
1F
100
AcDbEntity
  8
0-B_寸法
  6
Continuous
 62
   120
370
     5
100
AcDbLine
 10
-3605.039771037771
 20
-141.1117444918597
 30
0.0
 11
-2975.039771037773
 21
-141.1117444918597
 31
0.0
  0
LWPOLYLINE
  5
255
330
1F
100
AcDbEntity
  8
0-B_寸法
  6
Continuous
 62
     7
370
     9
100
AcDbPolyline
 90
        4
 70
     1
 43
3.0
 10
-3183.539771037773
 20
-319.1533572716315
 42
0.4142135623731
 10
-3185.039771037773
 20
-317.6533572716315
 42
0.4142135623731
 10
-3186.539771037773
 20
-319.1533572716315
 42
0.4142135623731
 10
-3185.039771037773
 20
-320.6533572716315
 42
0.4142135623731
  0
LWPOLYLINE
  5
256
330
1F
100
AcDbEntity
  8
0-B_寸法
  6
Continuous
 62
     7
370
     9
100
AcDbPolyline
 90
        4
 70
     1
 43
3.0
 10
-3183.539771037773
 20
-141.1117444918597
 42
0.4142135623731
 10
-3185.039771037773
 20
-139.6117444918597
 42
0.4142135623731
 10
-3186.539771037773
 20
-141.1117444918597
 42
0.4142135623731
 10
-3185.039771037773
 20
-142.6117444918597
 42
0.4142135623731
  0
LINE
  5
257
330
1F
100
AcDbEntity
  8
0-B_寸法
  6
Continuous
 62
   120
370
     5
100
AcDbLine
 10
-2975.039771037773
 20
-3159.000197951857
 30
0.0
 11
-2975.039771037773
 21
-141.1119820340892
 31
0.0
  0
LINE
  5
258
330
1F
100
AcDbEntity
  8
0-B_寸法
  6
Continuous
 62
   120
370
     5
100
AcDbLine
 10
-3185.039771037773
 20
-141.1119820340892
 30
0.0
 11
-2975.039771037773
 21
-141.1119820340892
 31
0.0
  0
LINE
  5
259
330
1F
100
AcDbEntity
  8
0-B_寸法
  6
Continuous
 62
   120
370
     5
100
AcDbLine
 10
-2975.039771037773
 20
-141.1112397146212
 30
0.0
 11
-3491.039493905173
 21
-141.1110021723917
 31
0.0
  0
LWPOLYLINE
  5
25A
330
1F
100
AcDbEntity
  8
0-B_寸法
  6
Continuous
 62
     7
370
     9
100
AcDbPolyline
 90
        4
 70
     1
 43
3.0
 10
-2973.539771037773
 20
-141.1119820340892
 42
0.4142135623731
 10
-2975.039771037773
 20
-139.6119820340892
 42
0.4142135623731
 10
-2976.539771037773
 20
-141.1119820340892
 42
0.4142135623731
 10
-2975.039771037773
 20
-142.6119820340892
 42
0.4142135623731
  0
LWPOLYLINE
  5
25B
330
1F
100
AcDbEntity
  8
0-B_寸法
  6
Continuous
 62
     7
370
     9
100
AcDbPolyline
 90
        4
 70
     1
 43
3.0
 10
-2973.539771037773
 20
-141.1112397146212
 42
0.4142135623731
 10
-2975.039771037773
 20
-139.6112397146212
 42
0.4142135623731
 10
-2976.539771037773
 20
-141.1112397146212
 42
0.4142135623731
 10
-2975.039771037773
 20
-142.6112397146212
 42
0.4142135623731
  0
LWPOLYLINE
  5
25C
330
1F
100
AcDbEntity
  8
0-B_寸法
  6
Continuous
 62
     7
370
     9
100
AcDbPolyline
 90
        4
 70
     1
 43
3.0
 10
-3393.539771037773
 20
-141.1117444918597
 42
0.4142135623731
 10
-3395.039771037773
 20
-139.6117444918597
 42
0.4142135623731
 10
-3396.539771037773
 20
-141.1117444918597
 42
0.4142135623731
 10
-3395.039771037773
 20
-142.6117444918597
 42
0.4142135623731
  0
LWPOLYLINE
  5
25D
330
1F
100
AcDbEntity
  8
0-B_寸法
  6
Continuous
 62
     7
370
     9
100
AcDbPolyline
 90
        4
 70
     1
 43
3.0
 10
-3393.539771037773
 20
-171.1115960279659
 42
0.4142135623731
 10
-3395.039771037773
 20
-169.6115960279659
 42
0.4142135623731
 10
-3396.539771037773
 20
-171.1115960279659
 42
0.4142135623731
 10
-3395.039771037773
 20
-172.6115960279659
 42
0.4142135623731
  0
LWPOLYLINE
  5
25E
330
1F
100
AcDbEntity
  8
0-B_寸法
  6
Continuous
 62
     7
370
     9
100
AcDbPolyline
 90
        4
 70
     1
 43
3.0
 10
-3393.539771037773
 20
-207.1115960279656
 42
0.4142135623731
 10
-3395.039771037773
 20
-205.6115960279656
 42
0.4142135623731
 10
-3396.539771037773
 20
-207.1115960279656
 42
0.4142135623731
 10
-3395.039771037773
 20
-208.6115960279656
 42
0.4142135623731
  0
LWPOLYLINE
  5
25F
330
1F
100
AcDbEntity
  8
0-B_寸法
  6
Continuous
 62
     7
370
     9
100
AcDbPolyline
 90
        4
 70
     1
 43
3.0
 10
-3393.539771037773
 20
-261.1115960279659
 42
0.4142135623731
 10
-3395.039771037773
 20
-259.6115960279659
 42
0.4142135623731
 10
-3396.539771037773
 20
-261.1115960279659
 42
0.4142135623731
 10
-3395.039771037773
 20
-262.6115960279659
 42
0.4142135623731
  0
LWPOLYLINE
  5
260
330
1F
100
AcDbEntity
  8
0-B_寸法
  6
Continuous
 62
     7
370
     9
100
AcDbPolyline
 90
        4
 70
     1
 43
3.0
 10
-3393.539771037773
 20
-321.1119671877003
 42
0.4142135623731
 10
-3395.039771037773
 20
-319.6119671877003
 42
0.4142135623731
 10
-3396.539771037773
 20
-321.1119671877003
 42
0.4142135623731
 10
-3395.039771037773
 20
-322.6119671877003
 42
0.4142135623731
  0
LINE
  5
261
330
1F
100
AcDbEntity
  8
0-B_寸法
  6
Continuous
 62
   120
370
     5
100
AcDbLine
 10
-3395.039771037773
 20
-321.1119671877003
 30
0.0
 11
-3575.039771037771
 21
-321.1119671877003
 31
0.0
  0
LINE
  5
262
330
1F
100
AcDbEntity
  8
0-B_寸法
  6
Continuous
 62
   120
370
     5
100
AcDbLine
 10
-3395.039771037773
 20
-171.1115960279659
 30
0.0
 11
-3605.039771037771
 21
-171.1115960279659
 31
0.0
  0
LINE
  5
263
330
1F
100
AcDbEntity
  8
0-B_寸法
  6
Continuous
 62
   120
370
     5
100
AcDbLine
 10
-3395.039771037773
 20
-207.1115960279656
 30
0.0
 11
-3605.039771037771
 21
-207.1115960279656
 31
0.0
  0
LINE
  5
264
330
1F
100
AcDbEntity
  8
0-B_寸法
  6
Continuous
 62
   120
370
     5
100
AcDbLine
 10
-3395.039771037773
 20
-261.1115960279659
 30
0.0
 11
-3605.039771037771
 21
-261.1115960279659
 31
0.0
  0
MTEXT
  5
265
330
1F
100
AcDbEntity
  8
0-B_寸法
  6
Continuous
 62
     7
370
   211
100
AcDbMText
 10
-3406.377604920313
 20
-147.1745347481775
 30
0.0
 40
91.44
 41
60.0
 46
0.0
 71
     7
 72
     1
  1
{\fＭＳ ゴシック|b0|i0|c128|p49;5}
 11
6.123031769111886E-17
 21
1.0
 31
0.0
 73
     1
 44
1.0
  0
MTEXT
  5
266
330
1F
100
AcDbEntity
  8
0-B_寸法
  6
Continuous
 62
     7
370
   211
100
AcDbMText
 10
-3253.496604119178
 20
-237.9368444788733
 30
0.0
 40
91.44
 41
60.0
 46
0.0
 71
     7
 72
     1
  1
{\fＭＳ ゴシック|b0|i0|c128|p49;6}
 11
6.123031769111886E-17
 21
1.0
 31
0.0
 73
     1
 44
1.0
  0
LINE
  5
267
330
1F
100
AcDbEntity
  8
0-B_寸法
  6
Continuous
 62
   120
370
     5
100
AcDbLine
 10
-3395.039771037773
 20
-234.1115960279649
 30
0.0
 11
-3650.478146074582
 21
-86.63418143910349
 31
0.0
  0
LINE
  5
268
330
1F
100
AcDbEntity
  8
0-B_寸法
  6
Continuous
 62
   120
370
     5
100
AcDbLine
 10
-3650.478146074582
 20
-86.63418143910349
 30
0.0
 11
-3650.478146074582
 21
14.46480462447255
 31
0.0
  0
LINE
  5
269
330
1F
100
AcDbEntity
  8
0-B_寸法
  6
Continuous
 62
   120
370
     5
100
AcDbLine
 10
-3650.478146074582
 20
-359.556102334997
 30
0.0
 11
-3650.478146074582
 21
-490.7672160817566
 31
0.0
  0
LINE
  5
26A
330
1F
100
AcDbEntity
  8
0-B_寸法
  6
Continuous
 62
   120
370
     5
100
AcDbLine
 10
-3395.039771037773
 20
-291.1115960279659
 30
0.0
 11
-3650.478146074582
 21
-359.556102334997
 31
0.0
  0
MTEXT
  5
26B
330
1F
100
AcDbEntity
  8
0-B_寸法
  6
Continuous
 62
     7
370
   211
100
AcDbMText
 10
-3663.47996518407
 20
-500.9059700103948
 30
0.0
 40
91.44
 41
120.0
 46
0.0
 71
     7
 72
     1
  1
{\fＭＳ ゴシック|b0|i0|c128|p49;10}
 11
6.123031769111886E-17
 21
1.0
 31
0.0
 73
     1
 44
1.0
  0
MTEXT
  5
26C
330
1F
100
AcDbEntity
  8
0-B_寸法
  6
Continuous
 62
     7
370
   211
100
AcDbMText
 10
-3657.268096077026
 20
-87.8166743919812
 30
0.0
 40
91.44
 41
60.0
 46
0.0
 71
     7
 72
     1
  1
{\fＭＳ ゴシック|b0|i0|c128|p49;9}
 11
6.123031769111886E-17
 21
1.0
 31
0.0
 73
     1
 44
1.0
  0
LINE
  5
26D
330
1F
100
AcDbEntity
  8
0-0_補助線
  6
JWW_HOJO
 62
   120
370
     5
100
AcDbLine
 10
-2975.040958748919
 20
194.9998020481414
 30
0.0
 11
-5057.040513357243
 21
194.9998020481414
 31
0.0
  0
LINE
  5
26E
330
1F
100
AcDbEntity
  8
0-B_寸法
  6
Continuous
 62
   120
370
     5
100
AcDbLine
 10
-3185.039771037773
 20
-3087.000168259079
 30
0.0
 11
-3185.039771037773
 21
-141.1117444918597
 31
0.0
  0
LINE
  5
26F
330
1F
100
AcDbEntity
  8
0-4_枠
  6
Continuous
 62
    92
370
    13
100
AcDbLine
 10
-3956.039771037772
 20
-171.1115960279659
 30
0.0
 11
-3998.039771037772
 21
-171.1115960279659
 31
0.0
  0
LINE
  5
270
330
1F
100
AcDbEntity
  8
0-4_枠
  6
Continuous
 62
    92
370
    13
100
AcDbLine
 10
-3956.039771037772
 20
-207.1115960279656
 30
0.0
 11
-3956.039771037772
 21
-171.1115960279659
 31
0.0
  0
LINE
  5
271
330
1F
100
AcDbEntity
  8
0-4_枠
  6
Continuous
 62
    92
370
    13
100
AcDbLine
 10
-3956.039771037772
 20
-261.1115960279659
 30
0.0
 11
-3956.039771037772
 21
-321.1119671877003
 31
0.0
  0
LINE
  5
272
330
1F
100
AcDbEntity
  8
0-C_ハッチ
  6
Continuous
 62
   120
370
     5
100
AcDbLine
 10
-4267.614916769642
 20
-321.1119671877029
 30
0.0
 11
-4447.615139465487
 21
-141.1117444918571
 31
0.0
  0
LINE
  5
273
330
1F
100
AcDbEntity
  8
0-C_ハッチ
  6
Continuous
 62
   120
370
     5
100
AcDbLine
 10
-4208.217947149953
 20
-321.1119671876884
 30
0.0
 11
-4388.218169845801
 21
-141.1117444918435
 31
0.0
  0
LINE
  5
274
330
1F
100
AcDbEntity
  8
0-C_ハッチ
  6
Continuous
 62
   120
370
     5
100
AcDbLine
 10
-4148.820977530294
 20
-321.1119671877012
 30
0.0
 11
-4328.82120022614
 21
-141.1117444918546
 31
0.0
  0
LINE
  5
275
330
1F
100
AcDbEntity
  8
0-C_ハッチ
  6
Continuous
 62
   120
370
     5
100
AcDbLine
 10
-4089.424007910589
 20
-321.1119671877071
 30
0.0
 11
-4269.424230606428
 21
-141.1117444918673
 31
0.0
  0
LINE
  5
276
330
1F
100
AcDbEntity
  8
0-C_ハッチ
  6
Continuous
 62
   120
370
     5
100
AcDbLine
 10
-4210.027260986794
 20
-141.1117444918537
 30
0.0
 11
-4030.027038290947
 21
-321.1119671876986
 31
0.0
  0
LINE
  5
277
330
1F
100
AcDbEntity
  8
0-C_ハッチ
  6
Continuous
 62
   120
370
     5
100
AcDbLine
 10
-3965.836500591683
 20
-207.1115960279656
 30
0.0
 11
-4031.836352127784
 21
-141.1117444918656
 31
0.0
  0
LINE
  5
278
330
1F
100
AcDbEntity
  8
0-C_ハッチ
  6
Continuous
 62
   120
370
     5
100
AcDbLine
 10
-3970.630068671299
 20
-321.1119671877003
 30
0.0
 11
-4150.630291367142
 21
-141.1117444918571
 31
0.0
  0
LINE
  5
279
330
1F
100
AcDbEntity
  8
0-4_枠
  6
Continuous
 62
    92
370
    13
100
AcDbLine
 10
-3998.039771037772
 20
-171.1115960279659
 30
0.0
 11
-3998.039771037772
 21
-141.1117444918597
 31
0.0
  0
LINE
  5
27A
330
1F
100
AcDbEntity
  8
0-4_枠
  6
Continuous
 62
    92
370
    13
100
AcDbLine
 10
-3956.039771037772
 20
-207.1115960279656
 30
0.0
 11
-4016.039771037772
 21
-207.1115960279656
 31
0.0
  0
LINE
  5
27B
330
1F
100
AcDbEntity
  8
0-4_枠
  6
Continuous
 62
    92
370
    13
100
AcDbLine
 10
-4016.039771037772
 20
-261.1115960279659
 30
0.0
 11
-4016.039771037772
 21
-207.1115960279656
 31
0.0
  0
LINE
  5
27C
330
1F
100
AcDbEntity
  8
0-4_枠
  6
Continuous
 62
    92
370
    13
100
AcDbLine
 10
-3956.039771037772
 20
-261.1115960279659
 30
0.0
 11
-4016.039771037772
 21
-261.1115960279659
 31
0.0
  0
LINE
  5
27D
330
1F
100
AcDbEntity
  8
0-B_寸法
  6
Continuous
 62
   120
370
     5
100
AcDbLine
 10
-2975.039771037773
 20
-141.1117444918597
 30
0.0
 11
-2975.039771037773
 21
-93.11174449239189
 31
0.0
  0
LWPOLYLINE
  5
27E
330
1F
100
AcDbEntity
  8
0-B_寸法
  6
Continuous
 62
     7
370
     9
100
AcDbPolyline
 90
        4
 70
     1
 43
3.0
 10
-2973.539771037773
 20
-141.1117444918597
 42
0.4142135623731
 10
-2975.039771037773
 20
-139.6117444918597
 42
0.4142135623731
 10
-2976.539771037773
 20
-141.1117444918597
 42
0.4142135623731
 10
-2975.039771037773
 20
-142.6117444918597
 42
0.4142135623731
  0
LWPOLYLINE
  5
27F
330
1F
100
AcDbEntity
  8
0-B_寸法
  6
Continuous
 62
     7
370
     9
100
AcDbPolyline
 90
        4
 70
     1
 43
3.0
 10
-2973.539771037773
 20
-93.11174449239189
 42
0.4142135623731
 10
-2975.039771037773
 20
-91.61174449239189
 42
0.4142135623731
 10
-2976.539771037773
 20
-93.11174449239189
 42
0.4142135623731
 10
-2975.039771037773
 20
-94.61174449239189
 42
0.4142135623731
  0
LINE
  5
280
330
1F
100
AcDbEntity
  8
0-B_寸法
  6
Continuous
 62
   120
370
     5
100
AcDbLine
 10
-2975.039771037773
 20
-93.11174449239189
 30
0.0
 11
-3605.039771037771
 21
-93.11174449239189
 31
0.0
  0
LINE
  5
281
330
1F
100
AcDbEntity
  8
0-B_寸法
  6
Continuous
 62
   120
370
     5
100
AcDbLine
 10
-5057.040513357243
 20
-3159.000197735092
 30
0.0
 11
-5057.040513357243
 21
-93.11174449239189
 31
0.0
  0
LWPOLYLINE
  5
282
330
1F
100
AcDbEntity
  8
0-B_寸法
  6
Continuous
 62
     7
370
     9
100
AcDbPolyline
 90
        4
 70
     1
 43
3.0
 10
-5055.540513357242
 20
-93.11174449239189
 42
0.4142135623731
 10
-5057.040513357243
 20
-91.61174449239189
 42
0.4142135623731
 10
-5058.540513357243
 20
-93.11174449239189
 42
0.4142135623731
 10
-5057.040513357243
 20
-94.61174449239189
 42
0.4142135623731
  0
LINE
  5
283
330
1F
100
AcDbEntity
  8
0-B_寸法
  6
Continuous
 62
   120
370
     5
100
AcDbLine
 10
-5057.040513357243
 20
-93.11174449239189
 30
0.0
 11
-4847.040513357243
 21
-93.11174449239189
 31
0.0
  0
LINE
  5
284
330
1F
100
AcDbEntity
  8
0-4_枠
  6
Continuous
 62
   120
370
     5
100
AcDbLine
 10
-3947.039771037774
 20
-141.1117444918597
 30
0.0
 11
-3998.039771037772
 21
-141.1117444918597
 31
0.0
  0
LINE
  5
285
330
1F
100
AcDbEntity
  8
0-4_枠
  6
Continuous
 62
    92
370
    13
100
AcDbLine
 10
-4568.039771037772
 20
-291.1119671877003
 30
0.0
 11
-4568.039771037772
 21
-141.1117444918597
 31
0.0
  0
LINE
  5
286
330
1F
100
AcDbEntity
  8
0-4_枠
  6
Continuous
 62
   120
370
     5
100
AcDbLine
 10
-4568.039771037772
 20
-141.1117444918597
 30
0.0
 11
-4577.039771037772
 21
-141.1117444918597
 31
0.0
  0
LINE
  5
287
330
1F
100
AcDbEntity
  8
0-4_枠
  6
Continuous
 62
    92
370
    13
100
AcDbLine
 10
-4568.039771037772
 20
-141.1117444918597
 30
0.0
 11
-3998.039771037772
 21
-141.1117444918597
 31
0.0
  0
LINE
  5
288
330
1F
100
AcDbEntity
  8
0-4_枠
  6
Continuous
 62
    92
370
    13
100
AcDbLine
 10
-4538.039771037772
 20
-321.1119671877003
 30
0.0
 11
-3956.039771037772
 21
-321.1119671877003
 31
0.0
  0
ARC
  5
289
330
1F
100
AcDbEntity
  8
0-4_枠
  6
Continuous
 62
    92
370
    13
100
AcDbCircle
 10
-4538.039771037772
 20
-291.1119671877003
 30
0.0
 40
30.0
100
AcDbArc
 50
180.0
 51
270.0
  0
LINE
  5
28A
330
1F
100
AcDbEntity
  8
0-B_寸法
  6
Continuous
 62
   120
370
     5
100
AcDbLine
 10
-4568.039771037772
 20
-656.0973599901702
 30
0.0
 11
-3956.039771037772
 21
-656.0973599901702
 31
0.0
  0
LWPOLYLINE
  5
28B
330
1F
100
AcDbEntity
  8
0-B_寸法
  6
Continuous
 62
     7
370
     9
100
AcDbPolyline
 90
        4
 70
     1
 43
3.0
 10
-4566.539771037771
 20
-656.0973599901702
 42
0.4142135623731
 10
-4568.039771037772
 20
-654.5973599901702
 42
0.4142135623731
 10
-4569.539771037772
 20
-656.0973599901702
 42
0.4142135623731
 10
-4568.039771037772
 20
-657.5973599901702
 42
0.4142135623731
  0
LWPOLYLINE
  5
28C
330
1F
100
AcDbEntity
  8
0-B_寸法
  6
Continuous
 62
     7
370
     9
100
AcDbPolyline
 90
        4
 70
     1
 43
3.0
 10
-3954.539771037772
 20
-656.0973599901702
 42
0.4142135623731
 10
-3956.039771037772
 20
-654.5973599901702
 42
0.4142135623731
 10
-3957.539771037773
 20
-656.0973599901702
 42
0.4142135623731
 10
-3956.039771037772
 20
-657.5973599901702
 42
0.4142135623731
  0
LINE
  5
28D
330
1F
100
AcDbEntity
  8
0-B_寸法
  6
Continuous
 62
   120
370
     5
100
AcDbLine
 10
-4568.039771037772
 20
-656.0973599901702
 30
0.0
 11
-4568.039771037772
 21
-503.8721336652128
 31
0.0
  0
LINE
  5
28E
330
1F
100
AcDbEntity
  8
0-B_寸法
  6
Continuous
 62
   120
370
     5
100
AcDbLine
 10
-3956.039771037772
 20
-656.0973599901702
 30
0.0
 11
-3956.039771037772
 21
-503.8721336652128
 31
0.0
  0
MTEXT
  5
28F
330
1F
100
AcDbEntity
  8
0-B_寸法
  6
Continuous
 62
     7
370
   211
100
AcDbMText
 10
-4359.539771037772
 20
-651.5673599901702
 30
0.0
 40
99.06
 41
195.0
 46
0.0
 71
     7
 72
     1
  1
{\fＭＳ ゴシック|b0|i0|c128|p49;102}
 73
     1
 44
1.0
  0
LINE
  5
290
330
1F
100
AcDbEntity
  8
0-C_ハッチ
  6
Continuous
 62
   120
370
     5
100
AcDbLine
 10
-4327.011886389302
 20
-321.1119671876901
 30
0.0
 11
-4507.012109085136
 21
-141.1117444918597
 31
0.0
  0
LINE
  5
291
330
1F
100
AcDbEntity
  8
0-C_ハッチ
  6
Continuous
 62
   120
370
     5
100
AcDbLine
 10
-4386.408856008991
 20
-321.1119671877012
 30
0.0
 11
-4566.409078704838
 21
-141.1117444918597
 31
0.0
  0
LINE
  5
292
330
1F
100
AcDbEntity
  8
0-C_ハッチ
  6
Continuous
 62
   120
370
     5
100
AcDbLine
 10
-4445.80582562865
 20
-321.1119671876918
 30
0.0
 11
-4568.039771037772
 21
-198.8780217785666
 31
0.0
  0
LINE
  5
293
330
1F
100
AcDbEntity
  8
0-C_ハッチ
  6
Continuous
 62
   120
370
     5
100
AcDbLine
 10
-4505.202795248309
 20
-321.1119671876918
 30
0.0
 11
-4568.039771037772
 21
-258.2749913982275
 31
0.0
  0
LINE
  5
294
330
1F
100
AcDbEntity
  8
0-C_ハッチ
  6
Continuous
 62
   120
370
     5
100
AcDbLine
 10
-3956.039771037772
 20
-276.3052952015277
 30
0.0
 11
-3971.233470211334
 21
-261.1115960279659
 31
0.0
  0
LINE
  5
295
330
1F
100
AcDbEntity
  8
0-C_ハッチ
  6
Continuous
 62
   120
370
     5
100
AcDbLine
 10
-4016.039771037772
 20
-216.3052952015268
 30
0.0
 11
-4091.233321747445
 21
-141.1117444918528
 31
0.0
  0
LINE
  5
296
330
1F
100
AcDbEntity
  8
0-6_扉
  6
Continuous
 62
   200
370
    20
100
AcDbLine
 10
-3995.039771037775
 20
-339.1117296454698
 30
0.0
 11
-4157.039860116109
 21
-339.1117296454698
 31
0.0
  0
LINE
  5
297
330
1F
100
AcDbEntity
  8
0-B_寸法
  6
Continuous
 62
   120
370
     5
100
AcDbLine
 10
-3995.039771037775
 20
-1043.174600805206
 30
0.0
 11
-4157.039860116109
 21
-1043.174600805206
 31
0.0
  0
LINE
  5
298
330
1F
100
AcDbEntity
  8
0-B_寸法
  6
Continuous
 62
   120
370
     5
100
AcDbLine
 10
-3995.039771037775
 20
-977.6834657492503
 30
0.0
 11
-3995.039771037775
 21
-1043.174600805206
 31
0.0
  0
LINE
  5
299
330
1F
100
AcDbEntity
  8
0-B_寸法
  6
Continuous
 62
   120
370
     5
100
AcDbLine
 10
-4157.039860116109
 20
-977.6834657492503
 30
0.0
 11
-4157.039860116109
 21
-1043.174600805206
 31
0.0
  0
MTEXT
  5
29A
330
1F
100
AcDbEntity
  8
0-B_寸法
  6
Continuous
 62
     7
370
     0
100
AcDbMText
 10
-4136.03980320495
 20
-1042.454551317241
 30
0.0
 40
91.44
 41
120.0
 46
0.0
 71
     7
 72
     1
  1
{\fＭＳ ゴシック|b0|i0|c128|p49;27}
 73
     1
 44
1.0
  0
LWPOLYLINE
  5
29B
330
1F
100
AcDbEntity
  8
0-B_寸法
  6
Continuous
 62
     7
370
     9
100
AcDbPolyline
 90
        4
 70
     1
 43
3.0
 10
-3993.539771037774
 20
-1043.174600805206
 42
0.4142135623731
 10
-3995.039771037775
 20
-1041.674600805206
 42
0.4142135623731
 10
-3996.539771037775
 20
-1043.174600805206
 42
0.4142135623731
 10
-3995.039771037775
 20
-1044.674600805206
 42
0.4142135623731
  0
LWPOLYLINE
  5
29C
330
1F
100
AcDbEntity
  8
0-B_寸法
  6
Continuous
 62
     7
370
     9
100
AcDbPolyline
 90
        4
 70
     1
 43
3.0
 10
-4155.539860116109
 20
-1043.174600805206
 42
0.4142135623731
 10
-4157.039860116109
 20
-1041.674600805206
 42
0.4142135623731
 10
-4158.539860116109
 20
-1043.174600805206
 42
0.4142135623731
 10
-4157.039860116109
 20
-1044.674600805206
 42
0.4142135623731
  0
MTEXT
  5
29D
330
1F
100
AcDbEntity
  8
0-B_寸法
  6
Continuous
 62
     7
370
     0
100
AcDbMText
 10
-4198.289803204951
 20
-1192.45465029317
 30
0.0
 40
91.44
 41
240.0
 46
0.0
 71
     7
 72
     1
  1
{\fＭＳ ゴシック|b0|i0|c128|p49;(24)}
 73
     1
 44
1.0
  0
LINE
  5
29E
330
1F
100
AcDbEntity
  8
0-7_金物
  6
Continuous
 62
     7
370
     9
100
AcDbLine
 10
-4208.039364772511
 20
-141.1119068742437
 30
0.0
 11
-4208.039364772511
 21
-117.1118382102253
 31
0.0
  0
LINE
  5
29F
330
1F
100
AcDbEntity
  8
0-7_金物
  6
Continuous
 62
     7
370
     9
100
AcDbLine
 10
-4316.039433437062
 20
-117.1118382102253
 30
0.0
 11
-4316.039433437062
 21
-141.1119068742437
 31
0.0
  0
LINE
  5
2A0
330
1F
100
AcDbEntity
  8
0-7_金物
  6
Continuous
 62
     7
370
     9
100
AcDbLine
 10
-4322.039599376393
 20
-117.1118382102253
 30
0.0
 11
-4202.039942699147
 21
-117.1118382102253
 31
0.0
  0
LINE
  5
2A1
330
1F
100
AcDbEntity
  8
0-7_金物
  6
Continuous
 62
     7
370
     9
100
AcDbLine
 10
-4202.039942699147
 20
-105.1122444754844
 30
0.0
 11
-4202.039942699147
 21
-117.1118382102253
 31
0.0
  0
LINE
  5
2A2
330
1F
100
AcDbEntity
  8
0-7_金物
  6
Continuous
 62
     7
370
     9
100
AcDbLine
 10
-4322.039599376393
 20
-105.1122444754844
 30
0.0
 11
-4322.039599376393
 21
-117.1118382102253
 31
0.0
  0
LINE
  5
2A3
330
1F
100
AcDbEntity
  8
0-7_金物
  6
Continuous
 62
     7
370
     9
100
AcDbLine
 10
-4352.03970237322
 20
-93.11190687477591
 30
0.0
 11
-4172.039839702324
 21
-93.11190687477591
 31
0.0
  0
LINE
  5
2A4
330
1F
100
AcDbEntity
  8
0-7_金物
  6
Continuous
 62
     7
370
     9
100
AcDbLine
 10
-4352.03970237322
 20
-93.11190687477591
 30
0.0
 11
-4352.03970237322
 21
-105.1122444754844
 31
0.0
  0
LINE
  5
2A5
330
1F
100
AcDbEntity
  8
0-7_金物
  6
Continuous
 62
     7
370
     9
100
AcDbLine
 10
-4172.039839702324
 20
-93.11190687477591
 30
0.0
 11
-4172.039839702324
 21
-105.1122444754844
 31
0.0
  0
LINE
  5
2A6
330
1F
100
AcDbEntity
  8
0-7_金物
  6
Continuous
 62
     7
370
     9
100
AcDbLine
 10
-4352.03970237322
 20
-105.1122444754844
 30
0.0
 11
-4172.039839702324
 21
-105.1122444754844
 31
0.0
  0
LINE
  5
2A7
330
1F
100
AcDbEntity
  8
0-B_寸法
  6
Continuous
 62
   120
370
     5
100
AcDbLine
 10
-3395.039771037773
 20
-3087.000405801309
 30
0.0
 11
-3395.039771037773
 21
-141.1117444918597
 31
0.0
  0
LINE
  5
2A8
330
1F
100
AcDbEntity
  8
0-3_仕上げ
  6
Continuous
 62
   120
370
     5
100
AcDbLine
 10
-4010.039771037775
 20
86.88825550760811
 30
0.0
 11
-4433.039771037772
 21
86.88825550760811
 31
0.0
  0
LINE
  5
2A9
330
1F
100
AcDbEntity
  8
0-3_仕上げ
  6
Continuous
 62
   120
370
     5
100
AcDbLine
 10
-4010.039771037775
 20
86.88825550760811
 30
0.0
 11
-4433.039771037772
 21
-93.11174449239189
 31
0.0
  0
LINE
  5
2AA
330
1F
100
AcDbEntity
  8
0-3_仕上げ
  6
Continuous
 62
   120
370
     5
100
AcDbLine
 10
-4433.039771037772
 20
-93.11174449239189
 30
0.0
 11
-4010.039771037775
 21
-93.11174449239189
 31
0.0
  0
LINE
  5
2AB
330
1F
100
AcDbEntity
  8
0-3_仕上げ
  6
Continuous
 62
   120
370
     5
100
AcDbLine
 10
-4010.039771037775
 20
-93.11174449239189
 30
0.0
 11
-4010.039771037775
 21
86.88825550760811
 31
0.0
  0
LINE
  5
2AC
330
1F
100
AcDbEntity
  8
0-3_仕上げ
  6
Continuous
 62
    40
370
    15
100
AcDbLine
 10
-3935.039771037775
 20
-141.1117444918575
 30
0.0
 11
-4010.039771037775
 21
-141.1117444918575
 31
0.0
  0
LINE
  5
2AD
330
1F
100
AcDbEntity
  8
0-C_ハッチ
  6
JWW_DASHED1
 62
   120
370
     5
100
AcDbLine
 10
-3988.066372468306
 20
-141.1117444918575
 30
0.0
 11
-4010.039771037775
 21
-119.1383459223913
 31
0.0
  0
LINE
  5
2AE
330
1F
100
AcDbEntity
  8
0-C_ハッチ
  6
JWW_DASHED1
 62
   120
370
     5
100
AcDbLine
 10
-3945.639845599644
 20
-141.1117444918575
 30
0.0
 11
-4010.039771037775
 21
-76.71181905372563
 31
0.0
  0
LINE
  5
2AF
330
1F
100
AcDbEntity
  8
0-C_ハッチ
  6
JWW_DASHED1
 62
   120
370
     5
100
AcDbLine
 10
-3935.040265917421
 20
-109.2847973054138
 30
0.0
 11
-4010.039771037775
 21
-34.28529218506
 31
0.0
  0
LINE
  5
2B0
330
1F
100
AcDbEntity
  8
0-C_ハッチ
  6
JWW_DASHED1
 62
   120
370
     5
100
AcDbLine
 10
-3935.040265917421
 20
-66.85938391595059
 30
0.0
 11
-4010.039771037775
 21
8.140121204404949
 31
0.0
  0
LINE
  5
2B1
330
1F
100
AcDbEntity
  8
0-C_ハッチ
  6
JWW_DASHED1
 62
   120
370
     5
100
AcDbLine
 10
-3935.040265917421
 20
-24.43285704728495
 30
0.0
 11
-4010.039771037775
 21
50.56664807306973
 31
0.0
  0
LINE
  5
2B2
330
1F
100
AcDbEntity
  8
0-C_ハッチ
  6
JWW_DASHED1
 62
   120
370
     5
100
AcDbLine
 10
-3935.040265917421
 20
17.99366982138068
 30
0.0
 11
-4010.039771037775
 21
92.99317494173621
 31
0.0
  0
LINE
  5
2B3
330
1F
100
AcDbEntity
  8
0-C_ハッチ
  6
JWW_DASHED1
 62
   120
370
     5
100
AcDbLine
 10
-3935.040265917421
 20
60.4198255303119
 30
0.0
 11
-4010.039771037775
 21
135.4193306506674
 31
0.0
  0
LINE
  5
2B4
330
1F
100
AcDbEntity
  8
0-C_ハッチ
  6
JWW_DASHED1
 62
   120
370
     5
100
AcDbLine
 10
-3935.040265917421
 20
102.8463523989775
 30
0.0
 11
-4010.039771037775
 21
177.8458575193314
 31
0.0
  0
LINE
  5
2B5
330
1F
100
AcDbEntity
  8
0-0_補助線
  6
JWW_HOJO
 62
   120
370
     5
100
AcDbLine
 10
-3605.039771037771
 20
-3159.000197735092
 30
0.0
 11
-3605.039771037771
 21
194.9998020481414
 31
0.0
  0
LINE
  5
2B6
330
1F
100
AcDbEntity
  8
0-0_補助線
  6
JWW_HOJO
 62
   120
370
     5
100
AcDbLine
 10
-4847.040513357243
 20
-3159.000197735092
 30
0.0
 11
-4847.040513357243
 21
194.9998020481414
 31
0.0
  0
LINE
  5
2B7
330
1F
100
AcDbEntity
  8
0-0_補助線
  6
JWW_HOJO
 62
   120
370
     5
100
AcDbLine
 10
-3395.039771037773
 20
-3159.000197735092
 30
0.0
 11
-3395.039771037773
 21
194.9998020481414
 31
0.0
  0
LINE
  5
2B8
330
1F
100
AcDbEntity
  8
0-0_補助線
  6
JWW_HOJO
 62
   120
370
     5
100
AcDbLine
 10
-2975.040958748919
 20
-3159.000197735092
 30
0.0
 11
-2975.040958748919
 21
194.9998020481414
 31
0.0
  0
LINE
  5
2B9
330
1F
100
AcDbEntity
  8
0-0_補助線
  6
JWW_HOJO
 62
   120
370
     5
100
AcDbLine
 10
-5057.040513357243
 20
-3159.000197735092
 30
0.0
 11
-5057.040513357243
 21
194.9998020481414
 31
0.0
  0
LINE
  5
2BA
330
1F
100
AcDbEntity
  8
0-0_補助線
  6
JWW_HOJO
 62
   120
370
     5
100
AcDbLine
 10
-3185.040364893344
 20
-3159.000197735092
 30
0.0
 11
-3185.040364893344
 21
194.9998020481414
 31
0.0
  0
LINE
  5
2BB
330
1F
100
AcDbEntity
  8
0-1_通り芯
  6
JWW_CENTER1
 62
   120
370
     5
100
AcDbLine
 10
-4262.039771037772
 20
-3299.786239872319
 30
0.0
 11
-4262.039771037772
 21
194.9998020481414
 31
0.0
  0
LINE
  5
2BC
330
1F
100
AcDbEntity
  8
0-3_仕上げ
  6
Continuous
 62
    40
370
    15
100
AcDbLine
 10
-4010.039771037775
 20
-141.1117444918575
 30
0.0
 11
-4010.039771037775
 21
194.9998020481414
 31
0.0
  0
LINE
  5
2BD
330
1F
100
AcDbEntity
  8
0-3_仕上げ
  6
Continuous
 62
    40
370
    15
100
AcDbLine
 10
-3935.039771037775
 20
-141.1117444918575
 30
0.0
 11
-3935.039771037775
 21
194.9998020481414
 31
0.0
  0
LINE
  5
2BE
330
1F
100
AcDbEntity
  8
0-C_ハッチ
  6
JWW_DASHED1
 62
   120
370
     5
100
AcDbLine
 10
-3935.040265917421
 20
145.2728792676432
 30
0.0
 11
-3984.767188697919
 21
194.9998020481414
 31
0.0
  0
LINE
  5
2BF
330
1F
100
AcDbEntity
  8
0-C_ハッチ
  6
JWW_DASHED1
 62
   120
370
     5
100
AcDbLine
 10
-3935.040265917421
 20
187.6994061363088
 30
0.0
 11
-3942.340661829253
 21
194.9998020481414
 31
0.0
  0
MTEXT
  5
2C0
330
1F
100
AcDbEntity
  8
0-B_寸法
  6
Continuous
 62
     7
370
   211
100
AcDbMText
 10
-2828.744930767605
 20
-134.7681589390682
 30
0.0
 40
91.44
 41
60.0
 46
0.0
 71
     7
 72
     1
  1
{\fＭＳ ゴシック|b0|i0|c128|p49;8}
 11
6.123031769111886E-17
 21
1.0
 31
0.0
 73
     1
 44
1.0
  0
LINE
  5
2C1
330
1F
100
AcDbEntity
  8
0-0_補助線
  6
JWW_HOJO
 62
   120
370
     5
100
AcDbLine
 10
-3587.775967787494
 20
-1638.000420556446
 30
0.0
 11
-4858.303574288062
 21
-1638.000420556446
 31
0.0
  0
LINE
  5
2C2
330
1F
100
AcDbEntity
  8
0-4_枠
  6
Continuous
 62
   120
370
     5
100
AcDbLine
 10
-4577.039771037772
 20
-1638.000420556446
 30
0.0
 11
-4577.039771037772
 21
-141.1117444918597
 31
0.0
  0
LINE
  5
2C3
330
1F
100
AcDbEntity
  8
0-6_扉
  6
Continuous
 62
   200
370
    20
100
AcDbLine
 10
-4157.039860116109
 20
-339.1117296454698
 30
0.0
 11
-4157.039860116109
 21
-1638.000420556446
 31
0.0
  0
LINE
  5
2C4
330
1F
100
AcDbEntity
  8
0-6_扉
  6
Continuous
 62
   200
370
    20
100
AcDbLine
 10
-3995.039771037775
 20
-339.1117296454698
 30
0.0
 11
-3995.039771037775
 21
-1638.000420556446
 31
0.0
  0
LINE
  5
2C5
330
1F
100
AcDbEntity
  8
0-4_枠
  6
Continuous
 62
   120
370
     5
100
AcDbLine
 10
-3947.039771037774
 20
-1638.000420556446
 30
0.0
 11
-3947.039771037774
 21
-141.1117444918597
 31
0.0
  0
LINE
  5
2C6
330
1F
100
AcDbEntity
  8
0-4_枠
  6
Continuous
 62
   120
370
     5
100
AcDbLine
 10
-3947.039771037774
 20
-3087.000168259079
 30
0.0
 11
-3947.039771037774
 21
-1758.000420556447
 31
0.0
  0
LINE
  5
2C7
330
1F
100
AcDbEntity
  8
0-6_扉
  6
Continuous
 62
   200
370
    20
100
AcDbLine
 10
-3995.039771037775
 20
-1758.000420556447
 30
0.0
 11
-3995.039771037775
 21
-3027.00016825908
 31
0.0
  0
LINE
  5
2C8
330
1F
100
AcDbEntity
  8
0-6_扉
  6
Continuous
 62
   200
370
    20
100
AcDbLine
 10
-4157.039860116109
 20
-1758.000420556447
 30
0.0
 11
-4157.039860116109
 21
-3027.00016825908
 31
0.0
  0
LINE
  5
2C9
330
1F
100
AcDbEntity
  8
0-4_枠
  6
Continuous
 62
   120
370
     5
100
AcDbLine
 10
-4577.039771037772
 20
-3087.000168259079
 30
0.0
 11
-4577.039771037772
 21
-1758.000420556447
 31
0.0
  0
MTEXT
  5
2CA
330
1F
100
AcDbEntity
  8
0-B_寸法
  6
Continuous
 62
     7
370
     0
100
AcDbMText
 10
-3035.543872566547
 20
-304.6003997648412
 30
0.0
 40
91.44
 41
120.0
 46
0.0
 71
     7
 72
     1
  1
{\fＭＳ ゴシック|b0|i0|c128|p49;30}
 11
6.123031769111886E-17
 21
1.0
 31
0.0
 73
     1
 44
1.0
  0
LINE
  5
2CB
330
1F
100
AcDbEntity
  8
0-0_補助線
  6
Continuous
 62
    92
370
    13
100
AcDbLine
 10
-2345.039771037773
 20
-273.1117444923919
 30
0.0
 11
-845.0397710377746
 21
-273.1117444923919
 31
0.0
  0
LINE
  5
2CC
330
1F
100
AcDbEntity
  8
0-0_補助線
  6
Continuous
 62
    92
370
    13
100
AcDbLine
 10
-2345.039771037773
 20
-93.11174449239189
 30
0.0
 11
-845.0397710377746
 21
-93.11174449239189
 31
0.0
  0
LINE
  5
2CD
330
1F
100
AcDbEntity
  8
0-0_補助線
  6
Continuous
 62
    92
370
    13
100
AcDbLine
 10
-2345.039771037769
 20
-2124.141062501177
 30
0.0
 11
-2345.039771037773
 21
-93.11174449239189
 31
0.0
  0
LINE
  5
2CE
330
1F
100
AcDbEntity
  8
0-0_補助線
  6
Continuous
 62
    92
370
    13
100
AcDbLine
 10
-845.0397710377729
 20
-2124.141062501177
 30
0.0
 11
-2345.039771037769
 21
-2124.141062501177
 31
0.0
  0
LINE
  5
2CF
330
1F
100
AcDbEntity
  8
0-0_補助線
  6
Continuous
 62
    92
370
    13
100
AcDbLine
 10
-845.0397710377729
 20
-2124.141062501177
 30
0.0
 11
-845.0397710377746
 21
-93.11174449239189
 31
0.0
  0
LINE
  5
2D0
330
1F
100
AcDbEntity
  8
0-0_補助線
  6
Continuous
 62
   120
370
     5
100
AcDbLine
 10
-1902.93359196071
 20
-573.0397506250672
 30
0.0
 11
-1272.93359196071
 21
-573.0397506250672
 31
0.0
  0
LWPOLYLINE
  5
2D1
330
1F
100
AcDbEntity
  8
0-0_補助線
  6
Continuous
 62
     7
370
     9
100
AcDbPolyline
 90
        4
 70
     1
 43
3.0
 10
-1901.43359196071
 20
-573.0397506250672
 42
0.4142135623731
 10
-1902.93359196071
 20
-571.5397506250672
 42
0.4142135623731
 10
-1904.43359196071
 20
-573.0397506250672
 42
0.4142135623731
 10
-1902.93359196071
 20
-574.5397506250672
 42
0.4142135623731
  0
LWPOLYLINE
  5
2D2
330
1F
100
AcDbEntity
  8
0-0_補助線
  6
Continuous
 62
     7
370
     9
100
AcDbPolyline
 90
        4
 70
     1
 43
3.0
 10
-1271.43359196071
 20
-573.0397506250672
 42
0.4142135623731
 10
-1272.93359196071
 20
-571.5397506250672
 42
0.4142135623731
 10
-1274.43359196071
 20
-573.0397506250672
 42
0.4142135623731
 10
-1272.93359196071
 20
-574.5397506250672
 42
0.4142135623731
  0
LINE
  5
2D3
330
1F
100
AcDbEntity
  8
0-0_補助線
  6
Continuous
 62
   120
370
     5
100
AcDbLine
 10
-1902.93359196071
 20
-573.0397506250672
 30
0.0
 11
-1902.93359196071
 21
-735.8391146917996
 31
0.0
  0
LINE
  5
2D4
330
1F
100
AcDbEntity
  8
0-0_補助線
  6
Continuous
 62
   120
370
     5
100
AcDbLine
 10
-1272.93359196071
 20
-573.0397506250672
 30
0.0
 11
-1272.93359196071
 21
-735.8391146917996
 31
0.0
  0
MTEXT
  5
2D5
330
1F
100
AcDbEntity
  8
0-0_補助線
  6
Continuous
 62
     7
370
   211
100
AcDbMText
 10
-1682.070379743092
 20
-568.5097506250672
 30
0.0
 40
99.06
 41
195.0
 46
0.0
 71
     7
 72
     1
  1
{\fＭＳ ゴシック|b0|i0|c128|p49;105}
 73
     1
 44
1.0
  0
MTEXT
  5
2D6
330
1F
100
AcDbEntity
  8
0-0_補助線
  6
Continuous
 62
     7
370
     0
100
AcDbMText
 10
-2037.539771037771
 20
-257.3917444923915
 30
0.0
 40
91.44
 41
840.0
 46
0.0
 71
     7
 72
     1
  1
{\fＭＳ ゴシック|b0|i0|c128|p49;竪枠下端加工図}
 73
     1
 44
1.0
  0
LINE
  5
2D7
330
1F
100
AcDbEntity
  8
0-0_補助線
  6
Continuous
 62
    92
370
    13
100
AcDbLine
 10
-1272.93359196071
 20
-828.7634906715904
 30
0.0
 11
-1272.93359196071
 21
-1562.959042928074
 31
0.0
  0
LINE
  5
2D8
330
1F
100
AcDbEntity
  8
0-0_補助線
  6
Continuous
 62
    92
370
    13
100
AcDbLine
 10
-1902.93359196071
 20
-828.7634906715908
 30
0.0
 11
-1902.93359196071
 21
-1562.959042928074
 31
0.0
  0
LINE
  5
2D9
330
1F
100
AcDbEntity
  8
0-0_補助線
  6
JWW_HOJO
 62
   120
370
     5
100
AcDbLine
 10
2112.141328062217
 20
-1758.000420556447
 30
0.0
 11
841.6137215616484
 21
-1758.000420556447
 31
0.0
  0
LINE
  5
2DA
330
1F
100
AcDbEntity
  8
0-B_寸法
  6
Continuous
 62
   120
370
     5
100
AcDbLine
 10
2304.877524811937
 20
-3087.000168259079
 30
0.0
 11
2514.877524811937
 21
-3087.000168259079
 31
0.0
  0
LWPOLYLINE
  5
2DB
330
1F
100
AcDbEntity
  8
0-B_寸法
  6
Continuous
 62
     7
370
     9
100
AcDbPolyline
 90
        4
 70
     1
 43
3.0
 10
2516.377524811937
 20
-3087.000405801309
 42
0.4142135623731
 10
2514.877524811937
 20
-3085.500405801309
 42
0.4142135623731
 10
2513.377524811938
 20
-3087.000405801309
 42
0.4142135623731
 10
2514.877524811937
 20
-3088.500405801309
 42
0.4142135623731
  0
LWPOLYLINE
  5
2DC
330
1F
100
AcDbEntity
  8
0-B_寸法
  6
Continuous
 62
     7
370
     9
100
AcDbPolyline
 90
        4
 70
     1
 43
3.0
 10
2516.377524811937
 20
-3087.000168259079
 42
0.4142135623731
 10
2514.877524811937
 20
-3085.50016825908
 42
0.4142135623731
 10
2513.377524811938
 20
-3087.000168259079
 42
0.4142135623731
 10
2514.877524811937
 20
-3088.500168259079
 42
0.4142135623731
  0
LWPOLYLINE
  5
2DD
330
1F
100
AcDbEntity
  8
0-B_寸法
  6
Continuous
 62
     7
370
     9
100
AcDbPolyline
 90
        4
 70
     1
 43
3.0
 10
2726.377524811937
 20
-3159.000197951857
 42
0.4142135623731
 10
2724.877524811937
 20
-3157.500197951857
 42
0.4142135623731
 10
2723.377524811938
 20
-3159.000197951857
 42
0.4142135623731
 10
2724.877524811937
 20
-3160.500197951857
 42
0.4142135623731
  0
LINE
  5
2DE
330
1F
100
AcDbEntity
  8
0-B_寸法
  6
Continuous
 62
   120
370
     5
100
AcDbLine
 10
2094.877445631839
 20
-3158.99972286813
 30
0.0
 11
2724.877524811937
 21
-3159.000197951857
 31
0.0
  0
LINE
  5
2DF
330
1F
100
AcDbEntity
  8
0-0_補助線
  6
JWW_HOJO
 62
   120
370
     5
100
AcDbLine
 10
2724.876337100791
 20
-3159.000197735092
 30
0.0
 11
642.8767824924677
 21
-3159.000197735092
 31
0.0
  0
LINE
  5
2E0
330
1F
100
AcDbEntity
  8
0-3_仕上げ
  6
Continuous
 62
    40
370
    15
100
AcDbLine
 10
852.8767824924677
 20
-3087.000168259079
 30
0.0
 11
2094.877524811939
 21
-3087.000168259079
 31
0.0
  0
LINE
  5
2E1
330
1F
100
AcDbEntity
  8
0-3_仕上げ
  6
Continuous
 62
     7
370
     9
100
AcDbLine
 10
2094.877524811939
 20
-3135.000772012246
 30
0.0
 11
852.8767824924677
 21
-3135.000772012246
 31
0.0
  0
LINE
  5
2E2
330
1F
100
AcDbEntity
  8
0-3_仕上げ
  6
Continuous
 62
     7
370
     9
100
AcDbLine
 10
2094.877524811939
 20
-3111.000098975929
 30
0.0
 11
852.8767824924677
 21
-3111.000098975929
 31
0.0
  0
LINE
  5
2E3
330
1F
100
AcDbEntity
  8
0-3_仕上げ
  6
Continuous
 62
     7
370
     9
100
AcDbLine
 10
2094.877524811939
 20
-3099.000504777238
 30
0.0
 11
852.8767824924677
 21
-3099.000504777238
 31
0.0
  0
LINE
  5
2E4
330
1F
100
AcDbEntity
  8
0-3_仕上げ
  6
Continuous
 62
     7
370
     9
100
AcDbLine
 10
2094.877524811939
 20
-3123.000435494088
 30
0.0
 11
852.8767824924677
 21
-3123.000435494088
 31
0.0
  0
LINE
  5
2E5
330
1F
100
AcDbEntity
  8
0-3_仕上げ
  6
Continuous
 62
     7
370
     9
100
AcDbLine
 10
2094.877524811939
 20
-3147.000366210936
 30
0.0
 11
852.8767824924677
 21
-3147.000366210936
 31
0.0
  0
LINE
  5
2E6
330
1F
100
AcDbEntity
  8
0-3_仕上げ
  6
Continuous
 62
    40
370
    15
100
AcDbLine
 10
2094.877524811939
 20
-3158.999960409628
 30
0.0
 11
852.8767824924677
 21
-3158.999960409628
 31
0.0
  0
LINE
  5
2E7
330
1F
100
AcDbEntity
  8
0-B_寸法
  6
Continuous
 62
   120
370
     5
100
AcDbLine
 10
2094.877524811939
 20
-3087.000405801309
 30
0.0
 11
2724.877524811937
 21
-3087.000405801309
 31
0.0
  0
LWPOLYLINE
  5
2E8
330
1F
100
AcDbEntity
  8
0-B_寸法
  6
Continuous
 62
     7
370
     9
100
AcDbPolyline
 90
        4
 70
     1
 43
3.0
 10
2726.377524811937
 20
-3087.000405801309
 42
0.4142135623731
 10
2724.877524811937
 20
-3085.500405801309
 42
0.4142135623731
 10
2723.377524811938
 20
-3087.000405801309
 42
0.4142135623731
 10
2724.877524811937
 20
-3088.500405801309
 42
0.4142135623731
  0
LWPOLYLINE
  5
2E9
330
1F
100
AcDbEntity
  8
0-B_寸法
  6
Continuous
 62
     7
370
     9
100
AcDbPolyline
 90
        4
 70
     1
 43
3.0
 10
2306.377524811937
 20
-3087.000405801309
 42
0.4142135623731
 10
2304.877524811937
 20
-3085.500405801309
 42
0.4142135623731
 10
2303.377524811938
 20
-3087.000405801309
 42
0.4142135623731
 10
2304.877524811937
 20
-3088.500405801309
 42
0.4142135623731
  0
LINE
  5
2EA
330
1F
100
AcDbEntity
  8
0-B_寸法
  6
Continuous
 62
   120
370
     5
100
AcDbLine
 10
2094.877524811939
 20
-3027.00016825908
 30
0.0
 11
2304.877524811937
 21
-3027.00016825908
 31
0.0
  0
LWPOLYLINE
  5
2EB
330
1F
100
AcDbEntity
  8
0-B_寸法
  6
Continuous
 62
     7
370
     9
100
AcDbPolyline
 90
        4
 70
     1
 43
3.0
 10
2306.377524811937
 20
-3027.00016825908
 42
0.4142135623731
 10
2304.877524811937
 20
-3025.500168259081
 42
0.4142135623731
 10
2303.377524811938
 20
-3027.00016825908
 42
0.4142135623731
 10
2304.877524811937
 20
-3028.50016825908
 42
0.4142135623731
  0
LINE
  5
2EC
330
1F
100
AcDbEntity
  8
0-6_扉
  6
Continuous
 62
   200
370
    20
100
AcDbLine
 10
1542.877435733601
 20
-3027.00016825908
 30
0.0
 11
1704.877524811936
 21
-3027.00016825908
 31
0.0
  0
MTEXT
  5
2ED
330
1F
100
AcDbEntity
  8
0-B_寸法
  6
Continuous
 62
     7
370
     0
100
AcDbMText
 10
2083.077126986867
 20
-3085.332322163431
 30
0.0
 40
91.44
 41
120.0
 46
0.0
 71
     7
 72
     1
  1
{\fＭＳ ゴシック|b0|i0|c128|p49;10}
 11
6.123031769111886E-17
 21
1.0
 31
0.0
 73
     1
 44
1.0
  0
MTEXT
  5
2EE
330
1F
100
AcDbEntity
  8
0-B_寸法
  6
Continuous
 62
     7
370
     0
100
AcDbMText
 10
2883.357422853578
 20
-3200.646075621582
 30
0.0
 40
91.44
 41
120.0
 46
0.0
 71
     7
 72
     1
  1
{\fＭＳ ゴシック|b0|i0|c128|p49;12}
 11
6.123031769111886E-17
 21
1.0
 31
0.0
 73
     1
 44
1.0
  0
LINE
  5
2EF
330
1F
100
AcDbEntity
  8
0-B_寸法
  6
Continuous
 62
   120
370
     5
100
AcDbLine
 10
2094.877524811939
 20
-339.1117296454698
 30
0.0
 11
2304.877524811937
 21
-339.1117296454698
 31
0.0
  0
LINE
  5
2F0
330
1F
100
AcDbEntity
  8
0-B_寸法
  6
Continuous
 62
   120
370
     5
100
AcDbLine
 10
2094.877524811939
 20
-321.1115960279659
 30
0.0
 11
2304.877524811937
 21
-321.1115960279659
 31
0.0
  0
MTEXT
  5
2F1
330
1F
100
AcDbEntity
  8
0-B_寸法
  6
Continuous
 62
     7
370
     0
100
AcDbMText
 10
2289.480334408644
 20
-414.6727008632698
 30
0.0
 40
91.44
 41
60.0
 46
0.0
 71
     7
 72
     1
  1
{\fＭＳ ゴシック|b0|i0|c128|p49;3}
 11
6.123031769111886E-17
 21
1.0
 31
0.0
 73
     1
 44
1.0
  0
LWPOLYLINE
  5
2F2
330
1F
100
AcDbEntity
  8
0-B_寸法
  6
Continuous
 62
     7
370
     9
100
AcDbPolyline
 90
        4
 70
     1
 43
3.0
 10
2306.377524811937
 20
-339.1117296454698
 42
0.4142135623731
 10
2304.877524811937
 20
-337.6117296454698
 42
0.4142135623731
 10
2303.377524811938
 20
-339.1117296454698
 42
0.4142135623731
 10
2304.877524811937
 20
-340.6117296454698
 42
0.4142135623731
  0
LWPOLYLINE
  5
2F3
330
1F
100
AcDbEntity
  8
0-B_寸法
  6
Continuous
 62
     7
370
     9
100
AcDbPolyline
 90
        4
 70
     1
 43
3.0
 10
2306.377524811937
 20
-321.1115960279659
 42
0.4142135623731
 10
2304.877524811937
 20
-319.6115960279659
 42
0.4142135623731
 10
2303.377524811938
 20
-321.1115960279659
 42
0.4142135623731
 10
2304.877524811937
 20
-322.6115960279659
 42
0.4142135623731
  0
LINE
  5
2F4
330
1F
100
AcDbEntity
  8
0-B_寸法
  6
Continuous
 62
   120
370
     5
100
AcDbLine
 10
2304.877524811937
 20
-319.1533572716315
 30
0.0
 11
2514.877524811937
 21
-319.1533572716315
 31
0.0
  0
LINE
  5
2F5
330
1F
100
AcDbEntity
  8
0-B_寸法
  6
Continuous
 62
   120
370
     5
100
AcDbLine
 10
2094.877524811939
 20
-141.1117444918597
 30
0.0
 11
2724.877524811937
 21
-141.1117444918597
 31
0.0
  0
LWPOLYLINE
  5
2F6
330
1F
100
AcDbEntity
  8
0-B_寸法
  6
Continuous
 62
     7
370
     9
100
AcDbPolyline
 90
        4
 70
     1
 43
3.0
 10
2516.377524811937
 20
-319.1533572716315
 42
0.4142135623731
 10
2514.877524811937
 20
-317.6533572716315
 42
0.4142135623731
 10
2513.377524811938
 20
-319.1533572716315
 42
0.4142135623731
 10
2514.877524811937
 20
-320.6533572716315
 42
0.4142135623731
  0
LWPOLYLINE
  5
2F7
330
1F
100
AcDbEntity
  8
0-B_寸法
  6
Continuous
 62
     7
370
     9
100
AcDbPolyline
 90
        4
 70
     1
 43
3.0
 10
2516.377524811937
 20
-141.1117444918597
 42
0.4142135623731
 10
2514.877524811937
 20
-139.6117444918597
 42
0.4142135623731
 10
2513.377524811938
 20
-141.1117444918597
 42
0.4142135623731
 10
2514.877524811937
 20
-142.6117444918597
 42
0.4142135623731
  0
LINE
  5
2F8
330
1F
100
AcDbEntity
  8
0-B_寸法
  6
Continuous
 62
   120
370
     5
100
AcDbLine
 10
2724.877524811937
 20
-3159.000197951857
 30
0.0
 11
2724.877524811937
 21
-141.1119820340892
 31
0.0
  0
LINE
  5
2F9
330
1F
100
AcDbEntity
  8
0-B_寸法
  6
Continuous
 62
   120
370
     5
100
AcDbLine
 10
2514.877524811937
 20
-141.1119820340892
 30
0.0
 11
2724.877524811937
 21
-141.1119820340892
 31
0.0
  0
LINE
  5
2FA
330
1F
100
AcDbEntity
  8
0-B_寸法
  6
Continuous
 62
   120
370
     5
100
AcDbLine
 10
2724.877524811937
 20
-141.1112397146212
 30
0.0
 11
2208.877801944537
 21
-141.1110021723917
 31
0.0
  0
LWPOLYLINE
  5
2FB
330
1F
100
AcDbEntity
  8
0-B_寸法
  6
Continuous
 62
     7
370
     9
100
AcDbPolyline
 90
        4
 70
     1
 43
3.0
 10
2726.377524811937
 20
-141.1112397146212
 42
0.4142135623731
 10
2724.877524811937
 20
-139.6112397146212
 42
0.4142135623731
 10
2723.377524811938
 20
-141.1112397146212
 42
0.4142135623731
 10
2724.877524811937
 20
-142.6112397146212
 42
0.4142135623731
  0
LWPOLYLINE
  5
2FC
330
1F
100
AcDbEntity
  8
0-B_寸法
  6
Continuous
 62
     7
370
     9
100
AcDbPolyline
 90
        4
 70
     1
 43
3.0
 10
2306.377524811937
 20
-141.1117444918597
 42
0.4142135623731
 10
2304.877524811937
 20
-139.6117444918597
 42
0.4142135623731
 10
2303.377524811938
 20
-141.1117444918597
 42
0.4142135623731
 10
2304.877524811937
 20
-142.6117444918597
 42
0.4142135623731
  0
LWPOLYLINE
  5
2FD
330
1F
100
AcDbEntity
  8
0-B_寸法
  6
Continuous
 62
     7
370
     9
100
AcDbPolyline
 90
        4
 70
     1
 43
3.0
 10
2306.377524811937
 20
-171.1115960279659
 42
0.4142135623731
 10
2304.877524811937
 20
-169.6115960279659
 42
0.4142135623731
 10
2303.377524811938
 20
-171.1115960279659
 42
0.4142135623731
 10
2304.877524811937
 20
-172.6115960279659
 42
0.4142135623731
  0
LWPOLYLINE
  5
2FE
330
1F
100
AcDbEntity
  8
0-B_寸法
  6
Continuous
 62
     7
370
     9
100
AcDbPolyline
 90
        4
 70
     1
 43
3.0
 10
2306.377524811937
 20
-207.1115960279656
 42
0.4142135623731
 10
2304.877524811937
 20
-205.6115960279656
 42
0.4142135623731
 10
2303.377524811938
 20
-207.1115960279656
 42
0.4142135623731
 10
2304.877524811937
 20
-208.6115960279656
 42
0.4142135623731
  0
LWPOLYLINE
  5
2FF
330
1F
100
AcDbEntity
  8
0-B_寸法
  6
Continuous
 62
     7
370
     9
100
AcDbPolyline
 90
        4
 70
     1
 43
3.0
 10
2306.377524811937
 20
-261.1115960279659
 42
0.4142135623731
 10
2304.877524811937
 20
-259.6115960279659
 42
0.4142135623731
 10
2303.377524811938
 20
-261.1115960279659
 42
0.4142135623731
 10
2304.877524811937
 20
-262.6115960279659
 42
0.4142135623731
  0
LWPOLYLINE
  5
300
330
1F
100
AcDbEntity
  8
0-B_寸法
  6
Continuous
 62
     7
370
     9
100
AcDbPolyline
 90
        4
 70
     1
 43
3.0
 10
2306.377524811937
 20
-321.1119671877003
 42
0.4142135623731
 10
2304.877524811937
 20
-319.6119671877003
 42
0.4142135623731
 10
2303.377524811938
 20
-321.1119671877003
 42
0.4142135623731
 10
2304.877524811937
 20
-322.6119671877003
 42
0.4142135623731
  0
LINE
  5
301
330
1F
100
AcDbEntity
  8
0-B_寸法
  6
Continuous
 62
   120
370
     5
100
AcDbLine
 10
2304.877524811937
 20
-321.1119671877003
 30
0.0
 11
2124.877524811939
 21
-321.1119671877003
 31
0.0
  0
LINE
  5
302
330
1F
100
AcDbEntity
  8
0-B_寸法
  6
Continuous
 62
   120
370
     5
100
AcDbLine
 10
2304.877524811937
 20
-171.1115960279659
 30
0.0
 11
2094.877524811939
 21
-171.1115960279659
 31
0.0
  0
LINE
  5
303
330
1F
100
AcDbEntity
  8
0-B_寸法
  6
Continuous
 62
   120
370
     5
100
AcDbLine
 10
2304.877524811937
 20
-207.1115960279656
 30
0.0
 11
2094.877524811939
 21
-207.1115960279656
 31
0.0
  0
LINE
  5
304
330
1F
100
AcDbEntity
  8
0-B_寸法
  6
Continuous
 62
   120
370
     5
100
AcDbLine
 10
2304.877524811937
 20
-261.1115960279659
 30
0.0
 11
2094.877524811939
 21
-261.1115960279659
 31
0.0
  0
MTEXT
  5
305
330
1F
100
AcDbEntity
  8
0-B_寸法
  6
Continuous
 62
     7
370
   211
100
AcDbMText
 10
2293.539690929397
 20
-147.1745347481775
 30
0.0
 40
91.44
 41
60.0
 46
0.0
 71
     7
 72
     1
  1
{\fＭＳ ゴシック|b0|i0|c128|p49;5}
 11
6.123031769111886E-17
 21
1.0
 31
0.0
 73
     1
 44
1.0
  0
MTEXT
  5
306
330
1F
100
AcDbEntity
  8
0-B_寸法
  6
Continuous
 62
     7
370
   211
100
AcDbMText
 10
2446.420691730532
 20
-237.9368444788733
 30
0.0
 40
91.44
 41
60.0
 46
0.0
 71
     7
 72
     1
  1
{\fＭＳ ゴシック|b0|i0|c128|p49;6}
 11
6.123031769111886E-17
 21
1.0
 31
0.0
 73
     1
 44
1.0
  0
LINE
  5
307
330
1F
100
AcDbEntity
  8
0-B_寸法
  6
Continuous
 62
   120
370
     5
100
AcDbLine
 10
2304.877524811937
 20
-234.1115960279649
 30
0.0
 11
2049.439149775128
 21
-86.63418143910349
 31
0.0
  0
LINE
  5
308
330
1F
100
AcDbEntity
  8
0-B_寸法
  6
Continuous
 62
   120
370
     5
100
AcDbLine
 10
2049.439149775128
 20
-86.63418143910349
 30
0.0
 11
2049.439149775128
 21
14.46480462447255
 31
0.0
  0
LINE
  5
309
330
1F
100
AcDbEntity
  8
0-B_寸法
  6
Continuous
 62
   120
370
     5
100
AcDbLine
 10
2049.439149775128
 20
-359.556102334997
 30
0.0
 11
2049.439149775128
 21
-490.7672160817566
 31
0.0
  0
LINE
  5
30A
330
1F
100
AcDbEntity
  8
0-B_寸法
  6
Continuous
 62
   120
370
     5
100
AcDbLine
 10
2304.877524811937
 20
-291.1115960279659
 30
0.0
 11
2049.439149775128
 21
-359.556102334997
 31
0.0
  0
MTEXT
  5
30B
330
1F
100
AcDbEntity
  8
0-B_寸法
  6
Continuous
 62
     7
370
   211
100
AcDbMText
 10
2036.43733066564
 20
-500.9059700103948
 30
0.0
 40
91.44
 41
120.0
 46
0.0
 71
     7
 72
     1
  1
{\fＭＳ ゴシック|b0|i0|c128|p49;10}
 11
6.123031769111886E-17
 21
1.0
 31
0.0
 73
     1
 44
1.0
  0
MTEXT
  5
30C
330
1F
100
AcDbEntity
  8
0-B_寸法
  6
Continuous
 62
     7
370
   211
100
AcDbMText
 10
2042.649199772684
 20
-87.8166743919812
 30
0.0
 40
91.44
 41
60.0
 46
0.0
 71
     7
 72
     1
  1
{\fＭＳ ゴシック|b0|i0|c128|p49;9}
 11
6.123031769111886E-17
 21
1.0
 31
0.0
 73
     1
 44
1.0
  0
LINE
  5
30D
330
1F
100
AcDbEntity
  8
0-0_補助線
  6
JWW_HOJO
 62
   120
370
     5
100
AcDbLine
 10
2724.876337100791
 20
194.9998020481414
 30
0.0
 11
642.8767824924677
 21
194.9998020481414
 31
0.0
  0
LINE
  5
30E
330
1F
100
AcDbEntity
  8
0-B_寸法
  6
Continuous
 62
   120
370
     5
100
AcDbLine
 10
2514.877524811937
 20
-3087.000168259079
 30
0.0
 11
2514.877524811937
 21
-141.1117444918597
 31
0.0
  0
LINE
  5
30F
330
1F
100
AcDbEntity
  8
0-4_枠
  6
Continuous
 62
    92
370
    13
100
AcDbLine
 10
1743.877524811938
 20
-171.1115960279659
 30
0.0
 11
1701.877524811939
 21
-171.1115960279659
 31
0.0
  0
LINE
  5
310
330
1F
100
AcDbEntity
  8
0-4_枠
  6
Continuous
 62
    92
370
    13
100
AcDbLine
 10
1743.877524811938
 20
-207.1115960279656
 30
0.0
 11
1743.877524811938
 21
-171.1115960279659
 31
0.0
  0
LINE
  5
311
330
1F
100
AcDbEntity
  8
0-4_枠
  6
Continuous
 62
    92
370
    13
100
AcDbLine
 10
1743.877524811938
 20
-261.1115960279659
 30
0.0
 11
1743.877524811938
 21
-321.1119671877003
 31
0.0
  0
LINE
  5
312
330
1F
100
AcDbEntity
  8
0-C_ハッチ
  6
Continuous
 62
   120
370
     5
100
AcDbLine
 10
1432.302379080069
 20
-321.1119671877029
 30
0.0
 11
1252.302156384223
 21
-141.1117444918571
 31
0.0
  0
LINE
  5
313
330
1F
100
AcDbEntity
  8
0-C_ハッチ
  6
Continuous
 62
   120
370
     5
100
AcDbLine
 10
1491.699348699757
 20
-321.1119671876884
 30
0.0
 11
1311.699126003909
 21
-141.1117444918435
 31
0.0
  0
LINE
  5
314
330
1F
100
AcDbEntity
  8
0-C_ハッチ
  6
Continuous
 62
   120
370
     5
100
AcDbLine
 10
1551.096318319416
 20
-321.1119671877012
 30
0.0
 11
1371.09609562357
 21
-141.1117444918546
 31
0.0
  0
LINE
  5
315
330
1F
100
AcDbEntity
  8
0-C_ハッチ
  6
Continuous
 62
   120
370
     5
100
AcDbLine
 10
1610.493287939121
 20
-321.1119671877071
 30
0.0
 11
1430.493065243282
 21
-141.1117444918673
 31
0.0
  0
LINE
  5
316
330
1F
100
AcDbEntity
  8
0-C_ハッチ
  6
Continuous
 62
   120
370
     5
100
AcDbLine
 10
1489.890034862916
 20
-141.1117444918537
 30
0.0
 11
1669.890257558764
 21
-321.1119671876986
 31
0.0
  0
LINE
  5
317
330
1F
100
AcDbEntity
  8
0-C_ハッチ
  6
Continuous
 62
   120
370
     5
100
AcDbLine
 10
1734.080795258027
 20
-207.1115960279656
 30
0.0
 11
1668.080943721926
 21
-141.1117444918656
 31
0.0
  0
LINE
  5
318
330
1F
100
AcDbEntity
  8
0-C_ハッチ
  6
Continuous
 62
   120
370
     5
100
AcDbLine
 10
1729.287227178411
 20
-321.1119671877003
 30
0.0
 11
1549.287004482569
 21
-141.1117444918571
 31
0.0
  0
LINE
  5
319
330
1F
100
AcDbEntity
  8
0-4_枠
  6
Continuous
 62
    92
370
    13
100
AcDbLine
 10
1701.877524811939
 20
-171.1115960279659
 30
0.0
 11
1701.877524811939
 21
-141.1117444918597
 31
0.0
  0
LINE
  5
31A
330
1F
100
AcDbEntity
  8
0-4_枠
  6
Continuous
 62
    92
370
    13
100
AcDbLine
 10
1743.877524811938
 20
-207.1115960279656
 30
0.0
 11
1683.877524811938
 21
-207.1115960279656
 31
0.0
  0
LINE
  5
31B
330
1F
100
AcDbEntity
  8
0-4_枠
  6
Continuous
 62
    92
370
    13
100
AcDbLine
 10
1683.877524811938
 20
-261.1115960279659
 30
0.0
 11
1683.877524811938
 21
-207.1115960279656
 31
0.0
  0
LINE
  5
31C
330
1F
100
AcDbEntity
  8
0-4_枠
  6
Continuous
 62
    92
370
    13
100
AcDbLine
 10
1743.877524811938
 20
-261.1115960279659
 30
0.0
 11
1683.877524811938
 21
-261.1115960279659
 31
0.0
  0
LINE
  5
31D
330
1F
100
AcDbEntity
  8
0-4_枠
  6
Continuous
 62
   120
370
     5
100
AcDbLine
 10
1752.877524811936
 20
-141.1117444918597
 30
0.0
 11
1701.877524811939
 21
-141.1117444918597
 31
0.0
  0
LINE
  5
31E
330
1F
100
AcDbEntity
  8
0-4_枠
  6
Continuous
 62
    92
370
    13
100
AcDbLine
 10
1131.877524811939
 20
-291.1119671877003
 30
0.0
 11
1131.877524811939
 21
-141.1117444918597
 31
0.0
  0
LINE
  5
31F
330
1F
100
AcDbEntity
  8
0-4_枠
  6
Continuous
 62
   120
370
     5
100
AcDbLine
 10
1131.877524811939
 20
-141.1117444918597
 30
0.0
 11
1122.877524811938
 21
-141.1117444918597
 31
0.0
  0
LINE
  5
320
330
1F
100
AcDbEntity
  8
0-4_枠
  6
Continuous
 62
    92
370
    13
100
AcDbLine
 10
1131.877524811939
 20
-141.1117444918597
 30
0.0
 11
1701.877524811939
 21
-141.1117444918597
 31
0.0
  0
LINE
  5
321
330
1F
100
AcDbEntity
  8
0-4_枠
  6
Continuous
 62
    92
370
    13
100
AcDbLine
 10
1161.877524811939
 20
-321.1119671877003
 30
0.0
 11
1743.877524811938
 21
-321.1119671877003
 31
0.0
  0
ARC
  5
322
330
1F
100
AcDbEntity
  8
0-4_枠
  6
Continuous
 62
    92
370
    13
100
AcDbCircle
 10
1161.877524811939
 20
-291.1119671877003
 30
0.0
 40
30.0
100
AcDbArc
 50
180.0
 51
270.0
  0
LINE
  5
323
330
1F
100
AcDbEntity
  8
0-B_寸法
  6
Continuous
 62
   120
370
     5
100
AcDbLine
 10
1131.877524811939
 20
-656.0973599901702
 30
0.0
 11
1743.877524811938
 21
-656.0973599901702
 31
0.0
  0
LWPOLYLINE
  5
324
330
1F
100
AcDbEntity
  8
0-B_寸法
  6
Continuous
 62
     7
370
     9
100
AcDbPolyline
 90
        4
 70
     1
 43
3.0
 10
1133.377524811938
 20
-656.0973599901702
 42
0.4142135623731
 10
1131.877524811939
 20
-654.5973599901702
 42
0.4142135623731
 10
1130.377524811939
 20
-656.0973599901702
 42
0.4142135623731
 10
1131.877524811939
 20
-657.5973599901702
 42
0.4142135623731
  0
LWPOLYLINE
  5
325
330
1F
100
AcDbEntity
  8
0-B_寸法
  6
Continuous
 62
     7
370
     9
100
AcDbPolyline
 90
        4
 70
     1
 43
3.0
 10
1745.377524811938
 20
-656.0973599901702
 42
0.4142135623731
 10
1743.877524811938
 20
-654.5973599901702
 42
0.4142135623731
 10
1742.377524811938
 20
-656.0973599901702
 42
0.4142135623731
 10
1743.877524811938
 20
-657.5973599901702
 42
0.4142135623731
  0
LINE
  5
326
330
1F
100
AcDbEntity
  8
0-B_寸法
  6
Continuous
 62
   120
370
     5
100
AcDbLine
 10
1131.877524811939
 20
-656.0973599901702
 30
0.0
 11
1131.877524811939
 21
-503.8721336652128
 31
0.0
  0
LINE
  5
327
330
1F
100
AcDbEntity
  8
0-B_寸法
  6
Continuous
 62
   120
370
     5
100
AcDbLine
 10
1743.877524811938
 20
-656.0973599901702
 30
0.0
 11
1743.877524811938
 21
-503.8721336652128
 31
0.0
  0
MTEXT
  5
328
330
1F
100
AcDbEntity
  8
0-B_寸法
  6
Continuous
 62
     7
370
   211
100
AcDbMText
 10
1340.377524811938
 20
-651.5673599901702
 30
0.0
 40
99.06
 41
195.0
 46
0.0
 71
     7
 72
     1
  1
{\fＭＳ ゴシック|b0|i0|c128|p49;102}
 73
     1
 44
1.0
  0
LINE
  5
329
330
1F
100
AcDbEntity
  8
0-C_ハッチ
  6
Continuous
 62
   120
370
     5
100
AcDbLine
 10
1372.905409460408
 20
-321.1119671876901
 30
0.0
 11
1192.905186764574
 21
-141.1117444918597
 31
0.0
  0
LINE
  5
32A
330
1F
100
AcDbEntity
  8
0-C_ハッチ
  6
Continuous
 62
   120
370
     5
100
AcDbLine
 10
1313.50843984072
 20
-321.1119671877012
 30
0.0
 11
1133.508217144872
 21
-141.1117444918597
 31
0.0
  0
LINE
  5
32B
330
1F
100
AcDbEntity
  8
0-C_ハッチ
  6
Continuous
 62
   120
370
     5
100
AcDbLine
 10
1254.11147022106
 20
-321.1119671876918
 30
0.0
 11
1131.877524811939
 21
-198.8780217785666
 31
0.0
  0
LINE
  5
32C
330
1F
100
AcDbEntity
  8
0-C_ハッチ
  6
Continuous
 62
   120
370
     5
100
AcDbLine
 10
1194.714500601401
 20
-321.1119671876918
 30
0.0
 11
1131.877524811939
 21
-258.2749913982275
 31
0.0
  0
LINE
  5
32D
330
1F
100
AcDbEntity
  8
0-C_ハッチ
  6
Continuous
 62
   120
370
     5
100
AcDbLine
 10
1743.877524811938
 20
-276.3052952015277
 30
0.0
 11
1728.683825638377
 21
-261.1115960279659
 31
0.0
  0
LINE
  5
32E
330
1F
100
AcDbEntity
  8
0-C_ハッチ
  6
Continuous
 62
   120
370
     5
100
AcDbLine
 10
1683.877524811938
 20
-216.3052952015268
 30
0.0
 11
1608.683974102265
 21
-141.1117444918528
 31
0.0
  0
LINE
  5
32F
330
1F
100
AcDbEntity
  8
0-6_扉
  6
Continuous
 62
   200
370
    20
100
AcDbLine
 10
1704.877524811936
 20
-339.1117296454698
 30
0.0
 11
1542.877435733601
 21
-339.1117296454698
 31
0.0
  0
LINE
  5
330
330
1F
100
AcDbEntity
  8
0-B_寸法
  6
Continuous
 62
   120
370
     5
100
AcDbLine
 10
1704.877524811936
 20
-1043.174600805206
 30
0.0
 11
1542.877435733601
 21
-1043.174600805206
 31
0.0
  0
LINE
  5
331
330
1F
100
AcDbEntity
  8
0-B_寸法
  6
Continuous
 62
   120
370
     5
100
AcDbLine
 10
1704.877524811936
 20
-977.6834657492503
 30
0.0
 11
1704.877524811936
 21
-1043.174600805206
 31
0.0
  0
LINE
  5
332
330
1F
100
AcDbEntity
  8
0-B_寸法
  6
Continuous
 62
   120
370
     5
100
AcDbLine
 10
1542.877435733601
 20
-977.6834657492503
 30
0.0
 11
1542.877435733601
 21
-1043.174600805206
 31
0.0
  0
MTEXT
  5
333
330
1F
100
AcDbEntity
  8
0-B_寸法
  6
Continuous
 62
     7
370
     0
100
AcDbMText
 10
1563.877492644761
 20
-1042.454551317241
 30
0.0
 40
91.44
 41
120.0
 46
0.0
 71
     7
 72
     1
  1
{\fＭＳ ゴシック|b0|i0|c128|p49;27}
 73
     1
 44
1.0
  0
LWPOLYLINE
  5
334
330
1F
100
AcDbEntity
  8
0-B_寸法
  6
Continuous
 62
     7
370
     9
100
AcDbPolyline
 90
        4
 70
     1
 43
3.0
 10
1706.377524811936
 20
-1043.174600805206
 42
0.4142135623731
 10
1704.877524811936
 20
-1041.674600805206
 42
0.4142135623731
 10
1703.377524811936
 20
-1043.174600805206
 42
0.4142135623731
 10
1704.877524811936
 20
-1044.674600805206
 42
0.4142135623731
  0
LWPOLYLINE
  5
335
330
1F
100
AcDbEntity
  8
0-B_寸法
  6
Continuous
 62
     7
370
     9
100
AcDbPolyline
 90
        4
 70
     1
 43
3.0
 10
1544.377435733601
 20
-1043.174600805206
 42
0.4142135623731
 10
1542.877435733601
 20
-1041.674600805206
 42
0.4142135623731
 10
1541.377435733602
 20
-1043.174600805206
 42
0.4142135623731
 10
1542.877435733601
 20
-1044.674600805206
 42
0.4142135623731
  0
MTEXT
  5
336
330
1F
100
AcDbEntity
  8
0-B_寸法
  6
Continuous
 62
     7
370
     0
100
AcDbMText
 10
1501.62749264476
 20
-1192.45465029317
 30
0.0
 40
91.44
 41
240.0
 46
0.0
 71
     7
 72
     1
  1
{\fＭＳ ゴシック|b0|i0|c128|p49;(24)}
 73
     1
 44
1.0
  0
LINE
  5
337
330
1F
100
AcDbEntity
  8
0-B_寸法
  6
Continuous
 62
   120
370
     5
100
AcDbLine
 10
2304.877524811937
 20
-3087.000405801309
 30
0.0
 11
2304.877524811937
 21
-141.1117444918597
 31
0.0
  0
LINE
  5
338
330
1F
100
AcDbEntity
  8
0-3_仕上げ
  6
Continuous
 62
    40
370
    15
100
AcDbLine
 10
1764.877524811936
 20
-141.1117444918575
 30
0.0
 11
1689.877524811936
 21
-141.1117444918575
 31
0.0
  0
LINE
  5
339
330
1F
100
AcDbEntity
  8
0-C_ハッチ
  6
JWW_DASHED1
 62
   120
370
     5
100
AcDbLine
 10
1711.850923381405
 20
-141.1117444918575
 30
0.0
 11
1689.877524811936
 21
-119.1383459223913
 31
0.0
  0
LINE
  5
33A
330
1F
100
AcDbEntity
  8
0-C_ハッチ
  6
JWW_DASHED1
 62
   120
370
     5
100
AcDbLine
 10
1754.277450250067
 20
-141.1117444918575
 30
0.0
 11
1689.877524811936
 21
-76.71181905372563
 31
0.0
  0
LINE
  5
33B
330
1F
100
AcDbEntity
  8
0-C_ハッチ
  6
JWW_DASHED1
 62
   120
370
     5
100
AcDbLine
 10
1764.877029932289
 20
-109.2847973054138
 30
0.0
 11
1689.877524811936
 21
-34.28529218506
 31
0.0
  0
LINE
  5
33C
330
1F
100
AcDbEntity
  8
0-C_ハッチ
  6
JWW_DASHED1
 62
   120
370
     5
100
AcDbLine
 10
1764.877029932289
 20
-66.85938391595059
 30
0.0
 11
1689.877524811936
 21
8.140121204404949
 31
0.0
  0
LINE
  5
33D
330
1F
100
AcDbEntity
  8
0-C_ハッチ
  6
JWW_DASHED1
 62
   120
370
     5
100
AcDbLine
 10
1764.877029932289
 20
-24.43285704728495
 30
0.0
 11
1689.877524811936
 21
50.56664807306973
 31
0.0
  0
LINE
  5
33E
330
1F
100
AcDbEntity
  8
0-C_ハッチ
  6
JWW_DASHED1
 62
   120
370
     5
100
AcDbLine
 10
1764.877029932289
 20
17.99366982138068
 30
0.0
 11
1689.877524811936
 21
92.99317494173621
 31
0.0
  0
LINE
  5
33F
330
1F
100
AcDbEntity
  8
0-C_ハッチ
  6
JWW_DASHED1
 62
   120
370
     5
100
AcDbLine
 10
1764.877029932289
 20
60.4198255303119
 30
0.0
 11
1689.877524811936
 21
135.4193306506674
 31
0.0
  0
LINE
  5
340
330
1F
100
AcDbEntity
  8
0-C_ハッチ
  6
JWW_DASHED1
 62
   120
370
     5
100
AcDbLine
 10
1764.877029932289
 20
102.8463523989775
 30
0.0
 11
1689.877524811936
 21
177.8458575193314
 31
0.0
  0
LINE
  5
341
330
1F
100
AcDbEntity
  8
0-0_補助線
  6
JWW_HOJO
 62
   120
370
     5
100
AcDbLine
 10
2094.877524811939
 20
-3159.000197735092
 30
0.0
 11
2094.877524811939
 21
194.9998020481414
 31
0.0
  0
LINE
  5
342
330
1F
100
AcDbEntity
  8
0-0_補助線
  6
JWW_HOJO
 62
   120
370
     5
100
AcDbLine
 10
852.8767824924677
 20
-3159.000197735092
 30
0.0
 11
852.8767824924677
 21
194.9998020481414
 31
0.0
  0
LINE
  5
343
330
1F
100
AcDbEntity
  8
0-0_補助線
  6
JWW_HOJO
 62
   120
370
     5
100
AcDbLine
 10
2304.877524811937
 20
-3159.000197735092
 30
0.0
 11
2304.877524811937
 21
194.9998020481414
 31
0.0
  0
LINE
  5
344
330
1F
100
AcDbEntity
  8
0-0_補助線
  6
JWW_HOJO
 62
   120
370
     5
100
AcDbLine
 10
2724.876337100791
 20
-3159.000197735092
 30
0.0
 11
2724.876337100791
 21
194.9998020481414
 31
0.0
  0
LINE
  5
345
330
1F
100
AcDbEntity
  8
0-0_補助線
  6
JWW_HOJO
 62
   120
370
     5
100
AcDbLine
 10
642.8767824924677
 20
-3159.000197735092
 30
0.0
 11
642.8767824924677
 21
194.9998020481414
 31
0.0
  0
LINE
  5
346
330
1F
100
AcDbEntity
  8
0-0_補助線
  6
JWW_HOJO
 62
   120
370
     5
100
AcDbLine
 10
2514.876930956366
 20
-3159.000197735092
 30
0.0
 11
2514.876930956366
 21
194.9998020481414
 31
0.0
  0
LINE
  5
347
330
1F
100
AcDbEntity
  8
0-1_通り芯
  6
JWW_CENTER1
 62
   120
370
     5
100
AcDbLine
 10
1437.877524811938
 20
-3299.786239872319
 30
0.0
 11
1437.877524811938
 21
194.9998020481414
 31
0.0
  0
LINE
  5
348
330
1F
100
AcDbEntity
  8
0-3_仕上げ
  6
Continuous
 62
    40
370
    15
100
AcDbLine
 10
1764.877524811936
 20
-141.1117444918575
 30
0.0
 11
1764.877524811936
 21
194.9998020481414
 31
0.0
  0
LINE
  5
349
330
1F
100
AcDbEntity
  8
0-C_ハッチ
  6
JWW_DASHED1
 62
   120
370
     5
100
AcDbLine
 10
1764.877029932289
 20
145.2728792676432
 30
0.0
 11
1715.150107151792
 21
194.9998020481414
 31
0.0
  0
LINE
  5
34A
330
1F
100
AcDbEntity
  8
0-C_ハッチ
  6
JWW_DASHED1
 62
   120
370
     5
100
AcDbLine
 10
1764.877029932289
 20
187.6994061363088
 30
0.0
 11
1757.576634020458
 21
194.9998020481414
 31
0.0
  0
LINE
  5
34B
330
1F
100
AcDbEntity
  8
0-0_補助線
  6
JWW_HOJO
 62
   120
370
     5
100
AcDbLine
 10
2112.141328062217
 20
-1638.000420556446
 30
0.0
 11
841.6137215616484
 21
-1638.000420556446
 31
0.0
  0
LINE
  5
34C
330
1F
100
AcDbEntity
  8
0-4_枠
  6
Continuous
 62
   120
370
     5
100
AcDbLine
 10
1122.877524811938
 20
-1638.000420556446
 30
0.0
 11
1122.877524811938
 21
-141.1117444918597
 31
0.0
  0
LINE
  5
34D
330
1F
100
AcDbEntity
  8
0-6_扉
  6
Continuous
 62
   200
370
    20
100
AcDbLine
 10
1542.877435733601
 20
-339.1117296454698
 30
0.0
 11
1542.877435733601
 21
-1638.000420556446
 31
0.0
  0
LINE
  5
34E
330
1F
100
AcDbEntity
  8
0-6_扉
  6
Continuous
 62
   200
370
    20
100
AcDbLine
 10
1704.877524811936
 20
-339.1117296454698
 30
0.0
 11
1704.877524811936
 21
-1638.000420556446
 31
0.0
  0
LINE
  5
34F
330
1F
100
AcDbEntity
  8
0-4_枠
  6
Continuous
 62
   120
370
     5
100
AcDbLine
 10
1752.877524811936
 20
-1638.000420556446
 30
0.0
 11
1752.877524811936
 21
-141.1117444918597
 31
0.0
  0
LINE
  5
350
330
1F
100
AcDbEntity
  8
0-4_枠
  6
Continuous
 62
   120
370
     5
100
AcDbLine
 10
1752.877524811936
 20
-3087.000168259079
 30
0.0
 11
1752.877524811936
 21
-1758.000420556447
 31
0.0
  0
LINE
  5
351
330
1F
100
AcDbEntity
  8
0-6_扉
  6
Continuous
 62
   200
370
    20
100
AcDbLine
 10
1704.877524811936
 20
-1758.000420556447
 30
0.0
 11
1704.877524811936
 21
-3027.00016825908
 31
0.0
  0
LINE
  5
352
330
1F
100
AcDbEntity
  8
0-6_扉
  6
Continuous
 62
   200
370
    20
100
AcDbLine
 10
1542.877435733601
 20
-1758.000420556447
 30
0.0
 11
1542.877435733601
 21
-3027.00016825908
 31
0.0
  0
LINE
  5
353
330
1F
100
AcDbEntity
  8
0-4_枠
  6
Continuous
 62
   120
370
     5
100
AcDbLine
 10
1122.877524811938
 20
-3087.000168259079
 30
0.0
 11
1122.877524811938
 21
-1758.000420556447
 31
0.0
  0
MTEXT
  5
354
330
1F
100
AcDbEntity
  8
0-B_寸法
  6
Continuous
 62
     7
370
     0
100
AcDbMText
 10
2664.373423283163
 20
-304.6003997648412
 30
0.0
 40
91.44
 41
120.0
 46
0.0
 71
     7
 72
     1
  1
{\fＭＳ ゴシック|b0|i0|c128|p49;30}
 11
6.123031769111886E-17
 21
1.0
 31
0.0
 73
     1
 44
1.0
  0
LINE
  5
355
330
1F
100
AcDbEntity
  8
0-0_補助線
  6
Continuous
 62
    92
370
    13
100
AcDbLine
 10
3354.877524811937
 20
-273.1117444923919
 30
0.0
 11
4854.877524811935
 21
-273.1117444923919
 31
0.0
  0
LINE
  5
356
330
1F
100
AcDbEntity
  8
0-0_補助線
  6
Continuous
 62
    92
370
    13
100
AcDbLine
 10
3354.877524811937
 20
-93.11174449239189
 30
0.0
 11
4854.877524811935
 21
-93.11174449239189
 31
0.0
  0
LINE
  5
357
330
1F
100
AcDbEntity
  8
0-0_補助線
  6
Continuous
 62
    92
370
    13
100
AcDbLine
 10
3354.877524811941
 20
-2124.141062501177
 30
0.0
 11
3354.877524811937
 21
-93.11174449239189
 31
0.0
  0
LINE
  5
358
330
1F
100
AcDbEntity
  8
0-0_補助線
  6
Continuous
 62
    92
370
    13
100
AcDbLine
 10
4854.877524811937
 20
-2124.141062501177
 30
0.0
 11
3354.877524811941
 21
-2124.141062501177
 31
0.0
  0
LINE
  5
359
330
1F
100
AcDbEntity
  8
0-0_補助線
  6
Continuous
 62
    92
370
    13
100
AcDbLine
 10
4854.877524811937
 20
-2124.141062501177
 30
0.0
 11
4854.877524811935
 21
-93.11174449239189
 31
0.0
  0
LINE
  5
35A
330
1F
100
AcDbEntity
  8
0-0_補助線
  6
Continuous
 62
   120
370
     5
100
AcDbLine
 10
3796.983703889
 20
-573.0397506250672
 30
0.0
 11
4426.983703889001
 21
-573.0397506250672
 31
0.0
  0
LWPOLYLINE
  5
35B
330
1F
100
AcDbEntity
  8
0-0_補助線
  6
Continuous
 62
     7
370
     9
100
AcDbPolyline
 90
        4
 70
     1
 43
3.0
 10
3798.483703889
 20
-573.0397506250672
 42
0.4142135623731
 10
3796.983703889
 20
-571.5397506250672
 42
0.4142135623731
 10
3795.483703889
 20
-573.0397506250672
 42
0.4142135623731
 10
3796.983703889
 20
-574.5397506250672
 42
0.4142135623731
  0
LWPOLYLINE
  5
35C
330
1F
100
AcDbEntity
  8
0-0_補助線
  6
Continuous
 62
     7
370
     9
100
AcDbPolyline
 90
        4
 70
     1
 43
3.0
 10
4428.483703889001
 20
-573.0397506250672
 42
0.4142135623731
 10
4426.983703889001
 20
-571.5397506250672
 42
0.4142135623731
 10
4425.483703889
 20
-573.0397506250672
 42
0.4142135623731
 10
4426.983703889001
 20
-574.5397506250672
 42
0.4142135623731
  0
LINE
  5
35D
330
1F
100
AcDbEntity
  8
0-0_補助線
  6
Continuous
 62
   120
370
     5
100
AcDbLine
 10
3796.983703889
 20
-573.0397506250672
 30
0.0
 11
3796.983703889
 21
-735.8391146917996
 31
0.0
  0
LINE
  5
35E
330
1F
100
AcDbEntity
  8
0-0_補助線
  6
Continuous
 62
   120
370
     5
100
AcDbLine
 10
4426.983703889001
 20
-573.0397506250672
 30
0.0
 11
4426.983703889001
 21
-735.8391146917996
 31
0.0
  0
MTEXT
  5
35F
330
1F
100
AcDbEntity
  8
0-0_補助線
  6
Continuous
 62
     7
370
   211
100
AcDbMText
 10
4017.846916106618
 20
-568.5097506250672
 30
0.0
 40
99.06
 41
195.0
 46
0.0
 71
     7
 72
     1
  1
{\fＭＳ ゴシック|b0|i0|c128|p49;105}
 73
     1
 44
1.0
  0
MTEXT
  5
360
330
1F
100
AcDbEntity
  8
0-0_補助線
  6
Continuous
 62
     7
370
     0
100
AcDbMText
 10
3662.377524811939
 20
-257.3917444923915
 30
0.0
 40
91.44
 41
840.0
 46
0.0
 71
     7
 72
     1
  1
{\fＭＳ ゴシック|b0|i0|c128|p49;竪枠下端加工図}
 73
     1
 44
1.0
  0
LINE
  5
361
330
1F
100
AcDbEntity
  8
0-0_補助線
  6
Continuous
 62
    92
370
    13
100
AcDbLine
 10
4426.983703889001
 20
-828.7634906715904
 30
0.0
 11
4426.983703889001
 21
-1562.959042928074
 31
0.0
  0
LINE
  5
362
330
1F
100
AcDbEntity
  8
0-0_補助線
  6
Continuous
 62
    92
370
    13
100
AcDbLine
 10
3796.983703889
 20
-828.7634906715908
 30
0.0
 11
3796.983703889
 21
-1562.959042928074
 31
0.0
  0
MTEXT
  5
363
330
1F
100
AcDbEntity
  8
0-A_文字
  6
Continuous
 62
     7
370
     9
100
AcDbMText
 10
-5057.040513357243
 20
326.5488347806252
 30
0.0
 40
91.43999999999998
 41
2160.0
 46
0.0
 71
     7
 72
     1
  1
{\fＭＳ ゴシック|b0|i0|c128|p49;■縦断面図　Ｈ＝８尺　(７尺)　<６尺>}
 73
     1
 44
1.0
  0
MTEXT
  5
364
330
1F
100
AcDbEntity
  8
0-A_文字
  6
Continuous
 62
     7
370
     9
100
AcDbMText
 10
642.8767824924677
 20
326.5488347806252
 30
0.0
 40
91.43999999999996
 41
1800.0
 46
0.0
 71
     7
 72
     1
  1
{\fＭＳ ゴシック|b0|i0|c128|p49;■縦断面図　Ｈ＝４尺　〔３尺〕}
 73
     1
 44
1.0
  0
MTEXT
  5
365
330
1F
100
AcDbEntity
  8
0-0_補助線
  6
Continuous
 62
     7
370
   211
100
AcDbMText
 10
-5074.188046545204
 20
-2603.762274249583
 30
0.0
 40
102.4758620689655
 41
1950.0
 46
0.0
 71
     7
 72
     1
  1
{\fＭＳ ゴシック|b0|i0|c128|p49;ＲＯＨ＝2,347 (2,046) <1,796>}
 11
6.123031769111886E-17
 21
1.0
 31
0.0
 73
     1
 44
1.0
  0
MTEXT
  5
366
330
1F
100
AcDbEntity
  8
0-0_補助線
  6
Continuous
 62
     7
370
     0
100
AcDbMText
 10
-3395.039771037773
 20
-2299.994285714286
 30
0.0
 40
91.43999999999996
 41
1620.0
 46
0.0
 71
     7
 72
     1
  1
{\fＭＳ ゴシック|b0|i0|c128|p49;ＤＨ＝2,284 (1,983) <1,733>}
 11
6.123031769111886E-17
 21
1.0
 31
0.0
 73
     1
 44
1.0
  0
MTEXT
  5
367
330
1F
100
AcDbEntity
  8
0-0_補助線
  6
Continuous
 62
     7
370
     0
100
AcDbMText
 10
-3185.039771037773
 20
-2299.994285714286
 30
0.0
 40
91.43999999999996
 41
1620.0
 46
0.0
 71
     7
 72
     1
  1
{\fＭＳ ゴシック|b0|i0|c128|p49;枠内＝2,297 (1,996) <1,746>}
 11
6.123031769111886E-17
 21
1.0
 31
0.0
 73
     1
 44
1.0
  0
MTEXT
  5
368
330
1F
100
AcDbEntity
  8
0-0_補助線
  6
Continuous
 62
     7
370
     0
100
AcDbMText
 10
-2975.039771037773
 20
-2299.994285714286
 30
0.0
 40
91.43999999999996
 41
1620.0
 46
0.0
 71
     7
 72
     1
  1
{\fＭＳ ゴシック|b0|i0|c128|p49;枠外＝2,327 (2,026) <1,776>}
 11
6.123031769111886E-17
 21
1.0
 31
0.0
 73
     1
 44
1.0
  0
MTEXT
  5
369
330
1F
100
AcDbEntity
  8
0-0_補助線
  6
Continuous
 62
     7
370
     0
100
AcDbMText
 10
2304.877524811937
 20
-2192.851428571429
 30
0.0
 40
91.43999999999998
 41
1080.0
 46
0.0
 71
     7
 72
     1
  1
{\fＭＳ ゴシック|b0|i0|c128|p49;ＤＨ＝1,135〔780〕}
 11
6.123031769111886E-17
 21
1.0
 31
0.0
 73
     1
 44
1.0
  0
MTEXT
  5
36A
330
1F
100
AcDbEntity
  8
0-0_補助線
  6
Continuous
 62
     7
370
     0
100
AcDbMText
 10
2724.876337100791
 20
-2192.851428571429
 30
0.0
 40
91.43999999999998
 41
1080.0
 46
0.0
 71
     7
 72
     1
  1
{\fＭＳ ゴシック|b0|i0|c128|p49;枠外＝1,178〔823〕}
 11
6.123031769111886E-17
 21
1.0
 31
0.0
 73
     1
 44
1.0
  0
MTEXT
  5
36B
330
1F
100
AcDbEntity
  8
0-0_補助線
  6
Continuous
 62
     7
370
     0
100
AcDbMText
 10
2514.876930956366
 20
-2192.851428571429
 30
0.0
 40
91.43999999999998
 41
1080.0
 46
0.0
 71
     7
 72
     1
  1
{\fＭＳ ゴシック|b0|i0|c128|p49;枠内＝1,148〔793〕}
 11
6.123031769111886E-17
 21
1.0
 31
0.0
 73
     1
 44
1.0
  0
MTEXT
  5
36C
330
1F
100
AcDbEntity
  8
0-A_文字
  6
Continuous
 62
     7
370
     0
100
AcDbMText
 10
-4419.376637342845
 20
-3524.434136396429
 30
0.0
 40
79.248
 41
1560.0
 46
0.0
 71
     7
 72
     1
  1
{\fＭＳ ゴシック|b0|i0|c128|p49;※扉厚（　）内はルーバーの場合}
 73
     1
 44
1.0
  0
MTEXT
  5
36D
330
1F
100
AcDbEntity
  8
0-A_文字
  6
Continuous
 62
     7
370
     0
100
AcDbMText
 10
1280.540658506865
 20
-3524.434136396429
 30
0.0
 40
79.24799999999999
 41
1560.0
 46
0.0
 71
     7
 72
     1
  1
{\fＭＳ ゴシック|b0|i0|c128|p49;※扉厚（　）内はルーバーの場合}
 73
     1
 44
1.0
  0
MTEXT
  5
36E
330
1F
100
AcDbEntity
  8
0-B_寸法
  6
Continuous
 62
     7
370
     0
100
AcDbMText
 10
1268.08201058201
 20
-3396.684455804602
 30
0.0
 40
79.629
 41
3135.0
 46
0.0
 71
     7
 72
     1
  1
{\fＭＳ ゴシック|b0|i0|c128|p49;※Ｈ＝３尺、４尺の竪枠には躯体接合金具は装備されていません。}
 73
     1
 44
1.0
  0
MTEXT
  5
36F
330
1F
100
AcDbEntity
  8
0-A_文字
  6
Continuous
 62
     7
370
     0
100
AcDbMText
 10
-2165.846560846561
 20
778.3541587301581
 30
0.0
 40
79.24799999999999
 41
1560.0
 46
0.0
 71
     7
 72
     1
  1
{\fＭＳ ゴシック|b0|i0|c128|p49;※扉厚（　）内はルーバーの場合}
 73
     1
 44
1.0
  0
MTEXT
  5
370
330
1F
100
AcDbEntity
  8
0-A_文字
  6
Continuous
 62
     7
370
     0
100
AcDbMText
 10
2249.497354497354
 20
821.2113015873015
 30
0.0
 40
79.24799999999999
 41
1560.0
 46
0.0
 71
     7
 72
     1
  1
{\fＭＳ ゴシック|b0|i0|c128|p49;※扉厚（　）内はルーバーの場合}
 73
     1
 44
1.0
  0
LINE
  5
371
330
1F
100
AcDbEntity
  8
0-A_文字
  6
Continuous
 62
    92
370
    13
100
AcDbLine
 10
-5659.999495325861
 20
4000.000181455871
 30
0.0
 11
-5659.999495325861
 21
3730.000181455871
 31
0.0
  0
MTEXT
  5
372
330
1F
100
AcDbEntity
  8
0-A_文字
  6
Continuous
 62
    92
370
    13
100
AcDbMText
 10
-5573.749495325861
 20
3758.886967170157
 30
0.0
 40
147.7735714285715
 41
2715.0
 46
0.0
 71
     7
 72
     1
  1
{\fＭＳ ゴシック|b0|i0|c128|p49;収納両開き戸　調整枠　３方枠}
 73
     1
 44
1.0
  0
LINE
  5
373
330
1F
100
AcDbEntity
  8
0-A_文字
  6
Continuous
 62
    92
370
    13
100
AcDbLine
 10
-2773.020335540313
 20
4000.000181455871
 30
0.0
 11
-2773.020335540313
 21
3730.000181455871
 31
0.0
  0
LINE
  5
374
330
1F
100
AcDbEntity
  8
0-A_文字
  6
Continuous
 62
    92
370
    13
100
AcDbLine
 10
-5659.999495325861
 20
3730.000181455871
 30
0.0
 11
-2773.020335540313
 21
3730.000181455871
 31
0.0
  0
LINE
  5
375
330
1F
100
AcDbEntity
  8
0-A_文字
  6
Continuous
 62
    92
370
    13
100
AcDbLine
 10
-5659.999495325861
 20
4000.000181455871
 30
0.0
 11
-2773.020335540313
 21
4000.000181455871
 31
0.0
  0
MTEXT
  5
376
330
1F
100
AcDbEntity
  8
F-A_文字
  6
Continuous
 62
     7
370
     0
100
AcDbMText
 10
-5080.081323642279
 20
-4045.109236078391
 30
0.0
 40
79.78139999999998
 41
2617.5
 46
0.0
 71
     7
 72
     1
  1
{\fＭＳ ゴシック|b0|i0|c128|p49;ピノアース　収納両開き戸　調整枠　３方枠　枠外W734}
 73
     1
 44
1.0
  0
LINE
  5
377
330
1F
100
AcDbEntity
  8
F-0_補助線
  6
JWW_HOJO
 62
     7
370
     9
100
AcDbLine
 10
1349.918584083287
 20
-3795.000003092998
 30
0.0
 11
1349.918584083287
 21
-4195.000008247994
 31
0.0
  0
LINE
  5
378
330
1F
100
AcDbEntity
  8
F-0_補助線
  6
JWW_HOJO
 62
     7
370
     9
100
AcDbLine
 10
4889.917891251784
 20
-3795.000003092998
 30
0.0
 11
4889.917891251784
 21
-4195.000008247994
 31
0.0
  0
MTEXT
  5
379
330
1F
100
AcDbEntity
  8
F-A_文字
  6
Continuous
 62
     7
370
     0
100
AcDbMText
 10
4889.917891251784
 20
-3945.570773120548
 30
0.0
 40
78.86699999999999
 41
517.5
 46
0.0
 71
     7
 72
     1
  1
{\fＭＳ ゴシック|b0|i0|c128|p49;2021.04.01}
 73
     1
 44
1.0
  0
MTEXT
  5
37A
330
1F
100
AcDbEntity
  8
F-A_文字
  6
Continuous
 62
     7
370
     0
100
AcDbMText
 10
1349.918584083287
 20
-3945.948482732445
 30
0.0
 40
78.105
 41
615.0
 46
0.0
 71
     7
 72
     1
  1
{\fＭＳ ゴシック|b0|i0|c128|p49;建具納まり図}
 73
     1
 44
1.0
  0
MTEXT
  5
37B
330
1F
100
AcDbEntity
  8
F-A_文字
  6
Continuous
 62
     7
370
     0
100
AcDbMText
 10
509.9185840832865
 20
-3956.425201962234
 30
0.0
 40
57.15
 41
675.0
 46
0.0
 71
     7
 72
     1
  1
{\fＭＳ ゴシック|b0|i0|c128|p49;ＰＩＮＯＥＡＲＴＨ}
 73
     1
 44
1.0
  0
LINE
  5
37C
330
1F
100
AcDbEntity
  8
0-0_補助線
  6
Continuous
 62
    92
370
    13
100
AcDbLine
 10
-1902.93359196071
 20
-1562.959042928074
 30
0.0
 11
-1272.93359196071
 21
-1562.959042928074
 31
0.0
  0
LINE
  5
37D
330
1F
100
AcDbEntity
  8
0-0_補助線
  6
Continuous
 62
    92
370
    13
100
AcDbLine
 10
3796.983703889
 20
-1562.959042928074
 30
0.0
 11
4426.983703889001
 21
-1562.959042928074
 31
0.0
  0
ENDSEC
  0
SECTION
  2
OBJECTS
  0
DICTIONARY
  5
C
330
0
100
AcDbDictionary
281
     1
  3
ACAD_GROUP
350
D
  3
ACAD_LAYOUT
350
1A
  3
ACAD_MATERIAL
350
3B
  3
ACAD_MLEADERSTYLE
350
37F
  3
ACAD_MLINESTYLE
350
17
  3
ACAD_PLOTSETTINGS
350
19
  3
ACAD_PLOTSTYLENAME
350
E
  3
ACAD_TABLESTYLE
350
37E
  3
ACAD_VISUALSTYLE
350
2A
  0
DICTIONARY
  5
D
102
{ACAD_REACTORS
330
C
102
}
330
C
100
AcDbDictionary
281
     1
  0
DICTIONARY
  5
1A
102
{ACAD_REACTORS
330
C
102
}
330
C
100
AcDbDictionary
281
     1
  3
Layout1
350
1E
  3
Layout2
350
26
  3
Model
350
22
  0
DICTIONARY
  5
3B
102
{ACAD_REACTORS
330
C
102
}
330
C
100
AcDbDictionary
281
     1
  3
ByBlock
350
3D
  3
ByLayer
350
3C
  3
Global
350
3E
  0
DICTIONARY
  5
37F
102
{ACAD_REACTORS
330
C
102
}
330
C
100
AcDbDictionary
281
     1
  0
DICTIONARY
  5
17
102
{ACAD_REACTORS
330
C
102
}
330
C
100
AcDbDictionary
281
     1
  3
Standard
350
18
  0
DICTIONARY
  5
19
102
{ACAD_REACTORS
330
C
102
}
330
C
100
AcDbDictionary
281
     1
  0
ACDBDICTIONARYWDFLT
  5
E
102
{ACAD_REACTORS
330
C
102
}
330
C
100
AcDbDictionary
281
     1
  3
Normal
350
F
100
AcDbDictionaryWithDefault
340
F
  0
DICTIONARY
  5
37E
102
{ACAD_REACTORS
330
C
102
}
330
C
100
AcDbDictionary
281
     1
  0
DICTIONARY
  5
2A
102
{ACAD_REACTORS
330
C
102
}
330
C
100
AcDbDictionary
281
     1
  3
2dWireframe
350
2F
  3
3D Hidden
350
31
  3
3dWireframe
350
30
  3
Basic
350
32
  3
Brighten
350
36
  3
ColorChange
350
3A
  3
Conceptual
350
34
  3
Dim
350
35
  3
Facepattern
350
39
  3
Flat
350
2B
  3
FlatWithEdges
350
2C
  3
Gouraud
350
2D
  3
GouraudWithEdges
350
2E
  3
Linepattern
350
38
  3
Realistic
350
33
  3
Thicken
350
37
  0
LAYOUT
  5
1E
102
{ACAD_REACTORS
330
1A
102
}
330
1A
100
AcDbPlotSettings
  1

  2
none_device
  4

  6

 40
0.0
 41
0.0
 42
0.0
 43
0.0
 44
0.0
 45
0.0
 46
0.0
 47
0.0
 48
0.0
 49
0.0
140
0.0
141
0.0
142
1.0
143
1.0
 70
   688
 72
     0
 73
     0
 74
     5
  7

 75
    16
 76
     0
 77
     5
 78
   300
147
1.0
148
0.0
149
0.0
100
AcDbLayout
  1
Layout1
 70
     1
 71
     1
 10
0.0
 20
0.0
 11
420.0
 21
297.0
 12
0.0
 22
0.0
 32
0.0
 14
1.000000000000000E+20
 24
1.000000000000000E+20
 34
1.000000000000000E+20
 15
-1.000000000000000E+20
 25
-1.000000000000000E+20
 35
-1.000000000000000E+20
146
0.0
 13
0.0
 23
0.0
 33
0.0
 16
1.0
 26
0.0
 36
0.0
 17
0.0
 27
1.0
 37
0.0
 76
     0
330
1B
  0
LAYOUT
  5
26
102
{ACAD_REACTORS
330
1A
102
}
330
1A
100
AcDbPlotSettings
  1

  2
none_device
  4

  6

 40
0.0
 41
0.0
 42
0.0
 43
0.0
 44
0.0
 45
0.0
 46
0.0
 47
0.0
 48
0.0
 49
0.0
140
0.0
141
0.0
142
1.0
143
1.0
 70
   688
 72
     0
 73
     0
 74
     5
  7

 75
    16
 76
     0
 77
     5
 78
   300
147
1.0
148
0.0
149
0.0
100
AcDbLayout
  1
Layout2
 70
     1
 71
     2
 10
0.0
 20
0.0
 11
0.0
 21
0.0
 12
0.0
 22
0.0
 32
0.0
 14
0.0
 24
0.0
 34
0.0
 15
0.0
 25
0.0
 35
0.0
146
0.0
 13
0.0
 23
0.0
 33
0.0
 16
1.0
 26
0.0
 36
0.0
 17
0.0
 27
1.0
 37
0.0
 76
     0
330
23
  0
LAYOUT
  5
22
102
{ACAD_REACTORS
330
1A
102
}
330
1A
100
AcDbPlotSettings
  1

  2
none_device
  4

  6

 40
0.0
 41
0.0
 42
0.0
 43
0.0
 44
0.0
 45
0.0
 46
0.0
 47
0.0
 48
0.0
 49
0.0
140
0.0
141
0.0
142
1.0
143
1.0
 70
  1712
 72
     0
 73
     0
 74
     0
  7

 75
     0
 76
     0
 77
     5
 78
   300
147
1.0
148
0.0
149
0.0
100
AcDbLayout
  1
Model
 70
     1
 71
     0
 10
-6300.0
 20
-4455.0
 11
6300.0
 21
4455.0
 12
0.0
 22
0.0
 32
0.0
 14
-6300.0
 24
-4455.0
 34
0.0
 15
6300.0
 25
4455.0
 35
0.0
146
0.0
 13
0.0
 23
0.0
 33
0.0
 16
1.0
 26
0.0
 36
0.0
 17
0.0
 27
1.0
 37
0.0
 76
     0
330
1F
331
29
  0
MATERIAL
  5
3D
102
{ACAD_REACTORS
330
3B
102
}
330
3B
100
AcDbMaterial
  1
ByBlock
 72
     1
 94
      127
  0
MATERIAL
  5
3C
102
{ACAD_REACTORS
330
3B
102
}
330
3B
100
AcDbMaterial
  1
ByLayer
 72
     1
 94
      127
  0
MATERIAL
  5
3E
102
{ACAD_REACTORS
330
3B
102
}
330
3B
100
AcDbMaterial
  1
Global
 72
     1
 94
      127
  0
MLINESTYLE
  5
18
102
{ACAD_REACTORS
330
17
102
}
330
17
100
AcDbMlineStyle
  2
Standard
 70
     0
  3

 62
   256
 51
90.0
 52
90.0
 71
     2
 49
0.5
 62
   256
  6
BYLAYER
 49
-0.5
 62
   256
  6
BYLAYER
  0
ACDBPLACEHOLDER
  5
F
102
{ACAD_REACTORS
330
E
102
}
330
E
  0
VISUALSTYLE
  5
2F
102
{ACAD_REACTORS
330
2A
102
}
330
2A
100
AcDbVisualStyle
  2
2dWireframe
 70
     4
177
     2
291
     0
 71
     0
176
     1
 72
     2
176
     1
 73
     0
176
     1
 90
        0
176
     1
 40
-0.6
176
     1
 41
-30.0
176
     1
 62
     5
 63
     7
421
 16777215
176
     1
 74
     1
176
     1
 91
        4
176
     1
 64
     7
176
     1
 65
   257
176
     1
 75
     1
176
     1
175
     1
176
     1
 42
1.0
176
     1
 92
        0
176
     1
 66
   257
176
     1
 43
1.0
176
     1
 76
     1
176
     1
 77
     6
176
     1
 78
     2
176
     1
 67
     7
176
     1
 79
     5
176
     1
170
     0
176
     1
171
     0
176
     1
290
     0
176
     1
 93
        1
176
     1
 44
0.0
176
     1
173
     0
176
     1
  0
VISUALSTYLE
  5
31
102
{ACAD_REACTORS
330
2A
102
}
330
2A
100
AcDbVisualStyle
  2
3D Hidden
 70
     6
177
     2
291
     0
 71
     1
176
     1
 72
     2
176
     1
 73
     2
176
     1
 90
        0
176
     1
 40
-0.6
176
     1
 41
-30.0
176
     1
 62
     5
 63
     7
421
 16777215
176
     1
 74
     2
176
     1
 91
        2
176
     1
 64
     7
176
     1
 65
   257
176
     1
 75
     2
176
     1
175
     1
176
     1
 42
40.0
176
     1
 92
        0
176
     1
 66
   257
176
     1
 43
1.0
176
     1
 76
     1
176
     1
 77
     6
176
     1
 78
     2
176
     1
 67
     7
176
     1
 79
     3
176
     1
170
     0
176
     1
171
     0
176
     1
290
     0
176
     1
 93
        1
176
     1
 44
0.0
176
     1
173
     0
176
     1
  0
VISUALSTYLE
  5
30
102
{ACAD_REACTORS
330
2A
102
}
330
2A
100
AcDbVisualStyle
  2
3dWireframe
 70
     5
177
     2
291
     0
 71
     0
176
     1
 72
     2
176
     1
 73
     0
176
     1
 90
        0
176
     1
 40
-0.6
176
     1
 41
-30.0
176
     1
 62
     5
 63
     7
421
 16777215
176
     1
 74
     1
176
     1
 91
        4
176
     1
 64
     7
176
     1
 65
   257
176
     1
 75
     1
176
     1
175
     1
176
     1
 42
1.0
176
     1
 92
        0
176
     1
 66
   257
176
     1
 43
1.0
176
     1
 76
     1
176
     1
 77
     6
176
     1
 78
     2
176
     1
 67
     7
176
     1
 79
     5
176
     1
170
     0
176
     1
171
     0
176
     1
290
     0
176
     1
 93
        1
176
     1
 44
0.0
176
     1
173
     0
176
     1
  0
VISUALSTYLE
  5
32
102
{ACAD_REACTORS
330
2A
102
}
330
2A
100
AcDbVisualStyle
  2
Basic
 70
     7
177
     2
291
     1
 71
     1
176
     1
 72
     0
176
     1
 73
     1
176
     1
 90
        0
176
     1
 40
-0.6
176
     1
 41
-30.0
176
     1
 62
     5
 63
     7
421
 16777215
176
     1
 74
     0
176
     1
 91
        4
176
     1
 64
     7
176
     1
 65
   257
176
     1
 75
     1
176
     1
175
     1
176
     1
 42
1.0
176
     1
 92
        8
176
     1
 66
     7
176
     1
 43
1.0
176
     1
 76
     1
176
     1
 77
     6
176
     1
 78
     2
176
     1
 67
     7
176
     1
 79
     5
176
     1
170
     0
176
     1
171
     0
176
     1
290
     0
176
     1
 93
        1
176
     1
 44
0.0
176
     1
173
     0
176
     1
  0
VISUALSTYLE
  5
36
102
{ACAD_REACTORS
330
2A
102
}
330
2A
100
AcDbVisualStyle
  2
Brighten
 70
    12
177
     2
291
     1
 71
     2
176
     1
 72
     2
176
     1
 73
     0
176
     1
 90
        0
176
     1
 40
-0.6
176
     1
 41
-30.0
176
     1
 62
     5
 63
     7
421
 16777215
176
     1
 74
     1
176
     1
 91
        4
176
     1
 64
     7
176
     1
 65
   257
176
     1
 75
     1
176
     1
175
     1
176
     1
 42
1.0
176
     1
 92
        8
176
     1
 66
     7
176
     1
 43
1.0
176
     1
 76
     1
176
     1
 77
     6
176
     1
 78
     2
176
     1
 67
     7
176
     1
 79
     5
176
     1
170
     0
176
     1
171
     0
176
     1
290
     0
176
     1
 93
        1
176
     1
 44
50.0
176
     1
173
     0
176
     1
  0
VISUALSTYLE
  5
3A
102
{ACAD_REACTORS
330
2A
102
}
330
2A
100
AcDbVisualStyle
  2
ColorChange
 70
    16
177
     2
291
     1
 71
     2
176
     1
 72
     2
176
     1
 73
     3
176
     1
 90
        0
176
     1
 40
-0.6
176
     1
 41
-30.0
176
     1
 62
     5
 63
     8
421
  8421504
176
     1
 74
     1
176
     1
 91
        4
176
     1
 64
     7
176
     1
 65
   257
176
     1
 75
     1
176
     1
175
     1
176
     1
 42
1.0
176
     1
 92
        8
176
     1
 66
     8
424
  8421504
176
     1
 43
1.0
176
     1
 76
     1
176
     1
 77
     6
176
     1
 78
     2
176
     1
 67
     7
176
     1
 79
     5
176
     1
170
     0
176
     1
171
     0
176
     1
290
     0
176
     1
 93
        1
176
     1
 44
0.0
176
     1
173
     0
176
     1
  0
VISUALSTYLE
  5
34
102
{ACAD_REACTORS
330
2A
102
}
330
2A
100
AcDbVisualStyle
  2
Conceptual
 70
     9
177
     2
291
     0
 71
     3
176
     1
 72
     2
176
     1
 73
     0
176
     1
 90
        0
176
     1
 40
-0.6
176
     1
 41
-30.0
176
     1
 62
     5
 63
     7
421
 16777215
176
     1
 74
     2
176
     1
 91
        2
176
     1
 64
     7
176
     1
 65
   257
176
     1
 75
     1
176
     1
175
     1
176
     1
 42
40.0
176
     1
 92
        8
176
     1
 66
     7
176
     1
 43
1.0
176
     1
 76
     1
176
     1
 77
     6
176
     1
 78
     2
176
     1
 67
     7
176
     1
 79
     3
176
     1
170
     0
176
     1
171
     0
176
     1
290
     0
176
     1
 93
        1
176
     1
 44
0.0
176
     1
173
     0
176
     1
  0
VISUALSTYLE
  5
35
102
{ACAD_REACTORS
330
2A
102
}
330
2A
100
AcDbVisualStyle
  2
Dim
 70
    11
177
     2
291
     1
 71
     2
176
     1
 72
     2
176
     1
 73
     0
176
     1
 90
        0
176
     1
 40
-0.6
176
     1
 41
-30.0
176
     1
 62
     5
 63
     7
421
 16777215
176
     1
 74
     1
176
     1
 91
        4
176
     1
 64
     7
176
     1
 65
   257
176
     1
 75
     1
176
     1
175
     1
176
     1
 42
1.0
176
     1
 92
        8
176
     1
 66
     7
176
     1
 43
1.0
176
     1
 76
     1
176
     1
 77
     6
176
     1
 78
     2
176
     1
 67
     7
176
     1
 79
     5
176
     1
170
     0
176
     1
171
     0
176
     1
290
     0
176
     1
 93
        1
176
     1
 44
-50.0
176
     1
173
     0
176
     1
  0
VISUALSTYLE
  5
39
102
{ACAD_REACTORS
330
2A
102
}
330
2A
100
AcDbVisualStyle
  2
Facepattern
 70
    15
177
     2
291
     1
 71
     2
176
     1
 72
     2
176
     1
 73
     0
176
     1
 90
        0
176
     1
 40
-0.6
176
     1
 41
-30.0
176
     1
 62
     5
 63
     7
421
 16777215
176
     1
 74
     1
176
     1
 91
        4
176
     1
 64
     7
176
     1
 65
   257
176
     1
 75
     1
176
     1
175
     1
176
     1
 42
1.0
176
     1
 92
        8
176
     1
 66
     7
176
     1
 43
1.0
176
     1
 76
     1
176
     1
 77
     6
176
     1
 78
     2
176
     1
 67
     7
176
     1
 79
     5
176
     1
170
     0
176
     1
171
     0
176
     1
290
     0
176
     1
 93
        1
176
     1
 44
0.0
176
     1
173
     0
176
     1
  0
VISUALSTYLE
  5
2B
102
{ACAD_REACTORS
330
2A
102
}
330
2A
100
AcDbVisualStyle
  2
Flat
 70
     0
177
     2
291
     1
 71
     2
176
     1
 72
     1
176
     1
 73
     1
176
     1
 90
        2
176
     1
 40
-0.6
176
     1
 41
30.0
176
     1
 62
     5
 63
     7
421
 16777215
176
     1
 74
     0
176
     1
 91
        4
176
     1
 64
     7
176
     1
 65
   257
176
     1
 75
     1
176
     1
175
     1
176
     1
 42
1.0
176
     1
 92
        8
176
     1
 66
     7
176
     1
 43
1.0
176
     1
 76
     1
176
     1
 77
     6
176
     1
 78
     2
176
     1
 67
     7
176
     1
 79
     5
176
     1
170
     0
176
     1
171
     0
176
     1
290
     0
176
     1
 93
       13
176
     1
 44
0.0
176
     1
173
     0
176
     1
  0
VISUALSTYLE
  5
2C
102
{ACAD_REACTORS
330
2A
102
}
330
2A
100
AcDbVisualStyle
  2
FlatWithEdges
 70
     1
177
     2
291
     1
 71
     2
176
     1
 72
     1
176
     1
 73
     1
176
     1
 90
        2
176
     1
 40
-0.6
176
     1
 41
30.0
176
     1
 62
     5
 63
     7
421
 16777215
176
     1
 74
     1
176
     1
 91
        4
176
     1
 64
     7
176
     1
 65
   257
176
     1
 75
     1
176
     1
175
     1
176
     1
 42
1.0
176
     1
 92
        0
176
     1
 66
   257
176
     1
 43
1.0
176
     1
 76
     1
176
     1
 77
     6
176
     1
 78
     2
176
     1
 67
     7
176
     1
 79
     5
176
     1
170
     0
176
     1
171
     0
176
     1
290
     0
176
     1
 93
       13
176
     1
 44
0.0
176
     1
173
     0
176
     1
  0
VISUALSTYLE
  5
2D
102
{ACAD_REACTORS
330
2A
102
}
330
2A
100
AcDbVisualStyle
  2
Gouraud
 70
     2
177
     2
291
     1
 71
     2
176
     1
 72
     2
176
     1
 73
     1
176
     1
 90
        2
176
     1
 40
-0.6
176
     1
 41
30.0
176
     1
 62
     5
 63
     7
421
 16777215
176
     1
 74
     0
176
     1
 91
        4
176
     1
 64
     7
176
     1
 65
   257
176
     1
 75
     1
176
     1
175
     1
176
     1
 42
1.0
176
     1
 92
        0
176
     1
 66
     7
176
     1
 43
1.0
176
     1
 76
     1
176
     1
 77
     6
176
     1
 78
     2
176
     1
 67
     7
176
     1
 79
     5
176
     1
170
     0
176
     1
171
     0
176
     1
290
     0
176
     1
 93
       13
176
     1
 44
0.0
176
     1
173
     0
176
     1
  0
VISUALSTYLE
  5
2E
102
{ACAD_REACTORS
330
2A
102
}
330
2A
100
AcDbVisualStyle
  2
GouraudWithEdges
 70
     3
177
     2
291
     1
 71
     2
176
     1
 72
     2
176
     1
 73
     1
176
     1
 90
        2
176
     1
 40
-0.6
176
     1
 41
30.0
176
     1
 62
     5
 63
     7
421
 16777215
176
     1
 74
     1
176
     1
 91
        4
176
     1
 64
     7
176
     1
 65
   257
176
     1
 75
     1
176
     1
175
     1
176
     1
 42
1.0
176
     1
 92
        0
176
     1
 66
   257
176
     1
 43
1.0
176
     1
 76
     1
176
     1
 77
     6
176
     1
 78
     2
176
     1
 67
     7
176
     1
 79
     5
176
     1
170
     0
176
     1
171
     0
176
     1
290
     0
176
     1
 93
       13
176
     1
 44
0.0
176
     1
173
     0
176
     1
  0
VISUALSTYLE
  5
38
102
{ACAD_REACTORS
330
2A
102
}
330
2A
100
AcDbVisualStyle
  2
Linepattern
 70
    14
177
     2
291
     1
 71
     2
176
     1
 72
     2
176
     1
 73
     0
176
     1
 90
        0
176
     1
 40
-0.6
176
     1
 41
-30.0
176
     1
 62
     5
 63
     7
421
 16777215
176
     1
 74
     1
176
     1
 91
        4
176
     1
 64
     7
176
     1
 65
   257
176
     1
 75
     7
176
     1
175
     7
176
     1
 42
1.0
176
     1
 92
        8
176
     1
 66
     7
176
     1
 43
1.0
176
     1
 76
     1
176
     1
 77
     6
176
     1
 78
     2
176
     1
 67
     7
176
     1
 79
     5
176
     1
170
     0
176
     1
171
     0
176
     1
290
     0
176
     1
 93
        1
176
     1
 44
0.0
176
     1
173
     0
176
     1
  0
VISUALSTYLE
  5
33
102
{ACAD_REACTORS
330
2A
102
}
330
2A
100
AcDbVisualStyle
  2
Realistic
 70
     8
177
     2
291
     0
 71
     2
176
     1
 72
     2
176
     1
 73
     0
176
     1
 90
        0
176
     1
 40
-0.6
176
     1
 41
-30.0
176
     1
 62
     5
 63
     7
421
 16777215
176
     1
 74
     1
176
     1
 91
        0
176
     1
 64
     7
176
     1
 65
   257
176
     1
 75
     1
176
     1
175
     1
176
     1
 42
1.0
176
     1
 92
        8
176
     1
 66
     8
424
  7895160
176
     1
 43
1.0
176
     1
 76
     1
176
     1
 77
     6
176
     1
 78
     2
176
     1
 67
     7
176
     1
 79
     5
176
     1
170
     0
176
     1
171
     0
176
     1
290
     0
176
     1
 93
       13
176
     1
 44
0.0
176
     1
173
     0
176
     1
  0
VISUALSTYLE
  5
37
102
{ACAD_REACTORS
330
2A
102
}
330
2A
100
AcDbVisualStyle
  2
Thicken
 70
    13
177
     2
291
     1
 71
     2
176
     1
 72
     2
176
     1
 73
     0
176
     1
 90
        0
176
     1
 40
-0.6
176
     1
 41
-30.0
176
     1
 62
     5
 63
     7
421
 16777215
176
     1
 74
     1
176
     1
 91
        4
176
     1
 64
     7
176
     1
 65
   257
176
     1
 75
     1
176
     1
175
     1
176
     1
 42
1.0
176
     1
 92
       12
176
     1
 66
     7
176
     1
 43
1.0
176
     1
 76
     1
176
     1
 77
     6
176
     1
 78
     2
176
     1
 67
     7
176
     1
 79
     5
176
     1
170
     0
176
     1
171
     0
176
     1
290
     0
176
     1
 93
        1
176
     1
 44
0.0
176
     1
173
     0
176
     1
  0
ENDSEC
  0
EOF
