  0
SECTION
  2
HEADER
  9
$ACADVER
  1
AC1024
  9
$ACADMAINTVER
 70
     6
  9
$DWGCODEPAGE
  3
ANSI_932
  9
$INSBASE
 10
0.0
 20
0.0
 30
0.0
  9
$EXTMIN
 10
-8910.0
 20
-6300.0
 30
0.0
  9
$EXTMAX
 10
8910.0
 20
6300.0
 30
0.0
  9
$LIMMIN
 10
-8910.0
 20
-6300.0
  9
$LIMMAX
 10
8910.0
 20
6300.0
  9
$ORTHOMODE
 70
     0
  9
$REGENMODE
 70
     1
  9
$FILLMODE
 70
     1
  9
$QTEXTMODE
 70
     0
  9
$MIRRTEXT
 70
     1
  9
$LTSCALE
 40
30.0
  9
$ATTMODE
 70
     1
  9
$TEXTSIZE
 40
2.5
  9
$TRACEWID
 40
1.0
  9
$TEXTSTYLE
  7
Standard
  9
$CLAYER
  8
0
  9
$CELTYPE
  6
ByLayer
  9
$CECOLOR
 62
   256
  9
$CELTSCALE
 40
1.0
  9
$DISPSILH
 70
     0
  9
$DIMSCALE
 40
1.0
  9
$DIMASZ
 40
2.5
  9
$DIMEXO
 40
0.625
  9
$DIMDLI
 40
3.75
  9
$DIMRND
 40
0.0
  9
$DIMDLE
 40
0.0
  9
$DIMEXE
 40
1.25
  9
$DIMTP
 40
0.0
  9
$DIMTM
 40
0.0
  9
$DIMTXT
 40
2.5
  9
$DIMCEN
 40
2.5
  9
$DIMTSZ
 40
0.0
  9
$DIMTOL
 70
     0
  9
$DIMLIM
 70
     0
  9
$DIMTIH
 70
     0
  9
$DIMTOH
 70
     0
  9
$DIMSE1
 70
     0
  9
$DIMSE2
 70
     0
  9
$DIMTAD
 70
     1
  9
$DIMZIN
 70
     8
  9
$DIMBLK
  1

  9
$DIMASO
 70
     1
  9
$DIMSHO
 70
     1
  9
$DIMPOST
  1

  9
$DIMAPOST
  1

  9
$DIMALT
 70
     0
  9
$DIMALTD
 70
     3
  9
$DIMALTF
 40
0.03937007874016
  9
$DIMLFAC
 40
1.0
  9
$DIMTOFL
 70
     1
  9
$DIMTVP
 40
0.0
  9
$DIMTIX
 70
     0
  9
$DIMSOXD
 70
     0
  9
$DIMSAH
 70
     0
  9
$DIMBLK1
  1

  9
$DIMBLK2
  1

  9
$DIMSTYLE
  2
ISO-25
  9
$DIMCLRD
 70
     0
  9
$DIMCLRE
 70
     0
  9
$DIMCLRT
 70
     0
  9
$DIMTFAC
 40
1.0
  9
$DIMGAP
 40
0.625
  9
$DIMJUST
 70
     0
  9
$DIMSD1
 70
     0
  9
$DIMSD2
 70
     0
  9
$DIMTOLJ
 70
     0
  9
$DIMTZIN
 70
     8
  9
$DIMALTZ
 70
     0
  9
$DIMALTTZ
 70
     0
  9
$DIMUPT
 70
     0
  9
$DIMDEC
 70
     2
  9
$DIMTDEC
 70
     2
  9
$DIMALTU
 70
     2
  9
$DIMALTTD
 70
     3
  9
$DIMTXSTY
  7
Standard
  9
$DIMAUNIT
 70
     0
  9
$DIMADEC
 70
     0
  9
$DIMALTRND
 40
0.0
  9
$DIMAZIN
 70
     0
  9
$DIMDSEP
 70
    44
  9
$DIMATFIT
 70
     3
  9
$DIMFRAC
 70
     0
  9
$DIMLDRBLK
  1

  9
$DIMLUNIT
 70
     2
  9
$DIMLWD
 70
    -2
  9
$DIMLWE
 70
    -2
  9
$DIMTMOVE
 70
     0
  9
$DIMFXL
 40
1.0
  9
$DIMFXLON
 70
     0
  9
$DIMJOGANG
 40
0.7853981633974483
  9
$DIMTFILL
 70
     0
  9
$DIMTFILLCLR
 70
     0
  9
$DIMARCSYM
 70
     0
  9
$DIMLTYPE
  6

  9
$DIMLTEX1
  6

  9
$DIMLTEX2
  6

  9
$DIMTXTDIRECTION
 70
     0
  9
$LUNITS
 70
     2
  9
$LUPREC
 70
     4
  9
$SKETCHINC
 40
1.0
  9
$FILLETRAD
 40
10.0
  9
$AUNITS
 70
     0
  9
$AUPREC
 70
     0
  9
$MENU
  1
.
  9
$ELEVATION
 40
0.0
  9
$PELEVATION
 40
0.0
  9
$THICKNESS
 40
0.0
  9
$LIMCHECK
 70
     0
  9
$CHAMFERA
 40
10.0
  9
$CHAMFERB
 40
10.0
  9
$CHAMFERC
 40
20.0
  9
$CHAMFERD
 40
0.0
  9
$SKPOLY
 70
     0
  9
$TDCREATE
 40
2459767.650276748
  9
$TDUCREATE
 40
2459767.275276748
  9
$TDUPDATE
 40
2459767.650276759
  9
$TDUUPDATE
 40
2459767.275276759
  9
$TDINDWG
 40
0.0000000116
  9
$TDUSRTIMER
 40
0.0000000116
  9
$USRTIMER
 70
     1
  9
$ANGBASE
 50
0.0
  9
$ANGDIR
 70
     0
  9
$PDMODE
 70
     0
  9
$PDSIZE
 40
0.0
  9
$PLINEWID
 40
0.0
  9
$SPLFRAME
 70
     0
  9
$SPLINETYPE
 70
     6
  9
$SPLINESEGS
 70
     8
  9
$HANDSEED
  5
45D
  9
$SURFTAB1
 70
     6
  9
$SURFTAB2
 70
     6
  9
$SURFTYPE
 70
     6
  9
$SURFU
 70
     6
  9
$SURFV
 70
     6
  9
$UCSBASE
  2

  9
$UCSNAME
  2

  9
$UCSORG
 10
0.0
 20
0.0
 30
0.0
  9
$UCSXDIR
 10
1.0
 20
0.0
 30
0.0
  9
$UCSYDIR
 10
0.0
 20
1.0
 30
0.0
  9
$UCSORTHOREF
  2

  9
$UCSORTHOVIEW
 70
     0
  9
$UCSORGTOP
 10
0.0
 20
0.0
 30
0.0
  9
$UCSORGBOTTOM
 10
0.0
 20
0.0
 30
0.0
  9
$UCSORGLEFT
 10
0.0
 20
0.0
 30
0.0
  9
$UCSORGRIGHT
 10
0.0
 20
0.0
 30
0.0
  9
$UCSORGFRONT
 10
0.0
 20
0.0
 30
0.0
  9
$UCSORGBACK
 10
0.0
 20
0.0
 30
0.0
  9
$PUCSBASE
  2

  9
$PUCSNAME
  2

  9
$PUCSORG
 10
0.0
 20
0.0
 30
0.0
  9
$PUCSXDIR
 10
1.0
 20
0.0
 30
0.0
  9
$PUCSYDIR
 10
0.0
 20
1.0
 30
0.0
  9
$PUCSORTHOREF
  2

  9
$PUCSORTHOVIEW
 70
     0
  9
$PUCSORGTOP
 10
0.0
 20
0.0
 30
0.0
  9
$PUCSORGBOTTOM
 10
0.0
 20
0.0
 30
0.0
  9
$PUCSORGLEFT
 10
0.0
 20
0.0
 30
0.0
  9
$PUCSORGRIGHT
 10
0.0
 20
0.0
 30
0.0
  9
$PUCSORGFRONT
 10
0.0
 20
0.0
 30
0.0
  9
$PUCSORGBACK
 10
0.0
 20
0.0
 30
0.0
  9
$USERI1
 70
     0
  9
$USERI2
 70
     0
  9
$USERI3
 70
     0
  9
$USERI4
 70
     0
  9
$USERI5
 70
     0
  9
$USERR1
 40
0.0
  9
$USERR2
 40
0.0
  9
$USERR3
 40
0.0
  9
$USERR4
 40
0.0
  9
$USERR5
 40
0.0
  9
$WORLDVIEW
 70
     1
  9
$SHADEDGE
 70
     3
  9
$SHADEDIF
 70
    70
  9
$TILEMODE
 70
     1
  9
$MAXACTVP
 70
    64
  9
$PINSBASE
 10
0.0
 20
0.0
 30
0.0
  9
$PLIMCHECK
 70
     0
  9
$PEXTMIN
 10
1.000000000000000E+20
 20
1.000000000000000E+20
 30
1.000000000000000E+20
  9
$PEXTMAX
 10
-1.000000000000000E+20
 20
-1.000000000000000E+20
 30
-1.000000000000000E+20
  9
$PLIMMIN
 10
0.0
 20
0.0
  9
$PLIMMAX
 10
420.0
 20
297.0
  9
$UNITMODE
 70
     0
  9
$VISRETAIN
 70
     1
  9
$PLINEGEN
 70
     0
  9
$PSLTSCALE
 70
     1
  9
$TREEDEPTH
 70
  3020
  9
$CMLSTYLE
  2
Standard
  9
$CMLJUST
 70
     0
  9
$CMLSCALE
 40
20.0
  9
$PROXYGRAPHICS
 70
     1
  9
$MEASUREMENT
 70
     1
  9
$CELWEIGHT
370
    -1
  9
$ENDCAPS
280
     0
  9
$JOINSTYLE
280
     0
  9
$LWDISPLAY
290
     0
  9
$INSUNITS
 70
     4
  9
$HYPERLINKBASE
  1

  9
$STYLESHEET
  1

  9
$XEDIT
290
     1
  9
$CEPSNTYPE
380
     0
  9
$PSTYLEMODE
290
     1
  9
$FINGERPRINTGUID
  2
{78914BC6-F108-4885-AF4D-94DA8DCD31C6}
  9
$VERSIONGUID
  2
{FAEB1C32-E019-11D5-929B-00C0DF256EC4}
  9
$EXTNAMES
290
     1
  9
$PSVPSCALE
 40
0.0
  9
$OLESTARTUP
290
     0
  9
$SORTENTS
280
   127
  9
$INDEXCTL
280
     0
  9
$HIDETEXT
280
     1
  9
$XCLIPFRAME
280
     2
  9
$HALOGAP
280
     0
  9
$OBSCOLOR
 70
   257
  9
$OBSLTYPE
280
     0
  9
$INTERSECTIONDISPLAY
280
     0
  9
$INTERSECTIONCOLOR
 70
   257
  9
$DIMASSOC
280
     2
  9
$PROJECTNAME
  1

  9
$CAMERADISPLAY
290
     0
  9
$LENSLENGTH
 40
50.0
  9
$CAMERAHEIGHT
 40
0.0
  9
$STEPSPERSEC
 40
2.0
  9
$STEPSIZE
 40
6.0
  9
$3DDWFPREC
 40
2.0
  9
$PSOLWIDTH
 40
5.0
  9
$PSOLHEIGHT
 40
80.0
  9
$LOFTANG1
 40
1.570796326794897
  9
$LOFTANG2
 40
1.570796326794897
  9
$LOFTMAG1
 40
0.0
  9
$LOFTMAG2
 40
0.0
  9
$LOFTPARAM
 70
     7
  9
$LOFTNORMALS
280
     1
  9
$LATITUDE
 40
37.795
  9
$LONGITUDE
 40
-122.394
  9
$NORTHDIRECTION
 40
0.0
  9
$TIMEZONE
 70
 -8000
  9
$LIGHTGLYPHDISPLAY
280
     1
  9
$TILEMODELIGHTSYNCH
280
     1
  9
$SOLIDHIST
280
     1
  9
$SHOWHIST
280
     1
  9
$DWFFRAME
280
     2
  9
$DGNFRAME
280
     2
  9
$REALWORLDSCALE
290
     1
  9
$INTERFERECOLOR
 62
   256
  9
$CSHADOW
280
     0
  9
$SHADOWPLANELOCATION
 40
0.0
  0
ENDSEC
  0
SECTION
  2
CLASSES
  0
CLASS
  1
ACDBDICTIONARYWDFLT
  2
AcDbDictionaryWithDefault
  3
ObjectDBX Classes
 90
        0
 91
        4
280
     0
281
     0
  0
CLASS
  1
VISUALSTYLE
  2
AcDbVisualStyle
  3
ObjectDBX Classes
 90
     4095
 91
        4
280
     0
281
     0
  0
CLASS
  1
MATERIAL
  2
AcDbMaterial
  3
ObjectDBX Classes
 90
     1153
 91
        4
280
     0
281
     0
  0
ENDSEC
  0
SECTION
  2
TABLES
  0
TABLE
  2
VPORT
  5
8
330
0
100
AcDbSymbolTable
 70
     1
  0
VPORT
  5
29
330
8
100
AcDbSymbolTableRecord
100
AcDbViewportTableRecord
  2
*Active
 70
     0
 10
0.0
 20
0.0
 11
1.0
 21
1.0
 12
0.0
 22
0.0
 13
0.0
 23
0.0
 14
10.0
 24
10.0
 15
10.0
 25
10.0
 16
0.0
 26
0.0
 36
1.0
 17
0.0
 27
0.0
 37
0.0
 40
13860.0
 41
1.414285714285714
 42
50.0
 43
0.0
 44
0.0
 50
0.0
 51
0.0
 71
     0
 72
 10000
 73
     1
 74
     3
 75
     0
 76
     0
 77
     0
 78
     0
281
     0
 65
     1
110
0.0
120
0.0
130
0.0
111
1.0
121
0.0
131
0.0
112
0.0
122
1.0
132
0.0
 79
     0
146
0.0
 60
     3
 61
     5
292
     1
282
     1
141
0.0
142
0.0
 63
   250
  0
ENDTAB
  0
TABLE
  2
LTYPE
  5
5
330
0
100
AcDbSymbolTable
 70
     4
  0
LTYPE
  5
14
330
5
100
AcDbSymbolTableRecord
100
AcDbLinetypeTableRecord
  2
ByBlock
 70
     0
  3

 72
    65
 73
     0
 40
0.0
  0
LTYPE
  5
15
330
5
100
AcDbSymbolTableRecord
100
AcDbLinetypeTableRecord
  2
ByLayer
 70
     0
  3

 72
    65
 73
     0
 40
0.0
  0
LTYPE
  5
16
330
5
100
AcDbSymbolTableRecord
100
AcDbLinetypeTableRecord
  2
Continuous
 70
     0
  3
Solid line
 72
    65
 73
     0
 40
0.0
  0
LTYPE
  5
3F
330
5
100
AcDbSymbolTableRecord
100
AcDbLinetypeTableRecord
  2
JWW_HOJO
 70
     0
  3
  -   -   -   -   -   -   -   - 
 72
    65
 73
     2
 40
1.693333333333333
 49
-1.27
 74
     0
 49
0.4233333333333333
 74
     0
  0
LTYPE
  5
40
330
5
100
AcDbSymbolTableRecord
100
AcDbLinetypeTableRecord
  2
JWW_DASHED1
 70
     0
  3
-  --  --  --  --  --  --  --  -
 72
    65
 73
     2
 40
1.693333333333333
 49
0.8466666666666667
 74
     0
 49
-0.8466666666666667
 74
     0
  0
LTYPE
  5
41
330
5
100
AcDbSymbolTableRecord
100
AcDbLinetypeTableRecord
  2
JWW_CENTER1
 70
     0
  3
-----  --  ----------  --  -----
 72
    65
 73
     4
 40
6.773333333333333
 49
4.233333333333333
 74
     0
 49
-0.8466666666666667
 74
     0
 49
0.8466666666666667
 74
     0
 49
-0.8466666666666667
 74
     0
  0
ENDTAB
  0
TABLE
  2
LAYER
  5
2
330
0
100
AcDbSymbolTable
 70
    13
  0
LAYER
  5
10
330
2
100
AcDbSymbolTableRecord
100
AcDbLayerTableRecord
  2
0
 70
     0
 62
     7
  6
Continuous
370
    -3
390
F
347
3E
  0
LAYER
  5
42
330
2
100
AcDbSymbolTableRecord
100
AcDbLayerTableRecord
  2
0-4_枠
 70
     0
 62
     7
  6
Continuous
370
    -3
390
F
347
3E
  0
LAYER
  5
43
330
2
100
AcDbSymbolTableRecord
100
AcDbLayerTableRecord
  2
0-B_寸法
 70
     0
 62
     7
  6
Continuous
370
    -3
390
F
347
3E
  0
LAYER
  5
44
330
2
100
AcDbSymbolTableRecord
100
AcDbLayerTableRecord
  2
F-0_補助線
 70
     0
 62
     7
  6
Continuous
370
    -3
390
F
347
3E
  0
LAYER
  5
45
330
2
100
AcDbSymbolTableRecord
100
AcDbLayerTableRecord
  2
0-A_文字
 70
     0
 62
     7
  6
Continuous
370
    -3
390
F
347
3E
  0
LAYER
  5
46
330
2
100
AcDbSymbolTableRecord
100
AcDbLayerTableRecord
  2
0-C_ハッチ
 70
     0
 62
     7
  6
Continuous
370
    -3
390
F
347
3E
  0
LAYER
  5
47
330
2
100
AcDbSymbolTableRecord
100
AcDbLayerTableRecord
  2
0-0_補助線
 70
     0
 62
     7
  6
Continuous
370
    -3
390
F
347
3E
  0
LAYER
  5
48
330
2
100
AcDbSymbolTableRecord
100
AcDbLayerTableRecord
  2
0-5_ケーシング
 70
     0
 62
     7
  6
Continuous
370
    -3
390
F
347
3E
  0
LAYER
  5
49
330
2
100
AcDbSymbolTableRecord
100
AcDbLayerTableRecord
  2
0-3_仕上げ
 70
     0
 62
     7
  6
Continuous
370
    -3
390
F
347
3E
  0
LAYER
  5
4A
330
2
100
AcDbSymbolTableRecord
100
AcDbLayerTableRecord
  2
0-1_通り芯
 70
     0
 62
     7
  6
Continuous
370
    -3
390
F
347
3E
  0
LAYER
  5
4B
330
2
100
AcDbSymbolTableRecord
100
AcDbLayerTableRecord
  2
0-6_扉
 70
     0
 62
     7
  6
Continuous
370
    -3
390
F
347
3E
  0
LAYER
  5
4C
330
2
100
AcDbSymbolTableRecord
100
AcDbLayerTableRecord
  2
F-A_文字
 70
     0
 62
     7
  6
Continuous
370
    -3
390
F
347
3E
  0
LAYER
  5
4D
330
2
100
AcDbSymbolTableRecord
100
AcDbLayerTableRecord
  2
F-1_枠
 70
     0
 62
     7
  6
Continuous
370
    -3
390
F
347
3E
  0
ENDTAB
  0
TABLE
  2
STYLE
  5
3
330
0
100
AcDbSymbolTable
 70
     1
  0
STYLE
  5
11
330
3
100
AcDbSymbolTableRecord
100
AcDbTextStyleTableRecord
  2
Standard
 70
     0
 40
0.0
 41
1.0
 50
0.0
 71
     0
 42
2.5
  3
txt
  4

  0
ENDTAB
  0
TABLE
  2
VIEW
  5
6
330
0
100
AcDbSymbolTable
 70
     0
  0
ENDTAB
  0
TABLE
  2
UCS
  5
7
330
0
100
AcDbSymbolTable
 70
     0
  0
ENDTAB
  0
TABLE
  2
APPID
  5
9
330
0
100
AcDbSymbolTable
 70
     1
  0
APPID
  5
12
330
9
100
AcDbSymbolTableRecord
100
AcDbRegAppTableRecord
  2
ACAD
 70
     0
  0
ENDTAB
  0
TABLE
  2
DIMSTYLE
  5
A
330
0
100
AcDbSymbolTable
 70
     1
100
AcDbDimStyleTable
  0
DIMSTYLE
105
27
330
A
100
AcDbSymbolTableRecord
100
AcDbDimStyleTableRecord
  2
ISO-25
 70
     0
 41
2.5
 42
0.625
 43
3.75
 44
1.25
 73
     0
 74
     0
 77
     1
 78
     8
140
2.5
141
2.5
143
0.03937007874016
147
0.625
171
     3
172
     1
178
     0
271
     2
272
     2
274
     3
278
    44
283
     0
284
     8
340
11
  0
ENDTAB
  0
TABLE
  2
BLOCK_RECORD
  5
1
330
0
100
AcDbSymbolTable
 70
     1
  0
BLOCK_RECORD
  5
1F
330
1
100
AcDbSymbolTableRecord
100
AcDbBlockTableRecord
  2
*Model_Space
340
22
 70
     0
280
     1
281
     0
  0
BLOCK_RECORD
  5
1B
330
1
100
AcDbSymbolTableRecord
100
AcDbBlockTableRecord
  2
*Paper_Space
340
1E
 70
     0
280
     1
281
     0
  0
BLOCK_RECORD
  5
23
330
1
100
AcDbSymbolTableRecord
100
AcDbBlockTableRecord
  2
*Paper_Space0
340
26
 70
     0
280
     1
281
     0
  0
ENDTAB
  0
ENDSEC
  0
SECTION
  2
BLOCKS
  0
BLOCK
  5
20
330
1F
100
AcDbEntity
  8
0
100
AcDbBlockBegin
  2
*Model_Space
 70
     0
 10
0.0
 20
0.0
 30
0.0
  3
*Model_Space
  1

  0
ENDBLK
  5
21
330
1F
100
AcDbEntity
  8
0
100
AcDbBlockEnd
  0
BLOCK
  5
1C
330
1B
100
AcDbEntity
 67
     1
  8
0
100
AcDbBlockBegin
  2
*Paper_Space
 70
     0
 10
0.0
 20
0.0
 30
0.0
  3
*Paper_Space
  1

  0
ENDBLK
  5
1D
330
1B
100
AcDbEntity
 67
     1
  8
0
100
AcDbBlockEnd
  0
BLOCK
  5
24
330
23
100
AcDbEntity
  8
0
100
AcDbBlockBegin
  2
*Paper_Space0
 70
     0
 10
0.0
 20
0.0
 30
0.0
  3
*Paper_Space0
  1

  0
ENDBLK
  5
25
330
23
100
AcDbEntity
  8
0
100
AcDbBlockEnd
  0
ENDSEC
  0
SECTION
  2
ENTITIES
  0
LINE
  5
4E
330
1F
100
AcDbEntity
  8
0-4_枠
  6
Continuous
 62
    92
370
    13
100
AcDbLine
 10
-3906.511417851218
 20
2251.116319809838
 30
0.0
 11
-3906.511417851217
 21
2431.116319809838
 31
0.0
  0
LINE
  5
4F
330
1F
100
AcDbEntity
  8
0-4_枠
  6
Continuous
 62
    92
370
    13
100
AcDbLine
 10
-1232.180728210804
 20
-569.5145617997237
 30
0.0
 11
-1052.180728210804
 21
-569.5145617997244
 31
0.0
  0
LINE
  5
50
330
1F
100
AcDbEntity
  8
0-4_枠
  6
Continuous
 62
    92
370
    13
100
AcDbLine
 10
-1490.180688620434
 20
-509.5145617997236
 30
0.0
 11
-1082.180371897461
 21
-509.5145617997236
 31
0.0
  0
LINE
  5
51
330
1F
100
AcDbEntity
  8
0-4_枠
  6
Continuous
 62
    92
370
    13
100
AcDbLine
 10
-3966.511417851218
 20
1981.116319809838
 30
0.0
 11
-3966.511417851218
 21
2749.116636532811
 31
0.0
  0
LINE
  5
52
330
1F
100
AcDbEntity
  8
0-B_寸法
  6
Continuous
 62
   120
370
     5
100
AcDbLine
 10
-4146.511417851218
 20
1825.927605705108
 30
0.0
 11
-4146.511417851218
 21
1645.927605705108
 31
0.0
  0
LINE
  5
53
330
1F
100
AcDbEntity
  8
F-0_補助線
  6
JWW_HOJO
 62
   120
370
     5
100
AcDbLine
 10
-6188.181119165726
 20
-4545.654945154416
 30
0.0
 11
-6188.181119165726
 21
4334.344658941869
 31
0.0
  0
LINE
  5
54
330
1F
100
AcDbEntity
  8
F-0_補助線
  6
JWW_HOJO
 62
   120
370
     5
100
AcDbLine
 10
-6188.181119165726
 20
4334.344658941869
 30
0.0
 11
6111.817891074983
 21
4334.344658941869
 31
0.0
  0
LINE
  5
55
330
1F
100
AcDbEntity
  8
F-0_補助線
  6
JWW_HOJO
 62
   120
370
     5
100
AcDbLine
 10
6111.817891074983
 20
4334.344658941869
 30
0.0
 11
6111.817891074983
 21
-4545.654945154416
 31
0.0
  0
LINE
  5
56
330
1F
100
AcDbEntity
  8
F-0_補助線
  6
JWW_HOJO
 62
   120
370
     5
100
AcDbLine
 10
6111.817891074983
 20
-4545.654945154416
 30
0.0
 11
-6188.181119165726
 21
-4545.654945154416
 31
0.0
  0
LINE
  5
57
330
1F
100
AcDbEntity
  8
F-0_補助線
  6
Continuous
 62
   200
370
    20
100
AcDbLine
 10
-5888.180871725903
 20
4084.34482390175
 30
0.0
 11
5811.817643635161
 21
4084.34482390175
 31
0.0
  0
LINE
  5
58
330
1F
100
AcDbEntity
  8
F-0_補助線
  6
Continuous
 62
   200
370
    20
100
AcDbLine
 10
5811.817643635161
 20
4084.34482390175
 30
0.0
 11
5811.817643635161
 21
-4295.655110114299
 31
0.0
  0
LINE
  5
59
330
1F
100
AcDbEntity
  8
F-0_補助線
  6
Continuous
 62
   200
370
    20
100
AcDbLine
 10
-5888.181103700736
 20
4084.34482390175
 30
0.0
 11
-5888.181103700736
 21
-4295.655110114299
 31
0.0
  0
LINE
  5
5A
330
1F
100
AcDbEntity
  8
F-0_補助線
  6
Continuous
 62
   200
370
    20
100
AcDbLine
 10
-5878.181109371233
 20
4084.34482390175
 30
0.0
 11
-5878.181109371233
 21
-4295.655110114299
 31
0.0
  0
LINE
  5
5B
330
1F
100
AcDbEntity
  8
F-0_補助線
  6
Continuous
 62
   200
370
    20
100
AcDbLine
 10
-5888.180871725903
 20
4074.345038349597
 30
0.0
 11
5811.817643635161
 21
4074.345038349597
 31
0.0
  0
LINE
  5
5C
330
1F
100
AcDbEntity
  8
F-0_補助線
  6
Continuous
 62
   200
370
    20
100
AcDbLine
 10
-5888.180871725903
 20
4079.344559965939
 30
0.0
 11
5811.817643635161
 21
4079.344559965939
 31
0.0
  0
LINE
  5
5D
330
1F
100
AcDbEntity
  8
F-0_補助線
  6
Continuous
 62
   200
370
    20
100
AcDbLine
 10
-5883.181094937244
 20
4084.34482390175
 30
0.0
 11
-5883.181094937244
 21
-4295.655110114299
 31
0.0
  0
LINE
  5
5E
330
1F
100
AcDbEntity
  8
F-0_補助線
  6
Continuous
 62
   200
370
    20
100
AcDbLine
 10
5806.817379699351
 20
4084.34482390175
 30
0.0
 11
5806.817379699351
 21
-4295.655110114299
 31
0.0
  0
LINE
  5
5F
330
1F
100
AcDbEntity
  8
F-0_補助線
  6
Continuous
 62
   200
370
    20
100
AcDbLine
 10
5801.817858083008
 20
4084.34482390175
 30
0.0
 11
5801.817858083008
 21
-4295.655110114299
 31
0.0
  0
LINE
  5
60
330
1F
100
AcDbEntity
  8
0-A_文字
  6
Continuous
 62
     7
370
     9
100
AcDbLine
 10
-5338.181109371233
 20
3714.345038349597
 30
0.0
 11
-5338.181109371233
 21
3498.345038349597
 31
0.0
  0
LINE
  5
61
330
1F
100
AcDbEntity
  8
0-A_文字
  6
Continuous
 62
     7
370
     9
100
AcDbLine
 10
-5338.181109371233
 20
3498.345038349597
 30
0.0
 11
-4258.181109371233
 21
3498.345038349597
 31
0.0
  0
LINE
  5
62
330
1F
100
AcDbEntity
  8
0-A_文字
  6
Continuous
 62
     7
370
     9
100
AcDbLine
 10
-4258.181109371233
 20
3498.345038349597
 30
0.0
 11
-4258.181109371233
 21
3714.345038349597
 31
0.0
  0
LINE
  5
63
330
1F
100
AcDbEntity
  8
0-A_文字
  6
Continuous
 62
     7
370
     9
100
AcDbLine
 10
-4258.181109371233
 20
3714.345038349597
 30
0.0
 11
-5338.181109371233
 21
3714.345038349597
 31
0.0
  0
MTEXT
  5
64
330
1F
100
AcDbEntity
  8
0-A_文字
  6
Continuous
 62
     7
370
     9
100
AcDbMText
 10
-5195.681109371233
 20
3536.827538349596
 30
0.0
 40
100.965
 41
795.0
 46
0.0
 71
     7
 72
     1
  1
{\fＭＳ ゴシック|b0|i0|c128|p49;横断面図・・}
 73
     1
 44
1.0
  0
LINE
  5
65
330
1F
100
AcDbEntity
  8
0-C_ハッチ
  6
JWW_DASHED1
 62
   120
370
     5
100
AcDbLine
 10
2232.052891428772
 20
2463.37192217167
 30
0.0
 11
2254.860539016359
 21
2486.179569759257
 31
0.0
  0
LINE
  5
66
330
1F
100
AcDbEntity
  8
0-C_ハッチ
  6
JWW_DASHED1
 62
   120
370
     5
100
AcDbLine
 10
2247.486945887548
 20
2436.379569759246
 30
0.0
 11
2297.286945887558
 21
2486.179569759256
 31
0.0
  0
LINE
  5
67
330
1F
100
AcDbEntity
  8
0-C_ハッチ
  6
JWW_DASHED1
 62
   120
370
     5
100
AcDbLine
 10
2289.913352758756
 20
2436.379569759255
 30
0.0
 11
2339.713352758765
 21
2486.179569759263
 31
0.0
  0
LINE
  5
68
330
1F
100
AcDbEntity
  8
0-C_ハッチ
  6
JWW_DASHED1
 62
   120
370
     5
100
AcDbLine
 10
2332.339759629967
 20
2436.379569759265
 30
0.0
 11
2382.139759629961
 21
2486.179569759259
 31
0.0
  0
LINE
  5
69
330
1F
100
AcDbEntity
  8
0-C_ハッチ
  6
JWW_DASHED1
 62
   120
370
     5
100
AcDbLine
 10
2374.766166501161
 20
2436.379569759259
 30
0.0
 11
2424.566166501156
 21
2486.179569759253
 31
0.0
  0
LINE
  5
6A
330
1F
100
AcDbEntity
  8
0-C_ハッチ
  6
JWW_DASHED1
 62
   120
370
     5
100
AcDbLine
 10
2382.052891428769
 20
2401.239887815666
 30
0.0
 11
2449.294810339205
 21
2468.481806726102
 31
0.0
  0
LINE
  5
6B
330
1F
100
AcDbEntity
  8
0-C_ハッチ
  6
JWW_DASHED1
 62
   120
370
     5
100
AcDbLine
 10
2382.052891428772
 20
2358.81348094447
 30
0.0
 11
2451.052891428775
 21
2427.813480944473
 31
0.0
  0
LINE
  5
6C
330
1F
100
AcDbEntity
  8
0-C_ハッチ
  6
JWW_DASHED1
 62
   120
370
     5
100
AcDbLine
 10
2413.845387114722
 20
2348.179569759274
 30
0.0
 11
2451.052891428757
 21
2385.387074073309
 31
0.0
  0
LINE
  5
6D
330
1F
100
AcDbEntity
  8
0-C_ハッチ
  6
JWW_DASHED1
 62
   120
370
     5
100
AcDbLine
 10
3045.502891640925
 20
2470.720191831132
 30
0.0
 11
3060.96226956904
 21
2486.179569759247
 31
0.0
  0
LINE
  5
6E
330
1F
100
AcDbEntity
  8
0-C_ハッチ
  6
JWW_DASHED1
 62
   120
370
     5
100
AcDbLine
 10
3053.588676440244
 20
2436.379569759251
 30
0.0
 11
3103.38867644024
 21
2486.179569759246
 31
0.0
  0
LINE
  5
6F
330
1F
100
AcDbEntity
  8
0-C_ハッチ
  6
JWW_DASHED1
 62
   120
370
     5
100
AcDbLine
 10
3096.015083311444
 20
2436.37956975925
 30
0.0
 11
3145.815083311439
 21
2486.179569759245
 31
0.0
  0
LINE
  5
70
330
1F
100
AcDbEntity
  8
0-C_ハッチ
  6
JWW_DASHED1
 62
   120
370
     5
100
AcDbLine
 10
3138.44149018259
 20
2436.379569759251
 30
0.0
 11
3188.241490182611
 21
2486.179569759272
 31
0.0
  0
LINE
  5
71
330
1F
100
AcDbEntity
  8
0-C_ハッチ
  6
JWW_DASHED1
 62
   120
370
     5
100
AcDbLine
 10
3180.867897053784
 20
2436.379569759245
 30
0.0
 11
3230.667897053811
 21
2486.179569759272
 31
0.0
  0
LINE
  5
72
330
1F
100
AcDbEntity
  8
0-C_ハッチ
  6
JWW_DASHED1
 62
   120
370
     5
100
AcDbLine
 10
3195.502891640926
 20
2408.588157475188
 30
0.0
 11
3240.502891640917
 21
2453.588157475178
 31
0.0
  0
LINE
  5
73
330
1F
100
AcDbEntity
  8
0-C_ハッチ
  6
JWW_DASHED1
 62
   120
370
     5
100
AcDbLine
 10
3195.502891640922
 20
2366.161750603983
 30
0.0
 11
3240.502891640916
 21
2411.161750603977
 31
0.0
  0
LINE
  5
74
330
1F
100
AcDbEntity
  8
0-C_ハッチ
  6
JWW_DASHED1
 62
   120
370
     5
100
AcDbLine
 10
3219.947117667403
 20
2348.179569759264
 30
0.0
 11
3240.502891640911
 21
2368.735343732772
 31
0.0
  0
LINE
  5
75
330
1F
100
AcDbEntity
  8
0-C_ハッチ
  6
JWW_DASHED1
 62
   120
370
     5
100
AcDbLine
 10
4035.952891428775
 20
2485.362833581546
 30
0.0
 11
4036.769627606478
 21
2486.179569759248
 31
0.0
  0
LINE
  5
76
330
1F
100
AcDbEntity
  8
0-C_ハッチ
  6
JWW_DASHED1
 62
   120
370
     5
100
AcDbLine
 10
4035.952891428771
 20
2442.93642671034
 30
0.0
 11
4079.196034477677
 21
2486.179569759247
 31
0.0
  0
LINE
  5
77
330
1F
100
AcDbEntity
  8
0-C_ハッチ
  6
JWW_DASHED1
 62
   120
370
     5
100
AcDbLine
 10
4071.822441348891
 20
2436.379569759261
 30
0.0
 11
4121.622441348874
 21
2486.179569759245
 31
0.0
  0
LINE
  5
78
330
1F
100
AcDbEntity
  8
0-C_ハッチ
  6
JWW_DASHED1
 62
   120
370
     5
100
AcDbLine
 10
4083.952891428765
 20
2406.08361296799
 30
0.0
 11
4148.772947763042
 21
2470.903669302266
 31
0.0
  0
LINE
  5
79
330
1F
100
AcDbEntity
  8
0-C_ハッチ
  6
JWW_DASHED1
 62
   120
370
     5
100
AcDbLine
 10
4083.952891428771
 20
2363.657206096796
 30
0.0
 11
4152.952891428761
 21
2432.657206096786
 31
0.0
  0
LINE
  5
7A
330
1F
100
AcDbEntity
  8
0-C_ハッチ
  6
JWW_DASHED1
 62
   120
370
     5
100
AcDbLine
 10
4083.952891428777
 20
2321.230799225601
 30
0.0
 11
4152.95289142877
 21
2390.230799225594
 31
0.0
  0
LINE
  5
7B
330
1F
100
AcDbEntity
  8
0-C_ハッチ
  6
JWW_DASHED1
 62
   120
370
     5
100
AcDbLine
 10
4087.328068833646
 20
2282.179569759271
 30
0.0
 11
4152.952891428751
 21
2347.804392354376
 31
0.0
  0
LINE
  5
7C
330
1F
100
AcDbEntity
  8
0-C_ハッチ
  6
JWW_DASHED1
 62
   120
370
     5
100
AcDbLine
 10
4129.754475704841
 20
2282.179569759265
 30
0.0
 11
4152.952891428758
 21
2305.377985483182
 31
0.0
  0
LINE
  5
7D
330
1F
100
AcDbEntity
  8
0-C_ハッチ
  6
JWW_DASHED1
 62
   120
370
     5
100
AcDbLine
 10
4924.402891428768
 20
2482.858289286502
 30
0.0
 11
4927.724171901524
 21
2486.179569759256
 31
0.0
  0
LINE
  5
7E
330
1F
100
AcDbEntity
  8
0-C_ハッチ
  6
JWW_DASHED1
 62
   120
370
     5
100
AcDbLine
 10
4924.402891428762
 20
2440.431882415296
 30
0.0
 11
4970.150578772713
 21
2486.179569759247
 31
0.0
  0
LINE
  5
7F
330
1F
100
AcDbEntity
  8
0-C_ハッチ
  6
JWW_DASHED1
 62
   120
370
     5
100
AcDbLine
 10
4962.776985643925
 20
2436.379569759259
 30
0.0
 11
5011.625977505667
 21
2485.228561621001
 31
0.0
  0
LINE
  5
80
330
1F
100
AcDbEntity
  8
0-C_ハッチ
  6
JWW_DASHED1
 62
   120
370
     5
100
AcDbLine
 10
4972.40289142877
 20
2403.579068672903
 30
0.0
 11
5017.402891428776
 21
2448.579068672908
 31
0.0
  0
LINE
  5
81
330
1F
100
AcDbEntity
  8
0-C_ハッチ
  6
JWW_DASHED1
 62
   120
370
     5
100
AcDbLine
 10
4972.402891428776
 20
2361.152661801708
 30
0.0
 11
5017.402891428781
 21
2406.152661801714
 31
0.0
  0
LINE
  5
82
330
1F
100
AcDbEntity
  8
0-C_ハッチ
  6
JWW_DASHED1
 62
   120
370
     5
100
AcDbLine
 10
4972.402891428786
 20
2318.726254930573
 30
0.0
 11
5017.402891428774
 21
2363.726254930562
 31
0.0
  0
LINE
  5
83
330
1F
100
AcDbEntity
  8
0-C_ハッチ
  6
JWW_DASHED1
 62
   120
370
     5
100
AcDbLine
 10
4978.28261312866
 20
2282.179569759248
 30
0.0
 11
5017.402891428779
 21
2321.299848059366
 31
0.0
  0
MTEXT
  5
84
330
1F
100
AcDbEntity
  8
0-B_寸法
  6
Continuous
 62
     7
370
   211
100
AcDbMText
 10
4058.452891428766
 20
2575.790924531031
 30
0.0
 40
57.15
 41
75.0
 46
0.0
 71
     7
 72
     1
  1
{\fＭＳ ゴシック|b0|i0|c128|p49;①}
 73
     1
 44
1.0
  0
MTEXT
  5
85
330
1F
100
AcDbEntity
  8
0-B_寸法
  6
Continuous
 62
     7
370
   211
100
AcDbMText
 10
4934.902891428766
 20
2575.750641267454
 30
0.0
 40
57.15
 41
75.0
 46
0.0
 71
     7
 72
     1
  1
{\fＭＳ ゴシック|b0|i0|c128|p49;②}
 73
     1
 44
1.0
  0
LINE
  5
86
330
1F
100
AcDbEntity
  8
0-A_文字
  6
Continuous
 62
     7
370
     9
100
AcDbLine
 10
1904.827891428766
 20
2083.927605513356
 30
0.0
 11
1904.827891428766
 21
3043.927605513357
 31
0.0
  0
MTEXT
  5
87
330
1F
100
AcDbEntity
  8
0-A_文字
  6
Continuous
 62
     7
370
     9
100
AcDbMText
 10
1999.827891428767
 20
1214.116176941928
 30
0.0
 40
78.37714285714286
 41
720.0
 46
0.0
 71
     7
 72
     1
  1
{\fＭＳ ゴシック|b0|i0|c128|p49;②竪勝ち／横用}
 73
     1
 44
1.0
  0
MTEXT
  5
88
330
1F
100
AcDbEntity
  8
0-A_文字
  6
Continuous
 62
     7
370
     9
100
AcDbMText
 10
1999.827891428767
 20
1391.909210031066
 30
0.0
 40
78.37714285714286
 41
720.0
 46
0.0
 71
     7
 72
     1
  1
{\fＭＳ ゴシック|b0|i0|c128|p49;①竪勝ち／竪用}
 73
     1
 44
1.0
  0
LINE
  5
89
330
1F
100
AcDbEntity
  8
0-A_文字
  6
Continuous
 62
     7
370
     9
100
AcDbLine
 10
1904.827891428766
 20
1903.927605513356
 30
0.0
 11
1904.827891428766
 21
1174.927605513356
 31
0.0
  0
MTEXT
  5
8A
330
1F
100
AcDbEntity
  8
0-A_文字
  6
Continuous
 62
     7
370
     9
100
AcDbMText
 10
2209.827891428766
 20
1762.027605513356
 30
0.0
 40
76.19999999999999
 41
300.0
 46
0.0
 71
     7
 72
     1
  1
{\fＭＳ ゴシック|b0|i0|c128|p49;型記号}
 73
     1
 44
1.0
  0
MTEXT
  5
8B
330
1F
100
AcDbEntity
  8
0-A_文字
  6
Continuous
 62
     7
370
     9
100
AcDbMText
 10
2157.327891428766
 20
1582.503855513356
 30
0.0
 40
77.15249999999999
 41
405.0
 46
0.0
 71
     7
 72
     1
  1
{\fＭＳ ゴシック|b0|i0|c128|p49;対応壁厚}
 73
     1
 44
1.0
  0
LINE
  5
8C
330
1F
100
AcDbEntity
  8
0-A_文字
  6
Continuous
 62
     7
370
     9
100
AcDbLine
 10
5410.627891428768
 20
3043.927605513357
 30
0.0
 11
5410.627891428768
 21
2083.927605513356
 31
0.0
  0
LINE
  5
8D
330
1F
100
AcDbEntity
  8
0-A_文字
  6
Continuous
 62
     7
370
     9
100
AcDbLine
 10
1904.827891428766
 20
2683.927605513357
 30
0.0
 11
5410.627891428768
 21
2683.927605513357
 31
0.0
  0
LINE
  5
8E
330
1F
100
AcDbEntity
  8
0-A_文字
  6
Continuous
 62
     7
370
     9
100
AcDbLine
 10
5410.627891428768
 20
3043.927605513357
 30
0.0
 11
1904.827891428766
 21
3043.927605513357
 31
0.0
  0
LINE
  5
8F
330
1F
100
AcDbEntity
  8
0-A_文字
  6
Continuous
 62
     7
370
     9
100
AcDbLine
 10
5410.627891428768
 20
2863.927605513357
 30
0.0
 11
1904.827891428766
 21
2863.927605513357
 31
0.0
  0
LINE
  5
90
330
1F
100
AcDbEntity
  8
0-A_文字
  6
Continuous
 62
     7
370
     9
100
AcDbLine
 10
1904.827891428766
 20
2083.927605513356
 30
0.0
 11
5410.627891428768
 21
2083.927605513356
 31
0.0
  0
LINE
  5
91
330
1F
100
AcDbEntity
  8
0-0_補助線
  6
JWW_HOJO
 62
   120
370
     5
100
AcDbLine
 10
1904.827891428766
 20
2489.179569759258
 30
0.0
 11
5410.627891428768
 21
2489.179569759258
 31
0.0
  0
LINE
  5
92
330
1F
100
AcDbEntity
  8
0-0_補助線
  6
JWW_HOJO
 62
   120
370
     5
100
AcDbLine
 10
1904.827891428766
 20
2436.379569759258
 30
0.0
 11
5410.627891428768
 21
2436.379569759258
 31
0.0
  0
LINE
  5
93
330
1F
100
AcDbEntity
  8
0-A_文字
  6
Continuous
 62
     7
370
     9
100
AcDbLine
 10
2781.277891428766
 20
2083.927605513356
 30
0.0
 11
2781.277891428766
 21
2863.927605513357
 31
0.0
  0
LINE
  5
94
330
1F
100
AcDbEntity
  8
0-A_文字
  6
Continuous
 62
     7
370
     9
100
AcDbLine
 10
4534.177891428766
 20
2083.927605513356
 30
0.0
 11
4534.177891428766
 21
2863.927605513357
 31
0.0
  0
LINE
  5
95
330
1F
100
AcDbEntity
  8
0-A_文字
  6
Continuous
 62
     7
370
     9
100
AcDbLine
 10
3657.727891428767
 20
2083.927605513356
 30
0.0
 11
3657.727891428767
 21
3043.927605513357
 31
0.0
  0
MTEXT
  5
96
330
1F
100
AcDbEntity
  8
0-A_文字
  6
Continuous
 62
     7
370
     9
100
AcDbMText
 10
2118.052891428766
 20
2727.502605513357
 30
0.0
 40
57.15
 41
450.0
 46
0.0
 71
     7
 72
     1
  1
{\fＭＳ ゴシック|b0|i0|c128|p49;竪勝ち／竪用}
 73
     1
 44
1.0
  0
MTEXT
  5
97
330
1F
100
AcDbEntity
  8
0-A_文字
  6
Continuous
 62
     7
370
     9
100
AcDbMText
 10
2994.502891428766
 20
2727.502605513357
 30
0.0
 40
57.15
 41
450.0
 46
0.0
 71
     7
 72
     1
  1
{\fＭＳ ゴシック|b0|i0|c128|p49;竪勝ち／横用}
 73
     1
 44
1.0
  0
MTEXT
  5
98
330
1F
100
AcDbEntity
  8
0-A_文字
  6
Continuous
 62
     7
370
     9
100
AcDbMText
 10
3870.952891428766
 20
2727.502605513357
 30
0.0
 40
57.15
 41
450.0
 46
0.0
 71
     7
 72
     1
  1
{\fＭＳ ゴシック|b0|i0|c128|p49;竪勝ち／竪用}
 73
     1
 44
1.0
  0
MTEXT
  5
99
330
1F
100
AcDbEntity
  8
0-A_文字
  6
Continuous
 62
     7
370
     9
100
AcDbMText
 10
4747.402891428766
 20
2727.502605513357
 30
0.0
 40
57.15
 41
450.0
 46
0.0
 71
     7
 72
     1
  1
{\fＭＳ ゴシック|b0|i0|c128|p49;竪勝ち／横用}
 73
     1
 44
1.0
  0
MTEXT
  5
9A
330
1F
100
AcDbEntity
  8
0-A_文字
  6
Continuous
 62
     7
370
     9
100
AcDbMText
 10
4309.177891428768
 20
2898.217605513357
 30
0.0
 40
68.58
 41
450.0
 46
0.0
 71
     7
 72
     1
  1
{\fＭＳ ゴシック|b0|i0|c128|p49;ＫＲ型・・}
 73
     1
 44
1.0
  0
LINE
  5
9B
330
1F
100
AcDbEntity
  8
0-0_補助線
  6
JWW_HOJO
 62
   120
370
     5
100
AcDbLine
 10
5020.402891428767
 20
2091.791758398055
 30
0.0
 11
5020.402891428767
 21
2683.927605513357
 31
0.0
  0
LINE
  5
9C
330
1F
100
AcDbEntity
  8
0-0_補助線
  6
JWW_HOJO
 62
   120
370
     5
100
AcDbLine
 10
4972.402891428766
 20
2091.791758398055
 30
0.0
 11
4972.402891428766
 21
2683.927605513357
 31
0.0
  0
LINE
  5
9D
330
1F
100
AcDbEntity
  8
0-5_ケーシング
  6
Continuous
 62
    92
370
    13
100
AcDbLine
 10
4972.402891428766
 20
2436.379569759258
 30
0.0
 11
4972.402891428766
 21
2279.179569759258
 31
0.0
  0
LINE
  5
9E
330
1F
100
AcDbEntity
  8
0-5_ケーシング
  6
Continuous
 62
    92
370
    13
100
AcDbLine
 10
4924.402891428766
 20
2489.179569759259
 30
0.0
 11
4924.402891428766
 21
2436.379569759258
 31
0.0
  0
LINE
  5
9F
330
1F
100
AcDbEntity
  8
0-5_ケーシング
  6
Continuous
 62
    92
370
    13
100
AcDbLine
 10
4924.402891428766
 20
2436.379569759258
 30
0.0
 11
4972.402891428766
 21
2436.379569759258
 31
0.0
  0
LINE
  5
A0
330
1F
100
AcDbEntity
  8
0-5_ケーシング
  6
Continuous
 62
    92
370
    13
100
AcDbLine
 10
5017.402891428768
 20
2282.179569759257
 30
0.0
 11
4972.402891428766
 21
2282.179569759257
 31
0.0
  0
LINE
  5
A1
330
1F
100
AcDbEntity
  8
0-5_ケーシング
  6
Continuous
 62
    92
370
    13
100
AcDbLine
 10
5020.402891428767
 20
2279.179569759258
 30
0.0
 11
4972.402891428766
 21
2279.179569759258
 31
0.0
  0
LINE
  5
A2
330
1F
100
AcDbEntity
  8
0-5_ケーシング
  6
Continuous
 62
    92
370
    13
100
AcDbLine
 10
4924.402891428766
 20
2486.17956975926
 30
0.0
 11
5010.674969367409
 21
2486.17956975926
 31
0.0
  0
LINE
  5
A3
330
1F
100
AcDbEntity
  8
0-5_ケーシング
  6
Continuous
 62
    92
370
    13
100
AcDbLine
 10
4924.402891428766
 20
2489.179569759259
 30
0.0
 11
5011.917610054528
 21
2489.179569759259
 31
0.0
  0
LINE
  5
A4
330
1F
100
AcDbEntity
  8
0-5_ケーシング
  6
Continuous
 62
    92
370
    13
100
AcDbLine
 10
5020.402891428767
 20
2480.69428838502
 30
0.0
 11
5011.917610054528
 21
2489.179569759259
 31
0.0
  0
LINE
  5
A5
330
1F
100
AcDbEntity
  8
0-5_ケーシング
  6
Continuous
 62
    92
370
    13
100
AcDbLine
 10
5017.402891428768
 20
2282.179569759257
 30
0.0
 11
5017.402891428768
 21
2479.451647697901
 31
0.0
  0
LINE
  5
A6
330
1F
100
AcDbEntity
  8
0-5_ケーシング
  6
Continuous
 62
    92
370
    13
100
AcDbLine
 10
5010.674969367409
 20
2486.17956975926
 30
0.0
 11
5017.402891428768
 21
2479.451647697901
 31
0.0
  0
LINE
  5
A7
330
1F
100
AcDbEntity
  8
0-5_ケーシング
  6
Continuous
 62
    92
370
    13
100
AcDbLine
 10
5020.402891428767
 20
2480.69428838502
 30
0.0
 11
5020.402891428767
 21
2279.179569759258
 31
0.0
  0
LINE
  5
A8
330
1F
100
AcDbEntity
  8
0-B_寸法
  6
Continuous
 62
   120
370
     5
100
AcDbLine
 10
5064.503022094757
 20
2549.119898065698
 30
0.0
 11
5164.418425533607
 21
2549.119898065698
 31
0.0
  0
LINE
  5
A9
330
1F
100
AcDbEntity
  8
0-B_寸法
  6
Continuous
 62
   120
370
     5
100
AcDbLine
 10
5021.564171030129
 20
2492.969092827338
 30
0.0
 11
5064.503022094757
 21
2549.119898065698
 31
0.0
  0
LINE
  5
AA
330
1F
100
AcDbEntity
  8
0-B_寸法
  6
Continuous
 62
   120
370
     5
100
AcDbLine
 10
5028.995895252852
 20
2510.309782680361
 30
0.0
 11
5021.564171030129
 21
2492.969092827338
 31
0.0
  0
LINE
  5
AB
330
1F
100
AcDbEntity
  8
0-B_寸法
  6
Continuous
 62
   120
370
     5
100
AcDbLine
 10
4924.402891428766
 20
2578.675641267454
 30
0.0
 11
5020.402891428767
 21
2578.675641267454
 31
0.0
  0
LINE
  5
AC
330
1F
100
AcDbEntity
  8
0-B_寸法
  6
Continuous
 62
   120
370
     5
100
AcDbLine
 10
4924.402891428766
 20
2578.675641267454
 30
0.0
 11
4924.402891428766
 21
2528.67724282205
 31
0.0
  0
LINE
  5
AD
330
1F
100
AcDbEntity
  8
0-B_寸法
  6
Continuous
 62
   120
370
     5
100
AcDbLine
 10
5020.402891428767
 20
2578.675641267454
 30
0.0
 11
5020.402891428767
 21
2528.67724282205
 31
0.0
  0
LINE
  5
AE
330
1F
100
AcDbEntity
  8
0-B_寸法
  6
Continuous
 62
   120
370
     5
100
AcDbLine
 10
5110.402891428767
 20
2279.179569759258
 30
0.0
 11
5110.402891428767
 21
2489.179569759259
 31
0.0
  0
LINE
  5
AF
330
1F
100
AcDbEntity
  8
0-B_寸法
  6
Continuous
 62
   120
370
     5
100
AcDbLine
 10
5110.402891428767
 20
2279.179569759258
 30
0.0
 11
5050.402891428767
 21
2279.179569759258
 31
0.0
  0
LINE
  5
B0
330
1F
100
AcDbEntity
  8
0-B_寸法
  6
Continuous
 62
   120
370
     5
100
AcDbLine
 10
5110.402891428767
 20
2489.179569759259
 30
0.0
 11
5050.402891428767
 21
2489.179569759259
 31
0.0
  0
LINE
  5
B1
330
1F
100
AcDbEntity
  8
0-B_寸法
  6
Continuous
 62
   120
370
     5
100
AcDbLine
 10
4972.402891428766
 20
2189.179569759258
 30
0.0
 11
5020.402891428767
 21
2189.179569759258
 31
0.0
  0
LINE
  5
B2
330
1F
100
AcDbEntity
  8
0-B_寸法
  6
Continuous
 62
   120
370
     5
100
AcDbLine
 10
4972.402891428766
 20
2189.179569759258
 30
0.0
 11
4972.402891428766
 21
2249.179569759258
 31
0.0
  0
LINE
  5
B3
330
1F
100
AcDbEntity
  8
0-B_寸法
  6
Continuous
 62
   120
370
     5
100
AcDbLine
 10
5020.402891428767
 20
2189.179569759258
 30
0.0
 11
5020.402891428767
 21
2249.179569759258
 31
0.0
  0
LWPOLYLINE
  5
B4
330
1F
100
AcDbEntity
  8
0-B_寸法
  6
Continuous
 62
     7
370
     9
100
AcDbPolyline
 90
        4
 70
     1
 43
3.0
 10
4925.902891428766
 20
2578.675641267454
 42
0.4142135623731
 10
4924.402891428766
 20
2580.175641267454
 42
0.4142135623731
 10
4922.902891428766
 20
2578.675641267454
 42
0.4142135623731
 10
4924.402891428766
 20
2577.175641267455
 42
0.4142135623731
  0
LWPOLYLINE
  5
B5
330
1F
100
AcDbEntity
  8
0-B_寸法
  6
Continuous
 62
     7
370
     9
100
AcDbPolyline
 90
        4
 70
     1
 43
3.0
 10
5021.902891428768
 20
2578.675641267454
 42
0.4142135623731
 10
5020.402891428767
 20
2580.175641267454
 42
0.4142135623731
 10
5018.902891428767
 20
2578.675641267454
 42
0.4142135623731
 10
5020.402891428767
 20
2577.175641267455
 42
0.4142135623731
  0
LWPOLYLINE
  5
B6
330
1F
100
AcDbEntity
  8
0-B_寸法
  6
Continuous
 62
     7
370
     9
100
AcDbPolyline
 90
        4
 70
     1
 43
3.0
 10
5111.902891428768
 20
2279.179569759258
 42
0.4142135623731
 10
5110.402891428767
 20
2280.679569759258
 42
0.4142135623731
 10
5108.902891428767
 20
2279.179569759258
 42
0.4142135623731
 10
5110.402891428767
 20
2277.679569759258
 42
0.4142135623731
  0
LWPOLYLINE
  5
B7
330
1F
100
AcDbEntity
  8
0-B_寸法
  6
Continuous
 62
     7
370
     9
100
AcDbPolyline
 90
        4
 70
     1
 43
3.0
 10
5111.902891428768
 20
2489.179569759259
 42
0.4142135623731
 10
5110.402891428767
 20
2490.679569759259
 42
0.4142135623731
 10
5108.902891428767
 20
2489.179569759259
 42
0.4142135623731
 10
5110.402891428767
 20
2487.679569759259
 42
0.4142135623731
  0
LWPOLYLINE
  5
B8
330
1F
100
AcDbEntity
  8
0-B_寸法
  6
Continuous
 62
     7
370
     9
100
AcDbPolyline
 90
        4
 70
     1
 43
3.0
 10
4973.902891428767
 20
2189.179569759258
 42
0.4142135623731
 10
4972.402891428766
 20
2190.679569759258
 42
0.4142135623731
 10
4970.902891428766
 20
2189.179569759258
 42
0.4142135623731
 10
4972.402891428766
 20
2187.679569759258
 42
0.4142135623731
  0
LWPOLYLINE
  5
B9
330
1F
100
AcDbEntity
  8
0-B_寸法
  6
Continuous
 62
     7
370
     9
100
AcDbPolyline
 90
        4
 70
     1
 43
3.0
 10
5021.902891428768
 20
2189.179569759258
 42
0.4142135623731
 10
5020.402891428767
 20
2190.679569759258
 42
0.4142135623731
 10
5018.902891428767
 20
2189.179569759258
 42
0.4142135623731
 10
5020.402891428767
 20
2187.679569759258
 42
0.4142135623731
  0
MTEXT
  5
BA
330
1F
100
AcDbEntity
  8
0-B_寸法
  6
Continuous
 62
     7
370
   211
100
AcDbMText
 10
5191.402891428767
 20
2333.142679401338
 30
0.0
 40
57.15000000000065
 41
75.00000000000085
 46
0.0
 71
     7
 72
     1
  1
{\fＭＳ ゴシック|b0|i0|c128|p49;35}
 11
6.123031769111886E-17
 21
1.0
 31
0.0
 73
     1
 44
1.0
  0
MTEXT
  5
BB
330
1F
100
AcDbEntity
  8
0-B_寸法
  6
Continuous
 62
     7
370
   211
100
AcDbMText
 10
4977.652891428767
 20
2099.254569759259
 30
0.0
 40
57.15
 41
37.5
 46
0.0
 71
     7
 72
     1
  1
{\fＭＳ ゴシック|b0|i0|c128|p49;8}
 73
     1
 44
1.0
  0
MTEXT
  5
BC
330
1F
100
AcDbEntity
  8
0-B_寸法
  6
Continuous
 62
     7
370
     9
100
AcDbMText
 10
5076.063481996773
 20
2546.194898065698
 30
0.0
 40
57.15
 41
75.0
 46
0.0
 71
     7
 72
     1
  1
{\fＭＳ ゴシック|b0|i0|c128|p49;C2}
 73
     1
 44
1.0
  0
LINE
  5
BD
330
1F
100
AcDbEntity
  8
0-0_補助線
  6
JWW_HOJO
 62
   120
370
     5
100
AcDbLine
 10
4155.952891292322
 20
2091.791758398055
 30
0.0
 11
4155.952891292322
 21
2683.927605513357
 31
0.0
  0
LINE
  5
BE
330
1F
100
AcDbEntity
  8
0-0_補助線
  6
JWW_HOJO
 62
   120
370
     5
100
AcDbLine
 10
4083.95289129232
 20
2091.791758398055
 30
0.0
 11
4083.95289129232
 21
2683.927605513357
 31
0.0
  0
LINE
  5
BF
330
1F
100
AcDbEntity
  8
0-5_ケーシング
  6
Continuous
 62
    92
370
    13
100
AcDbLine
 10
4035.952891428766
 20
2489.179569759259
 30
0.0
 11
4035.952891428766
 21
2436.379569759258
 31
0.0
  0
LINE
  5
C0
330
1F
100
AcDbEntity
  8
0-5_ケーシング
  6
Continuous
 62
    92
370
    13
100
AcDbLine
 10
4035.952891428766
 20
2436.379569759258
 30
0.0
 11
4083.952891428765
 21
2436.379569759258
 31
0.0
  0
LINE
  5
C1
330
1F
100
AcDbEntity
  8
0-5_ケーシング
  6
Continuous
 62
    92
370
    13
100
AcDbLine
 10
4083.952891428765
 20
2436.379569759258
 30
0.0
 11
4083.952891428765
 21
2279.179569759258
 31
0.0
  0
LINE
  5
C2
330
1F
100
AcDbEntity
  8
0-5_ケーシング
  6
Continuous
 62
    92
370
    13
100
AcDbLine
 10
4083.952891428765
 20
2282.179569759257
 30
0.0
 11
4152.952891428766
 21
2282.179569759257
 31
0.0
  0
LINE
  5
C3
330
1F
100
AcDbEntity
  8
0-5_ケーシング
  6
Continuous
 62
    92
370
    13
100
AcDbLine
 10
4083.952891428765
 20
2279.179569759258
 30
0.0
 11
4155.952891428766
 21
2279.179569759258
 31
0.0
  0
LINE
  5
C4
330
1F
100
AcDbEntity
  8
0-5_ケーシング
  6
Continuous
 62
    92
370
    13
100
AcDbLine
 10
4035.952891428766
 20
2486.17956975926
 30
0.0
 11
4133.497047306049
 21
2486.17956975926
 31
0.0
  0
LINE
  5
C5
330
1F
100
AcDbEntity
  8
0-5_ケーシング
  6
Continuous
 62
    92
370
    13
100
AcDbLine
 10
4035.952891428766
 20
2489.179569759259
 30
0.0
 11
4134.739687993169
 21
2489.179569759259
 31
0.0
  0
LINE
  5
C6
330
1F
100
AcDbEntity
  8
0-5_ケーシング
  6
Continuous
 62
    92
370
    13
100
AcDbLine
 10
4152.952891428766
 20
2282.179569759257
 30
0.0
 11
4152.952891428766
 21
2466.723725636543
 31
0.0
  0
LINE
  5
C7
330
1F
100
AcDbEntity
  8
0-5_ケーシング
  6
Continuous
 62
    92
370
    13
100
AcDbLine
 10
4133.497047306049
 20
2486.17956975926
 30
0.0
 11
4152.952891428766
 21
2466.723725636543
 31
0.0
  0
LINE
  5
C8
330
1F
100
AcDbEntity
  8
0-5_ケーシング
  6
Continuous
 62
    92
370
    13
100
AcDbLine
 10
4155.952891428766
 20
2279.179569759258
 30
0.0
 11
4155.952891428766
 21
2467.966366323663
 31
0.0
  0
LINE
  5
C9
330
1F
100
AcDbEntity
  8
0-5_ケーシング
  6
Continuous
 62
    92
370
    13
100
AcDbLine
 10
4134.739687993169
 20
2489.179569759259
 30
0.0
 11
4155.952891428766
 21
2467.966366323663
 31
0.0
  0
LINE
  5
CA
330
1F
100
AcDbEntity
  8
0-B_寸法
  6
Continuous
 62
   120
370
     5
100
AcDbLine
 10
4155.952891428766
 20
2278.850547498845
 30
0.0
 11
4083.952891428765
 21
2278.850547498845
 31
0.0
  0
LINE
  5
CB
330
1F
100
AcDbEntity
  8
0-B_寸法
  6
Continuous
 62
   120
370
     5
100
AcDbLine
 10
4204.121482180521
 20
2549.160181329275
 30
0.0
 11
4304.036885619369
 21
2549.160181329275
 31
0.0
  0
LINE
  5
CC
330
1F
100
AcDbEntity
  8
0-B_寸法
  6
Continuous
 62
   120
370
     5
100
AcDbLine
 10
4161.182631115893
 20
2493.009376090913
 30
0.0
 11
4204.121482180521
 21
2549.160181329275
 31
0.0
  0
LINE
  5
CD
330
1F
100
AcDbEntity
  8
0-B_寸法
  6
Continuous
 62
   120
370
     5
100
AcDbLine
 10
4168.614355338615
 20
2510.350065943936
 30
0.0
 11
4161.182631115893
 21
2493.009376090913
 31
0.0
  0
LINE
  5
CE
330
1F
100
AcDbEntity
  8
0-B_寸法
  6
Continuous
 62
   120
370
     5
100
AcDbLine
 10
4035.952891428766
 20
2578.715924531032
 30
0.0
 11
4155.952891428766
 21
2578.715924531032
 31
0.0
  0
LINE
  5
CF
330
1F
100
AcDbEntity
  8
0-B_寸法
  6
Continuous
 62
   120
370
     5
100
AcDbLine
 10
4035.952891428766
 20
2578.715924531032
 30
0.0
 11
4035.952891428766
 21
2528.717526085626
 31
0.0
  0
LINE
  5
D0
330
1F
100
AcDbEntity
  8
0-B_寸法
  6
Continuous
 62
   120
370
     5
100
AcDbLine
 10
4155.952891428766
 20
2578.715924531032
 30
0.0
 11
4155.952891428766
 21
2528.717526085626
 31
0.0
  0
LINE
  5
D1
330
1F
100
AcDbEntity
  8
0-B_寸法
  6
Continuous
 62
   120
370
     5
100
AcDbLine
 10
4242.952891428766
 20
2278.850547498845
 30
0.0
 11
4242.952891428766
 21
2488.850547498846
 31
0.0
  0
LINE
  5
D2
330
1F
100
AcDbEntity
  8
0-B_寸法
  6
Continuous
 62
   120
370
     5
100
AcDbLine
 10
4242.952891428766
 20
2278.850547498845
 30
0.0
 11
4182.952891428766
 21
2278.850547498845
 31
0.0
  0
LINE
  5
D3
330
1F
100
AcDbEntity
  8
0-B_寸法
  6
Continuous
 62
   120
370
     5
100
AcDbLine
 10
4242.952891428766
 20
2488.850547498846
 30
0.0
 11
4182.952891428766
 21
2488.850547498846
 31
0.0
  0
LINE
  5
D4
330
1F
100
AcDbEntity
  8
0-B_寸法
  6
Continuous
 62
   120
370
     5
100
AcDbLine
 10
4083.952891428765
 20
2189.179569759258
 30
0.0
 11
4155.952891428766
 21
2189.179569759258
 31
0.0
  0
LINE
  5
D5
330
1F
100
AcDbEntity
  8
0-B_寸法
  6
Continuous
 62
   120
370
     5
100
AcDbLine
 10
4083.952891428765
 20
2189.179569759258
 30
0.0
 11
4083.952891428765
 21
2249.179569759258
 31
0.0
  0
LINE
  5
D6
330
1F
100
AcDbEntity
  8
0-B_寸法
  6
Continuous
 62
   120
370
     5
100
AcDbLine
 10
4155.952891428766
 20
2189.179569759258
 30
0.0
 11
4155.952891428766
 21
2249.179569759258
 31
0.0
  0
LWPOLYLINE
  5
D7
330
1F
100
AcDbEntity
  8
0-B_寸法
  6
Continuous
 62
     7
370
     9
100
AcDbPolyline
 90
        4
 70
     1
 43
3.0
 10
4037.452891428766
 20
2578.715924531032
 42
0.4142135623731
 10
4035.952891428766
 20
2580.215924531032
 42
0.4142135623731
 10
4034.452891428766
 20
2578.715924531032
 42
0.4142135623731
 10
4035.952891428766
 20
2577.215924531032
 42
0.4142135623731
  0
LWPOLYLINE
  5
D8
330
1F
100
AcDbEntity
  8
0-B_寸法
  6
Continuous
 62
     7
370
     9
100
AcDbPolyline
 90
        4
 70
     1
 43
3.0
 10
4157.452891428767
 20
2578.715924531032
 42
0.4142135623731
 10
4155.952891428766
 20
2580.215924531032
 42
0.4142135623731
 10
4154.452891428766
 20
2578.715924531032
 42
0.4142135623731
 10
4155.952891428766
 20
2577.215924531032
 42
0.4142135623731
  0
LWPOLYLINE
  5
D9
330
1F
100
AcDbEntity
  8
0-B_寸法
  6
Continuous
 62
     7
370
     9
100
AcDbPolyline
 90
        4
 70
     1
 43
3.0
 10
4244.452891428766
 20
2278.850547498845
 42
0.4142135623731
 10
4242.952891428766
 20
2280.350547498845
 42
0.4142135623731
 10
4241.452891428765
 20
2278.850547498845
 42
0.4142135623731
 10
4242.952891428766
 20
2277.350547498845
 42
0.4142135623731
  0
LWPOLYLINE
  5
DA
330
1F
100
AcDbEntity
  8
0-B_寸法
  6
Continuous
 62
     7
370
     9
100
AcDbPolyline
 90
        4
 70
     1
 43
3.0
 10
4244.452891428766
 20
2488.850547498846
 42
0.4142135623731
 10
4242.952891428766
 20
2490.350547498846
 42
0.4142135623731
 10
4241.452891428765
 20
2488.850547498846
 42
0.4142135623731
 10
4242.952891428766
 20
2487.350547498846
 42
0.4142135623731
  0
LWPOLYLINE
  5
DB
330
1F
100
AcDbEntity
  8
0-B_寸法
  6
Continuous
 62
     7
370
     9
100
AcDbPolyline
 90
        4
 70
     1
 43
3.0
 10
4085.452891428765
 20
2189.179569759258
 42
0.4142135623731
 10
4083.952891428765
 20
2190.679569759258
 42
0.4142135623731
 10
4082.452891428765
 20
2189.179569759258
 42
0.4142135623731
 10
4083.952891428765
 20
2187.679569759258
 42
0.4142135623731
  0
LWPOLYLINE
  5
DC
330
1F
100
AcDbEntity
  8
0-B_寸法
  6
Continuous
 62
     7
370
     9
100
AcDbPolyline
 90
        4
 70
     1
 43
3.0
 10
4157.452891428767
 20
2189.179569759258
 42
0.4142135623731
 10
4155.952891428766
 20
2190.679569759258
 42
0.4142135623731
 10
4154.452891428766
 20
2189.179569759258
 42
0.4142135623731
 10
4155.952891428766
 20
2187.679569759258
 42
0.4142135623731
  0
MTEXT
  5
DD
330
1F
100
AcDbEntity
  8
0-B_寸法
  6
Continuous
 62
     7
370
   211
100
AcDbMText
 10
4323.952891428767
 20
2332.813657140926
 30
0.0
 40
57.15000000000065
 41
75.00000000000085
 46
0.0
 71
     7
 72
     1
  1
{\fＭＳ ゴシック|b0|i0|c128|p49;35}
 11
6.123031769111886E-17
 21
1.0
 31
0.0
 73
     1
 44
1.0
  0
MTEXT
  5
DE
330
1F
100
AcDbEntity
  8
0-B_寸法
  6
Continuous
 62
     7
370
   211
100
AcDbMText
 10
4082.452891428766
 20
2099.254569759259
 30
0.0
 40
57.15
 41
75.0
 46
0.0
 71
     7
 72
     1
  1
{\fＭＳ ゴシック|b0|i0|c128|p49;12}
 73
     1
 44
1.0
  0
MTEXT
  5
DF
330
1F
100
AcDbEntity
  8
0-B_寸法
  6
Continuous
 62
     7
370
     9
100
AcDbMText
 10
4215.681942082537
 20
2546.235181329274
 30
0.0
 40
57.15
 41
75.0
 46
0.0
 71
     7
 72
     1
  1
{\fＭＳ ゴシック|b0|i0|c128|p49;C5}
 73
     1
 44
1.0
  0
LINE
  5
E0
330
1F
100
AcDbEntity
  8
0-0_補助線
  6
JWW_HOJO
 62
   120
370
     5
100
AcDbLine
 10
3243.502891428766
 20
2091.791758398055
 30
0.0
 11
3243.502891428766
 21
2683.927605513357
 31
0.0
  0
LINE
  5
E1
330
1F
100
AcDbEntity
  8
0-0_補助線
  6
JWW_HOJO
 62
   120
370
     5
100
AcDbLine
 10
3195.502891428766
 20
2091.791758398055
 30
0.0
 11
3195.502891428766
 21
2683.927605513357
 31
0.0
  0
LINE
  5
E2
330
1F
100
AcDbEntity
  8
0-5_ケーシング
  6
Continuous
 62
    92
370
    13
100
AcDbLine
 10
3195.502891640916
 20
2436.379569759258
 30
0.0
 11
3195.502891640916
 21
2345.179569759258
 31
0.0
  0
LINE
  5
E3
330
1F
100
AcDbEntity
  8
0-5_ケーシング
  6
Continuous
 62
    92
370
    13
100
AcDbLine
 10
3045.502891640916
 20
2489.179569759259
 30
0.0
 11
3045.502891640916
 21
2436.379569759258
 31
0.0
  0
LINE
  5
E4
330
1F
100
AcDbEntity
  8
0-5_ケーシング
  6
Continuous
 62
    92
370
    13
100
AcDbLine
 10
3045.502891640916
 20
2436.379569759258
 30
0.0
 11
3195.502891640916
 21
2436.379569759258
 31
0.0
  0
LINE
  5
E5
330
1F
100
AcDbEntity
  8
0-5_ケーシング
  6
Continuous
 62
    92
370
    13
100
AcDbLine
 10
3240.502891640916
 20
2348.179569759258
 30
0.0
 11
3195.502891640916
 21
2348.179569759258
 31
0.0
  0
LINE
  5
E6
330
1F
100
AcDbEntity
  8
0-5_ケーシング
  6
Continuous
 62
    92
370
    13
100
AcDbLine
 10
3195.502891640916
 20
2345.179569759258
 30
0.0
 11
3243.502891640915
 21
2345.179569759258
 31
0.0
  0
LINE
  5
E7
330
1F
100
AcDbEntity
  8
0-5_ケーシング
  6
Continuous
 62
    92
370
    13
100
AcDbLine
 10
3045.502891640916
 20
2486.17956975926
 30
0.0
 11
3233.774969579556
 21
2486.17956975926
 31
0.0
  0
LINE
  5
E8
330
1F
100
AcDbEntity
  8
0-5_ケーシング
  6
Continuous
 62
    92
370
    13
100
AcDbLine
 10
3045.502891640916
 20
2489.179569759259
 30
0.0
 11
3235.017610266676
 21
2489.179569759259
 31
0.0
  0
LINE
  5
E9
330
1F
100
AcDbEntity
  8
0-5_ケーシング
  6
Continuous
 62
    92
370
    13
100
AcDbLine
 10
3243.502891640915
 20
2480.69428838502
 30
0.0
 11
3235.017610266676
 21
2489.179569759259
 31
0.0
  0
LINE
  5
EA
330
1F
100
AcDbEntity
  8
0-5_ケーシング
  6
Continuous
 62
    92
370
    13
100
AcDbLine
 10
3240.502891640916
 20
2348.179569759258
 30
0.0
 11
3240.502891640916
 21
2479.451647697901
 31
0.0
  0
LINE
  5
EB
330
1F
100
AcDbEntity
  8
0-5_ケーシング
  6
Continuous
 62
    92
370
    13
100
AcDbLine
 10
3233.774969579556
 20
2486.17956975926
 30
0.0
 11
3240.502891640916
 21
2479.451647697901
 31
0.0
  0
LINE
  5
EC
330
1F
100
AcDbEntity
  8
0-5_ケーシング
  6
Continuous
 62
    92
370
    13
100
AcDbLine
 10
3243.502891640915
 20
2480.69428838502
 30
0.0
 11
3243.502891640915
 21
2345.179569759258
 31
0.0
  0
LINE
  5
ED
330
1F
100
AcDbEntity
  8
0-B_寸法
  6
Continuous
 62
   120
370
     5
100
AcDbLine
 10
3250.797020940117
 20
2505.104546456595
 30
0.0
 11
3243.365296717393
 21
2487.763856603571
 31
0.0
  0
LINE
  5
EE
330
1F
100
AcDbEntity
  8
0-B_寸法
  6
Continuous
 62
   120
370
     5
100
AcDbLine
 10
3243.365296717393
 20
2487.763856603571
 30
0.0
 11
3286.304147782021
 21
2543.914661841931
 31
0.0
  0
LINE
  5
EF
330
1F
100
AcDbEntity
  8
0-B_寸法
  6
Continuous
 62
   120
370
     5
100
AcDbLine
 10
3286.304147782021
 20
2543.914661841931
 30
0.0
 11
3386.21955122087
 21
2543.914661841931
 31
0.0
  0
LINE
  5
F0
330
1F
100
AcDbEntity
  8
0-B_寸法
  6
Continuous
 62
   120
370
     5
100
AcDbLine
 10
3195.502891428766
 20
2255.179569759258
 30
0.0
 11
3243.502891428765
 21
2255.179569759258
 31
0.0
  0
LINE
  5
F1
330
1F
100
AcDbEntity
  8
0-B_寸法
  6
Continuous
 62
   120
370
     5
100
AcDbLine
 10
3195.502891428766
 20
2255.179569759258
 30
0.0
 11
3195.502891428766
 21
2315.179569759258
 31
0.0
  0
LINE
  5
F2
330
1F
100
AcDbEntity
  8
0-B_寸法
  6
Continuous
 62
   120
370
     5
100
AcDbLine
 10
3243.502891428765
 20
2255.179569759258
 30
0.0
 11
3243.502891428765
 21
2315.179569759258
 31
0.0
  0
LINE
  5
F3
330
1F
100
AcDbEntity
  8
0-B_寸法
  6
Continuous
 62
   120
370
     5
100
AcDbLine
 10
3045.502891640916
 20
2576.983622251569
 30
0.0
 11
3243.502891640915
 21
2576.983622251569
 31
0.0
  0
LINE
  5
F4
330
1F
100
AcDbEntity
  8
0-B_寸法
  6
Continuous
 62
   120
370
     5
100
AcDbLine
 10
3045.502891640916
 20
2576.983622251569
 30
0.0
 11
3045.502891640916
 21
2519.179569759259
 31
0.0
  0
LINE
  5
F5
330
1F
100
AcDbEntity
  8
0-B_寸法
  6
Continuous
 62
   120
370
     5
100
AcDbLine
 10
3243.502891640915
 20
2576.983622251569
 30
0.0
 11
3243.502891640915
 21
2519.179569759259
 31
0.0
  0
LINE
  5
F6
330
1F
100
AcDbEntity
  8
0-B_寸法
  6
Continuous
 62
   120
370
     5
100
AcDbLine
 10
3333.502891640915
 20
2344.769384239187
 30
0.0
 11
3333.502891640915
 21
2488.769384239188
 31
0.0
  0
LINE
  5
F7
330
1F
100
AcDbEntity
  8
0-B_寸法
  6
Continuous
 62
   120
370
     5
100
AcDbLine
 10
3333.502891640915
 20
2344.769384239187
 30
0.0
 11
3273.502891640915
 21
2344.769384239187
 31
0.0
  0
LINE
  5
F8
330
1F
100
AcDbEntity
  8
0-B_寸法
  6
Continuous
 62
   120
370
     5
100
AcDbLine
 10
3333.502891640915
 20
2488.769384239188
 30
0.0
 11
3273.502891640915
 21
2488.769384239188
 31
0.0
  0
LWPOLYLINE
  5
F9
330
1F
100
AcDbEntity
  8
0-B_寸法
  6
Continuous
 62
     7
370
     9
100
AcDbPolyline
 90
        4
 70
     1
 43
3.0
 10
3197.002891428766
 20
2255.179569759258
 42
0.4142135623731
 10
3195.502891428766
 20
2256.679569759258
 42
0.4142135623731
 10
3194.002891428766
 20
2255.179569759258
 42
0.4142135623731
 10
3195.502891428766
 20
2253.679569759258
 42
0.4142135623731
  0
LWPOLYLINE
  5
FA
330
1F
100
AcDbEntity
  8
0-B_寸法
  6
Continuous
 62
     7
370
     9
100
AcDbPolyline
 90
        4
 70
     1
 43
3.0
 10
3245.002891428765
 20
2255.179569759258
 42
0.4142135623731
 10
3243.502891428765
 20
2256.679569759258
 42
0.4142135623731
 10
3242.002891428765
 20
2255.179569759258
 42
0.4142135623731
 10
3243.502891428765
 20
2253.679569759258
 42
0.4142135623731
  0
LWPOLYLINE
  5
FB
330
1F
100
AcDbEntity
  8
0-B_寸法
  6
Continuous
 62
     7
370
     9
100
AcDbPolyline
 90
        4
 70
     1
 43
3.0
 10
3047.002891640915
 20
2576.983622251569
 42
0.4142135623731
 10
3045.502891640916
 20
2578.483622251569
 42
0.4142135623731
 10
3044.002891640916
 20
2576.983622251569
 42
0.4142135623731
 10
3045.502891640916
 20
2575.483622251569
 42
0.4142135623731
  0
LWPOLYLINE
  5
FC
330
1F
100
AcDbEntity
  8
0-B_寸法
  6
Continuous
 62
     7
370
     9
100
AcDbPolyline
 90
        4
 70
     1
 43
3.0
 10
3245.002891640915
 20
2576.983622251569
 42
0.4142135623731
 10
3243.502891640915
 20
2578.483622251569
 42
0.4142135623731
 10
3242.002891640915
 20
2576.983622251569
 42
0.4142135623731
 10
3243.502891640915
 20
2575.483622251569
 42
0.4142135623731
  0
LWPOLYLINE
  5
FD
330
1F
100
AcDbEntity
  8
0-B_寸法
  6
Continuous
 62
     7
370
     9
100
AcDbPolyline
 90
        4
 70
     1
 43
3.0
 10
3335.002891640915
 20
2344.769384239187
 42
0.4142135623731
 10
3333.502891640915
 20
2346.269384239187
 42
0.4142135623731
 10
3332.002891640915
 20
2344.769384239187
 42
0.4142135623731
 10
3333.502891640915
 20
2343.269384239187
 42
0.4142135623731
  0
LWPOLYLINE
  5
FE
330
1F
100
AcDbEntity
  8
0-B_寸法
  6
Continuous
 62
     7
370
     9
100
AcDbPolyline
 90
        4
 70
     1
 43
3.0
 10
3335.002891640915
 20
2488.769384239188
 42
0.4142135623731
 10
3333.502891640915
 20
2490.269384239188
 42
0.4142135623731
 10
3332.002891640915
 20
2488.769384239188
 42
0.4142135623731
 10
3333.502891640915
 20
2487.269384239188
 42
0.4142135623731
  0
MTEXT
  5
FF
330
1F
100
AcDbEntity
  8
0-B_寸法
  6
Continuous
 62
     7
370
   211
100
AcDbMText
 10
3414.502891640915
 20
2369.840234670282
 30
0.0
 40
57.15
 41
75.0
 46
0.0
 71
     7
 72
     1
  1
{\fＭＳ ゴシック|b0|i0|c128|p49;24}
 11
6.123031769111886E-17
 21
1.0
 31
0.0
 73
     1
 44
1.0
  0
MTEXT
  5
100
330
1F
100
AcDbEntity
  8
0-B_寸法
  6
Continuous
 62
     7
370
   211
100
AcDbMText
 10
3200.62967233853
 20
2165.254569759257
 30
0.0
 40
57.15
 41
37.5
 46
0.0
 71
     7
 72
     1
  1
{\fＭＳ ゴシック|b0|i0|c128|p49;8}
 73
     1
 44
1.0
  0
MTEXT
  5
101
330
1F
100
AcDbEntity
  8
0-B_寸法
  6
Continuous
 62
     7
370
     9
100
AcDbMText
 10
3297.864607684037
 20
2540.989661841931
 30
0.0
 40
57.15
 41
75.0
 46
0.0
 71
     7
 72
     1
  1
{\fＭＳ ゴシック|b0|i0|c128|p49;C2}
 73
     1
 44
1.0
  0
LINE
  5
102
330
1F
100
AcDbEntity
  8
0-0_補助線
  6
JWW_HOJO
 62
   120
370
     5
100
AcDbLine
 10
2454.052891428768
 20
2091.791758398055
 30
0.0
 11
2454.052891428768
 21
2683.927605513357
 31
0.0
  0
LINE
  5
103
330
1F
100
AcDbEntity
  8
0-0_補助線
  6
JWW_HOJO
 62
   120
370
     5
100
AcDbLine
 10
2382.052891428767
 20
2091.791758398055
 30
0.0
 11
2382.052891428767
 21
2683.927605513357
 31
0.0
  0
LINE
  5
104
330
1F
100
AcDbEntity
  8
0-5_ケーシング
  6
Continuous
 62
    92
370
    13
100
AcDbLine
 10
2451.052891428766
 20
2348.179569759258
 30
0.0
 11
2382.052891428767
 21
2348.179569759258
 31
0.0
  0
LINE
  5
105
330
1F
100
AcDbEntity
  8
0-5_ケーシング
  6
Continuous
 62
    92
370
    13
100
AcDbLine
 10
2232.052891428767
 20
2489.179569759259
 30
0.0
 11
2232.052891428767
 21
2436.379569759258
 31
0.0
  0
LINE
  5
106
330
1F
100
AcDbEntity
  8
0-5_ケーシング
  6
Continuous
 62
    92
370
    13
100
AcDbLine
 10
2382.052891428767
 20
2436.379569759258
 30
0.0
 11
2382.052891428767
 21
2345.179569759258
 31
0.0
  0
LINE
  5
107
330
1F
100
AcDbEntity
  8
0-5_ケーシング
  6
Continuous
 62
    92
370
    13
100
AcDbLine
 10
2454.052891428766
 20
2345.179569759258
 30
0.0
 11
2382.052891428767
 21
2345.179569759258
 31
0.0
  0
LINE
  5
108
330
1F
100
AcDbEntity
  8
0-5_ケーシング
  6
Continuous
 62
    92
370
    13
100
AcDbLine
 10
2232.052891428767
 20
2486.17956975926
 30
0.0
 11
2431.597047306048
 21
2486.17956975926
 31
0.0
  0
LINE
  5
109
330
1F
100
AcDbEntity
  8
0-5_ケーシング
  6
Continuous
 62
    92
370
    13
100
AcDbLine
 10
2232.052891428767
 20
2489.179569759259
 30
0.0
 11
2432.839687993169
 21
2489.179569759259
 31
0.0
  0
LINE
  5
10A
330
1F
100
AcDbEntity
  8
0-5_ケーシング
  6
Continuous
 62
    92
370
    13
100
AcDbLine
 10
2451.052891428766
 20
2348.179569759258
 30
0.0
 11
2451.052891428766
 21
2466.723725636542
 31
0.0
  0
LINE
  5
10B
330
1F
100
AcDbEntity
  8
0-5_ケーシング
  6
Continuous
 62
    92
370
    13
100
AcDbLine
 10
2431.597047306048
 20
2486.17956975926
 30
0.0
 11
2451.052891428766
 21
2466.723725636542
 31
0.0
  0
LINE
  5
10C
330
1F
100
AcDbEntity
  8
0-5_ケーシング
  6
Continuous
 62
    92
370
    13
100
AcDbLine
 10
2454.052891428766
 20
2345.179569759258
 30
0.0
 11
2454.052891428766
 21
2467.966366323663
 31
0.0
  0
LINE
  5
10D
330
1F
100
AcDbEntity
  8
0-5_ケーシング
  6
Continuous
 62
    92
370
    13
100
AcDbLine
 10
2432.839687993169
 20
2489.179569759259
 30
0.0
 11
2454.052891428766
 21
2467.966366323663
 31
0.0
  0
LINE
  5
10E
330
1F
100
AcDbEntity
  8
0-5_ケーシング
  6
Continuous
 62
    92
370
    13
100
AcDbLine
 10
2232.052891428767
 20
2436.379569759258
 30
0.0
 11
2238.345346573118
 21
2436.379569759258
 31
0.0
  0
LINE
  5
10F
330
1F
100
AcDbEntity
  8
0-5_ケーシング
  6
Continuous
 62
    92
370
    13
100
AcDbLine
 10
2238.345346573118
 20
2436.379569759258
 30
0.0
 11
2382.052891428767
 21
2436.379569759258
 31
0.0
  0
LINE
  5
110
330
1F
100
AcDbEntity
  8
0-B_寸法
  6
Continuous
 62
   120
370
     5
100
AcDbLine
 10
2461.347020727968
 20
2505.514731976667
 30
0.0
 11
2453.915296505243
 21
2488.174042123643
 31
0.0
  0
LINE
  5
111
330
1F
100
AcDbEntity
  8
0-B_寸法
  6
Continuous
 62
   120
370
     5
100
AcDbLine
 10
2453.915296505243
 20
2488.174042123643
 30
0.0
 11
2496.854147569873
 21
2544.324847362003
 31
0.0
  0
LINE
  5
112
330
1F
100
AcDbEntity
  8
0-B_寸法
  6
Continuous
 62
   120
370
     5
100
AcDbLine
 10
2496.854147569873
 20
2544.324847362003
 30
0.0
 11
2596.769551008721
 21
2544.324847362003
 31
0.0
  0
LINE
  5
113
330
1F
100
AcDbEntity
  8
0-B_寸法
  6
Continuous
 62
   120
370
     5
100
AcDbLine
 10
2232.052891428767
 20
2579.179569759259
 30
0.0
 11
2454.052891428766
 21
2579.179569759259
 31
0.0
  0
LINE
  5
114
330
1F
100
AcDbEntity
  8
0-B_寸法
  6
Continuous
 62
   120
370
     5
100
AcDbLine
 10
2232.052891428767
 20
2579.179569759259
 30
0.0
 11
2232.052891428767
 21
2519.179569759259
 31
0.0
  0
LINE
  5
115
330
1F
100
AcDbEntity
  8
0-B_寸法
  6
Continuous
 62
   120
370
     5
100
AcDbLine
 10
2454.052891428766
 20
2579.179569759259
 30
0.0
 11
2454.052891428766
 21
2519.179569759259
 31
0.0
  0
LINE
  5
116
330
1F
100
AcDbEntity
  8
0-B_寸法
  6
Continuous
 62
   120
370
     5
100
AcDbLine
 10
2382.052891428767
 20
2255.179569759258
 30
0.0
 11
2454.052891428766
 21
2255.179569759258
 31
0.0
  0
LINE
  5
117
330
1F
100
AcDbEntity
  8
0-B_寸法
  6
Continuous
 62
   120
370
     5
100
AcDbLine
 10
2382.052891428767
 20
2255.179569759258
 30
0.0
 11
2382.052891428767
 21
2315.179569759258
 31
0.0
  0
LINE
  5
118
330
1F
100
AcDbEntity
  8
0-B_寸法
  6
Continuous
 62
   120
370
     5
100
AcDbLine
 10
2454.052891428766
 20
2255.179569759258
 30
0.0
 11
2454.052891428766
 21
2315.179569759258
 31
0.0
  0
LINE
  5
119
330
1F
100
AcDbEntity
  8
0-B_寸法
  6
Continuous
 62
   120
370
     5
100
AcDbLine
 10
2544.052891428765
 20
2345.179569759258
 30
0.0
 11
2544.052891428765
 21
2489.179569759259
 31
0.0
  0
LINE
  5
11A
330
1F
100
AcDbEntity
  8
0-B_寸法
  6
Continuous
 62
   120
370
     5
100
AcDbLine
 10
2544.052891428765
 20
2345.179569759258
 30
0.0
 11
2484.052891428766
 21
2345.179569759258
 31
0.0
  0
LINE
  5
11B
330
1F
100
AcDbEntity
  8
0-B_寸法
  6
Continuous
 62
   120
370
     5
100
AcDbLine
 10
2544.052891428765
 20
2489.179569759259
 30
0.0
 11
2484.052891428766
 21
2489.179569759259
 31
0.0
  0
LWPOLYLINE
  5
11C
330
1F
100
AcDbEntity
  8
0-B_寸法
  6
Continuous
 62
     7
370
     9
100
AcDbPolyline
 90
        4
 70
     1
 43
3.0
 10
2233.552891428767
 20
2579.179569759259
 42
0.4142135623731
 10
2232.052891428767
 20
2580.679569759259
 42
0.4142135623731
 10
2230.552891428767
 20
2579.179569759259
 42
0.4142135623731
 10
2232.052891428767
 20
2577.679569759259
 42
0.4142135623731
  0
LWPOLYLINE
  5
11D
330
1F
100
AcDbEntity
  8
0-B_寸法
  6
Continuous
 62
     7
370
     9
100
AcDbPolyline
 90
        4
 70
     1
 43
3.0
 10
2455.552891428766
 20
2579.179569759259
 42
0.4142135623731
 10
2454.052891428766
 20
2580.679569759259
 42
0.4142135623731
 10
2452.552891428766
 20
2579.179569759259
 42
0.4142135623731
 10
2454.052891428766
 20
2577.679569759259
 42
0.4142135623731
  0
LWPOLYLINE
  5
11E
330
1F
100
AcDbEntity
  8
0-B_寸法
  6
Continuous
 62
     7
370
     9
100
AcDbPolyline
 90
        4
 70
     1
 43
3.0
 10
2383.552891428767
 20
2255.179569759258
 42
0.4142135623731
 10
2382.052891428767
 20
2256.679569759258
 42
0.4142135623731
 10
2380.552891428767
 20
2255.179569759258
 42
0.4142135623731
 10
2382.052891428767
 20
2253.679569759258
 42
0.4142135623731
  0
LWPOLYLINE
  5
11F
330
1F
100
AcDbEntity
  8
0-B_寸法
  6
Continuous
 62
     7
370
     9
100
AcDbPolyline
 90
        4
 70
     1
 43
3.0
 10
2455.552891428766
 20
2255.179569759258
 42
0.4142135623731
 10
2454.052891428766
 20
2256.679569759258
 42
0.4142135623731
 10
2452.552891428766
 20
2255.179569759258
 42
0.4142135623731
 10
2454.052891428766
 20
2253.679569759258
 42
0.4142135623731
  0
LWPOLYLINE
  5
120
330
1F
100
AcDbEntity
  8
0-B_寸法
  6
Continuous
 62
     7
370
     9
100
AcDbPolyline
 90
        4
 70
     1
 43
3.0
 10
2545.552891428765
 20
2345.179569759258
 42
0.4142135623731
 10
2544.052891428765
 20
2346.679569759258
 42
0.4142135623731
 10
2542.552891428766
 20
2345.179569759258
 42
0.4142135623731
 10
2544.052891428765
 20
2343.679569759258
 42
0.4142135623731
  0
LWPOLYLINE
  5
121
330
1F
100
AcDbEntity
  8
0-B_寸法
  6
Continuous
 62
     7
370
     9
100
AcDbPolyline
 90
        4
 70
     1
 43
3.0
 10
2545.552891428765
 20
2489.179569759259
 42
0.4142135623731
 10
2544.052891428765
 20
2490.679569759259
 42
0.4142135623731
 10
2542.552891428766
 20
2489.179569759259
 42
0.4142135623731
 10
2544.052891428765
 20
2487.679569759259
 42
0.4142135623731
  0
MTEXT
  5
122
330
1F
100
AcDbEntity
  8
0-B_寸法
  6
Continuous
 62
     7
370
   211
100
AcDbMText
 10
2625.052891428766
 20
2370.250420190353
 30
0.0
 40
57.15
 41
75.0
 46
0.0
 71
     7
 72
     1
  1
{\fＭＳ ゴシック|b0|i0|c128|p49;24}
 11
6.123031769111886E-17
 21
1.0
 31
0.0
 73
     1
 44
1.0
  0
MTEXT
  5
123
330
1F
100
AcDbEntity
  8
0-B_寸法
  6
Continuous
 62
     7
370
   211
100
AcDbMText
 10
2380.552891428766
 20
2165.254569759257
 30
0.0
 40
57.15
 41
75.0
 46
0.0
 71
     7
 72
     1
  1
{\fＭＳ ゴシック|b0|i0|c128|p49;12}
 73
     1
 44
1.0
  0
MTEXT
  5
124
330
1F
100
AcDbEntity
  8
0-B_寸法
  6
Continuous
 62
     7
370
     9
100
AcDbMText
 10
2508.414607471887
 20
2541.399847362003
 30
0.0
 40
57.15
 41
75.0
 46
0.0
 71
     7
 72
     1
  1
{\fＭＳ ゴシック|b0|i0|c128|p49;C5}
 73
     1
 44
1.0
  0
MTEXT
  5
125
330
1F
100
AcDbEntity
  8
0-B_寸法
  6
Continuous
 62
     7
370
   211
100
AcDbMText
 10
3107.002891640915
 20
2574.058622251568
 30
0.0
 40
57.15
 41
75.0
 46
0.0
 71
     7
 72
     1
  1
{\fＭＳ ゴシック|b0|i0|c128|p49;②}
 73
     1
 44
1.0
  0
MTEXT
  5
126
330
1F
100
AcDbEntity
  8
0-B_寸法
  6
Continuous
 62
     7
370
   211
100
AcDbMText
 10
2305.552891428766
 20
2576.254569759259
 30
0.0
 40
57.15
 41
75.0
 46
0.0
 71
     7
 72
     1
  1
{\fＭＳ ゴシック|b0|i0|c128|p49;①}
 73
     1
 44
1.0
  0
MTEXT
  5
127
330
1F
100
AcDbEntity
  8
0-A_文字
  6
Continuous
 62
     7
370
     9
100
AcDbMText
 10
1904.827891428766
 20
1943.456355513356
 30
0.0
 40
79.05749999999998
 41
1245.0
 46
0.0
 71
     7
 72
     1
  1
{\fＭＳ ゴシック|b0|i0|c128|p49;■ケーシング脚サイズ一覧}
 73
     1
 44
1.0
  0
MTEXT
  5
128
330
1F
100
AcDbEntity
  8
0-A_文字
  6
Continuous
 62
     7
370
     9
100
AcDbMText
 10
1904.827891428766
 20
3068.297605513357
 30
0.0
 40
78.74000000000004
 41
930.0000000000005
 46
0.0
 71
     7
 72
     1
  1
{\fＭＳ ゴシック|b0|i0|c128|p49;■ケーシング寸法図}
 73
     1
 44
1.0
  0
LINE
  5
129
330
1F
100
AcDbEntity
  8
0-B_寸法
  6
Continuous
 62
   120
370
     5
100
AcDbLine
 10
-3966.511417851218
 20
3138.345038349597
 30
0.0
 11
-3966.511417851218
 21
2862.319933022926
 31
0.0
  0
LINE
  5
12A
330
1F
100
AcDbEntity
  8
0-B_寸法
  6
Continuous
 62
   120
370
     5
100
AcDbLine
 10
-3954.511378260846
 20
3138.345038349597
 30
0.0
 11
-3954.511378260846
 21
2862.319933022926
 31
0.0
  0
LINE
  5
12B
330
1F
100
AcDbEntity
  8
0-B_寸法
  6
Continuous
 62
   120
370
     5
100
AcDbLine
 10
-3613.621056787029
 20
2749.116636532811
 30
0.0
 11
-3613.621056787029
 21
1981.116319809838
 31
0.0
  0
LINE
  5
12C
330
1F
100
AcDbEntity
  8
0-3_仕上げ
  6
Continuous
 62
    40
370
    15
100
AcDbLine
 10
-4135.957713512113
 20
2776.116715713555
 30
0.0
 11
-4135.957713512113
 21
2851.116517761696
 31
0.0
  0
LINE
  5
12D
330
1F
100
AcDbEntity
  8
0-3_仕上げ
  6
Continuous
 62
    40
370
    15
100
AcDbLine
 10
-886.1258406235992
 20
2776.116715713555
 30
0.0
 11
-886.1258406235992
 21
2851.116517761696
 31
0.0
  0
LINE
  5
12E
330
1F
100
AcDbEntity
  8
0-5_ケーシング
  6
Continuous
 62
    92
370
    13
100
AcDbLine
 10
-4050.167258750711
 20
2920.11659694244
 30
0.0
 11
-4030.711362424697
 21
2900.660700616425
 31
0.0
  0
LINE
  5
12F
330
1F
100
AcDbEntity
  8
0-5_ケーシング
  6
Continuous
 62
    92
370
    13
100
AcDbLine
 10
-4048.924615961438
 20
2923.116161448352
 30
0.0
 11
-4027.711500990999
 21
2901.903640333486
 31
0.0
  0
LINE
  5
130
330
1F
100
AcDbEntity
  8
0-5_ケーシング
  6
Continuous
 62
    92
370
    13
100
AcDbLine
 10
-973.1589381742749
 20
2923.116161448352
 30
0.0
 11
-994.3720531447132
 21
2901.903640333486
 31
0.0
  0
LINE
  5
131
330
1F
100
AcDbEntity
  8
0-5_ケーシング
  6
Continuous
 62
    92
370
    13
100
AcDbLine
 10
-971.9165923127882
 20
2920.11659694244
 30
0.0
 11
-991.3724886388023
 21
2900.660700616425
 31
0.0
  0
LINE
  5
132
330
1F
100
AcDbEntity
  8
0-B_寸法
  6
Continuous
 62
   120
370
     5
100
AcDbLine
 10
-1079.571918537451
 20
3138.345038349597
 30
0.0
 11
-1079.571918537451
 21
2862.319933022926
 31
0.0
  0
LINE
  5
133
330
1F
100
AcDbEntity
  8
0-B_寸法
  6
Continuous
 62
   120
370
     5
100
AcDbLine
 10
-1055.571839356707
 20
3138.345038349597
 30
0.0
 11
-1055.571839356707
 21
2862.319933022926
 31
0.0
  0
LINE
  5
134
330
1F
100
AcDbEntity
  8
0-4_枠
  6
Continuous
 62
    92
370
    13
100
AcDbLine
 10
-995.5722352604242
 20
2689.116438580953
 30
0.0
 11
-941.5717601759632
 21
2689.116438580953
 31
0.0
  0
LINE
  5
135
330
1F
100
AcDbEntity
  8
0-4_枠
  6
Continuous
 62
    92
370
    13
100
AcDbLine
 10
-995.5722352604242
 20
2689.116438580953
 30
0.0
 11
-995.5722352604242
 21
2749.116636532811
 31
0.0
  0
LINE
  5
136
330
1F
100
AcDbEntity
  8
0-4_枠
  6
Continuous
 62
    92
370
    13
100
AcDbLine
 10
-1055.571839356707
 20
2749.116636532811
 30
0.0
 11
-995.5722352604242
 21
2749.116636532811
 31
0.0
  0
LINE
  5
137
330
1F
100
AcDbEntity
  8
0-4_枠
  6
Continuous
 62
    92
370
    13
100
AcDbLine
 10
-1052.571680995221
 20
2746.116478171323
 30
0.0
 11
-995.5722352604242
 21
2746.116478171323
 31
0.0
  0
LINE
  5
138
330
1F
100
AcDbEntity
  8
0-4_枠
  6
Continuous
 62
    92
370
    13
100
AcDbLine
 10
-941.5717601759632
 20
2689.116438580953
 30
0.0
 11
-941.5717601759632
 21
2749.116636532811
 31
0.0
  0
LWPOLYLINE
  5
139
330
1F
100
AcDbEntity
  8
0-B_寸法
  6
Continuous
 62
     7
370
     9
100
AcDbPolyline
 90
        4
 70
     1
 43
3.0
 10
-3965.011417851217
 20
3138.345038349597
 42
0.4142135623731
 10
-3966.511417851218
 20
3139.845038349596
 42
0.4142135623731
 10
-3968.011417851218
 20
3138.345038349597
 42
0.4142135623731
 10
-3966.511417851218
 20
3136.845038349597
 42
0.4142135623731
  0
LWPOLYLINE
  5
13A
330
1F
100
AcDbEntity
  8
0-B_寸法
  6
Continuous
 62
     7
370
     9
100
AcDbPolyline
 90
        4
 70
     1
 43
3.0
 10
-3953.011378260845
 20
3138.345038349597
 42
0.4142135623731
 10
-3954.511378260846
 20
3139.845038349596
 42
0.4142135623731
 10
-3956.011378260846
 20
3138.345038349597
 42
0.4142135623731
 10
-3954.511378260846
 20
3136.845038349597
 42
0.4142135623731
  0
LWPOLYLINE
  5
13B
330
1F
100
AcDbEntity
  8
0-B_寸法
  6
Continuous
 62
     7
370
     9
100
AcDbPolyline
 90
        4
 70
     1
 43
3.0
 10
-1078.071918537451
 20
3138.345038349597
 42
0.4142135623731
 10
-1079.571918537451
 20
3139.845038349596
 42
0.4142135623731
 10
-1081.071918537451
 20
3138.345038349597
 42
0.4142135623731
 10
-1079.571918537451
 20
3136.845038349597
 42
0.4142135623731
  0
LWPOLYLINE
  5
13C
330
1F
100
AcDbEntity
  8
0-B_寸法
  6
Continuous
 62
     7
370
     9
100
AcDbPolyline
 90
        4
 70
     1
 43
3.0
 10
-1054.071839356707
 20
3138.345038349597
 42
0.4142135623731
 10
-1055.571839356707
 20
3139.845038349596
 42
0.4142135623731
 10
-1057.071839356707
 20
3138.345038349597
 42
0.4142135623731
 10
-1055.571839356707
 20
3136.845038349597
 42
0.4142135623731
  0
LWPOLYLINE
  5
13D
330
1F
100
AcDbEntity
  8
0-B_寸法
  6
Continuous
 62
     7
370
     9
100
AcDbPolyline
 90
        4
 70
     1
 43
3.0
 10
-3612.121056787029
 20
1981.116319809838
 42
0.4142135623731
 10
-3613.621056787029
 20
1982.616319809838
 42
0.4142135623731
 10
-3615.121056787029
 20
1981.116319809838
 42
0.4142135623731
 10
-3613.621056787029
 20
1979.616319809838
 42
0.4142135623731
  0
LWPOLYLINE
  5
13E
330
1F
100
AcDbEntity
  8
0-B_寸法
  6
Continuous
 62
     7
370
     9
100
AcDbPolyline
 90
        4
 70
     1
 43
3.0
 10
-3612.121056787029
 20
2749.117824243959
 42
0.4142135623731
 10
-3613.621056787029
 20
2750.617824243959
 42
0.4142135623731
 10
-3615.121056787029
 20
2749.117824243959
 42
0.4142135623731
 10
-3613.621056787029
 20
2747.617824243959
 42
0.4142135623731
  0
LINE
  5
13F
330
1F
100
AcDbEntity
  8
0-B_寸法
  6
Continuous
 62
   120
370
     5
100
AcDbLine
 10
-3966.511417851218
 20
1825.927605705108
 30
0.0
 11
-3966.511417851218
 21
1645.927605705108
 31
0.0
  0
LINE
  5
140
330
1F
100
AcDbEntity
  8
0-B_寸法
  6
Continuous
 62
   120
370
     5
100
AcDbLine
 10
-1055.571839356707
 20
1825.927605705108
 30
0.0
 11
-1055.571839356707
 21
1645.927605705108
 31
0.0
  0
LWPOLYLINE
  5
141
330
1F
100
AcDbEntity
  8
0-B_寸法
  6
Continuous
 62
     7
370
     9
100
AcDbPolyline
 90
        4
 70
     1
 43
3.0
 10
-3965.011417851217
 20
1645.927605705108
 42
0.4142135623731
 10
-3966.511417851218
 20
1647.427605705108
 42
0.4142135623731
 10
-3968.011417851218
 20
1645.927605705108
 42
0.4142135623731
 10
-3966.511417851218
 20
1644.427605705108
 42
0.4142135623731
  0
LWPOLYLINE
  5
142
330
1F
100
AcDbEntity
  8
0-B_寸法
  6
Continuous
 62
     7
370
     9
100
AcDbPolyline
 90
        4
 70
     1
 43
3.0
 10
-1054.071839356707
 20
1645.927605705108
 42
0.4142135623731
 10
-1055.571839356707
 20
1647.427605705108
 42
0.4142135623731
 10
-1057.071839356707
 20
1645.927605705108
 42
0.4142135623731
 10
-1055.571839356707
 20
1644.427605705108
 42
0.4142135623731
  0
LINE
  5
143
330
1F
100
AcDbEntity
  8
0-0_補助線
  6
JWW_HOJO
 62
   120
370
     5
100
AcDbLine
 10
-2541.041925531749
 20
3041.774339478863
 30
0.0
 11
-2541.041925531749
 21
1772.80247926323
 31
0.0
  0
LINE
  5
144
330
1F
100
AcDbEntity
  8
0-0_補助線
  6
JWW_HOJO
 62
   120
370
     5
100
AcDbLine
 10
-2481.041925531749
 20
3041.774339478863
 30
0.0
 11
-2481.041925531749
 21
1772.80247926323
 31
0.0
  0
LINE
  5
145
330
1F
100
AcDbEntity
  8
0-4_枠
  6
Continuous
 62
   120
370
     5
100
AcDbLine
 10
-2481.041925531749
 20
2749.116636532811
 30
0.0
 11
-1055.571839356707
 21
2749.116636532811
 31
0.0
  0
LINE
  5
146
330
1F
100
AcDbEntity
  8
0-4_枠
  6
Continuous
 62
   120
370
     5
100
AcDbLine
 10
-2481.041925531749
 20
1981.116319809838
 30
0.0
 11
-1055.571839356707
 21
1981.116319809838
 31
0.0
  0
LINE
  5
147
330
1F
100
AcDbEntity
  8
0-0_補助線
  6
JWW_HOJO
 62
   120
370
     5
100
AcDbLine
 10
-3906.511516827147
 20
2386.116775099111
 30
0.0
 11
-1115.572037308567
 21
2386.116775099111
 31
0.0
  0
LINE
  5
148
330
1F
100
AcDbEntity
  8
0-3_仕上げ
  6
Continuous
 62
    40
370
    15
100
AcDbLine
 10
-4946.911742492264
 20
2851.116517761696
 30
0.0
 11
-4135.957713512113
 21
2851.116517761696
 31
0.0
  0
LINE
  5
149
330
1F
100
AcDbEntity
  8
0-3_仕上げ
  6
Continuous
 62
    40
370
    15
100
AcDbLine
 10
-4946.911742492264
 20
2776.116715713555
 30
0.0
 11
-4135.957713512113
 21
2776.116715713555
 31
0.0
  0
LINE
  5
14A
330
1F
100
AcDbEntity
  8
0-3_仕上げ
  6
Continuous
 62
    40
370
    15
100
AcDbLine
 10
-75.1721085712343
 20
2851.116517761696
 30
0.0
 11
-886.1258406235992
 21
2851.116517761696
 31
0.0
  0
LINE
  5
14B
330
1F
100
AcDbEntity
  8
0-3_仕上げ
  6
Continuous
 62
    40
370
    15
100
AcDbLine
 10
-75.1721085712343
 20
2776.116715713555
 30
0.0
 11
-886.1258406235992
 21
2776.116715713555
 31
0.0
  0
LINE
  5
14C
330
1F
100
AcDbEntity
  8
0-1_通り芯
  6
JWW_CENTER1
 62
   120
370
     5
100
AcDbLine
 10
-4946.911742492264
 20
2461.116715713555
 30
0.0
 11
-75.1721085712343
 21
2461.116715713555
 31
0.0
  0
LINE
  5
14D
330
1F
100
AcDbEntity
  8
0-0_補助線
  6
JWW_HOJO
 62
   120
370
     5
100
AcDbLine
 10
-4242.511536622334
 20
2071.116913665413
 30
0.0
 11
-4242.511536622334
 21
1825.927605705108
 31
0.0
  0
LINE
  5
14E
330
1F
100
AcDbEntity
  8
0-B_寸法
  6
Continuous
 62
   120
370
     5
100
AcDbLine
 10
-4362.511536622334
 20
1981.116319809838
 30
0.0
 11
-4362.511536622334
 21
2071.116913665413
 31
0.0
  0
LWPOLYLINE
  5
14F
330
1F
100
AcDbEntity
  8
0-B_寸法
  6
Continuous
 62
     7
370
     9
100
AcDbPolyline
 90
        4
 70
     1
 43
3.0
 10
-4361.011536622333
 20
1981.116319809838
 42
0.4142135623731
 10
-4362.511536622334
 20
1982.616319809838
 42
0.4142135623731
 10
-4364.011536622334
 20
1981.116319809838
 42
0.4142135623731
 10
-4362.511536622334
 20
1979.616319809838
 42
0.4142135623731
  0
LWPOLYLINE
  5
150
330
1F
100
AcDbEntity
  8
0-B_寸法
  6
Continuous
 62
     7
370
     9
100
AcDbPolyline
 90
        4
 70
     1
 43
3.0
 10
-4361.011536622333
 20
2071.116913665413
 42
0.4142135623731
 10
-4362.511536622334
 20
2072.616913665413
 42
0.4142135623731
 10
-4364.011536622334
 20
2071.116913665413
 42
0.4142135623731
 10
-4362.511536622334
 20
2069.616913665413
 42
0.4142135623731
  0
LINE
  5
151
330
1F
100
AcDbEntity
  8
0-B_寸法
  6
Continuous
 62
   120
370
     5
100
AcDbLine
 10
-4362.511536622334
 20
1981.116319809838
 30
0.0
 11
-4242.511536622334
 21
1981.116319809838
 31
0.0
  0
LINE
  5
152
330
1F
100
AcDbEntity
  8
0-B_寸法
  6
Continuous
 62
   120
370
     5
100
AcDbLine
 10
-4362.511536622334
 20
2071.116913665413
 30
0.0
 11
-4242.511536622334
 21
2071.116913665413
 31
0.0
  0
MTEXT
  5
153
330
1F
100
AcDbEntity
  8
0-B_寸法
  6
Continuous
 62
     7
370
    70
100
AcDbMText
 10
-4377.511536622334
 20
1969.514116737625
 30
0.0
 40
74.295
 41
97.5
 46
0.0
 71
     7
 72
     1
  1
{\fＭＳ ゴシック|b0|i0|c128|p49;15}
 11
6.123031769111886E-17
 21
1.0
 31
0.0
 73
     1
 44
1.0
  0
LINE
  5
154
330
1F
100
AcDbEntity
  8
0-5_ケーシング
  6
Continuous
 62
    92
370
    13
100
AcDbLine
 10
-4048.924615961438
 20
2923.116161448352
 30
0.0
 11
-4165.711382219885
 21
2923.116161448352
 31
0.0
  0
LINE
  5
155
330
1F
100
AcDbEntity
  8
0-5_ケーシング
  6
Continuous
 62
    92
370
    13
100
AcDbLine
 10
-4050.167258750711
 20
2920.11659694244
 30
0.0
 11
-4165.711382219885
 21
2920.11659694244
 31
0.0
  0
LINE
  5
156
330
1F
100
AcDbEntity
  8
0-5_ケーシング
  6
Continuous
 62
    92
370
    13
100
AcDbLine
 10
-4080.511497031961
 20
2851.116517761696
 30
0.0
 11
-4165.711382219885
 21
2851.116517761696
 31
0.0
  0
LINE
  5
157
330
1F
100
AcDbEntity
  8
0-5_ケーシング
  6
Continuous
 62
    92
370
    13
100
AcDbLine
 10
-4165.711382219885
 20
2923.116161448352
 30
0.0
 11
-4165.711382219885
 21
2851.116517761696
 31
0.0
  0
LINE
  5
158
330
1F
100
AcDbEntity
  8
0-5_ケーシング
  6
Continuous
 62
    92
370
    13
100
AcDbLine
 10
-971.9165923127882
 20
2920.11659694244
 30
0.0
 11
-856.3721719158285
 21
2920.11659694244
 31
0.0
  0
LINE
  5
159
330
1F
100
AcDbEntity
  8
0-5_ケーシング
  6
Continuous
 62
    92
370
    13
100
AcDbLine
 10
-973.1589381742749
 20
2923.116161448352
 30
0.0
 11
-856.3721719158285
 21
2923.116161448352
 31
0.0
  0
LINE
  5
15A
330
1F
100
AcDbEntity
  8
0-5_ケーシング
  6
Continuous
 62
    92
370
    13
100
AcDbLine
 10
-856.3721719158285
 20
2923.116161448352
 30
0.0
 11
-856.3721719158285
 21
2851.116517761696
 31
0.0
  0
LINE
  5
15B
330
1F
100
AcDbEntity
  8
0-5_ケーシング
  6
Continuous
 62
    92
370
    13
100
AcDbLine
 10
-856.3721719158285
 20
2851.116517761696
 30
0.0
 11
-941.5717601759632
 21
2851.116517761696
 31
0.0
  0
LINE
  5
15C
330
1F
100
AcDbEntity
  8
0-C_ハッチ
  6
JWW_DASHED1
 62
   120
370
     5
100
AcDbLine
 10
-4138.8128165266
 20
2776.116715713559
 30
0.0
 11
-4135.957713512118
 21
2778.97181872804
 31
0.0
  0
LINE
  5
15D
330
1F
100
AcDbEntity
  8
0-C_ハッチ
  6
JWW_DASHED1
 62
   120
370
     5
100
AcDbLine
 10
-4181.239223397812
 20
2776.116715713546
 30
0.0
 11
-4135.957713512108
 21
2821.398225599251
 31
0.0
  0
LINE
  5
15E
330
1F
100
AcDbEntity
  8
0-C_ハッチ
  6
JWW_DASHED1
 62
   120
370
     5
100
AcDbLine
 10
-4223.665630269008
 20
2776.11671571355
 30
0.0
 11
-4148.665828220863
 21
2851.116517761696
 31
0.0
  0
LINE
  5
15F
330
1F
100
AcDbEntity
  8
0-C_ハッチ
  6
JWW_DASHED1
 62
   120
370
     5
100
AcDbLine
 10
-4266.092037140205
 20
2776.116715713553
 30
0.0
 11
-4191.092235092059
 21
2851.116517761699
 31
0.0
  0
LINE
  5
160
330
1F
100
AcDbEntity
  8
0-C_ハッチ
  6
JWW_DASHED1
 62
   120
370
     5
100
AcDbLine
 10
-4308.518444011417
 20
2776.116715713541
 30
0.0
 11
-4233.518641963272
 21
2851.116517761687
 31
0.0
  0
LINE
  5
161
330
1F
100
AcDbEntity
  8
0-C_ハッチ
  6
JWW_DASHED1
 62
   120
370
     5
100
AcDbLine
 10
-4350.944850882614
 20
2776.116715713545
 30
0.0
 11
-4275.945048834468
 21
2851.11651776169
 31
0.0
  0
LINE
  5
162
330
1F
100
AcDbEntity
  8
0-C_ハッチ
  6
JWW_DASHED1
 62
   120
370
     5
100
AcDbLine
 10
-4393.371257753751
 20
2776.116715713553
 30
0.0
 11
-4318.371455705605
 21
2851.116517761699
 31
0.0
  0
LINE
  5
163
330
1F
100
AcDbEntity
  8
0-C_ハッチ
  6
JWW_DASHED1
 62
   120
370
     5
100
AcDbLine
 10
-4435.797664624947
 20
2776.116715713557
 30
0.0
 11
-4360.797862576802
 21
2851.116517761703
 31
0.0
  0
LINE
  5
164
330
1F
100
AcDbEntity
  8
0-C_ハッチ
  6
JWW_DASHED1
 62
   120
370
     5
100
AcDbLine
 10
-4478.224071496144
 20
2776.11671571356
 30
0.0
 11
-4403.224269447998
 21
2851.116517761706
 31
0.0
  0
LINE
  5
165
330
1F
100
AcDbEntity
  8
0-C_ハッチ
  6
JWW_DASHED1
 62
   120
370
     5
100
AcDbLine
 10
-4520.650478367355
 20
2776.116715713548
 30
0.0
 11
-4445.65067631921
 21
2851.116517761694
 31
0.0
  0
LINE
  5
166
330
1F
100
AcDbEntity
  8
0-C_ハッチ
  6
JWW_DASHED1
 62
   120
370
     5
100
AcDbLine
 10
-4563.076885238553
 20
2776.116715713552
 30
0.0
 11
-4488.077083190406
 21
2851.116517761697
 31
0.0
  0
LINE
  5
167
330
1F
100
AcDbEntity
  8
0-C_ハッチ
  6
JWW_DASHED1
 62
   120
370
     5
100
AcDbLine
 10
-4605.503292109765
 20
2776.11671571354
 30
0.0
 11
-4530.503490061603
 21
2851.116517761701
 31
0.0
  0
LINE
  5
168
330
1F
100
AcDbEntity
  8
0-C_ハッチ
  6
JWW_DASHED1
 62
   120
370
     5
100
AcDbLine
 10
-4647.929698980961
 20
2776.116715713543
 30
0.0
 11
-4572.929896932816
 21
2851.116517761689
 31
0.0
  0
LINE
  5
169
330
1F
100
AcDbEntity
  8
0-C_ハッチ
  6
JWW_DASHED1
 62
   120
370
     5
100
AcDbLine
 10
-4690.356105852099
 20
2776.11671571355
 30
0.0
 11
-4615.356303803954
 21
2851.116517761696
 31
0.0
  0
LINE
  5
16A
330
1F
100
AcDbEntity
  8
0-C_ハッチ
  6
JWW_DASHED1
 62
   120
370
     5
100
AcDbLine
 10
-4732.782512723295
 20
2776.116715713555
 30
0.0
 11
-4657.78271067515
 21
2851.116517761699
 31
0.0
  0
LINE
  5
16B
330
1F
100
AcDbEntity
  8
0-C_ハッチ
  6
JWW_DASHED1
 62
   120
370
     5
100
AcDbLine
 10
-4775.208919594491
 20
2776.116715713559
 30
0.0
 11
-4700.209117546347
 21
2851.116517761703
 31
0.0
  0
LINE
  5
16C
330
1F
100
AcDbEntity
  8
0-C_ハッチ
  6
JWW_DASHED1
 62
   120
370
     5
100
AcDbLine
 10
-4902.488140208096
 20
2776.116715713553
 30
0.0
 11
-4827.48833815995
 21
2851.116517761699
 31
0.0
  0
LINE
  5
16D
330
1F
100
AcDbEntity
  8
0-C_ハッチ
  6
JWW_DASHED1
 62
   120
370
     5
100
AcDbLine
 10
-4944.914547079308
 20
2776.116715713541
 30
0.0
 11
-4869.914745031164
 21
2851.116517761685
 31
0.0
  0
LINE
  5
16E
330
1F
100
AcDbEntity
  8
0-C_ハッチ
  6
JWW_DASHED1
 62
   120
370
     5
100
AcDbLine
 10
-4232.514957914573
 20
2071.11691366542
 30
0.0
 11
-4157.515155866444
 21
2146.116715713548
 31
0.0
  0
LINE
  5
16F
330
1F
100
AcDbEntity
  8
0-C_ハッチ
  6
JWW_DASHED1
 62
   120
370
     5
100
AcDbLine
 10
-4274.941364785769
 20
2071.116913665423
 30
0.0
 11
-4199.941562737641
 21
2146.116715713552
 31
0.0
  0
LINE
  5
170
330
1F
100
AcDbEntity
  8
0-C_ハッチ
  6
JWW_DASHED1
 62
   120
370
     5
100
AcDbLine
 10
-4317.367771656981
 20
2071.116913665411
 30
0.0
 11
-4242.367969608853
 21
2146.11671571354
 31
0.0
  0
LINE
  5
171
330
1F
100
AcDbEntity
  8
0-C_ハッチ
  6
JWW_DASHED1
 62
   120
370
     5
100
AcDbLine
 10
-4359.79417852812
 20
2071.116913665418
 30
0.0
 11
-4284.794376479989
 21
2146.116715713548
 31
0.0
  0
LINE
  5
172
330
1F
100
AcDbEntity
  8
0-C_ハッチ
  6
JWW_DASHED1
 62
   120
370
     5
100
AcDbLine
 10
-4402.220585399316
 20
2071.116913665422
 30
0.0
 11
-4327.220783351187
 21
2146.116715713552
 31
0.0
  0
LINE
  5
173
330
1F
100
AcDbEntity
  8
0-C_ハッチ
  6
JWW_DASHED1
 62
   120
370
     5
100
AcDbLine
 10
-4444.646992270513
 20
2071.116913665425
 30
0.0
 11
-4369.647190222383
 21
2146.116715713555
 31
0.0
  0
LINE
  5
174
330
1F
100
AcDbEntity
  8
0-C_ハッチ
  6
JWW_DASHED1
 62
   120
370
     5
100
AcDbLine
 10
-4487.073399141726
 20
2071.116913665413
 30
0.0
 11
-4412.073597093579
 21
2146.116715713559
 31
0.0
  0
LINE
  5
175
330
1F
100
AcDbEntity
  8
0-C_ハッチ
  6
JWW_DASHED1
 62
   120
370
     5
100
AcDbLine
 10
-4529.499806012922
 20
2071.116913665416
 30
0.0
 11
-4454.500003964791
 21
2146.116715713546
 31
0.0
  0
LINE
  5
176
330
1F
100
AcDbEntity
  8
0-C_ハッチ
  6
JWW_DASHED1
 62
   120
370
     5
100
AcDbLine
 10
-4571.926212884116
 20
2071.116913665422
 30
0.0
 11
-4496.926410835988
 21
2146.11671571355
 31
0.0
  0
LINE
  5
177
330
1F
100
AcDbEntity
  8
0-C_ハッチ
  6
JWW_DASHED1
 62
   120
370
     5
100
AcDbLine
 10
-4614.35261975532
 20
2071.116913665418
 30
0.0
 11
-4539.352817707189
 21
2146.116715713548
 31
0.0
  0
LINE
  5
178
330
1F
100
AcDbEntity
  8
0-C_ハッチ
  6
JWW_DASHED1
 62
   120
370
     5
100
AcDbLine
 10
-4656.779026626467
 20
2071.116913665416
 30
0.0
 11
-4581.779224578338
 21
2146.116715713545
 31
0.0
  0
LINE
  5
179
330
1F
100
AcDbEntity
  8
0-C_ハッチ
  6
JWW_DASHED1
 62
   120
370
     5
100
AcDbLine
 10
-4699.205433497664
 20
2071.11691366542
 30
0.0
 11
-4624.205631449533
 21
2146.11671571355
 31
0.0
  0
LINE
  5
17A
330
1F
100
AcDbEntity
  8
0-C_ハッチ
  6
JWW_DASHED1
 62
   120
370
     5
100
AcDbLine
 10
-4741.63184036886
 20
2071.116913665423
 30
0.0
 11
-4666.63203832073
 21
2146.116715713553
 31
0.0
  0
LINE
  5
17B
330
1F
100
AcDbEntity
  8
0-C_ハッチ
  6
JWW_DASHED1
 62
   120
370
     5
100
AcDbLine
 10
-4784.058247240072
 20
2071.116913665411
 30
0.0
 11
-4709.058445191927
 21
2146.116715713557
 31
0.0
  0
LINE
  5
17C
330
1F
100
AcDbEntity
  8
0-C_ハッチ
  6
JWW_DASHED1
 62
   120
370
     5
100
AcDbLine
 10
-4826.484654111269
 20
2071.116913665415
 30
0.0
 11
-4751.484852063123
 21
2146.11671571356
 31
0.0
  0
LINE
  5
17D
330
1F
100
AcDbEntity
  8
0-C_ハッチ
  6
JWW_DASHED1
 62
   120
370
     5
100
AcDbLine
 10
-4911.337467853662
 20
2071.116913665422
 30
0.0
 11
-4836.337665805532
 21
2146.116715713552
 31
0.0
  0
LINE
  5
17E
330
1F
100
AcDbEntity
  8
0-C_ハッチ
  6
JWW_DASHED1
 62
   120
370
     5
100
AcDbLine
 10
-4953.763874724874
 20
2071.116913665409
 30
0.0
 11
-4878.764072676744
 21
2146.11671571354
 31
0.0
  0
LINE
  5
17F
330
1F
100
AcDbEntity
  8
0-C_ハッチ
  6
JWW_DASHED1
 62
   120
370
     5
100
AcDbLine
 10
-175.8290130421814
 20
2776.116715713555
 30
0.0
 11
-100.8292109940366
 21
2851.116517761701
 31
0.0
  0
LINE
  5
180
330
1F
100
AcDbEntity
  8
0-C_ハッチ
  6
JWW_DASHED1
 62
   120
370
     5
100
AcDbLine
 10
-218.2554199133942
 20
2776.116715713543
 30
0.0
 11
-143.2556178652486
 21
2851.116517761689
 31
0.0
  0
LINE
  5
181
330
1F
100
AcDbEntity
  8
0-C_ハッチ
  6
JWW_DASHED1
 62
   120
370
     5
100
AcDbLine
 10
-260.6818267845916
 20
2776.116715713545
 30
0.0
 11
-185.6820247364452
 21
2851.116517761692
 31
0.0
  0
LINE
  5
182
330
1F
100
AcDbEntity
  8
0-C_ハッチ
  6
JWW_DASHED1
 62
   120
370
     5
100
AcDbLine
 10
-303.1082336557874
 20
2776.11671571355
 30
0.0
 11
-228.1084316076418
 21
2851.116517761696
 31
0.0
  0
LINE
  5
183
330
1F
100
AcDbEntity
  8
0-C_ハッチ
  6
JWW_DASHED1
 62
   120
370
     5
100
AcDbLine
 10
-345.5346405269934
 20
2776.116715713543
 30
0.0
 11
-270.534838478847
 21
2851.11651776169
 31
0.0
  0
LINE
  5
184
330
1F
100
AcDbEntity
  8
0-C_ハッチ
  6
JWW_DASHED1
 62
   120
370
     5
100
AcDbLine
 10
-387.96104739819
 20
2776.116715713546
 30
0.0
 11
-312.9612453500436
 21
2851.116517761694
 31
0.0
  0
LINE
  5
185
330
1F
100
AcDbEntity
  8
0-C_ハッチ
  6
JWW_DASHED1
 62
   120
370
     5
100
AcDbLine
 10
-430.3874542693337
 20
2776.116715713548
 30
0.0
 11
-355.3876522211881
 21
2851.116517761696
 31
0.0
  0
LINE
  5
186
330
1F
100
AcDbEntity
  8
0-C_ハッチ
  6
JWW_DASHED1
 62
   120
370
     5
100
AcDbLine
 10
-472.8138611405303
 20
2776.116715713552
 30
0.0
 11
-397.8140590923847
 21
2851.116517761697
 31
0.0
  0
LINE
  5
187
330
1F
100
AcDbEntity
  8
0-C_ハッチ
  6
JWW_DASHED1
 62
   120
370
     5
100
AcDbLine
 10
-515.2402680117423
 20
2776.11671571354
 30
0.0
 11
-440.2404659635813
 21
2851.116517761703
 31
0.0
  0
LINE
  5
188
330
1F
100
AcDbEntity
  8
0-C_ハッチ
  6
JWW_DASHED1
 62
   120
370
     5
100
AcDbLine
 10
-557.6666748829389
 20
2776.116715713543
 30
0.0
 11
-482.6668728347942
 21
2851.116517761689
 31
0.0
  0
LINE
  5
189
330
1F
100
AcDbEntity
  8
0-C_ハッチ
  6
JWW_DASHED1
 62
   120
370
     5
100
AcDbLine
 10
-600.0930817541364
 20
2776.116715713546
 30
0.0
 11
-525.0932797059908
 21
2851.116517761692
 31
0.0
  0
LINE
  5
18A
330
1F
100
AcDbEntity
  8
0-C_ハッチ
  6
JWW_DASHED1
 62
   120
370
     5
100
AcDbLine
 10
-642.5194886253449
 20
2776.116715713538
 30
0.0
 11
-567.5196865771984
 21
2851.116517761684
 31
0.0
  0
LINE
  5
18B
330
1F
100
AcDbEntity
  8
0-C_ハッチ
  6
JWW_DASHED1
 62
   120
370
     5
100
AcDbLine
 10
-684.9458954965423
 20
2776.116715713541
 30
0.0
 11
-609.946093448395
 21
2851.116517761687
 31
0.0
  0
LINE
  5
18C
330
1F
100
AcDbEntity
  8
0-C_ハッチ
  6
JWW_DASHED1
 62
   120
370
     5
100
AcDbLine
 10
-727.3723023676827
 20
2776.116715713545
 30
0.0
 11
-652.372500319537
 21
2851.116517761692
 31
0.0
  0
LINE
  5
18D
330
1F
100
AcDbEntity
  8
0-C_ハッチ
  6
JWW_DASHED1
 62
   120
370
     5
100
AcDbLine
 10
-769.7987092388785
 20
2776.11671571355
 30
0.0
 11
-694.7989071907328
 21
2851.116517761696
 31
0.0
  0
LINE
  5
18E
330
1F
100
AcDbEntity
  8
0-C_ハッチ
  6
JWW_DASHED1
 62
   120
370
     5
100
AcDbLine
 10
-812.2251161100751
 20
2776.116715713553
 30
0.0
 11
-737.2253140619295
 21
2851.116517761699
 31
0.0
  0
LINE
  5
18F
330
1F
100
AcDbEntity
  8
0-C_ハッチ
  6
JWW_DASHED1
 62
   120
370
     5
100
AcDbLine
 10
-854.6515229812878
 20
2776.11671571354
 30
0.0
 11
-779.6517209331422
 21
2851.116517761685
 31
0.0
  0
LINE
  5
190
330
1F
100
AcDbEntity
  8
0-C_ハッチ
  6
JWW_DASHED1
 62
   120
370
     5
100
AcDbLine
 10
-886.1258406235897
 20
2787.068804942438
 30
0.0
 11
-822.0781278043388
 21
2851.116517761689
 31
0.0
  0
LINE
  5
191
330
1F
100
AcDbEntity
  8
0-C_ハッチ
  6
JWW_DASHED1
 62
   120
370
     5
100
AcDbLine
 10
-886.1258406235958
 20
2829.495211813633
 30
0.0
 11
-864.5045346755354
 21
2851.116517761692
 31
0.0
  0
LINE
  5
192
330
1F
100
AcDbEntity
  8
0-C_ハッチ
  6
JWW_DASHED1
 62
   120
370
     5
100
AcDbLine
 10
-202.0063051512265
 20
2071.11691366542
 30
0.0
 11
-127.0065031030963
 21
2146.11671571355
 31
0.0
  0
LINE
  5
193
330
1F
100
AcDbEntity
  8
0-C_ハッチ
  6
JWW_DASHED1
 62
   120
370
     5
100
AcDbLine
 10
-244.4327120224231
 20
2071.116913665423
 30
0.0
 11
-169.4329099742929
 21
2146.116715713553
 31
0.0
  0
LINE
  5
194
330
1F
100
AcDbEntity
  8
0-C_ハッチ
  6
JWW_DASHED1
 62
   120
370
     5
100
AcDbLine
 10
-286.8591188936351
 20
2071.116913665411
 30
0.0
 11
-211.8593168454895
 21
2146.116715713557
 31
0.0
  0
LINE
  5
195
330
1F
100
AcDbEntity
  8
0-C_ハッチ
  6
JWW_DASHED1
 62
   120
370
     5
100
AcDbLine
 10
-329.2855257648317
 20
2071.116913665415
 30
0.0
 11
-254.2857237167014
 21
2146.116715713545
 31
0.0
  0
LINE
  5
196
330
1F
100
AcDbEntity
  8
0-C_ハッチ
  6
JWW_DASHED1
 62
   120
370
     5
100
AcDbLine
 10
-371.7119326360283
 20
2071.116913665418
 30
0.0
 11
-296.7121305878989
 21
2146.116715713548
 31
0.0
  0
LINE
  5
197
330
1F
100
AcDbEntity
  8
0-C_ハッチ
  6
JWW_DASHED1
 62
   120
370
     5
100
AcDbLine
 10
-414.1383395072352
 20
2071.116913665411
 30
0.0
 11
-339.138537459104
 21
2146.116715713541
 31
0.0
  0
LINE
  5
198
330
1F
100
AcDbEntity
  8
0-C_ハッチ
  6
JWW_DASHED1
 62
   120
370
     5
100
AcDbLine
 10
-456.564746378378
 20
2071.116913665413
 30
0.0
 11
-381.5649443302486
 21
2146.116715713543
 31
0.0
  0
LINE
  5
199
330
1F
100
AcDbEntity
  8
0-C_ハッチ
  6
JWW_DASHED1
 62
   120
370
     5
100
AcDbLine
 10
-498.9911532495746
 20
2071.116913665416
 30
0.0
 11
-423.9913512014452
 21
2146.116715713546
 31
0.0
  0
LINE
  5
19A
330
1F
100
AcDbEntity
  8
0-C_ハッチ
  6
JWW_DASHED1
 62
   120
370
     5
100
AcDbLine
 10
-541.4175601207712
 20
2071.11691366542
 30
0.0
 11
-466.4177580726409
 21
2146.11671571355
 31
0.0
  0
LINE
  5
19B
330
1F
100
AcDbEntity
  8
0-C_ハッチ
  6
JWW_DASHED1
 62
   120
370
     5
100
AcDbLine
 10
-583.8439669919841
 20
2071.116913665408
 30
0.0
 11
-508.8441649438375
 21
2146.116715713553
 31
0.0
  0
LINE
  5
19C
330
1F
100
AcDbEntity
  8
0-C_ハッチ
  6
JWW_DASHED1
 62
   120
370
     5
100
AcDbLine
 10
-626.2703738631798
 20
2071.116913665411
 30
0.0
 11
-551.2705718150341
 21
2146.116715713557
 31
0.0
  0
LINE
  5
19D
330
1F
100
AcDbEntity
  8
0-C_ハッチ
  6
JWW_DASHED1
 62
   120
370
     5
100
AcDbLine
 10
-668.6967807343773
 20
2071.116913665415
 30
0.0
 11
-593.696978686247
 21
2146.116715713545
 31
0.0
  0
LINE
  5
19E
330
1F
100
AcDbEntity
  8
0-C_ハッチ
  6
JWW_DASHED1
 62
   120
370
     5
100
AcDbLine
 10
-711.1231876055875
 20
2071.116913665404
 30
0.0
 11
-636.1233855574555
 21
2146.116715713536
 31
0.0
  0
LINE
  5
19F
330
1F
100
AcDbEntity
  8
0-C_ハッチ
  6
JWW_DASHED1
 62
   120
370
     5
100
AcDbLine
 10
-753.5495944767841
 20
2071.116913665408
 30
0.0
 11
-678.549792428653
 21
2146.116715713538
 31
0.0
  0
LINE
  5
1A0
330
1F
100
AcDbEntity
  8
0-C_ハッチ
  6
JWW_DASHED1
 62
   120
370
     5
100
AcDbLine
 10
-795.9760013479236
 20
2071.116913665415
 30
0.0
 11
-720.9761992997933
 21
2146.116715713545
 31
0.0
  0
LINE
  5
1A1
330
1F
100
AcDbEntity
  8
0-C_ハッチ
  6
JWW_DASHED1
 62
   120
370
     5
100
AcDbLine
 10
-838.4024082191202
 20
2071.116913665418
 30
0.0
 11
-763.4026061709899
 21
2146.116715713548
 31
0.0
  0
LINE
  5
1A2
330
1F
100
AcDbEntity
  8
0-C_ハッチ
  6
Continuous
 62
   120
370
     5
100
AcDbLine
 10
-4005.559982561813
 20
1984.116478171332
 30
0.0
 11
-3969.511576212715
 21
2020.16488452043
 31
0.0
  0
LINE
  5
1A3
330
1F
100
AcDbEntity
  8
0-C_ハッチ
  6
Continuous
 62
   120
370
     5
100
AcDbLine
 10
-4064.956952181527
 20
1984.11647817132
 30
0.0
 11
-3969.511576212705
 21
2079.561854140142
 31
0.0
  0
LINE
  5
1A4
330
1F
100
AcDbEntity
  8
0-C_ハッチ
  6
Continuous
 62
   120
370
     5
100
AcDbLine
 10
-4124.353921801183
 20
1984.116478171312
 30
0.0
 11
-3969.511576212712
 21
2138.958823759782
 31
0.0
  0
LINE
  5
1A5
330
1F
100
AcDbEntity
  8
0-C_ハッチ
  6
Continuous
 62
   120
370
     5
100
AcDbLine
 10
-1052.571680995224
 20
2680.019934190451
 30
0.0
 11
-995.5722352604157
 21
2737.01937992526
 31
0.0
  0
LINE
  5
1A6
330
1F
100
AcDbEntity
  8
0-C_ハッチ
  6
Continuous
 62
   120
370
     5
100
AcDbLine
 10
-1052.571680995224
 20
2739.416903810153
 30
0.0
 11
-1045.87210663405
 21
2746.116478171326
 31
0.0
  0
LINE
  5
1A7
330
1F
100
AcDbEntity
  8
0-C_ハッチ
  6
JWW_DASHED1
 62
   120
370
     5
100
AcDbLine
 10
-90.97619929978904
 20
2776.116715713548
 30
0.0
 11
-75.1721085712343
 21
2791.920806442102
 31
0.0
  0
LINE
  5
1A8
330
1F
100
AcDbEntity
  8
0-C_ハッチ
  6
JWW_DASHED1
 62
   120
370
     5
100
AcDbLine
 10
-133.4026061709848
 20
2776.116715713552
 30
0.0
 11
-75.1721085712343
 21
2834.347213313302
 31
0.0
  0
LINE
  5
1A9
330
1F
100
AcDbEntity
  8
0-C_ハッチ
  6
JWW_DASHED1
 62
   120
370
     5
100
AcDbLine
 10
-117.1534914088836
 20
2071.116913665418
 30
0.0
 11
-75.1721085712343
 21
2113.098296503066
 31
0.0
  0
LINE
  5
1AA
330
1F
100
AcDbEntity
  8
0-C_ハッチ
  6
JWW_DASHED1
 62
   120
370
     5
100
AcDbLine
 10
-159.5798982800299
 20
2071.116913665416
 30
0.0
 11
-75.1721085712343
 21
2155.524703374211
 31
0.0
  0
LINE
  5
1AB
330
1F
100
AcDbEntity
  8
0-C_ハッチ
  6
JWW_DASHED1
 62
   120
370
     5
100
AcDbLine
 10
-4946.911742492264
 20
2816.545927171785
 30
0.0
 11
-4912.341151902361
 21
2851.116517761689
 31
0.0
  0
LINE
  5
1AC
330
1F
100
AcDbEntity
  8
0-C_ハッチ
  6
JWW_DASHED1
 62
   120
370
     5
100
AcDbLine
 10
-4860.061733336895
 20
2776.116715713555
 30
0.0
 11
-4785.061931288756
 21
2851.116517761694
 31
0.0
  0
LINE
  5
1AD
330
1F
100
AcDbEntity
  8
0-C_ハッチ
  6
JWW_DASHED1
 62
   120
370
     5
100
AcDbLine
 10
-4817.635326465695
 20
2776.116715713555
 30
0.0
 11
-4742.635524417559
 21
2851.11651776169
 31
0.0
  0
LINE
  5
1AE
330
1F
100
AcDbEntity
  8
0-C_ハッチ
  6
JWW_DASHED1
 62
   120
370
     5
100
AcDbLine
 10
-4946.911742492264
 20
2120.395452769165
 30
0.0
 11
-4921.190479547882
 21
2146.116715713546
 31
0.0
  0
LINE
  5
1AF
330
1F
100
AcDbEntity
  8
0-C_ハッチ
  6
JWW_DASHED1
 62
   120
370
     5
100
AcDbLine
 10
-4868.911060982471
 20
2071.116913665413
 30
0.0
 11
-4793.911258934335
 21
2146.116715713548
 31
0.0
  0
LINE
  5
1B0
330
1F
100
AcDbEntity
  8
0-C_ハッチ
  6
Continuous
 62
   120
370
     5
100
AcDbLine
 10
-864.5045346755405
 20
2851.116517761689
 30
0.0
 11
-856.3721719158285
 21
2859.2488805214
 31
0.0
  0
LINE
  5
1B1
330
1F
100
AcDbEntity
  8
0-0_補助線
  6
JWW_HOJO
 62
   120
370
     5
100
AcDbLine
 10
-4946.911742492264
 20
2983.464952593555
 30
0.0
 11
-4946.911742492264
 21
1825.927605513555
 31
0.0
  0
LINE
  5
1B2
330
1F
100
AcDbEntity
  8
0-0_補助線
  6
JWW_HOJO
 62
   120
370
     5
100
AcDbLine
 10
-4946.911742492264
 20
2983.464952593555
 30
0.0
 11
-75.1721085712343
 21
2983.464952593555
 31
0.0
  0
LINE
  5
1B3
330
1F
100
AcDbEntity
  8
0-0_補助線
  6
JWW_HOJO
 62
   120
370
     5
100
AcDbLine
 10
-75.1721085712343
 20
2983.464952593555
 30
0.0
 11
-75.1721085712343
 21
1825.927605513555
 31
0.0
  0
LINE
  5
1B4
330
1F
100
AcDbEntity
  8
0-0_補助線
  6
JWW_HOJO
 62
   120
370
     5
100
AcDbLine
 10
-4946.911742492264
 20
1825.927605513555
 30
0.0
 11
-75.1721085712343
 21
1825.927605513555
 31
0.0
  0
MTEXT
  5
1B5
330
1F
100
AcDbEntity
  8
0-B_寸法
  6
Continuous
 62
     7
370
     0
100
AcDbMText
 10
-3625.621056787029
 20
2283.216478171324
 30
0.0
 40
76.19999999999999
 41
150.0
 46
0.0
 71
     7
 72
     1
  1
{\fＭＳ ゴシック|b0|i0|c128|p49;128}
 11
6.123031769111886E-17
 21
1.0
 31
0.0
 73
     1
 44
1.0
  0
MTEXT
  5
1B6
330
1F
100
AcDbEntity
  8
0-A_文字
  6
Continuous
 62
     7
370
     9
100
AcDbMText
 10
-4946.911742492264
 20
2939.541202593555
 30
0.0
 40
77.15249999999999
 41
405.0
 46
0.0
 71
     7
 72
     1
  1
{\fＭＳ ゴシック|b0|i0|c128|p49;（洋側）}
 73
     1
 44
1.0
  0
MTEXT
  5
1B7
330
1F
100
AcDbEntity
  8
0-A_文字
  6
Continuous
 62
     7
370
     9
100
AcDbMText
 10
-4946.911742492264
 20
1774.503855513555
 30
0.0
 40
77.15249999999999
 41
405.0
 46
0.0
 71
     7
 72
     1
  1
{\fＭＳ ゴシック|b0|i0|c128|p49;（和側）}
 73
     1
 44
1.0
  0
LINE
  5
1B8
330
1F
100
AcDbEntity
  8
0-A_文字
  6
Continuous
 62
     7
370
     9
100
AcDbLine
 10
1544.827891428766
 20
3043.927605513357
 30
0.0
 11
104.8278914287657
 21
3043.927605513357
 31
0.0
  0
LINE
  5
1B9
330
1F
100
AcDbEntity
  8
0-A_文字
  6
Continuous
 62
     7
370
     9
100
AcDbLine
 10
104.8278914287657
 20
3043.927605513357
 30
0.0
 11
104.8278914287657
 21
1645.927605513555
 31
0.0
  0
LINE
  5
1BA
330
1F
100
AcDbEntity
  8
0-A_文字
  6
Continuous
 62
     7
370
     9
100
AcDbLine
 10
104.8278914287657
 20
1645.927605513555
 30
0.0
 11
1544.827891428766
 21
1645.927605513555
 31
0.0
  0
LINE
  5
1BB
330
1F
100
AcDbEntity
  8
0-A_文字
  6
Continuous
 62
     7
370
     9
100
AcDbLine
 10
1544.827891428766
 20
1645.927605513555
 30
0.0
 11
1544.827891428766
 21
3043.927605513357
 31
0.0
  0
LINE
  5
1BC
330
1F
100
AcDbEntity
  8
0-5_ケーシング
  6
Continuous
 62
    92
370
    13
100
AcDbLine
 10
-991.3724886388023
 20
2900.660700616425
 30
0.0
 11
-991.3724886388023
 21
2701.116161448352
 31
0.0
  0
LINE
  5
1BD
330
1F
100
AcDbEntity
  8
0-5_ケーシング
  6
Continuous
 62
    92
370
    13
100
AcDbLine
 10
-994.3720531447132
 20
2901.903640333486
 30
0.0
 11
-994.3720531447132
 21
2701.116161448352
 31
0.0
  0
LINE
  5
1BE
330
1F
100
AcDbEntity
  8
0-5_ケーシング
  6
Continuous
 62
    92
370
    13
100
AcDbLine
 10
-994.3720531447132
 20
2701.116161448352
 30
0.0
 11
-941.5717601759632
 21
2701.116161448352
 31
0.0
  0
LINE
  5
1BF
330
1F
100
AcDbEntity
  8
0-5_ケーシング
  6
Continuous
 62
    92
370
    13
100
AcDbLine
 10
-941.5717601759632
 20
2701.116161448352
 30
0.0
 11
-941.5717601759632
 21
2851.116517761696
 31
0.0
  0
LINE
  5
1C0
330
1F
100
AcDbEntity
  8
0-5_ケーシング
  6
Continuous
 62
    92
370
    13
100
AcDbLine
 10
-4030.711362424697
 20
2900.660700616425
 30
0.0
 11
-4030.711362424697
 21
2701.116161448352
 31
0.0
  0
LINE
  5
1C1
330
1F
100
AcDbEntity
  8
0-5_ケーシング
  6
Continuous
 62
    92
370
    13
100
AcDbLine
 10
-4027.711500990999
 20
2901.903640333486
 30
0.0
 11
-4027.711500990999
 21
2701.116161448352
 31
0.0
  0
LINE
  5
1C2
330
1F
100
AcDbEntity
  8
0-5_ケーシング
  6
Continuous
 62
    92
370
    13
100
AcDbLine
 10
-4080.511497031961
 20
2851.116517761696
 30
0.0
 11
-4080.511497031961
 21
2701.116161448352
 31
0.0
  0
LINE
  5
1C3
330
1F
100
AcDbEntity
  8
0-5_ケーシング
  6
Continuous
 62
    92
370
    13
100
AcDbLine
 10
-4027.711500990999
 20
2701.116161448352
 30
0.0
 11
-4080.511497031961
 21
2701.116161448352
 31
0.0
  0
LINE
  5
1C4
330
1F
100
AcDbEntity
  8
0-4_枠
  6
Continuous
 62
   120
370
     5
100
AcDbLine
 10
-3966.511417851218
 20
1981.116319809838
 30
0.0
 11
-2541.041925531749
 21
1981.116319809838
 31
0.0
  0
LINE
  5
1C5
330
1F
100
AcDbEntity
  8
0-4_枠
  6
Continuous
 62
   120
370
     5
100
AcDbLine
 10
-3966.511417851218
 20
2749.116636532811
 30
0.0
 11
-2541.041925531749
 21
2749.116636532811
 31
0.0
  0
MTEXT
  5
1C6
330
1F
100
AcDbEntity
  8
0-B_寸法
  6
Continuous
 62
     7
370
     0
100
AcDbMText
 10
-2743.54192553175
 20
3144.715038349596
 30
0.0
 40
78.74000000000001
 41
465.0
 46
0.0
 71
     7
 72
     1
  1
{\fＭＳ ゴシック|b0|i0|c128|p49;ＤＷ＝680}
 73
     1
 44
1.0
  0
MTEXT
  5
1C7
330
1F
100
AcDbEntity
  8
0-B_寸法
  6
Continuous
 62
     7
370
     0
100
AcDbMText
 10
-2822.291925531751
 20
1652.456355705108
 30
0.0
 40
79.0575
 41
622.5
 46
0.0
 71
     7
 72
     1
  1
{\fＭＳ ゴシック|b0|i0|c128|p49;枠内寸法=687}
 73
     1
 44
1.0
  0
MTEXT
  5
1C8
330
1F
100
AcDbEntity
  8
0-B_寸法
  6
Continuous
 62
     7
370
     0
100
AcDbMText
 10
-3954.511378260846
 20
3139.635038349596
 30
0.0
 40
68.58
 41
45.0
 46
0.0
 71
     7
 72
     1
  1
{\fＭＳ ゴシック|b0|i0|c128|p49;2}
 73
     1
 44
1.0
  0
MTEXT
  5
1C9
330
1F
100
AcDbEntity
  8
0-B_寸法
  6
Continuous
 62
     7
370
     0
100
AcDbMText
 10
-1124.571918537451
 20
3139.635038349596
 30
0.0
 40
68.58
 41
45.0
 46
0.0
 71
     7
 72
     1
  1
{\fＭＳ ゴシック|b0|i0|c128|p49;5}
 73
     1
 44
1.0
  0
LINE
  5
1CA
330
1F
100
AcDbEntity
  8
0-A_文字
  6
Continuous
 62
     7
370
     9
100
AcDbLine
 10
-3876.906579051841
 20
1823.269341926559
 30
0.0
 11
-3816.906579051841
 21
1823.269341926559
 31
0.0
  0
LINE
  5
1CB
330
1F
100
AcDbEntity
  8
0-A_文字
  6
Continuous
 62
     7
370
     9
100
AcDbLine
 10
-4004.872729126502
 20
2044.913215504855
 30
0.0
 11
-3876.906579051841
 21
1823.269341926559
 31
0.0
  0
LWPOLYLINE
  5
1CC
330
1F
100
AcDbEntity
  8
0-A_文字
  6
Continuous
 62
     7
370
     9
100
AcDbPolyline
 90
        4
 70
     1
 43
3.0
 10
-4003.372729126502
 20
2044.913215504855
 42
0.4142135623731
 10
-4004.872729126502
 20
2046.413215504855
 42
0.4142135623731
 10
-4006.372729126502
 20
2044.913215504855
 42
0.4142135623731
 10
-4004.872729126502
 20
2043.413215504856
 42
0.4142135623731
  0
LINE
  5
1CD
330
1F
100
AcDbEntity
  8
0-A_文字
  6
Continuous
 62
     7
370
     9
100
AcDbLine
 10
-3917.909245680924
 20
2983.464952593555
 30
0.0
 11
-3857.909245680924
 21
2983.464952593555
 31
0.0
  0
MTEXT
  5
1CE
330
1F
100
AcDbEntity
  8
0-A_文字
  6
Continuous
 62
     7
370
     9
100
AcDbMText
 10
-3857.909245680924
 20
2932.326952593555
 30
0.0
 40
77.72400000000007
 41
510.0000000000005
 46
0.0
 71
     7
 72
     1
  1
{\fＭＳ ゴシック|b0|i0|c128|p49;ケーシング}
 73
     1
 44
1.0
  0
LINE
  5
1CF
330
1F
100
AcDbEntity
  8
0-A_文字
  6
Continuous
 62
     7
370
     9
100
AcDbLine
 10
-4055.788036995848
 20
2744.65188074992
 30
0.0
 11
-3917.909245680924
 21
2983.464952593555
 31
0.0
  0
LWPOLYLINE
  5
1D0
330
1F
100
AcDbEntity
  8
0-A_文字
  6
Continuous
 62
     7
370
     9
100
AcDbPolyline
 90
        4
 70
     1
 43
3.0
 10
-4054.288036995848
 20
2744.65188074992
 42
0.4142135623731
 10
-4055.788036995848
 20
2746.15188074992
 42
0.4142135623731
 10
-4057.288036995848
 20
2744.65188074992
 42
0.4142135623731
 10
-4055.788036995848
 20
2743.151880749921
 42
0.4142135623731
  0
LINE
  5
1D1
330
1F
100
AcDbEntity
  8
0-C_ハッチ
  6
JWW_DASHED1
 62
   120
370
     5
100
AcDbLine
 10
-947.5548294742466
 20
2701.116161448354
 30
0.0
 11
-941.5717601759652
 21
2707.099230746636
 31
0.0
  0
LINE
  5
1D2
330
1F
100
AcDbEntity
  8
0-C_ハッチ
  6
JWW_DASHED1
 62
   120
370
     5
100
AcDbLine
 10
-989.9812363454561
 20
2701.116161448345
 30
0.0
 11
-941.5717601759665
 21
2749.525637617834
 31
0.0
  0
LINE
  5
1D3
330
1F
100
AcDbEntity
  8
0-C_ハッチ
  6
JWW_DASHED1
 62
   120
370
     5
100
AcDbLine
 10
-991.3724886387887
 20
2742.151316026158
 30
0.0
 11
-941.5717601759658
 21
2791.952044488981
 31
0.0
  0
LINE
  5
1D4
330
1F
100
AcDbEntity
  8
0-C_ハッチ
  6
JWW_DASHED1
 62
   120
370
     5
100
AcDbLine
 10
-882.4072869032412
 20
2851.116517761705
 30
0.0
 11
-856.3721719158405
 21
2877.151632749106
 31
0.0
  0
LINE
  5
1D5
330
1F
100
AcDbEntity
  8
0-C_ハッチ
  6
JWW_DASHED1
 62
   120
370
     5
100
AcDbLine
 10
-991.3724886387934
 20
2784.577722897353
 30
0.0
 11
-941.5717601759717
 21
2834.378451360175
 31
0.0
  0
LINE
  5
1D6
330
1F
100
AcDbEntity
  8
0-C_ハッチ
  6
JWW_DASHED1
 62
   120
370
     5
100
AcDbLine
 10
-924.8336937744407
 20
2851.116517761706
 30
0.0
 11
-856.3721719158439
 21
2919.578039620303
 31
0.0
  0
LINE
  5
1D7
330
1F
100
AcDbEntity
  8
0-C_ハッチ
  6
JWW_DASHED1
 62
   120
370
     5
100
AcDbLine
 10
-991.372488638798
 20
2827.004129768548
 30
0.0
 11
-898.2600214649007
 21
2920.116596942446
 31
0.0
  0
LINE
  5
1D8
330
1F
100
AcDbEntity
  8
0-C_ハッチ
  6
JWW_DASHED1
 62
   120
370
     5
100
AcDbLine
 10
-991.372488638789
 20
2869.430536639758
 30
0.0
 11
-940.686428336105
 21
2920.116596942441
 31
0.0
  0
LINE
  5
1D9
330
1F
100
AcDbEntity
  8
0-C_ハッチ
  6
JWW_DASHED1
 62
   120
370
     5
100
AcDbLine
 10
-4044.682531071306
 20
2701.116161448351
 30
0.0
 11
-4030.711362424693
 21
2715.087330094963
 31
0.0
  0
LINE
  5
1DA
330
1F
100
AcDbEntity
  8
0-C_ハッチ
  6
JWW_DASHED1
 62
   120
370
     5
100
AcDbLine
 10
-4080.511497031957
 20
2707.7136023589
 30
0.0
 11
-4030.711362424693
 21
2757.513736966163
 31
0.0
  0
LINE
  5
1DB
330
1F
100
AcDbEntity
  8
0-C_ハッチ
  6
JWW_DASHED1
 62
   120
370
     5
100
AcDbLine
 10
-4080.511497031959
 20
2750.140009230098
 30
0.0
 11
-4030.711362424694
 21
2799.940143837362
 31
0.0
  0
LINE
  5
1DC
330
1F
100
AcDbEntity
  8
0-C_ハッチ
  6
JWW_DASHED1
 62
   120
370
     5
100
AcDbLine
 10
-4080.51149703196
 20
2792.566416101297
 30
0.0
 11
-4030.711362424695
 21
2842.366550708561
 31
0.0
  0
LINE
  5
1DD
330
1F
100
AcDbEntity
  8
0-C_ハッチ
  6
JWW_DASHED1
 62
   120
370
     5
100
AcDbLine
 10
-4080.511497031961
 20
2834.992822972496
 30
0.0
 11
-4030.711362424697
 21
2884.79295757976
 31
0.0
  0
LINE
  5
1DE
330
1F
100
AcDbEntity
  8
0-C_ハッチ
  6
JWW_DASHED1
 62
   120
370
     5
100
AcDbLine
 10
-4106.814209113901
 20
2851.116517761701
 30
0.0
 11
-4043.990694341936
 21
2913.940032533665
 31
0.0
  0
LINE
  5
1DF
330
1F
100
AcDbEntity
  8
0-C_ハッチ
  6
JWW_DASHED1
 62
   120
370
     5
100
AcDbLine
 10
-4149.2406159851
 20
2851.116517761703
 30
0.0
 11
-4080.240536804362
 21
2920.11659694244
 31
0.0
  0
LINE
  5
1E0
330
1F
100
AcDbEntity
  8
0-C_ハッチ
  6
JWW_DASHED1
 62
   120
370
     5
100
AcDbLine
 10
-4165.711382219894
 20
2877.072158398108
 30
0.0
 11
-4122.666943675556
 21
2920.116596942446
 31
0.0
  0
LINE
  5
1E1
330
1F
100
AcDbEntity
  8
0-C_ハッチ
  6
JWW_DASHED1
 62
   120
370
     5
100
AcDbLine
 10
-4165.711382219898
 20
2919.498565269304
 30
0.0
 11
-4165.09335054675
 21
2920.116596942452
 31
0.0
  0
LINE
  5
1E2
330
1F
100
AcDbEntity
  8
0-4_枠
  6
Continuous
 62
    92
370
    13
100
AcDbLine
 10
-1055.571839356707
 20
2749.116636532811
 30
0.0
 11
-1055.571839356707
 21
1981.116319809838
 31
0.0
  0
LINE
  5
1E3
330
1F
100
AcDbEntity
  8
0-4_枠
  6
Continuous
 62
    92
370
    13
100
AcDbLine
 10
-1052.571680995221
 20
1984.116478171324
 30
0.0
 11
-1052.571680995221
 21
2326.116517761697
 31
0.0
  0
LINE
  5
1E4
330
1F
100
AcDbEntity
  8
0-4_枠
  6
Continuous
 62
    92
370
    13
100
AcDbLine
 10
-4146.511417851218
 20
1981.116319809838
 30
0.0
 11
-3966.511417851218
 21
1981.116319809838
 31
0.0
  0
LINE
  5
1E5
330
1F
100
AcDbEntity
  8
0-4_枠
  6
Continuous
 62
    92
370
    13
100
AcDbLine
 10
-4146.511417851218
 20
2101.116319809838
 30
0.0
 11
-4143.511417851219
 21
2101.116319809838
 31
0.0
  0
LINE
  5
1E6
330
1F
100
AcDbEntity
  8
0-C_ハッチ
  6
JWW_DASHED1
 62
   120
370
     5
100
AcDbLine
 10
-4190.088551043378
 20
2071.116913665415
 30
0.0
 11
-4147.662144172181
 21
2113.543320536611
 31
0.0
  0
LINE
  5
1E7
330
1F
100
AcDbEntity
  8
0-C_ハッチ
  6
Continuous
 62
   120
370
     5
100
AcDbLine
 10
-4143.511417851219
 20
2024.355951740923
 30
0.0
 11
-3969.511576212708
 21
2198.355793379433
 31
0.0
  0
LINE
  5
1E8
330
1F
100
AcDbEntity
  8
0-3_仕上げ
  6
Continuous
 62
    40
370
    15
100
AcDbLine
 10
-4146.511417851218
 20
2146.116715713553
 30
0.0
 11
-4146.511417851218
 21
2071.116913665413
 31
0.0
  0
LINE
  5
1E9
330
1F
100
AcDbEntity
  8
0-3_仕上げ
  6
Continuous
 62
    40
370
    15
100
AcDbLine
 10
-4946.911742492264
 20
2071.116913665413
 30
0.0
 11
-4146.511417851218
 21
2071.116913665413
 31
0.0
  0
LINE
  5
1EA
330
1F
100
AcDbEntity
  8
0-3_仕上げ
  6
Continuous
 62
    40
370
    15
100
AcDbLine
 10
-4946.911742492264
 20
2146.116715713553
 30
0.0
 11
-4146.511417851218
 21
2146.116715713553
 31
0.0
  0
LINE
  5
1EB
330
1F
100
AcDbEntity
  8
0-C_ハッチ
  6
JWW_DASHED1
 62
   120
370
     5
100
AcDbLine
 10
-4146.511417851218
 20
2071.116913665411
 30
0.0
 11
-4146.511417851219
 21
2082.821344325478
 31
0.0
  0
LINE
  5
1EC
330
1F
100
AcDbEntity
  8
0-C_ハッチ
  6
Continuous
 62
   120
370
     5
100
AcDbLine
 10
-4146.511417851218
 20
2080.752921360626
 30
0.0
 11
-3969.511576212722
 21
2257.752762999121
 31
0.0
  0
LINE
  5
1ED
330
1F
100
AcDbEntity
  8
0-C_ハッチ
  6
Continuous
 62
   120
370
     5
100
AcDbLine
 10
-4146.511417851218
 20
2140.149890980273
 30
0.0
 11
-3969.511576212712
 21
2317.149732618779
 31
0.0
  0
LINE
  5
1EE
330
1F
100
AcDbEntity
  8
0-C_ハッチ
  6
Continuous
 62
   120
370
     5
100
AcDbLine
 10
-4146.511417851218
 20
2318.340799839324
 30
0.0
 11
-3969.511576212703
 21
2495.340641477838
 31
0.0
  0
LINE
  5
1EF
330
1F
100
AcDbEntity
  8
0-C_ハッチ
  6
Continuous
 62
   120
370
     5
100
AcDbLine
 10
-4146.511417851218
 20
2377.737769458971
 30
0.0
 11
-3969.511576212713
 21
2554.737611097475
 31
0.0
  0
LINE
  5
1F0
330
1F
100
AcDbEntity
  8
0-C_ハッチ
  6
Continuous
 62
   120
370
     5
100
AcDbLine
 10
-4146.511417851218
 20
2496.53170869832
 30
0.0
 11
-3969.51157621271
 21
2673.531550336828
 31
0.0
  0
LINE
  5
1F1
330
1F
100
AcDbEntity
  8
0-C_ハッチ
  6
Continuous
 62
   120
370
     5
100
AcDbLine
 10
-4146.511417851218
 20
2615.32564793767
 30
0.0
 11
-4080.511417851218
 21
2681.325647937669
 31
0.0
  0
LINE
  5
1F2
330
1F
100
AcDbEntity
  8
0-C_ハッチ
  6
Continuous
 62
   120
370
     5
100
AcDbLine
 10
-4146.511417851218
 20
2258.943830219622
 30
0.0
 11
-3969.511417851218
 21
2435.943830219622
 31
0.0
  0
LINE
  5
1F3
330
1F
100
AcDbEntity
  8
0-4_枠
  6
Continuous
 62
    92
370
    13
100
AcDbLine
 10
-941.5717601759632
 20
2749.116636532811
 30
0.0
 11
-875.5717601759632
 21
2749.116636532811
 31
0.0
  0
LINE
  5
1F4
330
1F
100
AcDbEntity
  8
0-4_枠
  6
Continuous
 62
    92
370
    13
100
AcDbLine
 10
-878.5717601759632
 20
1984.116478171324
 30
0.0
 11
-1052.571680995221
 21
1984.116478171324
 31
0.0
  0
LINE
  5
1F5
330
1F
100
AcDbEntity
  8
0-4_枠
  6
Continuous
 62
    92
370
    13
100
AcDbLine
 10
-875.5717601759632
 20
1981.116319809838
 30
0.0
 11
-875.5717601759632
 21
2749.116636532811
 31
0.0
  0
LINE
  5
1F6
330
1F
100
AcDbEntity
  8
0-4_枠
  6
Continuous
 62
    92
370
    13
100
AcDbLine
 10
-875.5717601759632
 20
1981.116319809838
 30
0.0
 11
-1055.571839356707
 21
1981.116319809838
 31
0.0
  0
LINE
  5
1F7
330
1F
100
AcDbEntity
  8
0-C_ハッチ
  6
Continuous
 62
   120
370
     5
100
AcDbLine
 10
-916.917562339031
 20
1984.11647817131
 30
0.0
 11
-878.5717601759632
 21
2022.462280334377
 31
0.0
  0
LINE
  5
1F8
330
1F
100
AcDbEntity
  8
0-4_枠
  6
Continuous
 62
    92
370
    13
100
AcDbLine
 10
-941.5717601759632
 20
2746.116636532811
 30
0.0
 11
-878.5717601759632
 21
2746.116636532811
 31
0.0
  0
LINE
  5
1F9
330
1F
100
AcDbEntity
  8
0-4_枠
  6
Continuous
 62
    92
370
    13
100
AcDbLine
 10
-878.5717601759632
 20
2630.323501498465
 30
0.0
 11
-878.5717601759632
 21
2746.116636532811
 31
0.0
  0
LINE
  5
1FA
330
1F
100
AcDbEntity
  8
0-4_枠
  6
Continuous
 62
    92
370
    13
100
AcDbLine
 10
-878.5717601759632
 20
1984.116478171324
 30
0.0
 11
-878.5717601759632
 21
2153.997604607693
 31
0.0
  0
LINE
  5
1FB
330
1F
100
AcDbEntity
  8
0-C_ハッチ
  6
Continuous
 62
   120
370
     5
100
AcDbLine
 10
-1052.571680995215
 20
2561.225994951165
 30
0.0
 11
-875.5717601759632
 21
2738.225915770418
 31
0.0
  0
LINE
  5
1FC
330
1F
100
AcDbEntity
  8
0-C_ハッチ
  6
Continuous
 62
   120
370
     5
100
AcDbLine
 10
-1053.093081754113
 20
2323.11671571357
 30
0.0
 11
-875.5717601759632
 21
2500.63803729172
 31
0.0
  0
LINE
  5
1FD
330
1F
100
AcDbEntity
  8
0-C_ハッチ
  6
Continuous
 62
   120
370
     5
100
AcDbLine
 10
-1052.571680995209
 20
2026.653268374128
 30
0.0
 11
-875.5717601759632
 21
2203.653189193373
 31
0.0
  0
LINE
  5
1FE
330
1F
100
AcDbEntity
  8
0-C_ハッチ
  6
Continuous
 62
   120
370
     5
100
AcDbLine
 10
-1052.571680995227
 20
2086.050237993757
 30
0.0
 11
-875.5717601759632
 21
2263.050158813022
 31
0.0
  0
LINE
  5
1FF
330
1F
100
AcDbEntity
  8
0-C_ハッチ
  6
Continuous
 62
   120
370
     5
100
AcDbLine
 10
-1052.571680995218
 20
2145.447207613467
 30
0.0
 11
-875.5717601759632
 21
2322.447128432723
 31
0.0
  0
LINE
  5
200
330
1F
100
AcDbEntity
  8
0-C_ハッチ
  6
Continuous
 62
   120
370
     5
100
AcDbLine
 10
-1052.571680995231
 20
2204.844177233103
 30
0.0
 11
-875.5717601759632
 21
2381.84409805237
 31
0.0
  0
LINE
  5
201
330
1F
100
AcDbEntity
  8
0-C_ハッチ
  6
Continuous
 62
   120
370
     5
100
AcDbLine
 10
-1052.571680995218
 20
2501.829025331462
 30
0.0
 11
-875.5717601759632
 21
2678.828946150717
 31
0.0
  0
LINE
  5
202
330
1F
100
AcDbEntity
  8
0-C_ハッチ
  6
Continuous
 62
   120
370
     5
100
AcDbLine
 10
-1052.571680995213
 20
2620.622964570814
 30
0.0
 11
-984.0782069850757
 21
2689.116438580953
 31
0.0
  0
LINE
  5
203
330
1F
100
AcDbEntity
  8
0-C_ハッチ
  6
Continuous
 62
   120
370
     5
100
AcDbLine
 10
-941.5717601759632
 20
2731.622885390066
 30
0.0
 11
-927.0780090332183
 21
2746.116636532811
 31
0.0
  0
LINE
  5
204
330
1F
100
AcDbEntity
  8
0-3_仕上げ
  6
Continuous
 62
    40
370
    15
100
AcDbLine
 10
-875.5717601759632
 20
2146.116715713553
 30
0.0
 11
-875.5717601759632
 21
2071.116913665413
 31
0.0
  0
LINE
  5
205
330
1F
100
AcDbEntity
  8
0-3_仕上げ
  6
Continuous
 62
    40
370
    15
100
AcDbLine
 10
-75.1721085712343
 20
2071.116913665413
 30
0.0
 11
-875.5717601759632
 21
2071.116913665413
 31
0.0
  0
LINE
  5
206
330
1F
100
AcDbEntity
  8
0-3_仕上げ
  6
Continuous
 62
    40
370
    15
100
AcDbLine
 10
-75.1721085712343
 20
2146.116715713553
 30
0.0
 11
-875.5717601759632
 21
2146.116715713553
 31
0.0
  0
LINE
  5
207
330
1F
100
AcDbEntity
  8
0-C_ハッチ
  6
JWW_DASHED1
 62
   120
370
     5
100
AcDbLine
 10
-875.5717601759633
 20
2118.800375450975
 30
0.0
 11
-848.2554199133831
 21
2146.116715713555
 31
0.0
  0
LINE
  5
208
330
1F
100
AcDbEntity
  8
0-C_ハッチ
  6
JWW_DASHED1
 62
   120
370
     5
100
AcDbLine
 10
-875.571760175963
 20
2076.373968579775
 30
0.0
 11
-805.8290130421857
 21
2146.116715713552
 31
0.0
  0
LINE
  5
209
330
1F
100
AcDbEntity
  8
0-C_ハッチ
  6
Continuous
 62
   120
370
     5
100
AcDbLine
 10
-976.3145319586807
 20
1984.116478171307
 30
0.0
 11
-878.571760175963
 21
2081.859249954025
 31
0.0
  0
LINE
  5
20A
330
1F
100
AcDbEntity
  8
0-C_ハッチ
  6
Continuous
 62
   120
370
     5
100
AcDbLine
 10
-1035.711501578311
 20
1984.116478171324
 30
0.0
 11
-878.5717601759633
 21
2141.256219573672
 31
0.0
  0
LINE
  5
20B
330
1F
100
AcDbEntity
  8
0-4_枠
  6
Continuous
 62
    92
370
    13
100
AcDbLine
 10
-1052.571680995221
 20
2746.116478171323
 30
0.0
 11
-1052.571680995221
 21
2326.116517761697
 31
0.0
  0
LINE
  5
20C
330
1F
100
AcDbEntity
  8
0-C_ハッチ
  6
Continuous
 62
   120
370
     5
100
AcDbLine
 10
-1052.571680995221
 20
2383.035086092108
 30
0.0
 11
-875.5717601759632
 21
2560.035006911367
 31
0.0
  0
LINE
  5
20D
330
1F
100
AcDbEntity
  8
0-C_ハッチ
  6
Continuous
 62
   120
370
     5
100
AcDbLine
 10
-1052.571680995221
 20
2442.432055711811
 30
0.0
 11
-875.5717601759632
 21
2619.431976531068
 31
0.0
  0
LWPOLYLINE
  5
20E
330
1F
100
AcDbEntity
  8
0-B_寸法
  6
Continuous
 62
     7
370
     9
100
AcDbPolyline
 90
        4
 70
     1
 43
3.0
 10
-4145.011417851218
 20
1645.927605705108
 42
0.4142135623731
 10
-4146.511417851218
 20
1647.427605705108
 42
0.4142135623731
 10
-4148.011417851218
 20
1645.927605705108
 42
0.4142135623731
 10
-4146.511417851218
 20
1644.427605705108
 42
0.4142135623731
  0
LWPOLYLINE
  5
20F
330
1F
100
AcDbEntity
  8
0-B_寸法
  6
Continuous
 62
     7
370
     9
100
AcDbPolyline
 90
        4
 70
     1
 43
3.0
 10
-874.0717601759632
 20
1645.927605705108
 42
0.4142135623731
 10
-875.5717601759632
 20
1647.427605705108
 42
0.4142135623731
 10
-877.0717601759632
 20
1645.927605705108
 42
0.4142135623731
 10
-875.5717601759632
 20
1644.427605705108
 42
0.4142135623731
  0
LINE
  5
210
330
1F
100
AcDbEntity
  8
0-B_寸法
  6
Continuous
 62
   120
370
     5
100
AcDbLine
 10
-875.5717601759632
 20
1825.927605705108
 30
0.0
 11
-875.5717601759632
 21
1645.927605705108
 31
0.0
  0
LINE
  5
211
330
1F
100
AcDbEntity
  8
0-B_寸法
  6
Continuous
 62
   120
370
     5
100
AcDbLine
 10
-4146.511417851218
 20
1645.927605705108
 30
0.0
 11
-875.5717601759632
 21
1645.927605705108
 31
0.0
  0
LINE
  5
212
330
1F
100
AcDbEntity
  8
0-B_寸法
  6
Continuous
 62
   120
370
     5
100
AcDbLine
 10
-875.5717601759632
 20
2983.464952622338
 30
0.0
 11
-875.5717601759632
 21
3318.345038349597
 31
0.0
  0
LWPOLYLINE
  5
213
330
1F
100
AcDbEntity
  8
0-B_寸法
  6
Continuous
 62
     7
370
     9
100
AcDbPolyline
 90
        4
 70
     1
 43
3.0
 10
-874.0717601759632
 20
3318.345038349597
 42
0.4142135623731
 10
-875.5717601759632
 20
3319.845038349596
 42
0.4142135623731
 10
-877.0717601759632
 20
3318.345038349597
 42
0.4142135623731
 10
-875.5717601759632
 20
3316.845038349597
 42
0.4142135623731
  0
LWPOLYLINE
  5
214
330
1F
100
AcDbEntity
  8
0-B_寸法
  6
Continuous
 62
     7
370
     9
100
AcDbPolyline
 90
        4
 70
     1
 43
3.0
 10
-874.0717601759632
 20
3138.345038349597
 42
0.4142135623731
 10
-875.5717601759632
 20
3139.845038349596
 42
0.4142135623731
 10
-877.0717601759632
 20
3138.345038349597
 42
0.4142135623731
 10
-875.5717601759632
 20
3136.845038349597
 42
0.4142135623731
  0
LINE
  5
215
330
1F
100
AcDbEntity
  8
0-B_寸法
  6
Continuous
 62
   120
370
     5
100
AcDbLine
 10
-4146.511417851218
 20
2983.464952622338
 30
0.0
 11
-4146.511417851218
 21
3318.345038349597
 31
0.0
  0
LWPOLYLINE
  5
216
330
1F
100
AcDbEntity
  8
0-B_寸法
  6
Continuous
 62
     7
370
     9
100
AcDbPolyline
 90
        4
 70
     1
 43
3.0
 10
-4145.011417851218
 20
3318.345038349597
 42
0.4142135623731
 10
-4146.511417851218
 20
3319.845038349596
 42
0.4142135623731
 10
-4148.011417851218
 20
3318.345038349597
 42
0.4142135623731
 10
-4146.511417851218
 20
3316.845038349597
 42
0.4142135623731
  0
LWPOLYLINE
  5
217
330
1F
100
AcDbEntity
  8
0-B_寸法
  6
Continuous
 62
     7
370
     9
100
AcDbPolyline
 90
        4
 70
     1
 43
3.0
 10
-4145.011417851218
 20
3138.345038349597
 42
0.4142135623731
 10
-4146.511417851218
 20
3139.845038349596
 42
0.4142135623731
 10
-4148.011417851218
 20
3138.345038349597
 42
0.4142135623731
 10
-4146.511417851218
 20
3136.845038349597
 42
0.4142135623731
  0
LINE
  5
218
330
1F
100
AcDbEntity
  8
0-B_寸法
  6
Continuous
 62
   120
370
     5
100
AcDbLine
 10
-4146.511417851218
 20
3138.345038349597
 30
0.0
 11
-875.5717601759632
 21
3138.345038349597
 31
0.0
  0
LINE
  5
219
330
1F
100
AcDbEntity
  8
0-B_寸法
  6
Continuous
 62
   120
370
     5
100
AcDbLine
 10
-4146.511417851218
 20
3318.345038349597
 30
0.0
 11
-875.5717601759632
 21
3318.345038349597
 31
0.0
  0
MTEXT
  5
21A
330
1F
100
AcDbEntity
  8
0-B_寸法
  6
Continuous
 62
     7
370
    70
100
AcDbMText
 10
-4105.261417851218
 20
3142.492538349597
 30
0.0
 40
74.295
 41
97.5
 46
0.0
 71
     7
 72
     1
  1
{\fＭＳ ゴシック|b0|i0|c128|p49;30}
 73
     1
 44
1.0
  0
MTEXT
  5
21B
330
1F
100
AcDbEntity
  8
0-B_寸法
  6
Continuous
 62
     7
370
    70
100
AcDbMText
 10
-1014.321799766335
 20
3142.492538349597
 30
0.0
 40
74.295
 41
97.5
 46
0.0
 71
     7
 72
     1
  1
{\fＭＳ ゴシック|b0|i0|c128|p49;30}
 73
     1
 44
1.0
  0
MTEXT
  5
21C
330
1F
100
AcDbEntity
  8
0-B_寸法
  6
Continuous
 62
     7
370
     0
100
AcDbMText
 10
-2822.29192553175
 20
3324.873788349596
 30
0.0
 40
79.0575
 41
622.5
 46
0.0
 71
     7
 72
     1
  1
{\fＭＳ ゴシック|b0|i0|c128|p49;枠外寸法=747}
 73
     1
 44
1.0
  0
MTEXT
  5
21D
330
1F
100
AcDbEntity
  8
0-B_寸法
  6
Continuous
 62
     7
370
     0
100
AcDbMText
 10
-4105.261417851218
 20
1650.075105705108
 30
0.0
 40
74.295
 41
97.5
 46
0.0
 71
     7
 72
     1
  1
{\fＭＳ ゴシック|b0|i0|c128|p49;30}
 73
     1
 44
1.0
  0
MTEXT
  5
21E
330
1F
100
AcDbEntity
  8
0-B_寸法
  6
Continuous
 62
     7
370
     0
100
AcDbMText
 10
-1014.321799766335
 20
1650.075105705108
 30
0.0
 40
74.295
 41
97.5
 46
0.0
 71
     7
 72
     1
  1
{\fＭＳ ゴシック|b0|i0|c128|p49;30}
 73
     1
 44
1.0
  0
LINE
  5
21F
330
1F
100
AcDbEntity
  8
0-4_枠
  6
Continuous
 62
    92
370
    13
100
AcDbLine
 10
-4146.511417851218
 20
2749.116636532811
 30
0.0
 11
-4080.511417851218
 21
2749.116636532811
 31
0.0
  0
LINE
  5
220
330
1F
100
AcDbEntity
  8
0-4_枠
  6
Continuous
 62
    92
370
    13
100
AcDbLine
 10
-4026.511417851218
 20
2749.116636532811
 30
0.0
 11
-3966.511417851218
 21
2749.116636532811
 31
0.0
  0
LINE
  5
221
330
1F
100
AcDbEntity
  8
0-4_枠
  6
Continuous
 62
    92
370
    13
100
AcDbLine
 10
-4080.511417851218
 20
2749.116636532811
 30
0.0
 11
-4080.511417851218
 21
2659.116636532811
 31
0.0
  0
LINE
  5
222
330
1F
100
AcDbEntity
  8
0-4_枠
  6
Continuous
 62
    92
370
    13
100
AcDbLine
 10
-4026.511417851218
 20
2749.116636532811
 30
0.0
 11
-4026.511417851218
 21
2659.116636532811
 31
0.0
  0
LINE
  5
223
330
1F
100
AcDbEntity
  8
0-4_枠
  6
Continuous
 62
    92
370
    13
100
AcDbLine
 10
-4080.511417851218
 20
2659.116636532811
 30
0.0
 11
-4026.511417851218
 21
2659.116636532811
 31
0.0
  0
LINE
  5
224
330
1F
100
AcDbEntity
  8
0-4_枠
  6
Continuous
 62
    92
370
    13
100
AcDbLine
 10
-4146.511417851218
 20
2629.116636532811
 30
0.0
 11
-4143.511417851217
 21
2629.116636532811
 31
0.0
  0
LINE
  5
225
330
1F
100
AcDbEntity
  8
0-4_枠
  6
Continuous
 62
    92
370
    13
100
AcDbLine
 10
-4146.511417851218
 20
1981.116319809838
 30
0.0
 11
-4146.511417851218
 21
2749.116636532811
 31
0.0
  0
LINE
  5
226
330
1F
100
AcDbEntity
  8
0-C_ハッチ
  6
Continuous
 62
   120
370
     5
100
AcDbLine
 10
-4146.511417851218
 20
2437.134739078619
 30
0.0
 11
-3969.511576212713
 21
2626.134897440096
 31
0.0
  0
LINE
  5
227
330
1F
100
AcDbEntity
  8
0-C_ハッチ
  6
Continuous
 62
   120
370
     5
100
AcDbLine
 10
-4026.511417851218
 20
2675.928678317968
 30
0.0
 11
-3969.511417851218
 21
2732.928678317967
 31
0.0
  0
LINE
  5
228
330
1F
100
AcDbEntity
  8
0-C_ハッチ
  6
Continuous
 62
   120
370
     5
100
AcDbLine
 10
-4146.511417851218
 20
2555.928678317968
 30
0.0
 11
-4043.323459636375
 21
2659.116636532811
 31
0.0
  0
LINE
  5
229
330
1F
100
AcDbEntity
  8
0-4_枠
  6
Continuous
 62
    92
370
    13
100
AcDbLine
 10
-4143.511417851217
 20
2746.116636532812
 30
0.0
 11
-4080.511417851218
 21
2746.116636532812
 31
0.0
  0
LINE
  5
22A
330
1F
100
AcDbEntity
  8
0-4_枠
  6
Continuous
 62
    92
370
    13
100
AcDbLine
 10
-4143.511417851217
 20
2629.116636532811
 30
0.0
 11
-4143.511417851217
 21
2746.116636532812
 31
0.0
  0
LINE
  5
22B
330
1F
100
AcDbEntity
  8
0-4_枠
  6
Continuous
 62
    92
370
    13
100
AcDbLine
 10
-4026.511417851218
 20
2746.116636532812
 30
0.0
 11
-3969.511417851218
 21
2746.116636532812
 31
0.0
  0
LINE
  5
22C
330
1F
100
AcDbEntity
  8
0-C_ハッチ
  6
Continuous
 62
   120
370
     5
100
AcDbLine
 10
-4143.511417851217
 20
2677.722617557318
 30
0.0
 11
-4080.511497031961
 21
2740.722538376573
 31
0.0
  0
LINE
  5
22D
330
1F
100
AcDbEntity
  8
0-C_ハッチ
  6
Continuous
 62
   120
370
     5
100
AcDbLine
 10
-1052.571680995219
 20
2264.241146852762
 30
0.0
 11
-875.5717601759632
 21
2441.241067672018
 31
0.0
  0
LINE
  5
22E
330
1F
100
AcDbEntity
  8
0-4_枠
  6
Continuous
 62
    92
370
    13
100
AcDbLine
 10
-4143.511417851219
 20
1984.116319809839
 30
0.0
 11
-4143.511417851219
 21
2101.116319809838
 31
0.0
  0
LINE
  5
22F
330
1F
100
AcDbEntity
  8
0-4_枠
  6
Continuous
 62
    92
370
    13
100
AcDbLine
 10
-4143.511417851219
 20
1984.116319809839
 30
0.0
 11
-3969.511417851218
 21
1984.116319809839
 31
0.0
  0
LINE
  5
230
330
1F
100
AcDbEntity
  8
0-4_枠
  6
Continuous
 62
    92
370
    13
100
AcDbLine
 10
-3969.511417851218
 20
1984.116319809839
 30
0.0
 11
-3969.511417851218
 21
2746.116636532812
 31
0.0
  0
LINE
  5
231
330
1F
100
AcDbEntity
  8
0-A_文字
  6
Continuous
 62
     7
370
     9
100
AcDbLine
 10
2145.818242439533
 20
-3317.51481913714
 30
0.0
 11
705.818242439533
 21
-3317.51481913714
 31
0.0
  0
LINE
  5
232
330
1F
100
AcDbEntity
  8
0-A_文字
  6
Continuous
 62
     7
370
     9
100
AcDbLine
 10
705.818242439533
 20
-2237.51481913714
 30
0.0
 11
2145.818242439533
 21
-2237.51481913714
 31
0.0
  0
LINE
  5
233
330
1F
100
AcDbEntity
  8
0-A_文字
  6
Continuous
 62
     7
370
     9
100
AcDbLine
 10
2145.818242439533
 20
-2237.51481913714
 30
0.0
 11
2145.818242439533
 21
-3317.51481913714
 31
0.0
  0
LINE
  5
234
330
1F
100
AcDbEntity
  8
0-A_文字
  6
Continuous
 62
     7
370
     9
100
AcDbLine
 10
705.818242439533
 20
-3317.51481913714
 30
0.0
 11
705.818242439533
 21
-2237.51481913714
 31
0.0
  0
LINE
  5
235
330
1F
100
AcDbEntity
  8
0-A_文字
  6
Continuous
 62
     7
370
     9
100
AcDbLine
 10
-2402.180728210806
 20
709.9276057051084
 30
0.0
 11
-1322.180728210806
 21
709.9276057051084
 31
0.0
  0
MTEXT
  5
236
330
1F
100
AcDbEntity
  8
0-A_文字
  6
Continuous
 62
     7
370
     9
100
AcDbMText
 10
-2259.680728210806
 20
748.4101057051081
 30
0.0
 40
100.965
 41
795.0
 46
0.0
 71
     7
 72
     1
  1
{\fＭＳ ゴシック|b0|i0|c128|p49;縦断面図・・}
 73
     1
 44
1.0
  0
LINE
  5
237
330
1F
100
AcDbEntity
  8
0-A_文字
  6
Continuous
 62
     7
370
     9
100
AcDbLine
 10
-2402.180728210806
 20
925.9276057051084
 30
0.0
 11
-2402.180728210806
 21
709.9276057051084
 31
0.0
  0
LINE
  5
238
330
1F
100
AcDbEntity
  8
0-A_文字
  6
Continuous
 62
     7
370
     9
100
AcDbLine
 10
-1322.180728210806
 20
709.9276057051084
 30
0.0
 11
-1322.180728210806
 21
925.9276057051084
 31
0.0
  0
LINE
  5
239
330
1F
100
AcDbEntity
  8
0-A_文字
  6
Continuous
 62
     7
370
     9
100
AcDbLine
 10
-1322.180728210806
 20
925.9276057051084
 30
0.0
 11
-2402.180728210806
 21
925.9276057051084
 31
0.0
  0
MTEXT
  5
23A
330
1F
100
AcDbEntity
  8
0-B_寸法
  6
Continuous
 62
     7
370
     0
100
AcDbMText
 10
-1198.430569849319
 20
-2751.957964044346
 30
0.0
 40
76.19999999999999
 41
150.0
 46
0.0
 71
     7
 72
     1
  1
{\fＭＳ ゴシック|b0|i0|c128|p49;128}
 73
     1
 44
1.0
  0
LINE
  5
23B
330
1F
100
AcDbEntity
  8
0-B_寸法
  6
Continuous
 62
   120
370
     5
100
AcDbLine
 10
-1490.180688620434
 20
-694.8515418461768
 30
0.0
 11
-1490.180688620434
 21
-821.7608535015814
 31
0.0
  0
LINE
  5
23C
330
1F
100
AcDbEntity
  8
0-B_寸法
  6
Continuous
 62
   120
370
     5
100
AcDbLine
 10
-734.1804114878316
 20
-694.8515418461768
 30
0.0
 11
-734.1804114878316
 21
-821.7608535015814
 31
0.0
  0
LINE
  5
23D
330
1F
100
AcDbEntity
  8
0-B_寸法
  6
Continuous
 62
   120
370
     5
100
AcDbLine
 10
-1490.180688620434
 20
-821.7608535015814
 30
0.0
 11
-734.1804114878316
 21
-821.7608535015814
 31
0.0
  0
LINE
  5
23E
330
1F
100
AcDbEntity
  8
0-B_寸法
  6
Continuous
 62
   120
370
     5
100
AcDbLine
 10
-1502.180728210806
 20
-2749.557964044346
 30
0.0
 11
-1502.180728210806
 21
-2608.437585603405
 31
0.0
  0
LINE
  5
23F
330
1F
100
AcDbEntity
  8
0-B_寸法
  6
Continuous
 62
   120
370
     5
100
AcDbLine
 10
-734.1804114878316
 20
-2749.557964044346
 30
0.0
 11
-734.1804114878316
 21
-2608.437585603405
 31
0.0
  0
LINE
  5
240
330
1F
100
AcDbEntity
  8
0-3_仕上げ
  6
Continuous
 62
    40
370
    15
100
AcDbLine
 10
-632.1805302589466
 20
324.2349103286545
 30
0.0
 11
-632.1805302589466
 21
-347.514918113069
 31
0.0
  0
LINE
  5
241
330
1F
100
AcDbEntity
  8
0-3_仕上げ
  6
Continuous
 62
    40
370
    15
100
AcDbLine
 10
-707.1803323070889
 20
324.2349103286545
 30
0.0
 11
-707.1803323070889
 21
-347.514918113069
 31
0.0
  0
LINE
  5
242
330
1F
100
AcDbEntity
  8
0-3_仕上げ
  6
Continuous
 62
    40
370
    15
100
AcDbLine
 10
-632.1805302589466
 20
-347.514918113069
 30
0.0
 11
-707.1803323070889
 21
-347.514918113069
 31
0.0
  0
LINE
  5
243
330
1F
100
AcDbEntity
  8
0-3_仕上げ
  6
Continuous
 62
    40
370
    15
100
AcDbLine
 10
-734.1804114878316
 20
-3119.515353607157
 30
0.0
 11
-350.7446534641842
 21
-3119.515353607157
 31
0.0
  0
LINE
  5
244
330
1F
100
AcDbEntity
  8
0-3_仕上げ
  6
Continuous
 62
    40
370
    15
100
AcDbLine
 10
-734.1804114878316
 20
-3191.515294221599
 30
0.0
 11
-347.6191915765155
 21
-3191.515294221599
 31
0.0
  0
LINE
  5
245
330
1F
100
AcDbEntity
  8
0-3_仕上げ
  6
Continuous
 62
    40
370
    15
100
AcDbLine
 10
-1508.181044933778
 20
-3119.515353607157
 30
0.0
 11
-1849.044049051178
 21
-3119.515353607157
 31
0.0
  0
LINE
  5
246
330
1F
100
AcDbEntity
  8
0-3_仕上げ
  6
Continuous
 62
    40
370
    15
100
AcDbLine
 10
-1502.180728210806
 20
-3119.515056679369
 30
0.0
 11
-1885.688501120434
 21
-3119.515056679369
 31
0.0
  0
LINE
  5
247
330
1F
100
AcDbEntity
  8
0-3_仕上げ
  6
Continuous
 62
    40
370
    15
100
AcDbLine
 10
-1502.180728210806
 20
-3407.51481913714
 30
0.0
 11
-1879.527843392394
 21
-3407.51481913714
 31
0.0
  0
LINE
  5
248
330
1F
100
AcDbEntity
  8
0-3_仕上げ
  6
Continuous
 62
     7
370
     9
100
AcDbLine
 10
-1574.247477577359
 20
-3143.515135860113
 30
0.0
 11
-1574.247477577359
 21
-3383.514739956398
 31
0.0
  0
LINE
  5
249
330
1F
100
AcDbEntity
  8
0-3_仕上げ
  6
Continuous
 62
     7
370
     9
100
AcDbLine
 10
-1622.247635938847
 20
-3384.173919643898
 30
0.0
 11
-1622.247635938847
 21
-3143.515135860113
 31
0.0
  0
LINE
  5
24A
330
1F
100
AcDbEntity
  8
0-3_仕上げ
  6
Continuous
 62
     7
370
     9
100
AcDbLine
 10
-1670.247200444759
 20
-3143.515135860113
 30
0.0
 11
-1670.247200444759
 21
-3383.514739956398
 31
0.0
  0
LINE
  5
24B
330
1F
100
AcDbEntity
  8
0-3_仕上げ
  6
Continuous
 62
     7
370
     9
100
AcDbLine
 10
-1718.247358806243
 20
-3384.173919643898
 30
0.0
 11
-1718.247358806243
 21
-3143.515135860113
 31
0.0
  0
LINE
  5
24C
330
1F
100
AcDbEntity
  8
0-3_仕上げ
  6
Continuous
 62
     7
370
     9
100
AcDbLine
 10
-1766.246923312156
 20
-3143.515135860113
 30
0.0
 11
-1766.246923312156
 21
-3383.514739956398
 31
0.0
  0
LINE
  5
24D
330
1F
100
AcDbEntity
  8
0-3_仕上げ
  6
Continuous
 62
     7
370
     9
100
AcDbLine
 10
-1814.247081673644
 20
-3384.173919643898
 30
0.0
 11
-1814.247081673644
 21
-3143.515135860113
 31
0.0
  0
LINE
  5
24E
330
1F
100
AcDbEntity
  8
0-3_仕上げ
  6
Continuous
 62
     7
370
     9
100
AcDbLine
 10
-1862.246646179556
 20
-3143.515135860113
 30
0.0
 11
-1862.246646179556
 21
-3383.514739956398
 31
0.0
  0
ARC
  5
24F
330
1F
100
AcDbEntity
  8
0-3_仕上げ
  6
Continuous
 62
     7
370
     9
100
AcDbCircle
 10
-1550.24799225219
 20
-3383.849674500316
 30
0.0
 40
24.00226670342524
100
AcDbArc
 50
179.2006225585937
 51
0.7993621826171875
  0
ARC
  5
250
330
1F
100
AcDbEntity
  8
0-3_仕上げ
  6
Continuous
 62
     7
370
     9
100
AcDbCircle
 10
-1598.247556758103
 20
-3143.370235099977
 30
0.0
 40
24.00037146903373
100
AcDbArc
 50
359.6531829833984
 51
180.3468017578125
  0
ARC
  5
251
330
1F
100
AcDbEntity
  8
0-3_仕上げ
  6
Continuous
 62
     7
370
     9
100
AcDbCircle
 10
-1646.247715119591
 20
-3383.849674500316
 30
0.0
 40
24.00226670342524
100
AcDbArc
 50
179.2006225585937
 51
0.7993621826171875
  0
ARC
  5
252
330
1F
100
AcDbEntity
  8
0-3_仕上げ
  6
Continuous
 62
     7
370
     9
100
AcDbCircle
 10
-1694.247279625503
 20
-3143.370235099977
 30
0.0
 40
24.00037146903373
100
AcDbArc
 50
359.6531829833984
 51
180.3468017578125
  0
ARC
  5
253
330
1F
100
AcDbEntity
  8
0-3_仕上げ
  6
Continuous
 62
     7
370
     9
100
AcDbCircle
 10
-1742.247437986987
 20
-3383.849674500316
 30
0.0
 40
24.00226670342524
100
AcDbArc
 50
179.2006225585937
 51
0.7993621826171875
  0
ARC
  5
254
330
1F
100
AcDbEntity
  8
0-3_仕上げ
  6
Continuous
 62
     7
370
     9
100
AcDbCircle
 10
-1790.2470024929
 20
-3143.370235099977
 30
0.0
 40
24.00037146903373
100
AcDbArc
 50
359.6531829833984
 51
180.3468017578125
  0
ARC
  5
255
330
1F
100
AcDbEntity
  8
0-3_仕上げ
  6
Continuous
 62
     7
370
     9
100
AcDbCircle
 10
-1838.247160854387
 20
-3383.849674500316
 30
0.0
 40
24.00226670342524
100
AcDbArc
 50
179.2006225585937
 51
0.7993621826171875
  0
LINE
  5
256
330
1F
100
AcDbEntity
  8
0-3_仕上げ
  6
Continuous
 62
     7
370
     9
100
AcDbLine
 10
-734.1804114878316
 20
-3131.515393197529
 30
0.0
 11
-347.6191915765155
 21
-3131.515393197529
 31
0.0
  0
LINE
  5
257
330
1F
100
AcDbEntity
  8
0-3_仕上げ
  6
Continuous
 62
     7
370
     9
100
AcDbLine
 10
-734.1804114878316
 20
-3143.515284324007
 30
0.0
 11
-347.6191915765155
 21
-3143.515284324007
 31
0.0
  0
LINE
  5
258
330
1F
100
AcDbEntity
  8
0-3_仕上げ
  6
Continuous
 62
     7
370
     9
100
AcDbLine
 10
-734.1804114878316
 20
-3155.515175450485
 30
0.0
 11
-347.6191915765155
 21
-3155.515175450485
 31
0.0
  0
LINE
  5
259
330
1F
100
AcDbEntity
  8
0-3_仕上げ
  6
Continuous
 62
     7
370
     9
100
AcDbLine
 10
-734.1804114878316
 20
-3167.515511968642
 30
0.0
 11
-347.6191915765155
 21
-3167.515511968642
 31
0.0
  0
LINE
  5
25A
330
1F
100
AcDbEntity
  8
0-3_仕上げ
  6
Continuous
 62
     7
370
     9
100
AcDbLine
 10
-734.1804114878316
 20
-3179.515551559015
 30
0.0
 11
-347.6191915765155
 21
-3179.515551559015
 31
0.0
  0
LINE
  5
25B
330
1F
100
AcDbEntity
  8
0-3_仕上げ
  6
Continuous
 62
     7
370
     9
100
AcDbLine
 10
-1526.248061464373
 20
-3143.515213595299
 30
0.0
 11
-1526.248061464373
 21
-3383.514817691583
 31
0.0
  0
LINE
  5
25C
330
1F
100
AcDbEntity
  8
0-5_ケーシング
  6
Continuous
 62
    92
370
    13
100
AcDbLine
 10
-587.1804510782049
 20
-425.8587209002315
 30
0.0
 11
-606.6363474042173
 21
-445.3146172262439
 31
0.0
  0
LINE
  5
25D
330
1F
100
AcDbEntity
  8
0-5_ケーシング
  6
Continuous
 62
    92
370
    13
100
AcDbLine
 10
-584.1808865722924
 20
-427.1013636895049
 30
0.0
 11
-605.3934076871564
 21
-448.314478659944
 31
0.0
  0
LINE
  5
25E
330
1F
100
AcDbEntity
  8
0-4_枠
  6
Continuous
 62
    92
370
    13
100
AcDbLine
 10
-734.1804114878316
 20
-3101.515294221599
 30
0.0
 11
-1502.180728210806
 21
-3101.515294221599
 31
0.0
  0
LINE
  5
25F
330
1F
100
AcDbEntity
  8
0-4_枠
  6
Continuous
 62
    92
370
    13
100
AcDbLine
 10
-794.1806094396911
 20
-449.5149577034409
 30
0.0
 11
-794.1806094396911
 21
-395.5144826189815
 31
0.0
  0
LINE
  5
260
330
1F
100
AcDbEntity
  8
0-4_枠
  6
Continuous
 62
    92
370
    13
100
AcDbLine
 10
-794.1806094396911
 20
-449.5149577034409
 30
0.0
 11
-734.1804114878316
 21
-449.5149577034409
 31
0.0
  0
LINE
  5
261
330
1F
100
AcDbEntity
  8
0-4_枠
  6
Continuous
 62
    92
370
    13
100
AcDbLine
 10
-737.1805698493192
 20
-506.5144034382377
 30
0.0
 11
-737.1805698493192
 21
-449.5149577034409
 31
0.0
  0
LINE
  5
262
330
1F
100
AcDbEntity
  8
0-4_枠
  6
Continuous
 62
    92
370
    13
100
AcDbLine
 10
-1082.180371897461
 20
-509.5145617997236
 30
0.0
 11
-734.1804114878316
 21
-509.5145617997236
 31
0.0
  0
LINE
  5
263
330
1F
100
AcDbEntity
  8
0-4_枠
  6
Continuous
 62
    92
370
    13
100
AcDbLine
 10
-1082.180371897461
 20
-506.5144034382377
 30
0.0
 11
-737.1805698493192
 21
-506.5144034382377
 31
0.0
  0
LINE
  5
264
330
1F
100
AcDbEntity
  8
0-4_枠
  6
Continuous
 62
    92
370
    13
100
AcDbLine
 10
-734.1804114878316
 20
-395.5144826189815
 30
0.0
 11
-794.1806094396911
 21
-395.5144826189815
 31
0.0
  0
LINE
  5
265
330
1F
100
AcDbEntity
  8
0-4_枠
  6
Continuous
 62
    92
370
    13
100
AcDbLine
 10
-734.1804114878316
 20
-449.5149577034409
 30
0.0
 11
-734.1804114878316
 21
-509.5145617997236
 31
0.0
  0
LINE
  5
266
330
1F
100
AcDbEntity
  8
0-B_寸法
  6
Continuous
 62
   120
370
     5
100
AcDbLine
 10
-1502.180728210806
 20
-2749.557964044346
 30
0.0
 11
-734.1804114878316
 21
-2749.557964044346
 31
0.0
  0
LINE
  5
267
330
1F
100
AcDbEntity
  8
0-3_仕上げ
  6
Continuous
 62
    92
370
    13
100
AcDbLine
 10
-1502.180728210806
 20
-3407.51481913714
 30
0.0
 11
-734.1804114878316
 21
-3407.51481913714
 31
0.0
  0
LWPOLYLINE
  5
268
330
1F
100
AcDbEntity
  8
0-B_寸法
  6
Continuous
 62
     7
370
     9
100
AcDbPolyline
 90
        4
 70
     1
 43
3.0
 10
-1488.680688620434
 20
-821.7608535015814
 42
0.4142135623731
 10
-1490.180688620434
 20
-820.2608535015813
 42
0.4142135623731
 10
-1491.680688620434
 20
-821.7608535015814
 42
0.4142135623731
 10
-1490.180688620434
 20
-823.2608535015814
 42
0.4142135623731
  0
LWPOLYLINE
  5
269
330
1F
100
AcDbEntity
  8
0-B_寸法
  6
Continuous
 62
     7
370
     9
100
AcDbPolyline
 90
        4
 70
     1
 43
3.0
 10
-732.6804114878316
 20
-821.7608535015814
 42
0.4142135623731
 10
-734.1804114878316
 20
-820.2608535015813
 42
0.4142135623731
 10
-735.6804114878316
 20
-821.7608535015814
 42
0.4142135623731
 10
-734.1804114878316
 20
-823.2608535015814
 42
0.4142135623731
  0
LWPOLYLINE
  5
26A
330
1F
100
AcDbEntity
  8
0-B_寸法
  6
Continuous
 62
     7
370
     9
100
AcDbPolyline
 90
        4
 70
     1
 43
3.0
 10
-1500.680728210806
 20
-2749.557964044346
 42
0.4142135623731
 10
-1502.180728210806
 20
-2748.057964044346
 42
0.4142135623731
 10
-1503.680728210806
 20
-2749.557964044346
 42
0.4142135623731
 10
-1502.180728210806
 20
-2751.057964044345
 42
0.4142135623731
  0
LWPOLYLINE
  5
26B
330
1F
100
AcDbEntity
  8
0-B_寸法
  6
Continuous
 62
     7
370
     9
100
AcDbPolyline
 90
        4
 70
     1
 43
3.0
 10
-732.6804114878316
 20
-2749.557964044346
 42
0.4142135623731
 10
-734.1804114878316
 20
-2748.057964044346
 42
0.4142135623731
 10
-735.6804114878316
 20
-2749.557964044346
 42
0.4142135623731
 10
-734.1804114878316
 20
-2751.057964044345
 42
0.4142135623731
  0
MTEXT
  5
26C
330
1F
100
AcDbEntity
  8
0-B_寸法
  6
Continuous
 62
     7
370
     0
100
AcDbMText
 10
-1194.680253126345
 20
-825.6608139112116
 30
0.0
 40
76.19999999999999
 41
150.0
 46
0.0
 71
     7
 72
     1
  1
{\fＭＳ ゴシック|b0|i0|c128|p49;126}
 73
     1
 44
1.0
  0
LWPOLYLINE
  5
26D
330
1F
100
AcDbEntity
  8
0-B_寸法
  6
Continuous
 62
     7
370
     9
100
AcDbPolyline
 90
        4
 70
     1
 43
3.0
 10
-2220.680728210806
 20
-533.5146409804674
 42
0.4142135623731
 10
-2222.180728210806
 20
-532.0146409804673
 42
0.4142135623731
 10
-2223.680728210806
 20
-533.5146409804674
 42
0.4142135623731
 10
-2222.180728210806
 20
-535.0146409804674
 42
0.4142135623731
  0
LWPOLYLINE
  5
26E
330
1F
100
AcDbEntity
  8
0-B_寸法
  6
Continuous
 62
     7
370
     9
100
AcDbPolyline
 90
        4
 70
     1
 43
3.0
 10
-2220.680728210806
 20
-509.5145617997236
 42
0.4142135623731
 10
-2222.180728210806
 20
-508.0145617997236
 42
0.4142135623731
 10
-2223.680728210806
 20
-509.5145617997236
 42
0.4142135623731
 10
-2222.180728210806
 20
-511.0145617997237
 42
0.4142135623731
  0
LWPOLYLINE
  5
26F
330
1F
100
AcDbEntity
  8
0-B_寸法
  6
Continuous
 62
     7
370
     9
100
AcDbPolyline
 90
        4
 70
     1
 43
3.0
 10
-2220.680728210806
 20
-3071.515343709564
 42
0.4142135623731
 10
-2222.180728210806
 20
-3070.015343709564
 42
0.4142135623731
 10
-2223.680728210806
 20
-3071.515343709564
 42
0.4142135623731
 10
-2222.180728210806
 20
-3073.015343709564
 42
0.4142135623731
  0
LWPOLYLINE
  5
270
330
1F
100
AcDbEntity
  8
0-B_寸法
  6
Continuous
 62
     7
370
     9
100
AcDbPolyline
 90
        4
 70
     1
 43
3.0
 10
-2220.680728210806
 20
-3101.515591149386
 42
0.4142135623731
 10
-2222.180728210806
 20
-3100.015591149387
 42
0.4142135623731
 10
-2223.680728210806
 20
-3101.515591149386
 42
0.4142135623731
 10
-2222.180728210806
 20
-3103.015591149386
 42
0.4142135623731
  0
MTEXT
  5
271
330
1F
100
AcDbEntity
  8
0-B_寸法
  6
Continuous
 62
     7
370
     0
100
AcDbMText
 10
-2225.180767801176
 20
-551.7244529262028
 30
0.0
 40
68.58
 41
45.0
 46
0.0
 71
     7
 72
     1
  1
{\fＭＳ ゴシック|b0|i0|c128|p49;5}
 11
6.123031769111886E-17
 21
1.0
 31
0.0
 73
     1
 44
1.0
  0
MTEXT
  5
272
330
1F
100
AcDbEntity
  8
0-B_寸法
  6
Continuous
 62
     7
370
     0
100
AcDbMText
 10
-2225.180767801176
 20
-3116.725615893369
 30
0.0
 40
68.58
 41
45.0
 46
0.0
 71
     7
 72
     1
  1
{\fＭＳ ゴシック|b0|i0|c128|p49;5}
 11
6.123031769111886E-17
 21
1.0
 31
0.0
 73
     1
 44
1.0
  0
LINE
  5
273
330
1F
100
AcDbEntity
  8
0-B_寸法
  6
Continuous
 62
   120
370
     5
100
AcDbLine
 10
-1862.180728210806
 20
-533.5146409804674
 30
0.0
 11
-2222.180728210806
 21
-533.5146409804674
 31
0.0
  0
LINE
  5
274
330
1F
100
AcDbEntity
  8
0-B_寸法
  6
Continuous
 62
   120
370
     5
100
AcDbLine
 10
-1862.180728210806
 20
-509.5145617997236
 30
0.0
 11
-2222.180728210806
 21
-509.5145617997236
 31
0.0
  0
LINE
  5
275
330
1F
100
AcDbEntity
  8
0-B_寸法
  6
Continuous
 62
   120
370
     5
100
AcDbLine
 10
-1862.180728210806
 20
-3071.515343709564
 30
0.0
 11
-2222.180728210806
 21
-3071.515343709564
 31
0.0
  0
LINE
  5
276
330
1F
100
AcDbEntity
  8
0-B_寸法
  6
Continuous
 62
   120
370
     5
100
AcDbLine
 10
-1862.180728210806
 20
-3101.515591149386
 30
0.0
 11
-2222.180728210806
 21
-3101.515591149386
 31
0.0
  0
LWPOLYLINE
  5
277
330
1F
100
AcDbEntity
  8
0-B_寸法
  6
Continuous
 62
     7
370
     9
100
AcDbPolyline
 90
        4
 70
     1
 43
3.0
 10
167.3182424395314
 20
-509.5148587275111
 42
0.4142135623731
 10
165.8182424395314
 20
-508.0148587275111
 42
0.4142135623731
 10
164.3182424395314
 20
-509.5148587275111
 42
0.4142135623731
 10
165.8182424395314
 20
-511.0148587275112
 42
0.4142135623731
  0
LWPOLYLINE
  5
278
330
1F
100
AcDbEntity
  8
0-B_寸法
  6
Continuous
 62
     7
370
     9
100
AcDbPolyline
 90
        4
 70
     1
 43
3.0
 10
167.3182424395314
 20
-3101.514997293811
 42
0.4142135623731
 10
165.8182424395314
 20
-3100.014997293812
 42
0.4142135623731
 10
164.3182424395314
 20
-3101.514997293811
 42
0.4142135623731
 10
165.8182424395314
 20
-3103.014997293811
 42
0.4142135623731
  0
LINE
  5
279
330
1F
100
AcDbEntity
  8
0-B_寸法
  6
Continuous
 62
   120
370
     5
100
AcDbLine
 10
-194.1817575604669
 20
-509.5148587275111
 30
0.0
 11
165.8182424395314
 21
-509.5148587275111
 31
0.0
  0
LINE
  5
27A
330
1F
100
AcDbEntity
  8
0-B_寸法
  6
Continuous
 62
   120
370
     5
100
AcDbLine
 10
-194.1817575604669
 20
-3101.514997293811
 30
0.0
 11
165.8182424395314
 21
-3101.514997293811
 31
0.0
  0
LINE
  5
27B
330
1F
100
AcDbEntity
  8
0-A_文字
  6
Continuous
 62
     7
370
     9
100
AcDbLine
 10
-1705.060929718875
 20
-3322.269809214877
 30
0.0
 11
-1578.742269286129
 21
-3541.060147028433
 31
0.0
  0
MTEXT
  5
27C
330
1F
100
AcDbEntity
  8
0-A_文字
  6
Continuous
 62
     7
370
     9
100
AcDbMText
 10
-1484.055985201166
 20
-3593.59923179061
 30
0.0
 40
78.37714285714286
 41
720.0
 46
0.0
 71
     7
 72
     1
  1
{\fＭＳ ゴシック|b0|i0|c128|p49;一般畳ご使用時}
 73
     1
 44
1.0
  0
LINE
  5
27D
330
1F
100
AcDbEntity
  8
0-A_文字
  6
Continuous
 62
     7
370
     9
100
AcDbLine
 10
-1578.742269286129
 20
-3541.060147028433
 30
0.0
 11
-1514.783007505247
 21
-3541.060147028433
 31
0.0
  0
LINE
  5
27E
330
1F
100
AcDbEntity
  8
0-4_枠
  6
Continuous
 62
   120
370
     5
100
AcDbLine
 10
-734.1804114878316
 20
-1775.514928010661
 30
0.0
 11
-734.1804114878316
 21
-509.5145617997236
 31
0.0
  0
LINE
  5
27F
330
1F
100
AcDbEntity
  8
0-0_補助線
  6
JWW_HOJO
 62
   120
370
     5
100
AcDbLine
 10
-1724.516749514428
 20
-1775.514928010661
 30
0.0
 11
-575.3528990934869
 21
-1775.514928010661
 31
0.0
  0
LINE
  5
280
330
1F
100
AcDbEntity
  8
0-0_補助線
  6
JWW_HOJO
 62
   120
370
     5
100
AcDbLine
 10
-1724.516749514428
 20
-1835.514928010661
 30
0.0
 11
-575.3528990934869
 21
-1835.514928010661
 31
0.0
  0
LINE
  5
281
330
1F
100
AcDbEntity
  8
0-4_枠
  6
Continuous
 62
   120
370
     5
100
AcDbLine
 10
-1502.180728210806
 20
-1835.514928010661
 30
0.0
 11
-1502.180728210806
 21
-3101.515294221599
 31
0.0
  0
LINE
  5
282
330
1F
100
AcDbEntity
  8
0-4_枠
  6
Continuous
 62
   120
370
     5
100
AcDbLine
 10
-734.1804114878316
 20
-1835.514928010661
 30
0.0
 11
-734.1804114878316
 21
-3101.515294221599
 31
0.0
  0
MTEXT
  5
283
330
1F
100
AcDbEntity
  8
0-A_文字
  6
Continuous
 62
     7
370
     9
100
AcDbMText
 10
-650.7446534641842
 20
-3126.415353607156
 30
0.0
 40
76.20000000000041
 41
300.0000000000017
 46
0.0
 71
     7
 72
     1
  1
{\fＭＳ ゴシック|b0|i0|c128|p49;▼ＦＬ}
 73
     1
 44
1.0
  0
MTEXT
  5
284
330
1F
100
AcDbEntity
  8
0-A_文字
  6
Continuous
 62
     7
370
     9
100
AcDbMText
 10
-733.6388014324432
 20
-1509.711620047917
 30
0.0
 40
77.15250000000033
 41
405.0000000000017
 46
0.0
 71
     7
 72
     1
  1
{\fＭＳ ゴシック|b0|i0|c128|p49;（洋側）}
 73
     1
 44
1.0
  0
MTEXT
  5
285
330
1F
100
AcDbEntity
  8
0-A_文字
  6
Continuous
 62
     7
370
     9
100
AcDbMText
 10
-1489.916965429991
 20
-1509.711620047917
 30
0.0
 40
77.15249999999999
 41
405.0
 46
0.0
 71
     7
 72
     1
  1
{\fＭＳ ゴシック|b0|i0|c128|p49;（和側）}
 73
     1
 44
1.0
  0
LINE
  5
286
330
1F
100
AcDbEntity
  8
0-6_扉
  6
Continuous
 62
   200
370
    20
100
AcDbLine
 10
-809.1799759937435
 20
-533.5146409804674
 30
0.0
 11
-1025.180688620434
 21
-533.5146409804674
 31
0.0
  0
LINE
  5
287
330
1F
100
AcDbEntity
  8
0-6_扉
  6
Continuous
 62
   200
370
    20
100
AcDbLine
 10
-1025.180094764859
 20
-3071.515343709564
 30
0.0
 11
-809.1799759937435
 21
-3071.515343709564
 31
0.0
  0
LINE
  5
288
330
1F
100
AcDbEntity
  8
0-6_扉
  6
Continuous
 62
   200
370
    20
100
AcDbLine
 10
-809.1799759937435
 20
-533.5146409804674
 30
0.0
 11
-809.1799759937435
 21
-1775.514928010661
 31
0.0
  0
LINE
  5
289
330
1F
100
AcDbEntity
  8
0-6_扉
  6
Continuous
 62
   200
370
    20
100
AcDbLine
 10
-809.1799759937435
 20
-3071.515343709564
 30
0.0
 11
-809.1799759937435
 21
-1835.514928010661
 31
0.0
  0
LINE
  5
28A
330
1F
100
AcDbEntity
  8
0-6_扉
  6
Continuous
 62
    92
370
    13
100
AcDbLine
 10
-1043.18009476486
 20
-533.5146409804674
 30
0.0
 11
-1025.180688620434
 21
-533.5146409804674
 31
0.0
  0
LINE
  5
28B
330
1F
100
AcDbEntity
  8
0-6_扉
  6
Continuous
 62
    92
370
    13
100
AcDbLine
 10
-1043.18009476486
 20
-3071.515343709564
 30
0.0
 11
-1025.180094764859
 21
-3071.515343709564
 31
0.0
  0
LINE
  5
28C
330
1F
100
AcDbEntity
  8
0-5_ケーシング
  6
Continuous
 62
    92
370
    13
100
AcDbLine
 10
-584.1808865722924
 20
-310.3145974310576
 30
0.0
 11
-632.1805302589466
 21
-310.3145974310576
 31
0.0
  0
LINE
  5
28D
330
1F
100
AcDbEntity
  8
0-5_ケーシング
  6
Continuous
 62
    92
370
    13
100
AcDbLine
 10
-584.1808865722924
 20
-427.1013636895049
 30
0.0
 11
-584.1808865722924
 21
-310.3145974310576
 31
0.0
  0
LINE
  5
28E
330
1F
100
AcDbEntity
  8
0-5_ケーシング
  6
Continuous
 62
    92
370
    13
100
AcDbLine
 10
-587.1804510782049
 20
-425.8587209002315
 30
0.0
 11
-587.1804510782049
 21
-310.3145974310576
 31
0.0
  0
LINE
  5
28F
330
1F
100
AcDbEntity
  8
0-5_ケーシング
  6
Continuous
 62
    92
370
    13
100
AcDbLine
 10
-632.1805302589466
 20
-310.3145974310576
 30
0.0
 11
-632.1805302589466
 21
-395.5144826189815
 31
0.0
  0
LINE
  5
290
330
1F
100
AcDbEntity
  8
0-B_寸法
  6
Continuous
 62
   120
370
     5
100
AcDbLine
 10
-1412.180134355231
 20
-113.515036884183
 30
0.0
 11
-1490.180688620434
 21
-113.515036884183
 31
0.0
  0
LWPOLYLINE
  5
291
330
1F
100
AcDbEntity
  8
0-B_寸法
  6
Continuous
 62
     7
370
     9
100
AcDbPolyline
 90
        4
 70
     1
 43
3.0
 10
-1410.680134355231
 20
-113.515036884183
 42
0.4142135623731
 10
-1412.180134355231
 20
-112.015036884183
 42
0.4142135623731
 10
-1413.680134355231
 20
-113.515036884183
 42
0.4142135623731
 10
-1412.180134355231
 20
-115.015036884183
 42
0.4142135623731
  0
LWPOLYLINE
  5
292
330
1F
100
AcDbEntity
  8
0-B_寸法
  6
Continuous
 62
     7
370
     9
100
AcDbPolyline
 90
        4
 70
     1
 43
3.0
 10
-1488.680688620434
 20
-113.515036884183
 42
0.4142135623731
 10
-1490.180688620434
 20
-112.015036884183
 42
0.4142135623731
 10
-1491.680688620434
 20
-113.515036884183
 42
0.4142135623731
 10
-1490.180688620434
 20
-115.015036884183
 42
0.4142135623731
  0
LINE
  5
293
330
1F
100
AcDbEntity
  8
0-B_寸法
  6
Continuous
 62
   120
370
     5
100
AcDbLine
 10
-1412.180134355231
 20
-113.515036884183
 30
0.0
 11
-1412.180134355231
 21
-233.515036884183
 31
0.0
  0
LINE
  5
294
330
1F
100
AcDbEntity
  8
0-B_寸法
  6
Continuous
 62
   120
370
     5
100
AcDbLine
 10
-1490.180688620434
 20
-113.515036884183
 30
0.0
 11
-1490.180688620434
 21
-233.515036884183
 31
0.0
  0
MTEXT
  5
295
330
1F
100
AcDbEntity
  8
0-B_寸法
  6
Continuous
 62
     7
370
    70
100
AcDbMText
 10
-1511.603778157503
 20
-106.367536884183
 30
0.0
 40
74.295
 41
97.5
 46
0.0
 71
     7
 72
     1
  1
{\fＭＳ ゴシック|b0|i0|c128|p49;13}
 73
     1
 44
1.0
  0
LINE
  5
296
330
1F
100
AcDbEntity
  8
0-C_ハッチ
  6
Continuous
 62
   120
370
     5
100
AcDbLine
 10
-742.9793792670022
 20
-506.5144034382462
 30
0.0
 11
-737.180569849309
 21
-500.7155940205548
 31
0.0
  0
LINE
  5
297
330
1F
100
AcDbEntity
  8
0-C_ハッチ
  6
Continuous
 62
   120
370
     5
100
AcDbLine
 10
-802.3763488866307
 20
-506.5144034382275
 30
0.0
 11
-745.3769031518356
 21
-449.5149577034323
 31
0.0
  0
LINE
  5
298
330
1F
100
AcDbEntity
  8
0-C_ハッチ
  6
Continuous
 62
   120
370
     5
100
AcDbLine
 10
-861.7733185063428
 20
-506.5144034382377
 30
0.0
 11
-794.1806094396962
 21
-438.9216943715912
 31
0.0
  0
LINE
  5
299
330
1F
100
AcDbEntity
  8
0-C_ハッチ
  6
Continuous
 62
   120
370
     5
100
AcDbLine
 10
-1502.180728210803
 20
-3225.815749831171
 30
0.0
 11
-1377.880272601239
 21
-3101.515294221607
 31
0.0
  0
LINE
  5
29A
330
1F
100
AcDbEntity
  8
0-C_ハッチ
  6
Continuous
 62
   120
370
     5
100
AcDbLine
 10
-1502.18072821081
 20
-3166.418780211477
 30
0.0
 11
-1437.277242220924
 21
-3101.515294221592
 31
0.0
  0
LINE
  5
29B
330
1F
100
AcDbEntity
  8
0-C_ハッチ
  6
Continuous
 62
   120
370
     5
100
AcDbLine
 10
-1502.180728210799
 20
-3107.021810591819
 30
0.0
 11
-1496.674211840585
 21
-3101.515294221604
 31
0.0
  0
LINE
  5
29C
330
1F
100
AcDbEntity
  8
0-C_ハッチ
  6
JWW_DASHED1
 62
   120
370
     5
100
AcDbLine
 10
-1412.179540499666
 20
-293.24530175007
 30
0.0
 11
-1337.180332307084
 21
-218.2460935574875
 31
0.0
  0
LINE
  5
29D
330
1F
100
AcDbEntity
  8
0-C_ハッチ
  6
JWW_DASHED1
 62
   120
370
     5
100
AcDbLine
 10
-1412.179540499656
 20
-250.8188948789161
 30
0.0
 11
-1337.180332307094
 21
-175.8196866863506
 31
0.0
  0
LINE
  5
29E
330
1F
100
AcDbEntity
  8
0-C_ハッチ
  6
JWW_DASHED1
 62
   120
370
     5
100
AcDbLine
 10
-1412.179540499663
 20
-208.3924880077195
 30
0.0
 11
-1337.180332307094
 21
-133.393279815154
 31
0.0
  0
LINE
  5
29F
330
1F
100
AcDbEntity
  8
0-C_ハッチ
  6
JWW_DASHED1
 62
   120
370
     5
100
AcDbLine
 10
-1412.179540499663
 20
-165.9660811365229
 30
0.0
 11
-1337.180332307101
 21
-90.96687294395743
 31
0.0
  0
LINE
  5
2A0
330
1F
100
AcDbEntity
  8
0-C_ハッチ
  6
JWW_DASHED1
 62
   120
370
     5
100
AcDbLine
 10
-1412.17954049967
 20
-123.5396742653263
 30
0.0
 11
-1337.180332307101
 21
-48.54046607276082
 31
0.0
  0
LINE
  5
2A1
330
1F
100
AcDbEntity
  8
0-C_ハッチ
  6
JWW_DASHED1
 62
   120
370
     5
100
AcDbLine
 10
-1412.179540499663
 20
-81.11326739412114
 30
0.0
 11
-1337.18033230708
 21
-6.114059201540343
 31
0.0
  0
LINE
  5
2A2
330
1F
100
AcDbEntity
  8
0-C_ハッチ
  6
JWW_DASHED1
 62
   120
370
     5
100
AcDbLine
 10
-1412.179540499666
 20
-38.68686052292453
 30
0.0
 11
-1337.180332307087
 21
36.31234766965456
 31
0.0
  0
LINE
  5
2A3
330
1F
100
AcDbEntity
  8
0-C_ハッチ
  6
JWW_DASHED1
 62
   120
370
     5
100
AcDbLine
 10
-1412.179540499663
 20
3.739546348278893
 30
0.0
 11
-1337.18033230708
 21
78.7387545408614
 31
0.0
  0
LINE
  5
2A4
330
1F
100
AcDbEntity
  8
0-C_ハッチ
  6
JWW_DASHED1
 62
   120
370
     5
100
AcDbLine
 10
-1412.179540499646
 20
46.16595321944139
 30
0.0
 11
-1337.180332307077
 21
121.1651614120102
 31
0.0
  0
LINE
  5
2A5
330
1F
100
AcDbEntity
  8
0-C_ハッチ
  6
JWW_DASHED1
 62
   120
370
     5
100
AcDbLine
 10
-1412.179540499649
 20
88.5923600906397
 30
0.0
 11
-1337.18033230708
 21
163.5915682832069
 31
0.0
  0
LINE
  5
2A6
330
1F
100
AcDbEntity
  8
0-C_ハッチ
  6
JWW_DASHED1
 62
   120
370
     5
100
AcDbLine
 10
-1412.179540499649
 20
131.018766961838
 30
0.0
 11
-1337.18033230708
 21
206.0179751544052
 31
0.0
  0
LINE
  5
2A7
330
1F
100
AcDbEntity
  8
0-C_ハッチ
  6
JWW_DASHED1
 62
   120
370
     5
100
AcDbLine
 10
-1412.179540499653
 20
173.4451738330346
 30
0.0
 11
-1337.180332307084
 21
248.4443820256018
 31
0.0
  0
LINE
  5
2A8
330
1F
100
AcDbEntity
  8
0-C_ハッチ
  6
JWW_DASHED1
 62
   120
370
     5
100
AcDbLine
 10
-1412.179540499653
 20
215.8715807042346
 30
0.0
 11
-1337.180332307087
 21
290.8707888968001
 31
0.0
  0
LINE
  5
2A9
330
1F
100
AcDbEntity
  8
0-C_ハッチ
  6
JWW_DASHED1
 62
   120
370
     5
100
AcDbLine
 10
-1412.179540499656
 20
258.2979875754313
 30
0.0
 11
-1346.242617746448
 21
324.2349103286409
 31
0.0
  0
LINE
  5
2AA
330
1F
100
AcDbEntity
  8
0-C_ハッチ
  6
JWW_DASHED1
 62
   120
370
     5
100
AcDbLine
 10
-1412.179540499659
 20
300.7243944466279
 30
0.0
 11
-1388.669024617634
 21
324.2349103286528
 31
0.0
  0
LINE
  5
2AB
330
1F
100
AcDbEntity
  8
0-C_ハッチ
  6
JWW_DASHED1
 62
   120
370
     5
100
AcDbLine
 10
-660.3474263099536
 20
-347.5149181130485
 30
0.0
 11
-632.1805302589688
 21
-319.3480220620638
 31
0.0
  0
LINE
  5
2AC
330
1F
100
AcDbEntity
  8
0-C_ハッチ
  6
JWW_DASHED1
 62
   120
370
     5
100
AcDbLine
 10
-702.773833181174
 20
-347.514918113069
 30
0.0
 11
-632.1805302589569
 21
-276.9216151908518
 31
0.0
  0
LINE
  5
2AD
330
1F
100
AcDbEntity
  8
0-C_ハッチ
  6
JWW_DASHED1
 62
   120
370
     5
100
AcDbLine
 10
-707.1803323070906
 20
-309.4950103677855
 30
0.0
 11
-632.1805302589449
 21
-234.4952083196399
 31
0.0
  0
LINE
  5
2AE
330
1F
100
AcDbEntity
  8
0-C_ハッチ
  6
JWW_DASHED1
 62
   120
370
     5
100
AcDbLine
 10
-707.1803323070786
 20
-267.0686034965735
 30
0.0
 11
-632.1805302589484
 21
-192.0688014484433
 31
0.0
  0
LINE
  5
2AF
330
1F
100
AcDbEntity
  8
0-C_ハッチ
  6
JWW_DASHED1
 62
   120
370
     5
100
AcDbLine
 10
-707.1803323070872
 20
-224.6421966254366
 30
0.0
 11
-632.1805302589569
 21
-149.6423945773063
 31
0.0
  0
LINE
  5
2B0
330
1F
100
AcDbEntity
  8
0-C_ハッチ
  6
JWW_DASHED1
 62
   120
370
     5
100
AcDbLine
 10
-707.1803323070906
 20
-182.21578975424
 30
0.0
 11
-632.1805302589603
 21
-107.215987706108
 31
0.0
  0
LINE
  5
2B1
330
1F
100
AcDbEntity
  8
0-C_ハッチ
  6
JWW_DASHED1
 62
   120
370
     5
100
AcDbLine
 10
-707.180332307094
 20
-139.7893828830434
 30
0.0
 11
-632.1805302589637
 21
-64.78958083491143
 31
0.0
  0
LINE
  5
2B2
330
1F
100
AcDbEntity
  8
0-C_ハッチ
  6
JWW_DASHED1
 62
   120
370
     5
100
AcDbLine
 10
-707.1803323070974
 20
-97.36297601184681
 30
0.0
 11
-632.1805302589671
 21
-22.36317396371483
 31
0.0
  0
LINE
  5
2B3
330
1F
100
AcDbEntity
  8
0-C_ハッチ
  6
JWW_DASHED1
 62
   120
370
     5
100
AcDbLine
 10
-707.1803323070906
 20
-54.93656914063997
 30
0.0
 11
-632.180530258962
 21
20.0632329074886
 31
0.0
  0
LINE
  5
2B4
330
1F
100
AcDbEntity
  8
0-C_ハッチ
  6
JWW_DASHED1
 62
   120
370
     5
100
AcDbLine
 10
-707.1803323070957
 20
-12.51016226944508
 30
0.0
 11
-632.1805302589501
 21
62.48963977869884
 31
0.0
  0
LINE
  5
2B5
330
1F
100
AcDbEntity
  8
0-C_ハッチ
  6
JWW_DASHED1
 62
   120
370
     5
100
AcDbLine
 10
-707.1803323071008
 20
29.91624460174982
 30
0.0
 11
-632.1805302589552
 21
104.9160466498954
 31
0.0
  0
LINE
  5
2B6
330
1F
100
AcDbEntity
  8
0-C_ハッチ
  6
JWW_DASHED1
 62
   120
370
     5
100
AcDbLine
 10
-707.1803323070786
 20
72.34265147297201
 30
0.0
 11
-632.1805302589484
 21
147.3424535211023
 31
0.0
  0
LINE
  5
2B7
330
1F
100
AcDbEntity
  8
0-C_ハッチ
  6
JWW_DASHED1
 62
   120
370
     5
100
AcDbLine
 10
-707.1803323070752
 20
114.7690583441209
 30
0.0
 11
-632.1805302589432
 21
189.7688603922529
 31
0.0
  0
LINE
  5
2B8
330
1F
100
AcDbEntity
  8
0-C_ハッチ
  6
JWW_DASHED1
 62
   120
370
     5
100
AcDbLine
 10
-707.1803323070769
 20
157.1954652153175
 30
0.0
 11
-632.1805302589466
 21
232.1952672634512
 31
0.0
  0
LINE
  5
2B9
330
1F
100
AcDbEntity
  8
0-C_ハッチ
  6
JWW_DASHED1
 62
   120
370
     5
100
AcDbLine
 10
-707.1803323070803
 20
199.6218720865158
 30
0.0
 11
-632.1805302589466
 21
274.6216741346478
 31
0.0
  0
LINE
  5
2BA
330
1F
100
AcDbEntity
  8
0-C_ハッチ
  6
JWW_DASHED1
 62
   120
370
     5
100
AcDbLine
 10
-707.1803323070837
 20
242.0482789577124
 30
0.0
 11
-632.1805302589501
 21
317.0480810058461
 31
0.0
  0
LINE
  5
2BB
330
1F
100
AcDbEntity
  8
0-C_ハッチ
  6
JWW_DASHED1
 62
   120
370
     5
100
AcDbLine
 10
-707.1803323070837
 20
284.4746858289124
 30
0.0
 11
-667.42010780734
 21
324.2349103286562
 31
0.0
  0
LINE
  5
2BC
330
1F
100
AcDbEntity
  8
0-0_補助線
  6
JWW_HOJO
 62
   120
370
     5
100
AcDbLine
 10
-1862.180728210806
 20
324.2349103286545
 30
0.0
 11
-1862.180728210806
 21
-3870.695286929424
 31
0.0
  0
LINE
  5
2BD
330
1F
100
AcDbEntity
  8
0-0_補助線
  6
JWW_HOJO
 62
   120
370
     5
100
AcDbLine
 10
-1862.180728210806
 20
324.2349103286545
 30
0.0
 11
-194.1817575604669
 21
324.2349103286545
 31
0.0
  0
LINE
  5
2BE
330
1F
100
AcDbEntity
  8
0-0_補助線
  6
JWW_HOJO
 62
   120
370
     5
100
AcDbLine
 10
-194.1817575604669
 20
324.2349103286545
 30
0.0
 11
-194.1817575604669
 21
-3870.695286929424
 31
0.0
  0
LINE
  5
2BF
330
1F
100
AcDbEntity
  8
0-A_文字
  6
Continuous
 62
     7
370
     9
100
AcDbLine
 10
-1583.028192492733
 20
-164.6241779163731
 30
0.0
 11
-1643.028192492733
 21
-164.6241779163731
 31
0.0
  0
LINE
  5
2C0
330
1F
100
AcDbEntity
  8
0-A_文字
  6
Continuous
 62
     7
370
     9
100
AcDbLine
 10
-1446.86066596208
 20
-400.4732522084474
 30
0.0
 11
-1583.028192492733
 21
-164.6241779163731
 31
0.0
  0
LWPOLYLINE
  5
2C1
330
1F
100
AcDbEntity
  8
0-A_文字
  6
Continuous
 62
     7
370
     9
100
AcDbPolyline
 90
        4
 70
     1
 43
3.0
 10
-1445.36066596208
 20
-400.4732522084474
 42
0.4142135623731
 10
-1446.86066596208
 20
-398.9732522084474
 42
0.4142135623731
 10
-1448.36066596208
 20
-400.4732522084474
 42
0.4142135623731
 10
-1446.86066596208
 20
-401.9732522084474
 42
0.4142135623731
  0
LINE
  5
2C2
330
1F
100
AcDbEntity
  8
0-A_文字
  6
Continuous
 62
     7
370
     9
100
AcDbLine
 10
-1583.028192492733
 20
-2891.874112905899
 30
0.0
 11
-1643.028192492733
 21
-2891.874112905899
 31
0.0
  0
LINE
  5
2C3
330
1F
100
AcDbEntity
  8
0-A_文字
  6
Continuous
 62
     7
370
     9
100
AcDbLine
 10
-1446.86066596208
 20
-3127.723187197972
 30
0.0
 11
-1583.028192492733
 21
-2891.874112905899
 31
0.0
  0
LWPOLYLINE
  5
2C4
330
1F
100
AcDbEntity
  8
0-A_文字
  6
Continuous
 62
     7
370
     9
100
AcDbPolyline
 90
        4
 70
     1
 43
3.0
 10
-1445.36066596208
 20
-3127.723187197972
 42
0.4142135623731
 10
-1446.86066596208
 20
-3126.223187197972
 42
0.4142135623731
 10
-1448.36066596208
 20
-3127.723187197972
 42
0.4142135623731
 10
-1446.86066596208
 20
-3129.223187197972
 42
0.4142135623731
  0
MTEXT
  5
2C5
330
1F
100
AcDbEntity
  8
0-A_文字
  6
Continuous
 62
     7
370
     9
100
AcDbMText
 10
-322.4543168993393
 20
-92.6136067171239
 30
0.0
 40
77.724
 41
510.0
 46
0.0
 71
     7
 72
     1
  1
{\fＭＳ ゴシック|b0|i0|c128|p49;ケーシング}
 73
     1
 44
1.0
  0
LINE
  5
2C6
330
1F
100
AcDbEntity
  8
0-A_文字
  6
Continuous
 62
     7
370
     9
100
AcDbLine
 10
-382.4543168993393
 20
-41.47560671712391
 30
0.0
 11
-322.4543168993393
 21
-41.47560671712391
 31
0.0
  0
LINE
  5
2C7
330
1F
100
AcDbEntity
  8
0-A_文字
  6
Continuous
 62
     7
370
     9
100
AcDbLine
 10
-600.765924726307
 20
-419.6024033554832
 30
0.0
 11
-382.4543168993393
 21
-41.47560671712391
 31
0.0
  0
LWPOLYLINE
  5
2C8
330
1F
100
AcDbEntity
  8
0-A_文字
  6
Continuous
 62
     7
370
     9
100
AcDbPolyline
 90
        4
 70
     1
 43
3.0
 10
-599.265924726307
 20
-419.6024033554832
 42
0.4142135623731
 10
-600.765924726307
 20
-418.1024033554832
 42
0.4142135623731
 10
-602.265924726307
 20
-419.6024033554832
 42
0.4142135623731
 10
-600.765924726307
 20
-421.1024033554832
 42
0.4142135623731
  0
LINE
  5
2C9
330
1F
100
AcDbEntity
  8
0-5_ケーシング
  6
Continuous
 62
    92
370
    13
100
AcDbLine
 10
-632.1805302589466
 20
-395.5144826189815
 30
0.0
 11
-782.1808865722921
 21
-395.5144826189815
 31
0.0
  0
LINE
  5
2CA
330
1F
100
AcDbEntity
  8
0-5_ケーシング
  6
Continuous
 62
    92
370
    13
100
AcDbLine
 10
-606.6363474042173
 20
-445.3146172262439
 30
0.0
 11
-782.1808865722921
 21
-445.3146172262439
 31
0.0
  0
LINE
  5
2CB
330
1F
100
AcDbEntity
  8
0-5_ケーシング
  6
Continuous
 62
    92
370
    13
100
AcDbLine
 10
-605.3934076871564
 20
-448.314478659944
 30
0.0
 11
-782.1808865722921
 21
-448.314478659944
 31
0.0
  0
LINE
  5
2CC
330
1F
100
AcDbEntity
  8
0-5_ケーシング
  6
Continuous
 62
    92
370
    13
100
AcDbLine
 10
-782.1808865722921
 20
-448.314478659944
 30
0.0
 11
-782.1808865722921
 21
-395.5144826189815
 31
0.0
  0
LINE
  5
2CD
330
1F
100
AcDbEntity
  8
0-C_ハッチ
  6
JWW_DASHED1
 62
   120
370
     5
100
AcDbLine
 10
-648.8683445340555
 20
-445.3146172262267
 30
0.0
 11
-587.1804510781947
 21
-383.6267237703657
 31
0.0
  0
LINE
  5
2CE
330
1F
100
AcDbEntity
  8
0-C_ハッチ
  6
JWW_DASHED1
 62
   120
370
     5
100
AcDbLine
 10
-691.2947514052628
 20
-445.3146172262339
 30
0.0
 11
-641.494616798006
 21
-395.514482618977
 31
0.0
  0
LINE
  5
2CF
330
1F
100
AcDbEntity
  8
0-C_ハッチ
  6
JWW_DASHED1
 62
   120
370
     5
100
AcDbLine
 10
-632.1805302589491
 20
-386.2003960799203
 30
0.0
 11
-587.180451078201
 21
-341.2003168991721
 31
0.0
  0
LINE
  5
2D0
330
1F
100
AcDbEntity
  8
0-C_ハッチ
  6
JWW_DASHED1
 62
   120
370
     5
100
AcDbLine
 10
-733.7211582764581
 20
-445.3146172262292
 30
0.0
 11
-683.9210236692167
 21
-395.5144826189877
 31
0.0
  0
LINE
  5
2D1
330
1F
100
AcDbEntity
  8
0-C_ハッチ
  6
JWW_DASHED1
 62
   120
370
     5
100
AcDbLine
 10
-632.1805302589445
 20
-343.7739892087155
 30
0.0
 11
-598.7211384812842
 21
-310.3145974310553
 31
0.0
  0
LINE
  5
2D2
330
1F
100
AcDbEntity
  8
0-C_ハッチ
  6
JWW_DASHED1
 62
   120
370
     5
100
AcDbLine
 10
-776.1475651476692
 20
-445.3146172262403
 30
0.0
 11
-726.3474305404213
 21
-395.5144826189924
 31
0.0
  0
LINE
  5
2D3
330
1F
100
AcDbEntity
  8
0-C_ハッチ
  6
JWW_DASHED1
 62
   120
370
     5
100
AcDbLine
 10
-782.1808865722858
 20
-408.9215317796568
 30
0.0
 11
-768.7738374116201
 21
-395.5144826189911
 31
0.0
  0
LINE
  5
2D4
330
1F
100
AcDbEntity
  8
0-6_扉
  6
Continuous
 62
   200
370
    20
100
AcDbLine
 10
-1025.180094764859
 20
-2869.663707435881
 30
0.0
 11
-1025.180094764859
 21
-3071.515343709564
 31
0.0
  0
LINE
  5
2D5
330
1F
100
AcDbEntity
  8
0-6_扉
  6
Continuous
 62
    92
370
    13
100
AcDbLine
 10
-1043.18009476486
 20
-2869.663707435881
 30
0.0
 11
-1043.18009476486
 21
-3071.515343709564
 31
0.0
  0
MTEXT
  5
2D6
330
1F
100
AcDbEntity
  8
0-A_文字
  6
Continuous
 62
     7
370
     9
100
AcDbMText
 10
-2402.180728210806
 20
431.1509390384418
 30
0.0
 40
102.4466666666667
 41
3630.0
 46
0.0
 71
     7
 72
     1
  1
{\fＭＳ ゴシック|b0|i0|c128|p49;【一般畳ご使用時（バリアフリー対応）敷居厚30mmタイプ】}
 73
     1
 44
1.0
  0
LINE
  5
2D7
330
1F
100
AcDbEntity
  8
0-4_枠
  6
Continuous
 62
    92
370
    13
100
AcDbLine
 10
-1487.180530258947
 20
-506.5144034382377
 30
0.0
 11
-1082.180371897461
 21
-506.5144034382377
 31
0.0
  0
LINE
  5
2D8
330
1F
100
AcDbEntity
  8
0-4_枠
  6
Continuous
 62
    92
370
    13
100
AcDbLine
 10
-734.1804114878316
 20
-395.5144826189815
 30
0.0
 11
-734.1804114878316
 21
-329.5145617997236
 31
0.0
  0
LINE
  5
2D9
330
1F
100
AcDbEntity
  8
0-4_枠
  6
Continuous
 62
    92
370
    13
100
AcDbLine
 10
-737.1804114878314
 20
-395.5144826189815
 30
0.0
 11
-737.1804114878314
 21
-332.5145617997236
 31
0.0
  0
LINE
  5
2DA
330
1F
100
AcDbEntity
  8
0-4_枠
  6
Continuous
 62
    92
370
    13
100
AcDbLine
 10
-838.9151140108379
 20
-332.5145617997236
 30
0.0
 11
-737.1804114878314
 21
-332.5145617997236
 31
0.0
  0
LINE
  5
2DB
330
1F
100
AcDbEntity
  8
0-4_枠
  6
Continuous
 62
    92
370
    13
100
AcDbLine
 10
-1487.180530258947
 20
-332.5145617997236
 30
0.0
 11
-1487.180530258947
 21
-506.5144034382377
 31
0.0
  0
LINE
  5
2DC
330
1F
100
AcDbEntity
  8
0-4_枠
  6
Continuous
 62
    92
370
    13
100
AcDbLine
 10
-1487.180530258947
 20
-332.5145617997236
 30
0.0
 11
-1359.073191913874
 21
-332.5145617997236
 31
0.0
  0
LINE
  5
2DD
330
1F
100
AcDbEntity
  8
0-4_枠
  6
Continuous
 62
    92
370
    13
100
AcDbLine
 10
-1490.180688620434
 20
-329.5145617997236
 30
0.0
 11
-1490.180688620434
 21
-509.5145617997236
 31
0.0
  0
LINE
  5
2DE
330
1F
100
AcDbEntity
  8
0-4_枠
  6
Continuous
 62
    92
370
    13
100
AcDbLine
 10
-1490.180688620434
 20
-329.5145617997236
 30
0.0
 11
-734.1804114878316
 21
-329.5145617997236
 31
0.0
  0
LINE
  5
2DF
330
1F
100
AcDbEntity
  8
0-4_枠
  6
Continuous
 62
   120
370
     5
100
AcDbLine
 10
-1502.180728210806
 20
-329.5139679441502
 30
0.0
 11
-1502.180728210806
 21
-1775.514928010661
 31
0.0
  0
LINE
  5
2E0
330
1F
100
AcDbEntity
  8
0-4_枠
  6
Continuous
 62
   120
370
     5
100
AcDbLine
 10
-1502.180728210806
 20
-329.5139679441502
 30
0.0
 11
-1490.180688620434
 21
-329.5145617997236
 31
0.0
  0
LINE
  5
2E1
330
1F
100
AcDbEntity
  8
0-C_ハッチ
  6
Continuous
 62
   120
370
     5
100
AcDbLine
 10
-1487.18053025896
 20
-359.7610101351694
 30
0.0
 11
-1459.934081923515
 21
-332.5145617997236
 31
0.0
  0
LINE
  5
2E2
330
1F
100
AcDbEntity
  8
0-3_仕上げ
  6
Continuous
 62
    40
370
    15
100
AcDbLine
 10
-1337.179738451516
 20
-329.5145617997236
 30
0.0
 11
-1412.180134355231
 21
-329.5145617997236
 31
0.0
  0
LINE
  5
2E3
330
1F
100
AcDbEntity
  8
0-C_ハッチ
  6
JWW_DASHED1
 62
   120
370
     5
100
AcDbLine
 10
-1406.02239367812
 20
-329.5145617997236
 30
0.0
 11
-1337.18033230708
 21
-260.6725004286841
 31
0.0
  0
LINE
  5
2E4
330
1F
100
AcDbEntity
  8
0-C_ハッチ
  6
JWW_DASHED1
 62
   120
370
     5
100
AcDbLine
 10
-1363.59598680692
 20
-329.5145617997236
 30
0.0
 11
-1337.180332307077
 21
-303.0989072998808
 31
0.0
  0
LINE
  5
2E5
330
1F
100
AcDbEntity
  8
0-C_ハッチ
  6
Continuous
 62
   120
370
     5
100
AcDbLine
 10
-1487.18053025895
 20
-419.1579797548048
 30
0.0
 11
-1397.537112303869
 21
-329.5145617997236
 31
0.0
  0
LINE
  5
2E6
330
1F
100
AcDbEntity
  8
0-C_ハッチ
  6
Continuous
 62
   120
370
     5
100
AcDbLine
 10
-921.1702881259849
 20
-506.5144034382326
 30
0.0
 11
-744.1704464874759
 21
-329.5145617997236
 31
0.0
  0
LINE
  5
2E7
330
1F
100
AcDbEntity
  8
0-C_ハッチ
  6
Continuous
 62
   120
370
     5
100
AcDbLine
 10
-980.5672577456851
 20
-506.5144034382309
 30
0.0
 11
-803.5674161071778
 21
-329.5145617997236
 31
0.0
  0
LINE
  5
2E8
330
1F
100
AcDbEntity
  8
0-C_ハッチ
  6
Continuous
 62
   120
370
     5
100
AcDbLine
 10
-1039.964227365326
 20
-506.5144034382241
 30
0.0
 11
-862.9643857268251
 21
-329.5145617997236
 31
0.0
  0
LINE
  5
2E9
330
1F
100
AcDbEntity
  8
0-C_ハッチ
  6
Continuous
 62
   120
370
     5
100
AcDbLine
 10
-1218.155136224342
 20
-506.5144034382445
 30
0.0
 11
-1041.155294585821
 21
-329.5145617997236
 31
0.0
  0
LINE
  5
2EA
330
1F
100
AcDbEntity
  8
0-C_ハッチ
  6
Continuous
 62
   120
370
     5
100
AcDbLine
 10
-1277.552105844041
 20
-506.5144034382428
 30
0.0
 11
-1100.552264205523
 21
-329.5145617997236
 31
0.0
  0
LINE
  5
2EB
330
1F
100
AcDbEntity
  8
0-C_ハッチ
  6
Continuous
 62
   120
370
     5
100
AcDbLine
 10
-1336.949075463681
 20
-506.514403438236
 30
0.0
 11
-1159.94923382517
 21
-329.5145617997236
 31
0.0
  0
LINE
  5
2EC
330
1F
100
AcDbEntity
  8
0-C_ハッチ
  6
Continuous
 62
   120
370
     5
100
AcDbLine
 10
-1396.346045083383
 20
-506.5144034382343
 30
0.0
 11
-1219.346203444871
 21
-329.5145617997236
 31
0.0
  0
LINE
  5
2ED
330
1F
100
AcDbEntity
  8
0-C_ハッチ
  6
Continuous
 62
   120
370
     5
100
AcDbLine
 10
-1455.743014703041
 20
-506.5144034382445
 30
0.0
 11
-1278.743173064521
 21
-329.5145617997236
 31
0.0
  0
LINE
  5
2EE
330
1F
100
AcDbEntity
  8
0-C_ハッチ
  6
Continuous
 62
   120
370
     5
100
AcDbLine
 10
-1487.180530258957
 20
-478.5549493744606
 30
0.0
 11
-1338.140142684221
 21
-329.5145617997236
 31
0.0
  0
LINE
  5
2EF
330
1F
100
AcDbEntity
  8
0-C_ハッチ
  6
Continuous
 62
   120
370
     5
100
AcDbLine
 10
-1158.758166604686
 20
-506.5144034382377
 30
0.0
 11
-981.7583249661725
 21
-329.5145617997236
 31
0.0
  0
LINE
  5
2F0
330
1F
100
AcDbEntity
  8
0-C_ハッチ
  6
Continuous
 62
   120
370
     5
100
AcDbLine
 10
-1099.361196985041
 20
-506.5144034382376
 30
0.0
 11
-922.3613553465269
 21
-329.5145617997236
 31
0.0
  0
LINE
  5
2F1
330
1F
100
AcDbEntity
  8
0-3_仕上げ
  6
Continuous
 62
    40
370
    15
100
AcDbLine
 10
-1337.179738451516
 20
324.2349103286545
 30
0.0
 11
-1337.179738451516
 21
-329.5145617997236
 31
0.0
  0
LINE
  5
2F2
330
1F
100
AcDbEntity
  8
0-3_仕上げ
  6
Continuous
 62
    40
370
    15
100
AcDbLine
 10
-1412.180134355231
 20
324.2349103286545
 30
0.0
 11
-1412.180134355231
 21
-329.5145617997236
 31
0.0
  0
LINE
  5
2F3
330
1F
100
AcDbEntity
  8
0-4_枠
  6
Continuous
 62
    92
370
    13
100
AcDbLine
 10
-1502.180728210806
 20
-3101.515294221599
 30
0.0
 11
-1502.180728210806
 21
-3281.515294221599
 31
0.0
  0
LINE
  5
2F4
330
1F
100
AcDbEntity
  8
0-4_枠
  6
Continuous
 62
    92
370
    13
100
AcDbLine
 10
-734.1804114878316
 20
-3101.515294221599
 30
0.0
 11
-734.1804114878316
 21
-3281.515294221599
 31
0.0
  0
LINE
  5
2F5
330
1F
100
AcDbEntity
  8
0-4_枠
  6
Continuous
 62
    92
370
    13
100
AcDbLine
 10
-734.1804114878316
 20
-3281.515294221599
 30
0.0
 11
-1502.180728210806
 21
-3281.515294221599
 31
0.0
  0
LINE
  5
2F6
330
1F
100
AcDbEntity
  8
0-3_仕上げ
  6
Continuous
 62
     7
370
     9
100
AcDbLine
 10
-1502.180728210806
 20
-3407.51481913714
 30
0.0
 11
-734.1804114878316
 21
-3288.053572204867
 31
0.0
  0
LINE
  5
2F7
330
1F
100
AcDbEntity
  8
0-3_仕上げ
  6
Continuous
 62
    92
370
    13
100
AcDbLine
 10
-734.1804114878316
 20
-3281.515294221599
 30
0.0
 11
-1502.180728210806
 21
-3281.515294221599
 31
0.0
  0
LINE
  5
2F8
330
1F
100
AcDbEntity
  8
0-3_仕上げ
  6
Continuous
 62
    92
370
    13
100
AcDbLine
 10
-1502.180728210806
 20
-3281.515294221599
 30
0.0
 11
-1502.180728210806
 21
-3407.51481913714
 31
0.0
  0
LINE
  5
2F9
330
1F
100
AcDbEntity
  8
0-3_仕上げ
  6
Continuous
 62
    92
370
    13
100
AcDbLine
 10
-734.1804114878316
 20
-3407.51481913714
 30
0.0
 11
-734.1804114878316
 21
-3281.515294221599
 31
0.0
  0
LINE
  5
2FA
330
1F
100
AcDbEntity
  8
0-C_ハッチ
  6
Continuous
 62
   120
370
     5
100
AcDbLine
 10
-1498.483302981581
 20
-3281.515294221599
 30
0.0
 11
-1318.483302981578
 21
-3101.515294221595
 31
0.0
  0
LINE
  5
2FB
330
1F
100
AcDbEntity
  8
0-C_ハッチ
  6
Continuous
 62
   120
370
     5
100
AcDbLine
 10
-785.7196675455428
 20
-3281.515294221599
 30
0.0
 11
-734.1804114878453
 21
-3229.976038163901
 31
0.0
  0
LINE
  5
2FC
330
1F
100
AcDbEntity
  8
0-C_ハッチ
  6
Continuous
 62
   120
370
     5
100
AcDbLine
 10
-845.1166371651889
 20
-3281.515294221599
 30
0.0
 11
-734.1804114878299
 21
-3170.579068544238
 31
0.0
  0
LINE
  5
2FD
330
1F
100
AcDbEntity
  8
0-C_ハッチ
  6
Continuous
 62
   120
370
     5
100
AcDbLine
 10
-904.513606784892
 20
-3281.515294221599
 30
0.0
 11
-734.1804114878419
 21
-3111.182098924549
 31
0.0
  0
LINE
  5
2FE
330
1F
100
AcDbEntity
  8
0-C_ハッチ
  6
Continuous
 62
   120
370
     5
100
AcDbLine
 10
-963.9105764045383
 20
-3281.515294221599
 30
0.0
 11
-783.9105764045393
 21
-3101.515294221599
 31
0.0
  0
LINE
  5
2FF
330
1F
100
AcDbEntity
  8
0-C_ハッチ
  6
Continuous
 62
   120
370
     5
100
AcDbLine
 10
-1023.307546024241
 20
-3281.515294221599
 30
0.0
 11
-843.3075460242428
 21
-3101.5152942216
 31
0.0
  0
LINE
  5
300
330
1F
100
AcDbEntity
  8
0-C_ハッチ
  6
Continuous
 62
   120
370
     5
100
AcDbLine
 10
-1082.704515643888
 20
-3281.515294221599
 30
0.0
 11
-902.704515643885
 21
-3101.515294221595
 31
0.0
  0
LINE
  5
301
330
1F
100
AcDbEntity
  8
0-C_ハッチ
  6
Continuous
 62
   120
370
     5
100
AcDbLine
 10
-1142.101485263536
 20
-3281.515294221599
 30
0.0
 11
-962.1014852635442
 21
-3101.515294221607
 31
0.0
  0
LINE
  5
302
330
1F
100
AcDbEntity
  8
0-C_ハッチ
  6
Continuous
 62
   120
370
     5
100
AcDbLine
 10
-1201.498454883237
 20
-3281.515294221599
 30
0.0
 11
-1021.498454883229
 21
-3101.515294221592
 31
0.0
  0
LINE
  5
303
330
1F
100
AcDbEntity
  8
0-C_ハッチ
  6
Continuous
 62
   120
370
     5
100
AcDbLine
 10
-1260.895424502884
 20
-3281.515294221599
 30
0.0
 11
-1080.89542450289
 21
-3101.515294221604
 31
0.0
  0
LINE
  5
304
330
1F
100
AcDbEntity
  8
0-C_ハッチ
  6
Continuous
 62
   120
370
     5
100
AcDbLine
 10
-1320.292394122585
 20
-3281.515294221599
 30
0.0
 11
-1140.292394122575
 21
-3101.515294221588
 31
0.0
  0
LINE
  5
305
330
1F
100
AcDbEntity
  8
0-C_ハッチ
  6
Continuous
 62
   120
370
     5
100
AcDbLine
 10
-1379.689363742233
 20
-3281.515294221599
 30
0.0
 11
-1199.689363742236
 21
-3101.5152942216
 31
0.0
  0
LINE
  5
306
330
1F
100
AcDbEntity
  8
0-C_ハッチ
  6
Continuous
 62
   120
370
     5
100
AcDbLine
 10
-1439.086333361883
 20
-3281.515294221599
 30
0.0
 11
-1259.086333361893
 21
-3101.515294221612
 31
0.0
  0
LINE
  5
307
330
1F
100
AcDbEntity
  8
0-6_扉
  6
Continuous
 62
   200
370
    20
100
AcDbLine
 10
-1025.180094764859
 20
-1835.514928010661
 30
0.0
 11
-1025.180094764859
 21
-2869.663707435881
 31
0.0
  0
LINE
  5
308
330
1F
100
AcDbEntity
  8
0-6_扉
  6
Continuous
 62
    92
370
    13
100
AcDbLine
 10
-1043.18009476486
 20
-1835.514928010661
 30
0.0
 11
-1043.18009476486
 21
-2869.663707435881
 31
0.0
  0
LINE
  5
309
330
1F
100
AcDbEntity
  8
0-B_寸法
  6
Continuous
 62
   120
370
     5
100
AcDbLine
 10
-2222.180728210806
 20
-329.5139679441502
 30
0.0
 11
-2222.180728210806
 21
-3101.515591149386
 31
0.0
  0
LWPOLYLINE
  5
30A
330
1F
100
AcDbEntity
  8
0-B_寸法
  6
Continuous
 62
     7
370
     9
100
AcDbPolyline
 90
        4
 70
     1
 43
3.0
 10
-2220.680728210806
 20
-329.5139679441502
 42
0.4142135623731
 10
-2222.180728210806
 20
-328.0139679441502
 42
0.4142135623731
 10
-2223.680728210806
 20
-329.5139679441502
 42
0.4142135623731
 10
-2222.180728210806
 20
-331.0139679441503
 42
0.4142135623731
  0
LINE
  5
30B
330
1F
100
AcDbEntity
  8
0-B_寸法
  6
Continuous
 62
   120
370
     5
100
AcDbLine
 10
-1862.180728210806
 20
-329.5139679441502
 30
0.0
 11
-2222.180728210806
 21
-329.5139679441502
 31
0.0
  0
MTEXT
  5
30C
330
1F
100
AcDbEntity
  8
0-B_寸法
  6
Continuous
 62
     7
370
     0
100
AcDbMText
 10
-2225.180767801176
 20
-448.3665570224865
 30
0.0
 40
74.295
 41
97.5
 46
0.0
 71
     7
 72
     1
  1
{\fＭＳ ゴシック|b0|i0|c128|p49;30}
 11
6.123031769111886E-17
 21
1.0
 31
0.0
 73
     1
 44
1.0
  0
MTEXT
  5
30D
330
1F
100
AcDbEntity
  8
0-B_寸法
  6
Continuous
 62
     7
370
     0
100
AcDbMText
 10
162.8182028491615
 20
-485.1173884202892
 30
0.0
 40
74.295
 41
97.5
 46
0.0
 71
     7
 72
     1
  1
{\fＭＳ ゴシック|b0|i0|c128|p49;30}
 11
6.123031769111886E-17
 21
1.0
 31
0.0
 73
     1
 44
1.0
  0
MTEXT
  5
30E
330
1F
100
AcDbEntity
  8
0-B_寸法
  6
Continuous
 62
     7
370
     0
100
AcDbMText
 10
162.8187967047366
 20
-3256.367927839103
 30
0.0
 40
74.295
 41
97.5
 46
0.0
 71
     7
 72
     1
  1
{\fＭＳ ゴシック|b0|i0|c128|p49;30}
 11
6.123031769111886E-17
 21
1.0
 31
0.0
 73
     1
 44
1.0
  0
LWPOLYLINE
  5
30F
330
1F
100
AcDbEntity
  8
0-B_寸法
  6
Continuous
 62
     7
370
     9
100
AcDbPolyline
 90
        4
 70
     1
 43
3.0
 10
167.3182424395314
 20
-329.5145617997236
 42
0.4142135623731
 10
165.8182424395314
 20
-328.0145617997236
 42
0.4142135623731
 10
164.3182424395314
 20
-329.5145617997236
 42
0.4142135623731
 10
165.8182424395314
 20
-331.0145617997237
 42
0.4142135623731
  0
LINE
  5
310
330
1F
100
AcDbEntity
  8
0-B_寸法
  6
Continuous
 62
   120
370
     5
100
AcDbLine
 10
-194.1817575604669
 20
-329.5145617997236
 30
0.0
 11
345.818242439533
 21
-329.5145617997236
 31
0.0
  0
LWPOLYLINE
  5
311
330
1F
100
AcDbEntity
  8
0-B_寸法
  6
Continuous
 62
     7
370
     9
100
AcDbPolyline
 90
        4
 70
     1
 43
3.0
 10
347.3182424395331
 20
-329.5145617997236
 42
0.4142135623731
 10
345.818242439533
 20
-328.0145617997236
 42
0.4142135623731
 10
344.318242439533
 20
-329.5145617997236
 42
0.4142135623731
 10
345.818242439533
 20
-331.0145617997237
 42
0.4142135623731
  0
LINE
  5
312
330
1F
100
AcDbEntity
  8
0-B_寸法
  6
Continuous
 62
   120
370
     5
100
AcDbLine
 10
345.818242439533
 20
-3191.515294221599
 30
0.0
 11
345.818242439533
 21
-329.5145617997236
 31
0.0
  0
LWPOLYLINE
  5
313
330
1F
100
AcDbEntity
  8
0-B_寸法
  6
Continuous
 62
     7
370
     9
100
AcDbPolyline
 90
        4
 70
     1
 43
3.0
 10
167.3182424395314
 20
-3281.515294221599
 42
0.4142135623731
 10
165.8182424395314
 20
-3280.015294221599
 42
0.4142135623731
 10
164.3182424395314
 20
-3281.515294221599
 42
0.4142135623731
 10
165.8182424395314
 20
-3283.015294221599
 42
0.4142135623731
  0
LINE
  5
314
330
1F
100
AcDbEntity
  8
0-B_寸法
  6
Continuous
 62
   120
370
     5
100
AcDbLine
 10
-194.1817575604669
 20
-3281.515294221599
 30
0.0
 11
345.8176485839597
 21
-3281.515294221599
 31
0.0
  0
LINE
  5
315
330
1F
100
AcDbEntity
  8
0-B_寸法
  6
Continuous
 62
   120
370
     5
100
AcDbLine
 10
345.8176485839597
 20
-3191.515294221599
 30
0.0
 11
345.8176485839597
 21
-3281.515294221599
 31
0.0
  0
LWPOLYLINE
  5
316
330
1F
100
AcDbEntity
  8
0-B_寸法
  6
Continuous
 62
     7
370
     9
100
AcDbPolyline
 90
        4
 70
     1
 43
3.0
 10
347.3176485839597
 20
-3281.515294221599
 42
0.4142135623731
 10
345.8176485839597
 20
-3280.015294221599
 42
0.4142135623731
 10
344.3176485839597
 20
-3281.515294221599
 42
0.4142135623731
 10
345.8176485839597
 20
-3283.015294221599
 42
0.4142135623731
  0
LWPOLYLINE
  5
317
330
1F
100
AcDbEntity
  8
0-B_寸法
  6
Continuous
 62
     7
370
     9
100
AcDbPolyline
 90
        4
 70
     1
 43
3.0
 10
347.3182424395331
 20
-3281.515294221599
 42
0.4142135623731
 10
345.818242439533
 20
-3280.015294221599
 42
0.4142135623731
 10
344.318242439533
 20
-3281.515294221599
 42
0.4142135623731
 10
345.818242439533
 20
-3283.015294221599
 42
0.4142135623731
  0
LINE
  5
318
330
1F
100
AcDbEntity
  8
0-B_寸法
  6
Continuous
 62
   120
370
     5
100
AcDbLine
 10
165.8182424395314
 20
-329.5145617997236
 30
0.0
 11
165.8182424395314
 21
-3281.515294221599
 31
0.0
  0
LINE
  5
319
330
1F
100
AcDbEntity
  8
0-A_文字
  6
Continuous
 62
     7
370
     9
100
AcDbLine
 10
2145.818242439533
 20
-877.6984863062739
 30
0.0
 11
705.818242439533
 21
-877.6984863062739
 31
0.0
  0
LINE
  5
31A
330
1F
100
AcDbEntity
  8
0-4_枠
  6
Continuous
 62
    92
370
    13
100
AcDbLine
 10
1710.416572742465
 20
-1457.608269519445
 30
0.0
 11
1710.416572742465
 21
-1403.607794434986
 31
0.0
  0
LINE
  5
31B
330
1F
100
AcDbEntity
  8
0-4_枠
  6
Continuous
 62
    92
370
    13
100
AcDbLine
 10
1710.416572742465
 20
-1457.608269519445
 30
0.0
 11
1770.416770694325
 21
-1457.608269519445
 31
0.0
  0
LINE
  5
31C
330
1F
100
AcDbEntity
  8
0-4_枠
  6
Continuous
 62
    92
370
    13
100
AcDbLine
 10
1767.416612332837
 20
-1514.607715254242
 30
0.0
 11
1767.416612332837
 21
-1457.608269519445
 31
0.0
  0
LINE
  5
31D
330
1F
100
AcDbEntity
  8
0-4_枠
  6
Continuous
 62
    92
370
    13
100
AcDbLine
 10
1422.416810284695
 20
-1517.607873615728
 30
0.0
 11
1770.416770694325
 21
-1517.607873615728
 31
0.0
  0
LINE
  5
31E
330
1F
100
AcDbEntity
  8
0-4_枠
  6
Continuous
 62
    92
370
    13
100
AcDbLine
 10
1422.416810284695
 20
-1514.607715254242
 30
0.0
 11
1767.416612332837
 21
-1514.607715254242
 31
0.0
  0
LINE
  5
31F
330
1F
100
AcDbEntity
  8
0-4_枠
  6
Continuous
 62
    92
370
    13
100
AcDbLine
 10
1770.416770694325
 20
-1403.607794434986
 30
0.0
 11
1710.416572742465
 21
-1403.607794434986
 31
0.0
  0
LINE
  5
320
330
1F
100
AcDbEntity
  8
0-4_枠
  6
Continuous
 62
    92
370
    13
100
AcDbLine
 10
1770.416770694325
 20
-1457.608269519445
 30
0.0
 11
1770.416770694325
 21
-1517.607873615728
 31
0.0
  0
LINE
  5
321
330
1F
100
AcDbEntity
  8
0-C_ハッチ
  6
Continuous
 62
   120
370
     5
100
AcDbLine
 10
1761.617802915154
 20
-1514.60771525425
 30
0.0
 11
1767.416612332848
 21
-1508.808905836559
 31
0.0
  0
LINE
  5
322
330
1F
100
AcDbEntity
  8
0-C_ハッチ
  6
Continuous
 62
   120
370
     5
100
AcDbLine
 10
1702.220833295526
 20
-1514.607715254232
 30
0.0
 11
1759.220279030321
 21
-1457.608269519437
 31
0.0
  0
LINE
  5
323
330
1F
100
AcDbEntity
  8
0-C_ハッチ
  6
Continuous
 62
   120
370
     5
100
AcDbLine
 10
1642.823863675814
 20
-1514.607715254242
 30
0.0
 11
1710.41657274246
 21
-1447.015006187595
 31
0.0
  0
LINE
  5
324
330
1F
100
AcDbEntity
  8
0-4_枠
  6
Continuous
 62
    92
370
    13
100
AcDbLine
 10
1014.416493561722
 20
-1517.607873615728
 30
0.0
 11
1422.416810284695
 21
-1517.607873615728
 31
0.0
  0
LINE
  5
325
330
1F
100
AcDbEntity
  8
0-4_枠
  6
Continuous
 62
    92
370
    13
100
AcDbLine
 10
1017.41665192321
 20
-1514.607715254242
 30
0.0
 11
1422.416810284695
 21
-1514.607715254242
 31
0.0
  0
LINE
  5
326
330
1F
100
AcDbEntity
  8
0-4_枠
  6
Continuous
 62
    92
370
    13
100
AcDbLine
 10
1770.416770694325
 20
-1403.607794434986
 30
0.0
 11
1770.416770694325
 21
-1337.607873615728
 31
0.0
  0
LINE
  5
327
330
1F
100
AcDbEntity
  8
0-4_枠
  6
Continuous
 62
    92
370
    13
100
AcDbLine
 10
1767.416770694325
 20
-1403.607794434986
 30
0.0
 11
1767.416770694325
 21
-1340.607873615728
 31
0.0
  0
LINE
  5
328
330
1F
100
AcDbEntity
  8
0-4_枠
  6
Continuous
 62
    92
370
    13
100
AcDbLine
 10
1665.682068171319
 20
-1340.607873615728
 30
0.0
 11
1767.416770694325
 21
-1340.607873615728
 31
0.0
  0
LINE
  5
329
330
1F
100
AcDbEntity
  8
0-4_枠
  6
Continuous
 62
    92
370
    13
100
AcDbLine
 10
1017.41665192321
 20
-1340.607873615728
 30
0.0
 11
1017.41665192321
 21
-1514.607715254242
 31
0.0
  0
LINE
  5
32A
330
1F
100
AcDbEntity
  8
0-4_枠
  6
Continuous
 62
    92
370
    13
100
AcDbLine
 10
1017.41665192321
 20
-1340.607873615728
 30
0.0
 11
1145.523990268282
 21
-1340.607873615728
 31
0.0
  0
LINE
  5
32B
330
1F
100
AcDbEntity
  8
0-4_枠
  6
Continuous
 62
    92
370
    13
100
AcDbLine
 10
1014.416493561722
 20
-1337.607873615728
 30
0.0
 11
1014.416493561722
 21
-1517.607873615728
 31
0.0
  0
LINE
  5
32C
330
1F
100
AcDbEntity
  8
0-4_枠
  6
Continuous
 62
    92
370
    13
100
AcDbLine
 10
1014.416493561722
 20
-1337.607873615728
 30
0.0
 11
1770.416770694325
 21
-1337.607873615728
 31
0.0
  0
LINE
  5
32D
330
1F
100
AcDbEntity
  8
0-C_ハッチ
  6
Continuous
 62
   120
370
     5
100
AcDbLine
 10
1017.416651923196
 20
-1367.854321951174
 30
0.0
 11
1044.663100258641
 21
-1340.607873615728
 31
0.0
  0
LINE
  5
32E
330
1F
100
AcDbEntity
  8
0-C_ハッチ
  6
Continuous
 62
   120
370
     5
100
AcDbLine
 10
1017.416651923206
 20
-1427.251291570809
 30
0.0
 11
1107.060069878288
 21
-1337.607873615728
 31
0.0
  0
LINE
  5
32F
330
1F
100
AcDbEntity
  8
0-C_ハッチ
  6
Continuous
 62
   120
370
     5
100
AcDbLine
 10
1583.426894056172
 20
-1514.607715254237
 30
0.0
 11
1760.426735694681
 21
-1337.607873615728
 31
0.0
  0
LINE
  5
330
330
1F
100
AcDbEntity
  8
0-C_ハッチ
  6
Continuous
 62
   120
370
     5
100
AcDbLine
 10
1524.029924436471
 20
-1514.607715254235
 30
0.0
 11
1701.029766074979
 21
-1337.607873615728
 31
0.0
  0
LINE
  5
331
330
1F
100
AcDbEntity
  8
0-C_ハッチ
  6
Continuous
 62
   120
370
     5
100
AcDbLine
 10
1464.632954816831
 20
-1514.607715254228
 30
0.0
 11
1641.632796455332
 21
-1337.607873615728
 31
0.0
  0
LINE
  5
332
330
1F
100
AcDbEntity
  8
0-C_ハッチ
  6
Continuous
 62
   120
370
     5
100
AcDbLine
 10
1286.442045957814
 20
-1514.607715254249
 30
0.0
 11
1463.441887596335
 21
-1337.607873615728
 31
0.0
  0
LINE
  5
333
330
1F
100
AcDbEntity
  8
0-C_ハッチ
  6
Continuous
 62
   120
370
     5
100
AcDbLine
 10
1227.045076338116
 20
-1514.607715254247
 30
0.0
 11
1404.044917976633
 21
-1337.607873615728
 31
0.0
  0
LINE
  5
334
330
1F
100
AcDbEntity
  8
0-C_ハッチ
  6
Continuous
 62
   120
370
     5
100
AcDbLine
 10
1167.648106718475
 20
-1514.60771525424
 30
0.0
 11
1344.647948356986
 21
-1337.607873615728
 31
0.0
  0
LINE
  5
335
330
1F
100
AcDbEntity
  8
0-C_ハッチ
  6
Continuous
 62
   120
370
     5
100
AcDbLine
 10
1108.251137098773
 20
-1514.607715254238
 30
0.0
 11
1285.250978737286
 21
-1337.607873615728
 31
0.0
  0
LINE
  5
336
330
1F
100
AcDbEntity
  8
0-C_ハッチ
  6
Continuous
 62
   120
370
     5
100
AcDbLine
 10
1048.854167479116
 20
-1514.607715254249
 30
0.0
 11
1225.854009117635
 21
-1337.607873615728
 31
0.0
  0
LINE
  5
337
330
1F
100
AcDbEntity
  8
0-C_ハッチ
  6
Continuous
 62
   120
370
     5
100
AcDbLine
 10
1017.4166519232
 20
-1486.648261190465
 30
0.0
 11
1166.457039497935
 21
-1337.607873615728
 31
0.0
  0
LINE
  5
338
330
1F
100
AcDbEntity
  8
0-C_ハッチ
  6
Continuous
 62
   120
370
     5
100
AcDbLine
 10
1345.83901557747
 20
-1514.607715254242
 30
0.0
 11
1522.838857215984
 21
-1337.607873615728
 31
0.0
  0
LINE
  5
339
330
1F
100
AcDbEntity
  8
0-C_ハッチ
  6
Continuous
 62
   120
370
     5
100
AcDbLine
 10
1405.235985197115
 20
-1514.607715254242
 30
0.0
 11
1582.23582683563
 21
-1337.607873615728
 31
0.0
  0
LINE
  5
33A
330
1F
100
AcDbEntity
  8
0-B_寸法
  6
Continuous
 62
   120
370
     5
100
AcDbLine
 10
1014.416493561722
 20
-1664.607715254238
 30
0.0
 11
1770.416770694325
 21
-1664.607715254238
 31
0.0
  0
LWPOLYLINE
  5
33B
330
1F
100
AcDbEntity
  8
0-B_寸法
  6
Continuous
 62
     7
370
     9
100
AcDbPolyline
 90
        4
 70
     1
 43
3.0
 10
1015.916493561722
 20
-1664.607715254238
 42
0.4142135623731
 10
1014.416493561722
 20
-1663.107715254239
 42
0.4142135623731
 10
1012.916493561722
 20
-1664.607715254238
 42
0.4142135623731
 10
1014.416493561722
 20
-1666.107715254238
 42
0.4142135623731
  0
LWPOLYLINE
  5
33C
330
1F
100
AcDbEntity
  8
0-B_寸法
  6
Continuous
 62
     7
370
     9
100
AcDbPolyline
 90
        4
 70
     1
 43
3.0
 10
1771.916770694325
 20
-1664.607715254238
 42
0.4142135623731
 10
1770.416770694325
 20
-1663.107715254239
 42
0.4142135623731
 10
1768.916770694325
 20
-1664.607715254238
 42
0.4142135623731
 10
1770.416770694325
 20
-1666.107715254238
 42
0.4142135623731
  0
LINE
  5
33D
330
1F
100
AcDbEntity
  8
0-B_寸法
  6
Continuous
 62
   120
370
     5
100
AcDbLine
 10
1014.416493561722
 20
-1664.607715254238
 30
0.0
 11
1014.416493561722
 21
-1544.607715254238
 31
0.0
  0
LINE
  5
33E
330
1F
100
AcDbEntity
  8
0-B_寸法
  6
Continuous
 62
   120
370
     5
100
AcDbLine
 10
1770.416770694325
 20
-1664.607715254238
 30
0.0
 11
1770.416770694325
 21
-1544.607715254238
 31
0.0
  0
MTEXT
  5
33F
330
1F
100
AcDbEntity
  8
0-B_寸法
  6
Continuous
 62
     7
370
   211
100
AcDbMText
 10
1336.166632128024
 20
-1658.532715254238
 30
0.0
 40
57.15
 41
112.5
 46
0.0
 71
     7
 72
     1
  1
{\fＭＳ ゴシック|b0|i0|c128|p49;126}
 73
     1
 44
1.0
  0
LINE
  5
340
330
1F
100
AcDbEntity
  8
0-B_寸法
  6
Continuous
 62
   120
370
     5
100
AcDbLine
 10
1920.416770694325
 20
-1517.607873615728
 30
0.0
 11
1920.416770694325
 21
-1457.608269519445
 31
0.0
  0
LWPOLYLINE
  5
341
330
1F
100
AcDbEntity
  8
0-B_寸法
  6
Continuous
 62
     7
370
     9
100
AcDbPolyline
 90
        4
 70
     1
 43
3.0
 10
1921.916770694325
 20
-1517.607873615728
 42
0.4142135623731
 10
1920.416770694325
 20
-1516.107873615728
 42
0.4142135623731
 10
1918.916770694325
 20
-1517.607873615728
 42
0.4142135623731
 10
1920.416770694325
 20
-1519.107873615728
 42
0.4142135623731
  0
LWPOLYLINE
  5
342
330
1F
100
AcDbEntity
  8
0-B_寸法
  6
Continuous
 62
     7
370
     9
100
AcDbPolyline
 90
        4
 70
     1
 43
3.0
 10
1921.916770694325
 20
-1457.608269519445
 42
0.4142135623731
 10
1920.416770694325
 20
-1456.108269519445
 42
0.4142135623731
 10
1918.916770694325
 20
-1457.608269519445
 42
0.4142135623731
 10
1920.416770694325
 20
-1459.108269519445
 42
0.4142135623731
  0
LINE
  5
343
330
1F
100
AcDbEntity
  8
0-B_寸法
  6
Continuous
 62
   120
370
     5
100
AcDbLine
 10
1920.416770694325
 20
-1517.607873615728
 30
0.0
 11
1800.416770694325
 21
-1517.607873615728
 31
0.0
  0
LINE
  5
344
330
1F
100
AcDbEntity
  8
0-B_寸法
  6
Continuous
 62
   120
370
     5
100
AcDbLine
 10
1920.416770694325
 20
-1457.608269519445
 30
0.0
 11
1800.416770694325
 21
-1457.608269519445
 31
0.0
  0
LINE
  5
345
330
1F
100
AcDbEntity
  8
0-B_寸法
  6
Continuous
 62
   120
370
     5
100
AcDbLine
 10
1920.416770694325
 20
-1457.608269519445
 30
0.0
 11
1920.416770694325
 21
-1403.607794434986
 31
0.0
  0
LWPOLYLINE
  5
346
330
1F
100
AcDbEntity
  8
0-B_寸法
  6
Continuous
 62
     7
370
     9
100
AcDbPolyline
 90
        4
 70
     1
 43
3.0
 10
1921.916770694325
 20
-1403.607794434986
 42
0.4142135623731
 10
1920.416770694325
 20
-1402.107794434986
 42
0.4142135623731
 10
1918.916770694325
 20
-1403.607794434986
 42
0.4142135623731
 10
1920.416770694325
 20
-1405.107794434986
 42
0.4142135623731
  0
LINE
  5
347
330
1F
100
AcDbEntity
  8
0-B_寸法
  6
Continuous
 62
   120
370
     5
100
AcDbLine
 10
1920.416770694325
 20
-1403.607794434986
 30
0.0
 11
1800.416770694325
 21
-1403.607794434986
 31
0.0
  0
LINE
  5
348
330
1F
100
AcDbEntity
  8
0-B_寸法
  6
Continuous
 62
   120
370
     5
100
AcDbLine
 10
1920.416770694325
 20
-1403.607794434986
 30
0.0
 11
1920.416770694325
 21
-1337.607873615728
 31
0.0
  0
LWPOLYLINE
  5
349
330
1F
100
AcDbEntity
  8
0-B_寸法
  6
Continuous
 62
     7
370
     9
100
AcDbPolyline
 90
        4
 70
     1
 43
3.0
 10
1921.916770694325
 20
-1337.607873615728
 42
0.4142135623731
 10
1920.416770694325
 20
-1336.107873615728
 42
0.4142135623731
 10
1918.916770694325
 20
-1337.607873615728
 42
0.4142135623731
 10
1920.416770694325
 20
-1339.107873615728
 42
0.4142135623731
  0
LINE
  5
34A
330
1F
100
AcDbEntity
  8
0-B_寸法
  6
Continuous
 62
   120
370
     5
100
AcDbLine
 10
1920.416770694325
 20
-1337.607873615728
 30
0.0
 11
1800.416770694325
 21
-1337.607873615728
 31
0.0
  0
MTEXT
  5
34B
330
1F
100
AcDbEntity
  8
0-B_寸法
  6
Continuous
 62
     7
370
   211
100
AcDbMText
 10
1905.416770694325
 20
-1417.032834025357
 30
0.0
 40
57.15
 41
75.0
 46
0.0
 71
     7
 72
     1
  1
{\fＭＳ ゴシック|b0|i0|c128|p49;11}
 11
6.123031769111886E-17
 21
1.0
 31
0.0
 73
     1
 44
1.0
  0
LINE
  5
34C
330
1F
100
AcDbEntity
  8
0-B_寸法
  6
Continuous
 62
   120
370
     5
100
AcDbLine
 10
864.4164935617223
 20
-1517.607873615728
 30
0.0
 11
864.4164935617227
 21
-1337.607873615728
 31
0.0
  0
LWPOLYLINE
  5
34D
330
1F
100
AcDbEntity
  8
0-B_寸法
  6
Continuous
 62
     7
370
     9
100
AcDbPolyline
 90
        4
 70
     1
 43
3.0
 10
865.9164935617224
 20
-1517.607873615728
 42
0.4142135623731
 10
864.4164935617223
 20
-1516.107873615728
 42
0.4142135623731
 10
862.9164935617223
 20
-1517.607873615728
 42
0.4142135623731
 10
864.4164935617223
 20
-1519.107873615728
 42
0.4142135623731
  0
LWPOLYLINE
  5
34E
330
1F
100
AcDbEntity
  8
0-B_寸法
  6
Continuous
 62
     7
370
     9
100
AcDbPolyline
 90
        4
 70
     1
 43
3.0
 10
865.9164935617227
 20
-1337.607873615728
 42
0.4142135623731
 10
864.4164935617227
 20
-1336.107873615728
 42
0.4142135623731
 10
862.9164935617227
 20
-1337.607873615728
 42
0.4142135623731
 10
864.4164935617227
 20
-1339.107873615728
 42
0.4142135623731
  0
LINE
  5
34F
330
1F
100
AcDbEntity
  8
0-B_寸法
  6
Continuous
 62
   120
370
     5
100
AcDbLine
 10
864.4164935617223
 20
-1517.607873615728
 30
0.0
 11
984.4164935617223
 21
-1517.607873615728
 31
0.0
  0
LINE
  5
350
330
1F
100
AcDbEntity
  8
0-B_寸法
  6
Continuous
 62
   120
370
     5
100
AcDbLine
 10
864.4164935617227
 20
-1337.607873615728
 30
0.0
 11
984.4164935617227
 21
-1337.607873615728
 31
0.0
  0
MTEXT
  5
351
330
1F
100
AcDbEntity
  8
0-B_寸法
  6
Continuous
 62
     7
370
   211
100
AcDbMText
 10
849.4164935617227
 20
-1474.032873615728
 30
0.0
 40
57.15
 41
75.0
 46
0.0
 71
     7
 72
     1
  1
{\fＭＳ ゴシック|b0|i0|c128|p49;30}
 11
2.281676366941432E-15
 21
1.0
 31
0.0
 73
     1
 44
1.0
  0
MTEXT
  5
352
330
1F
100
AcDbEntity
  8
0-B_寸法
  6
Continuous
 62
     7
370
   211
100
AcDbMText
 10
1905.416770694325
 20
-1534.033071567586
 30
0.0
 40
57.15
 41
75.0
 46
0.0
 71
     7
 72
     1
  1
{\fＭＳ ゴシック|b0|i0|c128|p49;10}
 11
6.123031769111886E-17
 21
1.0
 31
0.0
 73
     1
 44
1.0
  0
MTEXT
  5
353
330
1F
100
AcDbEntity
  8
0-B_寸法
  6
Continuous
 62
     7
370
   211
100
AcDbMText
 10
2001.054842292455
 20
-1456.776239225129
 30
0.0
 40
57.15
 41
37.5
 46
0.0
 71
     7
 72
     1
  1
{\fＭＳ ゴシック|b0|i0|c128|p49;9}
 11
6.123031769111886E-17
 21
1.0
 31
0.0
 73
     1
 44
1.0
  0
LINE
  5
354
330
1F
100
AcDbEntity
  8
0-A_文字
  6
Continuous
 62
     7
370
     9
100
AcDbLine
 10
705.818242439533
 20
-2025.932823300376
 30
0.0
 11
2145.818242439533
 21
-2025.932823300376
 31
0.0
  0
LINE
  5
355
330
1F
100
AcDbEntity
  8
0-A_文字
  6
Continuous
 62
     7
370
     9
100
AcDbLine
 10
2145.818242439533
 20
-2025.932823300376
 30
0.0
 11
2145.818242439533
 21
-877.6984863062739
 31
0.0
  0
LINE
  5
356
330
1F
100
AcDbEntity
  8
0-A_文字
  6
Continuous
 62
     7
370
     9
100
AcDbLine
 10
705.818242439533
 20
-877.6984863062739
 30
0.0
 11
705.818242439533
 21
-2025.932823300376
 31
0.0
  0
LINE
  5
357
330
1F
100
AcDbEntity
  8
0-4_枠
  6
Continuous
 62
    92
370
    13
100
AcDbLine
 10
1784.129446819268
 20
-2822.747997025693
 30
0.0
 11
1016.129130096294
 21
-2822.747997025693
 31
0.0
  0
LINE
  5
358
330
1F
100
AcDbEntity
  8
0-C_ハッチ
  6
Continuous
 62
   120
370
     5
100
AcDbLine
 10
1016.129130096301
 20
-2828.254513395913
 30
0.0
 11
1021.635646466515
 21
-2822.747997025698
 31
0.0
  0
LINE
  5
359
330
1F
100
AcDbEntity
  8
0-4_枠
  6
Continuous
 62
    92
370
    13
100
AcDbLine
 10
1016.129130096294
 20
-2822.747997025693
 30
0.0
 11
1016.129130096294
 21
-3002.747997025693
 31
0.0
  0
LINE
  5
35A
330
1F
100
AcDbEntity
  8
0-4_枠
  6
Continuous
 62
    92
370
    13
100
AcDbLine
 10
1784.129446819268
 20
-2822.747997025693
 30
0.0
 11
1784.129446819268
 21
-3002.747997025693
 31
0.0
  0
LINE
  5
35B
330
1F
100
AcDbEntity
  8
0-4_枠
  6
Continuous
 62
    92
370
    13
100
AcDbLine
 10
1784.129446819268
 20
-3002.747997025693
 30
0.0
 11
1016.129130096294
 21
-3002.747997025693
 31
0.0
  0
LINE
  5
35C
330
1F
100
AcDbEntity
  8
0-3_仕上げ
  6
Continuous
 62
    92
370
    13
100
AcDbLine
 10
1784.129446819268
 20
-3002.747997025693
 30
0.0
 11
1016.129130096294
 21
-3002.747997025693
 31
0.0
  0
LINE
  5
35D
330
1F
100
AcDbEntity
  8
0-B_寸法
  6
Continuous
 62
   120
370
     5
100
AcDbLine
 10
1016.129130096294
 20
-3152.747997025693
 30
0.0
 11
1784.129446819268
 21
-3152.747997025693
 31
0.0
  0
LWPOLYLINE
  5
35E
330
1F
100
AcDbEntity
  8
0-B_寸法
  6
Continuous
 62
     7
370
     9
100
AcDbPolyline
 90
        4
 70
     1
 43
3.0
 10
1017.629130096294
 20
-3152.747997025693
 42
0.4142135623731
 10
1016.129130096294
 20
-3151.247997025693
 42
0.4142135623731
 10
1014.629130096294
 20
-3152.747997025693
 42
0.4142135623731
 10
1016.129130096294
 20
-3154.247997025693
 42
0.4142135623731
  0
LWPOLYLINE
  5
35F
330
1F
100
AcDbEntity
  8
0-B_寸法
  6
Continuous
 62
     7
370
     9
100
AcDbPolyline
 90
        4
 70
     1
 43
3.0
 10
1785.629446819268
 20
-3152.747997025693
 42
0.4142135623731
 10
1784.129446819268
 20
-3151.247997025693
 42
0.4142135623731
 10
1782.629446819268
 20
-3152.747997025693
 42
0.4142135623731
 10
1784.129446819268
 20
-3154.247997025693
 42
0.4142135623731
  0
LINE
  5
360
330
1F
100
AcDbEntity
  8
0-B_寸法
  6
Continuous
 62
   120
370
     5
100
AcDbLine
 10
1016.129130096294
 20
-3152.747997025693
 30
0.0
 11
1016.129130096294
 21
-3032.747997025693
 31
0.0
  0
LINE
  5
361
330
1F
100
AcDbEntity
  8
0-B_寸法
  6
Continuous
 62
   120
370
     5
100
AcDbLine
 10
1784.129446819268
 20
-3152.747997025693
 30
0.0
 11
1784.129446819268
 21
-3032.747997025693
 31
0.0
  0
MTEXT
  5
362
330
1F
100
AcDbEntity
  8
0-B_寸法
  6
Continuous
 62
     7
370
   211
100
AcDbMText
 10
1343.879288457781
 20
-3146.672997025693
 30
0.0
 40
57.15
 41
112.5
 46
0.0
 71
     7
 72
     1
  1
{\fＭＳ ゴシック|b0|i0|c128|p49;128}
 73
     1
 44
1.0
  0
LINE
  5
363
330
1F
100
AcDbEntity
  8
0-B_寸法
  6
Continuous
 62
   120
370
     5
100
AcDbLine
 10
1934.129446819268
 20
-3002.747997025693
 30
0.0
 11
1934.129446819268
 21
-2822.747997025693
 31
0.0
  0
LWPOLYLINE
  5
364
330
1F
100
AcDbEntity
  8
0-B_寸法
  6
Continuous
 62
     7
370
     9
100
AcDbPolyline
 90
        4
 70
     1
 43
3.0
 10
1935.629446819268
 20
-3002.747997025693
 42
0.4142135623731
 10
1934.129446819268
 20
-3001.247997025693
 42
0.4142135623731
 10
1932.629446819268
 20
-3002.747997025693
 42
0.4142135623731
 10
1934.129446819268
 20
-3004.247997025693
 42
0.4142135623731
  0
LWPOLYLINE
  5
365
330
1F
100
AcDbEntity
  8
0-B_寸法
  6
Continuous
 62
     7
370
     9
100
AcDbPolyline
 90
        4
 70
     1
 43
3.0
 10
1935.629446819268
 20
-2822.747997025693
 42
0.4142135623731
 10
1934.129446819268
 20
-2821.247997025693
 42
0.4142135623731
 10
1932.629446819268
 20
-2822.747997025693
 42
0.4142135623731
 10
1934.129446819268
 20
-2824.247997025693
 42
0.4142135623731
  0
LINE
  5
366
330
1F
100
AcDbEntity
  8
0-B_寸法
  6
Continuous
 62
   120
370
     5
100
AcDbLine
 10
1934.129446819268
 20
-3002.747997025693
 30
0.0
 11
1814.129446819268
 21
-3002.747997025693
 31
0.0
  0
LINE
  5
367
330
1F
100
AcDbEntity
  8
0-B_寸法
  6
Continuous
 62
   120
370
     5
100
AcDbLine
 10
1934.129446819268
 20
-2822.747997025693
 30
0.0
 11
1814.129446819268
 21
-2822.747997025693
 31
0.0
  0
MTEXT
  5
368
330
1F
100
AcDbEntity
  8
0-B_寸法
  6
Continuous
 62
     7
370
   211
100
AcDbMText
 10
1919.129446819268
 20
-2959.172997025693
 30
0.0
 40
57.15
 41
75.0
 46
0.0
 71
     7
 72
     1
  1
{\fＭＳ ゴシック|b0|i0|c128|p49;30}
 11
6.123031769111886E-17
 21
1.0
 31
0.0
 73
     1
 44
1.0
  0
LINE
  5
369
330
1F
100
AcDbEntity
  8
0-4_枠
  6
Continuous
 62
    92
370
    13
100
AcDbLine
 10
-737.1804114878314
 20
-3104.515294221599
 30
0.0
 11
-737.1804114878314
 21
-3281.515294221599
 31
0.0
  0
LINE
  5
36A
330
1F
100
AcDbEntity
  8
0-4_枠
  6
Continuous
 62
    92
370
    13
100
AcDbLine
 10
-737.1804114878314
 20
-3104.515294221599
 30
0.0
 11
-1499.180728210806
 21
-3104.515294221599
 31
0.0
  0
LINE
  5
36B
330
1F
100
AcDbEntity
  8
0-4_枠
  6
Continuous
 62
    92
370
    13
100
AcDbLine
 10
-1499.180728210806
 20
-3104.515294221599
 30
0.0
 11
-1499.180728210806
 21
-3281.515294221599
 31
0.0
  0
LINE
  5
36C
330
1F
100
AcDbEntity
  8
0-4_枠
  6
Continuous
 62
    92
370
    13
100
AcDbLine
 10
1019.129130096294
 20
-2825.747997025693
 30
0.0
 11
1019.129130096294
 21
-3002.747997025693
 31
0.0
  0
LINE
  5
36D
330
1F
100
AcDbEntity
  8
0-4_枠
  6
Continuous
 62
    92
370
    13
100
AcDbLine
 10
1781.129446819268
 20
-2825.747997025693
 30
0.0
 11
1019.129130096294
 21
-2825.747997025693
 31
0.0
  0
LINE
  5
36E
330
1F
100
AcDbEntity
  8
0-4_枠
  6
Continuous
 62
    92
370
    13
100
AcDbLine
 10
1781.129446819268
 20
-2825.747997025693
 30
0.0
 11
1781.129446819268
 21
-3002.747997025693
 31
0.0
  0
LINE
  5
36F
330
1F
100
AcDbEntity
  8
0-C_ハッチ
  6
Continuous
 62
   120
370
     5
100
AcDbLine
 10
1554.399281902561
 20
-3002.747997025693
 30
0.0
 11
1731.399281902561
 21
-2825.747997025693
 31
0.0
  0
LINE
  5
370
330
1F
100
AcDbEntity
  8
0-C_ハッチ
  6
Continuous
 62
   120
370
     5
100
AcDbLine
 10
1019.826555325518
 20
-3002.747997025693
 30
0.0
 11
1196.826555325519
 21
-2825.747997025693
 31
0.0
  0
LINE
  5
371
330
1F
100
AcDbEntity
  8
0-C_ハッチ
  6
Continuous
 62
   120
370
     5
100
AcDbLine
 10
1495.002312282859
 20
-3002.747997025693
 30
0.0
 11
1672.002312282859
 21
-2825.747997025693
 31
0.0
  0
LINE
  5
372
330
1F
100
AcDbEntity
  8
0-C_ハッチ
  6
Continuous
 62
   120
370
     5
100
AcDbLine
 10
1435.605342663211
 20
-3002.747997025693
 30
0.0
 11
1612.605342663212
 21
-2825.747997025693
 31
0.0
  0
LINE
  5
373
330
1F
100
AcDbEntity
  8
0-C_ハッチ
  6
Continuous
 62
   120
370
     5
100
AcDbLine
 10
1376.208373043564
 20
-3002.747997025693
 30
0.0
 11
1553.208373043564
 21
-2825.747997025693
 31
0.0
  0
LINE
  5
374
330
1F
100
AcDbEntity
  8
0-C_ハッチ
  6
Continuous
 62
   120
370
     5
100
AcDbLine
 10
1316.811403423862
 20
-3002.747997025693
 30
0.0
 11
1493.811403423864
 21
-2825.747997025693
 31
0.0
  0
LINE
  5
375
330
1F
100
AcDbEntity
  8
0-C_ハッチ
  6
Continuous
 62
   120
370
     5
100
AcDbLine
 10
1257.414433804216
 20
-3002.747997025693
 30
0.0
 11
1434.414433804215
 21
-2825.747997025693
 31
0.0
  0
LINE
  5
376
330
1F
100
AcDbEntity
  8
0-C_ハッチ
  6
Continuous
 62
   120
370
     5
100
AcDbLine
 10
1198.017464184515
 20
-3002.747997025693
 30
0.0
 11
1375.017464184514
 21
-2825.747997025693
 31
0.0
  0
LINE
  5
377
330
1F
100
AcDbEntity
  8
0-C_ハッチ
  6
Continuous
 62
   120
370
     5
100
AcDbLine
 10
1138.620494564867
 20
-3002.747997025693
 30
0.0
 11
1315.620494564866
 21
-2825.747997025693
 31
0.0
  0
LINE
  5
378
330
1F
100
AcDbEntity
  8
0-C_ハッチ
  6
Continuous
 62
   120
370
     5
100
AcDbLine
 10
1079.223524945217
 20
-3002.747997025693
 30
0.0
 11
1256.22352494522
 21
-2825.747997025693
 31
0.0
  0
LINE
  5
379
330
1F
100
AcDbEntity
  8
0-C_ハッチ
  6
Continuous
 62
   120
370
     5
100
AcDbLine
 10
1019.129130096294
 20
-2884.651483015567
 30
0.0
 11
1078.03261608617
 21
-2825.747997025693
 31
0.0
  0
LINE
  5
37A
330
1F
100
AcDbEntity
  8
0-C_ハッチ
  6
Continuous
 62
   120
370
     5
100
AcDbLine
 10
1019.129130096294
 20
-2944.048452635269
 30
0.0
 11
1137.42958570587
 21
-2825.747997025693
 31
0.0
  0
LINE
  5
37B
330
1F
100
AcDbEntity
  8
0-C_ハッチ
  6
Continuous
 62
   120
370
     5
100
AcDbLine
 10
1613.796251522208
 20
-3002.747997025693
 30
0.0
 11
1781.129446819268
 21
-2835.414801728632
 31
0.0
  0
LINE
  5
37C
330
1F
100
AcDbEntity
  8
0-C_ハッチ
  6
Continuous
 62
   120
370
     5
100
AcDbLine
 10
1732.590190761557
 20
-3002.747997025693
 30
0.0
 11
1781.129446819268
 21
-2954.208740967982
 31
0.0
  0
LINE
  5
37D
330
1F
100
AcDbEntity
  8
0-C_ハッチ
  6
Continuous
 62
   120
370
     5
100
AcDbLine
 10
1673.193221141911
 20
-3002.747997025693
 30
0.0
 11
1781.129446819268
 21
-2894.811771348334
 31
0.0
  0
MTEXT
  5
37E
330
1F
100
AcDbEntity
  8
0-A_文字
  6
Continuous
 62
     7
370
     9
100
AcDbMText
 10
-2513.181172365288
 20
-3845.880786929424
 30
0.0
 40
79.62900000000002
 41
3135.0
 46
0.0
 71
     7
 72
     1
  1
{\fＭＳ ゴシック|b0|i0|c128|p49;※上記納まり図は襖縁（現場調達）を含んだ寸法図としています。}
 73
     1
 44
1.0
  0
LINE
  5
37F
330
1F
100
AcDbEntity
  8
0-4_枠
  6
Continuous
 62
    92
370
    13
100
AcDbLine
 10
-1052.180728210804
 20
-569.5145617997244
 30
0.0
 11
-1052.180728210804
 21
-509.5145617997244
 31
0.0
  0
LINE
  5
380
330
1F
100
AcDbEntity
  8
0-4_枠
  6
Continuous
 62
    92
370
    13
100
AcDbLine
 10
-1232.180728210804
 20
-509.5145617997236
 30
0.0
 11
-1232.180728210804
 21
-569.5145617997237
 31
0.0
  0
ARC
  5
381
330
1F
100
AcDbEntity
  8
0-4_枠
  6
Continuous
 62
    92
370
    13
100
AcDbCircle
 10
-1077.857535648119
 20
-539.5145617997244
 30
0.0
 40
39.48795310183719
100
AcDbArc
 50
310.5600064172879
 51
49.43999358271207
  0
LINE
  5
382
330
1F
100
AcDbEntity
  8
0-C_ハッチ
  6
Continuous
 62
   120
370
     5
100
AcDbLine
 10
-1052.180728210808
 20
-552.1821001796773
 30
0.0
 11
-1069.513189830852
 21
-569.514561799721
 31
0.0
  0
LINE
  5
383
330
1F
100
AcDbEntity
  8
0-C_ハッチ
  6
Continuous
 62
   120
370
     5
100
AcDbLine
 10
-1052.180728210811
 20
-509.7556933084798
 30
0.0
 11
-1111.939596702049
 21
-569.5145617997176
 31
0.0
  0
LINE
  5
384
330
1F
100
AcDbEntity
  8
0-C_ハッチ
  6
Continuous
 62
   120
370
     5
100
AcDbLine
 10
-1094.366003573261
 20
-509.5145617997296
 30
0.0
 11
-1154.366003573261
 21
-569.5145617997296
 31
0.0
  0
LINE
  5
385
330
1F
100
AcDbEntity
  8
0-C_ハッチ
  6
Continuous
 62
   120
370
     5
100
AcDbLine
 10
-1136.792410444473
 20
-509.5145617997424
 30
0.0
 11
-1196.792410444473
 21
-569.5145617997424
 31
0.0
  0
LINE
  5
386
330
1F
100
AcDbEntity
  8
0-C_ハッチ
  6
Continuous
 62
   120
370
     5
100
AcDbLine
 10
-1179.21881731567
 20
-509.5145617997389
 30
0.0
 11
-1232.180728210789
 21
-562.4764726948576
 31
0.0
  0
LINE
  5
387
330
1F
100
AcDbEntity
  8
0-C_ハッチ
  6
Continuous
 62
   120
370
     5
100
AcDbLine
 10
-1221.645224186867
 20
-509.5145617997355
 30
0.0
 11
-1232.180728210792
 21
-520.050065823661
 31
0.0
  0
MTEXT
  5
388
330
1F
100
AcDbEntity
  8
F-A_文字
  6
Continuous
 62
     7
370
     0
100
AcDbMText
 10
5302.014831676345
 20
-4406.890226641889
 30
0.0
 40
68.58
 41
45.0
 46
0.0
 71
     7
 72
     1
  1
{\fＭＳ ゴシック|b0|i0|c128|p49;,}
 73
     1
 44
1.0
  0
MTEXT
  5
389
330
1F
100
AcDbEntity
  8
F-A_文字
  6
Continuous
 62
     7
370
     0
100
AcDbMText
 10
5035.756142749648
 20
-4405.426750060315
 30
0.0
 40
74.295
 41
97.5
 46
0.0
 71
     7
 72
     1
  1
{\fＭＳ ゴシック|b0|i0|c128|p49;$y}
 73
     1
 44
1.0
  0
MTEXT
  5
38A
330
1F
100
AcDbEntity
  8
F-A_文字
  6
Continuous
 62
     7
370
     0
100
AcDbMText
 10
5190.492863788469
 20
-4405.426750060315
 30
0.0
 40
74.295
 41
97.5
 46
0.0
 71
     7
 72
     1
  1
{\fＭＳ ゴシック|b0|i0|c128|p49;$m}
 73
     1
 44
1.0
  0
MTEXT
  5
38B
330
1F
100
AcDbEntity
  8
F-A_文字
  6
Continuous
 62
     7
370
     0
100
AcDbMText
 10
5345.229596271377
 20
-4405.426750060315
 30
0.0
 40
74.295
 41
97.5
 46
0.0
 71
     7
 72
     1
  1
{\fＭＳ ゴシック|b0|i0|c128|p49;$d}
 73
     1
 44
1.0
  0
MTEXT
  5
38C
330
1F
100
AcDbEntity
  8
F-A_文字
  6
Continuous
 62
     7
370
     0
100
AcDbMText
 10
5499.966328754286
 20
-4405.426750060315
 30
0.0
 40
74.295
 41
195.0
 46
0.0
 71
     7
 72
     1
  1
{\fＭＳ ゴシック|b0|i0|c128|p49;印刷}
 73
     1
 44
1.0
  0
MTEXT
  5
38D
330
1F
100
AcDbEntity
  8
F-A_文字
  6
Continuous
 62
     7
370
     0
100
AcDbMText
 10
5143.096024646618
 20
-4409.678276339764
 30
0.0
 40
68.58
 41
45.0
 46
0.0
 71
     7
 72
     1
  1
{\fＭＳ ゴシック|b0|i0|c128|p49;,}
 73
     1
 44
1.0
  0
MTEXT
  5
38E
330
1F
100
AcDbEntity
  8
F-A_文字
  6
Continuous
 62
     7
370
     0
100
AcDbMText
 10
5720.222191943986
 20
-4405.496201792951
 30
0.0
 40
68.58
 41
90.0
 46
0.0
 71
     7
 72
     1
  1
{\fＭＳ ゴシック|b0|i0|c128|p49;）}
 73
     1
 44
1.0
  0
MTEXT
  5
38F
330
1F
100
AcDbEntity
  8
F-A_文字
  6
Continuous
 62
     7
370
     0
100
AcDbMText
 10
4895.852255087273
 20
-4409.678276339764
 30
0.0
 40
68.58
 41
90.0
 46
0.0
 71
     7
 72
     1
  1
{\fＭＳ ゴシック|b0|i0|c128|p49;（}
 73
     1
 44
1.0
  0
LINE
  5
390
330
1F
100
AcDbEntity
  8
F-0_補助線
  6
JWW_HOJO
 62
     7
370
     9
100
AcDbLine
 10
961.8184684345701
 20
-3885.654948247414
 30
0.0
 11
961.8184684345701
 21
-4285.654953402411
 31
0.0
  0
LINE
  5
391
330
1F
100
AcDbEntity
  8
F-0_補助線
  6
JWW_HOJO
 62
     7
370
     9
100
AcDbLine
 10
461.8187983543334
 20
-3885.654948247414
 30
0.0
 11
461.8187983543334
 21
-4285.654953402411
 31
0.0
  0
LINE
  5
392
330
1F
100
AcDbEntity
  8
F-1_枠
  6
Continuous
 62
   200
370
    20
100
AcDbLine
 10
5811.817643635161
 20
-4295.654947731915
 30
0.0
 11
-5888.180871725905
 21
-4295.654947731915
 31
0.0
  0
LINE
  5
393
330
1F
100
AcDbEntity
  8
F-1_枠
  6
Continuous
 62
   200
370
    20
100
AcDbLine
 10
5811.817643635161
 20
-4290.654938968421
 30
0.0
 11
-5888.180871725905
 21
-4290.654938968421
 31
0.0
  0
LINE
  5
394
330
1F
100
AcDbEntity
  8
F-1_枠
  6
Continuous
 62
   200
370
    20
100
AcDbLine
 10
5811.817643635161
 20
-4285.654953402411
 30
0.0
 11
-5888.180871725905
 21
-4285.654953402411
 31
0.0
  0
LINE
  5
395
330
1F
100
AcDbEntity
  8
F-1_枠
  6
Continuous
 62
   200
370
    20
100
AcDbLine
 10
4301.818105522831
 20
-3885.654948247414
 30
0.0
 11
4301.818105522831
 21
-4285.654953402411
 31
0.0
  0
LINE
  5
396
330
1F
100
AcDbEntity
  8
F-1_枠
  6
Continuous
 62
   200
370
    20
100
AcDbLine
 10
2801.817610643185
 20
-3885.654948247414
 30
0.0
 11
2801.817610643185
 21
-4285.654953402411
 31
0.0
  0
LINE
  5
397
330
1F
100
AcDbEntity
  8
F-1_枠
  6
Continuous
 62
   200
370
    20
100
AcDbLine
 10
-38.18124288563695
 20
-3885.654948247414
 30
0.0
 11
-38.18124288563695
 21
-4285.654953402411
 31
0.0
  0
LINE
  5
398
330
1F
100
AcDbEntity
  8
F-1_枠
  6
Continuous
 62
   200
370
    20
100
AcDbLine
 10
-38.18124288563695
 20
-4085.654881232463
 30
0.0
 11
5801.817858083008
 21
-4085.660309443571
 31
0.0
  0
LINE
  5
399
330
1F
100
AcDbEntity
  8
F-0_補助線
  6
JWW_HOJO
 62
     7
370
     9
100
AcDbLine
 10
-5878.181109371233
 20
-4085.654881232807
 30
0.0
 11
-38.18124288563695
 21
-4085.654881232807
 31
0.0
  0
LINE
  5
39A
330
1F
100
AcDbEntity
  8
F-0_補助線
  6
JWW_HOJO
 62
     7
370
     9
100
AcDbLine
 10
-5878.181109371233
 20
-3995.654881232807
 30
0.0
 11
-38.18124288563695
 21
-3995.654881232807
 31
0.0
  0
LINE
  5
39B
330
1F
100
AcDbEntity
  8
F-0_補助線
  6
JWW_HOJO
 62
     7
370
     9
100
AcDbLine
 10
-5878.181109371233
 20
-4175.654881232807
 30
0.0
 11
-38.18124288563695
 21
-4175.654881232807
 31
0.0
  0
LINE
  5
39C
330
1F
100
AcDbEntity
  8
F-0_補助線
  6
JWW_HOJO
 62
     7
370
     9
100
AcDbLine
 10
-38.18137766126483
 20
-4230.6546849324
 30
0.0
 11
5801.817723307378
 21
-4230.660113143508
 31
0.0
  0
LINE
  5
39D
330
1F
100
AcDbEntity
  8
F-0_補助線
  6
JWW_HOJO
 62
     7
370
     9
100
AcDbLine
 10
-38.18129400731323
 20
-4140.654684932439
 30
0.0
 11
5801.81780696133
 21
-4140.660113143547
 31
0.0
  0
LINE
  5
39E
330
1F
100
AcDbEntity
  8
F-0_補助線
  6
JWW_HOJO
 62
     7
370
     9
100
AcDbLine
 10
-38.18119176359318
 20
-4030.654682372487
 30
0.0
 11
5801.81790920505
 21
-4030.660110583595
 31
0.0
  0
LINE
  5
39F
330
1F
100
AcDbEntity
  8
F-0_補助線
  6
JWW_HOJO
 62
     7
370
     9
100
AcDbLine
 10
-38.18110810964157
 20
-3940.654682372526
 30
0.0
 11
5801.817992859003
 21
-3940.660110583634
 31
0.0
  0
LINE
  5
3A0
330
1F
100
AcDbEntity
  8
F-0_補助線
  6
JWW_HOJO
 62
     7
370
     9
100
AcDbLine
 10
2891.817610643185
 20
-3885.654948247414
 30
0.0
 11
2891.817610643185
 21
-4285.654953402411
 31
0.0
  0
LINE
  5
3A1
330
1F
100
AcDbEntity
  8
F-0_補助線
  6
JWW_HOJO
 62
     7
370
     9
100
AcDbLine
 10
51.81875711436305
 20
-3885.654948247414
 30
0.0
 11
51.81875711436305
 21
-4285.654953402411
 31
0.0
  0
LINE
  5
3A2
330
1F
100
AcDbEntity
  8
F-0_補助線
  6
JWW_HOJO
 62
     7
370
     9
100
AcDbLine
 10
4391.818105522831
 20
-3885.654948247414
 30
0.0
 11
4391.818105522831
 21
-4285.654953402411
 31
0.0
  0
MTEXT
  5
3A3
330
1F
100
AcDbEntity
  8
F-A_文字
  6
Continuous
 62
     7
370
     0
100
AcDbMText
 10
4391.818105522831
 20
-3977.79880000517
 30
0.0
 40
45.72
 41
240.0
 46
0.0
 71
     7
 72
     1
  1
{\fＭＳ ゴシック|b0|i0|c128|p49;ＤＡＴＥ}
 73
     1
 44
1.0
  0
MTEXT
  5
3A4
330
1F
100
AcDbEntity
  8
F-A_文字
  6
Continuous
 62
     7
370
     0
100
AcDbMText
 10
4391.818105522831
 20
-4177.798802565257
 30
0.0
 40
45.72
 41
180.0
 46
0.0
 71
     7
 72
     1
  1
{\fＭＳ ゴシック|b0|i0|c128|p49;ＮＯ．}
 73
     1
 44
1.0
  0
MTEXT
  5
3A5
330
1F
100
AcDbEntity
  8
F-A_文字
  6
Continuous
 62
     7
370
     0
100
AcDbMText
 10
2891.817610643185
 20
-3977.79740577219
 30
0.0
 40
45.72
 41
300.0
 46
0.0
 71
     7
 72
     1
  1
{\fＭＳ ゴシック|b0|i0|c128|p49;ＳＣＡＬＥ}
 73
     1
 44
1.0
  0
MTEXT
  5
3A6
330
1F
100
AcDbEntity
  8
F-A_文字
  6
Continuous
 62
     7
370
     0
100
AcDbMText
 10
2891.817610643185
 20
-4177.797408332277
 30
0.0
 40
45.72
 41
240.0
 46
0.0
 71
     7
 72
     1
  1
{\fＭＳ ゴシック|b0|i0|c128|p49;ＦＩＬＥ}
 73
     1
 44
1.0
  0
MTEXT
  5
3A7
330
1F
100
AcDbEntity
  8
F-A_文字
  6
Continuous
 62
     7
370
     0
100
AcDbMText
 10
51.81875711436305
 20
-3977.794766026352
 30
0.0
 40
45.72
 41
180.0
 46
0.0
 71
     7
 72
     1
  1
{\fＭＳ ゴシック|b0|i0|c128|p49;図面名}
 73
     1
 44
1.0
  0
MTEXT
  5
3A8
330
1F
100
AcDbEntity
  8
F-A_文字
  6
Continuous
 62
     7
370
     0
100
AcDbMText
 10
1556.817610643185
 20
-4254.936699678345
 30
0.0
 40
101.44125
 41
1065.0
 46
0.0
 71
     7
 72
     1
  1
{\fＭＳ ゴシック|b0|i0|c128|p49;ウッドワン・・・}
 73
     1
 44
1.0
  0
MTEXT
  5
3A9
330
1F
100
AcDbEntity
  8
F-A_文字
  6
Continuous
 62
     7
370
     0
100
AcDbMText
 10
1346.817610643185
 20
-4186.795614420565
 30
0.0
 40
45.72
 41
120.0
 46
0.0
 71
     7
 72
     1
  1
{\fＭＳ ゴシック|b0|i0|c128|p49;株式}
 73
     1
 44
1.0
  0
MTEXT
  5
3AA
330
1F
100
AcDbEntity
  8
F-A_文字
  6
Continuous
 62
     7
370
     0
100
AcDbMText
 10
1346.817610643185
 20
-4258.795614420604
 30
0.0
 40
45.72
 41
120.0
 46
0.0
 71
     7
 72
     1
  1
{\fＭＳ ゴシック|b0|i0|c128|p49;会社}
 73
     1
 44
1.0
  0
LINE
  5
3AB
330
1F
100
AcDbEntity
  8
F-1_枠
  6
Continuous
 62
   200
370
    20
100
AcDbLine
 10
5811.817643635161
 20
-3885.654948247414
 30
0.0
 11
-5888.180871725905
 21
-3885.654948247414
 31
0.0
  0
LINE
  5
3AC
330
1F
100
AcDbEntity
  8
F-1_枠
  6
Continuous
 62
   200
370
    20
100
AcDbLine
 10
5811.817643635161
 20
-3880.654962681404
 30
0.0
 11
-5888.180871725905
 21
-3880.654962681404
 31
0.0
  0
LINE
  5
3AD
330
1F
100
AcDbEntity
  8
F-0_補助線
  6
JWW_HOJO
 62
     7
370
     9
100
AcDbLine
 10
-5135.728495918564
 20
-3885.654948247415
 30
0.0
 11
-5135.728495918564
 21
-4295.655110114299
 31
0.0
  0
LINE
  5
3AE
330
1F
100
AcDbEntity
  8
F-0_補助線
  6
JWW_HOJO
 62
     7
370
     9
100
AcDbLine
 10
-98.18124288563695
 20
-3885.654948247414
 30
0.0
 11
-98.18124288563695
 21
-4285.654953402411
 31
0.0
  0
MTEXT
  5
3AF
330
1F
100
AcDbEntity
  8
F-A_文字
  6
Continuous
 62
     7
370
     9
100
AcDbMText
 10
5048.067914415104
 20
-4238.511957854401
 30
0.0
 40
74.295
 41
97.5
 46
0.0
 71
     7
 72
     1
  1
{\fＭＳ ゴシック|b0|i0|c128|p49;01}
 73
     1
 44
1.0
  0
MTEXT
  5
3B0
330
1F
100
AcDbEntity
  8
F-0_補助線
  6
Continuous
 62
     7
370
     0
100
AcDbMText
 10
460.9540201025624
 20
-4036.230051064114
 30
0.0
 40
79.19357142857145
 41
1455.0
 46
0.0
 71
     7
 72
     1
  1
{\fＭＳ ゴシック|b0|i0|c128|p49;大壁和風造作材　建具納まり図}
 73
     1
 44
1.0
  0
MTEXT
  5
3B1
330
1F
100
AcDbEntity
  8
F-A_文字
  6
Continuous
 62
     7
370
     0
100
AcDbMText
 10
3521.817858083008
 20
-4037.558061061725
 30
0.0
 40
76.19999999999999
 41
150.0
 46
0.0
 71
     7
 72
     1
  1
{\fＭＳ ゴシック|b0|i0|c128|p49;1/5}
 73
     1
 44
1.0
  0
MTEXT
  5
3B2
330
1F
100
AcDbEntity
  8
0-B_寸法
  6
Continuous
 62
     7
370
     0
100
AcDbMText
 10
-2225.180767801176
 20
-2017.474303010661
 30
0.0
 40
78.58125000000005
 41
412.5000000000002
 46
0.0
 71
     7
 72
     1
  1
{\fＭＳ ゴシック|b0|i0|c128|p49;DH=1,995}
 11
6.123031769111886E-17
 21
1.0
 31
0.0
 73
     1
 44
1.0
  0
MTEXT
  5
3B3
330
1F
100
AcDbEntity
  8
0-B_寸法
  6
Continuous
 62
     7
370
     0
100
AcDbMText
 10
166.9870689809177
 20
-2069.831428010661
 30
0.0
 40
78.86700000000003
 41
517.5000000000002
 46
0.0
 71
     7
 72
     1
  1
{\fＭＳ ゴシック|b0|i0|c128|p49;枠内=2,005}
 11
6.123031769111886E-17
 21
1.0
 31
0.0
 73
     1
 44
1.0
  0
MTEXT
  5
3B4
330
1F
100
AcDbEntity
  8
0-B_寸法
  6
Continuous
 62
     7
370
     0
100
AcDbMText
 10
342.8182028491615
 20
-2069.831428010661
 30
0.0
 40
78.86700000000003
 41
517.5000000000002
 46
0.0
 71
     7
 72
     1
  1
{\fＭＳ ゴシック|b0|i0|c128|p49;枠外=2,065}
 11
6.123031769111886E-17
 21
1.0
 31
0.0
 73
     1
 44
1.0
  0
MTEXT
  5
3B5
330
1F
100
AcDbEntity
  8
0-A_文字
  6
Continuous
 62
     7
370
     9
100
AcDbMText
 10
4131.683077586781
 20
2001.787605513356
 30
0.0
 40
45.71999999999998
 41
720.0
 46
0.0
 71
     7
 72
     1
  1
{\fＭＳ ゴシック|b0|i0|c128|p49;※Ｋ型はピノアースに対応}
 73
     1
 44
1.0
  0
LINE
  5
3B6
330
1F
100
AcDbEntity
  8
F-0_補助線
  6
JWW_HOJO
 62
     7
370
     9
100
AcDbLine
 10
4841.818105522831
 20
-3885.654948247414
 30
0.0
 11
4841.818105522831
 21
-4285.654953402411
 31
0.0
  0
MTEXT
  5
3B7
330
1F
100
AcDbEntity
  8
F-A_文字
  6
Continuous
 62
     7
370
     0
100
AcDbMText
 10
-5135.728495918564
 20
-4046.089496617423
 30
0.0
 40
79.13076923076923
 41
1350.0
 46
0.0
 71
     7
 72
     1
  1
{\fＭＳ ゴシック|b0|i0|c128|p49;大壁部材　ニュージーパイン}
 73
     1
 44
1.0
  0
MTEXT
  5
3B8
330
1F
100
AcDbEntity
  8
0-0_補助線
  6
Continuous
 62
     7
370
     0
100
AcDbMText
 10
-5135.728495918564
 20
-4225.727110962537
 30
0.0
 40
79.8555405405405
 41
3877.5
 46
0.0
 71
     7
 72
     1
  1
{\fＭＳ ゴシック|b0|i0|c128|p49;和ー洋開き戸枠セット（洋側開き）ウッドワン専用建具用　枠外H2,065　枠外W747}
 73
     1
 44
1.0
  0
LINE
  5
3B9
330
1F
100
AcDbEntity
  8
0-C_ハッチ
  6
Continuous
 62
   120
370
     5
100
AcDbLine
 10
-4146.511417851218
 20
2199.546860599975
 30
0.0
 11
-3969.511417851218
 21
2376.546860599974
 31
0.0
  0
LINE
  5
3BA
330
1F
100
AcDbEntity
  8
0-1_通り芯
  6
JWW_CENTER1
 62
   120
370
     5
100
AcDbLine
 10
-917.1800353793013
 20
-3071.515343709564
 30
0.0
 11
-917.1800353793013
 21
-533.5146409804674
 31
0.0
  0
LINE
  5
3BB
330
1F
100
AcDbEntity
  8
0-1_通り芯
  6
JWW_CENTER1
 62
   120
370
     5
100
AcDbLine
 10
-1028.181242885637
 20
324.2349103286545
 30
0.0
 11
-1028.181242885637
 21
-3467.076751675147
 31
0.0
  0
LINE
  5
3BC
330
1F
100
AcDbEntity
  8
0-6_扉
  6
Continuous
 62
   200
370
    20
100
AcDbLine
 10
-1025.180094764859
 20
-533.5146409804674
 30
0.0
 11
-1025.180094764859
 21
-736.9452672294586
 31
0.0
  0
LINE
  5
3BD
330
1F
100
AcDbEntity
  8
0-6_扉
  6
Continuous
 62
   200
370
    20
100
AcDbLine
 10
-1025.180094764859
 20
-826.9054562588332
 30
0.0
 11
-1025.180094764859
 21
-1775.514928010661
 31
0.0
  0
LINE
  5
3BE
330
1F
100
AcDbEntity
  8
0-6_扉
  6
Continuous
 62
    92
370
    13
100
AcDbLine
 10
-1043.18009476486
 20
-533.5146409804674
 30
0.0
 11
-1043.18009476486
 21
-736.9452672294586
 31
0.0
  0
LINE
  5
3BF
330
1F
100
AcDbEntity
  8
0-6_扉
  6
Continuous
 62
    92
370
    13
100
AcDbLine
 10
-1043.18009476486
 20
-826.9054562588332
 30
0.0
 11
-1043.18009476486
 21
-1775.514928010661
 31
0.0
  0
LWPOLYLINE
  5
3C0
330
1F
100
AcDbEntity
  8
0-B_寸法
  6
Continuous
 62
     7
370
     9
100
AcDbPolyline
 90
        4
 70
     1
 43
3.0
 10
-1023.680094764859
 20
-1061.760853501581
 42
0.4142135623731
 10
-1025.180094764859
 20
-1060.260853501582
 42
0.4142135623731
 10
-1026.680094764859
 20
-1061.760853501581
 42
0.4142135623731
 10
-1025.180094764859
 20
-1063.260853501581
 42
0.4142135623731
  0
LWPOLYLINE
  5
3C1
330
1F
100
AcDbEntity
  8
0-B_寸法
  6
Continuous
 62
     7
370
     9
100
AcDbPolyline
 90
        4
 70
     1
 43
3.0
 10
-807.6799759937435
 20
-1061.760853501581
 42
0.4142135623731
 10
-809.1799759937435
 20
-1060.260853501582
 42
0.4142135623731
 10
-810.6799759937435
 20
-1061.760853501581
 42
0.4142135623731
 10
-809.1799759937435
 20
-1063.260853501581
 42
0.4142135623731
  0
MTEXT
  5
3C2
330
1F
100
AcDbEntity
  8
0-B_寸法
  6
Continuous
 62
     7
370
     0
100
AcDbMText
 10
-974.1803916926453
 20
-1066.61331391121
 30
0.0
 40
74.295
 41
97.5
 46
0.0
 71
     7
 72
     1
  1
{\fＭＳ ゴシック|b0|i0|c128|p49;36}
 73
     1
 44
1.0
  0
LINE
  5
3C3
330
1F
100
AcDbEntity
  8
0-B_寸法
  6
Continuous
 62
   120
370
     5
100
AcDbLine
 10
-1025.180094764859
 20
-1061.760853501581
 30
0.0
 11
-809.1799759937435
 21
-1061.760853501581
 31
0.0
  0
LINE
  5
3C4
330
1F
100
AcDbEntity
  8
0-B_寸法
  6
Continuous
 62
   120
370
     5
100
AcDbLine
 10
-1028.181242885637
 20
-1301.760853501581
 30
0.0
 11
-917.1800353793013
 21
-1301.760853501581
 31
0.0
  0
LWPOLYLINE
  5
3C5
330
1F
100
AcDbEntity
  8
0-B_寸法
  6
Continuous
 62
     7
370
     9
100
AcDbPolyline
 90
        4
 70
     1
 43
3.0
 10
-1026.681242885637
 20
-1301.760853501581
 42
0.4142135623731
 10
-1028.181242885637
 20
-1300.260853501582
 42
0.4142135623731
 10
-1029.681242885637
 20
-1301.760853501581
 42
0.4142135623731
 10
-1028.181242885637
 20
-1303.260853501581
 42
0.4142135623731
  0
LWPOLYLINE
  5
3C6
330
1F
100
AcDbEntity
  8
0-B_寸法
  6
Continuous
 62
     7
370
     9
100
AcDbPolyline
 90
        4
 70
     1
 43
3.0
 10
-915.6800353793013
 20
-1301.760853501581
 42
0.4142135623731
 10
-917.1800353793013
 20
-1300.260853501582
 42
0.4142135623731
 10
-918.6800353793013
 20
-1301.760853501581
 42
0.4142135623731
 10
-917.1800353793013
 20
-1303.260853501581
 42
0.4142135623731
  0
MTEXT
  5
3C7
330
1F
100
AcDbEntity
  8
0-B_寸法
  6
Continuous
 62
     7
370
   211
100
AcDbMText
 10
-1073.930639132469
 20
-1293.184603501581
 30
0.0
 40
77.15249999999999
 41
202.5
 46
0.0
 71
     7
 72
     1
  1
{\fＭＳ ゴシック|b0|i0|c128|p49;18.5}
 73
     1
 44
1.0
  0
LINE
  5
3C8
330
1F
100
AcDbEntity
  8
0-A_文字
  6
Continuous
 62
     7
370
     9
100
AcDbLine
 10
-3876.906579051841
 20
2125.876490995068
 30
0.0
 11
-3816.906579051841
 21
2125.876490995068
 31
0.0
  0
LWPOLYLINE
  5
3C9
330
1F
100
AcDbEntity
  8
0-A_文字
  6
Continuous
 62
     7
370
     9
100
AcDbPolyline
 90
        4
 70
     1
 43
3.0
 10
-3958.40177232824
 20
2270.427550668237
 42
0.4142135623731
 10
-3959.90177232824
 20
2271.927550668237
 42
0.4142135623731
 10
-3961.40177232824
 20
2270.427550668237
 42
0.4142135623731
 10
-3959.90177232824
 20
2268.927550668237
 42
0.4142135623731
  0
LINE
  5
3CA
330
1F
100
AcDbEntity
  8
0-A_文字
  6
Continuous
 62
     7
370
     9
100
AcDbLine
 10
-3960.247822281403
 20
2270.227758634625
 30
0.0
 11
-3876.906579051841
 21
2125.876490995068
 31
0.0
  0
MTEXT
  5
3CB
330
1F
100
AcDbEntity
  8
0-A_文字
  6
Continuous
 62
     7
370
     9
100
AcDbMText
 10
-3816.906579051841
 20
2073.976490995068
 30
0.0
 40
76.19999999999999
 41
300.0
 46
0.0
 71
     7
 72
     1
  1
{\fＭＳ ゴシック|b0|i0|c128|p49;戸当り}
 73
     1
 44
1.0
  0
LINE
  5
3CC
330
1F
100
AcDbEntity
  8
0-4_枠
  6
Continuous
 62
    92
370
    13
100
AcDbLine
 10
-3906.511417851217
 20
2431.116319809838
 30
0.0
 11
-3966.511417851217
 21
2431.116319809838
 31
0.0
  0
LINE
  5
3CD
330
1F
100
AcDbEntity
  8
0-4_枠
  6
Continuous
 62
    92
370
    13
100
AcDbLine
 10
-3966.511417851218
 20
2251.116319809838
 30
0.0
 11
-3906.511417851218
 21
2251.116319809838
 31
0.0
  0
ARC
  5
3CE
330
1F
100
AcDbEntity
  8
0-4_枠
  6
Continuous
 62
    92
370
    13
100
AcDbCircle
 10
-3936.511417851217
 20
2405.439512372523
 30
0.0
 40
39.4879531018372
100
AcDbArc
 50
40.56000641728792
 51
139.4399935827121
  0
LINE
  5
3CF
330
1F
100
AcDbEntity
  8
0-C_ハッチ
  6
Continuous
 62
   120
370
     5
100
AcDbLine
 10
-3966.511417851218
 20
2289.120295367288
 30
0.0
 11
-3906.511417851217
 21
2349.120295367289
 31
0.0
  0
LINE
  5
3D0
330
1F
100
AcDbEntity
  8
0-C_ハッチ
  6
Continuous
 62
   120
370
     5
100
AcDbLine
 10
-3962.088986537468
 20
2251.116319809838
 30
0.0
 11
-3906.511417851218
 21
2306.693888496088
 31
0.0
  0
LINE
  5
3D1
330
1F
100
AcDbEntity
  8
0-4_枠
  6
Continuous
 62
    92
370
    13
100
AcDbLine
 10
-1055.571839356706
 20
2431.116319809838
 30
0.0
 11
-1115.571839356706
 21
2431.116319809838
 31
0.0
  0
LINE
  5
3D2
330
1F
100
AcDbEntity
  8
0-4_枠
  6
Continuous
 62
    92
370
    13
100
AcDbLine
 10
-1115.571839356706
 20
2431.116319809838
 30
0.0
 11
-1115.571839356707
 21
2251.116319809838
 31
0.0
  0
LINE
  5
3D3
330
1F
100
AcDbEntity
  8
0-4_枠
  6
Continuous
 62
    92
370
    13
100
AcDbLine
 10
-1115.571839356707
 20
2251.116319809838
 30
0.0
 11
-1055.571839356707
 21
2251.116319809838
 31
0.0
  0
ARC
  5
3D4
330
1F
100
AcDbEntity
  8
0-4_枠
  6
Continuous
 62
    92
370
    13
100
AcDbCircle
 10
-1085.571839356706
 20
2405.439512372523
 30
0.0
 40
39.4879531018372
100
AcDbArc
 50
40.56000641728792
 51
139.4399935827121
  0
LINE
  5
3D5
330
1F
100
AcDbEntity
  8
0-C_ハッチ
  6
Continuous
 62
   120
370
     5
100
AcDbLine
 10
-1115.572037308583
 20
2297.490415540014
 30
0.0
 11
-1055.571839356707
 21
2357.49061349189
 31
0.0
  0
LINE
  5
3D6
330
1F
100
AcDbEntity
  8
0-C_ハッチ
  6
Continuous
 62
   120
370
     5
100
AcDbLine
 10
-1115.572037308578
 20
2255.064008668818
 30
0.0
 11
-1055.571839356707
 21
2315.064206620689
 31
0.0
  0
LINE
  5
3D7
330
1F
100
AcDbEntity
  8
0-C_ハッチ
  6
Continuous
 62
   120
370
     5
100
AcDbLine
 10
-1077.093319296357
 20
2251.116319809838
 30
0.0
 11
-1055.571839356727
 21
2272.63779974947
 31
0.0
  0
LINE
  5
3D8
330
1F
100
AcDbEntity
  8
0-C_ハッチ
  6
Continuous
 62
   120
370
     5
100
AcDbLine
 10
-1115.572037308567
 20
2339.916822411173
 30
0.0
 11
-1055.571839356706
 21
2399.917020363034
 31
0.0
  0
LINE
  5
3D9
330
1F
100
AcDbEntity
  8
0-C_ハッチ
  6
Continuous
 62
   120
370
     5
100
AcDbLine
 10
-1115.572037308565
 20
2382.343229282377
 30
0.0
 11
-1066.798946781103
 21
2431.116319809838
 31
0.0
  0
LINE
  5
3DA
330
1F
100
AcDbEntity
  8
0-C_ハッチ
  6
Continuous
 62
   120
370
     5
100
AcDbLine
 10
-1115.572037308569
 20
2424.769636153571
 30
0.0
 11
-1109.225353652303
 21
2431.116319809838
 31
0.0
  0
LINE
  5
3DB
330
1F
100
AcDbEntity
  8
0-C_ハッチ
  6
Continuous
 62
   120
370
     5
100
AcDbLine
 10
-3966.511417851218
 20
2331.546702238487
 30
0.0
 11
-3906.511417851217
 21
2391.546702238488
 31
0.0
  0
LINE
  5
3DC
330
1F
100
AcDbEntity
  8
0-C_ハッチ
  6
Continuous
 62
   120
370
     5
100
AcDbLine
 10
-3966.511417851218
 20
2416.399515980887
 30
0.0
 11
-3951.794614022267
 21
2431.116319809838
 31
0.0
  0
LINE
  5
3DD
330
1F
100
AcDbEntity
  8
0-C_ハッチ
  6
Continuous
 62
   120
370
     5
100
AcDbLine
 10
-3966.511417851218
 20
2373.973109109687
 30
0.0
 11
-3909.368207151067
 21
2431.116319809838
 31
0.0
  0
LINE
  5
3DE
330
1F
100
AcDbEntity
  8
0-6_扉
  6
Continuous
 62
    92
370
    13
100
AcDbLine
 10
-3954.511378260846
 20
2446.116953255783
 30
0.0
 11
-3954.511378260846
 21
2464.116953255784
 31
0.0
  0
LINE
  5
3DF
330
1F
100
AcDbEntity
  8
0-6_扉
  6
Continuous
 62
    92
370
    13
100
AcDbLine
 10
-1079.571918537451
 20
2446.116953255783
 30
0.0
 11
-1079.571918537451
 21
2464.116953255784
 31
0.0
  0
LINE
  5
3E0
330
1F
100
AcDbEntity
  8
0-6_扉
  6
Continuous
 62
   200
370
    20
100
AcDbLine
 10
-3954.511378260846
 20
2464.116953255784
 30
0.0
 11
-3954.511378260846
 21
2680.117072026897
 31
0.0
  0
LINE
  5
3E1
330
1F
100
AcDbEntity
  8
0-6_扉
  6
Continuous
 62
   200
370
    20
100
AcDbLine
 10
-1079.571918537451
 20
2464.116953255784
 30
0.0
 11
-1079.571918537451
 21
2680.117072026897
 31
0.0
  0
LINE
  5
3E2
330
1F
100
AcDbEntity
  8
0-6_扉
  6
Continuous
 62
   200
370
    20
100
AcDbLine
 10
-2541.041925531749
 20
2680.117072026897
 30
0.0
 11
-3954.511378260846
 21
2680.117072026897
 31
0.0
  0
LINE
  5
3E3
330
1F
100
AcDbEntity
  8
0-6_扉
  6
Continuous
 62
   200
370
    20
100
AcDbLine
 10
-2541.041925531749
 20
2464.116953255784
 30
0.0
 11
-3954.511378260846
 21
2464.116953255784
 31
0.0
  0
LINE
  5
3E4
330
1F
100
AcDbEntity
  8
0-6_扉
  6
Continuous
 62
   200
370
    20
100
AcDbLine
 10
-1079.571918537451
 20
2680.117072026897
 30
0.0
 11
-2481.041925531749
 21
2680.117072026897
 31
0.0
  0
LINE
  5
3E5
330
1F
100
AcDbEntity
  8
0-6_扉
  6
Continuous
 62
   200
370
    20
100
AcDbLine
 10
-1079.571918537451
 20
2464.116953255784
 30
0.0
 11
-2481.041925531749
 21
2464.116953255784
 31
0.0
  0
LINE
  5
3E6
330
1F
100
AcDbEntity
  8
0-6_扉
  6
Continuous
 62
    92
370
    13
100
AcDbLine
 10
-1223.571918537451
 20
2446.116953255783
 30
0.0
 11
-1223.571918537451
 21
2464.116953255784
 31
0.0
  0
LINE
  5
3E7
330
1F
100
AcDbEntity
  8
0-6_扉
  6
Continuous
 62
    92
370
    13
100
AcDbLine
 10
-3810.511378260846
 20
2446.116953255783
 30
0.0
 11
-3810.511378260846
 21
2464.116953255784
 31
0.0
  0
LINE
  5
3E8
330
1F
100
AcDbEntity
  8
0-6_扉
  6
Continuous
 62
    92
370
    13
100
AcDbLine
 10
-3810.511378260846
 20
2446.116953255783
 30
0.0
 11
-3954.511378260846
 21
2446.116953255783
 31
0.0
  0
LINE
  5
3E9
330
1F
100
AcDbEntity
  8
0-6_扉
  6
Continuous
 62
    92
370
    13
100
AcDbLine
 10
-1079.571918537451
 20
2446.116953255783
 30
0.0
 11
-1223.571918537451
 21
2446.116953255783
 31
0.0
  0
LINE
  5
3EA
330
1F
100
AcDbEntity
  8
0-1_通り芯
  6
JWW_CENTER1
 62
   120
370
     5
100
AcDbLine
 10
-1079.571918537451
 20
2572.117012641341
 30
0.0
 11
-3954.511378260846
 21
2572.117012641341
 31
0.0
  0
LINE
  5
3EB
330
1F
100
AcDbEntity
  8
0-B_寸法
  6
Continuous
 62
   120
370
     5
100
AcDbLine
 10
-3313.621056787029
 20
2680.117072026897
 30
0.0
 11
-3313.621056787029
 21
2464.11814096693
 31
0.0
  0
LWPOLYLINE
  5
3EC
330
1F
100
AcDbEntity
  8
0-B_寸法
  6
Continuous
 62
     7
370
     9
100
AcDbPolyline
 90
        4
 70
     1
 43
3.0
 10
-3312.121056787029
 20
2680.117072026897
 42
0.4142135623731
 10
-3313.621056787029
 20
2681.617072026897
 42
0.4142135623731
 10
-3315.121056787029
 20
2680.117072026897
 42
0.4142135623731
 10
-3313.621056787029
 20
2678.617072026898
 42
0.4142135623731
  0
LWPOLYLINE
  5
3ED
330
1F
100
AcDbEntity
  8
0-B_寸法
  6
Continuous
 62
     7
370
     9
100
AcDbPolyline
 90
        4
 70
     1
 43
3.0
 10
-3312.121056787029
 20
2464.11814096693
 42
0.4142135623731
 10
-3313.621056787029
 20
2465.61814096693
 42
0.4142135623731
 10
-3315.121056787029
 20
2464.11814096693
 42
0.4142135623731
 10
-3313.621056787029
 20
2462.61814096693
 42
0.4142135623731
  0
MTEXT
  5
3EE
330
1F
100
AcDbEntity
  8
0-B_寸法
  6
Continuous
 62
     7
370
     0
100
AcDbMText
 10
-3316.621096377401
 20
2525.265106496915
 30
0.0
 40
74.295
 41
97.5
 46
0.0
 71
     7
 72
     1
  1
{\fＭＳ ゴシック|b0|i0|c128|p49;36}
 11
6.123031769111886E-17
 21
1.0
 31
0.0
 73
     1
 44
1.0
  0
LINE
  5
3EF
330
1F
100
AcDbEntity
  8
0-B_寸法
  6
Continuous
 62
   120
370
     5
100
AcDbLine
 10
-3013.621056787029
 20
2572.117012641341
 30
0.0
 11
-3013.621056787029
 21
2461.116715713555
 31
0.0
  0
LWPOLYLINE
  5
3F0
330
1F
100
AcDbEntity
  8
0-B_寸法
  6
Continuous
 62
     7
370
     9
100
AcDbPolyline
 90
        4
 70
     1
 43
3.0
 10
-3012.121056787029
 20
2572.117012641341
 42
0.4142135623731
 10
-3013.621056787029
 20
2573.61701264134
 42
0.4142135623731
 10
-3015.121056787029
 20
2572.117012641341
 42
0.4142135623731
 10
-3013.621056787029
 20
2570.617012641341
 42
0.4142135623731
  0
LWPOLYLINE
  5
3F1
330
1F
100
AcDbEntity
  8
0-B_寸法
  6
Continuous
 62
     7
370
     9
100
AcDbPolyline
 90
        4
 70
     1
 43
3.0
 10
-3012.121056787029
 20
2461.116715713555
 42
0.4142135623731
 10
-3013.621056787029
 20
2462.616715713555
 42
0.4142135623731
 10
-3015.121056787029
 20
2461.116715713555
 42
0.4142135623731
 10
-3013.621056787029
 20
2459.616715713555
 42
0.4142135623731
  0
MTEXT
  5
3F2
330
1F
100
AcDbEntity
  8
0-B_寸法
  6
Continuous
 62
     7
370
   211
100
AcDbMText
 10
-3028.621056787029
 20
2408.943114177448
 30
0.0
 40
77.15249999999999
 41
202.5
 46
0.0
 71
     7
 72
     1
  1
{\fＭＳ ゴシック|b0|i0|c128|p49;18.5}
 11
6.123031769111886E-17
 21
1.0
 31
0.0
 73
     1
 44
1.0
  0
MTEXT
  5
3F3
330
1F
100
AcDbEntity
  8
0-A_文字
  6
Continuous
 62
     7
370
     9
100
AcDbMText
 10
4131.683077586781
 20
1941.787605513356
 30
0.0
 40
45.71999999999998
 41
660.0
 46
0.0
 71
     7
 72
     1
  1
{\fＭＳ ゴシック|b0|i0|c128|p49;※Ｒ型はドレタスに対応}
 73
     1
 44
1.0
  0
MTEXT
  5
3F4
330
1F
100
AcDbEntity
  8
0-A_文字
  6
Continuous
 62
     7
370
     9
100
AcDbMText
 10
2511.277891428766
 20
2898.217605513357
 30
0.0
 40
68.58
 41
450.0
 46
0.0
 71
     7
 72
     1
  1
{\fＭＳ ゴシック|b0|i0|c128|p49;ＢＣ型・・}
 73
     1
 44
1.0
  0
LINE
  5
3F5
330
1F
100
AcDbEntity
  8
0-A_文字
  6
Continuous
 62
     7
370
     9
100
AcDbLine
 10
1904.827891428766
 20
1543.927605513356
 30
0.0
 11
4760.627891428768
 21
1543.927605513356
 31
0.0
  0
MTEXT
  5
3F6
330
1F
100
AcDbEntity
  8
0-A_文字
  6
Continuous
 62
     7
370
     9
100
AcDbMText
 10
2989.827891428767
 20
1764.234572424217
 30
0.0
 40
76.19999999999987
 41
299.9999999999995
 46
0.0
 71
     7
 72
     1
  1
{\fＭＳ ゴシック|b0|i0|c128|p49;Ｂ型・}
 73
     1
 44
1.0
  0
MTEXT
  5
3F7
330
1F
100
AcDbEntity
  8
0-A_文字
  6
Continuous
 62
     7
370
     9
100
AcDbMText
 10
3639.827891428767
 20
1764.234572424217
 30
0.0
 40
76.19999999999999
 41
300.0
 46
0.0
 71
     7
 72
     1
  1
{\fＭＳ ゴシック|b0|i0|c128|p49;Ｃ型・}
 73
     1
 44
1.0
  0
MTEXT
  5
3F8
330
1F
100
AcDbEntity
  8
0-A_文字
  6
Continuous
 62
     7
370
     9
100
AcDbMText
 10
4289.827891428768
 20
1764.234572424217
 30
0.0
 40
76.19999999999999
 41
300.0
 46
0.0
 71
     7
 72
     1
  1
{\fＭＳ ゴシック|b0|i0|c128|p49;ＫＲ型}
 73
     1
 44
1.0
  0
LINE
  5
3F9
330
1F
100
AcDbEntity
  8
0-A_文字
  6
Continuous
 62
     7
370
     9
100
AcDbLine
 10
1904.827891428766
 20
1903.927605513356
 30
0.0
 11
4760.627891428768
 21
1903.927605513356
 31
0.0
  0
LINE
  5
3FA
330
1F
100
AcDbEntity
  8
0-A_文字
  6
Continuous
 62
     7
370
     9
100
AcDbLine
 10
4760.627891428768
 20
1723.927605513356
 30
0.0
 11
1904.827891428766
 21
1723.927605513356
 31
0.0
  0
MTEXT
  5
3FB
330
1F
100
AcDbEntity
  8
0-A_文字
  6
Continuous
 62
     7
370
     9
100
AcDbMText
 10
4342.327891428768
 20
1209.868138602495
 30
0.0
 40
74.295
 41
195.0
 46
0.0
 71
     7
 72
     1
  1
{\fＭＳ ゴシック|b0|i0|c128|p49;１６}
 73
     1
 44
1.0
  0
MTEXT
  5
3FC
330
1F
100
AcDbEntity
  8
0-A_文字
  6
Continuous
 62
     7
370
     9
100
AcDbMText
 10
3692.327891428767
 20
1209.868138602495
 30
0.0
 40
74.295
 41
195.0
 46
0.0
 71
     7
 72
     1
  1
{\fＭＳ ゴシック|b0|i0|c128|p49;４６}
 73
     1
 44
1.0
  0
MTEXT
  5
3FD
330
1F
100
AcDbEntity
  8
0-A_文字
  6
Continuous
 62
     7
370
     9
100
AcDbMText
 10
3042.327891428768
 20
1209.868138602495
 30
0.0
 40
74.2949999999995
 41
194.9999999999987
 46
0.0
 71
     7
 72
     1
  1
{\fＭＳ ゴシック|b0|i0|c128|p49;３３}
 73
     1
 44
1.0
  0
MTEXT
  5
3FE
330
1F
100
AcDbEntity
  8
0-A_文字
  6
Continuous
 62
     7
370
     9
100
AcDbMText
 10
4342.327891428768
 20
1389.868138602495
 30
0.0
 40
74.295
 41
195.0
 46
0.0
 71
     7
 72
     1
  1
{\fＭＳ ゴシック|b0|i0|c128|p49;２０}
 73
     1
 44
1.0
  0
MTEXT
  5
3FF
330
1F
100
AcDbEntity
  8
0-A_文字
  6
Continuous
 62
     7
370
     9
100
AcDbMText
 10
3692.327891428767
 20
1389.868138602495
 30
0.0
 40
74.295
 41
195.0
 46
0.0
 71
     7
 72
     1
  1
{\fＭＳ ゴシック|b0|i0|c128|p49;５０}
 73
     1
 44
1.0
  0
MTEXT
  5
400
330
1F
100
AcDbEntity
  8
0-A_文字
  6
Continuous
 62
     7
370
     9
100
AcDbMText
 10
3042.327891428768
 20
1389.868138602495
 30
0.0
 40
74.2949999999995
 41
194.9999999999987
 46
0.0
 71
     7
 72
     1
  1
{\fＭＳ ゴシック|b0|i0|c128|p49;３７}
 73
     1
 44
1.0
  0
LINE
  5
401
330
1F
100
AcDbEntity
  8
0-A_文字
  6
Continuous
 62
     7
370
     9
100
AcDbLine
 10
4119.027891428768
 20
1903.927605513356
 30
0.0
 11
4119.027891428768
 21
1174.927605513356
 31
0.0
  0
LINE
  5
402
330
1F
100
AcDbEntity
  8
0-A_文字
  6
Continuous
 62
     7
370
     9
100
AcDbLine
 10
4110.627891428769
 20
1903.927605513356
 30
0.0
 11
4110.627891428769
 21
1174.927605513356
 31
0.0
  0
LINE
  5
403
330
1F
100
AcDbEntity
  8
0-A_文字
  6
Continuous
 62
     7
370
     9
100
AcDbLine
 10
3464.827891428768
 20
1903.927605513356
 30
0.0
 11
3464.827891428768
 21
1174.927605513356
 31
0.0
  0
LINE
  5
404
330
1F
100
AcDbEntity
  8
0-A_文字
  6
Continuous
 62
     7
370
     9
100
AcDbLine
 10
2814.827891428767
 20
1903.927605513356
 30
0.0
 11
2814.827891428767
 21
1174.927605513356
 31
0.0
  0
LINE
  5
405
330
1F
100
AcDbEntity
  8
0-A_文字
  6
Continuous
 62
     7
370
     9
100
AcDbLine
 10
4760.627891428768
 20
1903.927605513356
 30
0.0
 11
4760.627891428768
 21
1174.927605513356
 31
0.0
  0
LINE
  5
406
330
1F
100
AcDbEntity
  8
0-A_文字
  6
Continuous
 62
     7
370
     9
100
AcDbLine
 10
1904.827891428766
 20
1174.927605513356
 30
0.0
 11
4760.627891428768
 21
1174.927605513356
 31
0.0
  0
LINE
  5
407
330
1F
100
AcDbEntity
  8
0-A_文字
  6
Continuous
 62
     7
370
     9
100
AcDbLine
 10
1904.827891428766
 20
1354.927605513356
 30
0.0
 11
4760.627891428768
 21
1354.927605513356
 31
0.0
  0
LINE
  5
408
330
1F
100
AcDbEntity
  8
0-A_文字
  6
Continuous
 62
     7
370
     9
100
AcDbLine
 10
1904.827891428766
 20
1534.927605513356
 30
0.0
 11
4760.627891428768
 21
1534.927605513356
 31
0.0
  0
MTEXT
  5
409
330
1F
100
AcDbEntity
  8
0-A_文字
  6
Continuous
 62
     7
370
     9
100
AcDbMText
 10
3502.727891428768
 20
1583.413060058811
 30
0.0
 40
78.97090909090909
 41
570.0
 46
0.0
 71
     7
 72
     1
  1
{\fＭＳ ゴシック|b0|i0|c128|p49;134～146m/m}
 73
     1
 44
1.0
  0
MTEXT
  5
40A
330
1F
100
AcDbEntity
  8
0-A_文字
  6
Continuous
 62
     7
370
     9
100
AcDbMText
 10
4146.577891428767
 20
1570.216605513356
 30
0.0
 40
52.57800000000003
 41
586.5000000000003
 46
0.0
 71
     7
 72
     1
  1
{\fＭＳ ゴシック|b0|i0|c128|p49;114m/m（2×4工法)}
 73
     1
 44
1.0
  0
MTEXT
  5
40B
330
1F
100
AcDbEntity
  8
0-A_文字
  6
Continuous
 62
     7
370
     9
100
AcDbMText
 10
2854.827891428767
 20
1583.413060058811
 30
0.0
 40
78.97090909090909
 41
570.0
 46
0.0
 71
     7
 72
     1
  1
{\fＭＳ ゴシック|b0|i0|c128|p49;113～133m/m}
 73
     1
 44
1.0
  0
MTEXT
  5
40C
330
1F
100
AcDbEntity
  8
0-A_文字
  6
Continuous
 62
     7
370
     9
100
AcDbMText
 10
-3816.906579051841
 20
1770.41684192656
 30
0.0
 40
74.295
 41
195.0
 46
0.0
 71
     7
 72
     1
  1
{\fＭＳ ゴシック|b0|i0|c128|p49;竪枠}
 73
     1
 44
1.0
  0
MTEXT
  5
40D
330
1F
100
AcDbEntity
  8
0-A_文字
  6
Continuous
 62
     7
370
     9
100
AcDbMText
 10
765.818242439533
 20
-2393.224194137139
 30
0.0
 40
78.58125
 41
825.0
 46
0.0
 71
     7
 72
     1
  1
{\fＭＳ ゴシック|b0|i0|c128|p49;敷居(30㎜)寸法図}
 73
     1
 44
1.0
  0
MTEXT
  5
40E
330
1F
100
AcDbEntity
  8
0-A_文字
  6
Continuous
 62
     7
370
     9
100
AcDbMText
 10
765.818242439533
 20
-1033.836486306274
 30
0.0
 40
77.724
 41
510.0
 46
0.0
 71
     7
 72
     1
  1
{\fＭＳ ゴシック|b0|i0|c128|p49;鴨居寸法図}
 73
     1
 44
1.0
  0
MTEXT
  5
40F
330
1F
100
AcDbEntity
  8
0-A_文字
  6
Continuous
 62
     7
370
     9
100
AcDbMText
 10
-1862.559662301403
 20
-2948.829698697068
 30
0.0
 40
74.295
 41
195.0
 46
0.0
 71
     7
 72
     1
  1
{\fＭＳ ゴシック|b0|i0|c128|p49;敷居}
 73
     1
 44
1.0
  0
MTEXT
  5
410
330
1F
100
AcDbEntity
  8
0-A_文字
  6
Continuous
 62
     7
370
     9
100
AcDbMText
 10
-1857.130226683507
 20
-217.4766779163731
 30
0.0
 40
74.295
 41
195.0
 46
0.0
 71
     7
 72
     1
  1
{\fＭＳ ゴシック|b0|i0|c128|p49;鴨居}
 73
     1
 44
1.0
  0
MTEXT
  5
411
330
1F
100
AcDbEntity
  8
F-A_文字
  6
Continuous
 62
     7
370
     0
100
AcDbMText
 10
4841.818105522831
 20
-4036.225718274964
 30
0.0
 40
78.86699999999999
 41
517.5
 46
0.0
 71
     7
 72
     1
  1
{\fＭＳ ゴシック|b0|i0|c128|p49;2022.06.15}
 73
     1
 44
1.0
  0
LINE
  5
412
330
1F
100
AcDbEntity
  8
0-C_ハッチ
  6
Continuous
 62
   120
370
     5
100
AcDbLine
 10
1139.01939500413
 20
1995.251519197662
 30
0.0
 11
1234.464770972952
 21
2090.696895166484
 31
0.0
  0
LINE
  5
413
330
1F
100
AcDbEntity
  8
0-4_枠
  6
Continuous
 62
    92
370
    13
100
AcDbLine
 10
1237.464929334439
 20
1992.25136083618
 30
0.0
 11
1237.464929334439
 21
2760.251677559153
 31
0.0
  0
LINE
  5
414
330
1F
100
AcDbEntity
  8
0-C_ハッチ
  6
Continuous
 62
   120
370
     5
100
AcDbLine
 10
1198.416364623844
 20
1995.251519197674
 30
0.0
 11
1234.464770972941
 21
2031.299925546772
 31
0.0
  0
LINE
  5
415
330
1F
100
AcDbEntity
  8
0-C_ハッチ
  6
Continuous
 62
   120
370
     5
100
AcDbLine
 10
1079.622425384474
 20
1995.251519197654
 30
0.0
 11
1234.464770972945
 21
2150.093864786124
 31
0.0
  0
LINE
  5
416
330
1F
100
AcDbEntity
  8
0-4_枠
  6
Continuous
 62
    92
370
    13
100
AcDbLine
 10
1057.464929334439
 20
1992.25136083618
 30
0.0
 11
1237.464929334439
 21
1992.25136083618
 31
0.0
  0
LINE
  5
417
330
1F
100
AcDbEntity
  8
0-4_枠
  6
Continuous
 62
    92
370
    13
100
AcDbLine
 10
1057.464929334439
 20
2112.25136083618
 30
0.0
 11
1060.464929334438
 21
2112.25136083618
 31
0.0
  0
LINE
  5
418
330
1F
100
AcDbEntity
  8
0-C_ハッチ
  6
Continuous
 62
   120
370
     5
100
AcDbLine
 10
1060.464929334438
 20
2035.490992767265
 30
0.0
 11
1234.464770972948
 21
2209.490834405775
 31
0.0
  0
LINE
  5
419
330
1F
100
AcDbEntity
  8
0-3_仕上げ
  6
Continuous
 62
    40
370
    15
100
AcDbLine
 10
1057.464929334439
 20
2157.251756739895
 30
0.0
 11
1057.464929334439
 21
2082.251954691755
 31
0.0
  0
LINE
  5
41A
330
1F
100
AcDbEntity
  8
0-C_ハッチ
  6
JWW_DASHED1
 62
   120
370
     5
100
AcDbLine
 10
1057.464929334438
 20
2082.251954691753
 30
0.0
 11
1057.464929334438
 21
2093.95638535182
 31
0.0
  0
LINE
  5
41B
330
1F
100
AcDbEntity
  8
0-C_ハッチ
  6
Continuous
 62
   120
370
     5
100
AcDbLine
 10
1057.464929334439
 20
2091.887962386968
 30
0.0
 11
1234.464770972934
 21
2268.887804025464
 31
0.0
  0
LINE
  5
41C
330
1F
100
AcDbEntity
  8
0-C_ハッチ
  6
Continuous
 62
   120
370
     5
100
AcDbLine
 10
1057.464929334439
 20
2151.284932006615
 30
0.0
 11
1234.464770972945
 21
2328.284773645121
 31
0.0
  0
LINE
  5
41D
330
1F
100
AcDbEntity
  8
0-C_ハッチ
  6
Continuous
 62
   120
370
     5
100
AcDbLine
 10
1057.464929334439
 20
2329.475840865666
 30
0.0
 11
1234.464770972953
 21
2506.47568250418
 31
0.0
  0
LINE
  5
41E
330
1F
100
AcDbEntity
  8
0-C_ハッチ
  6
Continuous
 62
   120
370
     5
100
AcDbLine
 10
1057.464929334439
 20
2388.872810485313
 30
0.0
 11
1234.464770972943
 21
2565.872652123818
 31
0.0
  0
LINE
  5
41F
330
1F
100
AcDbEntity
  8
0-C_ハッチ
  6
Continuous
 62
   120
370
     5
100
AcDbLine
 10
1057.464929334439
 20
2507.666749724662
 30
0.0
 11
1234.464770972946
 21
2684.66659136317
 31
0.0
  0
LINE
  5
420
330
1F
100
AcDbEntity
  8
0-C_ハッチ
  6
Continuous
 62
   120
370
     5
100
AcDbLine
 10
1057.464929334439
 20
2626.460688964011
 30
0.0
 11
1123.464929334439
 21
2692.460688964011
 31
0.0
  0
LINE
  5
421
330
1F
100
AcDbEntity
  8
0-C_ハッチ
  6
Continuous
 62
   120
370
     5
100
AcDbLine
 10
1057.464929334439
 20
2270.078871245964
 30
0.0
 11
1234.464929334438
 21
2447.078871245963
 31
0.0
  0
LINE
  5
422
330
1F
100
AcDbEntity
  8
0-4_枠
  6
Continuous
 62
    92
370
    13
100
AcDbLine
 10
1057.464929334439
 20
2760.251677559153
 30
0.0
 11
1123.464929334439
 21
2760.251677559153
 31
0.0
  0
LINE
  5
423
330
1F
100
AcDbEntity
  8
0-4_枠
  6
Continuous
 62
    92
370
    13
100
AcDbLine
 10
1177.464929334439
 20
2760.251677559153
 30
0.0
 11
1237.464929334439
 21
2760.251677559153
 31
0.0
  0
LINE
  5
424
330
1F
100
AcDbEntity
  8
0-4_枠
  6
Continuous
 62
    92
370
    13
100
AcDbLine
 10
1123.464929334439
 20
2760.251677559153
 30
0.0
 11
1123.464929334439
 21
2670.251677559153
 31
0.0
  0
LINE
  5
425
330
1F
100
AcDbEntity
  8
0-4_枠
  6
Continuous
 62
    92
370
    13
100
AcDbLine
 10
1177.464929334439
 20
2760.251677559153
 30
0.0
 11
1177.464929334439
 21
2670.251677559153
 31
0.0
  0
LINE
  5
426
330
1F
100
AcDbEntity
  8
0-4_枠
  6
Continuous
 62
    92
370
    13
100
AcDbLine
 10
1123.464929334439
 20
2670.251677559153
 30
0.0
 11
1177.464929334439
 21
2670.251677559153
 31
0.0
  0
LINE
  5
427
330
1F
100
AcDbEntity
  8
0-4_枠
  6
Continuous
 62
    92
370
    13
100
AcDbLine
 10
1057.464929334439
 20
2640.251677559153
 30
0.0
 11
1060.46492933444
 21
2640.251677559153
 31
0.0
  0
LINE
  5
428
330
1F
100
AcDbEntity
  8
0-4_枠
  6
Continuous
 62
    92
370
    13
100
AcDbLine
 10
1057.464929334439
 20
1992.25136083618
 30
0.0
 11
1057.464929334439
 21
2760.251677559153
 31
0.0
  0
LINE
  5
429
330
1F
100
AcDbEntity
  8
0-C_ハッチ
  6
Continuous
 62
   120
370
     5
100
AcDbLine
 10
1057.464929334439
 20
2448.269780104961
 30
0.0
 11
1234.464770972943
 21
2637.269938466437
 31
0.0
  0
LINE
  5
42A
330
1F
100
AcDbEntity
  8
0-C_ハッチ
  6
Continuous
 62
   120
370
     5
100
AcDbLine
 10
1177.464929334439
 20
2687.063719344309
 30
0.0
 11
1234.464929334438
 21
2744.063719344309
 31
0.0
  0
LINE
  5
42B
330
1F
100
AcDbEntity
  8
0-C_ハッチ
  6
Continuous
 62
   120
370
     5
100
AcDbLine
 10
1057.464929334439
 20
2567.063719344309
 30
0.0
 11
1160.652887549282
 21
2670.251677559153
 31
0.0
  0
LINE
  5
42C
330
1F
100
AcDbEntity
  8
0-4_枠
  6
Continuous
 62
    92
370
    13
100
AcDbLine
 10
1060.46492933444
 20
2757.251677559153
 30
0.0
 11
1123.464929334439
 21
2757.251677559153
 31
0.0
  0
LINE
  5
42D
330
1F
100
AcDbEntity
  8
0-4_枠
  6
Continuous
 62
    92
370
    13
100
AcDbLine
 10
1060.46492933444
 20
2640.251677559153
 30
0.0
 11
1060.46492933444
 21
2757.251677559153
 31
0.0
  0
LINE
  5
42E
330
1F
100
AcDbEntity
  8
0-4_枠
  6
Continuous
 62
    92
370
    13
100
AcDbLine
 10
1177.464929334439
 20
2757.251677559153
 30
0.0
 11
1234.464929334438
 21
2757.251677559153
 31
0.0
  0
LINE
  5
42F
330
1F
100
AcDbEntity
  8
0-C_ハッチ
  6
Continuous
 62
   120
370
     5
100
AcDbLine
 10
1060.46492933444
 20
2688.857658583659
 30
0.0
 11
1123.464850153695
 21
2751.857579402915
 31
0.0
  0
LINE
  5
430
330
1F
100
AcDbEntity
  8
0-C_ハッチ
  6
Continuous
 62
   120
370
     5
100
AcDbLine
 10
1234.464929334438
 20
2387.681901626289
 30
0.0
 11
1057.464929334439
 21
2210.681901626289
 31
0.0
  0
LINE
  5
431
330
1F
100
AcDbEntity
  8
0-B_寸法
  6
Continuous
 62
   120
370
     5
100
AcDbLine
 10
1057.464929334439
 20
1842.251360836179
 30
0.0
 11
1237.464929334439
 21
1842.251360836179
 31
0.0
  0
LWPOLYLINE
  5
432
330
1F
100
AcDbEntity
  8
0-B_寸法
  6
Continuous
 62
     7
370
     9
100
AcDbPolyline
 90
        4
 70
     1
 43
3.0
 10
1058.964929334439
 20
1842.251360836179
 42
0.4142135623731
 10
1057.464929334439
 20
1843.751360836179
 42
0.4142135623731
 10
1055.964929334439
 20
1842.251360836179
 42
0.4142135623731
 10
1057.464929334439
 20
1840.75136083618
 42
0.4142135623731
  0
LWPOLYLINE
  5
433
330
1F
100
AcDbEntity
  8
0-B_寸法
  6
Continuous
 62
     7
370
     9
100
AcDbPolyline
 90
        4
 70
     1
 43
3.0
 10
1238.964929334439
 20
1842.251360836179
 42
0.4142135623731
 10
1237.464929334439
 20
1843.751360836179
 42
0.4142135623731
 10
1235.964929334439
 20
1842.251360836179
 42
0.4142135623731
 10
1237.464929334439
 20
1840.75136083618
 42
0.4142135623731
  0
LINE
  5
434
330
1F
100
AcDbEntity
  8
0-B_寸法
  6
Continuous
 62
   120
370
     5
100
AcDbLine
 10
1057.464929334439
 20
1842.251360836179
 30
0.0
 11
1057.464929334439
 21
1962.25136083618
 31
0.0
  0
LINE
  5
435
330
1F
100
AcDbEntity
  8
0-B_寸法
  6
Continuous
 62
   120
370
     5
100
AcDbLine
 10
1237.464929334439
 20
1842.251360836179
 30
0.0
 11
1237.464929334439
 21
1962.25136083618
 31
0.0
  0
MTEXT
  5
436
330
1F
100
AcDbEntity
  8
0-B_寸法
  6
Continuous
 62
     7
370
   211
100
AcDbMText
 10
1109.964929334439
 20
1848.326360836179
 30
0.0
 40
57.15
 41
75.0
 46
0.0
 71
     7
 72
     1
  1
{\fＭＳ ゴシック|b0|i0|c128|p49;30}
 73
     1
 44
1.0
  0
LINE
  5
437
330
1F
100
AcDbEntity
  8
0-B_寸法
  6
Continuous
 62
   120
370
     5
100
AcDbLine
 10
486.9055440679854
 20
2166.312936182165
 30
0.0
 11
546.9055440679854
 21
2166.312936182165
 31
0.0
  0
LWPOLYLINE
  5
438
330
1F
100
AcDbEntity
  8
0-B_寸法
  6
Continuous
 62
     7
370
     9
100
AcDbPolyline
 90
        4
 70
     1
 43
3.0
 10
488.4055440679854
 20
2166.312936182165
 42
0.4142135623731
 10
486.9055440679854
 20
2167.812936182165
 42
0.4142135623731
 10
485.4055440679854
 20
2166.312936182165
 42
0.4142135623731
 10
486.9055440679854
 20
2164.812936182165
 42
0.4142135623731
  0
LWPOLYLINE
  5
439
330
1F
100
AcDbEntity
  8
0-B_寸法
  6
Continuous
 62
     7
370
     9
100
AcDbPolyline
 90
        4
 70
     1
 43
3.0
 10
548.4055440679854
 20
2166.312936182165
 42
0.4142135623731
 10
546.9055440679854
 20
2167.812936182165
 42
0.4142135623731
 10
545.4055440679854
 20
2166.312936182165
 42
0.4142135623731
 10
546.9055440679854
 20
2164.812936182165
 42
0.4142135623731
  0
LINE
  5
43A
330
1F
100
AcDbEntity
  8
0-B_寸法
  6
Continuous
 62
   120
370
     5
100
AcDbLine
 10
486.9055440679854
 20
2166.312936182165
 30
0.0
 11
486.9055440679854
 21
2286.312936182165
 31
0.0
  0
LINE
  5
43B
330
1F
100
AcDbEntity
  8
0-B_寸法
  6
Continuous
 62
   120
370
     5
100
AcDbLine
 10
546.9055440679854
 20
2166.312936182165
 30
0.0
 11
546.9055440679854
 21
2286.312936182165
 31
0.0
  0
MTEXT
  5
43C
330
1F
100
AcDbEntity
  8
0-B_寸法
  6
Continuous
 62
     7
370
   211
100
AcDbMText
 10
479.4055440679854
 20
2172.387936182165
 30
0.0
 40
57.15
 41
75.0
 46
0.0
 71
     7
 72
     1
  1
{\fＭＳ ゴシック|b0|i0|c128|p49;10}
 73
     1
 44
1.0
  0
LINE
  5
43D
330
1F
100
AcDbEntity
  8
0-4_枠
  6
Continuous
 62
    92
370
    13
100
AcDbLine
 10
1234.464929334438
 20
1995.25136083618
 30
0.0
 11
1234.464929334438
 21
2757.251677559153
 31
0.0
  0
LINE
  5
43E
330
1F
100
AcDbEntity
  8
0-4_枠
  6
Continuous
 62
    92
370
    13
100
AcDbLine
 10
1060.464929334438
 20
1995.25136083618
 30
0.0
 11
1060.464929334438
 21
2112.25136083618
 31
0.0
  0
LINE
  5
43F
330
1F
100
AcDbEntity
  8
0-4_枠
  6
Continuous
 62
    92
370
    13
100
AcDbLine
 10
1060.464929334438
 20
1995.25136083618
 30
0.0
 11
1234.464929334438
 21
1995.25136083618
 31
0.0
  0
LINE
  5
440
330
1F
100
AcDbEntity
  8
0-C_ハッチ
  6
Continuous
 62
   120
370
     5
100
AcDbLine
 10
528.570223346573
 20
2316.312936182158
 30
0.0
 11
546.9055440679922
 21
2334.648256903577
 31
0.0
  0
LINE
  5
441
330
1F
100
AcDbEntity
  8
0-C_ハッチ
  6
Continuous
 62
   120
370
     5
100
AcDbLine
 10
486.9055440679907
 20
2317.074663774775
 30
0.0
 11
546.9055440679905
 21
2377.074663774775
 31
0.0
  0
LINE
  5
442
330
1F
100
AcDbEntity
  8
0-C_ハッチ
  6
Continuous
 62
   120
370
     5
100
AcDbLine
 10
486.905544067983
 20
2359.501070645913
 30
0.0
 11
546.9055440679829
 21
2419.501070645913
 31
0.0
  0
LINE
  5
443
330
1F
100
AcDbEntity
  8
0-C_ハッチ
  6
Continuous
 62
   120
370
     5
100
AcDbLine
 10
486.9055440679954
 20
2401.927477517125
 30
0.0
 11
546.9055440679952
 21
2461.927477517125
 31
0.0
  0
LINE
  5
444
330
1F
100
AcDbEntity
  8
0-C_ハッチ
  6
Continuous
 62
   120
370
     5
100
AcDbLine
 10
486.905544067992
 20
2444.353884388322
 30
0.0
 11
538.8645958618283
 21
2496.312936182158
 31
0.0
  0
LINE
  5
445
330
1F
100
AcDbEntity
  8
0-C_ハッチ
  6
Continuous
 62
   120
370
     5
100
AcDbLine
 10
486.9055440679888
 20
2486.780291259519
 30
0.0
 11
496.4381889906315
 21
2496.312936182161
 31
0.0
  0
LINE
  5
446
330
1F
100
AcDbEntity
  8
0-0_補助線
  6
JWW_HOJO
 62
   120
370
     5
100
AcDbLine
 10
564.9055440679865
 20
2298.312936182166
 30
0.0
 11
564.9055440679865
 21
2576.124081846689
 31
0.0
  0
LINE
  5
447
330
1F
100
AcDbEntity
  8
0-0_補助線
  6
JWW_HOJO
 62
   120
370
     5
100
AcDbLine
 10
564.905544067987
 20
2298.312936182166
 30
0.0
 11
420.9055440679864
 21
2298.312936182166
 31
0.0
  0
ARC
  5
448
330
1F
100
AcDbEntity
  8
0-4_枠
  6
Continuous
 62
    92
370
    13
100
AcDbCircle
 10
516.9055440679851
 20
2470.636128744851
 30
0.0
 40
39.4879531018372
100
AcDbArc
 50
40.56000641728792
 51
139.4399935827121
  0
LINE
  5
449
330
1F
100
AcDbEntity
  8
0-4_枠
  6
Continuous
 62
    92
370
    13
100
AcDbLine
 10
546.9055440679863
 20
2316.312936182166
 30
0.0
 11
486.9055440679861
 21
2316.312936182166
 31
0.0
  0
LINE
  5
44A
330
1F
100
AcDbEntity
  8
0-4_枠
  6
Continuous
 62
    92
370
    13
100
AcDbLine
 10
546.9055440679858
 20
2496.312936182166
 30
0.0
 11
546.9055440679858
 21
2316.312936182166
 31
0.0
  0
LINE
  5
44B
330
1F
100
AcDbEntity
  8
0-4_枠
  6
Continuous
 62
    92
370
    13
100
AcDbLine
 10
486.9055440679854
 20
2496.312936182166
 30
0.0
 11
546.9055440679854
 21
2496.312936182166
 31
0.0
  0
LINE
  5
44C
330
1F
100
AcDbEntity
  8
0-4_枠
  6
Continuous
 62
    92
370
    13
100
AcDbLine
 10
486.9055440679857
 20
2316.312936182166
 30
0.0
 11
486.9055440679857
 21
2496.312936182166
 31
0.0
  0
LINE
  5
44D
330
1F
100
AcDbEntity
  8
0-B_寸法
  6
Continuous
 62
   120
370
     5
100
AcDbLine
 10
937.464929334439
 20
2760.251677559153
 30
0.0
 11
937.464929334439
 21
1992.25136083618
 31
0.0
  0
LWPOLYLINE
  5
44E
330
1F
100
AcDbEntity
  8
0-B_寸法
  6
Continuous
 62
     7
370
     9
100
AcDbPolyline
 90
        4
 70
     1
 43
3.0
 10
938.964929334439
 20
2760.251677559153
 42
0.4142135623731
 10
937.464929334439
 20
2761.751677559153
 42
0.4142135623731
 10
935.964929334439
 20
2760.251677559153
 42
0.4142135623731
 10
937.464929334439
 20
2758.751677559153
 42
0.4142135623731
  0
LWPOLYLINE
  5
44F
330
1F
100
AcDbEntity
  8
0-B_寸法
  6
Continuous
 62
     7
370
     9
100
AcDbPolyline
 90
        4
 70
     1
 43
3.0
 10
938.964929334439
 20
1992.25136083618
 42
0.4142135623731
 10
937.464929334439
 20
1993.75136083618
 42
0.4142135623731
 10
935.964929334439
 20
1992.25136083618
 42
0.4142135623731
 10
937.464929334439
 20
1990.75136083618
 42
0.4142135623731
  0
LINE
  5
450
330
1F
100
AcDbEntity
  8
0-B_寸法
  6
Continuous
 62
   120
370
     5
100
AcDbLine
 10
937.464929334439
 20
2760.251677559153
 30
0.0
 11
1027.464929334439
 21
2760.251677559153
 31
0.0
  0
LINE
  5
451
330
1F
100
AcDbEntity
  8
0-B_寸法
  6
Continuous
 62
   120
370
     5
100
AcDbLine
 10
937.464929334439
 20
1992.25136083618
 30
0.0
 11
1027.464929334439
 21
1992.25136083618
 31
0.0
  0
LINE
  5
452
330
1F
100
AcDbEntity
  8
0-B_寸法
  6
Continuous
 62
   120
370
     5
100
AcDbLine
 10
366.9055440679907
 20
2496.312936182165
 30
0.0
 11
366.9055440679907
 21
2316.312936182166
 31
0.0
  0
LWPOLYLINE
  5
453
330
1F
100
AcDbEntity
  8
0-B_寸法
  6
Continuous
 62
     7
370
     9
100
AcDbPolyline
 90
        4
 70
     1
 43
3.0
 10
368.4055440679908
 20
2496.312936182165
 42
0.4142135623731
 10
366.9055440679907
 20
2497.812936182165
 42
0.4142135623731
 10
365.4055440679907
 20
2496.312936182165
 42
0.4142135623731
 10
366.9055440679907
 20
2494.812936182165
 42
0.4142135623731
  0
LWPOLYLINE
  5
454
330
1F
100
AcDbEntity
  8
0-B_寸法
  6
Continuous
 62
     7
370
     9
100
AcDbPolyline
 90
        4
 70
     1
 43
3.0
 10
368.4055440679908
 20
2316.312936182166
 42
0.4142135623731
 10
366.9055440679907
 20
2317.812936182166
 42
0.4142135623731
 10
365.4055440679907
 20
2316.312936182166
 42
0.4142135623731
 10
366.9055440679907
 20
2314.812936182166
 42
0.4142135623731
  0
LINE
  5
455
330
1F
100
AcDbEntity
  8
0-B_寸法
  6
Continuous
 62
   120
370
     5
100
AcDbLine
 10
366.9055440679907
 20
2496.312936182165
 30
0.0
 11
456.9055440679907
 21
2496.312936182165
 31
0.0
  0
LINE
  5
456
330
1F
100
AcDbEntity
  8
0-B_寸法
  6
Continuous
 62
   120
370
     5
100
AcDbLine
 10
366.9055440679907
 20
2316.312936182166
 30
0.0
 11
456.9055440679907
 21
2316.312936182166
 31
0.0
  0
MTEXT
  5
457
330
1F
100
AcDbEntity
  8
0-B_寸法
  6
Continuous
 62
     7
370
   211
100
AcDbMText
 10
925.464929334439
 20
2311.076519197666
 30
0.0
 40
57.15
 41
112.5
 46
0.0
 71
     7
 72
     1
  1
{\fＭＳ ゴシック|b0|i0|c128|p49;128}
 11
6.123031769111886E-17
 21
1.0
 31
0.0
 73
     1
 44
1.0
  0
MTEXT
  5
458
330
1F
100
AcDbEntity
  8
0-B_寸法
  6
Continuous
 62
     7
370
   211
100
AcDbMText
 10
354.9055440679908
 20
2359.887936182166
 30
0.0
 40
57.15
 41
75.0
 46
0.0
 71
     7
 72
     1
  1
{\fＭＳ ゴシック|b0|i0|c128|p49;30}
 11
6.123031769111886E-17
 21
1.0
 31
0.0
 73
     1
 44
1.0
  0
MTEXT
  5
459
330
1F
100
AcDbEntity
  8
0-A_文字
  6
Continuous
 62
     7
370
     9
100
AcDbMText
 10
867.280795054178
 20
2887.789605513357
 30
0.0
 40
77.724
 41
510.0
 46
0.0
 71
     7
 72
     1
  1
{\fＭＳ ゴシック|b0|i0|c128|p49;竪枠寸法図}
 73
     1
 44
1.0
  0
MTEXT
  5
45A
330
1F
100
AcDbEntity
  8
0-A_文字
  6
Continuous
 62
     7
370
     9
100
AcDbMText
 10
308.9024795585987
 20
2887.027605513357
 30
0.0
 40
76.19999999999999
 41
300.0
 46
0.0
 71
     7
 72
     1
  1
{\fＭＳ ゴシック|b0|i0|c128|p49;戸当り}
 73
     1
 44
1.0
  0
ENDSEC
  0
SECTION
  2
OBJECTS
  0
DICTIONARY
  5
C
330
0
100
AcDbDictionary
281
     1
  3
ACAD_GROUP
350
D
  3
ACAD_LAYOUT
350
1A
  3
ACAD_MATERIAL
350
3B
  3
ACAD_MLEADERSTYLE
350
45C
  3
ACAD_MLINESTYLE
350
17
  3
ACAD_PLOTSETTINGS
350
19
  3
ACAD_PLOTSTYLENAME
350
E
  3
ACAD_TABLESTYLE
350
45B
  3
ACAD_VISUALSTYLE
350
2A
  0
DICTIONARY
  5
D
102
{ACAD_REACTORS
330
C
102
}
330
C
100
AcDbDictionary
281
     1
  0
DICTIONARY
  5
1A
102
{ACAD_REACTORS
330
C
102
}
330
C
100
AcDbDictionary
281
     1
  3
Layout1
350
1E
  3
Layout2
350
26
  3
Model
350
22
  0
DICTIONARY
  5
3B
102
{ACAD_REACTORS
330
C
102
}
330
C
100
AcDbDictionary
281
     1
  3
ByBlock
350
3D
  3
ByLayer
350
3C
  3
Global
350
3E
  0
DICTIONARY
  5
45C
102
{ACAD_REACTORS
330
C
102
}
330
C
100
AcDbDictionary
281
     1
  0
DICTIONARY
  5
17
102
{ACAD_REACTORS
330
C
102
}
330
C
100
AcDbDictionary
281
     1
  3
Standard
350
18
  0
DICTIONARY
  5
19
102
{ACAD_REACTORS
330
C
102
}
330
C
100
AcDbDictionary
281
     1
  0
ACDBDICTIONARYWDFLT
  5
E
102
{ACAD_REACTORS
330
C
102
}
330
C
100
AcDbDictionary
281
     1
  3
Normal
350
F
100
AcDbDictionaryWithDefault
340
F
  0
DICTIONARY
  5
45B
102
{ACAD_REACTORS
330
C
102
}
330
C
100
AcDbDictionary
281
     1
  0
DICTIONARY
  5
2A
102
{ACAD_REACTORS
330
C
102
}
330
C
100
AcDbDictionary
281
     1
  3
2dWireframe
350
2F
  3
3D Hidden
350
31
  3
3dWireframe
350
30
  3
Basic
350
32
  3
Brighten
350
36
  3
ColorChange
350
3A
  3
Conceptual
350
34
  3
Dim
350
35
  3
Facepattern
350
39
  3
Flat
350
2B
  3
FlatWithEdges
350
2C
  3
Gouraud
350
2D
  3
GouraudWithEdges
350
2E
  3
Linepattern
350
38
  3
Realistic
350
33
  3
Thicken
350
37
  0
LAYOUT
  5
1E
102
{ACAD_REACTORS
330
1A
102
}
330
1A
100
AcDbPlotSettings
  1

  2
none_device
  4

  6

 40
0.0
 41
0.0
 42
0.0
 43
0.0
 44
0.0
 45
0.0
 46
0.0
 47
0.0
 48
0.0
 49
0.0
140
0.0
141
0.0
142
1.0
143
1.0
 70
   688
 72
     0
 73
     0
 74
     5
  7

 75
    16
 76
     0
 77
     5
 78
   300
147
1.0
148
0.0
149
0.0
100
AcDbLayout
  1
Layout1
 70
     1
 71
     1
 10
0.0
 20
0.0
 11
420.0
 21
297.0
 12
0.0
 22
0.0
 32
0.0
 14
1.000000000000000E+20
 24
1.000000000000000E+20
 34
1.000000000000000E+20
 15
-1.000000000000000E+20
 25
-1.000000000000000E+20
 35
-1.000000000000000E+20
146
0.0
 13
0.0
 23
0.0
 33
0.0
 16
1.0
 26
0.0
 36
0.0
 17
0.0
 27
1.0
 37
0.0
 76
     0
330
1B
  0
LAYOUT
  5
26
102
{ACAD_REACTORS
330
1A
102
}
330
1A
100
AcDbPlotSettings
  1

  2
none_device
  4

  6

 40
0.0
 41
0.0
 42
0.0
 43
0.0
 44
0.0
 45
0.0
 46
0.0
 47
0.0
 48
0.0
 49
0.0
140
0.0
141
0.0
142
1.0
143
1.0
 70
   688
 72
     0
 73
     0
 74
     5
  7

 75
    16
 76
     0
 77
     5
 78
   300
147
1.0
148
0.0
149
0.0
100
AcDbLayout
  1
Layout2
 70
     1
 71
     2
 10
0.0
 20
0.0
 11
0.0
 21
0.0
 12
0.0
 22
0.0
 32
0.0
 14
0.0
 24
0.0
 34
0.0
 15
0.0
 25
0.0
 35
0.0
146
0.0
 13
0.0
 23
0.0
 33
0.0
 16
1.0
 26
0.0
 36
0.0
 17
0.0
 27
1.0
 37
0.0
 76
     0
330
23
  0
LAYOUT
  5
22
102
{ACAD_REACTORS
330
1A
102
}
330
1A
100
AcDbPlotSettings
  1

  2
none_device
  4

  6

 40
0.0
 41
0.0
 42
0.0
 43
0.0
 44
0.0
 45
0.0
 46
0.0
 47
0.0
 48
0.0
 49
0.0
140
0.0
141
0.0
142
1.0
143
1.0
 70
  1712
 72
     0
 73
     0
 74
     0
  7

 75
     0
 76
     0
 77
     5
 78
   300
147
1.0
148
0.0
149
0.0
100
AcDbLayout
  1
Model
 70
     1
 71
     0
 10
-8910.0
 20
-6300.0
 11
8910.0
 21
6300.0
 12
0.0
 22
0.0
 32
0.0
 14
-8910.0
 24
-6300.0
 34
0.0
 15
8910.0
 25
6300.0
 35
0.0
146
0.0
 13
0.0
 23
0.0
 33
0.0
 16
1.0
 26
0.0
 36
0.0
 17
0.0
 27
1.0
 37
0.0
 76
     0
330
1F
331
29
  0
MATERIAL
  5
3D
102
{ACAD_REACTORS
330
3B
102
}
330
3B
100
AcDbMaterial
  1
ByBlock
 72
     1
 94
      127
  0
MATERIAL
  5
3C
102
{ACAD_REACTORS
330
3B
102
}
330
3B
100
AcDbMaterial
  1
ByLayer
 72
     1
 94
      127
  0
MATERIAL
  5
3E
102
{ACAD_REACTORS
330
3B
102
}
330
3B
100
AcDbMaterial
  1
Global
 72
     1
 94
      127
  0
MLINESTYLE
  5
18
102
{ACAD_REACTORS
330
17
102
}
330
17
100
AcDbMlineStyle
  2
Standard
 70
     0
  3

 62
   256
 51
90.0
 52
90.0
 71
     2
 49
0.5
 62
   256
  6
BYLAYER
 49
-0.5
 62
   256
  6
BYLAYER
  0
ACDBPLACEHOLDER
  5
F
102
{ACAD_REACTORS
330
E
102
}
330
E
  0
VISUALSTYLE
  5
2F
102
{ACAD_REACTORS
330
2A
102
}
330
2A
100
AcDbVisualStyle
  2
2dWireframe
 70
     4
177
     2
291
     0
 71
     0
176
     1
 72
     2
176
     1
 73
     0
176
     1
 90
        0
176
     1
 40
-0.6
176
     1
 41
-30.0
176
     1
 62
     5
 63
     7
421
 16777215
176
     1
 74
     1
176
     1
 91
        4
176
     1
 64
     7
176
     1
 65
   257
176
     1
 75
     1
176
     1
175
     1
176
     1
 42
1.0
176
     1
 92
        0
176
     1
 66
   257
176
     1
 43
1.0
176
     1
 76
     1
176
     1
 77
     6
176
     1
 78
     2
176
     1
 67
     7
176
     1
 79
     5
176
     1
170
     0
176
     1
171
     0
176
     1
290
     0
176
     1
 93
        1
176
     1
 44
0.0
176
     1
173
     0
176
     1
  0
VISUALSTYLE
  5
31
102
{ACAD_REACTORS
330
2A
102
}
330
2A
100
AcDbVisualStyle
  2
3D Hidden
 70
     6
177
     2
291
     0
 71
     1
176
     1
 72
     2
176
     1
 73
     2
176
     1
 90
        0
176
     1
 40
-0.6
176
     1
 41
-30.0
176
     1
 62
     5
 63
     7
421
 16777215
176
     1
 74
     2
176
     1
 91
        2
176
     1
 64
     7
176
     1
 65
   257
176
     1
 75
     2
176
     1
175
     1
176
     1
 42
40.0
176
     1
 92
        0
176
     1
 66
   257
176
     1
 43
1.0
176
     1
 76
     1
176
     1
 77
     6
176
     1
 78
     2
176
     1
 67
     7
176
     1
 79
     3
176
     1
170
     0
176
     1
171
     0
176
     1
290
     0
176
     1
 93
        1
176
     1
 44
0.0
176
     1
173
     0
176
     1
  0
VISUALSTYLE
  5
30
102
{ACAD_REACTORS
330
2A
102
}
330
2A
100
AcDbVisualStyle
  2
3dWireframe
 70
     5
177
     2
291
     0
 71
     0
176
     1
 72
     2
176
     1
 73
     0
176
     1
 90
        0
176
     1
 40
-0.6
176
     1
 41
-30.0
176
     1
 62
     5
 63
     7
421
 16777215
176
     1
 74
     1
176
     1
 91
        4
176
     1
 64
     7
176
     1
 65
   257
176
     1
 75
     1
176
     1
175
     1
176
     1
 42
1.0
176
     1
 92
        0
176
     1
 66
   257
176
     1
 43
1.0
176
     1
 76
     1
176
     1
 77
     6
176
     1
 78
     2
176
     1
 67
     7
176
     1
 79
     5
176
     1
170
     0
176
     1
171
     0
176
     1
290
     0
176
     1
 93
        1
176
     1
 44
0.0
176
     1
173
     0
176
     1
  0
VISUALSTYLE
  5
32
102
{ACAD_REACTORS
330
2A
102
}
330
2A
100
AcDbVisualStyle
  2
Basic
 70
     7
177
     2
291
     1
 71
     1
176
     1
 72
     0
176
     1
 73
     1
176
     1
 90
        0
176
     1
 40
-0.6
176
     1
 41
-30.0
176
     1
 62
     5
 63
     7
421
 16777215
176
     1
 74
     0
176
     1
 91
        4
176
     1
 64
     7
176
     1
 65
   257
176
     1
 75
     1
176
     1
175
     1
176
     1
 42
1.0
176
     1
 92
        8
176
     1
 66
     7
176
     1
 43
1.0
176
     1
 76
     1
176
     1
 77
     6
176
     1
 78
     2
176
     1
 67
     7
176
     1
 79
     5
176
     1
170
     0
176
     1
171
     0
176
     1
290
     0
176
     1
 93
        1
176
     1
 44
0.0
176
     1
173
     0
176
     1
  0
VISUALSTYLE
  5
36
102
{ACAD_REACTORS
330
2A
102
}
330
2A
100
AcDbVisualStyle
  2
Brighten
 70
    12
177
     2
291
     1
 71
     2
176
     1
 72
     2
176
     1
 73
     0
176
     1
 90
        0
176
     1
 40
-0.6
176
     1
 41
-30.0
176
     1
 62
     5
 63
     7
421
 16777215
176
     1
 74
     1
176
     1
 91
        4
176
     1
 64
     7
176
     1
 65
   257
176
     1
 75
     1
176
     1
175
     1
176
     1
 42
1.0
176
     1
 92
        8
176
     1
 66
     7
176
     1
 43
1.0
176
     1
 76
     1
176
     1
 77
     6
176
     1
 78
     2
176
     1
 67
     7
176
     1
 79
     5
176
     1
170
     0
176
     1
171
     0
176
     1
290
     0
176
     1
 93
        1
176
     1
 44
50.0
176
     1
173
     0
176
     1
  0
VISUALSTYLE
  5
3A
102
{ACAD_REACTORS
330
2A
102
}
330
2A
100
AcDbVisualStyle
  2
ColorChange
 70
    16
177
     2
291
     1
 71
     2
176
     1
 72
     2
176
     1
 73
     3
176
     1
 90
        0
176
     1
 40
-0.6
176
     1
 41
-30.0
176
     1
 62
     5
 63
     8
421
  8421504
176
     1
 74
     1
176
     1
 91
        4
176
     1
 64
     7
176
     1
 65
   257
176
     1
 75
     1
176
     1
175
     1
176
     1
 42
1.0
176
     1
 92
        8
176
     1
 66
     8
424
  8421504
176
     1
 43
1.0
176
     1
 76
     1
176
     1
 77
     6
176
     1
 78
     2
176
     1
 67
     7
176
     1
 79
     5
176
     1
170
     0
176
     1
171
     0
176
     1
290
     0
176
     1
 93
        1
176
     1
 44
0.0
176
     1
173
     0
176
     1
  0
VISUALSTYLE
  5
34
102
{ACAD_REACTORS
330
2A
102
}
330
2A
100
AcDbVisualStyle
  2
Conceptual
 70
     9
177
     2
291
     0
 71
     3
176
     1
 72
     2
176
     1
 73
     0
176
     1
 90
        0
176
     1
 40
-0.6
176
     1
 41
-30.0
176
     1
 62
     5
 63
     7
421
 16777215
176
     1
 74
     2
176
     1
 91
        2
176
     1
 64
     7
176
     1
 65
   257
176
     1
 75
     1
176
     1
175
     1
176
     1
 42
40.0
176
     1
 92
        8
176
     1
 66
     7
176
     1
 43
1.0
176
     1
 76
     1
176
     1
 77
     6
176
     1
 78
     2
176
     1
 67
     7
176
     1
 79
     3
176
     1
170
     0
176
     1
171
     0
176
     1
290
     0
176
     1
 93
        1
176
     1
 44
0.0
176
     1
173
     0
176
     1
  0
VISUALSTYLE
  5
35
102
{ACAD_REACTORS
330
2A
102
}
330
2A
100
AcDbVisualStyle
  2
Dim
 70
    11
177
     2
291
     1
 71
     2
176
     1
 72
     2
176
     1
 73
     0
176
     1
 90
        0
176
     1
 40
-0.6
176
     1
 41
-30.0
176
     1
 62
     5
 63
     7
421
 16777215
176
     1
 74
     1
176
     1
 91
        4
176
     1
 64
     7
176
     1
 65
   257
176
     1
 75
     1
176
     1
175
     1
176
     1
 42
1.0
176
     1
 92
        8
176
     1
 66
     7
176
     1
 43
1.0
176
     1
 76
     1
176
     1
 77
     6
176
     1
 78
     2
176
     1
 67
     7
176
     1
 79
     5
176
     1
170
     0
176
     1
171
     0
176
     1
290
     0
176
     1
 93
        1
176
     1
 44
-50.0
176
     1
173
     0
176
     1
  0
VISUALSTYLE
  5
39
102
{ACAD_REACTORS
330
2A
102
}
330
2A
100
AcDbVisualStyle
  2
Facepattern
 70
    15
177
     2
291
     1
 71
     2
176
     1
 72
     2
176
     1
 73
     0
176
     1
 90
        0
176
     1
 40
-0.6
176
     1
 41
-30.0
176
     1
 62
     5
 63
     7
421
 16777215
176
     1
 74
     1
176
     1
 91
        4
176
     1
 64
     7
176
     1
 65
   257
176
     1
 75
     1
176
     1
175
     1
176
     1
 42
1.0
176
     1
 92
        8
176
     1
 66
     7
176
     1
 43
1.0
176
     1
 76
     1
176
     1
 77
     6
176
     1
 78
     2
176
     1
 67
     7
176
     1
 79
     5
176
     1
170
     0
176
     1
171
     0
176
     1
290
     0
176
     1
 93
        1
176
     1
 44
0.0
176
     1
173
     0
176
     1
  0
VISUALSTYLE
  5
2B
102
{ACAD_REACTORS
330
2A
102
}
330
2A
100
AcDbVisualStyle
  2
Flat
 70
     0
177
     2
291
     1
 71
     2
176
     1
 72
     1
176
     1
 73
     1
176
     1
 90
        2
176
     1
 40
-0.6
176
     1
 41
30.0
176
     1
 62
     5
 63
     7
421
 16777215
176
     1
 74
     0
176
     1
 91
        4
176
     1
 64
     7
176
     1
 65
   257
176
     1
 75
     1
176
     1
175
     1
176
     1
 42
1.0
176
     1
 92
        8
176
     1
 66
     7
176
     1
 43
1.0
176
     1
 76
     1
176
     1
 77
     6
176
     1
 78
     2
176
     1
 67
     7
176
     1
 79
     5
176
     1
170
     0
176
     1
171
     0
176
     1
290
     0
176
     1
 93
       13
176
     1
 44
0.0
176
     1
173
     0
176
     1
  0
VISUALSTYLE
  5
2C
102
{ACAD_REACTORS
330
2A
102
}
330
2A
100
AcDbVisualStyle
  2
FlatWithEdges
 70
     1
177
     2
291
     1
 71
     2
176
     1
 72
     1
176
     1
 73
     1
176
     1
 90
        2
176
     1
 40
-0.6
176
     1
 41
30.0
176
     1
 62
     5
 63
     7
421
 16777215
176
     1
 74
     1
176
     1
 91
        4
176
     1
 64
     7
176
     1
 65
   257
176
     1
 75
     1
176
     1
175
     1
176
     1
 42
1.0
176
     1
 92
        0
176
     1
 66
   257
176
     1
 43
1.0
176
     1
 76
     1
176
     1
 77
     6
176
     1
 78
     2
176
     1
 67
     7
176
     1
 79
     5
176
     1
170
     0
176
     1
171
     0
176
     1
290
     0
176
     1
 93
       13
176
     1
 44
0.0
176
     1
173
     0
176
     1
  0
VISUALSTYLE
  5
2D
102
{ACAD_REACTORS
330
2A
102
}
330
2A
100
AcDbVisualStyle
  2
Gouraud
 70
     2
177
     2
291
     1
 71
     2
176
     1
 72
     2
176
     1
 73
     1
176
     1
 90
        2
176
     1
 40
-0.6
176
     1
 41
30.0
176
     1
 62
     5
 63
     7
421
 16777215
176
     1
 74
     0
176
     1
 91
        4
176
     1
 64
     7
176
     1
 65
   257
176
     1
 75
     1
176
     1
175
     1
176
     1
 42
1.0
176
     1
 92
        0
176
     1
 66
     7
176
     1
 43
1.0
176
     1
 76
     1
176
     1
 77
     6
176
     1
 78
     2
176
     1
 67
     7
176
     1
 79
     5
176
     1
170
     0
176
     1
171
     0
176
     1
290
     0
176
     1
 93
       13
176
     1
 44
0.0
176
     1
173
     0
176
     1
  0
VISUALSTYLE
  5
2E
102
{ACAD_REACTORS
330
2A
102
}
330
2A
100
AcDbVisualStyle
  2
GouraudWithEdges
 70
     3
177
     2
291
     1
 71
     2
176
     1
 72
     2
176
     1
 73
     1
176
     1
 90
        2
176
     1
 40
-0.6
176
     1
 41
30.0
176
     1
 62
     5
 63
     7
421
 16777215
176
     1
 74
     1
176
     1
 91
        4
176
     1
 64
     7
176
     1
 65
   257
176
     1
 75
     1
176
     1
175
     1
176
     1
 42
1.0
176
     1
 92
        0
176
     1
 66
   257
176
     1
 43
1.0
176
     1
 76
     1
176
     1
 77
     6
176
     1
 78
     2
176
     1
 67
     7
176
     1
 79
     5
176
     1
170
     0
176
     1
171
     0
176
     1
290
     0
176
     1
 93
       13
176
     1
 44
0.0
176
     1
173
     0
176
     1
  0
VISUALSTYLE
  5
38
102
{ACAD_REACTORS
330
2A
102
}
330
2A
100
AcDbVisualStyle
  2
Linepattern
 70
    14
177
     2
291
     1
 71
     2
176
     1
 72
     2
176
     1
 73
     0
176
     1
 90
        0
176
     1
 40
-0.6
176
     1
 41
-30.0
176
     1
 62
     5
 63
     7
421
 16777215
176
     1
 74
     1
176
     1
 91
        4
176
     1
 64
     7
176
     1
 65
   257
176
     1
 75
     7
176
     1
175
     7
176
     1
 42
1.0
176
     1
 92
        8
176
     1
 66
     7
176
     1
 43
1.0
176
     1
 76
     1
176
     1
 77
     6
176
     1
 78
     2
176
     1
 67
     7
176
     1
 79
     5
176
     1
170
     0
176
     1
171
     0
176
     1
290
     0
176
     1
 93
        1
176
     1
 44
0.0
176
     1
173
     0
176
     1
  0
VISUALSTYLE
  5
33
102
{ACAD_REACTORS
330
2A
102
}
330
2A
100
AcDbVisualStyle
  2
Realistic
 70
     8
177
     2
291
     0
 71
     2
176
     1
 72
     2
176
     1
 73
     0
176
     1
 90
        0
176
     1
 40
-0.6
176
     1
 41
-30.0
176
     1
 62
     5
 63
     7
421
 16777215
176
     1
 74
     1
176
     1
 91
        0
176
     1
 64
     7
176
     1
 65
   257
176
     1
 75
     1
176
     1
175
     1
176
     1
 42
1.0
176
     1
 92
        8
176
     1
 66
     8
424
  7895160
176
     1
 43
1.0
176
     1
 76
     1
176
     1
 77
     6
176
     1
 78
     2
176
     1
 67
     7
176
     1
 79
     5
176
     1
170
     0
176
     1
171
     0
176
     1
290
     0
176
     1
 93
       13
176
     1
 44
0.0
176
     1
173
     0
176
     1
  0
VISUALSTYLE
  5
37
102
{ACAD_REACTORS
330
2A
102
}
330
2A
100
AcDbVisualStyle
  2
Thicken
 70
    13
177
     2
291
     1
 71
     2
176
     1
 72
     2
176
     1
 73
     0
176
     1
 90
        0
176
     1
 40
-0.6
176
     1
 41
-30.0
176
     1
 62
     5
 63
     7
421
 16777215
176
     1
 74
     1
176
     1
 91
        4
176
     1
 64
     7
176
     1
 65
   257
176
     1
 75
     1
176
     1
175
     1
176
     1
 42
1.0
176
     1
 92
       12
176
     1
 66
     7
176
     1
 43
1.0
176
     1
 76
     1
176
     1
 77
     6
176
     1
 78
     2
176
     1
 67
     7
176
     1
 79
     5
176
     1
170
     0
176
     1
171
     0
176
     1
290
     0
176
     1
 93
        1
176
     1
 44
0.0
176
     1
173
     0
176
     1
  0
ENDSEC
  0
EOF
