  0
SECTION
  2
HEADER
  9
$ACADVER
  1
AC1024
  9
$ACADMAINTVER
 70
     6
  9
$DWGCODEPAGE
  3
ANSI_932
  9
$INSBASE
 10
0.0
 20
0.0
 30
0.0
  9
$EXTMIN
 10
-6300.0
 20
-4455.0
 30
0.0
  9
$EXTMAX
 10
6300.0
 20
4455.0
 30
0.0
  9
$LIMMIN
 10
-6300.0
 20
-4455.0
  9
$LIMMAX
 10
6300.0
 20
4455.0
  9
$ORTHOMODE
 70
     0
  9
$REGENMODE
 70
     1
  9
$FILLMODE
 70
     1
  9
$QTEXTMODE
 70
     0
  9
$MIRRTEXT
 70
     1
  9
$LTSCALE
 40
30.0
  9
$ATTMODE
 70
     1
  9
$TEXTSIZE
 40
2.5
  9
$TRACEWID
 40
1.0
  9
$TEXTSTYLE
  7
Standard
  9
$CLAYER
  8
0
  9
$CELTYPE
  6
ByLayer
  9
$CECOLOR
 62
   256
  9
$CELTSCALE
 40
1.0
  9
$DISPSILH
 70
     0
  9
$DIMSCALE
 40
1.0
  9
$DIMASZ
 40
2.5
  9
$DIMEXO
 40
0.625
  9
$DIMDLI
 40
3.75
  9
$DIMRND
 40
0.0
  9
$DIMDLE
 40
0.0
  9
$DIMEXE
 40
1.25
  9
$DIMTP
 40
0.0
  9
$DIMTM
 40
0.0
  9
$DIMTXT
 40
2.5
  9
$DIMCEN
 40
2.5
  9
$DIMTSZ
 40
0.0
  9
$DIMTOL
 70
     0
  9
$DIMLIM
 70
     0
  9
$DIMTIH
 70
     0
  9
$DIMTOH
 70
     0
  9
$DIMSE1
 70
     0
  9
$DIMSE2
 70
     0
  9
$DIMTAD
 70
     1
  9
$DIMZIN
 70
     8
  9
$DIMBLK
  1

  9
$DIMASO
 70
     1
  9
$DIMSHO
 70
     1
  9
$DIMPOST
  1

  9
$DIMAPOST
  1

  9
$DIMALT
 70
     0
  9
$DIMALTD
 70
     3
  9
$DIMALTF
 40
0.03937007874016
  9
$DIMLFAC
 40
1.0
  9
$DIMTOFL
 70
     1
  9
$DIMTVP
 40
0.0
  9
$DIMTIX
 70
     0
  9
$DIMSOXD
 70
     0
  9
$DIMSAH
 70
     0
  9
$DIMBLK1
  1

  9
$DIMBLK2
  1

  9
$DIMSTYLE
  2
ISO-25
  9
$DIMCLRD
 70
     0
  9
$DIMCLRE
 70
     0
  9
$DIMCLRT
 70
     0
  9
$DIMTFAC
 40
1.0
  9
$DIMGAP
 40
0.625
  9
$DIMJUST
 70
     0
  9
$DIMSD1
 70
     0
  9
$DIMSD2
 70
     0
  9
$DIMTOLJ
 70
     0
  9
$DIMTZIN
 70
     8
  9
$DIMALTZ
 70
     0
  9
$DIMALTTZ
 70
     0
  9
$DIMUPT
 70
     0
  9
$DIMDEC
 70
     2
  9
$DIMTDEC
 70
     2
  9
$DIMALTU
 70
     2
  9
$DIMALTTD
 70
     3
  9
$DIMTXSTY
  7
Standard
  9
$DIMAUNIT
 70
     0
  9
$DIMADEC
 70
     0
  9
$DIMALTRND
 40
0.0
  9
$DIMAZIN
 70
     0
  9
$DIMDSEP
 70
    44
  9
$DIMATFIT
 70
     3
  9
$DIMFRAC
 70
     0
  9
$DIMLDRBLK
  1

  9
$DIMLUNIT
 70
     2
  9
$DIMLWD
 70
    -2
  9
$DIMLWE
 70
    -2
  9
$DIMTMOVE
 70
     0
  9
$DIMFXL
 40
1.0
  9
$DIMFXLON
 70
     0
  9
$DIMJOGANG
 40
0.7853981633974483
  9
$DIMTFILL
 70
     0
  9
$DIMTFILLCLR
 70
     0
  9
$DIMARCSYM
 70
     0
  9
$DIMLTYPE
  6

  9
$DIMLTEX1
  6

  9
$DIMLTEX2
  6

  9
$DIMTXTDIRECTION
 70
     0
  9
$LUNITS
 70
     2
  9
$LUPREC
 70
     4
  9
$SKETCHINC
 40
1.0
  9
$FILLETRAD
 40
10.0
  9
$AUNITS
 70
     0
  9
$AUPREC
 70
     0
  9
$MENU
  1
.
  9
$ELEVATION
 40
0.0
  9
$PELEVATION
 40
0.0
  9
$THICKNESS
 40
0.0
  9
$LIMCHECK
 70
     0
  9
$CHAMFERA
 40
10.0
  9
$CHAMFERB
 40
10.0
  9
$CHAMFERC
 40
20.0
  9
$CHAMFERD
 40
0.0
  9
$SKPOLY
 70
     0
  9
$TDCREATE
 40
2456763.390805984
  9
$TDUCREATE
 40
2456763.015805984
  9
$TDUPDATE
 40
2456763.390805996
  9
$TDUUPDATE
 40
2456763.015805996
  9
$TDINDWG
 40
0.0000000116
  9
$TDUSRTIMER
 40
0.0000000116
  9
$USRTIMER
 70
     1
  9
$ANGBASE
 50
0.0
  9
$ANGDIR
 70
     0
  9
$PDMODE
 70
     0
  9
$PDSIZE
 40
0.0
  9
$PLINEWID
 40
0.0
  9
$SPLFRAME
 70
     0
  9
$SPLINETYPE
 70
     6
  9
$SPLINESEGS
 70
     8
  9
$HANDSEED
  5
2C8
  9
$SURFTAB1
 70
     6
  9
$SURFTAB2
 70
     6
  9
$SURFTYPE
 70
     6
  9
$SURFU
 70
     6
  9
$SURFV
 70
     6
  9
$UCSBASE
  2

  9
$UCSNAME
  2

  9
$UCSORG
 10
0.0
 20
0.0
 30
0.0
  9
$UCSXDIR
 10
1.0
 20
0.0
 30
0.0
  9
$UCSYDIR
 10
0.0
 20
1.0
 30
0.0
  9
$UCSORTHOREF
  2

  9
$UCSORTHOVIEW
 70
     0
  9
$UCSORGTOP
 10
0.0
 20
0.0
 30
0.0
  9
$UCSORGBOTTOM
 10
0.0
 20
0.0
 30
0.0
  9
$UCSORGLEFT
 10
0.0
 20
0.0
 30
0.0
  9
$UCSORGRIGHT
 10
0.0
 20
0.0
 30
0.0
  9
$UCSORGFRONT
 10
0.0
 20
0.0
 30
0.0
  9
$UCSORGBACK
 10
0.0
 20
0.0
 30
0.0
  9
$PUCSBASE
  2

  9
$PUCSNAME
  2

  9
$PUCSORG
 10
0.0
 20
0.0
 30
0.0
  9
$PUCSXDIR
 10
1.0
 20
0.0
 30
0.0
  9
$PUCSYDIR
 10
0.0
 20
1.0
 30
0.0
  9
$PUCSORTHOREF
  2

  9
$PUCSORTHOVIEW
 70
     0
  9
$PUCSORGTOP
 10
0.0
 20
0.0
 30
0.0
  9
$PUCSORGBOTTOM
 10
0.0
 20
0.0
 30
0.0
  9
$PUCSORGLEFT
 10
0.0
 20
0.0
 30
0.0
  9
$PUCSORGRIGHT
 10
0.0
 20
0.0
 30
0.0
  9
$PUCSORGFRONT
 10
0.0
 20
0.0
 30
0.0
  9
$PUCSORGBACK
 10
0.0
 20
0.0
 30
0.0
  9
$USERI1
 70
     0
  9
$USERI2
 70
     0
  9
$USERI3
 70
     0
  9
$USERI4
 70
     0
  9
$USERI5
 70
     0
  9
$USERR1
 40
0.0
  9
$USERR2
 40
0.0
  9
$USERR3
 40
0.0
  9
$USERR4
 40
0.0
  9
$USERR5
 40
0.0
  9
$WORLDVIEW
 70
     1
  9
$SHADEDGE
 70
     3
  9
$SHADEDIF
 70
    70
  9
$TILEMODE
 70
     1
  9
$MAXACTVP
 70
    64
  9
$PINSBASE
 10
0.0
 20
0.0
 30
0.0
  9
$PLIMCHECK
 70
     0
  9
$PEXTMIN
 10
1.000000000000000E+20
 20
1.000000000000000E+20
 30
1.000000000000000E+20
  9
$PEXTMAX
 10
-1.000000000000000E+20
 20
-1.000000000000000E+20
 30
-1.000000000000000E+20
  9
$PLIMMIN
 10
0.0
 20
0.0
  9
$PLIMMAX
 10
420.0
 20
297.0
  9
$UNITMODE
 70
     0
  9
$VISRETAIN
 70
     1
  9
$PLINEGEN
 70
     0
  9
$PSLTSCALE
 70
     1
  9
$TREEDEPTH
 70
  3020
  9
$CMLSTYLE
  2
Standard
  9
$CMLJUST
 70
     0
  9
$CMLSCALE
 40
20.0
  9
$PROXYGRAPHICS
 70
     1
  9
$MEASUREMENT
 70
     1
  9
$CELWEIGHT
370
    -1
  9
$ENDCAPS
280
     0
  9
$JOINSTYLE
280
     0
  9
$LWDISPLAY
290
     0
  9
$INSUNITS
 70
     4
  9
$HYPERLINKBASE
  1

  9
$STYLESHEET
  1

  9
$XEDIT
290
     1
  9
$CEPSNTYPE
380
     0
  9
$PSTYLEMODE
290
     1
  9
$FINGERPRINTGUID
  2
{9069A55C-9388-4C09-9C32-2606401D7D7D}
  9
$VERSIONGUID
  2
{FAEB1C32-E019-11D5-929B-00C0DF256EC4}
  9
$EXTNAMES
290
     1
  9
$PSVPSCALE
 40
0.0
  9
$OLESTARTUP
290
     0
  9
$SORTENTS
280
   127
  9
$INDEXCTL
280
     0
  9
$HIDETEXT
280
     1
  9
$XCLIPFRAME
280
     2
  9
$HALOGAP
280
     0
  9
$OBSCOLOR
 70
   257
  9
$OBSLTYPE
280
     0
  9
$INTERSECTIONDISPLAY
280
     0
  9
$INTERSECTIONCOLOR
 70
   257
  9
$DIMASSOC
280
     2
  9
$PROJECTNAME
  1

  9
$CAMERADISPLAY
290
     0
  9
$LENSLENGTH
 40
50.0
  9
$CAMERAHEIGHT
 40
0.0
  9
$STEPSPERSEC
 40
2.0
  9
$STEPSIZE
 40
6.0
  9
$3DDWFPREC
 40
2.0
  9
$PSOLWIDTH
 40
5.0
  9
$PSOLHEIGHT
 40
80.0
  9
$LOFTANG1
 40
1.570796326794897
  9
$LOFTANG2
 40
1.570796326794897
  9
$LOFTMAG1
 40
0.0
  9
$LOFTMAG2
 40
0.0
  9
$LOFTPARAM
 70
     7
  9
$LOFTNORMALS
280
     1
  9
$LATITUDE
 40
37.795
  9
$LONGITUDE
 40
-122.394
  9
$NORTHDIRECTION
 40
0.0
  9
$TIMEZONE
 70
 -8000
  9
$LIGHTGLYPHDISPLAY
280
     1
  9
$TILEMODELIGHTSYNCH
280
     1
  9
$SOLIDHIST
280
     1
  9
$SHOWHIST
280
     1
  9
$DWFFRAME
280
     2
  9
$DGNFRAME
280
     2
  9
$REALWORLDSCALE
290
     1
  9
$INTERFERECOLOR
 62
   256
  9
$CSHADOW
280
     0
  9
$SHADOWPLANELOCATION
 40
0.0
  0
ENDSEC
  0
SECTION
  2
CLASSES
  0
CLASS
  1
ACDBDICTIONARYWDFLT
  2
AcDbDictionaryWithDefault
  3
ObjectDBX Classes
 90
        0
 91
        4
280
     0
281
     0
  0
CLASS
  1
VISUALSTYLE
  2
AcDbVisualStyle
  3
ObjectDBX Classes
 90
     4095
 91
        4
280
     0
281
     0
  0
CLASS
  1
MATERIAL
  2
AcDbMaterial
  3
ObjectDBX Classes
 90
     1153
 91
        4
280
     0
281
     0
  0
ENDSEC
  0
SECTION
  2
TABLES
  0
TABLE
  2
VPORT
  5
8
330
0
100
AcDbSymbolTable
 70
     1
  0
VPORT
  5
29
330
8
100
AcDbSymbolTableRecord
100
AcDbViewportTableRecord
  2
*Active
 70
     0
 10
0.0
 20
0.0
 11
1.0
 21
1.0
 12
0.0
 22
0.0
 13
0.0
 23
0.0
 14
10.0
 24
10.0
 15
10.0
 25
10.0
 16
0.0
 26
0.0
 36
1.0
 17
0.0
 27
0.0
 37
0.0
 40
9801.0
 41
1.414141414141414
 42
50.0
 43
0.0
 44
0.0
 50
0.0
 51
0.0
 71
     0
 72
 10000
 73
     1
 74
     3
 75
     0
 76
     0
 77
     0
 78
     0
281
     0
 65
     1
110
0.0
120
0.0
130
0.0
111
1.0
121
0.0
131
0.0
112
0.0
122
1.0
132
0.0
 79
     0
146
0.0
 60
     3
 61
     5
292
     1
282
     1
141
0.0
142
0.0
 63
   250
  0
ENDTAB
  0
TABLE
  2
LTYPE
  5
5
330
0
100
AcDbSymbolTable
 70
     3
  0
LTYPE
  5
14
330
5
100
AcDbSymbolTableRecord
100
AcDbLinetypeTableRecord
  2
ByBlock
 70
     0
  3

 72
    65
 73
     0
 40
0.0
  0
LTYPE
  5
15
330
5
100
AcDbSymbolTableRecord
100
AcDbLinetypeTableRecord
  2
ByLayer
 70
     0
  3

 72
    65
 73
     0
 40
0.0
  0
LTYPE
  5
16
330
5
100
AcDbSymbolTableRecord
100
AcDbLinetypeTableRecord
  2
Continuous
 70
     0
  3
Solid line
 72
    65
 73
     0
 40
0.0
  0
LTYPE
  5
41
330
5
100
AcDbSymbolTableRecord
100
AcDbLinetypeTableRecord
  2
JWW_HOJO
 70
     0
  3
  -   -   -   -   -   -   -   - 
 72
    65
 73
     2
 40
1.693333333333333
 49
-1.27
 74
     0
 49
0.4233333333333333
 74
     0
  0
LTYPE
  5
42
330
5
100
AcDbSymbolTableRecord
100
AcDbLinetypeTableRecord
  2
JWW_CENTER1
 70
     0
  3
-----  --  ----------  --  -----
 72
    65
 73
     4
 40
3.386666666666667
 49
2.116666666666667
 74
     0
 49
-0.4233333333333333
 74
     0
 49
0.4233333333333333
 74
     0
 49
-0.4233333333333333
 74
     0
  0
ENDTAB
  0
TABLE
  2
LAYER
  5
2
330
0
100
AcDbSymbolTable
 70
    13
  0
LAYER
  5
10
330
2
100
AcDbSymbolTableRecord
100
AcDbLayerTableRecord
  2
0
 70
     0
 62
     7
  6
Continuous
370
    -3
390
F
347
3E
  0
LAYER
  5
43
330
2
100
AcDbSymbolTableRecord
100
AcDbLayerTableRecord
  2
0-1_本体
 70
     0
 62
     7
  6
Continuous
370
    -3
390
F
347
3E
  0
LAYER
  5
44
330
2
100
AcDbSymbolTableRecord
100
AcDbLayerTableRecord
  2
F-1_枠
 70
     0
 62
     7
  6
Continuous
370
    -3
390
F
347
3E
  0
LAYER
  5
45
330
2
100
AcDbSymbolTableRecord
100
AcDbLayerTableRecord
  2
F-0_補助線
 70
     0
 62
     7
  6
Continuous
370
    -3
390
F
347
3E
  0
LAYER
  5
46
330
2
100
AcDbSymbolTableRecord
100
AcDbLayerTableRecord
  2
F-A_文字
 70
     0
 62
     7
  6
Continuous
370
    -3
390
F
347
3E
  0
LAYER
  5
47
330
2
100
AcDbSymbolTableRecord
100
AcDbLayerTableRecord
  2
0-B_寸法
 70
     0
 62
     7
  6
Continuous
370
    -3
390
F
347
3E
  0
LAYER
  5
48
330
2
100
AcDbSymbolTableRecord
100
AcDbLayerTableRecord
  2
0-6_桟木
 70
     0
 62
     7
  6
Continuous
370
    -3
390
F
347
3E
  0
LAYER
  5
49
330
2
100
AcDbSymbolTableRecord
100
AcDbLayerTableRecord
  2
0-0_補助線
 70
     0
 62
     7
  6
Continuous
370
    -3
390
F
347
3E
  0
LAYER
  5
4A
330
2
100
AcDbSymbolTableRecord
100
AcDbLayerTableRecord
  2
0-4_棚
 70
     0
 62
     7
  6
Continuous
370
    -3
390
F
347
3E
  0
LAYER
  5
4B
330
2
100
AcDbSymbolTableRecord
100
AcDbLayerTableRecord
  2
0-5_ダボ
 70
     0
 62
     7
  6
Continuous
370
    -3
390
F
347
3E
  0
LAYER
  5
4C
330
2
100
AcDbSymbolTableRecord
100
AcDbLayerTableRecord
  2
0-2_扉
 70
     0
 62
     7
  6
Continuous
370
    -3
390
F
347
3E
  0
LAYER
  5
4D
330
2
100
AcDbSymbolTableRecord
100
AcDbLayerTableRecord
  2
0-A_文字
 70
     0
 62
     7
  6
Continuous
370
    -3
390
F
347
3E
  0
LAYER
  5
4E
330
2
100
AcDbSymbolTableRecord
100
AcDbLayerTableRecord
  2
0-7__
 70
     0
 62
     7
  6
Continuous
370
    -3
390
F
347
3E
  0
ENDTAB
  0
TABLE
  2
STYLE
  5
3
330
0
100
AcDbSymbolTable
 70
     3
  0
STYLE
  5
11
330
3
100
AcDbSymbolTableRecord
100
AcDbTextStyleTableRecord
  2
Standard
 70
     0
 40
0.0
 41
1.0
 50
0.0
 71
     0
 42
2.5
  3
txt
  4

  0
STYLE
  5
3F
330
3
100
AcDbSymbolTableRecord
100
AcDbTextStyleTableRecord
  2
ＭＳ ゴシック
 70
     0
 40
1.0
 41
1.0
 50
0.0
 71
     0
 42
10.0
  3

  4

1001
ACAD
1000
MS Gothic
1071
    32817
  0
STYLE
  5
40
330
3
100
AcDbSymbolTableRecord
100
AcDbTextStyleTableRecord
  2
HG明朝B
 70
     0
 40
1.0
 41
1.0
 50
0.0
 71
     0
 42
10.0
  3

  4

1001
ACAD
1000
HGMinchoB
1071
    32785
  0
ENDTAB
  0
TABLE
  2
VIEW
  5
6
330
0
100
AcDbSymbolTable
 70
     0
  0
ENDTAB
  0
TABLE
  2
UCS
  5
7
330
0
100
AcDbSymbolTable
 70
     0
  0
ENDTAB
  0
TABLE
  2
APPID
  5
9
330
0
100
AcDbSymbolTable
 70
     1
  0
APPID
  5
12
330
9
100
AcDbSymbolTableRecord
100
AcDbRegAppTableRecord
  2
ACAD
 70
     0
  0
ENDTAB
  0
TABLE
  2
DIMSTYLE
  5
A
330
0
100
AcDbSymbolTable
 70
     1
100
AcDbDimStyleTable
  0
DIMSTYLE
105
27
330
A
100
AcDbSymbolTableRecord
100
AcDbDimStyleTableRecord
  2
ISO-25
 70
     0
 41
2.5
 42
0.625
 43
3.75
 44
1.25
 73
     0
 74
     0
 77
     1
 78
     8
140
2.5
141
2.5
143
0.03937007874016
147
0.625
171
     3
172
     1
178
     0
271
     2
272
     2
274
     3
278
    44
283
     0
284
     8
340
11
  0
ENDTAB
  0
TABLE
  2
BLOCK_RECORD
  5
1
330
0
100
AcDbSymbolTable
 70
     1
  0
BLOCK_RECORD
  5
1F
330
1
100
AcDbSymbolTableRecord
100
AcDbBlockTableRecord
  2
*Model_Space
340
22
 70
     0
280
     1
281
     0
  0
BLOCK_RECORD
  5
1B
330
1
100
AcDbSymbolTableRecord
100
AcDbBlockTableRecord
  2
*Paper_Space
340
1E
 70
     0
280
     1
281
     0
  0
BLOCK_RECORD
  5
23
330
1
100
AcDbSymbolTableRecord
100
AcDbBlockTableRecord
  2
*Paper_Space0
340
26
 70
     0
280
     1
281
     0
  0
ENDTAB
  0
ENDSEC
  0
SECTION
  2
BLOCKS
  0
BLOCK
  5
20
330
1F
100
AcDbEntity
  8
0
100
AcDbBlockBegin
  2
*Model_Space
 70
     0
 10
0.0
 20
0.0
 30
0.0
  3
*Model_Space
  1

  0
ENDBLK
  5
21
330
1F
100
AcDbEntity
  8
0
100
AcDbBlockEnd
  0
BLOCK
  5
1C
330
1B
100
AcDbEntity
 67
     1
  8
0
100
AcDbBlockBegin
  2
*Paper_Space
 70
     0
 10
0.0
 20
0.0
 30
0.0
  3
*Paper_Space
  1

  0
ENDBLK
  5
1D
330
1B
100
AcDbEntity
 67
     1
  8
0
100
AcDbBlockEnd
  0
BLOCK
  5
24
330
23
100
AcDbEntity
  8
0
100
AcDbBlockBegin
  2
*Paper_Space0
 70
     0
 10
0.0
 20
0.0
 30
0.0
  3
*Paper_Space0
  1

  0
ENDBLK
  5
25
330
23
100
AcDbEntity
  8
0
100
AcDbBlockEnd
  0
ENDSEC
  0
SECTION
  2
ENTITIES
  0
LINE
  5
4F
330
1F
100
AcDbEntity
  8
0-1_本体
  6
Continuous
 62
     7
370
     9
100
AcDbLine
 10
-953.5719265683233
 20
268.6852480854053
 30
0.0
 11
-1557.321636886989
 21
268.6852480854053
 31
0.0
  0
LINE
  5
50
330
1F
100
AcDbEntity
  8
0-1_本体
  6
Continuous
 62
     7
370
     9
100
AcDbLine
 10
-953.5719265683233
 20
246.1852480854053
 30
0.0
 11
-1557.321636886989
 21
246.1852480854053
 31
0.0
  0
LINE
  5
51
330
1F
100
AcDbEntity
  8
0-1_本体
  6
Continuous
 62
     7
370
     9
100
AcDbLine
 10
-343.8216368869891
 20
268.6852480854053
 30
0.0
 11
-947.5713472056564
 21
268.6852480854053
 31
0.0
  0
LINE
  5
52
330
1F
100
AcDbEntity
  8
0-1_本体
  6
Continuous
 62
     7
370
     9
100
AcDbLine
 10
-343.8216368869891
 20
246.1852480854053
 30
0.0
 11
-947.5713472056564
 21
246.1852480854053
 31
0.0
  0
LINE
  5
53
330
1F
100
AcDbEntity
  8
0-1_本体
  6
Continuous
 62
     7
370
     9
100
AcDbLine
 10
-953.5719265683233
 20
-1.314751914594723
 30
0.0
 11
-1557.321636886989
 21
-1.314751914594723
 31
0.0
  0
LINE
  5
54
330
1F
100
AcDbEntity
  8
0-1_本体
  6
Continuous
 62
     7
370
     9
100
AcDbLine
 10
-953.5719265683233
 20
-23.81475191459472
 30
0.0
 11
-1557.321636886989
 21
-23.81475191459472
 31
0.0
  0
LINE
  5
55
330
1F
100
AcDbEntity
  8
0-1_本体
  6
Continuous
 62
     7
370
     9
100
AcDbLine
 10
-343.8216368869891
 20
-1.314751914594723
 30
0.0
 11
-947.5713472056564
 21
-1.314751914594723
 31
0.0
  0
LINE
  5
56
330
1F
100
AcDbEntity
  8
0-1_本体
  6
Continuous
 62
     7
370
     9
100
AcDbLine
 10
-343.8216368869891
 20
-23.81475191459472
 30
0.0
 11
-947.5713472056564
 21
-23.81475191459472
 31
0.0
  0
LINE
  5
57
330
1F
100
AcDbEntity
  8
F-1_枠
  6
Continuous
 62
   200
370
    20
100
AcDbLine
 10
5689.998977248734
 20
4174.999769056166
 30
0.0
 11
5689.998977248734
 21
-4195.000217025344
 31
0.0
  0
LINE
  5
58
330
1F
100
AcDbEntity
  8
F-0_補助線
  6
JWW_HOJO
 62
   120
370
     5
100
AcDbLine
 10
-6300.0
 20
-4455.0
 30
0.0
 11
-6300.0
 21
4424.999604096284
 31
0.0
  0
LINE
  5
59
330
1F
100
AcDbEntity
  8
F-0_補助線
  6
JWW_HOJO
 62
   120
370
     5
100
AcDbLine
 10
-6300.0
 20
4424.999604096284
 30
0.0
 11
5999.999010240709
 21
4424.999604096284
 31
0.0
  0
LINE
  5
5A
330
1F
100
AcDbEntity
  8
F-0_補助線
  6
JWW_HOJO
 62
   120
370
     5
100
AcDbLine
 10
5999.999010240709
 20
4424.999604096284
 30
0.0
 11
5999.999010240709
 21
-4455.0
 31
0.0
  0
LINE
  5
5B
330
1F
100
AcDbEntity
  8
F-0_補助線
  6
JWW_HOJO
 62
   120
370
     5
100
AcDbLine
 10
5999.999010240709
 20
-4455.0
 30
0.0
 11
-6300.0
 21
-4455.0
 31
0.0
  0
LINE
  5
5C
330
1F
100
AcDbEntity
  8
F-1_枠
  6
Continuous
 62
   200
370
    20
100
AcDbLine
 10
-5999.999752560178
 20
4174.999769056166
 30
0.0
 11
5699.998762800888
 21
4174.999769056166
 31
0.0
  0
LINE
  5
5D
330
1F
100
AcDbEntity
  8
F-1_枠
  6
Continuous
 62
   200
370
    20
100
AcDbLine
 10
-5999.999752560178
 20
4164.999983504013
 30
0.0
 11
5699.998762800888
 21
4164.999983504013
 31
0.0
  0
LINE
  5
5E
330
1F
100
AcDbEntity
  8
F-1_枠
  6
Continuous
 62
   200
370
    20
100
AcDbLine
 10
-5999.999752560178
 20
4169.999505120355
 30
0.0
 11
5699.998762800888
 21
4169.999505120355
 31
0.0
  0
LINE
  5
5F
330
1F
100
AcDbEntity
  8
F-1_枠
  6
Continuous
 62
   200
370
    20
100
AcDbLine
 10
5694.998498865077
 20
4174.999769056166
 30
0.0
 11
5694.998498865077
 21
-4195.000217025344
 31
0.0
  0
LINE
  5
60
330
1F
100
AcDbEntity
  8
F-1_枠
  6
Continuous
 62
   200
370
    20
100
AcDbLine
 10
5699.998762800888
 20
4174.999769056166
 30
0.0
 11
5699.998762800888
 21
-4195.000217025344
 31
0.0
  0
LINE
  5
61
330
1F
100
AcDbEntity
  8
F-1_枠
  6
Continuous
 62
   200
370
    20
100
AcDbLine
 10
-5999.99998453501
 20
4174.999769056166
 30
0.0
 11
-5999.99998453501
 21
-4195.000217025344
 31
0.0
  0
LINE
  5
62
330
1F
100
AcDbEntity
  8
F-1_枠
  6
Continuous
 62
   200
370
    20
100
AcDbLine
 10
-5994.999975771518
 20
4174.999769056166
 30
0.0
 11
-5994.999975771518
 21
-4195.000217025344
 31
0.0
  0
LINE
  5
63
330
1F
100
AcDbEntity
  8
F-1_枠
  6
Continuous
 62
   200
370
    20
100
AcDbLine
 10
-5989.999990205507
 20
4174.999769056166
 30
0.0
 11
-5989.999990205507
 21
-4195.000217025344
 31
0.0
  0
TEXT
  5
64
330
1F
100
AcDbEntity
  8
F-A_文字
  6
Continuous
 62
     7
370
     0
100
AcDbText
 10
-60.0001237199109
 20
-3861.539872937397
 30
0.0
 40
45.72
  1
図面名
  7
ＭＳ ゴシック
100
AcDbText
  0
TEXT
  5
65
330
1F
100
AcDbEntity
  8
F-A_文字
  6
Continuous
 62
     7
370
     0
100
AcDbText
 10
2779.998729808911
 20
-3861.542512683236
 30
0.0
 40
45.72
  1
ＳＣＡＬＥ
  7
ＭＳ ゴシック
100
AcDbText
  0
TEXT
  5
66
330
1F
100
AcDbEntity
  8
F-A_文字
  6
Continuous
 62
     7
370
     0
100
AcDbText
 10
4279.999224688556
 20
-3861.543906916216
 30
0.0
 40
45.72
  1
ＤＡＴＥ
  7
ＭＳ ゴシック
100
AcDbText
  0
TEXT
  5
67
330
1F
100
AcDbEntity
  8
F-A_文字
  6
Continuous
 62
     7
370
     0
100
AcDbText
 10
4778.749126529666
 20
-3909.814562205428
 30
0.0
 40
68.58
  1
07.06.01
 41
1.145833333333333
  7
ＭＳ ゴシック
100
AcDbText
  0
TEXT
  5
68
330
1F
100
AcDbEntity
  8
F-A_文字
  6
Continuous
 62
     7
370
     0
100
AcDbText
 10
1180.417701903719
 20
-3917.310213665301
 30
0.0
 40
68.58
  1
造り付け家具
 41
1.138888888888889
  7
ＭＳ ゴシック
100
AcDbText
  0
TEXT
  5
69
330
1F
100
AcDbEntity
  8
F-A_文字
  6
Continuous
 62
     7
370
     0
100
AcDbText
 10
3383.748977248734
 20
-3917.31316797277
 30
0.0
 40
68.58
  1
1/20
 41
1.125
  7
ＭＳ ゴシック
100
AcDbText
  0
TEXT
  5
6A
330
1F
100
AcDbEntity
  8
F-A_文字
  6
Continuous
 62
     7
370
     0
100
AcDbText
 10
349.9999175200594
 20
-3918.097343937965
 30
0.0
 40
66.06
  1
ＳＯＦＴＡＲＴ
 41
0.8333333333333334
  7
HG明朝B
100
AcDbText
  0
LINE
  5
6B
330
1F
100
AcDbEntity
  8
F-0_補助線
  6
JWW_HOJO
 62
     7
370
     9
100
AcDbLine
 10
849.9995876002961
 20
-3785.00005515846
 30
0.0
 11
849.9995876002961
 21
-4185.000060313456
 31
0.0
  0
LINE
  5
6C
330
1F
100
AcDbEntity
  8
F-0_補助線
  6
JWW_HOJO
 62
     7
370
     9
100
AcDbLine
 10
349.9999175200594
 20
-3785.00005515846
 30
0.0
 11
349.9999175200594
 21
-4185.000060313456
 31
0.0
  0
LINE
  5
6D
330
1F
100
AcDbEntity
  8
F-1_枠
  6
Continuous
 62
   200
370
    20
100
AcDbLine
 10
5699.998762800888
 20
-4195.00005464296
 30
0.0
 11
-5999.999752560178
 21
-4195.00005464296
 31
0.0
  0
LINE
  5
6E
330
1F
100
AcDbEntity
  8
F-1_枠
  6
Continuous
 62
   200
370
    20
100
AcDbLine
 10
5699.998762800888
 20
-4190.000045879467
 30
0.0
 11
-5999.999752560178
 21
-4190.000045879467
 31
0.0
  0
LINE
  5
6F
330
1F
100
AcDbEntity
  8
F-1_枠
  6
Continuous
 62
   200
370
    20
100
AcDbLine
 10
5699.998762800888
 20
-4185.000060313456
 30
0.0
 11
-5999.999752560178
 21
-4185.000060313456
 31
0.0
  0
LINE
  5
70
330
1F
100
AcDbEntity
  8
F-1_枠
  6
Continuous
 62
   200
370
    20
100
AcDbLine
 10
4189.999224688556
 20
-3785.00005515846
 30
0.0
 11
4189.999224688556
 21
-4185.000060313456
 31
0.0
  0
LINE
  5
71
330
1F
100
AcDbEntity
  8
F-1_枠
  6
Continuous
 62
   200
370
    20
100
AcDbLine
 10
2689.998729808911
 20
-3785.00005515846
 30
0.0
 11
2689.998729808911
 21
-4185.000060313456
 31
0.0
  0
LINE
  5
72
330
1F
100
AcDbEntity
  8
F-1_枠
  6
Continuous
 62
   200
370
    20
100
AcDbLine
 10
-150.0001237199109
 20
-3785.00005515846
 30
0.0
 11
-150.0001237199109
 21
-4185.000060313456
 31
0.0
  0
LINE
  5
73
330
1F
100
AcDbEntity
  8
F-1_枠
  6
Continuous
 62
   200
370
    20
100
AcDbLine
 10
-150.0001237199109
 20
-3984.999988143508
 30
0.0
 11
5689.998977248734
 21
-3985.005416354617
 31
0.0
  0
LINE
  5
74
330
1F
100
AcDbEntity
  8
F-0_補助線
  6
JWW_HOJO
 62
     7
370
     9
100
AcDbLine
 10
-5989.999990205507
 20
-3984.999988143853
 30
0.0
 11
-150.0001237199109
 21
-3984.999988143853
 31
0.0
  0
LINE
  5
75
330
1F
100
AcDbEntity
  8
F-0_補助線
  6
JWW_HOJO
 62
     7
370
     9
100
AcDbLine
 10
-5989.999990205507
 20
-3894.999988143853
 30
0.0
 11
-150.0001237199109
 21
-3894.999988143853
 31
0.0
  0
LINE
  5
76
330
1F
100
AcDbEntity
  8
F-0_補助線
  6
JWW_HOJO
 62
     7
370
     9
100
AcDbLine
 10
-5989.999990205507
 20
-4074.999988143853
 30
0.0
 11
-150.0001237199109
 21
-4074.999988143853
 31
0.0
  0
LINE
  5
77
330
1F
100
AcDbEntity
  8
F-0_補助線
  6
JWW_HOJO
 62
     7
370
     9
100
AcDbLine
 10
-150.0002584955388
 20
-4129.999791843446
 30
0.0
 11
5689.998842473105
 21
-4130.005220054553
 31
0.0
  0
LINE
  5
78
330
1F
100
AcDbEntity
  8
F-0_補助線
  6
JWW_HOJO
 62
     7
370
     9
100
AcDbLine
 10
-150.0001748415872
 20
-4039.999791843484
 30
0.0
 11
5689.998926127057
 21
-4040.005220054593
 31
0.0
  0
LINE
  5
79
330
1F
100
AcDbEntity
  8
F-0_補助線
  6
JWW_HOJO
 62
     7
370
     9
100
AcDbLine
 10
-150.0000725978671
 20
-3929.999789283532
 30
0.0
 11
5689.999028370777
 21
-3930.005217494641
 31
0.0
  0
LINE
  5
7A
330
1F
100
AcDbEntity
  8
F-0_補助線
  6
JWW_HOJO
 62
     7
370
     9
100
AcDbLine
 10
-149.9999889439155
 20
-3839.999789283571
 30
0.0
 11
5689.999112024728
 21
-3840.00521749468
 31
0.0
  0
LINE
  5
7B
330
1F
100
AcDbEntity
  8
F-0_補助線
  6
JWW_HOJO
 62
     7
370
     9
100
AcDbLine
 10
2779.998729808911
 20
-3785.00005515846
 30
0.0
 11
2779.998729808911
 21
-4185.000060313456
 31
0.0
  0
LINE
  5
7C
330
1F
100
AcDbEntity
  8
F-0_補助線
  6
JWW_HOJO
 62
     7
370
     9
100
AcDbLine
 10
-60.0001237199109
 20
-3785.00005515846
 30
0.0
 11
-60.0001237199109
 21
-4185.000060313456
 31
0.0
  0
LINE
  5
7D
330
1F
100
AcDbEntity
  8
F-0_補助線
  6
JWW_HOJO
 62
     7
370
     9
100
AcDbLine
 10
4279.999224688556
 20
-3785.00005515846
 30
0.0
 11
4279.999224688556
 21
-4185.000060313456
 31
0.0
  0
TEXT
  5
7E
330
1F
100
AcDbEntity
  8
F-A_文字
  6
Continuous
 62
     7
370
     0
100
AcDbText
 10
2779.998729808911
 20
-4061.542515243322
 30
0.0
 40
45.72
  1
ＦＩＬＥ
  7
ＭＳ ゴシック
100
AcDbText
  0
TEXT
  5
7F
330
1F
100
AcDbEntity
  8
F-A_文字
  6
Continuous
 62
     7
370
     0
100
AcDbText
 10
4279.999224688556
 20
-4061.543909476301
 30
0.0
 40
45.72
  1
ＮＯ．
  7
ＭＳ ゴシック
100
AcDbText
  0
TEXT
  5
80
330
1F
100
AcDbEntity
  8
F-A_文字
  6
Continuous
 62
     7
370
     0
100
AcDbText
 10
1234.998729808911
 20
-4070.54072133161
 30
0.0
 40
45.72
  1
株式
  7
ＭＳ ゴシック
100
AcDbText
  0
TEXT
  5
81
330
1F
100
AcDbEntity
  8
F-A_文字
  6
Continuous
 62
     7
370
     0
100
AcDbText
 10
1444.998729808911
 20
-4128.08243158939
 30
0.0
 40
91.44
  1
ウッドワン・・・
 41
1.109375
  7
ＭＳ ゴシック
100
AcDbText
  0
TEXT
  5
82
330
1F
100
AcDbEntity
  8
F-A_文字
  6
Continuous
 62
     7
370
     0
100
AcDbText
 10
1234.998729808911
 20
-4142.540721331648
 30
0.0
 40
45.72
  1
会社
  7
ＭＳ ゴシック
100
AcDbText
  0
TEXT
  5
83
330
1F
100
AcDbEntity
  8
F-A_文字
  6
Continuous
 62
     7
370
     0
100
AcDbText
 10
5608.403311109712
 20
-4281.441308703997
 30
0.0
 40
68.58
  1
）
  7
ＭＳ ゴシック
100
AcDbText
  0
LINE
  5
84
330
1F
100
AcDbEntity
  8
F-1_枠
  6
Continuous
 62
   200
370
    20
100
AcDbLine
 10
5699.998762800888
 20
-3785.00005515846
 30
0.0
 11
-5999.999752560178
 21
-3785.00005515846
 31
0.0
  0
LINE
  5
85
330
1F
100
AcDbEntity
  8
F-1_枠
  6
Continuous
 62
   200
370
    20
100
AcDbLine
 10
5699.998762800888
 20
-3780.00006959245
 30
0.0
 11
-5999.999752560178
 21
-3780.00006959245
 31
0.0
  0
LINE
  5
86
330
1F
100
AcDbEntity
  8
F-0_補助線
  6
JWW_HOJO
 62
     7
370
     9
100
AcDbLine
 10
-5247.547376752838
 20
-3785.000055158461
 30
0.0
 11
-5247.547376752838
 21
-4195.000217025344
 31
0.0
  0
LINE
  5
87
330
1F
100
AcDbEntity
  8
F-0_補助線
  6
JWW_HOJO
 62
     7
370
     9
100
AcDbLine
 10
-210.0001237199109
 20
-3785.00005515846
 30
0.0
 11
-210.0001237199109
 21
-4185.000060313456
 31
0.0
  0
TEXT
  5
88
330
1F
100
AcDbEntity
  8
F-A_文字
  6
Continuous
 62
     7
370
     0
100
AcDbText
 10
5190.195950842071
 20
-4282.835333552935
 30
0.0
 40
68.58
  1
,
  7
ＭＳ ゴシック
100
AcDbText
  0
TEXT
  5
89
330
1F
100
AcDbEntity
  8
F-A_文字
  6
Continuous
 62
     7
370
     0
100
AcDbText
 10
4923.937261915373
 20
-4284.22935697136
 30
0.0
 40
68.58
  1
$y
 41
1.083333333333333
  7
ＭＳ ゴシック
100
AcDbText
  0
TEXT
  5
8A
330
1F
100
AcDbEntity
  8
F-A_文字
  6
Continuous
 62
     7
370
     0
100
AcDbText
 10
5078.673982954195
 20
-4284.22935697136
 30
0.0
 40
68.58
  1
$m
 41
1.083333333333333
  7
ＭＳ ゴシック
100
AcDbText
  0
TEXT
  5
8B
330
1F
100
AcDbEntity
  8
F-A_文字
  6
Continuous
 62
     7
370
     0
100
AcDbText
 10
5233.410715437103
 20
-4284.22935697136
 30
0.0
 40
68.58
  1
$d
 41
1.083333333333333
  7
ＭＳ ゴシック
100
AcDbText
  0
TEXT
  5
8C
330
1F
100
AcDbEntity
  8
F-A_文字
  6
Continuous
 62
     7
370
     0
100
AcDbText
 10
5388.147447920011
 20
-4284.22935697136
 30
0.0
 40
68.58
  1
印刷
 41
1.083333333333333
  7
ＭＳ ゴシック
100
AcDbText
  0
TEXT
  5
8D
330
1F
100
AcDbEntity
  8
F-A_文字
  6
Continuous
 62
     7
370
     0
100
AcDbText
 10
4784.033374252999
 20
-4285.62338325081
 30
0.0
 40
68.58
  1
（
  7
ＭＳ ゴシック
100
AcDbText
  0
TEXT
  5
8E
330
1F
100
AcDbEntity
  8
F-A_文字
  6
Continuous
 62
     7
370
     0
100
AcDbText
 10
5031.277143812345
 20
-4285.62338325081
 30
0.0
 40
68.58
  1
,
  7
ＭＳ ゴシック
100
AcDbText
  0
TEXT
  5
8F
330
1F
100
AcDbEntity
  8
F-A_文字
  6
Continuous
 62
     7
370
     9
100
AcDbText
 10
3304.998977248734
 20
-4117.313170532875
 30
0.0
 40
68.58
  1
MQP_C02
 41
1.142857142857143
  7
ＭＳ ゴシック
100
AcDbText
  0
TEXT
  5
90
330
1F
100
AcDbEntity
  8
F-A_文字
  6
Continuous
 62
     7
370
     9
100
AcDbText
 10
4936.249033580831
 20
-4117.314564765447
 30
0.0
 40
68.58
  1
04
 41
1.083333333333333
  7
ＭＳ ゴシック
100
AcDbText
  0
LINE
  5
91
330
1F
100
AcDbEntity
  8
0-1_本体
  6
Continuous
 62
    40
370
    15
100
AcDbLine
 10
3940.71425795005
 20
-321.5647519145942
 30
0.0
 11
3328.714257950054
 21
-321.5647519145942
 31
0.0
  0
LINE
  5
92
330
1F
100
AcDbEntity
  8
0-1_本体
  6
Continuous
 62
    40
370
    15
100
AcDbLine
 10
3328.714257950054
 20
-321.5647519145942
 30
0.0
 11
3328.714257950054
 21
-297.5647519145934
 31
0.0
  0
LINE
  5
93
330
1F
100
AcDbEntity
  8
0-1_本体
  6
Continuous
 62
     7
370
     9
100
AcDbLine
 10
3328.714257950054
 20
-321.5643741270083
 30
0.0
 11
3328.714257950054
 21
-471.5647519145942
 31
0.0
  0
LINE
  5
94
330
1F
100
AcDbEntity
  8
0-1_本体
  6
Continuous
 62
     7
370
     9
100
AcDbLine
 10
3940.71425795005
 20
-321.5647519145942
 30
0.0
 11
3940.71425795005
 21
-471.5647519145942
 31
0.0
  0
LINE
  5
95
330
1F
100
AcDbEntity
  8
0-B_寸法
  6
Continuous
 62
   120
370
     5
100
AcDbLine
 10
3328.714257950049
 20
-846.5647519145942
 30
0.0
 11
3328.714257950049
 21
-546.5647519145942
 31
0.0
  0
LINE
  5
96
330
1F
100
AcDbEntity
  8
0-B_寸法
  6
Continuous
 62
   120
370
     5
100
AcDbLine
 10
3328.714257950049
 20
-846.5647519145942
 30
0.0
 11
3940.71425795005
 21
-846.5647519145942
 31
0.0
  0
LWPOLYLINE
  5
97
330
1F
100
AcDbEntity
  8
0-B_寸法
  6
Continuous
 62
     7
370
     9
100
AcDbPolyline
 90
        4
 70
     1
 43
3.0
 10
3330.214257950049
 20
-846.5647519145942
 42
0.4142135623731
 10
3328.714257950049
 20
-845.0647519145942
 42
0.4142135623731
 10
3327.214257950049
 20
-846.5647519145942
 42
0.4142135623731
 10
3328.714257950049
 20
-848.0647519145942
 42
0.4142135623731
  0
LWPOLYLINE
  5
98
330
1F
100
AcDbEntity
  8
0-B_寸法
  6
Continuous
 62
     7
370
     9
100
AcDbPolyline
 90
        4
 70
     1
 43
3.0
 10
3942.214257950051
 20
-846.5647519145942
 42
0.4142135623731
 10
3940.71425795005
 20
-845.0647519145942
 42
0.4142135623731
 10
3939.21425795005
 20
-846.5647519145942
 42
0.4142135623731
 10
3940.71425795005
 20
-848.0647519145942
 42
0.4142135623731
  0
LINE
  5
99
330
1F
100
AcDbEntity
  8
0-B_寸法
  6
Continuous
 62
   120
370
     5
100
AcDbLine
 10
3940.71425795005
 20
-846.5647519145942
 30
0.0
 11
3940.71425795005
 21
-546.5647519145942
 31
0.0
  0
TEXT
  5
9A
330
1F
100
AcDbEntity
  8
0-B_寸法
  6
Continuous
 62
     7
370
   211
100
AcDbText
 10
3559.714257950049
 20
-818.8747519145942
 30
0.0
 40
68.58
  1
408
 41
1.111111111111111
  7
ＭＳ ゴシック
100
AcDbText
  0
LINE
  5
9B
330
1F
100
AcDbEntity
  8
0-1_本体
  6
Continuous
 62
    40
370
    15
100
AcDbLine
 10
3328.714257950054
 20
696.9352480854059
 30
0.0
 11
3940.71425795005
 21
696.9352480854059
 31
0.0
  0
LINE
  5
9C
330
1F
100
AcDbEntity
  8
0-1_本体
  6
Continuous
 62
    40
370
    15
100
AcDbLine
 10
3328.714257950054
 20
674.4352480854059
 30
0.0
 11
3328.714257950054
 21
696.9352480854059
 31
0.0
  0
LINE
  5
9D
330
1F
100
AcDbEntity
  8
0-6_桟木
  6
Continuous
 62
    40
370
    15
100
AcDbLine
 10
3328.714257950054
 20
490.6852480854059
 30
0.0
 11
3328.714257950054
 21
513.9352480854056
 31
0.0
  0
LINE
  5
9E
330
1F
100
AcDbEntity
  8
0-6_桟木
  6
Continuous
 62
    40
370
    15
100
AcDbLine
 10
3328.714257950054
 20
513.9352480854056
 30
0.0
 11
3418.714257950054
 21
513.9352480854056
 31
0.0
  0
LINE
  5
9F
330
1F
100
AcDbEntity
  8
0-6_桟木
  6
Continuous
 62
    40
370
    15
100
AcDbLine
 10
3418.714257950054
 20
513.9352480854056
 30
0.0
 11
3418.714257950054
 21
490.6852480854059
 31
0.0
  0
LINE
  5
A0
330
1F
100
AcDbEntity
  8
0-6_桟木
  6
Continuous
 62
    40
370
    15
100
AcDbLine
 10
3418.714257950054
 20
490.6852480854059
 30
0.0
 11
3328.714257950054
 21
490.6852480854059
 31
0.0
  0
LINE
  5
A1
330
1F
100
AcDbEntity
  8
0-0_補助線
  6
JWW_HOJO
 62
   120
370
     5
100
AcDbLine
 10
3433.714257950054
 20
513.9352480854056
 30
0.0
 11
3433.714257950054
 21
430.6852480854059
 31
0.0
  0
LINE
  5
A2
330
1F
100
AcDbEntity
  8
0-0_補助線
  6
JWW_HOJO
 62
   120
370
     5
100
AcDbLine
 10
3433.714257950054
 20
430.6852480854059
 30
0.0
 11
3328.714257950054
 21
430.6852480854059
 31
0.0
  0
LINE
  5
A3
330
1F
100
AcDbEntity
  8
0-B_寸法
  6
Continuous
 62
   120
370
     5
100
AcDbLine
 10
3472.71425795005
 20
197.4352480854053
 30
0.0
 11
3472.71425795005
 21
152.4352480854053
 31
0.0
  0
LWPOLYLINE
  5
A4
330
1F
100
AcDbEntity
  8
0-B_寸法
  6
Continuous
 62
     7
370
     9
100
AcDbPolyline
 90
        4
 70
     1
 43
3.0
 10
3474.214257950049
 20
197.4352480854053
 42
0.4142135623731
 10
3472.71425795005
 20
198.9352480854053
 42
0.4142135623731
 10
3471.21425795005
 20
197.4352480854053
 42
0.4142135623731
 10
3472.71425795005
 20
195.9352480854053
 42
0.4142135623731
  0
LWPOLYLINE
  5
A5
330
1F
100
AcDbEntity
  8
0-B_寸法
  6
Continuous
 62
     7
370
     9
100
AcDbPolyline
 90
        4
 70
     1
 43
3.0
 10
3474.214257950049
 20
152.4352480854053
 42
0.4142135623731
 10
3472.71425795005
 20
153.9352480854053
 42
0.4142135623731
 10
3471.21425795005
 20
152.4352480854053
 42
0.4142135623731
 10
3472.71425795005
 20
150.9352480854053
 42
0.4142135623731
  0
LINE
  5
A6
330
1F
100
AcDbEntity
  8
0-B_寸法
  6
Continuous
 62
   120
370
     5
100
AcDbLine
 10
3472.71425795005
 20
197.4352480854053
 30
0.0
 11
3412.71425795005
 21
197.4352480854053
 31
0.0
  0
LINE
  5
A7
330
1F
100
AcDbEntity
  8
0-B_寸法
  6
Continuous
 62
   120
370
     5
100
AcDbLine
 10
3472.71425795005
 20
152.4352480854053
 30
0.0
 11
3412.71425795005
 21
152.4352480854053
 31
0.0
  0
LINE
  5
A8
330
1F
100
AcDbEntity
  8
0-4_棚
  6
JWW_CENTER1
 62
   120
370
     5
100
AcDbLine
 10
3328.714257950054
 20
521.4359261588903
 30
0.0
 11
3853.714257950054
 21
521.4359261588903
 31
0.0
  0
TEXT
  5
A9
330
1F
100
AcDbEntity
  8
0-B_寸法
  6
Continuous
 62
     7
370
   211
100
AcDbText
 10
3506.057188591486
 20
140.5102480854053
 30
0.0
 40
57.15000000000001
  1
P30
 41
0.9999999999999999
  7
ＭＳ ゴシック
100
AcDbText
  0
LWPOLYLINE
  5
AA
330
1F
100
AcDbEntity
  8
0-B_寸法
  6
Continuous
 62
     7
370
     9
100
AcDbPolyline
 90
        4
 70
     1
 43
3.0
 10
3420.214257950054
 20
385.6852480854059
 42
0.4142135623731
 10
3418.714257950054
 20
387.1852480854059
 42
0.4142135623731
 10
3417.214257950054
 20
385.6852480854059
 42
0.4142135623731
 10
3418.714257950054
 20
384.1852480854059
 42
0.4142135623731
  0
LWPOLYLINE
  5
AB
330
1F
100
AcDbEntity
  8
0-B_寸法
  6
Continuous
 62
     7
370
     9
100
AcDbPolyline
 90
        4
 70
     1
 43
3.0
 10
3330.214257950054
 20
385.6852480854059
 42
0.4142135623731
 10
3328.714257950054
 20
387.1852480854059
 42
0.4142135623731
 10
3327.214257950054
 20
385.6852480854059
 42
0.4142135623731
 10
3328.714257950054
 20
384.1852480854059
 42
0.4142135623731
  0
LINE
  5
AC
330
1F
100
AcDbEntity
  8
0-B_寸法
  6
Continuous
 62
   120
370
     5
100
AcDbLine
 10
3328.714257950054
 20
385.6852480854059
 30
0.0
 11
3418.714257950054
 21
385.6852480854059
 31
0.0
  0
LINE
  5
AD
330
1F
100
AcDbEntity
  8
0-0_補助線
  6
JWW_HOJO
 62
   120
370
     5
100
AcDbLine
 10
3478.714257950054
 20
385.6852480854059
 30
0.0
 11
3328.714257950054
 21
385.6852480854059
 31
0.0
  0
LINE
  5
AE
330
1F
100
AcDbEntity
  8
0-0_補助線
  6
JWW_HOJO
 62
   120
370
     5
100
AcDbLine
 10
3478.714257950054
 20
513.9352480854056
 30
0.0
 11
3478.714257950054
 21
385.6852480854059
 31
0.0
  0
LINE
  5
AF
330
1F
100
AcDbEntity
  8
0-B_寸法
  6
Continuous
 62
   120
370
     5
100
AcDbLine
 10
3418.714257950054
 20
385.6852480854059
 30
0.0
 11
3418.714257950054
 21
475.6852480854059
 31
0.0
  0
LINE
  5
B0
330
1F
100
AcDbEntity
  8
0-B_寸法
  6
Continuous
 62
   120
370
     5
100
AcDbLine
 10
3328.714257950054
 20
385.6852480854059
 30
0.0
 11
3328.714257950054
 21
475.6852480854059
 31
0.0
  0
TEXT
  5
B1
330
1F
100
AcDbEntity
  8
0-B_寸法
  6
Continuous
 62
     7
370
   211
100
AcDbText
 10
3336.214257950054
 20
411.2602480854059
 30
0.0
 40
57.15000000000001
  1
60
 41
0.9999999999999998
  7
ＭＳ ゴシック
100
AcDbText
  0
LINE
  5
B2
330
1F
100
AcDbEntity
  8
0-0_補助線
  6
JWW_HOJO
 62
     7
370
     9
100
AcDbLine
 10
3877.71425795005
 20
-297.5647519145934
 30
0.0
 11
3877.71425795005
 21
674.4352480854059
 31
0.0
  0
LINE
  5
B3
330
1F
100
AcDbEntity
  8
0-0_補助線
  6
JWW_HOJO
 62
     7
370
     9
100
AcDbLine
 10
3382.71425795005
 20
-297.5647519145934
 30
0.0
 11
3382.71425795005
 21
674.4352480854059
 31
0.0
  0
LWPOLYLINE
  5
B4
330
1F
100
AcDbEntity
  8
0-B_寸法
  6
Continuous
 62
     7
370
     9
100
AcDbPolyline
 90
        4
 70
     1
 43
3.0
 10
4167.214257950051
 20
696.9352480854059
 42
0.4142135623731
 10
4165.714257950051
 20
698.4352480854059
 42
0.4142135623731
 10
4164.21425795005
 20
696.9352480854059
 42
0.4142135623731
 10
4165.714257950051
 20
695.4352480854059
 42
0.4142135623731
  0
LWPOLYLINE
  5
B5
330
1F
100
AcDbEntity
  8
0-B_寸法
  6
Continuous
 62
     7
370
     9
100
AcDbPolyline
 90
        4
 70
     1
 43
3.0
 10
4167.214257950051
 20
242.4352480854053
 42
0.4142135623731
 10
4165.714257950051
 20
243.9352480854053
 42
0.4142135623731
 10
4164.21425795005
 20
242.4352480854053
 42
0.4142135623731
 10
4165.714257950051
 20
240.9352480854052
 42
0.4142135623731
  0
LINE
  5
B6
330
1F
100
AcDbEntity
  8
0-B_寸法
  6
Continuous
 62
   120
370
     5
100
AcDbLine
 10
4165.714257950051
 20
696.9352480854059
 30
0.0
 11
4015.71425795005
 21
696.9352480854059
 31
0.0
  0
LINE
  5
B7
330
1F
100
AcDbEntity
  8
0-B_寸法
  6
Continuous
 62
   120
370
     5
100
AcDbLine
 10
4165.714257950051
 20
242.4352480854053
 30
0.0
 11
4015.71425795005
 21
242.4352480854053
 31
0.0
  0
TEXT
  5
B8
330
1F
100
AcDbEntity
  8
0-B_寸法
  6
Continuous
 62
     7
370
   211
100
AcDbText
 10
4138.024257950051
 20
394.6852480854058
 30
0.0
 40
68.58
  1
303
 50
90.0
 41
1.111111111111111
  7
ＭＳ ゴシック
100
AcDbText
  0
LINE
  5
B9
330
1F
100
AcDbEntity
  8
0-B_寸法
  6
Continuous
 62
   120
370
     5
100
AcDbLine
 10
4165.714257950051
 20
242.4352480854053
 30
0.0
 11
4165.714257950051
 21
-27.56475191459472
 31
0.0
  0
LWPOLYLINE
  5
BA
330
1F
100
AcDbEntity
  8
0-B_寸法
  6
Continuous
 62
     7
370
     9
100
AcDbPolyline
 90
        4
 70
     1
 43
3.0
 10
4167.214257950051
 20
-27.56475191459472
 42
0.4142135623731
 10
4165.714257950051
 20
-26.06475191459472
 42
0.4142135623731
 10
4164.21425795005
 20
-27.56475191459472
 42
0.4142135623731
 10
4165.714257950051
 20
-29.06475191459472
 42
0.4142135623731
  0
LINE
  5
BB
330
1F
100
AcDbEntity
  8
0-B_寸法
  6
Continuous
 62
   120
370
     5
100
AcDbLine
 10
4165.714257950051
 20
-27.56475191459472
 30
0.0
 11
4015.71425795005
 21
-27.56475191459472
 31
0.0
  0
TEXT
  5
BC
330
1F
100
AcDbEntity
  8
0-B_寸法
  6
Continuous
 62
     7
370
   211
100
AcDbText
 10
4138.024257950051
 20
32.43524808540528
 30
0.0
 40
68.58
  1
180
 50
90.0
 41
1.111111111111111
  7
ＭＳ ゴシック
100
AcDbText
  0
LINE
  5
BD
330
1F
100
AcDbEntity
  8
0-B_寸法
  6
Continuous
 62
   120
370
     5
100
AcDbLine
 10
4165.714257950051
 20
-27.56475191459472
 30
0.0
 11
4165.714257950051
 21
-471.5647519145946
 31
0.0
  0
LWPOLYLINE
  5
BE
330
1F
100
AcDbEntity
  8
0-B_寸法
  6
Continuous
 62
     7
370
     9
100
AcDbPolyline
 90
        4
 70
     1
 43
3.0
 10
4167.214257950051
 20
-471.5647519145946
 42
0.4142135623731
 10
4165.714257950051
 20
-470.0647519145946
 42
0.4142135623731
 10
4164.21425795005
 20
-471.5647519145946
 42
0.4142135623731
 10
4165.714257950051
 20
-473.0647519145946
 42
0.4142135623731
  0
LINE
  5
BF
330
1F
100
AcDbEntity
  8
0-B_寸法
  6
Continuous
 62
   120
370
     5
100
AcDbLine
 10
4165.714257950051
 20
-471.5647519145946
 30
0.0
 11
4015.71425795005
 21
-471.5647519145946
 31
0.0
  0
TEXT
  5
C0
330
1F
100
AcDbEntity
  8
0-B_寸法
  6
Continuous
 62
     7
370
   211
100
AcDbText
 10
4138.024257950051
 20
-324.564751914594
 30
0.0
 40
68.58
  1
296
 50
90.0
 41
1.111111111111111
  7
ＭＳ ゴシック
100
AcDbText
  0
LINE
  5
C1
330
1F
100
AcDbEntity
  8
0-B_寸法
  6
Continuous
 62
   120
370
     5
100
AcDbLine
 10
4165.714257950051
 20
696.9352480854059
 30
0.0
 11
4165.714257950051
 21
242.4352480854053
 31
0.0
  0
LINE
  5
C2
330
1F
100
AcDbEntity
  8
0-0_補助線
  6
JWW_HOJO
 62
   120
370
     5
100
AcDbLine
 10
4015.71425795005
 20
771.9352480854059
 30
0.0
 11
4015.71425795005
 21
-546.5647519145955
 31
0.0
  0
LINE
  5
C3
330
1F
100
AcDbEntity
  8
0-0_補助線
  6
JWW_HOJO
 62
   120
370
     5
100
AcDbLine
 10
3223.713657024769
 20
771.9352480854059
 30
0.0
 11
4015.71425795005
 21
771.9352480854059
 31
0.0
  0
LINE
  5
C4
330
1F
100
AcDbEntity
  8
0-0_補助線
  6
JWW_HOJO
 62
   120
370
     5
100
AcDbLine
 10
3223.713657024769
 20
-546.5647519145942
 30
0.0
 11
3223.713657024769
 21
771.9352480854059
 31
0.0
  0
LINE
  5
C5
330
1F
100
AcDbEntity
  8
0-0_補助線
  6
JWW_HOJO
 62
   120
370
     5
100
AcDbLine
 10
4015.71425795005
 20
-546.5647519145955
 30
0.0
 11
3223.713657024769
 21
-546.5647519145942
 31
0.0
  0
LINE
  5
C6
330
1F
100
AcDbEntity
  8
0-B_寸法
  6
Continuous
 62
   120
370
     5
100
AcDbLine
 10
3073.713657024769
 20
696.9352480854059
 30
0.0
 11
3073.713657024769
 21
692.4359261588904
 31
0.0
  0
LWPOLYLINE
  5
C7
330
1F
100
AcDbEntity
  8
0-B_寸法
  6
Continuous
 62
     7
370
     9
100
AcDbPolyline
 90
        4
 70
     1
 43
3.0
 10
3075.213657024769
 20
696.9352480854059
 42
0.4142135623731
 10
3073.713657024769
 20
698.4352480854059
 42
0.4142135623731
 10
3072.213657024769
 20
696.9352480854059
 42
0.4142135623731
 10
3073.713657024769
 20
695.4352480854059
 42
0.4142135623731
  0
LWPOLYLINE
  5
C8
330
1F
100
AcDbEntity
  8
0-B_寸法
  6
Continuous
 62
     7
370
     9
100
AcDbPolyline
 90
        4
 70
     1
 43
3.0
 10
3075.213657024769
 20
692.4359261588904
 42
0.4142135623731
 10
3073.713657024769
 20
693.9359261588904
 42
0.4142135623731
 10
3072.213657024769
 20
692.4359261588904
 42
0.4142135623731
 10
3073.713657024769
 20
690.9359261588904
 42
0.4142135623731
  0
LINE
  5
C9
330
1F
100
AcDbEntity
  8
0-B_寸法
  6
Continuous
 62
   120
370
     5
100
AcDbLine
 10
3073.713657024769
 20
696.9352480854059
 30
0.0
 11
3223.713657024769
 21
696.9352480854059
 31
0.0
  0
LINE
  5
CA
330
1F
100
AcDbEntity
  8
0-B_寸法
  6
Continuous
 62
   120
370
     5
100
AcDbLine
 10
3073.713657024769
 20
692.4359261588904
 30
0.0
 11
3223.713657024769
 21
692.4359261588904
 31
0.0
  0
LINE
  5
CB
330
1F
100
AcDbEntity
  8
0-B_寸法
  6
Continuous
 62
   120
370
     5
100
AcDbLine
 10
3073.713657024769
 20
692.4359261588904
 30
0.0
 11
3073.713657024769
 21
512.4359261588904
 31
0.0
  0
LWPOLYLINE
  5
CC
330
1F
100
AcDbEntity
  8
0-B_寸法
  6
Continuous
 62
     7
370
     9
100
AcDbPolyline
 90
        4
 70
     1
 43
3.0
 10
3075.213657024769
 20
512.4359261588904
 42
0.4142135623731
 10
3073.713657024769
 20
513.9359261588904
 42
0.4142135623731
 10
3072.213657024769
 20
512.4359261588904
 42
0.4142135623731
 10
3073.713657024769
 20
510.9359261588904
 42
0.4142135623731
  0
LINE
  5
CD
330
1F
100
AcDbEntity
  8
0-B_寸法
  6
Continuous
 62
   120
370
     5
100
AcDbLine
 10
3073.713657024769
 20
512.4359261588904
 30
0.0
 11
3223.713657024769
 21
512.4359261588904
 31
0.0
  0
LINE
  5
CE
330
1F
100
AcDbEntity
  8
0-B_寸法
  6
Continuous
 62
   120
370
     5
100
AcDbLine
 10
3073.713657024769
 20
512.4359261588904
 30
0.0
 11
3073.713657024769
 21
507.9359261588911
 31
0.0
  0
LWPOLYLINE
  5
CF
330
1F
100
AcDbEntity
  8
0-B_寸法
  6
Continuous
 62
     7
370
     9
100
AcDbPolyline
 90
        4
 70
     1
 43
3.0
 10
3075.213657024769
 20
507.9359261588911
 42
0.4142135623731
 10
3073.713657024769
 20
509.4359261588911
 42
0.4142135623731
 10
3072.213657024769
 20
507.9359261588911
 42
0.4142135623731
 10
3073.713657024769
 20
506.4359261588911
 42
0.4142135623731
  0
LINE
  5
D0
330
1F
100
AcDbEntity
  8
0-B_寸法
  6
Continuous
 62
   120
370
     5
100
AcDbLine
 10
3073.713657024769
 20
507.9359261588911
 30
0.0
 11
3223.713657024769
 21
507.9359261588911
 31
0.0
  0
LINE
  5
D1
330
1F
100
AcDbEntity
  8
0-B_寸法
  6
Continuous
 62
   120
370
     5
100
AcDbLine
 10
3073.713657024769
 20
507.9359261588911
 30
0.0
 11
3073.713657024769
 21
-321.5643741270083
 31
0.0
  0
LWPOLYLINE
  5
D2
330
1F
100
AcDbEntity
  8
0-B_寸法
  6
Continuous
 62
     7
370
     9
100
AcDbPolyline
 90
        4
 70
     1
 43
3.0
 10
3075.213657024769
 20
-321.5643741270083
 42
0.4142135623731
 10
3073.713657024769
 20
-320.0643741270083
 42
0.4142135623731
 10
3072.213657024769
 20
-321.5643741270083
 42
0.4142135623731
 10
3073.713657024769
 20
-323.0643741270083
 42
0.4142135623731
  0
LINE
  5
D3
330
1F
100
AcDbEntity
  8
0-B_寸法
  6
Continuous
 62
   120
370
     5
100
AcDbLine
 10
3073.713657024769
 20
-321.5643741270083
 30
0.0
 11
3223.713657024769
 21
-321.5643741270083
 31
0.0
  0
TEXT
  5
D4
330
1F
100
AcDbEntity
  8
0-B_寸法
  6
Continuous
 62
     7
370
   211
100
AcDbText
 10
3046.023657024769
 20
18.18577601594143
 30
0.0
 40
68.58
  1
553
 50
90.0
 41
1.111111111111111
  7
ＭＳ ゴシック
100
AcDbText
  0
LINE
  5
D5
330
1F
100
AcDbEntity
  8
0-B_寸法
  6
Continuous
 62
   120
370
     5
100
AcDbLine
 10
3073.713657024769
 20
-321.5643741270083
 30
0.0
 11
3073.713657024769
 21
-471.5647519145942
 31
0.0
  0
LWPOLYLINE
  5
D6
330
1F
100
AcDbEntity
  8
0-B_寸法
  6
Continuous
 62
     7
370
     9
100
AcDbPolyline
 90
        4
 70
     1
 43
3.0
 10
3075.213657024769
 20
-471.5647519145942
 42
0.4142135623731
 10
3073.713657024769
 20
-470.0647519145942
 42
0.4142135623731
 10
3072.213657024769
 20
-471.5647519145942
 42
0.4142135623731
 10
3073.713657024769
 20
-473.0647519145942
 42
0.4142135623731
  0
LINE
  5
D7
330
1F
100
AcDbEntity
  8
0-B_寸法
  6
Continuous
 62
   120
370
     5
100
AcDbLine
 10
3073.713657024769
 20
-471.5647519145942
 30
0.0
 11
3223.713657024769
 21
-471.5647519145942
 31
0.0
  0
TEXT
  5
D8
330
1F
100
AcDbEntity
  8
0-B_寸法
  6
Continuous
 62
     7
370
   211
100
AcDbText
 10
3046.023657024769
 20
-471.5645630208014
 30
0.0
 40
68.58
  1
100
 50
90.0
 41
1.111111111111111
  7
ＭＳ ゴシック
100
AcDbText
  0
TEXT
  5
D9
330
1F
100
AcDbEntity
  8
0-B_寸法
  6
Continuous
 62
     7
370
   211
100
AcDbText
 10
3046.023657024769
 20
527.4359261588904
 30
0.0
 40
68.58
  1
120
 50
90.0
 41
1.111111111111111
  7
ＭＳ ゴシック
100
AcDbText
  0
TEXT
  5
DA
330
1F
100
AcDbEntity
  8
0-B_寸法
  6
Continuous
 62
     7
370
   211
100
AcDbText
 10
3046.023657024769
 20
453.317924028935
 30
0.0
 40
68.58
  1
3
 50
90.0
  7
ＭＳ ゴシック
100
AcDbText
  0
TEXT
  5
DB
330
1F
100
AcDbEntity
  8
0-B_寸法
  6
Continuous
 62
     7
370
   211
100
AcDbText
 10
3046.023657024769
 20
706.0581111950678
 30
0.0
 40
68.58
  1
3
 50
90.0
  7
ＭＳ ゴシック
100
AcDbText
  0
LINE
  5
DC
330
1F
100
AcDbEntity
  8
0-1_本体
  6
Continuous
 62
    40
370
    15
100
AcDbLine
 10
3936.214257950051
 20
-297.5647519145934
 30
0.0
 11
3328.714257950054
 21
-297.5647519145934
 31
0.0
  0
LINE
  5
DD
330
1F
100
AcDbEntity
  8
0-1_本体
  6
Continuous
 62
    40
370
    15
100
AcDbLine
 10
3328.714257950054
 20
674.4352480854059
 30
0.0
 11
3936.214257950051
 21
674.4352480854059
 31
0.0
  0
LINE
  5
DE
330
1F
100
AcDbEntity
  8
0-6_桟木
  6
Continuous
 62
    40
370
    15
100
AcDbLine
 10
3846.214257950051
 20
490.6852480854059
 30
0.0
 11
3846.214257950051
 21
513.9352480854056
 31
0.0
  0
LINE
  5
DF
330
1F
100
AcDbEntity
  8
0-6_桟木
  6
Continuous
 62
    40
370
    15
100
AcDbLine
 10
3845.464257950051
 20
513.9352480854056
 30
0.0
 11
3936.214257950051
 21
513.9352480854056
 31
0.0
  0
LINE
  5
E0
330
1F
100
AcDbEntity
  8
0-6_桟木
  6
Continuous
 62
    40
370
    15
100
AcDbLine
 10
3936.214257950051
 20
490.6852480854059
 30
0.0
 11
3845.464257950051
 21
490.6852480854059
 31
0.0
  0
LINE
  5
E1
330
1F
100
AcDbEntity
  8
0-6_桟木
  6
Continuous
 62
    40
370
    15
100
AcDbLine
 10
3936.214257950051
 20
513.9352480854056
 30
0.0
 11
3936.214257950051
 21
490.6852480854059
 31
0.0
  0
LWPOLYLINE
  5
E2
330
1F
100
AcDbEntity
  8
0-B_寸法
  6
Continuous
 62
     7
370
     9
100
AcDbPolyline
 90
        4
 70
     1
 43
3.0
 10
3937.714257950051
 20
385.6852480854059
 42
0.4142135623731
 10
3936.214257950051
 20
387.1852480854059
 42
0.4142135623731
 10
3934.714257950051
 20
385.6852480854059
 42
0.4142135623731
 10
3936.214257950051
 20
384.1852480854059
 42
0.4142135623731
  0
LWPOLYLINE
  5
E3
330
1F
100
AcDbEntity
  8
0-B_寸法
  6
Continuous
 62
     7
370
     9
100
AcDbPolyline
 90
        4
 70
     1
 43
3.0
 10
3847.714257950051
 20
385.6852480854059
 42
0.4142135623731
 10
3846.214257950051
 20
387.1852480854059
 42
0.4142135623731
 10
3844.714257950051
 20
385.6852480854059
 42
0.4142135623731
 10
3846.214257950051
 20
384.1852480854059
 42
0.4142135623731
  0
LINE
  5
E4
330
1F
100
AcDbEntity
  8
0-B_寸法
  6
Continuous
 62
   120
370
     5
100
AcDbLine
 10
3845.464257950051
 20
385.6852480854059
 30
0.0
 11
3936.214257950051
 21
385.6852480854059
 31
0.0
  0
LINE
  5
E5
330
1F
100
AcDbEntity
  8
0-B_寸法
  6
Continuous
 62
   120
370
     5
100
AcDbLine
 10
3936.214257950051
 20
385.6852480854059
 30
0.0
 11
3936.214257950051
 21
475.6852480854059
 31
0.0
  0
LINE
  5
E6
330
1F
100
AcDbEntity
  8
0-B_寸法
  6
Continuous
 62
   120
370
     5
100
AcDbLine
 10
3846.214257950051
 20
385.6852480854059
 30
0.0
 11
3846.214257950051
 21
475.6852480854059
 31
0.0
  0
TEXT
  5
E7
330
1F
100
AcDbEntity
  8
0-B_寸法
  6
Continuous
 62
     7
370
   211
100
AcDbText
 10
3853.714257950051
 20
411.2602480854059
 30
0.0
 40
57.15000000000001
  1
60
 41
0.9999999999999998
  7
ＭＳ ゴシック
100
AcDbText
  0
LINE
  5
E8
330
1F
100
AcDbEntity
  8
0-0_補助線
  6
JWW_HOJO
 62
     7
370
     9
100
AcDbLine
 10
3328.714257950054
 20
242.4352480854053
 30
0.0
 11
3936.214257950051
 21
242.4352480854053
 31
0.0
  0
LINE
  5
E9
330
1F
100
AcDbEntity
  8
0-0_補助線
  6
JWW_HOJO
 62
     7
370
     9
100
AcDbLine
 10
3328.714257950054
 20
17.43524808540528
 30
0.0
 11
3936.214257950051
 21
17.43524808540528
 31
0.0
  0
LINE
  5
EA
330
1F
100
AcDbEntity
  8
0-0_補助線
  6
JWW_HOJO
 62
     7
370
     9
100
AcDbLine
 10
3328.714257950054
 20
197.4352480854053
 30
0.0
 11
3936.214257950051
 21
197.4352480854053
 31
0.0
  0
LINE
  5
EB
330
1F
100
AcDbEntity
  8
0-0_補助線
  6
JWW_HOJO
 62
     7
370
     9
100
AcDbLine
 10
3328.714257950054
 20
152.4352480854053
 30
0.0
 11
3936.214257950051
 21
152.4352480854053
 31
0.0
  0
LINE
  5
EC
330
1F
100
AcDbEntity
  8
0-0_補助線
  6
JWW_HOJO
 62
     7
370
     9
100
AcDbLine
 10
3328.714257950054
 20
107.4352480854053
 30
0.0
 11
3936.214257950051
 21
107.4352480854053
 31
0.0
  0
LINE
  5
ED
330
1F
100
AcDbEntity
  8
0-0_補助線
  6
JWW_HOJO
 62
     7
370
     9
100
AcDbLine
 10
3328.714257950054
 20
62.43524808540528
 30
0.0
 11
3936.214257950051
 21
62.43524808540528
 31
0.0
  0
LINE
  5
EE
330
1F
100
AcDbEntity
  8
0-0_補助線
  6
JWW_HOJO
 62
     7
370
     9
100
AcDbLine
 10
3328.714257950054
 20
-27.56475191459472
 30
0.0
 11
3936.214257950051
 21
-27.56475191459472
 31
0.0
  0
LINE
  5
EF
330
1F
100
AcDbEntity
  8
0-1_本体
  6
Continuous
 62
    40
370
    15
100
AcDbLine
 10
3936.214257950051
 20
689.4352480854059
 30
0.0
 11
3936.214257950051
 21
-312.5648242907436
 31
0.0
  0
LINE
  5
F0
330
1F
100
AcDbEntity
  8
0-4_棚
  6
Continuous
 62
    40
370
    15
100
AcDbLine
 10
3936.214257950051
 20
268.6852480854053
 30
0.0
 11
3936.214257950051
 21
246.1852480854066
 31
0.0
  0
LINE
  5
F1
330
1F
100
AcDbEntity
  8
0-4_棚
  6
Continuous
 62
    40
370
    15
100
AcDbLine
 10
3936.214257950051
 20
246.1852480854066
 30
0.0
 11
3354.21425795005
 21
246.1852480854066
 31
0.0
  0
LINE
  5
F2
330
1F
100
AcDbEntity
  8
0-4_棚
  6
Continuous
 62
    40
370
    15
100
AcDbLine
 10
3936.214257950051
 20
268.6852480854053
 30
0.0
 11
3354.21425795005
 21
268.6852480854053
 31
0.0
  0
LINE
  5
F3
330
1F
100
AcDbEntity
  8
0-4_棚
  6
Continuous
 62
    40
370
    15
100
AcDbLine
 10
3354.21425795005
 20
246.1852480854066
 30
0.0
 11
3354.21425795005
 21
268.6852480854053
 31
0.0
  0
LINE
  5
F4
330
1F
100
AcDbEntity
  8
0-4_棚
  6
Continuous
 62
    40
370
    15
100
AcDbLine
 10
3936.214257950051
 20
-1.314751914594723
 30
0.0
 11
3936.214257950051
 21
-23.81475191459472
 31
0.0
  0
LINE
  5
F5
330
1F
100
AcDbEntity
  8
0-4_棚
  6
Continuous
 62
    40
370
    15
100
AcDbLine
 10
3936.214257950051
 20
-23.81475191459472
 30
0.0
 11
3354.21425795005
 21
-23.81475191459472
 31
0.0
  0
LINE
  5
F6
330
1F
100
AcDbEntity
  8
0-4_棚
  6
Continuous
 62
    40
370
    15
100
AcDbLine
 10
3936.214257950051
 20
-1.314751914594723
 30
0.0
 11
3354.21425795005
 21
-1.314751914594723
 31
0.0
  0
LINE
  5
F7
330
1F
100
AcDbEntity
  8
0-4_棚
  6
Continuous
 62
    40
370
    15
100
AcDbLine
 10
3354.21425795005
 20
-23.81475191459472
 30
0.0
 11
3354.21425795005
 21
-1.314751914594723
 31
0.0
  0
LINE
  5
F8
330
1F
100
AcDbEntity
  8
0-B_寸法
  6
Continuous
 62
   120
370
     5
100
AcDbLine
 10
3354.21425795005
 20
-143.8147519145947
 30
0.0
 11
3936.214257950051
 21
-143.8147519145947
 31
0.0
  0
LWPOLYLINE
  5
F9
330
1F
100
AcDbEntity
  8
0-B_寸法
  6
Continuous
 62
     7
370
     9
100
AcDbPolyline
 90
        4
 70
     1
 43
3.0
 10
3355.71425795005
 20
-143.8147519145947
 42
0.4142135623731
 10
3354.21425795005
 20
-142.3147519145947
 42
0.4142135623731
 10
3352.71425795005
 20
-143.8147519145947
 42
0.4142135623731
 10
3354.21425795005
 20
-145.3147519145947
 42
0.4142135623731
  0
LWPOLYLINE
  5
FA
330
1F
100
AcDbEntity
  8
0-B_寸法
  6
Continuous
 62
     7
370
     9
100
AcDbPolyline
 90
        4
 70
     1
 43
3.0
 10
3937.714257950051
 20
-143.8147519145947
 42
0.4142135623731
 10
3936.214257950051
 20
-142.3147519145947
 42
0.4142135623731
 10
3934.714257950051
 20
-143.8147519145947
 42
0.4142135623731
 10
3936.214257950051
 20
-145.3147519145947
 42
0.4142135623731
  0
LINE
  5
FB
330
1F
100
AcDbEntity
  8
0-B_寸法
  6
Continuous
 62
   120
370
     5
100
AcDbLine
 10
3354.21425795005
 20
-143.8147519145947
 30
0.0
 11
3354.21425795005
 21
-53.81475191459472
 31
0.0
  0
LINE
  5
FC
330
1F
100
AcDbEntity
  8
0-B_寸法
  6
Continuous
 62
   120
370
     5
100
AcDbLine
 10
3936.214257950051
 20
-143.8147519145947
 30
0.0
 11
3936.214257950051
 21
-53.81475191459472
 31
0.0
  0
TEXT
  5
FD
330
1F
100
AcDbEntity
  8
0-B_寸法
  6
Continuous
 62
     7
370
   211
100
AcDbText
 10
3438.96425795005
 20
-118.2397519145947
 30
0.0
 40
57.15000000000001
  1
可動棚＝388
 41
0.9999999999999999
  7
ＭＳ ゴシック
100
AcDbText
  0
CIRCLE
  5
FE
330
1F
100
AcDbEntity
  8
0-5_ダボ
  6
Continuous
 62
     7
370
     9
100
AcDbCircle
 10
3382.71425795005
 20
242.4352480854053
 30
0.0
 40
3.675
  0
CIRCLE
  5
FF
330
1F
100
AcDbEntity
  8
0-5_ダボ
  6
Continuous
 62
     7
370
     9
100
AcDbCircle
 10
3382.71425795005
 20
197.4352480854053
 30
0.0
 40
3.675
  0
CIRCLE
  5
100
330
1F
100
AcDbEntity
  8
0-5_ダボ
  6
Continuous
 62
     7
370
     9
100
AcDbCircle
 10
3382.71425795005
 20
152.4352480854053
 30
0.0
 40
3.675
  0
CIRCLE
  5
101
330
1F
100
AcDbEntity
  8
0-5_ダボ
  6
Continuous
 62
     7
370
     9
100
AcDbCircle
 10
3382.71425795005
 20
107.4352480854053
 30
0.0
 40
3.675
  0
CIRCLE
  5
102
330
1F
100
AcDbEntity
  8
0-5_ダボ
  6
Continuous
 62
     7
370
     9
100
AcDbCircle
 10
3382.71425795005
 20
62.43524808540528
 30
0.0
 40
3.675
  0
CIRCLE
  5
103
330
1F
100
AcDbEntity
  8
0-5_ダボ
  6
Continuous
 62
     7
370
     9
100
AcDbCircle
 10
3382.71425795005
 20
17.43524808540528
 30
0.0
 40
3.675
  0
CIRCLE
  5
104
330
1F
100
AcDbEntity
  8
0-5_ダボ
  6
Continuous
 62
     7
370
     9
100
AcDbCircle
 10
3382.71425795005
 20
-27.56475191459472
 30
0.0
 40
3.675
  0
CIRCLE
  5
105
330
1F
100
AcDbEntity
  8
0-5_ダボ
  6
Continuous
 62
     7
370
     9
100
AcDbCircle
 10
3877.71425795005
 20
242.4352480854053
 30
0.0
 40
3.675
  0
CIRCLE
  5
106
330
1F
100
AcDbEntity
  8
0-5_ダボ
  6
Continuous
 62
     7
370
     9
100
AcDbCircle
 10
3877.71425795005
 20
197.4352480854053
 30
0.0
 40
3.675
  0
CIRCLE
  5
107
330
1F
100
AcDbEntity
  8
0-5_ダボ
  6
Continuous
 62
     7
370
     9
100
AcDbCircle
 10
3877.71425795005
 20
152.4352480854053
 30
0.0
 40
3.675
  0
CIRCLE
  5
108
330
1F
100
AcDbEntity
  8
0-5_ダボ
  6
Continuous
 62
     7
370
     9
100
AcDbCircle
 10
3877.71425795005
 20
107.4352480854053
 30
0.0
 40
3.675
  0
CIRCLE
  5
109
330
1F
100
AcDbEntity
  8
0-5_ダボ
  6
Continuous
 62
     7
370
     9
100
AcDbCircle
 10
3877.71425795005
 20
62.43524808540528
 30
0.0
 40
3.675
  0
CIRCLE
  5
10A
330
1F
100
AcDbEntity
  8
0-5_ダボ
  6
Continuous
 62
     7
370
     9
100
AcDbCircle
 10
3877.71425795005
 20
17.43524808540528
 30
0.0
 40
3.675
  0
CIRCLE
  5
10B
330
1F
100
AcDbEntity
  8
0-5_ダボ
  6
Continuous
 62
     7
370
     9
100
AcDbCircle
 10
3877.71425795005
 20
-27.56475191459472
 30
0.0
 40
3.675
  0
LINE
  5
10C
330
1F
100
AcDbEntity
  8
0-1_本体
  6
Continuous
 62
    40
370
    15
100
AcDbLine
 10
3939.964257950051
 20
689.4352480854059
 30
0.0
 11
3939.964257950051
 21
-312.5648242907436
 31
0.0
  0
LINE
  5
10D
330
1F
100
AcDbEntity
  8
0-1_本体
  6
Continuous
 62
    40
370
    15
100
AcDbLine
 10
3936.214257950051
 20
689.4352480854059
 30
0.0
 11
3940.71425795005
 21
689.4352480854059
 31
0.0
  0
LINE
  5
10E
330
1F
100
AcDbEntity
  8
0-1_本体
  6
Continuous
 62
    40
370
    15
100
AcDbLine
 10
3940.71425795005
 20
696.9352480854059
 30
0.0
 11
3940.71425795005
 21
689.4352480854059
 31
0.0
  0
LINE
  5
10F
330
1F
100
AcDbEntity
  8
0-1_本体
  6
Continuous
 62
    40
370
    15
100
AcDbLine
 10
3940.71425795005
 20
-312.5648242907436
 30
0.0
 11
3940.71425795005
 21
-321.5647519145942
 31
0.0
  0
LINE
  5
110
330
1F
100
AcDbEntity
  8
0-1_本体
  6
Continuous
 62
    40
370
    15
100
AcDbLine
 10
3940.71425795005
 20
-312.5648242907436
 30
0.0
 11
3936.214257950051
 21
-312.5648242907436
 31
0.0
  0
LINE
  5
111
330
1F
100
AcDbEntity
  8
0-2_扉
  6
Continuous
 62
    40
370
    15
100
AcDbLine
 10
3328.714257950054
 20
-321.5643741270083
 30
0.0
 11
3328.714257950054
 21
507.9359261588911
 31
0.0
  0
LINE
  5
112
330
1F
100
AcDbEntity
  8
0-2_扉
  6
Continuous
 62
    40
370
    15
100
AcDbLine
 10
3328.714257950054
 20
512.4359261588904
 30
0.0
 11
3328.714257950054
 21
692.4359261588904
 31
0.0
  0
LINE
  5
113
330
1F
100
AcDbEntity
  8
0-2_扉
  6
Continuous
 62
    40
370
    15
100
AcDbLine
 10
3301.714257950053
 20
-321.5643741270083
 30
0.0
 11
3328.714257950054
 21
-321.5643741270083
 31
0.0
  0
LINE
  5
114
330
1F
100
AcDbEntity
  8
0-2_扉
  6
Continuous
 62
    40
370
    15
100
AcDbLine
 10
3301.714257950053
 20
512.4359261588904
 30
0.0
 11
3328.714257950054
 21
512.4359261588904
 31
0.0
  0
LINE
  5
115
330
1F
100
AcDbEntity
  8
0-2_扉
  6
Continuous
 62
    40
370
    15
100
AcDbLine
 10
3301.714257950053
 20
-321.5643741270083
 30
0.0
 11
3301.714257950053
 21
507.9359261588911
 31
0.0
  0
LINE
  5
116
330
1F
100
AcDbEntity
  8
0-2_扉
  6
Continuous
 62
    40
370
    15
100
AcDbLine
 10
3301.714257950053
 20
507.9359261588911
 30
0.0
 11
3328.714257950054
 21
507.9359261588911
 31
0.0
  0
LINE
  5
117
330
1F
100
AcDbEntity
  8
0-2_扉
  6
Continuous
 62
    40
370
    15
100
AcDbLine
 10
3301.714257950053
 20
512.4359261588904
 30
0.0
 11
3301.714257950053
 21
692.4359261588904
 31
0.0
  0
LINE
  5
118
330
1F
100
AcDbEntity
  8
0-2_扉
  6
Continuous
 62
    40
370
    15
100
AcDbLine
 10
3301.714257950053
 20
692.4359261588904
 30
0.0
 11
3328.714257950054
 21
692.4359261588904
 31
0.0
  0
LINE
  5
119
330
1F
100
AcDbEntity
  8
0-1_本体
  6
Continuous
 62
     7
370
     9
100
AcDbLine
 10
1733.571400051726
 20
-321.5647519145942
 30
0.0
 11
1733.571400051726
 21
-471.5647519145942
 31
0.0
  0
LINE
  5
11A
330
1F
100
AcDbEntity
  8
0-1_本体
  6
Continuous
 62
     7
370
     9
100
AcDbLine
 10
1274.571242220463
 20
-321.5643741270083
 30
0.0
 11
1274.571242220463
 21
-471.5647519145942
 31
0.0
  0
LINE
  5
11B
330
1F
100
AcDbEntity
  8
0-1_本体
  6
Continuous
 62
    40
370
    15
100
AcDbLine
 10
1733.571400051726
 20
696.9352480854059
 30
0.0
 11
1733.571400051726
 21
-321.5647519145942
 31
0.0
  0
LINE
  5
11C
330
1F
100
AcDbEntity
  8
0-1_本体
  6
Continuous
 62
    40
370
    15
100
AcDbLine
 10
1274.571242220463
 20
-321.5647519145942
 30
0.0
 11
1274.571242220463
 21
-297.5647519145934
 31
0.0
  0
LINE
  5
11D
330
1F
100
AcDbEntity
  8
0-1_本体
  6
Continuous
 62
    40
370
    15
100
AcDbLine
 10
1733.571400051726
 20
-321.5647519145942
 30
0.0
 11
1274.571242220463
 21
-321.5647519145942
 31
0.0
  0
LWPOLYLINE
  5
11E
330
1F
100
AcDbEntity
  8
0-B_寸法
  6
Continuous
 62
     7
370
     9
100
AcDbPolyline
 90
        4
 70
     1
 43
3.0
 10
1960.071400051726
 20
696.9352480854059
 42
0.4142135623731
 10
1958.571400051726
 20
698.4352480854059
 42
0.4142135623731
 10
1957.071400051726
 20
696.9352480854059
 42
0.4142135623731
 10
1958.571400051726
 20
695.4352480854059
 42
0.4142135623731
  0
LWPOLYLINE
  5
11F
330
1F
100
AcDbEntity
  8
0-B_寸法
  6
Continuous
 62
     7
370
     9
100
AcDbPolyline
 90
        4
 70
     1
 43
3.0
 10
1960.071400051726
 20
242.4352480854053
 42
0.4142135623731
 10
1958.571400051726
 20
243.9352480854053
 42
0.4142135623731
 10
1957.071400051726
 20
242.4352480854053
 42
0.4142135623731
 10
1958.571400051726
 20
240.9352480854052
 42
0.4142135623731
  0
LINE
  5
120
330
1F
100
AcDbEntity
  8
0-B_寸法
  6
Continuous
 62
   120
370
     5
100
AcDbLine
 10
1958.571400051726
 20
696.9352480854059
 30
0.0
 11
1808.571400051726
 21
696.9352480854059
 31
0.0
  0
LINE
  5
121
330
1F
100
AcDbEntity
  8
0-B_寸法
  6
Continuous
 62
   120
370
     5
100
AcDbLine
 10
1958.571400051726
 20
242.4352480854053
 30
0.0
 11
1808.571400051726
 21
242.4352480854053
 31
0.0
  0
TEXT
  5
122
330
1F
100
AcDbEntity
  8
0-B_寸法
  6
Continuous
 62
     7
370
   211
100
AcDbText
 10
1930.881400051726
 20
394.6852480854058
 30
0.0
 40
68.58
  1
303
 50
90.0
 41
1.111111111111111
  7
ＭＳ ゴシック
100
AcDbText
  0
LINE
  5
123
330
1F
100
AcDbEntity
  8
0-B_寸法
  6
Continuous
 62
   120
370
     5
100
AcDbLine
 10
1958.571400051726
 20
242.4352480854053
 30
0.0
 11
1958.571400051726
 21
-27.56475191459472
 31
0.0
  0
LWPOLYLINE
  5
124
330
1F
100
AcDbEntity
  8
0-B_寸法
  6
Continuous
 62
     7
370
     9
100
AcDbPolyline
 90
        4
 70
     1
 43
3.0
 10
1960.071400051726
 20
-27.56475191459472
 42
0.4142135623731
 10
1958.571400051726
 20
-26.06475191459472
 42
0.4142135623731
 10
1957.071400051726
 20
-27.56475191459472
 42
0.4142135623731
 10
1958.571400051726
 20
-29.06475191459472
 42
0.4142135623731
  0
LINE
  5
125
330
1F
100
AcDbEntity
  8
0-B_寸法
  6
Continuous
 62
   120
370
     5
100
AcDbLine
 10
1958.571400051726
 20
-27.56475191459472
 30
0.0
 11
1808.571400051726
 21
-27.56475191459472
 31
0.0
  0
TEXT
  5
126
330
1F
100
AcDbEntity
  8
0-B_寸法
  6
Continuous
 62
     7
370
   211
100
AcDbText
 10
1930.881400051726
 20
32.43524808540528
 30
0.0
 40
68.58
  1
180
 50
90.0
 41
1.111111111111111
  7
ＭＳ ゴシック
100
AcDbText
  0
LINE
  5
127
330
1F
100
AcDbEntity
  8
0-B_寸法
  6
Continuous
 62
   120
370
     5
100
AcDbLine
 10
1958.571400051726
 20
-27.56475191459472
 30
0.0
 11
1958.571400051726
 21
-471.5647519145946
 31
0.0
  0
LWPOLYLINE
  5
128
330
1F
100
AcDbEntity
  8
0-B_寸法
  6
Continuous
 62
     7
370
     9
100
AcDbPolyline
 90
        4
 70
     1
 43
3.0
 10
1960.071400051726
 20
-471.5647519145946
 42
0.4142135623731
 10
1958.571400051726
 20
-470.0647519145946
 42
0.4142135623731
 10
1957.071400051726
 20
-471.5647519145946
 42
0.4142135623731
 10
1958.571400051726
 20
-473.0647519145946
 42
0.4142135623731
  0
LINE
  5
129
330
1F
100
AcDbEntity
  8
0-B_寸法
  6
Continuous
 62
   120
370
     5
100
AcDbLine
 10
1958.571400051726
 20
-471.5647519145946
 30
0.0
 11
1808.571400051726
 21
-471.5647519145946
 31
0.0
  0
TEXT
  5
12A
330
1F
100
AcDbEntity
  8
0-B_寸法
  6
Continuous
 62
     7
370
   211
100
AcDbText
 10
1930.881400051726
 20
-324.564751914594
 30
0.0
 40
68.58
  1
296
 50
90.0
 41
1.111111111111111
  7
ＭＳ ゴシック
100
AcDbText
  0
LINE
  5
12B
330
1F
100
AcDbEntity
  8
0-B_寸法
  6
Continuous
 62
   120
370
     5
100
AcDbLine
 10
1274.571242220463
 20
-846.5647519145942
 30
0.0
 11
1274.571242220463
 21
-546.5647519145942
 31
0.0
  0
LINE
  5
12C
330
1F
100
AcDbEntity
  8
0-B_寸法
  6
Continuous
 62
   120
370
     5
100
AcDbLine
 10
1274.571242220463
 20
-846.5647519145942
 30
0.0
 11
1733.571400051726
 21
-846.5647519145942
 31
0.0
  0
LWPOLYLINE
  5
12D
330
1F
100
AcDbEntity
  8
0-B_寸法
  6
Continuous
 62
     7
370
     9
100
AcDbPolyline
 90
        4
 70
     1
 43
3.0
 10
1276.071242220463
 20
-846.5647519145942
 42
0.4142135623731
 10
1274.571242220463
 20
-845.0647519145942
 42
0.4142135623731
 10
1273.071242220463
 20
-846.5647519145942
 42
0.4142135623731
 10
1274.571242220463
 20
-848.0647519145942
 42
0.4142135623731
  0
LWPOLYLINE
  5
12E
330
1F
100
AcDbEntity
  8
0-B_寸法
  6
Continuous
 62
     7
370
     9
100
AcDbPolyline
 90
        4
 70
     1
 43
3.0
 10
1735.071400051726
 20
-846.5647519145942
 42
0.4142135623731
 10
1733.571400051726
 20
-845.0647519145942
 42
0.4142135623731
 10
1732.071400051726
 20
-846.5647519145942
 42
0.4142135623731
 10
1733.571400051726
 20
-848.0647519145942
 42
0.4142135623731
  0
LINE
  5
12F
330
1F
100
AcDbEntity
  8
0-B_寸法
  6
Continuous
 62
   120
370
     5
100
AcDbLine
 10
1733.571400051726
 20
-846.5647519145942
 30
0.0
 11
1733.571400051726
 21
-546.5647519145942
 31
0.0
  0
TEXT
  5
130
330
1F
100
AcDbEntity
  8
0-B_寸法
  6
Continuous
 62
     7
370
   211
100
AcDbText
 10
1429.071321136094
 20
-818.8747519145942
 30
0.0
 40
68.58
  1
306
 41
1.111111111111111
  7
ＭＳ ゴシック
100
AcDbText
  0
LINE
  5
131
330
1F
100
AcDbEntity
  8
0-1_本体
  6
Continuous
 62
    40
370
    15
100
AcDbLine
 10
1274.571242220463
 20
696.9352480854059
 30
0.0
 11
1733.571400051726
 21
696.9352480854059
 31
0.0
  0
LINE
  5
132
330
1F
100
AcDbEntity
  8
0-4_棚
  6
JWW_CENTER1
 62
   120
370
     5
100
AcDbLine
 10
1274.571242220463
 20
521.4359261588903
 30
0.0
 11
1724.571242220465
 21
521.4359261588903
 31
0.0
  0
LINE
  5
133
330
1F
100
AcDbEntity
  8
0-1_本体
  6
Continuous
 62
    40
370
    15
100
AcDbLine
 10
1274.571242220463
 20
674.4352480854059
 30
0.0
 11
1274.571242220463
 21
696.9352480854059
 31
0.0
  0
LINE
  5
134
330
1F
100
AcDbEntity
  8
0-6_桟木
  6
Continuous
 62
    40
370
    15
100
AcDbLine
 10
1274.571242220463
 20
490.6852480854059
 30
0.0
 11
1274.571242220463
 21
513.9352480854056
 31
0.0
  0
LINE
  5
135
330
1F
100
AcDbEntity
  8
0-6_桟木
  6
Continuous
 62
    40
370
    15
100
AcDbLine
 10
1274.571242220463
 20
513.9352480854056
 30
0.0
 11
1364.571242220463
 21
513.9352480854056
 31
0.0
  0
LINE
  5
136
330
1F
100
AcDbEntity
  8
0-6_桟木
  6
Continuous
 62
    40
370
    15
100
AcDbLine
 10
1364.571242220463
 20
490.6852480854059
 30
0.0
 11
1274.571242220463
 21
490.6852480854059
 31
0.0
  0
LINE
  5
137
330
1F
100
AcDbEntity
  8
0-6_桟木
  6
Continuous
 62
    40
370
    15
100
AcDbLine
 10
1364.571242220463
 20
513.9352480854056
 30
0.0
 11
1364.571242220463
 21
490.6852480854059
 31
0.0
  0
LINE
  5
138
330
1F
100
AcDbEntity
  8
0-0_補助線
  6
JWW_HOJO
 62
   120
370
     5
100
AcDbLine
 10
1379.571242220463
 20
430.6852480854059
 30
0.0
 11
1274.571242220463
 21
430.6852480854059
 31
0.0
  0
LINE
  5
139
330
1F
100
AcDbEntity
  8
0-0_補助線
  6
JWW_HOJO
 62
   120
370
     5
100
AcDbLine
 10
1379.571242220463
 20
513.9352480854056
 30
0.0
 11
1379.571242220463
 21
430.6852480854059
 31
0.0
  0
LINE
  5
13A
330
1F
100
AcDbEntity
  8
0-B_寸法
  6
Continuous
 62
   120
370
     5
100
AcDbLine
 10
1418.571242220463
 20
197.4352480854053
 30
0.0
 11
1418.571242220463
 21
152.4352480854053
 31
0.0
  0
LWPOLYLINE
  5
13B
330
1F
100
AcDbEntity
  8
0-B_寸法
  6
Continuous
 62
     7
370
     9
100
AcDbPolyline
 90
        4
 70
     1
 43
3.0
 10
1420.071242220463
 20
197.4352480854053
 42
0.4142135623731
 10
1418.571242220463
 20
198.9352480854053
 42
0.4142135623731
 10
1417.071242220464
 20
197.4352480854053
 42
0.4142135623731
 10
1418.571242220463
 20
195.9352480854053
 42
0.4142135623731
  0
LWPOLYLINE
  5
13C
330
1F
100
AcDbEntity
  8
0-B_寸法
  6
Continuous
 62
     7
370
     9
100
AcDbPolyline
 90
        4
 70
     1
 43
3.0
 10
1420.071242220463
 20
152.4352480854053
 42
0.4142135623731
 10
1418.571242220463
 20
153.9352480854053
 42
0.4142135623731
 10
1417.071242220464
 20
152.4352480854053
 42
0.4142135623731
 10
1418.571242220463
 20
150.9352480854053
 42
0.4142135623731
  0
LINE
  5
13D
330
1F
100
AcDbEntity
  8
0-B_寸法
  6
Continuous
 62
   120
370
     5
100
AcDbLine
 10
1418.571242220463
 20
197.4352480854053
 30
0.0
 11
1358.571242220463
 21
197.4352480854053
 31
0.0
  0
LINE
  5
13E
330
1F
100
AcDbEntity
  8
0-B_寸法
  6
Continuous
 62
   120
370
     5
100
AcDbLine
 10
1418.571242220463
 20
152.4352480854053
 30
0.0
 11
1358.571242220463
 21
152.4352480854053
 31
0.0
  0
LINE
  5
13F
330
1F
100
AcDbEntity
  8
0-0_補助線
  6
JWW_HOJO
 62
   120
370
     5
100
AcDbLine
 10
1379.571242220463
 20
475.6852480854059
 30
0.0
 11
1274.571242220463
 21
475.6852480854059
 31
0.0
  0
TEXT
  5
140
330
1F
100
AcDbEntity
  8
0-B_寸法
  6
Continuous
 62
     7
370
   211
100
AcDbText
 10
1451.914172861902
 20
140.5102480854053
 30
0.0
 40
57.15000000000001
  1
P30
 41
0.9999999999999999
  7
ＭＳ ゴシック
100
AcDbText
  0
LINE
  5
141
330
1F
100
AcDbEntity
  8
0-B_寸法
  6
Continuous
 62
   120
370
     5
100
AcDbLine
 10
1958.571400051726
 20
696.9352480854059
 30
0.0
 11
1958.571400051726
 21
242.4352480854053
 31
0.0
  0
LINE
  5
142
330
1F
100
AcDbEntity
  8
0-0_補助線
  6
JWW_HOJO
 62
   120
370
     5
100
AcDbLine
 10
1424.571242220463
 20
513.9352480854056
 30
0.0
 11
1424.571242220463
 21
385.6852480854059
 31
0.0
  0
LINE
  5
143
330
1F
100
AcDbEntity
  8
0-0_補助線
  6
JWW_HOJO
 62
   120
370
     5
100
AcDbLine
 10
1424.571242220463
 20
385.6852480854059
 30
0.0
 11
1274.571242220463
 21
385.6852480854059
 31
0.0
  0
LWPOLYLINE
  5
144
330
1F
100
AcDbEntity
  8
0-B_寸法
  6
Continuous
 62
     7
370
     9
100
AcDbPolyline
 90
        4
 70
     1
 43
3.0
 10
1366.071242220463
 20
385.6852480854059
 42
0.4142135623731
 10
1364.571242220463
 20
387.1852480854059
 42
0.4142135623731
 10
1363.071242220463
 20
385.6852480854059
 42
0.4142135623731
 10
1364.571242220463
 20
384.1852480854059
 42
0.4142135623731
  0
LWPOLYLINE
  5
145
330
1F
100
AcDbEntity
  8
0-B_寸法
  6
Continuous
 62
     7
370
     9
100
AcDbPolyline
 90
        4
 70
     1
 43
3.0
 10
1276.071242220463
 20
385.6852480854059
 42
0.4142135623731
 10
1274.571242220463
 20
387.1852480854059
 42
0.4142135623731
 10
1273.071242220463
 20
385.6852480854059
 42
0.4142135623731
 10
1274.571242220463
 20
384.1852480854059
 42
0.4142135623731
  0
LINE
  5
146
330
1F
100
AcDbEntity
  8
0-B_寸法
  6
Continuous
 62
   120
370
     5
100
AcDbLine
 10
1274.571242220463
 20
385.6852480854059
 30
0.0
 11
1364.571242220463
 21
385.6852480854059
 31
0.0
  0
LINE
  5
147
330
1F
100
AcDbEntity
  8
0-B_寸法
  6
Continuous
 62
   120
370
     5
100
AcDbLine
 10
1364.571242220463
 20
385.6852480854059
 30
0.0
 11
1364.571242220463
 21
475.6852480854059
 31
0.0
  0
LINE
  5
148
330
1F
100
AcDbEntity
  8
0-B_寸法
  6
Continuous
 62
   120
370
     5
100
AcDbLine
 10
1274.571242220463
 20
385.6852480854059
 30
0.0
 11
1274.571242220463
 21
475.6852480854059
 31
0.0
  0
TEXT
  5
149
330
1F
100
AcDbEntity
  8
0-B_寸法
  6
Continuous
 62
     7
370
   211
100
AcDbText
 10
1282.071242220463
 20
411.2602480854059
 30
0.0
 40
57.15000000000001
  1
60
 41
0.9999999999999998
  7
ＭＳ ゴシック
100
AcDbText
  0
LINE
  5
14A
330
1F
100
AcDbEntity
  8
0-B_寸法
  6
Continuous
 62
   120
370
     5
100
AcDbLine
 10
1019.570641295181
 20
696.9352480854059
 30
0.0
 11
1019.570641295181
 21
692.4359261588904
 31
0.0
  0
LWPOLYLINE
  5
14B
330
1F
100
AcDbEntity
  8
0-B_寸法
  6
Continuous
 62
     7
370
     9
100
AcDbPolyline
 90
        4
 70
     1
 43
3.0
 10
1021.070641295181
 20
696.9352480854059
 42
0.4142135623731
 10
1019.570641295181
 20
698.4352480854059
 42
0.4142135623731
 10
1018.070641295181
 20
696.9352480854059
 42
0.4142135623731
 10
1019.570641295181
 20
695.4352480854059
 42
0.4142135623731
  0
LWPOLYLINE
  5
14C
330
1F
100
AcDbEntity
  8
0-B_寸法
  6
Continuous
 62
     7
370
     9
100
AcDbPolyline
 90
        4
 70
     1
 43
3.0
 10
1021.070641295181
 20
692.4359261588904
 42
0.4142135623731
 10
1019.570641295181
 20
693.9359261588904
 42
0.4142135623731
 10
1018.070641295181
 20
692.4359261588904
 42
0.4142135623731
 10
1019.570641295181
 20
690.9359261588904
 42
0.4142135623731
  0
LINE
  5
14D
330
1F
100
AcDbEntity
  8
0-B_寸法
  6
Continuous
 62
   120
370
     5
100
AcDbLine
 10
1019.570641295181
 20
696.9352480854059
 30
0.0
 11
1169.570641295181
 21
696.9352480854059
 31
0.0
  0
LINE
  5
14E
330
1F
100
AcDbEntity
  8
0-B_寸法
  6
Continuous
 62
   120
370
     5
100
AcDbLine
 10
1019.570641295181
 20
692.4359261588904
 30
0.0
 11
1169.570641295181
 21
692.4359261588904
 31
0.0
  0
LINE
  5
14F
330
1F
100
AcDbEntity
  8
0-B_寸法
  6
Continuous
 62
   120
370
     5
100
AcDbLine
 10
1019.570641295181
 20
692.4359261588904
 30
0.0
 11
1019.570641295181
 21
512.4359261588904
 31
0.0
  0
LWPOLYLINE
  5
150
330
1F
100
AcDbEntity
  8
0-B_寸法
  6
Continuous
 62
     7
370
     9
100
AcDbPolyline
 90
        4
 70
     1
 43
3.0
 10
1021.070641295181
 20
512.4359261588904
 42
0.4142135623731
 10
1019.570641295181
 20
513.9359261588904
 42
0.4142135623731
 10
1018.070641295181
 20
512.4359261588904
 42
0.4142135623731
 10
1019.570641295181
 20
510.9359261588904
 42
0.4142135623731
  0
LINE
  5
151
330
1F
100
AcDbEntity
  8
0-B_寸法
  6
Continuous
 62
   120
370
     5
100
AcDbLine
 10
1019.570641295181
 20
512.4359261588904
 30
0.0
 11
1169.570641295181
 21
512.4359261588904
 31
0.0
  0
LINE
  5
152
330
1F
100
AcDbEntity
  8
0-B_寸法
  6
Continuous
 62
   120
370
     5
100
AcDbLine
 10
1019.570641295181
 20
512.4359261588904
 30
0.0
 11
1019.570641295181
 21
507.9359261588911
 31
0.0
  0
LWPOLYLINE
  5
153
330
1F
100
AcDbEntity
  8
0-B_寸法
  6
Continuous
 62
     7
370
     9
100
AcDbPolyline
 90
        4
 70
     1
 43
3.0
 10
1021.070641295181
 20
507.9359261588911
 42
0.4142135623731
 10
1019.570641295181
 20
509.4359261588911
 42
0.4142135623731
 10
1018.070641295181
 20
507.9359261588911
 42
0.4142135623731
 10
1019.570641295181
 20
506.4359261588911
 42
0.4142135623731
  0
LINE
  5
154
330
1F
100
AcDbEntity
  8
0-B_寸法
  6
Continuous
 62
   120
370
     5
100
AcDbLine
 10
1019.570641295181
 20
507.9359261588911
 30
0.0
 11
1169.570641295181
 21
507.9359261588911
 31
0.0
  0
LINE
  5
155
330
1F
100
AcDbEntity
  8
0-B_寸法
  6
Continuous
 62
   120
370
     5
100
AcDbLine
 10
1019.570641295181
 20
507.9359261588911
 30
0.0
 11
1019.570641295181
 21
-321.5643741270083
 31
0.0
  0
LWPOLYLINE
  5
156
330
1F
100
AcDbEntity
  8
0-B_寸法
  6
Continuous
 62
     7
370
     9
100
AcDbPolyline
 90
        4
 70
     1
 43
3.0
 10
1021.070641295181
 20
-321.5643741270083
 42
0.4142135623731
 10
1019.570641295181
 20
-320.0643741270083
 42
0.4142135623731
 10
1018.070641295181
 20
-321.5643741270083
 42
0.4142135623731
 10
1019.570641295181
 20
-323.0643741270083
 42
0.4142135623731
  0
LINE
  5
157
330
1F
100
AcDbEntity
  8
0-B_寸法
  6
Continuous
 62
   120
370
     5
100
AcDbLine
 10
1019.570641295181
 20
-321.5643741270083
 30
0.0
 11
1169.570641295181
 21
-321.5643741270083
 31
0.0
  0
TEXT
  5
158
330
1F
100
AcDbEntity
  8
0-B_寸法
  6
Continuous
 62
     7
370
   211
100
AcDbText
 10
991.880641295181
 20
18.18577601594143
 30
0.0
 40
68.58
  1
553
 50
90.0
 41
1.111111111111111
  7
ＭＳ ゴシック
100
AcDbText
  0
LINE
  5
159
330
1F
100
AcDbEntity
  8
0-B_寸法
  6
Continuous
 62
   120
370
     5
100
AcDbLine
 10
1019.570641295181
 20
-321.5643741270083
 30
0.0
 11
1019.570641295181
 21
-471.5647519145942
 31
0.0
  0
LWPOLYLINE
  5
15A
330
1F
100
AcDbEntity
  8
0-B_寸法
  6
Continuous
 62
     7
370
     9
100
AcDbPolyline
 90
        4
 70
     1
 43
3.0
 10
1021.070641295181
 20
-471.5647519145942
 42
0.4142135623731
 10
1019.570641295181
 20
-470.0647519145942
 42
0.4142135623731
 10
1018.070641295181
 20
-471.5647519145942
 42
0.4142135623731
 10
1019.570641295181
 20
-473.0647519145942
 42
0.4142135623731
  0
LINE
  5
15B
330
1F
100
AcDbEntity
  8
0-B_寸法
  6
Continuous
 62
   120
370
     5
100
AcDbLine
 10
1019.570641295181
 20
-471.5647519145942
 30
0.0
 11
1169.570641295181
 21
-471.5647519145942
 31
0.0
  0
TEXT
  5
15C
330
1F
100
AcDbEntity
  8
0-B_寸法
  6
Continuous
 62
     7
370
   211
100
AcDbText
 10
991.880641295181
 20
-471.5645630208014
 30
0.0
 40
68.58
  1
100
 50
90.0
 41
1.111111111111111
  7
ＭＳ ゴシック
100
AcDbText
  0
TEXT
  5
15D
330
1F
100
AcDbEntity
  8
0-B_寸法
  6
Continuous
 62
     7
370
   211
100
AcDbText
 10
991.880641295181
 20
527.4359261588904
 30
0.0
 40
68.58
  1
120
 50
90.0
 41
1.111111111111111
  7
ＭＳ ゴシック
100
AcDbText
  0
TEXT
  5
15E
330
1F
100
AcDbEntity
  8
0-B_寸法
  6
Continuous
 62
     7
370
   211
100
AcDbText
 10
991.880641295181
 20
453.317924028935
 30
0.0
 40
68.58
  1
3
 50
90.0
  7
ＭＳ ゴシック
100
AcDbText
  0
TEXT
  5
15F
330
1F
100
AcDbEntity
  8
0-B_寸法
  6
Continuous
 62
     7
370
   211
100
AcDbText
 10
991.880641295181
 20
706.0581111950678
 30
0.0
 40
68.58
  1
3
 50
90.0
  7
ＭＳ ゴシック
100
AcDbText
  0
LINE
  5
160
330
1F
100
AcDbEntity
  8
0-0_補助線
  6
JWW_HOJO
 62
     7
370
     9
100
AcDbLine
 10
1328.571242220463
 20
-297.5647519145934
 30
0.0
 11
1328.571242220463
 21
674.4352480854059
 31
0.0
  0
LINE
  5
161
330
1F
100
AcDbEntity
  8
0-0_補助線
  6
JWW_HOJO
 62
     7
370
     9
100
AcDbLine
 10
1688.571242220463
 20
-297.5647519145934
 30
0.0
 11
1688.571242220463
 21
674.4352480854059
 31
0.0
  0
LINE
  5
162
330
1F
100
AcDbEntity
  8
0-0_補助線
  6
JWW_HOJO
 62
   120
370
     5
100
AcDbLine
 10
1808.571400051726
 20
-546.5647519145942
 30
0.0
 11
1169.570641295181
 21
-546.5647519145942
 31
0.0
  0
LINE
  5
163
330
1F
100
AcDbEntity
  8
0-0_補助線
  6
JWW_HOJO
 62
   120
370
     5
100
AcDbLine
 10
1169.570641295181
 20
-546.5647519145942
 30
0.0
 11
1169.570641295181
 21
771.9352480854059
 31
0.0
  0
LINE
  5
164
330
1F
100
AcDbEntity
  8
0-0_補助線
  6
JWW_HOJO
 62
   120
370
     5
100
AcDbLine
 10
1808.571400051726
 20
771.9352480854059
 30
0.0
 11
1808.571400051726
 21
-546.5647519145942
 31
0.0
  0
LINE
  5
165
330
1F
100
AcDbEntity
  8
0-0_補助線
  6
JWW_HOJO
 62
   120
370
     5
100
AcDbLine
 10
1169.570641295181
 20
771.9352480854059
 30
0.0
 11
1808.571400051726
 21
771.9352480854059
 31
0.0
  0
LINE
  5
166
330
1F
100
AcDbEntity
  8
0-1_本体
  6
Continuous
 62
    40
370
    15
100
AcDbLine
 10
1733.571400051726
 20
-312.5648242907436
 30
0.0
 11
1729.071400051725
 21
-312.5648242907436
 31
0.0
  0
LINE
  5
167
330
1F
100
AcDbEntity
  8
0-1_本体
  6
Continuous
 62
    40
370
    15
100
AcDbLine
 10
1729.071400051725
 20
-297.5647519145934
 30
0.0
 11
1274.571242220463
 21
-297.5647519145934
 31
0.0
  0
LINE
  5
168
330
1F
100
AcDbEntity
  8
0-1_本体
  6
Continuous
 62
    40
370
    15
100
AcDbLine
 10
1729.071400051725
 20
689.4356982491411
 30
0.0
 11
1733.571400051726
 21
689.4356982491411
 31
0.0
  0
LINE
  5
169
330
1F
100
AcDbEntity
  8
0-1_本体
  6
Continuous
 62
    40
370
    15
100
AcDbLine
 10
1274.571242220463
 20
674.4352480854059
 30
0.0
 11
1729.071400051725
 21
674.4352480854059
 31
0.0
  0
LINE
  5
16A
330
1F
100
AcDbEntity
  8
0-6_桟木
  6
Continuous
 62
    40
370
    15
100
AcDbLine
 10
1729.071400051725
 20
513.9352480854056
 30
0.0
 11
1729.071400051725
 21
490.6852480854059
 31
0.0
  0
LWPOLYLINE
  5
16B
330
1F
100
AcDbEntity
  8
0-B_寸法
  6
Continuous
 62
     7
370
     9
100
AcDbPolyline
 90
        4
 70
     1
 43
3.0
 10
1730.571400051725
 20
385.6852480854059
 42
0.4142135623731
 10
1729.071400051725
 20
387.1852480854059
 42
0.4142135623731
 10
1727.571400051725
 20
385.6852480854059
 42
0.4142135623731
 10
1729.071400051725
 20
384.1852480854059
 42
0.4142135623731
  0
LWPOLYLINE
  5
16C
330
1F
100
AcDbEntity
  8
0-B_寸法
  6
Continuous
 62
     7
370
     9
100
AcDbPolyline
 90
        4
 70
     1
 43
3.0
 10
1640.571400051725
 20
385.6852480854059
 42
0.4142135623731
 10
1639.071400051725
 20
387.1852480854059
 42
0.4142135623731
 10
1637.571400051725
 20
385.6852480854059
 42
0.4142135623731
 10
1639.071400051725
 20
384.1852480854059
 42
0.4142135623731
  0
LINE
  5
16D
330
1F
100
AcDbEntity
  8
0-B_寸法
  6
Continuous
 62
   120
370
     5
100
AcDbLine
 10
1638.321400051722
 20
385.6852480854059
 30
0.0
 11
1729.071400051725
 21
385.6852480854059
 31
0.0
  0
LINE
  5
16E
330
1F
100
AcDbEntity
  8
0-B_寸法
  6
Continuous
 62
   120
370
     5
100
AcDbLine
 10
1729.071400051725
 20
385.6852480854059
 30
0.0
 11
1729.071400051725
 21
475.6852480854059
 31
0.0
  0
LINE
  5
16F
330
1F
100
AcDbEntity
  8
0-B_寸法
  6
Continuous
 62
   120
370
     5
100
AcDbLine
 10
1639.071400051725
 20
385.6852480854059
 30
0.0
 11
1639.071400051725
 21
475.6852480854059
 31
0.0
  0
TEXT
  5
170
330
1F
100
AcDbEntity
  8
0-B_寸法
  6
Continuous
 62
     7
370
   211
100
AcDbText
 10
1646.571400051725
 20
411.2602480854059
 30
0.0
 40
57.15000000000001
  1
60
 41
0.9999999999999998
  7
ＭＳ ゴシック
100
AcDbText
  0
LINE
  5
171
330
1F
100
AcDbEntity
  8
0-0_補助線
  6
JWW_HOJO
 62
     7
370
     9
100
AcDbLine
 10
1274.571242220463
 20
242.4352480854053
 30
0.0
 11
1729.071400051725
 21
242.4352480854053
 31
0.0
  0
LINE
  5
172
330
1F
100
AcDbEntity
  8
0-0_補助線
  6
JWW_HOJO
 62
     7
370
     9
100
AcDbLine
 10
1274.571242220463
 20
-27.56475191459472
 30
0.0
 11
1729.071400051725
 21
-27.56475191459472
 31
0.0
  0
LINE
  5
173
330
1F
100
AcDbEntity
  8
0-0_補助線
  6
JWW_HOJO
 62
     7
370
     9
100
AcDbLine
 10
1274.571242220463
 20
197.4352480854053
 30
0.0
 11
1729.071400051725
 21
197.4352480854053
 31
0.0
  0
LINE
  5
174
330
1F
100
AcDbEntity
  8
0-0_補助線
  6
JWW_HOJO
 62
     7
370
     9
100
AcDbLine
 10
1274.571242220463
 20
152.4352480854053
 30
0.0
 11
1729.071400051725
 21
152.4352480854053
 31
0.0
  0
LINE
  5
175
330
1F
100
AcDbEntity
  8
0-0_補助線
  6
JWW_HOJO
 62
     7
370
     9
100
AcDbLine
 10
1274.571242220463
 20
107.4352480854053
 30
0.0
 11
1729.071400051725
 21
107.4352480854053
 31
0.0
  0
LINE
  5
176
330
1F
100
AcDbEntity
  8
0-0_補助線
  6
JWW_HOJO
 62
     7
370
     9
100
AcDbLine
 10
1274.571242220463
 20
62.43524808540528
 30
0.0
 11
1729.071400051725
 21
62.43524808540528
 31
0.0
  0
LINE
  5
177
330
1F
100
AcDbEntity
  8
0-0_補助線
  6
JWW_HOJO
 62
     7
370
     9
100
AcDbLine
 10
1274.571242220463
 20
17.43524808540528
 30
0.0
 11
1729.071400051725
 21
17.43524808540528
 31
0.0
  0
LINE
  5
178
330
1F
100
AcDbEntity
  8
0-1_本体
  6
Continuous
 62
    40
370
    15
100
AcDbLine
 10
1729.071400051725
 20
689.4356982491411
 30
0.0
 11
1729.071400051725
 21
-312.5648242907436
 31
0.0
  0
LINE
  5
179
330
1F
100
AcDbEntity
  8
0-6_桟木
  6
Continuous
 62
    40
370
    15
100
AcDbLine
 10
1639.071400051725
 20
490.6852480854059
 30
0.0
 11
1639.071400051725
 21
513.9352480854056
 31
0.0
  0
LINE
  5
17A
330
1F
100
AcDbEntity
  8
0-6_桟木
  6
Continuous
 62
    40
370
    15
100
AcDbLine
 10
1639.071400051725
 20
513.9352480854056
 30
0.0
 11
1729.071400051725
 21
513.9352480854056
 31
0.0
  0
LINE
  5
17B
330
1F
100
AcDbEntity
  8
0-6_桟木
  6
Continuous
 62
    40
370
    15
100
AcDbLine
 10
1729.071400051725
 20
490.6852480854059
 30
0.0
 11
1639.071400051725
 21
490.6852480854059
 31
0.0
  0
LINE
  5
17C
330
1F
100
AcDbEntity
  8
0-4_棚
  6
Continuous
 62
    40
370
    15
100
AcDbLine
 10
1729.071400051725
 20
268.6852480854053
 30
0.0
 11
1729.071400051725
 21
246.1852480854066
 31
0.0
  0
LINE
  5
17D
330
1F
100
AcDbEntity
  8
0-4_棚
  6
Continuous
 62
    40
370
    15
100
AcDbLine
 10
1729.071400051725
 20
246.1852480854066
 30
0.0
 11
1300.071400051724
 21
246.1852480854066
 31
0.0
  0
LINE
  5
17E
330
1F
100
AcDbEntity
  8
0-4_棚
  6
Continuous
 62
    40
370
    15
100
AcDbLine
 10
1729.071400051725
 20
268.6852480854053
 30
0.0
 11
1300.071400051724
 21
268.6852480854053
 31
0.0
  0
LINE
  5
17F
330
1F
100
AcDbEntity
  8
0-4_棚
  6
Continuous
 62
    40
370
    15
100
AcDbLine
 10
1300.071400051724
 20
246.1852480854066
 30
0.0
 11
1300.071400051724
 21
268.6852480854053
 31
0.0
  0
LINE
  5
180
330
1F
100
AcDbEntity
  8
0-4_棚
  6
Continuous
 62
    40
370
    15
100
AcDbLine
 10
1729.071400051725
 20
-1.314751914594723
 30
0.0
 11
1729.071400051725
 21
-23.81475191459472
 31
0.0
  0
LINE
  5
181
330
1F
100
AcDbEntity
  8
0-4_棚
  6
Continuous
 62
    40
370
    15
100
AcDbLine
 10
1729.071400051725
 20
-23.81475191459472
 30
0.0
 11
1300.071400051724
 21
-23.81475191459472
 31
0.0
  0
LINE
  5
182
330
1F
100
AcDbEntity
  8
0-4_棚
  6
Continuous
 62
    40
370
    15
100
AcDbLine
 10
1729.071400051725
 20
-1.314751914594723
 30
0.0
 11
1300.071400051724
 21
-1.314751914594723
 31
0.0
  0
LINE
  5
183
330
1F
100
AcDbEntity
  8
0-4_棚
  6
Continuous
 62
    40
370
    15
100
AcDbLine
 10
1300.071400051724
 20
-23.81475191459472
 30
0.0
 11
1300.071400051724
 21
-1.314751914594723
 31
0.0
  0
LWPOLYLINE
  5
184
330
1F
100
AcDbEntity
  8
0-B_寸法
  6
Continuous
 62
     7
370
     9
100
AcDbPolyline
 90
        4
 70
     1
 43
3.0
 10
1301.571400051724
 20
-143.8147519145947
 42
0.4142135623731
 10
1300.071400051724
 20
-142.3147519145947
 42
0.4142135623731
 10
1298.571400051724
 20
-143.8147519145947
 42
0.4142135623731
 10
1300.071400051724
 20
-145.3147519145947
 42
0.4142135623731
  0
LINE
  5
185
330
1F
100
AcDbEntity
  8
0-B_寸法
  6
Continuous
 62
   120
370
     5
100
AcDbLine
 10
1300.071400051724
 20
-143.8147519145947
 30
0.0
 11
1300.071400051724
 21
-53.81475191459472
 31
0.0
  0
LWPOLYLINE
  5
186
330
1F
100
AcDbEntity
  8
0-B_寸法
  6
Continuous
 62
     7
370
     9
100
AcDbPolyline
 90
        4
 70
     1
 43
3.0
 10
1730.571400051725
 20
-143.8147519145947
 42
0.4142135623731
 10
1729.071400051725
 20
-142.3147519145947
 42
0.4142135623731
 10
1727.571400051725
 20
-143.8147519145947
 42
0.4142135623731
 10
1729.071400051725
 20
-145.3147519145947
 42
0.4142135623731
  0
LINE
  5
187
330
1F
100
AcDbEntity
  8
0-B_寸法
  6
Continuous
 62
   120
370
     5
100
AcDbLine
 10
1729.071400051725
 20
-143.8147519145947
 30
0.0
 11
1729.071400051725
 21
-53.81475191459472
 31
0.0
  0
LINE
  5
188
330
1F
100
AcDbEntity
  8
0-B_寸法
  6
Continuous
 62
   120
370
     5
100
AcDbLine
 10
1299.321400051722
 20
-143.8147519145947
 30
0.0
 11
1729.071400051725
 21
-143.8147519145947
 31
0.0
  0
TEXT
  5
189
330
1F
100
AcDbEntity
  8
0-B_寸法
  6
Continuous
 62
     7
370
   211
100
AcDbText
 10
1308.321400051724
 20
-110.7397519145947
 30
0.0
 40
57.15000000000001
  1
可動棚＝286
 41
0.9999999999999999
  7
ＭＳ ゴシック
100
AcDbText
  0
CIRCLE
  5
18A
330
1F
100
AcDbEntity
  8
0-5_ダボ
  6
Continuous
 62
     7
370
     9
100
AcDbCircle
 10
1328.571242220463
 20
242.4352480854053
 30
0.0
 40
3.675
  0
CIRCLE
  5
18B
330
1F
100
AcDbEntity
  8
0-5_ダボ
  6
Continuous
 62
     7
370
     9
100
AcDbCircle
 10
1328.571242220463
 20
197.4352480854053
 30
0.0
 40
3.675
  0
CIRCLE
  5
18C
330
1F
100
AcDbEntity
  8
0-5_ダボ
  6
Continuous
 62
     7
370
     9
100
AcDbCircle
 10
1328.571242220463
 20
152.4352480854053
 30
0.0
 40
3.675
  0
CIRCLE
  5
18D
330
1F
100
AcDbEntity
  8
0-5_ダボ
  6
Continuous
 62
     7
370
     9
100
AcDbCircle
 10
1328.571242220463
 20
107.4352480854053
 30
0.0
 40
3.675
  0
CIRCLE
  5
18E
330
1F
100
AcDbEntity
  8
0-5_ダボ
  6
Continuous
 62
     7
370
     9
100
AcDbCircle
 10
1328.571242220463
 20
62.43524808540528
 30
0.0
 40
3.675
  0
CIRCLE
  5
18F
330
1F
100
AcDbEntity
  8
0-5_ダボ
  6
Continuous
 62
     7
370
     9
100
AcDbCircle
 10
1328.571242220463
 20
17.43524808540528
 30
0.0
 40
3.675
  0
CIRCLE
  5
190
330
1F
100
AcDbEntity
  8
0-5_ダボ
  6
Continuous
 62
     7
370
     9
100
AcDbCircle
 10
1328.571242220463
 20
-27.56475191459472
 30
0.0
 40
3.675
  0
CIRCLE
  5
191
330
1F
100
AcDbEntity
  8
0-5_ダボ
  6
Continuous
 62
     7
370
     9
100
AcDbCircle
 10
1688.571242220463
 20
242.4352480854053
 30
0.0
 40
3.675
  0
CIRCLE
  5
192
330
1F
100
AcDbEntity
  8
0-5_ダボ
  6
Continuous
 62
     7
370
     9
100
AcDbCircle
 10
1688.571242220463
 20
197.4352480854053
 30
0.0
 40
3.675
  0
CIRCLE
  5
193
330
1F
100
AcDbEntity
  8
0-5_ダボ
  6
Continuous
 62
     7
370
     9
100
AcDbCircle
 10
1688.571242220463
 20
152.4352480854053
 30
0.0
 40
3.675
  0
CIRCLE
  5
194
330
1F
100
AcDbEntity
  8
0-5_ダボ
  6
Continuous
 62
     7
370
     9
100
AcDbCircle
 10
1688.571242220463
 20
107.4352480854053
 30
0.0
 40
3.675
  0
CIRCLE
  5
195
330
1F
100
AcDbEntity
  8
0-5_ダボ
  6
Continuous
 62
     7
370
     9
100
AcDbCircle
 10
1688.571242220463
 20
62.43524808540528
 30
0.0
 40
3.675
  0
CIRCLE
  5
196
330
1F
100
AcDbEntity
  8
0-5_ダボ
  6
Continuous
 62
     7
370
     9
100
AcDbCircle
 10
1688.571242220463
 20
17.43524808540528
 30
0.0
 40
3.675
  0
CIRCLE
  5
197
330
1F
100
AcDbEntity
  8
0-5_ダボ
  6
Continuous
 62
     7
370
     9
100
AcDbCircle
 10
1688.571242220463
 20
-27.56475191459472
 30
0.0
 40
3.675
  0
LINE
  5
198
330
1F
100
AcDbEntity
  8
0-2_扉
  6
Continuous
 62
    40
370
    15
100
AcDbLine
 10
1274.571242220463
 20
512.4359261588904
 30
0.0
 11
1274.571242220463
 21
692.4359261588904
 31
0.0
  0
LINE
  5
199
330
1F
100
AcDbEntity
  8
0-2_扉
  6
Continuous
 62
    40
370
    15
100
AcDbLine
 10
1274.571242220463
 20
-321.5643741270083
 30
0.0
 11
1274.571242220463
 21
507.9359261588911
 31
0.0
  0
LINE
  5
19A
330
1F
100
AcDbEntity
  8
0-2_扉
  6
Continuous
 62
    40
370
    15
100
AcDbLine
 10
1247.571242220464
 20
-321.5643741270083
 30
0.0
 11
1274.571242220463
 21
-321.5643741270083
 31
0.0
  0
LINE
  5
19B
330
1F
100
AcDbEntity
  8
0-2_扉
  6
Continuous
 62
    40
370
    15
100
AcDbLine
 10
1247.571242220464
 20
512.4359261588904
 30
0.0
 11
1274.571242220463
 21
512.4359261588904
 31
0.0
  0
LINE
  5
19C
330
1F
100
AcDbEntity
  8
0-2_扉
  6
Continuous
 62
    40
370
    15
100
AcDbLine
 10
1247.571242220464
 20
512.4359261588904
 30
0.0
 11
1247.571242220464
 21
692.4359261588904
 31
0.0
  0
LINE
  5
19D
330
1F
100
AcDbEntity
  8
0-2_扉
  6
Continuous
 62
    40
370
    15
100
AcDbLine
 10
1247.571242220464
 20
692.4359261588904
 30
0.0
 11
1274.571242220463
 21
692.4359261588904
 31
0.0
  0
LINE
  5
19E
330
1F
100
AcDbEntity
  8
0-2_扉
  6
Continuous
 62
    40
370
    15
100
AcDbLine
 10
1247.571242220464
 20
-321.5643741270083
 30
0.0
 11
1247.571242220464
 21
507.9359261588911
 31
0.0
  0
LINE
  5
19F
330
1F
100
AcDbEntity
  8
0-2_扉
  6
Continuous
 62
    40
370
    15
100
AcDbLine
 10
1247.571242220464
 20
507.9359261588911
 30
0.0
 11
1274.571242220463
 21
507.9359261588911
 31
0.0
  0
LINE
  5
1A0
330
1F
100
AcDbEntity
  8
0-A_文字
  6
Continuous
 62
     7
370
     9
100
AcDbLine
 10
2420.571400051723
 20
-1296.564722221796
 30
0.0
 11
560.571400051725
 21
-1296.564722221796
 31
0.0
  0
LINE
  5
1A1
330
1F
100
AcDbEntity
  8
0-A_文字
  6
Continuous
 62
     7
370
     9
100
AcDbLine
 10
560.571400051725
 20
-1071.564722221794
 30
0.0
 11
2420.571400051723
 21
-1071.564722221794
 31
0.0
  0
LINE
  5
1A2
330
1F
100
AcDbEntity
  8
0-A_文字
  6
Continuous
 62
     7
370
     9
100
AcDbLine
 10
2420.571400051723
 20
-1071.564722221794
 30
0.0
 11
2420.571400051723
 21
-1296.564722221796
 31
0.0
  0
TEXT
  5
1A3
330
1F
100
AcDbEntity
  8
0-A_文字
  6
Continuous
 62
     7
370
     9
100
AcDbText
 10
665.571400051725
 20
-1248.684722221794
 30
0.0
 40
137.16
  1
断面図(奥行306mm)
 41
1.07843137254902
  7
ＭＳ ゴシック
100
AcDbText
  0
LINE
  5
1A4
330
1F
100
AcDbEntity
  8
0-A_文字
  6
Continuous
 62
     7
370
     9
100
AcDbLine
 10
560.571400051725
 20
-1071.564722221794
 30
0.0
 11
560.571400051725
 21
-1296.564722221796
 31
0.0
  0
LINE
  5
1A5
330
1F
100
AcDbEntity
  8
0-A_文字
  6
Continuous
 62
     7
370
     9
100
AcDbLine
 10
4551.214257950046
 20
-1296.564722221796
 30
0.0
 11
2691.214257950046
 21
-1296.564722221796
 31
0.0
  0
LINE
  5
1A6
330
1F
100
AcDbEntity
  8
0-A_文字
  6
Continuous
 62
     7
370
     9
100
AcDbLine
 10
2691.214257950046
 20
-1071.564722221794
 30
0.0
 11
4551.214257950046
 21
-1071.564722221794
 31
0.0
  0
LINE
  5
1A7
330
1F
100
AcDbEntity
  8
0-A_文字
  6
Continuous
 62
     7
370
     9
100
AcDbLine
 10
4551.214257950046
 20
-1071.564722221794
 30
0.0
 11
4551.214257950046
 21
-1296.564722221796
 31
0.0
  0
LINE
  5
1A8
330
1F
100
AcDbEntity
  8
0-A_文字
  6
Continuous
 62
     7
370
     9
100
AcDbLine
 10
2691.214257950046
 20
-1071.564722221794
 30
0.0
 11
2691.214257950046
 21
-1296.564722221796
 31
0.0
  0
TEXT
  5
1A9
330
1F
100
AcDbEntity
  8
0-A_文字
  6
Continuous
 62
     7
370
     9
100
AcDbText
 10
2796.214257950046
 20
-1248.684722221794
 30
0.0
 40
137.16
  1
断面図(奥行408mm)
 41
1.07843137254902
  7
ＭＳ ゴシック
100
AcDbText
  0
LINE
  5
1AA
330
1F
100
AcDbEntity
  8
0-2_扉
  6
Continuous
 62
    92
370
    13
100
AcDbLine
 10
-4087.714505389872
 20
512.4359261588904
 30
0.0
 11
-3463.714505389873
 21
512.4359261588904
 31
0.0
  0
LINE
  5
1AB
330
1F
100
AcDbEntity
  8
0-2_扉
  6
Continuous
 62
    92
370
    13
100
AcDbLine
 10
-4087.714505389872
 20
692.4359261588904
 30
0.0
 11
-3463.714505389873
 21
692.4359261588904
 31
0.0
  0
LINE
  5
1AC
330
1F
100
AcDbEntity
  8
0-1_本体
  6
Continuous
 62
     7
370
     9
100
AcDbLine
 10
-4090.714505389873
 20
696.9352480854059
 30
0.0
 11
-2830.714484180745
 21
696.9352480854059
 31
0.0
  0
LINE
  5
1AD
330
1F
100
AcDbEntity
  8
0-7__
  6
Continuous
 62
     7
370
     9
100
AcDbLine
 10
-3850.714650230539
 20
594.9359261588904
 30
0.0
 11
-3700.714650230539
 21
594.9359261588904
 31
0.0
  0
LINE
  5
1AE
330
1F
100
AcDbEntity
  8
0-7__
  6
Continuous
 62
     7
370
     9
100
AcDbLine
 10
-3700.714650230539
 20
594.9359261588904
 30
0.0
 11
-3700.714650230539
 21
609.9359261588904
 31
0.0
  0
LINE
  5
1AF
330
1F
100
AcDbEntity
  8
0-7__
  6
Continuous
 62
     7
370
     9
100
AcDbLine
 10
-3700.714650230539
 20
609.9359261588904
 30
0.0
 11
-3850.714650230539
 21
609.9359261588904
 31
0.0
  0
LINE
  5
1B0
330
1F
100
AcDbEntity
  8
0-7__
  6
Continuous
 62
     7
370
     9
100
AcDbLine
 10
-3850.714650230539
 20
609.9359261588904
 30
0.0
 11
-3850.714650230539
 21
594.9359261588904
 31
0.0
  0
LINE
  5
1B1
330
1F
100
AcDbEntity
  8
0-2_扉
  6
JWW_CENTER1
 62
   120
370
     5
100
AcDbLine
 10
-3457.714795071208
 20
507.9359261588911
 30
0.0
 11
-2833.715084752543
 21
93.18592615889102
 31
0.0
  0
LINE
  5
1B2
330
1F
100
AcDbEntity
  8
0-2_扉
  6
Continuous
 62
    92
370
    13
100
AcDbLine
 10
-3457.714795071208
 20
512.4359261588904
 30
0.0
 11
-2833.714795071206
 21
512.4359261588904
 31
0.0
  0
LINE
  5
1B3
330
1F
100
AcDbEntity
  8
0-2_扉
  6
Continuous
 62
    92
370
    13
100
AcDbLine
 10
-3457.714795071208
 20
512.4359261588904
 30
0.0
 11
-3457.714795071208
 21
692.4359261588904
 31
0.0
  0
LINE
  5
1B4
330
1F
100
AcDbEntity
  8
0-2_扉
  6
Continuous
 62
    92
370
    13
100
AcDbLine
 10
-3457.714795071208
 20
692.4359261588904
 30
0.0
 11
-2833.714795071206
 21
692.4359261588904
 31
0.0
  0
LINE
  5
1B5
330
1F
100
AcDbEntity
  8
0-2_扉
  6
JWW_CENTER1
 62
   120
370
     5
100
AcDbLine
 10
-2833.715084752543
 20
93.18592615889102
 30
0.0
 11
-3457.714795071208
 21
-321.5640738411104
 31
0.0
  0
LINE
  5
1B6
330
1F
100
AcDbEntity
  8
0-2_扉
  6
Continuous
 62
    92
370
    13
100
AcDbLine
 10
-3457.714795071208
 20
-321.5640738411104
 30
0.0
 11
-3457.714795071208
 21
507.9359261588911
 31
0.0
  0
LINE
  5
1B7
330
1F
100
AcDbEntity
  8
0-2_扉
  6
Continuous
 62
    92
370
    13
100
AcDbLine
 10
-3457.714795071208
 20
507.9359261588911
 30
0.0
 11
-2833.715084752543
 21
507.9359261588911
 31
0.0
  0
LINE
  5
1B8
330
1F
100
AcDbEntity
  8
0-2_扉
  6
Continuous
 62
    92
370
    13
100
AcDbLine
 10
-3457.714795071208
 20
-321.5640738411104
 30
0.0
 11
-2833.715084752543
 21
-321.5640738411104
 31
0.0
  0
LINE
  5
1B9
330
1F
100
AcDbEntity
  8
0-2_扉
  6
Continuous
 62
    92
370
    13
100
AcDbLine
 10
-3463.714505389873
 20
512.4359261588904
 30
0.0
 11
-3463.714505389873
 21
692.4359261588904
 31
0.0
  0
LINE
  5
1BA
330
1F
100
AcDbEntity
  8
0-2_扉
  6
JWW_CENTER1
 62
   120
370
     5
100
AcDbLine
 10
-4087.714505389872
 20
93.18592615889102
 30
0.0
 11
-3463.714795071206
 21
-321.5640738411104
 31
0.0
  0
LINE
  5
1BB
330
1F
100
AcDbEntity
  8
0-2_扉
  6
JWW_CENTER1
 62
   120
370
     5
100
AcDbLine
 10
-3463.714795071206
 20
507.9359261588911
 30
0.0
 11
-4087.714505389872
 21
93.18592615889102
 31
0.0
  0
LINE
  5
1BC
330
1F
100
AcDbEntity
  8
0-2_扉
  6
Continuous
 62
    92
370
    13
100
AcDbLine
 10
-3463.714795071206
 20
-321.5640738411104
 30
0.0
 11
-3463.714795071206
 21
507.9359261588911
 31
0.0
  0
LINE
  5
1BD
330
1F
100
AcDbEntity
  8
0-2_扉
  6
Continuous
 62
    92
370
    13
100
AcDbLine
 10
-4087.714505389872
 20
507.9359261588911
 30
0.0
 11
-3463.714795071206
 21
507.9359261588911
 31
0.0
  0
LINE
  5
1BE
330
1F
100
AcDbEntity
  8
0-2_扉
  6
Continuous
 62
    92
370
    13
100
AcDbLine
 10
-4087.714505389872
 20
-321.5640738411104
 30
0.0
 11
-3463.714795071206
 21
-321.5640738411104
 31
0.0
  0
LINE
  5
1BF
330
1F
100
AcDbEntity
  8
0-1_本体
  6
Continuous
 62
     7
370
     9
100
AcDbLine
 10
-2830.714484180745
 20
-471.5647519145942
 30
0.0
 11
-4090.714505389873
 21
-471.5647519145942
 31
0.0
  0
LINE
  5
1C0
330
1F
100
AcDbEntity
  8
0-1_本体
  6
Continuous
 62
     7
370
     9
100
AcDbLine
 10
-4090.714505389873
 20
-471.5647519145942
 30
0.0
 11
-4090.714505389873
 21
696.9352480854059
 31
0.0
  0
LINE
  5
1C1
330
1F
100
AcDbEntity
  8
0-1_本体
  6
Continuous
 62
     7
370
     9
100
AcDbLine
 10
-2830.714484180745
 20
696.9352480854059
 30
0.0
 11
-2830.714484180745
 21
-471.5647519145942
 31
0.0
  0
LINE
  5
1C2
330
1F
100
AcDbEntity
  8
0-2_扉
  6
Continuous
 62
    92
370
    13
100
AcDbLine
 10
-2833.714795071206
 20
512.4359261588904
 30
0.0
 11
-2833.714795071206
 21
692.4359261588904
 31
0.0
  0
LINE
  5
1C3
330
1F
100
AcDbEntity
  8
0-2_扉
  6
Continuous
 62
    92
370
    13
100
AcDbLine
 10
-4087.714505389872
 20
512.4359261588904
 30
0.0
 11
-4087.714505389872
 21
692.4359261588904
 31
0.0
  0
LINE
  5
1C4
330
1F
100
AcDbEntity
  8
0-2_扉
  6
Continuous
 62
    92
370
    13
100
AcDbLine
 10
-4087.714505389872
 20
-321.5640738411104
 30
0.0
 11
-4087.714505389872
 21
507.9359261588911
 31
0.0
  0
LINE
  5
1C5
330
1F
100
AcDbEntity
  8
0-2_扉
  6
Continuous
 62
    92
370
    13
100
AcDbLine
 10
-2833.715084752543
 20
507.9359261588911
 30
0.0
 11
-2833.715084752543
 21
-321.5640738411104
 31
0.0
  0
LINE
  5
1C6
330
1F
100
AcDbEntity
  8
0-0_補助線
  6
JWW_HOJO
 62
   120
370
     5
100
AcDbLine
 10
-4165.714505389873
 20
-546.5647519145942
 30
0.0
 11
-4165.714505389873
 21
771.9352480854059
 31
0.0
  0
LINE
  5
1C7
330
1F
100
AcDbEntity
  8
0-0_補助線
  6
JWW_HOJO
 62
   120
370
     5
100
AcDbLine
 10
-2755.714484180745
 20
771.9352480854059
 30
0.0
 11
-2755.714484180745
 21
-546.5647519145942
 31
0.0
  0
LINE
  5
1C8
330
1F
100
AcDbEntity
  8
0-1_本体
  6
Continuous
 62
     7
370
     9
100
AcDbLine
 10
-4067.464505389872
 20
-471.5647519145942
 30
0.0
 11
-4067.464505389872
 21
-321.5647519145942
 31
0.0
  0
LINE
  5
1C9
330
1F
100
AcDbEntity
  8
0-1_本体
  6
Continuous
 62
     7
370
     9
100
AcDbLine
 10
-2853.964505389872
 20
-471.5647519145942
 30
0.0
 11
-2853.964505389872
 21
-321.5647519145942
 31
0.0
  0
LINE
  5
1CA
330
1F
100
AcDbEntity
  8
0-0_補助線
  6
JWW_HOJO
 62
   120
370
     5
100
AcDbLine
 10
-4315.714505389873
 20
771.9352480854059
 30
0.0
 11
-2755.714484180745
 21
771.9352480854059
 31
0.0
  0
LINE
  5
1CB
330
1F
100
AcDbEntity
  8
0-0_補助線
  6
JWW_HOJO
 62
   120
370
     5
100
AcDbLine
 10
-4315.714505389873
 20
-546.5647519145942
 30
0.0
 11
-4315.714505389873
 21
771.9352480854059
 31
0.0
  0
LINE
  5
1CC
330
1F
100
AcDbEntity
  8
0-0_補助線
  6
JWW_HOJO
 62
   120
370
     5
100
AcDbLine
 10
-2755.714484180745
 20
-546.5647519145942
 30
0.0
 11
-4315.714505389873
 21
-546.5647519145942
 31
0.0
  0
LINE
  5
1CD
330
1F
100
AcDbEntity
  8
0-B_寸法
  6
Continuous
 62
   120
370
     5
100
AcDbLine
 10
-4315.714505389873
 20
696.9352480854059
 30
0.0
 11
-4315.714505389873
 21
692.4359261588904
 31
0.0
  0
LWPOLYLINE
  5
1CE
330
1F
100
AcDbEntity
  8
0-B_寸法
  6
Continuous
 62
     7
370
     9
100
AcDbPolyline
 90
        4
 70
     1
 43
3.0
 10
-4314.214505389872
 20
696.9352480854059
 42
0.4142135623731
 10
-4315.714505389873
 20
698.4352480854059
 42
0.4142135623731
 10
-4317.214505389873
 20
696.9352480854059
 42
0.4142135623731
 10
-4315.714505389873
 20
695.4352480854059
 42
0.4142135623731
  0
LWPOLYLINE
  5
1CF
330
1F
100
AcDbEntity
  8
0-B_寸法
  6
Continuous
 62
     7
370
     9
100
AcDbPolyline
 90
        4
 70
     1
 43
3.0
 10
-4314.214505389872
 20
692.4359261588904
 42
0.4142135623731
 10
-4315.714505389873
 20
693.9359261588904
 42
0.4142135623731
 10
-4317.214505389873
 20
692.4359261588904
 42
0.4142135623731
 10
-4315.714505389873
 20
690.9359261588904
 42
0.4142135623731
  0
LINE
  5
1D0
330
1F
100
AcDbEntity
  8
0-B_寸法
  6
Continuous
 62
   120
370
     5
100
AcDbLine
 10
-4315.714505389873
 20
696.9352480854059
 30
0.0
 11
-4165.714505389873
 21
696.9352480854059
 31
0.0
  0
LINE
  5
1D1
330
1F
100
AcDbEntity
  8
0-B_寸法
  6
Continuous
 62
   120
370
     5
100
AcDbLine
 10
-4465.714505389873
 20
692.4359261588904
 30
0.0
 11
-4165.714505389873
 21
692.4359261588904
 31
0.0
  0
LINE
  5
1D2
330
1F
100
AcDbEntity
  8
0-B_寸法
  6
Continuous
 62
   120
370
     5
100
AcDbLine
 10
-4315.714505389873
 20
692.4359261588904
 30
0.0
 11
-4315.714505389873
 21
512.4359261588904
 31
0.0
  0
LWPOLYLINE
  5
1D3
330
1F
100
AcDbEntity
  8
0-B_寸法
  6
Continuous
 62
     7
370
     9
100
AcDbPolyline
 90
        4
 70
     1
 43
3.0
 10
-4314.214505389872
 20
512.4359261588904
 42
0.4142135623731
 10
-4315.714505389873
 20
513.9359261588904
 42
0.4142135623731
 10
-4317.214505389873
 20
512.4359261588904
 42
0.4142135623731
 10
-4315.714505389873
 20
510.9359261588904
 42
0.4142135623731
  0
LINE
  5
1D4
330
1F
100
AcDbEntity
  8
0-B_寸法
  6
Continuous
 62
   120
370
     5
100
AcDbLine
 10
-4315.714505389873
 20
512.4359261588904
 30
0.0
 11
-4165.714505389873
 21
512.4359261588904
 31
0.0
  0
TEXT
  5
1D5
330
1F
100
AcDbEntity
  8
0-B_寸法
  6
Continuous
 62
     7
370
   211
100
AcDbText
 10
-4343.404505389873
 20
527.4359261588904
 30
0.0
 40
68.58
  1
120
 50
90.0
 41
1.111111111111111
  7
ＭＳ ゴシック
100
AcDbText
  0
LINE
  5
1D6
330
1F
100
AcDbEntity
  8
0-B_寸法
  6
Continuous
 62
   120
370
     5
100
AcDbLine
 10
-4315.714505389873
 20
512.4359261588904
 30
0.0
 11
-4315.714505389873
 21
507.9359261588911
 31
0.0
  0
LWPOLYLINE
  5
1D7
330
1F
100
AcDbEntity
  8
0-B_寸法
  6
Continuous
 62
     7
370
     9
100
AcDbPolyline
 90
        4
 70
     1
 43
3.0
 10
-4314.214505389872
 20
507.9359261588911
 42
0.4142135623731
 10
-4315.714505389873
 20
509.4359261588911
 42
0.4142135623731
 10
-4317.214505389873
 20
507.9359261588911
 42
0.4142135623731
 10
-4315.714505389873
 20
506.4359261588911
 42
0.4142135623731
  0
LINE
  5
1D8
330
1F
100
AcDbEntity
  8
0-B_寸法
  6
Continuous
 62
   120
370
     5
100
AcDbLine
 10
-4315.714505389873
 20
507.9359261588911
 30
0.0
 11
-4165.714505389873
 21
507.9359261588911
 31
0.0
  0
LINE
  5
1D9
330
1F
100
AcDbEntity
  8
0-B_寸法
  6
Continuous
 62
   120
370
     5
100
AcDbLine
 10
-4315.714505389873
 20
507.9359261588911
 30
0.0
 11
-4315.714505389873
 21
-321.5640738411104
 31
0.0
  0
LWPOLYLINE
  5
1DA
330
1F
100
AcDbEntity
  8
0-B_寸法
  6
Continuous
 62
     7
370
     9
100
AcDbPolyline
 90
        4
 70
     1
 43
3.0
 10
-4314.214505389872
 20
-321.5640738411104
 42
0.4142135623731
 10
-4315.714505389873
 20
-320.0640738411103
 42
0.4142135623731
 10
-4317.214505389873
 20
-321.5640738411104
 42
0.4142135623731
 10
-4315.714505389873
 20
-323.0640738411104
 42
0.4142135623731
  0
LINE
  5
1DB
330
1F
100
AcDbEntity
  8
0-B_寸法
  6
Continuous
 62
   120
370
     5
100
AcDbLine
 10
-4315.714505389873
 20
-321.5640738411104
 30
0.0
 11
-4165.714505389873
 21
-321.5640738411104
 31
0.0
  0
LINE
  5
1DC
330
1F
100
AcDbEntity
  8
0-B_寸法
  6
Continuous
 62
   120
370
     5
100
AcDbLine
 10
-4315.714505389873
 20
-321.5640738411104
 30
0.0
 11
-4315.714505389873
 21
-471.5647519145946
 31
0.0
  0
LWPOLYLINE
  5
1DD
330
1F
100
AcDbEntity
  8
0-B_寸法
  6
Continuous
 62
     7
370
     9
100
AcDbPolyline
 90
        4
 70
     1
 43
3.0
 10
-4314.214505389872
 20
-471.5647519145946
 42
0.4142135623731
 10
-4315.714505389873
 20
-470.0647519145946
 42
0.4142135623731
 10
-4317.214505389873
 20
-471.5647519145946
 42
0.4142135623731
 10
-4315.714505389873
 20
-473.0647519145946
 42
0.4142135623731
  0
LINE
  5
1DE
330
1F
100
AcDbEntity
  8
0-B_寸法
  6
Continuous
 62
   120
370
     5
100
AcDbLine
 10
-4465.714505389873
 20
-471.5647519145946
 30
0.0
 11
-4165.714505389873
 21
-471.5647519145946
 31
0.0
  0
TEXT
  5
1DF
330
1F
100
AcDbEntity
  8
0-B_寸法
  6
Continuous
 62
     7
370
   211
100
AcDbText
 10
-4343.404505389873
 20
-471.5644128778523
 30
0.0
 40
68.58
  1
100
 50
90.0
 41
1.111111111111111
  7
ＭＳ ゴシック
100
AcDbText
  0
TEXT
  5
1E0
330
1F
100
AcDbEntity
  8
0-B_寸法
  6
Continuous
 62
     7
370
   211
100
AcDbText
 10
-4343.404505389873
 20
453.317924028935
 30
0.0
 40
68.58
  1
3
 50
90.0
  7
ＭＳ ゴシック
100
AcDbText
  0
TEXT
  5
1E1
330
1F
100
AcDbEntity
  8
0-B_寸法
  6
Continuous
 62
     7
370
   211
100
AcDbText
 10
-4343.404505389873
 20
706.0581111950678
 30
0.0
 40
68.58
  1
3
 50
90.0
  7
ＭＳ ゴシック
100
AcDbText
  0
LINE
  5
1E2
330
1F
100
AcDbEntity
  8
0-B_寸法
  6
Continuous
 62
   120
370
     5
100
AcDbLine
 10
-4090.714505389873
 20
921.9352480854059
 30
0.0
 11
-4087.714505389872
 21
921.9352480854059
 31
0.0
  0
LWPOLYLINE
  5
1E3
330
1F
100
AcDbEntity
  8
0-B_寸法
  6
Continuous
 62
     7
370
     9
100
AcDbPolyline
 90
        4
 70
     1
 43
3.0
 10
-4089.214505389873
 20
921.9352480854059
 42
0.4142135623731
 10
-4090.714505389873
 20
923.4352480854059
 42
0.4142135623731
 10
-4092.214505389873
 20
921.9352480854059
 42
0.4142135623731
 10
-4090.714505389873
 20
920.4352480854059
 42
0.4142135623731
  0
LWPOLYLINE
  5
1E4
330
1F
100
AcDbEntity
  8
0-B_寸法
  6
Continuous
 62
     7
370
     9
100
AcDbPolyline
 90
        4
 70
     1
 43
3.0
 10
-4086.214505389872
 20
921.9352480854059
 42
0.4142135623731
 10
-4087.714505389872
 20
923.4352480854059
 42
0.4142135623731
 10
-4089.214505389873
 20
921.9352480854059
 42
0.4142135623731
 10
-4087.714505389872
 20
920.4352480854059
 42
0.4142135623731
  0
LINE
  5
1E5
330
1F
100
AcDbEntity
  8
0-B_寸法
  6
Continuous
 62
   120
370
     5
100
AcDbLine
 10
-4090.714505389873
 20
921.9352480854059
 30
0.0
 11
-4090.714505389873
 21
771.9352480854059
 31
0.0
  0
LINE
  5
1E6
330
1F
100
AcDbEntity
  8
0-B_寸法
  6
Continuous
 62
   120
370
     5
100
AcDbLine
 10
-4087.714505389872
 20
921.9352480854059
 30
0.0
 11
-4087.714505389872
 21
771.9352480854059
 31
0.0
  0
TEXT
  5
1E7
330
1F
100
AcDbEntity
  8
0-B_寸法
  6
Continuous
 62
     7
370
   211
100
AcDbText
 10
-4111.714505389872
 20
949.6252480854059
 30
0.0
 40
68.58
  1
2
  7
ＭＳ ゴシック
100
AcDbText
  0
LINE
  5
1E8
330
1F
100
AcDbEntity
  8
0-B_寸法
  6
Continuous
 62
   120
370
     5
100
AcDbLine
 10
-4087.714505389872
 20
921.9352480854059
 30
0.0
 11
-3463.714505389873
 21
921.9352480854059
 31
0.0
  0
LWPOLYLINE
  5
1E9
330
1F
100
AcDbEntity
  8
0-B_寸法
  6
Continuous
 62
     7
370
     9
100
AcDbPolyline
 90
        4
 70
     1
 43
3.0
 10
-3462.214505389873
 20
921.9352480854059
 42
0.4142135623731
 10
-3463.714505389873
 20
923.4352480854059
 42
0.4142135623731
 10
-3465.214505389873
 20
921.9352480854059
 42
0.4142135623731
 10
-3463.714505389873
 20
920.4352480854059
 42
0.4142135623731
  0
LINE
  5
1EA
330
1F
100
AcDbEntity
  8
0-B_寸法
  6
Continuous
 62
   120
370
     5
100
AcDbLine
 10
-3463.714505389873
 20
921.9352480854059
 30
0.0
 11
-3463.714505389873
 21
771.9352480854059
 31
0.0
  0
LINE
  5
1EB
330
1F
100
AcDbEntity
  8
0-B_寸法
  6
Continuous
 62
   120
370
     5
100
AcDbLine
 10
-3463.714505389873
 20
921.9352480854059
 30
0.0
 11
-3457.714795071208
 21
921.9352480854059
 31
0.0
  0
LWPOLYLINE
  5
1EC
330
1F
100
AcDbEntity
  8
0-B_寸法
  6
Continuous
 62
     7
370
     9
100
AcDbPolyline
 90
        4
 70
     1
 43
3.0
 10
-3456.214795071208
 20
921.9352480854059
 42
0.4142135623731
 10
-3457.714795071208
 20
923.4352480854059
 42
0.4142135623731
 10
-3459.214795071208
 20
921.9352480854059
 42
0.4142135623731
 10
-3457.714795071208
 20
920.4352480854059
 42
0.4142135623731
  0
LINE
  5
1ED
330
1F
100
AcDbEntity
  8
0-B_寸法
  6
Continuous
 62
   120
370
     5
100
AcDbLine
 10
-3457.714795071208
 20
921.9352480854059
 30
0.0
 11
-3457.714795071208
 21
771.9352480854059
 31
0.0
  0
TEXT
  5
1EE
330
1F
100
AcDbEntity
  8
0-B_寸法
  6
Continuous
 62
     7
370
   211
100
AcDbText
 10
-3483.214650230541
 20
949.6252480854059
 30
0.0
 40
68.58
  1
4
  7
ＭＳ ゴシック
100
AcDbText
  0
LINE
  5
1EF
330
1F
100
AcDbEntity
  8
0-B_寸法
  6
Continuous
 62
   120
370
     5
100
AcDbLine
 10
-3457.714795071208
 20
921.9352480854059
 30
0.0
 11
-2833.714795071206
 21
921.9352480854059
 31
0.0
  0
LWPOLYLINE
  5
1F0
330
1F
100
AcDbEntity
  8
0-B_寸法
  6
Continuous
 62
     7
370
     9
100
AcDbPolyline
 90
        4
 70
     1
 43
3.0
 10
-2832.214795071206
 20
921.9352480854059
 42
0.4142135623731
 10
-2833.714795071206
 20
923.4352480854059
 42
0.4142135623731
 10
-2835.214795071206
 20
921.9352480854059
 42
0.4142135623731
 10
-2833.714795071206
 20
920.4352480854059
 42
0.4142135623731
  0
LINE
  5
1F1
330
1F
100
AcDbEntity
  8
0-B_寸法
  6
Continuous
 62
   120
370
     5
100
AcDbLine
 10
-2833.714795071206
 20
921.9352480854059
 30
0.0
 11
-2833.714795071206
 21
771.9352480854059
 31
0.0
  0
LINE
  5
1F2
330
1F
100
AcDbEntity
  8
0-B_寸法
  6
Continuous
 62
   120
370
     5
100
AcDbLine
 10
-2833.714795071206
 20
921.9352480854059
 30
0.0
 11
-2830.714484180745
 21
921.9352480854059
 31
0.0
  0
LWPOLYLINE
  5
1F3
330
1F
100
AcDbEntity
  8
0-B_寸法
  6
Continuous
 62
     7
370
     9
100
AcDbPolyline
 90
        4
 70
     1
 43
3.0
 10
-2829.214484180745
 20
921.9352480854059
 42
0.4142135623731
 10
-2830.714484180745
 20
923.4352480854059
 42
0.4142135623731
 10
-2832.214484180745
 20
921.9352480854059
 42
0.4142135623731
 10
-2830.714484180745
 20
920.4352480854059
 42
0.4142135623731
  0
LINE
  5
1F4
330
1F
100
AcDbEntity
  8
0-B_寸法
  6
Continuous
 62
   120
370
     5
100
AcDbLine
 10
-2830.714484180745
 20
921.9352480854059
 30
0.0
 11
-2830.714484180745
 21
771.9352480854059
 31
0.0
  0
TEXT
  5
1F5
330
1F
100
AcDbEntity
  8
0-B_寸法
  6
Continuous
 62
     7
370
   211
100
AcDbText
 10
-2854.714639625976
 20
949.6252480854059
 30
0.0
 40
68.58
  1
2
  7
ＭＳ ゴシック
100
AcDbText
  0
LINE
  5
1F6
330
1F
100
AcDbEntity
  8
0-B_寸法
  6
Continuous
 62
   120
370
     5
100
AcDbLine
 10
-4090.714505389873
 20
-696.5647519145942
 30
0.0
 11
-4067.464505389872
 21
-696.5647519145942
 31
0.0
  0
LWPOLYLINE
  5
1F7
330
1F
100
AcDbEntity
  8
0-B_寸法
  6
Continuous
 62
     7
370
     9
100
AcDbPolyline
 90
        4
 70
     1
 43
3.0
 10
-4089.214505389873
 20
-696.5647519145942
 42
0.4142135623731
 10
-4090.714505389873
 20
-695.0647519145942
 42
0.4142135623731
 10
-4092.214505389873
 20
-696.5647519145942
 42
0.4142135623731
 10
-4090.714505389873
 20
-698.0647519145942
 42
0.4142135623731
  0
LWPOLYLINE
  5
1F8
330
1F
100
AcDbEntity
  8
0-B_寸法
  6
Continuous
 62
     7
370
     9
100
AcDbPolyline
 90
        4
 70
     1
 43
3.0
 10
-4065.964505389871
 20
-696.5647519145942
 42
0.4142135623731
 10
-4067.464505389872
 20
-695.0647519145942
 42
0.4142135623731
 10
-4068.964505389872
 20
-696.5647519145942
 42
0.4142135623731
 10
-4067.464505389872
 20
-698.0647519145942
 42
0.4142135623731
  0
LINE
  5
1F9
330
1F
100
AcDbEntity
  8
0-B_寸法
  6
Continuous
 62
   120
370
     5
100
AcDbLine
 10
-4090.714505389873
 20
-846.5647519145942
 30
0.0
 11
-4090.714505389873
 21
-546.5647519145942
 31
0.0
  0
LINE
  5
1FA
330
1F
100
AcDbEntity
  8
0-B_寸法
  6
Continuous
 62
   120
370
     5
100
AcDbLine
 10
-4067.464505389872
 20
-696.5647519145942
 30
0.0
 11
-4067.464505389872
 21
-546.5647519145942
 31
0.0
  0
LINE
  5
1FB
330
1F
100
AcDbEntity
  8
0-B_寸法
  6
Continuous
 62
   120
370
     5
100
AcDbLine
 10
-4067.464505389872
 20
-696.5647519145942
 30
0.0
 11
-2853.964505389872
 21
-696.5647519145942
 31
0.0
  0
LWPOLYLINE
  5
1FC
330
1F
100
AcDbEntity
  8
0-B_寸法
  6
Continuous
 62
     7
370
     9
100
AcDbPolyline
 90
        4
 70
     1
 43
3.0
 10
-2852.464505389872
 20
-696.5647519145942
 42
0.4142135623731
 10
-2853.964505389872
 20
-695.0647519145942
 42
0.4142135623731
 10
-2855.464505389872
 20
-696.5647519145942
 42
0.4142135623731
 10
-2853.964505389872
 20
-698.0647519145942
 42
0.4142135623731
  0
LINE
  5
1FD
330
1F
100
AcDbEntity
  8
0-B_寸法
  6
Continuous
 62
   120
370
     5
100
AcDbLine
 10
-2853.964505389872
 20
-696.5647519145942
 30
0.0
 11
-2853.964505389872
 21
-546.5647519145942
 31
0.0
  0
TEXT
  5
1FE
330
1F
100
AcDbEntity
  8
0-B_寸法
  6
Continuous
 62
     7
370
   211
100
AcDbText
 10
-3535.714505389873
 20
-668.8747519145942
 30
0.0
 40
68.58
  1
809
 41
1.111111111111111
  7
ＭＳ ゴシック
100
AcDbText
  0
LINE
  5
1FF
330
1F
100
AcDbEntity
  8
0-B_寸法
  6
Continuous
 62
   120
370
     5
100
AcDbLine
 10
-2853.964505389872
 20
-696.5647519145942
 30
0.0
 11
-2830.714484180745
 21
-696.5647519145942
 31
0.0
  0
LWPOLYLINE
  5
200
330
1F
100
AcDbEntity
  8
0-B_寸法
  6
Continuous
 62
     7
370
     9
100
AcDbPolyline
 90
        4
 70
     1
 43
3.0
 10
-2829.214484180745
 20
-696.5647519145942
 42
0.4142135623731
 10
-2830.714484180745
 20
-695.0647519145942
 42
0.4142135623731
 10
-2832.214484180745
 20
-696.5647519145942
 42
0.4142135623731
 10
-2830.714484180745
 20
-698.0647519145942
 42
0.4142135623731
  0
LINE
  5
201
330
1F
100
AcDbEntity
  8
0-B_寸法
  6
Continuous
 62
   120
370
     5
100
AcDbLine
 10
-2830.714484180745
 20
-846.5647519145942
 30
0.0
 11
-2830.714484180745
 21
-546.5647519145942
 31
0.0
  0
LINE
  5
202
330
1F
100
AcDbEntity
  8
0-B_寸法
  6
Continuous
 62
   120
370
     5
100
AcDbLine
 10
-4090.714505389873
 20
-846.5647519145942
 30
0.0
 11
-2830.714484180745
 21
-846.5647519145942
 31
0.0
  0
LWPOLYLINE
  5
203
330
1F
100
AcDbEntity
  8
0-B_寸法
  6
Continuous
 62
     7
370
     9
100
AcDbPolyline
 90
        4
 70
     1
 43
3.0
 10
-4089.214505389873
 20
-846.5647519145942
 42
0.4142135623731
 10
-4090.714505389873
 20
-845.0647519145942
 42
0.4142135623731
 10
-4092.214505389873
 20
-846.5647519145942
 42
0.4142135623731
 10
-4090.714505389873
 20
-848.0647519145942
 42
0.4142135623731
  0
LWPOLYLINE
  5
204
330
1F
100
AcDbEntity
  8
0-B_寸法
  6
Continuous
 62
     7
370
     9
100
AcDbPolyline
 90
        4
 70
     1
 43
3.0
 10
-2829.214484180745
 20
-846.5647519145942
 42
0.4142135623731
 10
-2830.714484180745
 20
-845.0647519145942
 42
0.4142135623731
 10
-2832.214484180745
 20
-846.5647519145942
 42
0.4142135623731
 10
-2830.714484180745
 20
-848.0647519145942
 42
0.4142135623731
  0
TEXT
  5
205
330
1F
100
AcDbEntity
  8
0-B_寸法
  6
Continuous
 62
     7
370
   211
100
AcDbText
 10
-3535.714494785309
 20
-818.8747519145942
 30
0.0
 40
68.58
  1
840
 41
1.111111111111111
  7
ＭＳ ゴシック
100
AcDbText
  0
TEXT
  5
206
330
1F
100
AcDbEntity
  8
0-B_寸法
  6
Continuous
 62
     7
370
   211
100
AcDbText
 10
-4308.77458756736
 20
-668.8747519145942
 30
0.0
 40
68.58
  1
15.5
 41
1.125
  7
ＭＳ ゴシック
100
AcDbText
  0
TEXT
  5
207
330
1F
100
AcDbEntity
  8
0-B_寸法
  6
Continuous
 62
     7
370
   211
100
AcDbText
 10
-2817.091354358094
 20
-668.8747519145942
 30
0.0
 40
68.58
  1
15.5
 41
1.125
  7
ＭＳ ゴシック
100
AcDbText
  0
LINE
  5
208
330
1F
100
AcDbEntity
  8
0-B_寸法
  6
Continuous
 62
   120
370
     5
100
AcDbLine
 10
-4465.714505389873
 20
-471.5647519145946
 30
0.0
 11
-4465.714505389873
 21
692.4359261588904
 31
0.0
  0
LWPOLYLINE
  5
209
330
1F
100
AcDbEntity
  8
0-B_寸法
  6
Continuous
 62
     7
370
     9
100
AcDbPolyline
 90
        4
 70
     1
 43
3.0
 10
-4464.214505389872
 20
-471.5647519145946
 42
0.4142135623731
 10
-4465.714505389873
 20
-470.0647519145946
 42
0.4142135623731
 10
-4467.214505389873
 20
-471.5647519145946
 42
0.4142135623731
 10
-4465.714505389873
 20
-473.0647519145946
 42
0.4142135623731
  0
LWPOLYLINE
  5
20A
330
1F
100
AcDbEntity
  8
0-B_寸法
  6
Continuous
 62
     7
370
     9
100
AcDbPolyline
 90
        4
 70
     1
 43
3.0
 10
-4464.214505389872
 20
692.4359261588904
 42
0.4142135623731
 10
-4465.714505389873
 20
693.9359261588904
 42
0.4142135623731
 10
-4467.214505389873
 20
692.4359261588904
 42
0.4142135623731
 10
-4465.714505389873
 20
690.9359261588904
 42
0.4142135623731
  0
TEXT
  5
20B
330
1F
100
AcDbEntity
  8
0-B_寸法
  6
Continuous
 62
     7
370
   211
100
AcDbText
 10
-4493.404505389873
 20
35.43558712214789
 30
0.0
 40
68.58
  1
776
 50
90.0
 41
1.111111111111111
  7
ＭＳ ゴシック
100
AcDbText
  0
TEXT
  5
20C
330
1F
100
AcDbEntity
  8
0-B_寸法
  6
Continuous
 62
     7
370
   211
100
AcDbText
 10
-4343.404505389873
 20
-139.3140738411098
 30
0.0
 40
68.58
  1
ＤＨ＝553
 50
90.0
 41
1.148148148148148
  7
ＭＳ ゴシック
100
AcDbText
  0
TEXT
  5
20D
330
1F
100
AcDbEntity
  8
0-B_寸法
  6
Continuous
 62
     7
370
   211
100
AcDbText
 10
-4008.214505389873
 20
949.6252480854059
 30
0.0
 40
68.58
  1
ＤＷ＝416
 41
1.148148148148148
  7
ＭＳ ゴシック
100
AcDbText
  0
TEXT
  5
20E
330
1F
100
AcDbEntity
  8
0-B_寸法
  6
Continuous
 62
     7
370
   211
100
AcDbText
 10
-3378.214795071207
 20
949.6252480854059
 30
0.0
 40
68.58
  1
ＤＷ＝416
 41
1.148148148148148
  7
ＭＳ ゴシック
100
AcDbText
  0
LINE
  5
20F
330
1F
100
AcDbEntity
  8
0-7__
  6
Continuous
 62
     7
370
     9
100
AcDbLine
 10
-3220.714795071207
 20
594.9359261588904
 30
0.0
 11
-3070.714795071207
 21
594.9359261588904
 31
0.0
  0
LINE
  5
210
330
1F
100
AcDbEntity
  8
0-7__
  6
Continuous
 62
     7
370
     9
100
AcDbLine
 10
-3070.714795071207
 20
594.9359261588904
 30
0.0
 11
-3070.714795071207
 21
609.9359261588904
 31
0.0
  0
LINE
  5
211
330
1F
100
AcDbEntity
  8
0-7__
  6
Continuous
 62
     7
370
     9
100
AcDbLine
 10
-3070.714795071207
 20
609.9359261588904
 30
0.0
 11
-3220.714795071207
 21
609.9359261588904
 31
0.0
  0
LINE
  5
212
330
1F
100
AcDbEntity
  8
0-7__
  6
Continuous
 62
     7
370
     9
100
AcDbLine
 10
-3220.714795071207
 20
609.9359261588904
 30
0.0
 11
-3220.714795071207
 21
594.9359261588904
 31
0.0
  0
LINE
  5
213
330
1F
100
AcDbEntity
  8
0-7__
  6
Continuous
 62
     7
370
     9
100
AcDbLine
 10
-3508.715084752543
 20
305.4359261588903
 30
0.0
 11
-3493.715084752543
 21
305.4359261588903
 31
0.0
  0
LINE
  5
214
330
1F
100
AcDbEntity
  8
0-7__
  6
Continuous
 62
     7
370
     9
100
AcDbLine
 10
-3493.715084752543
 20
305.4359261588903
 30
0.0
 11
-3493.715084752543
 21
455.4359261588903
 31
0.0
  0
LINE
  5
215
330
1F
100
AcDbEntity
  8
0-7__
  6
Continuous
 62
     7
370
     9
100
AcDbLine
 10
-3493.715084752543
 20
455.4359261588903
 30
0.0
 11
-3508.715084752543
 21
455.4359261588903
 31
0.0
  0
LINE
  5
216
330
1F
100
AcDbEntity
  8
0-7__
  6
Continuous
 62
     7
370
     9
100
AcDbLine
 10
-3508.715084752543
 20
455.4359261588903
 30
0.0
 11
-3508.715084752543
 21
305.4359261588903
 31
0.0
  0
LINE
  5
217
330
1F
100
AcDbEntity
  8
0-7__
  6
Continuous
 62
     7
370
     9
100
AcDbLine
 10
-3412.715084752543
 20
305.4359261588903
 30
0.0
 11
-3427.715084752543
 21
305.4359261588903
 31
0.0
  0
LINE
  5
218
330
1F
100
AcDbEntity
  8
0-7__
  6
Continuous
 62
     7
370
     9
100
AcDbLine
 10
-3427.715084752543
 20
305.4359261588903
 30
0.0
 11
-3427.715084752543
 21
455.4359261588903
 31
0.0
  0
LINE
  5
219
330
1F
100
AcDbEntity
  8
0-7__
  6
Continuous
 62
     7
370
     9
100
AcDbLine
 10
-3427.715084752543
 20
455.4359261588903
 30
0.0
 11
-3412.715084752543
 21
455.4359261588903
 31
0.0
  0
LINE
  5
21A
330
1F
100
AcDbEntity
  8
0-7__
  6
Continuous
 62
     7
370
     9
100
AcDbLine
 10
-3412.715084752543
 20
455.4359261588903
 30
0.0
 11
-3412.715084752543
 21
305.4359261588903
 31
0.0
  0
LWPOLYLINE
  5
21B
330
1F
100
AcDbEntity
  8
0-B_寸法
  6
Continuous
 62
     7
370
     9
100
AcDbPolyline
 90
        4
 70
     1
 43
3.0
 10
-94.0716156778621
 20
696.9352480854059
 42
0.4142135623731
 10
-95.5716156778621
 20
698.4352480854059
 42
0.4142135623731
 10
-97.0716156778621
 20
696.9352480854059
 42
0.4142135623731
 10
-95.5716156778621
 20
695.4352480854059
 42
0.4142135623731
  0
LINE
  5
21C
330
1F
100
AcDbEntity
  8
0-1_本体
  6
Continuous
 62
     7
370
     9
100
AcDbLine
 10
-320.5716156778621
 20
-471.5647519145942
 30
0.0
 11
-1580.57163688699
 21
-471.5647519145942
 31
0.0
  0
LINE
  5
21D
330
1F
100
AcDbEntity
  8
0-1_本体
  6
Continuous
 62
     7
370
     9
100
AcDbLine
 10
-1580.57163688699
 20
-471.5647519145942
 30
0.0
 11
-1580.57163688699
 21
696.9352480854059
 31
0.0
  0
LINE
  5
21E
330
1F
100
AcDbEntity
  8
0-1_本体
  6
Continuous
 62
     7
370
     9
100
AcDbLine
 10
-320.5716156778621
 20
696.9352480854059
 30
0.0
 11
-320.5716156778621
 21
-471.5647519145942
 31
0.0
  0
LINE
  5
21F
330
1F
100
AcDbEntity
  8
0-0_補助線
  6
JWW_HOJO
 62
   120
370
     5
100
AcDbLine
 10
-1655.57163688699
 20
-546.5647519145942
 30
0.0
 11
-1655.57163688699
 21
771.9352480854059
 31
0.0
  0
LINE
  5
220
330
1F
100
AcDbEntity
  8
0-0_補助線
  6
JWW_HOJO
 62
   120
370
     5
100
AcDbLine
 10
-245.5716156778621
 20
771.9352480854059
 30
0.0
 11
-245.5716156778621
 21
-546.5647519145942
 31
0.0
  0
LINE
  5
221
330
1F
100
AcDbEntity
  8
0-1_本体
  6
Continuous
 62
     7
370
     9
100
AcDbLine
 10
-1557.321636886989
 20
-471.5647519145942
 30
0.0
 11
-1557.321636886989
 21
-321.5647519145942
 31
0.0
  0
LINE
  5
222
330
1F
100
AcDbEntity
  8
0-1_本体
  6
Continuous
 62
     7
370
     9
100
AcDbLine
 10
-343.8216368869891
 20
-471.5647519145942
 30
0.0
 11
-343.8216368869891
 21
-321.5647519145942
 31
0.0
  0
LINE
  5
223
330
1F
100
AcDbEntity
  8
0-B_寸法
  6
Continuous
 62
   120
370
     5
100
AcDbLine
 10
-95.5716156778621
 20
696.9352480854059
 30
0.0
 11
-95.5716156778621
 21
674.4352480854059
 31
0.0
  0
LWPOLYLINE
  5
224
330
1F
100
AcDbEntity
  8
0-B_寸法
  6
Continuous
 62
     7
370
     9
100
AcDbPolyline
 90
        4
 70
     1
 43
3.0
 10
-94.0716156778621
 20
674.4352480854059
 42
0.4142135623731
 10
-95.5716156778621
 20
675.9352480854059
 42
0.4142135623731
 10
-97.0716156778621
 20
674.4352480854059
 42
0.4142135623731
 10
-95.5716156778621
 20
672.9352480854059
 42
0.4142135623731
  0
LINE
  5
225
330
1F
100
AcDbEntity
  8
0-B_寸法
  6
Continuous
 62
   120
370
     5
100
AcDbLine
 10
-95.5716156778621
 20
696.9352480854059
 30
0.0
 11
-245.5716156778621
 21
696.9352480854059
 31
0.0
  0
LINE
  5
226
330
1F
100
AcDbEntity
  8
0-B_寸法
  6
Continuous
 62
   120
370
     5
100
AcDbLine
 10
-95.5716156778621
 20
674.4352480854059
 30
0.0
 11
-245.5716156778621
 21
674.4352480854059
 31
0.0
  0
LINE
  5
227
330
1F
100
AcDbEntity
  8
0-B_寸法
  6
Continuous
 62
   120
370
     5
100
AcDbLine
 10
-95.5716156778621
 20
674.4352480854059
 30
0.0
 11
-95.5716156778621
 21
513.9352480854056
 31
0.0
  0
LWPOLYLINE
  5
228
330
1F
100
AcDbEntity
  8
0-B_寸法
  6
Continuous
 62
     7
370
     9
100
AcDbPolyline
 90
        4
 70
     1
 43
3.0
 10
-94.0716156778621
 20
513.9352480854056
 42
0.4142135623731
 10
-95.5716156778621
 20
515.4352480854056
 42
0.4142135623731
 10
-97.0716156778621
 20
513.9352480854056
 42
0.4142135623731
 10
-95.5716156778621
 20
512.4352480854056
 42
0.4142135623731
  0
LINE
  5
229
330
1F
100
AcDbEntity
  8
0-B_寸法
  6
Continuous
 62
   120
370
     5
100
AcDbLine
 10
-95.5716156778621
 20
513.9352480854056
 30
0.0
 11
-245.5716156778621
 21
513.9352480854056
 31
0.0
  0
TEXT
  5
22A
330
1F
100
AcDbEntity
  8
0-B_寸法
  6
Continuous
 62
     7
370
   211
100
AcDbText
 10
-123.2616156778621
 20
519.185248085406
 30
0.0
 40
68.58
  1
107
 50
90.0
 41
1.111111111111111
  7
ＭＳ ゴシック
100
AcDbText
  0
LINE
  5
22B
330
1F
100
AcDbEntity
  8
0-B_寸法
  6
Continuous
 62
   120
370
     5
100
AcDbLine
 10
-95.5716156778621
 20
513.9352480854056
 30
0.0
 11
-95.5716156778621
 21
490.6852480854059
 31
0.0
  0
LWPOLYLINE
  5
22C
330
1F
100
AcDbEntity
  8
0-B_寸法
  6
Continuous
 62
     7
370
     9
100
AcDbPolyline
 90
        4
 70
     1
 43
3.0
 10
-94.0716156778621
 20
490.6852480854059
 42
0.4142135623731
 10
-95.5716156778621
 20
492.1852480854059
 42
0.4142135623731
 10
-97.0716156778621
 20
490.6852480854059
 42
0.4142135623731
 10
-95.5716156778621
 20
489.1852480854059
 42
0.4142135623731
  0
LINE
  5
22D
330
1F
100
AcDbEntity
  8
0-B_寸法
  6
Continuous
 62
   120
370
     5
100
AcDbLine
 10
-95.5716156778621
 20
490.6852480854059
 30
0.0
 11
-245.5716156778621
 21
490.6852480854059
 31
0.0
  0
LINE
  5
22E
330
1F
100
AcDbEntity
  8
0-B_寸法
  6
Continuous
 62
   120
370
     5
100
AcDbLine
 10
-95.5716156778621
 20
490.6852480854059
 30
0.0
 11
-95.5716156778621
 21
-298.314751914594
 31
0.0
  0
LWPOLYLINE
  5
22F
330
1F
100
AcDbEntity
  8
0-B_寸法
  6
Continuous
 62
     7
370
     9
100
AcDbPolyline
 90
        4
 70
     1
 43
3.0
 10
-94.0716156778621
 20
-298.314751914594
 42
0.4142135623731
 10
-95.5716156778621
 20
-296.814751914594
 42
0.4142135623731
 10
-97.0716156778621
 20
-298.314751914594
 42
0.4142135623731
 10
-95.5716156778621
 20
-299.8147519145941
 42
0.4142135623731
  0
LINE
  5
230
330
1F
100
AcDbEntity
  8
0-B_寸法
  6
Continuous
 62
   120
370
     5
100
AcDbLine
 10
-95.5716156778621
 20
-298.314751914594
 30
0.0
 11
-245.5716156778621
 21
-298.314751914594
 31
0.0
  0
TEXT
  5
231
330
1F
100
AcDbEntity
  8
0-B_寸法
  6
Continuous
 62
     7
370
   211
100
AcDbText
 10
-123.2616156778621
 20
21.18524808540528
 30
0.0
 40
68.58
  1
526
 50
90.0
 41
1.111111111111111
  7
ＭＳ ゴシック
100
AcDbText
  0
LINE
  5
232
330
1F
100
AcDbEntity
  8
0-B_寸法
  6
Continuous
 62
   120
370
     5
100
AcDbLine
 10
-95.5716156778621
 20
-298.314751914594
 30
0.0
 11
-95.5716156778621
 21
-321.5647519145942
 31
0.0
  0
LWPOLYLINE
  5
233
330
1F
100
AcDbEntity
  8
0-B_寸法
  6
Continuous
 62
     7
370
     9
100
AcDbPolyline
 90
        4
 70
     1
 43
3.0
 10
-94.0716156778621
 20
-321.5647519145942
 42
0.4142135623731
 10
-95.5716156778621
 20
-320.0647519145942
 42
0.4142135623731
 10
-97.0716156778621
 20
-321.5647519145942
 42
0.4142135623731
 10
-95.5716156778621
 20
-323.0647519145942
 42
0.4142135623731
  0
LINE
  5
234
330
1F
100
AcDbEntity
  8
0-B_寸法
  6
Continuous
 62
   120
370
     5
100
AcDbLine
 10
-95.5716156778621
 20
-321.5647519145942
 30
0.0
 11
-245.5716156778621
 21
-321.5647519145942
 31
0.0
  0
LINE
  5
235
330
1F
100
AcDbEntity
  8
0-B_寸法
  6
Continuous
 62
   120
370
     5
100
AcDbLine
 10
-95.5716156778621
 20
-321.5647519145942
 30
0.0
 11
-95.5716156778621
 21
-471.5647519145942
 31
0.0
  0
LWPOLYLINE
  5
236
330
1F
100
AcDbEntity
  8
0-B_寸法
  6
Continuous
 62
     7
370
     9
100
AcDbPolyline
 90
        4
 70
     1
 43
3.0
 10
-94.0716156778621
 20
-471.5647519145942
 42
0.4142135623731
 10
-95.5716156778621
 20
-470.0647519145942
 42
0.4142135623731
 10
-97.0716156778621
 20
-471.5647519145942
 42
0.4142135623731
 10
-95.5716156778621
 20
-473.0647519145942
 42
0.4142135623731
  0
LINE
  5
237
330
1F
100
AcDbEntity
  8
0-B_寸法
  6
Continuous
 62
   120
370
     5
100
AcDbLine
 10
-95.5716156778621
 20
-471.5647519145942
 30
0.0
 11
-245.5716156778621
 21
-471.5647519145942
 31
0.0
  0
TEXT
  5
238
330
1F
100
AcDbEntity
  8
0-B_寸法
  6
Continuous
 62
     7
370
   211
100
AcDbText
 10
-123.2616156778621
 20
-471.5647519145942
 30
0.0
 40
68.58
  1
100
 50
90.0
 41
1.111111111111111
  7
ＭＳ ゴシック
100
AcDbText
  0
TEXT
  5
239
330
1F
100
AcDbEntity
  8
0-B_寸法
  6
Continuous
 62
     7
370
   211
100
AcDbText
 10
-3.261615677862098
 20
401.060248085406
 30
0.0
 40
68.58
  1
15.5
 50
90.0
 41
1.125
  7
ＭＳ ゴシック
100
AcDbText
  0
TEXT
  5
23A
330
1F
100
AcDbEntity
  8
0-B_寸法
  6
Continuous
 62
     7
370
   211
100
AcDbText
 10
-3.261615677862098
 20
-411.1897519145941
 30
0.0
 40
68.58
  1
15.5
 50
90.0
 41
1.125
  7
ＭＳ ゴシック
100
AcDbText
  0
TEXT
  5
23B
330
1F
100
AcDbEntity
  8
0-B_寸法
  6
Continuous
 62
     7
370
   211
100
AcDbText
 10
-123.2616156778621
 20
708.3763001642969
 30
0.0
 40
68.58
  1
15
 50
90.0
 41
1.083333333333333
  7
ＭＳ ゴシック
100
AcDbText
  0
LINE
  5
23C
330
1F
100
AcDbEntity
  8
0-0_補助線
  6
JWW_HOJO
 62
   120
370
     5
100
AcDbLine
 10
-1805.57163688699
 20
771.9352480854059
 30
0.0
 11
-245.5716156778621
 21
771.9352480854059
 31
0.0
  0
LINE
  5
23D
330
1F
100
AcDbEntity
  8
0-0_補助線
  6
JWW_HOJO
 62
   120
370
     5
100
AcDbLine
 10
-1805.57163688699
 20
-546.5647519145942
 30
0.0
 11
-1805.57163688699
 21
771.9352480854059
 31
0.0
  0
LINE
  5
23E
330
1F
100
AcDbEntity
  8
0-0_補助線
  6
JWW_HOJO
 62
   120
370
     5
100
AcDbLine
 10
-245.5716156778621
 20
-546.5647519145942
 30
0.0
 11
-1805.57163688699
 21
-546.5647519145942
 31
0.0
  0
LINE
  5
23F
330
1F
100
AcDbEntity
  8
0-B_寸法
  6
Continuous
 62
   120
370
     5
100
AcDbLine
 10
-1580.57163688699
 20
-696.5647519145942
 30
0.0
 11
-1557.321636886989
 21
-696.5647519145942
 31
0.0
  0
LWPOLYLINE
  5
240
330
1F
100
AcDbEntity
  8
0-B_寸法
  6
Continuous
 62
     7
370
     9
100
AcDbPolyline
 90
        4
 70
     1
 43
3.0
 10
-1579.07163688699
 20
-696.5647519145942
 42
0.4142135623731
 10
-1580.57163688699
 20
-695.0647519145942
 42
0.4142135623731
 10
-1582.07163688699
 20
-696.5647519145942
 42
0.4142135623731
 10
-1580.57163688699
 20
-698.0647519145942
 42
0.4142135623731
  0
LWPOLYLINE
  5
241
330
1F
100
AcDbEntity
  8
0-B_寸法
  6
Continuous
 62
     7
370
     9
100
AcDbPolyline
 90
        4
 70
     1
 43
3.0
 10
-1555.821636886989
 20
-696.5647519145942
 42
0.4142135623731
 10
-1557.321636886989
 20
-695.0647519145942
 42
0.4142135623731
 10
-1558.821636886989
 20
-696.5647519145942
 42
0.4142135623731
 10
-1557.321636886989
 20
-698.0647519145942
 42
0.4142135623731
  0
LINE
  5
242
330
1F
100
AcDbEntity
  8
0-B_寸法
  6
Continuous
 62
   120
370
     5
100
AcDbLine
 10
-1580.57163688699
 20
-846.5647519145942
 30
0.0
 11
-1580.57163688699
 21
-546.5647519145942
 31
0.0
  0
LINE
  5
243
330
1F
100
AcDbEntity
  8
0-B_寸法
  6
Continuous
 62
   120
370
     5
100
AcDbLine
 10
-1557.321636886989
 20
-696.5647519145942
 30
0.0
 11
-1557.321636886989
 21
-546.5647519145942
 31
0.0
  0
LINE
  5
244
330
1F
100
AcDbEntity
  8
0-B_寸法
  6
Continuous
 62
   120
370
     5
100
AcDbLine
 10
-1557.321636886989
 20
-696.5647519145942
 30
0.0
 11
-343.8216368869891
 21
-696.5647519145942
 31
0.0
  0
LWPOLYLINE
  5
245
330
1F
100
AcDbEntity
  8
0-B_寸法
  6
Continuous
 62
     7
370
     9
100
AcDbPolyline
 90
        4
 70
     1
 43
3.0
 10
-342.3216368869891
 20
-696.5647519145942
 42
0.4142135623731
 10
-343.8216368869891
 20
-695.0647519145942
 42
0.4142135623731
 10
-345.3216368869891
 20
-696.5647519145942
 42
0.4142135623731
 10
-343.8216368869891
 20
-698.0647519145942
 42
0.4142135623731
  0
LINE
  5
246
330
1F
100
AcDbEntity
  8
0-B_寸法
  6
Continuous
 62
   120
370
     5
100
AcDbLine
 10
-343.8216368869891
 20
-696.5647519145942
 30
0.0
 11
-343.8216368869891
 21
-546.5647519145942
 31
0.0
  0
TEXT
  5
247
330
1F
100
AcDbEntity
  8
0-B_寸法
  6
Continuous
 62
     7
370
   211
100
AcDbText
 10
-1025.57163688699
 20
-668.8747519145942
 30
0.0
 40
68.58
  1
809
 41
1.111111111111111
  7
ＭＳ ゴシック
100
AcDbText
  0
LINE
  5
248
330
1F
100
AcDbEntity
  8
0-B_寸法
  6
Continuous
 62
   120
370
     5
100
AcDbLine
 10
-343.8216368869891
 20
-696.5647519145942
 30
0.0
 11
-320.5716156778621
 21
-696.5647519145942
 31
0.0
  0
LWPOLYLINE
  5
249
330
1F
100
AcDbEntity
  8
0-B_寸法
  6
Continuous
 62
     7
370
     9
100
AcDbPolyline
 90
        4
 70
     1
 43
3.0
 10
-319.0716156778621
 20
-696.5647519145942
 42
0.4142135623731
 10
-320.5716156778621
 20
-695.0647519145942
 42
0.4142135623731
 10
-322.0716156778621
 20
-696.5647519145942
 42
0.4142135623731
 10
-320.5716156778621
 20
-698.0647519145942
 42
0.4142135623731
  0
LINE
  5
24A
330
1F
100
AcDbEntity
  8
0-B_寸法
  6
Continuous
 62
   120
370
     5
100
AcDbLine
 10
-320.5716156778621
 20
-846.5647519145942
 30
0.0
 11
-320.5716156778621
 21
-546.5647519145942
 31
0.0
  0
LINE
  5
24B
330
1F
100
AcDbEntity
  8
0-B_寸法
  6
Continuous
 62
   120
370
     5
100
AcDbLine
 10
-1580.57163688699
 20
-846.5647519145942
 30
0.0
 11
-320.5716156778621
 21
-846.5647519145942
 31
0.0
  0
LWPOLYLINE
  5
24C
330
1F
100
AcDbEntity
  8
0-B_寸法
  6
Continuous
 62
     7
370
     9
100
AcDbPolyline
 90
        4
 70
     1
 43
3.0
 10
-1579.07163688699
 20
-846.5647519145942
 42
0.4142135623731
 10
-1580.57163688699
 20
-845.0647519145942
 42
0.4142135623731
 10
-1582.07163688699
 20
-846.5647519145942
 42
0.4142135623731
 10
-1580.57163688699
 20
-848.0647519145942
 42
0.4142135623731
  0
LWPOLYLINE
  5
24D
330
1F
100
AcDbEntity
  8
0-B_寸法
  6
Continuous
 62
     7
370
     9
100
AcDbPolyline
 90
        4
 70
     1
 43
3.0
 10
-319.0716156778621
 20
-846.5647519145942
 42
0.4142135623731
 10
-320.5716156778621
 20
-845.0647519145942
 42
0.4142135623731
 10
-322.0716156778621
 20
-846.5647519145942
 42
0.4142135623731
 10
-320.5716156778621
 20
-848.0647519145942
 42
0.4142135623731
  0
TEXT
  5
24E
330
1F
100
AcDbEntity
  8
0-B_寸法
  6
Continuous
 62
     7
370
   211
100
AcDbText
 10
-1025.571626282426
 20
-818.8747519145942
 30
0.0
 40
68.58
  1
840
 41
1.111111111111111
  7
ＭＳ ゴシック
100
AcDbText
  0
TEXT
  5
24F
330
1F
100
AcDbEntity
  8
0-B_寸法
  6
Continuous
 62
     7
370
   211
100
AcDbText
 10
-1798.631719064477
 20
-668.8747519145942
 30
0.0
 40
68.58
  1
15.5
 41
1.125
  7
ＭＳ ゴシック
100
AcDbText
  0
TEXT
  5
250
330
1F
100
AcDbEntity
  8
0-B_寸法
  6
Continuous
 62
     7
370
   211
100
AcDbText
 10
-306.948485855211
 20
-668.8747519145942
 30
0.0
 40
68.58
  1
15.5
 41
1.125
  7
ＭＳ ゴシック
100
AcDbText
  0
LINE
  5
251
330
1F
100
AcDbEntity
  8
0-B_寸法
  6
Continuous
 62
   120
370
     5
100
AcDbLine
 10
-431.9725227706303
 20
268.6852480854053
 30
0.0
 11
-431.9725227706303
 21
246.1852480854053
 31
0.0
  0
LINE
  5
252
330
1F
100
AcDbEntity
  8
0-B_寸法
  6
Continuous
 62
   120
370
     5
100
AcDbLine
 10
-431.9725227706303
 20
268.6852480854053
 30
0.0
 11
-581.9725227706303
 21
268.6852480854053
 31
0.0
  0
LINE
  5
253
330
1F
100
AcDbEntity
  8
0-B_寸法
  6
Continuous
 62
   120
370
     5
100
AcDbLine
 10
-431.9725227706303
 20
246.1852480854053
 30
0.0
 11
-581.9725227706303
 21
246.1852480854053
 31
0.0
  0
LWPOLYLINE
  5
254
330
1F
100
AcDbEntity
  8
0-B_寸法
  6
Continuous
 62
     7
370
     9
100
AcDbPolyline
 90
        4
 70
     1
 43
3.0
 10
-430.4725227706303
 20
268.6852480854053
 42
0.4142135623731
 10
-431.9725227706303
 20
270.1852480854053
 42
0.4142135623731
 10
-433.4725227706303
 20
268.6852480854053
 42
0.4142135623731
 10
-431.9725227706303
 20
267.1852480854052
 42
0.4142135623731
  0
LWPOLYLINE
  5
255
330
1F
100
AcDbEntity
  8
0-B_寸法
  6
Continuous
 62
     7
370
     9
100
AcDbPolyline
 90
        4
 70
     1
 43
3.0
 10
-430.4725227706303
 20
246.1852480854053
 42
0.4142135623731
 10
-431.9725227706303
 20
247.6852480854053
 42
0.4142135623731
 10
-433.4725227706303
 20
246.1852480854053
 42
0.4142135623731
 10
-431.9725227706303
 20
244.6852480854052
 42
0.4142135623731
  0
TEXT
  5
256
330
1F
100
AcDbEntity
  8
0-B_寸法
  6
Continuous
 62
     7
370
   211
100
AcDbText
 10
-459.6625227706303
 20
208.6852480854053
 30
0.0
 40
68.58
  1
15
 50
90.0
 41
1.083333333333333
  7
ＭＳ ゴシック
100
AcDbText
  0
LINE
  5
257
330
1F
100
AcDbEntity
  8
0-B_寸法
  6
Continuous
 62
   120
370
     5
100
AcDbLine
 10
-431.9725227706303
 20
-1.314751914594723
 30
0.0
 11
-431.9725227706303
 21
-23.81475191459472
 31
0.0
  0
LWPOLYLINE
  5
258
330
1F
100
AcDbEntity
  8
0-B_寸法
  6
Continuous
 62
     7
370
     9
100
AcDbPolyline
 90
        4
 70
     1
 43
3.0
 10
-430.4725227706303
 20
-1.314751914594723
 42
0.4142135623731
 10
-431.9725227706303
 20
0.1852480854052772
 42
0.4142135623731
 10
-433.4725227706303
 20
-1.314751914594723
 42
0.4142135623731
 10
-431.9725227706303
 20
-2.814751914594723
 42
0.4142135623731
  0
LWPOLYLINE
  5
259
330
1F
100
AcDbEntity
  8
0-B_寸法
  6
Continuous
 62
     7
370
     9
100
AcDbPolyline
 90
        4
 70
     1
 43
3.0
 10
-430.4725227706303
 20
-23.81475191459472
 42
0.4142135623731
 10
-431.9725227706303
 20
-22.31475191459472
 42
0.4142135623731
 10
-433.4725227706303
 20
-23.81475191459472
 42
0.4142135623731
 10
-431.9725227706303
 20
-25.31475191459472
 42
0.4142135623731
  0
LINE
  5
25A
330
1F
100
AcDbEntity
  8
0-B_寸法
  6
Continuous
 62
   120
370
     5
100
AcDbLine
 10
-431.9725227706303
 20
-1.314751914594723
 30
0.0
 11
-581.9725227706303
 21
-1.314751914594723
 31
0.0
  0
LINE
  5
25B
330
1F
100
AcDbEntity
  8
0-B_寸法
  6
Continuous
 62
   120
370
     5
100
AcDbLine
 10
-431.9725227706303
 20
-23.81475191459472
 30
0.0
 11
-581.9725227706303
 21
-23.81475191459472
 31
0.0
  0
TEXT
  5
25C
330
1F
100
AcDbEntity
  8
0-B_寸法
  6
Continuous
 62
     7
370
   211
100
AcDbText
 10
-459.6625227706303
 20
-61.31475191459472
 30
0.0
 40
68.58
  1
15
 50
90.0
 41
1.083333333333333
  7
ＭＳ ゴシック
100
AcDbText
  0
TEXT
  5
25D
330
1F
100
AcDbEntity
  8
0-A_文字
  6
Continuous
 62
     7
370
     9
100
AcDbText
 10
-1083.82731838976
 20
224.945497475526
 30
0.0
 40
68.58
  1
可動棚
  7
ＭＳ ゴシック
100
AcDbText
  0
TEXT
  5
25E
330
1F
100
AcDbEntity
  8
0-A_文字
  6
Continuous
 62
     7
370
     9
100
AcDbText
 10
-1083.82731838976
 20
-45.05450252447444
 30
0.0
 40
68.58
  1
可動棚
  7
ＭＳ ゴシック
100
AcDbText
  0
LINE
  5
25F
330
1F
100
AcDbEntity
  8
0-B_寸法
  6
Continuous
 62
   120
370
     5
100
AcDbLine
 10
-1805.57163688699
 20
692.4359261588904
 30
0.0
 11
-1655.57163688699
 21
692.4359261588904
 31
0.0
  0
LINE
  5
260
330
1F
100
AcDbEntity
  8
0-B_寸法
  6
Continuous
 62
   120
370
     5
100
AcDbLine
 10
-1805.57163688699
 20
-471.5647519145946
 30
0.0
 11
-1655.57163688699
 21
-471.5647519145946
 31
0.0
  0
LINE
  5
261
330
1F
100
AcDbEntity
  8
0-B_寸法
  6
Continuous
 62
   120
370
     5
100
AcDbLine
 10
-1805.57163688699
 20
-471.5647519145946
 30
0.0
 11
-1805.57163688699
 21
692.4359261588904
 31
0.0
  0
LWPOLYLINE
  5
262
330
1F
100
AcDbEntity
  8
0-B_寸法
  6
Continuous
 62
     7
370
     9
100
AcDbPolyline
 90
        4
 70
     1
 43
3.0
 10
-1804.07163688699
 20
-471.5647519145946
 42
0.4142135623731
 10
-1805.57163688699
 20
-470.0647519145946
 42
0.4142135623731
 10
-1807.07163688699
 20
-471.5647519145946
 42
0.4142135623731
 10
-1805.57163688699
 20
-473.0647519145946
 42
0.4142135623731
  0
LWPOLYLINE
  5
263
330
1F
100
AcDbEntity
  8
0-B_寸法
  6
Continuous
 62
     7
370
     9
100
AcDbPolyline
 90
        4
 70
     1
 43
3.0
 10
-1804.07163688699
 20
692.4359261588904
 42
0.4142135623731
 10
-1805.57163688699
 20
693.9359261588904
 42
0.4142135623731
 10
-1807.07163688699
 20
692.4359261588904
 42
0.4142135623731
 10
-1805.57163688699
 20
690.9359261588904
 42
0.4142135623731
  0
TEXT
  5
264
330
1F
100
AcDbEntity
  8
0-B_寸法
  6
Continuous
 62
     7
370
   211
100
AcDbText
 10
-1833.26163688699
 20
35.43558712214789
 30
0.0
 40
68.58
  1
776
 50
90.0
 41
1.111111111111111
  7
ＭＳ ゴシック
100
AcDbText
  0
LINE
  5
265
330
1F
100
AcDbEntity
  8
0-1_本体
  6
Continuous
 62
     7
370
     9
100
AcDbLine
 10
-1580.57163688699
 20
696.9352480854059
 30
0.0
 11
-320.5716156778621
 21
696.9352480854059
 31
0.0
  0
LINE
  5
266
330
1F
100
AcDbEntity
  8
0-1_本体
  6
Continuous
 62
     7
370
     9
100
AcDbLine
 10
-1557.321636886989
 20
-321.5647519145942
 30
0.0
 11
-1557.321636886989
 21
696.9352480854059
 31
0.0
  0
LINE
  5
267
330
1F
100
AcDbEntity
  8
0-1_本体
  6
Continuous
 62
     7
370
     9
100
AcDbLine
 10
-343.8216368869891
 20
-321.5647519145942
 30
0.0
 11
-343.8216368869891
 21
696.9352480854059
 31
0.0
  0
LINE
  5
268
330
1F
100
AcDbEntity
  8
0-1_本体
  6
Continuous
 62
     7
370
     9
100
AcDbLine
 10
-973.0716368869898
 20
513.9352480854056
 30
0.0
 11
-973.0716368869898
 21
674.4352480854059
 31
0.0
  0
LINE
  5
269
330
1F
100
AcDbEntity
  8
0-1_本体
  6
Continuous
 62
     7
370
     9
100
AcDbLine
 10
-928.0716368869898
 20
513.9352480854056
 30
0.0
 11
-928.0716368869898
 21
674.4352480854059
 31
0.0
  0
LINE
  5
26A
330
1F
100
AcDbEntity
  8
0-1_本体
  6
Continuous
 62
     7
370
     9
100
AcDbLine
 10
-1557.321636886989
 20
674.4352480854059
 30
0.0
 11
-343.8216368869891
 21
674.4352480854059
 31
0.0
  0
LINE
  5
26B
330
1F
100
AcDbEntity
  8
0-1_本体
  6
Continuous
 62
     7
370
     9
100
AcDbLine
 10
-1557.321636886989
 20
490.6852480854059
 30
0.0
 11
-343.8216368869891
 21
490.6852480854059
 31
0.0
  0
LINE
  5
26C
330
1F
100
AcDbEntity
  8
0-1_本体
  6
Continuous
 62
     7
370
     9
100
AcDbLine
 10
-1557.321636886989
 20
513.9352480854056
 30
0.0
 11
-343.8216368869891
 21
513.9352480854056
 31
0.0
  0
LINE
  5
26D
330
1F
100
AcDbEntity
  8
0-1_本体
  6
Continuous
 62
     7
370
     9
100
AcDbLine
 10
-1557.321636886989
 20
-298.314751914594
 30
0.0
 11
-343.8216368869891
 21
-298.314751914594
 31
0.0
  0
TEXT
  5
26E
330
1F
100
AcDbEntity
  8
0-A_文字
  6
Continuous
 62
     7
370
     9
100
AcDbText
 10
-1408.071626282423
 20
-1248.684702758023
 30
0.0
 40
137.16
  1
ｷｬﾋﾞﾈｯﾄ図
 41
1.12962962962963
  7
ＭＳ ゴシック
100
AcDbText
  0
LINE
  5
26F
330
1F
100
AcDbEntity
  8
0-A_文字
  6
Continuous
 62
     7
370
     9
100
AcDbLine
 10
-1588.071626282427
 20
-1071.564702758023
 30
0.0
 11
-313.0716262824251
 21
-1071.564702758023
 31
0.0
  0
LINE
  5
270
330
1F
100
AcDbEntity
  8
0-A_文字
  6
Continuous
 62
     7
370
     9
100
AcDbLine
 10
-313.0716262824251
 20
-1071.564702758023
 30
0.0
 11
-313.0716262824251
 21
-1296.564702758025
 31
0.0
  0
LINE
  5
271
330
1F
100
AcDbEntity
  8
0-A_文字
  6
Continuous
 62
     7
370
     9
100
AcDbLine
 10
-313.0716262824251
 20
-1296.564702758025
 30
0.0
 11
-1588.071626282427
 21
-1296.564702758025
 31
0.0
  0
LINE
  5
272
330
1F
100
AcDbEntity
  8
0-A_文字
  6
Continuous
 62
     7
370
     9
100
AcDbLine
 10
-1588.071626282427
 20
-1296.564702758025
 30
0.0
 11
-1588.071626282427
 21
-1071.564702758023
 31
0.0
  0
LINE
  5
273
330
1F
100
AcDbEntity
  8
0-A_文字
  6
Continuous
 62
     7
370
     9
100
AcDbLine
 10
-4098.214494785311
 20
-1296.564751914599
 30
0.0
 11
-4098.214494785311
 21
-1071.564751914597
 31
0.0
  0
LINE
  5
274
330
1F
100
AcDbEntity
  8
0-A_文字
  6
Continuous
 62
     7
370
     9
100
AcDbLine
 10
-2823.214494785306
 20
-1296.564751914599
 30
0.0
 11
-4098.214494785311
 21
-1296.564751914599
 31
0.0
  0
LINE
  5
275
330
1F
100
AcDbEntity
  8
0-A_文字
  6
Continuous
 62
     7
370
     9
100
AcDbLine
 10
-4098.214494785311
 20
-1071.564751914597
 30
0.0
 11
-2823.214494785306
 21
-1071.564751914597
 31
0.0
  0
LINE
  5
276
330
1F
100
AcDbEntity
  8
0-A_文字
  6
Continuous
 62
     7
370
     9
100
AcDbLine
 10
-2823.214494785306
 20
-1071.564751914597
 30
0.0
 11
-2823.214494785306
 21
-1296.564751914599
 31
0.0
  0
TEXT
  5
277
330
1F
100
AcDbEntity
  8
0-A_文字
  6
Continuous
 62
     7
370
     9
100
AcDbText
 10
-1345.821305273444
 20
563.6065871221477
 30
0.0
 40
61.722
  1
引出
 41
1.000000000000017
  7
ＭＳ ゴシック
100
AcDbText
  0
TEXT
  5
278
330
1F
100
AcDbEntity
  8
0-A_文字
  6
Continuous
 62
     7
370
     9
100
AcDbText
 10
-717.3212946688786
 20
563.6065871221477
 30
0.0
 40
61.722
  1
引出
 41
1.000000000000017
  7
ＭＳ ゴシック
100
AcDbText
  0
LINE
  5
279
330
1F
100
AcDbEntity
  8
0-A_文字
  6
JWW_CENTER1
 62
   120
370
     5
100
AcDbLine
 10
-1557.321636886988
 20
513.9352480854056
 30
0.0
 11
-973.0716368869898
 21
674.4352480854054
 31
0.0
  0
LINE
  5
27A
330
1F
100
AcDbEntity
  8
0-A_文字
  6
JWW_CENTER1
 62
   120
370
     5
100
AcDbLine
 10
-973.0716368869898
 20
513.9352480854056
 30
0.0
 11
-1557.321636886988
 21
674.4352480854054
 31
0.0
  0
LINE
  5
27B
330
1F
100
AcDbEntity
  8
0-A_文字
  6
JWW_CENTER1
 62
   120
370
     5
100
AcDbLine
 10
-928.0716368869898
 20
513.9352480854056
 30
0.0
 11
-343.8216368869891
 21
674.4352480854054
 31
0.0
  0
LINE
  5
27C
330
1F
100
AcDbEntity
  8
0-A_文字
  6
JWW_CENTER1
 62
   120
370
     5
100
AcDbLine
 10
-343.8216368869891
 20
513.9352480854056
 30
0.0
 11
-928.0716368869898
 21
674.4352480854054
 31
0.0
  0
TEXT
  5
27D
330
1F
100
AcDbEntity
  8
0-A_文字
  6
Continuous
 62
     7
370
     9
100
AcDbText
 10
-705.9661712980951
 20
349.0017211329651
 30
0.0
 40
61.722
  1
ツカ
 41
1.000000000000017
  7
ＭＳ ゴシック
100
AcDbText
  0
LINE
  5
27E
330
1F
100
AcDbEntity
  8
0-1_本体
  6
Continuous
 62
    92
370
    13
100
AcDbLine
 10
-1557.321636886988
 20
490.6852480854054
 30
0.0
 11
-343.8216368869891
 21
490.6852480854054
 31
0.0
  0
LINE
  5
27F
330
1F
100
AcDbEntity
  8
0-A_文字
  6
Continuous
 62
     7
370
     9
100
AcDbLine
 10
-950.571037287277
 20
592.6855871221476
 30
0.0
 11
-735.9661712980943
 21
378.0807211329666
 31
0.0
  0
LINE
  5
280
330
1F
100
AcDbEntity
  8
0-A_文字
  6
Continuous
 62
     7
370
     9
100
AcDbLine
 10
-735.9661712980943
 20
378.0807211329666
 30
0.0
 11
-705.9661712980943
 21
378.0807211329666
 31
0.0
  0
LINE
  5
281
330
1F
100
AcDbEntity
  8
0-B_寸法
  6
Continuous
 62
   120
370
     5
100
AcDbLine
 10
-1580.57163688699
 20
921.9352480854059
 30
0.0
 11
-1557.321636886989
 21
921.9352480854059
 31
0.0
  0
LWPOLYLINE
  5
282
330
1F
100
AcDbEntity
  8
0-B_寸法
  6
Continuous
 62
     7
370
     9
100
AcDbPolyline
 90
        4
 70
     1
 43
3.0
 10
-1579.07163688699
 20
921.9352480854059
 42
0.4142135623731
 10
-1580.57163688699
 20
923.4352480854059
 42
0.4142135623731
 10
-1582.07163688699
 20
921.9352480854059
 42
0.4142135623731
 10
-1580.57163688699
 20
920.4352480854059
 42
0.4142135623731
  0
LWPOLYLINE
  5
283
330
1F
100
AcDbEntity
  8
0-B_寸法
  6
Continuous
 62
     7
370
     9
100
AcDbPolyline
 90
        4
 70
     1
 43
3.0
 10
-1555.821636886989
 20
921.9352480854059
 42
0.4142135623731
 10
-1557.321636886989
 20
923.4352480854059
 42
0.4142135623731
 10
-1558.821636886989
 20
921.9352480854059
 42
0.4142135623731
 10
-1557.321636886989
 20
920.4352480854059
 42
0.4142135623731
  0
LINE
  5
284
330
1F
100
AcDbEntity
  8
0-B_寸法
  6
Continuous
 62
   120
370
     5
100
AcDbLine
 10
-1580.57163688699
 20
921.9352480854059
 30
0.0
 11
-1580.57163688699
 21
771.9352480854059
 31
0.0
  0
LINE
  5
285
330
1F
100
AcDbEntity
  8
0-B_寸法
  6
Continuous
 62
   120
370
     5
100
AcDbLine
 10
-1557.321636886989
 20
921.9352480854059
 30
0.0
 11
-1557.321636886989
 21
771.9352480854059
 31
0.0
  0
TEXT
  5
286
330
1F
100
AcDbEntity
  8
0-B_寸法
  6
Continuous
 62
     7
370
   211
100
AcDbText
 10
-1670.196636886989
 20
949.6252480854059
 30
0.0
 40
68.58
  1
15.5
 41
1.125
  7
ＭＳ ゴシック
100
AcDbText
  0
LINE
  5
287
330
1F
100
AcDbEntity
  8
0-B_寸法
  6
Continuous
 62
   120
370
     5
100
AcDbLine
 10
-1557.321636886988
 20
921.9352480854059
 30
0.0
 11
-973.0716368869898
 21
921.9352480854059
 31
0.0
  0
LWPOLYLINE
  5
288
330
1F
100
AcDbEntity
  8
0-B_寸法
  6
Continuous
 62
     7
370
     9
100
AcDbPolyline
 90
        4
 70
     1
 43
3.0
 10
-971.5716368869898
 20
921.9352480854059
 42
0.4142135623731
 10
-973.0716368869898
 20
923.4352480854059
 42
0.4142135623731
 10
-974.5716368869897
 20
921.9352480854059
 42
0.4142135623731
 10
-973.0716368869898
 20
920.4352480854059
 42
0.4142135623731
  0
LINE
  5
289
330
1F
100
AcDbEntity
  8
0-B_寸法
  6
Continuous
 62
   120
370
     5
100
AcDbLine
 10
-973.0716368869898
 20
921.9352480854059
 30
0.0
 11
-973.0716368869898
 21
771.9352480854059
 31
0.0
  0
TEXT
  5
28A
330
1F
100
AcDbEntity
  8
0-B_寸法
  6
Continuous
 62
     7
370
   211
100
AcDbText
 10
-1392.696636886989
 20
949.6252480854059
 30
0.0
 40
68.58
  1
389.5
 41
1.133333333333333
  7
ＭＳ ゴシック
100
AcDbText
  0
LINE
  5
28B
330
1F
100
AcDbEntity
  8
0-B_寸法
  6
Continuous
 62
   120
370
     5
100
AcDbLine
 10
-973.0716368869898
 20
921.9352480854059
 30
0.0
 11
-928.0716368869898
 21
921.9352480854059
 31
0.0
  0
LWPOLYLINE
  5
28C
330
1F
100
AcDbEntity
  8
0-B_寸法
  6
Continuous
 62
     7
370
     9
100
AcDbPolyline
 90
        4
 70
     1
 43
3.0
 10
-926.5716368869897
 20
921.9352480854059
 42
0.4142135623731
 10
-928.0716368869898
 20
923.4352480854059
 42
0.4142135623731
 10
-929.5716368869898
 20
921.9352480854059
 42
0.4142135623731
 10
-928.0716368869898
 20
920.4352480854059
 42
0.4142135623731
  0
LINE
  5
28D
330
1F
100
AcDbEntity
  8
0-B_寸法
  6
Continuous
 62
   120
370
     5
100
AcDbLine
 10
-928.0716368869898
 20
921.9352480854059
 30
0.0
 11
-928.0716368869898
 21
771.9352480854059
 31
0.0
  0
TEXT
  5
28E
330
1F
100
AcDbEntity
  8
0-B_寸法
  6
Continuous
 62
     7
370
   211
100
AcDbText
 10
-999.3216368869898
 20
949.6252480854059
 30
0.0
 40
68.58
  1
30
 41
1.083333333333333
  7
ＭＳ ゴシック
100
AcDbText
  0
LINE
  5
28F
330
1F
100
AcDbEntity
  8
0-B_寸法
  6
Continuous
 62
   120
370
     5
100
AcDbLine
 10
-928.0716368869898
 20
921.9352480854059
 30
0.0
 11
-343.8216368869891
 21
921.9352480854059
 31
0.0
  0
LWPOLYLINE
  5
290
330
1F
100
AcDbEntity
  8
0-B_寸法
  6
Continuous
 62
     7
370
     9
100
AcDbPolyline
 90
        4
 70
     1
 43
3.0
 10
-342.3216368869891
 20
921.9352480854059
 42
0.4142135623731
 10
-343.8216368869891
 20
923.4352480854059
 42
0.4142135623731
 10
-345.3216368869891
 20
921.9352480854059
 42
0.4142135623731
 10
-343.8216368869891
 20
920.4352480854059
 42
0.4142135623731
  0
LINE
  5
291
330
1F
100
AcDbEntity
  8
0-B_寸法
  6
Continuous
 62
   120
370
     5
100
AcDbLine
 10
-343.8216368869891
 20
921.9352480854059
 30
0.0
 11
-343.8216368869891
 21
771.9352480854059
 31
0.0
  0
TEXT
  5
292
330
1F
100
AcDbEntity
  8
0-B_寸法
  6
Continuous
 62
     7
370
   211
100
AcDbText
 10
-763.4466368869894
 20
949.6252480854059
 30
0.0
 40
68.58
  1
389.5
 41
1.133333333333333
  7
ＭＳ ゴシック
100
AcDbText
  0
LINE
  5
293
330
1F
100
AcDbEntity
  8
0-B_寸法
  6
Continuous
 62
   120
370
     5
100
AcDbLine
 10
-343.8216368869891
 20
921.9352480854059
 30
0.0
 11
-320.5716156778621
 21
921.9352480854059
 31
0.0
  0
LWPOLYLINE
  5
294
330
1F
100
AcDbEntity
  8
0-B_寸法
  6
Continuous
 62
     7
370
     9
100
AcDbPolyline
 90
        4
 70
     1
 43
3.0
 10
-319.0716156778621
 20
921.9352480854059
 42
0.4142135623731
 10
-320.5716156778621
 20
923.4352480854059
 42
0.4142135623731
 10
-322.0716156778621
 20
921.9352480854059
 42
0.4142135623731
 10
-320.5716156778621
 20
920.4352480854059
 42
0.4142135623731
  0
LINE
  5
295
330
1F
100
AcDbEntity
  8
0-B_寸法
  6
Continuous
 62
   120
370
     5
100
AcDbLine
 10
-320.5716156778621
 20
921.9352480854059
 30
0.0
 11
-320.5716156778621
 21
771.9352480854059
 31
0.0
  0
TEXT
  5
296
330
1F
100
AcDbEntity
  8
0-B_寸法
  6
Continuous
 62
     7
370
   211
100
AcDbText
 10
-433.4466262824256
 20
949.6252480854059
 30
0.0
 40
68.58
  1
15.5
 41
1.125
  7
ＭＳ ゴシック
100
AcDbText
  0
TEXT
  5
297
330
1F
100
AcDbEntity
  8
0-A_文字
  6
Continuous
 62
     7
370
     9
100
AcDbText
 10
-3865.714494785307
 20
-1248.684751914597
 30
0.0
 40
137.16
  1
扉正面図
 41
1.125
  7
ＭＳ ゴシック
100
AcDbText
  0
TEXT
  5
298
330
1F
100
AcDbEntity
  8
F-A_文字
  6
Continuous
 62
     7
370
     0
100
AcDbText
 10
-5239.999990205507
 20
-4017.309988143852
 30
0.0
 40
68.58
  1
ソフトアート　造り付け家具　銘々ポスト
 41
1.157894736842105
  7
ＭＳ ゴシック
100
AcDbText
  0
LINE
  5
299
330
1F
100
AcDbEntity
  8
0-4_棚
  6
JWW_CENTER1
 62
   120
370
     5
100
AcDbLine
 10
3328.714257950054
 20
641.4359261588903
 30
0.0
 11
3328.714257950054
 21
521.4359261588903
 31
0.0
  0
LINE
  5
29A
330
1F
100
AcDbEntity
  8
0-4_棚
  6
JWW_CENTER1
 62
   120
370
     5
100
AcDbLine
 10
3853.714257950054
 20
641.4359261588903
 30
0.0
 11
3328.714257950054
 21
641.4359261588903
 31
0.0
  0
LINE
  5
29B
330
1F
100
AcDbEntity
  8
0-4_棚
  6
JWW_CENTER1
 62
   120
370
     5
100
AcDbLine
 10
3853.714257950054
 20
521.4359261588903
 30
0.0
 11
3853.714257950054
 21
641.4359261588903
 31
0.0
  0
LINE
  5
29C
330
1F
100
AcDbEntity
  8
0-4_棚
  6
JWW_CENTER1
 62
   120
370
     5
100
AcDbLine
 10
1724.571242220465
 20
521.4359261588903
 30
0.0
 11
1724.571242220465
 21
641.4359261588903
 31
0.0
  0
LINE
  5
29D
330
1F
100
AcDbEntity
  8
0-4_棚
  6
JWW_CENTER1
 62
   120
370
     5
100
AcDbLine
 10
1724.571242220465
 20
641.4359261588903
 30
0.0
 11
1274.571242220463
 21
641.4359261588903
 31
0.0
  0
LINE
  5
29E
330
1F
100
AcDbEntity
  8
0-4_棚
  6
JWW_CENTER1
 62
   120
370
     5
100
AcDbLine
 10
1274.571242220463
 20
641.4359261588903
 30
0.0
 11
1274.571242220463
 21
521.4359261588903
 31
0.0
  0
TEXT
  5
29F
330
1F
100
AcDbEntity
  8
0-A_文字
  6
Continuous
 62
     7
370
     9
100
AcDbText
 10
1310.02284484662
 20
532.0109261588904
 30
0.0
 40
57.15000000000001
  1
ｽﾗｲﾄﾞﾚｰﾙ L300
 41
0.9999999999999999
  7
ＭＳ ゴシック
100
AcDbText
  0
TEXT
  5
2A0
330
1F
100
AcDbEntity
  8
0-A_文字
  6
Continuous
 62
     7
370
     9
100
AcDbText
 10
1244.071102151508
 20
610.8396557884628
 30
0.0
 40
57.15000000000001
  1
BOX 363x80x300
 41
0.9999999999999998
  7
ＭＳ ゴシック
100
AcDbText
  0
TEXT
  5
2A1
330
1F
100
AcDbEntity
  8
0-A_文字
  6
Continuous
 62
     7
370
     9
100
AcDbText
 10
3421.666000645172
 20
532.0109261588904
 30
0.0
 40
57.15000000000001
  1
ｽﾗｲﾄﾞﾚｰﾙ L400
 41
1.000000000000002
  7
ＭＳ ゴシック
100
AcDbText
  0
TEXT
  5
2A2
330
1F
100
AcDbEntity
  8
0-A_文字
  6
Continuous
 62
     7
370
     9
100
AcDbText
 10
3355.714257950052
 20
603.9856937694868
 30
0.0
 40
57.15000000000001
  1
BOX 363x80x350
 41
0.9999999999999998
  7
ＭＳ ゴシック
100
AcDbText
  0
LINE
  5
2A3
330
1F
100
AcDbEntity
  8
0-1_本体
  6
Continuous
 62
    40
370
    15
100
AcDbLine
 10
3332.464257950049
 20
-471.5647519145942
 30
0.0
 11
3332.464257950049
 21
-321.5647519145942
 31
0.0
  0
LINE
  5
2A4
330
1F
100
AcDbEntity
  8
0-1_本体
  6
Continuous
 62
     7
370
     9
100
AcDbLine
 10
3332.464257950049
 20
-471.5647519145942
 30
0.0
 11
3328.714257950054
 21
-471.5647519145942
 31
0.0
  0
LINE
  5
2A5
330
1F
100
AcDbEntity
  8
0-1_本体
  6
Continuous
 62
    40
370
    15
100
AcDbLine
 10
3355.714257950045
 20
-471.5647519145942
 30
0.0
 11
3355.714257950045
 21
-321.5647519145942
 31
0.0
  0
LINE
  5
2A6
330
1F
100
AcDbEntity
  8
0-1_本体
  6
Continuous
 62
    40
370
    15
100
AcDbLine
 10
3355.714257950045
 20
-471.5647519145942
 30
0.0
 11
3332.464257950049
 21
-471.5647519145942
 31
0.0
  0
LINE
  5
2A7
330
1F
100
AcDbEntity
  8
0-1_本体
  6
Continuous
 62
     7
370
     9
100
AcDbLine
 10
3355.714257950045
 20
-471.5647519145942
 30
0.0
 11
3940.71425795005
 21
-471.5647519145942
 31
0.0
  0
LINE
  5
2A8
330
1F
100
AcDbEntity
  8
0-1_本体
  6
Continuous
 62
     7
370
     9
100
AcDbLine
 10
1278.321242220458
 20
-471.5647519145942
 30
0.0
 11
1274.571242220463
 21
-471.5647519145942
 31
0.0
  0
LINE
  5
2A9
330
1F
100
AcDbEntity
  8
0-1_本体
  6
Continuous
 62
    40
370
    15
100
AcDbLine
 10
1278.321242220458
 20
-471.5647519145942
 30
0.0
 11
1278.321242220458
 21
-321.5647519145942
 31
0.0
  0
LINE
  5
2AA
330
1F
100
AcDbEntity
  8
0-1_本体
  6
Continuous
 62
     7
370
     9
100
AcDbLine
 10
1301.571242220457
 20
-471.5647519145942
 30
0.0
 11
1733.571400051726
 21
-471.5647519145942
 31
0.0
  0
LINE
  5
2AB
330
1F
100
AcDbEntity
  8
0-1_本体
  6
Continuous
 62
    40
370
    15
100
AcDbLine
 10
1301.571242220457
 20
-471.5647519145942
 30
0.0
 11
1278.321242220458
 21
-471.5647519145942
 31
0.0
  0
LINE
  5
2AC
330
1F
100
AcDbEntity
  8
0-1_本体
  6
Continuous
 62
    40
370
    15
100
AcDbLine
 10
1301.571242220457
 20
-471.5647519145942
 30
0.0
 11
1301.571242220457
 21
-321.5647519145942
 31
0.0
  0
LWPOLYLINE
  5
2AD
330
1F
100
AcDbEntity
  8
0-B_寸法
  6
Continuous
 62
     7
370
     9
100
AcDbPolyline
 90
        4
 70
     1
 43
3.0
 10
1276.071242220463
 20
-696.5647519145942
 42
0.4142135623731
 10
1274.571242220463
 20
-695.0647519145942
 42
0.4142135623731
 10
1273.071242220463
 20
-696.5647519145942
 42
0.4142135623731
 10
1274.571242220463
 20
-698.0647519145942
 42
0.4142135623731
  0
LWPOLYLINE
  5
2AE
330
1F
100
AcDbEntity
  8
0-B_寸法
  6
Continuous
 62
     7
370
     9
100
AcDbPolyline
 90
        4
 70
     1
 43
3.0
 10
1279.821242220458
 20
-696.5647519145942
 42
0.4142135623731
 10
1278.321242220458
 20
-695.0647519145942
 42
0.4142135623731
 10
1276.821242220458
 20
-696.5647519145942
 42
0.4142135623731
 10
1278.321242220458
 20
-698.0647519145942
 42
0.4142135623731
  0
LINE
  5
2AF
330
1F
100
AcDbEntity
  8
0-B_寸法
  6
Continuous
 62
   120
370
     5
100
AcDbLine
 10
1278.321242220458
 20
-696.5647519145942
 30
0.0
 11
1278.321242220458
 21
-546.5647519145942
 31
0.0
  0
LINE
  5
2B0
330
1F
100
AcDbEntity
  8
0-B_寸法
  6
Continuous
 62
   120
370
     5
100
AcDbLine
 10
1278.321242220458
 20
-696.5647519145942
 30
0.0
 11
1301.571242220457
 21
-696.5647519145942
 31
0.0
  0
LWPOLYLINE
  5
2B1
330
1F
100
AcDbEntity
  8
0-B_寸法
  6
Continuous
 62
     7
370
     9
100
AcDbPolyline
 90
        4
 70
     1
 43
3.0
 10
1303.071242220457
 20
-696.5647519145942
 42
0.4142135623731
 10
1301.571242220457
 20
-695.0647519145942
 42
0.4142135623731
 10
1300.071242220457
 20
-696.5647519145942
 42
0.4142135623731
 10
1301.571242220457
 20
-698.0647519145942
 42
0.4142135623731
  0
LINE
  5
2B2
330
1F
100
AcDbEntity
  8
0-B_寸法
  6
Continuous
 62
   120
370
     5
100
AcDbLine
 10
1301.571242220457
 20
-696.5647519145942
 30
0.0
 11
1301.571242220457
 21
-546.5647519145942
 31
0.0
  0
LINE
  5
2B3
330
1F
100
AcDbEntity
  8
0-B_寸法
  6
Continuous
 62
   120
370
     5
100
AcDbLine
 10
1301.571242220457
 20
-696.5647519145942
 30
0.0
 11
1733.571400051726
 21
-696.5647519145942
 31
0.0
  0
LWPOLYLINE
  5
2B4
330
1F
100
AcDbEntity
  8
0-B_寸法
  6
Continuous
 62
     7
370
     9
100
AcDbPolyline
 90
        4
 70
     1
 43
3.0
 10
1735.071400051726
 20
-696.5647519145942
 42
0.4142135623731
 10
1733.571400051726
 20
-695.0647519145942
 42
0.4142135623731
 10
1732.071400051726
 20
-696.5647519145942
 42
0.4142135623731
 10
1733.571400051726
 20
-698.0647519145942
 42
0.4142135623731
  0
TEXT
  5
2B5
330
1F
100
AcDbEntity
  8
0-B_寸法
  6
Continuous
 62
     7
370
   211
100
AcDbText
 10
1442.571321136091
 20
-668.8747519145942
 30
0.0
 40
68.58
  1
288
 41
1.111111111111111
  7
ＭＳ ゴシック
100
AcDbText
  0
LWPOLYLINE
  5
2B6
330
1F
100
AcDbEntity
  8
0-B_寸法
  6
Continuous
 62
     7
370
     9
100
AcDbPolyline
 90
        4
 70
     1
 43
3.0
 10
3330.214257950054
 20
-696.5647519145942
 42
0.4142135623731
 10
3328.714257950054
 20
-695.0647519145942
 42
0.4142135623731
 10
3327.214257950054
 20
-696.5647519145942
 42
0.4142135623731
 10
3328.714257950054
 20
-698.0647519145942
 42
0.4142135623731
  0
LWPOLYLINE
  5
2B7
330
1F
100
AcDbEntity
  8
0-B_寸法
  6
Continuous
 62
     7
370
     9
100
AcDbPolyline
 90
        4
 70
     1
 43
3.0
 10
3333.964257950049
 20
-696.5647519145942
 42
0.4142135623731
 10
3332.464257950049
 20
-695.0647519145942
 42
0.4142135623731
 10
3330.964257950049
 20
-696.5647519145942
 42
0.4142135623731
 10
3332.464257950049
 20
-698.0647519145942
 42
0.4142135623731
  0
LINE
  5
2B8
330
1F
100
AcDbEntity
  8
0-B_寸法
  6
Continuous
 62
   120
370
     5
100
AcDbLine
 10
3332.464257950049
 20
-696.5647519145942
 30
0.0
 11
3332.464257950049
 21
-546.5647519145942
 31
0.0
  0
LINE
  5
2B9
330
1F
100
AcDbEntity
  8
0-B_寸法
  6
Continuous
 62
   120
370
     5
100
AcDbLine
 10
3332.464257950049
 20
-696.5647519145942
 30
0.0
 11
3355.714257950045
 21
-696.5647519145942
 31
0.0
  0
LWPOLYLINE
  5
2BA
330
1F
100
AcDbEntity
  8
0-B_寸法
  6
Continuous
 62
     7
370
     9
100
AcDbPolyline
 90
        4
 70
     1
 43
3.0
 10
3357.214257950045
 20
-696.5647519145942
 42
0.4142135623731
 10
3355.714257950045
 20
-695.0647519145942
 42
0.4142135623731
 10
3354.214257950045
 20
-696.5647519145942
 42
0.4142135623731
 10
3355.714257950045
 20
-698.0647519145942
 42
0.4142135623731
  0
LINE
  5
2BB
330
1F
100
AcDbEntity
  8
0-B_寸法
  6
Continuous
 62
   120
370
     5
100
AcDbLine
 10
3355.714257950045
 20
-696.5647519145942
 30
0.0
 11
3355.714257950045
 21
-546.5647519145942
 31
0.0
  0
LINE
  5
2BC
330
1F
100
AcDbEntity
  8
0-B_寸法
  6
Continuous
 62
   120
370
     5
100
AcDbLine
 10
3355.714257950045
 20
-696.5647519145942
 30
0.0
 11
3940.71425795005
 21
-696.5647519145942
 31
0.0
  0
LWPOLYLINE
  5
2BD
330
1F
100
AcDbEntity
  8
0-B_寸法
  6
Continuous
 62
     7
370
     9
100
AcDbPolyline
 90
        4
 70
     1
 43
3.0
 10
3942.214257950051
 20
-696.5647519145942
 42
0.4142135623731
 10
3940.71425795005
 20
-695.0647519145942
 42
0.4142135623731
 10
3939.21425795005
 20
-696.5647519145942
 42
0.4142135623731
 10
3940.71425795005
 20
-698.0647519145942
 42
0.4142135623731
  0
TEXT
  5
2BE
330
1F
100
AcDbEntity
  8
0-B_寸法
  6
Continuous
 62
     7
370
   211
100
AcDbText
 10
3573.214257950048
 20
-668.8747519145942
 30
0.0
 40
68.58
  1
390
 41
1.111111111111111
  7
ＭＳ ゴシック
100
AcDbText
  0
TEXT
  5
2BF
330
1F
100
AcDbEntity
  8
0-B_寸法
  6
Continuous
 62
     7
370
   211
100
AcDbText
 10
1115.263569444161
 20
-668.8747519145942
 30
0.0
 40
68.58
  1
2.5
 41
1.111111111111111
  7
ＭＳ ゴシック
100
AcDbText
  0
TEXT
  5
2C0
330
1F
100
AcDbEntity
  8
0-B_寸法
  6
Continuous
 62
     7
370
   211
100
AcDbText
 10
1062.763569444161
 20
-788.8747519145942
 30
0.0
 40
68.58
  1
15.5
 41
1.125
  7
ＭＳ ゴシック
100
AcDbText
  0
TEXT
  5
2C1
330
1F
100
AcDbEntity
  8
0-B_寸法
  6
Continuous
 62
     7
370
   211
100
AcDbText
 10
3169.406585173752
 20
-668.8747519145942
 30
0.0
 40
68.58
  1
2.5
 41
1.111111111111111
  7
ＭＳ ゴシック
100
AcDbText
  0
TEXT
  5
2C2
330
1F
100
AcDbEntity
  8
0-B_寸法
  6
Continuous
 62
     7
370
   211
100
AcDbText
 10
3116.906585173752
 20
-788.8747519145942
 30
0.0
 40
68.58
  1
15.5
 41
1.125
  7
ＭＳ ゴシック
100
AcDbText
  0
LINE
  5
2C3
330
1F
100
AcDbEntity
  8
0-B_寸法
  6
Continuous
 62
   120
370
     5
100
AcDbLine
 10
1115.263569444161
 20
-696.5647519145942
 30
0.0
 11
1278.321242220458
 21
-696.5647519145942
 31
0.0
  0
LINE
  5
2C4
330
1F
100
AcDbEntity
  8
0-B_寸法
  6
Continuous
 62
   120
370
     5
100
AcDbLine
 10
3169.406585173752
 20
-696.5647519145942
 30
0.0
 11
3332.464257950049
 21
-696.5647519145942
 31
0.0
  0
LINE
  5
2C5
330
1F
100
AcDbEntity
  8
0-1_本体
  6
Continuous
 62
     7
370
     9
100
AcDbLine
 10
-1557.321636886989
 20
-321.5647519145942
 30
0.0
 11
-343.8216368869891
 21
-321.5647519145942
 31
0.0
  0
ENDSEC
  0
SECTION
  2
OBJECTS
  0
DICTIONARY
  5
C
330
0
100
AcDbDictionary
281
     1
  3
ACAD_GROUP
350
D
  3
ACAD_LAYOUT
350
1A
  3
ACAD_MATERIAL
350
3B
  3
ACAD_MLEADERSTYLE
350
2C7
  3
ACAD_MLINESTYLE
350
17
  3
ACAD_PLOTSETTINGS
350
19
  3
ACAD_PLOTSTYLENAME
350
E
  3
ACAD_TABLESTYLE
350
2C6
  3
ACAD_VISUALSTYLE
350
2A
  0
DICTIONARY
  5
D
102
{ACAD_REACTORS
330
C
102
}
330
C
100
AcDbDictionary
281
     1
  0
DICTIONARY
  5
1A
102
{ACAD_REACTORS
330
C
102
}
330
C
100
AcDbDictionary
281
     1
  3
Layout1
350
1E
  3
Layout2
350
26
  3
Model
350
22
  0
DICTIONARY
  5
3B
102
{ACAD_REACTORS
330
C
102
}
330
C
100
AcDbDictionary
281
     1
  3
ByBlock
350
3D
  3
ByLayer
350
3C
  3
Global
350
3E
  0
DICTIONARY
  5
2C7
102
{ACAD_REACTORS
330
C
102
}
330
C
100
AcDbDictionary
281
     1
  0
DICTIONARY
  5
17
102
{ACAD_REACTORS
330
C
102
}
330
C
100
AcDbDictionary
281
     1
  3
Standard
350
18
  0
DICTIONARY
  5
19
102
{ACAD_REACTORS
330
C
102
}
330
C
100
AcDbDictionary
281
     1
  0
ACDBDICTIONARYWDFLT
  5
E
102
{ACAD_REACTORS
330
C
102
}
330
C
100
AcDbDictionary
281
     1
  3
Normal
350
F
100
AcDbDictionaryWithDefault
340
F
  0
DICTIONARY
  5
2C6
102
{ACAD_REACTORS
330
C
102
}
330
C
100
AcDbDictionary
281
     1
  0
DICTIONARY
  5
2A
102
{ACAD_REACTORS
330
C
102
}
330
C
100
AcDbDictionary
281
     1
  3
2dWireframe
350
2F
  3
3D Hidden
350
31
  3
3dWireframe
350
30
  3
Basic
350
32
  3
Brighten
350
36
  3
ColorChange
350
3A
  3
Conceptual
350
34
  3
Dim
350
35
  3
Facepattern
350
39
  3
Flat
350
2B
  3
FlatWithEdges
350
2C
  3
Gouraud
350
2D
  3
GouraudWithEdges
350
2E
  3
Linepattern
350
38
  3
Realistic
350
33
  3
Thicken
350
37
  0
LAYOUT
  5
1E
102
{ACAD_REACTORS
330
1A
102
}
330
1A
100
AcDbPlotSettings
  1

  2
none_device
  4

  6

 40
0.0
 41
0.0
 42
0.0
 43
0.0
 44
0.0
 45
0.0
 46
0.0
 47
0.0
 48
0.0
 49
0.0
140
0.0
141
0.0
142
1.0
143
1.0
 70
   688
 72
     0
 73
     0
 74
     5
  7

 75
    16
 76
     0
 77
     5
 78
   300
147
1.0
148
0.0
149
0.0
100
AcDbLayout
  1
Layout1
 70
     1
 71
     1
 10
0.0
 20
0.0
 11
420.0
 21
297.0
 12
0.0
 22
0.0
 32
0.0
 14
1.000000000000000E+20
 24
1.000000000000000E+20
 34
1.000000000000000E+20
 15
-1.000000000000000E+20
 25
-1.000000000000000E+20
 35
-1.000000000000000E+20
146
0.0
 13
0.0
 23
0.0
 33
0.0
 16
1.0
 26
0.0
 36
0.0
 17
0.0
 27
1.0
 37
0.0
 76
     0
330
1B
  0
LAYOUT
  5
26
102
{ACAD_REACTORS
330
1A
102
}
330
1A
100
AcDbPlotSettings
  1

  2
none_device
  4

  6

 40
0.0
 41
0.0
 42
0.0
 43
0.0
 44
0.0
 45
0.0
 46
0.0
 47
0.0
 48
0.0
 49
0.0
140
0.0
141
0.0
142
1.0
143
1.0
 70
   688
 72
     0
 73
     0
 74
     5
  7

 75
    16
 76
     0
 77
     5
 78
   300
147
1.0
148
0.0
149
0.0
100
AcDbLayout
  1
Layout2
 70
     1
 71
     2
 10
0.0
 20
0.0
 11
0.0
 21
0.0
 12
0.0
 22
0.0
 32
0.0
 14
0.0
 24
0.0
 34
0.0
 15
0.0
 25
0.0
 35
0.0
146
0.0
 13
0.0
 23
0.0
 33
0.0
 16
1.0
 26
0.0
 36
0.0
 17
0.0
 27
1.0
 37
0.0
 76
     0
330
23
  0
LAYOUT
  5
22
102
{ACAD_REACTORS
330
1A
102
}
330
1A
100
AcDbPlotSettings
  1

  2
none_device
  4

  6

 40
0.0
 41
0.0
 42
0.0
 43
0.0
 44
0.0
 45
0.0
 46
0.0
 47
0.0
 48
0.0
 49
0.0
140
0.0
141
0.0
142
1.0
143
1.0
 70
  1712
 72
     0
 73
     0
 74
     0
  7

 75
     0
 76
     0
 77
     5
 78
   300
147
1.0
148
0.0
149
0.0
100
AcDbLayout
  1
Model
 70
     1
 71
     0
 10
-6300.0
 20
-4455.0
 11
6300.0
 21
4455.0
 12
0.0
 22
0.0
 32
0.0
 14
-6300.0
 24
-4455.0
 34
0.0
 15
6300.0
 25
4455.0
 35
0.0
146
0.0
 13
0.0
 23
0.0
 33
0.0
 16
1.0
 26
0.0
 36
0.0
 17
0.0
 27
1.0
 37
0.0
 76
     0
330
1F
331
29
  0
MATERIAL
  5
3D
102
{ACAD_REACTORS
330
3B
102
}
330
3B
100
AcDbMaterial
  1
ByBlock
 72
     1
 94
      127
  0
MATERIAL
  5
3C
102
{ACAD_REACTORS
330
3B
102
}
330
3B
100
AcDbMaterial
  1
ByLayer
 72
     1
 94
      127
  0
MATERIAL
  5
3E
102
{ACAD_REACTORS
330
3B
102
}
330
3B
100
AcDbMaterial
  1
Global
 72
     1
 94
      127
  0
MLINESTYLE
  5
18
102
{ACAD_REACTORS
330
17
102
}
330
17
100
AcDbMlineStyle
  2
Standard
 70
     0
  3

 62
   256
 51
90.0
 52
90.0
 71
     2
 49
0.5
 62
   256
  6
BYLAYER
 49
-0.5
 62
   256
  6
BYLAYER
  0
ACDBPLACEHOLDER
  5
F
102
{ACAD_REACTORS
330
E
102
}
330
E
  0
VISUALSTYLE
  5
2F
102
{ACAD_REACTORS
330
2A
102
}
330
2A
100
AcDbVisualStyle
  2
2dWireframe
 70
     4
177
     2
291
     0
 71
     0
176
     1
 72
     2
176
     1
 73
     0
176
     1
 90
        0
176
     1
 40
-0.6
176
     1
 41
-30.0
176
     1
 62
     5
 63
     7
421
 16777215
176
     1
 74
     1
176
     1
 91
        4
176
     1
 64
     7
176
     1
 65
   257
176
     1
 75
     1
176
     1
175
     1
176
     1
 42
1.0
176
     1
 92
        0
176
     1
 66
   257
176
     1
 43
1.0
176
     1
 76
     1
176
     1
 77
     6
176
     1
 78
     2
176
     1
 67
     7
176
     1
 79
     5
176
     1
170
     0
176
     1
171
     0
176
     1
290
     0
176
     1
 93
        1
176
     1
 44
0.0
176
     1
173
     0
176
     1
  0
VISUALSTYLE
  5
31
102
{ACAD_REACTORS
330
2A
102
}
330
2A
100
AcDbVisualStyle
  2
3D Hidden
 70
     6
177
     2
291
     0
 71
     1
176
     1
 72
     2
176
     1
 73
     2
176
     1
 90
        0
176
     1
 40
-0.6
176
     1
 41
-30.0
176
     1
 62
     5
 63
     7
421
 16777215
176
     1
 74
     2
176
     1
 91
        2
176
     1
 64
     7
176
     1
 65
   257
176
     1
 75
     2
176
     1
175
     1
176
     1
 42
40.0
176
     1
 92
        0
176
     1
 66
   257
176
     1
 43
1.0
176
     1
 76
     1
176
     1
 77
     6
176
     1
 78
     2
176
     1
 67
     7
176
     1
 79
     3
176
     1
170
     0
176
     1
171
     0
176
     1
290
     0
176
     1
 93
        1
176
     1
 44
0.0
176
     1
173
     0
176
     1
  0
VISUALSTYLE
  5
30
102
{ACAD_REACTORS
330
2A
102
}
330
2A
100
AcDbVisualStyle
  2
3dWireframe
 70
     5
177
     2
291
     0
 71
     0
176
     1
 72
     2
176
     1
 73
     0
176
     1
 90
        0
176
     1
 40
-0.6
176
     1
 41
-30.0
176
     1
 62
     5
 63
     7
421
 16777215
176
     1
 74
     1
176
     1
 91
        4
176
     1
 64
     7
176
     1
 65
   257
176
     1
 75
     1
176
     1
175
     1
176
     1
 42
1.0
176
     1
 92
        0
176
     1
 66
   257
176
     1
 43
1.0
176
     1
 76
     1
176
     1
 77
     6
176
     1
 78
     2
176
     1
 67
     7
176
     1
 79
     5
176
     1
170
     0
176
     1
171
     0
176
     1
290
     0
176
     1
 93
        1
176
     1
 44
0.0
176
     1
173
     0
176
     1
  0
VISUALSTYLE
  5
32
102
{ACAD_REACTORS
330
2A
102
}
330
2A
100
AcDbVisualStyle
  2
Basic
 70
     7
177
     2
291
     1
 71
     1
176
     1
 72
     0
176
     1
 73
     1
176
     1
 90
        0
176
     1
 40
-0.6
176
     1
 41
-30.0
176
     1
 62
     5
 63
     7
421
 16777215
176
     1
 74
     0
176
     1
 91
        4
176
     1
 64
     7
176
     1
 65
   257
176
     1
 75
     1
176
     1
175
     1
176
     1
 42
1.0
176
     1
 92
        8
176
     1
 66
     7
176
     1
 43
1.0
176
     1
 76
     1
176
     1
 77
     6
176
     1
 78
     2
176
     1
 67
     7
176
     1
 79
     5
176
     1
170
     0
176
     1
171
     0
176
     1
290
     0
176
     1
 93
        1
176
     1
 44
0.0
176
     1
173
     0
176
     1
  0
VISUALSTYLE
  5
36
102
{ACAD_REACTORS
330
2A
102
}
330
2A
100
AcDbVisualStyle
  2
Brighten
 70
    12
177
     2
291
     1
 71
     2
176
     1
 72
     2
176
     1
 73
     0
176
     1
 90
        0
176
     1
 40
-0.6
176
     1
 41
-30.0
176
     1
 62
     5
 63
     7
421
 16777215
176
     1
 74
     1
176
     1
 91
        4
176
     1
 64
     7
176
     1
 65
   257
176
     1
 75
     1
176
     1
175
     1
176
     1
 42
1.0
176
     1
 92
        8
176
     1
 66
     7
176
     1
 43
1.0
176
     1
 76
     1
176
     1
 77
     6
176
     1
 78
     2
176
     1
 67
     7
176
     1
 79
     5
176
     1
170
     0
176
     1
171
     0
176
     1
290
     0
176
     1
 93
        1
176
     1
 44
50.0
176
     1
173
     0
176
     1
  0
VISUALSTYLE
  5
3A
102
{ACAD_REACTORS
330
2A
102
}
330
2A
100
AcDbVisualStyle
  2
ColorChange
 70
    16
177
     2
291
     1
 71
     2
176
     1
 72
     2
176
     1
 73
     3
176
     1
 90
        0
176
     1
 40
-0.6
176
     1
 41
-30.0
176
     1
 62
     5
 63
     8
421
  8421504
176
     1
 74
     1
176
     1
 91
        4
176
     1
 64
     7
176
     1
 65
   257
176
     1
 75
     1
176
     1
175
     1
176
     1
 42
1.0
176
     1
 92
        8
176
     1
 66
     8
424
  8421504
176
     1
 43
1.0
176
     1
 76
     1
176
     1
 77
     6
176
     1
 78
     2
176
     1
 67
     7
176
     1
 79
     5
176
     1
170
     0
176
     1
171
     0
176
     1
290
     0
176
     1
 93
        1
176
     1
 44
0.0
176
     1
173
     0
176
     1
  0
VISUALSTYLE
  5
34
102
{ACAD_REACTORS
330
2A
102
}
330
2A
100
AcDbVisualStyle
  2
Conceptual
 70
     9
177
     2
291
     0
 71
     3
176
     1
 72
     2
176
     1
 73
     0
176
     1
 90
        0
176
     1
 40
-0.6
176
     1
 41
-30.0
176
     1
 62
     5
 63
     7
421
 16777215
176
     1
 74
     2
176
     1
 91
        2
176
     1
 64
     7
176
     1
 65
   257
176
     1
 75
     1
176
     1
175
     1
176
     1
 42
40.0
176
     1
 92
        8
176
     1
 66
     7
176
     1
 43
1.0
176
     1
 76
     1
176
     1
 77
     6
176
     1
 78
     2
176
     1
 67
     7
176
     1
 79
     3
176
     1
170
     0
176
     1
171
     0
176
     1
290
     0
176
     1
 93
        1
176
     1
 44
0.0
176
     1
173
     0
176
     1
  0
VISUALSTYLE
  5
35
102
{ACAD_REACTORS
330
2A
102
}
330
2A
100
AcDbVisualStyle
  2
Dim
 70
    11
177
     2
291
     1
 71
     2
176
     1
 72
     2
176
     1
 73
     0
176
     1
 90
        0
176
     1
 40
-0.6
176
     1
 41
-30.0
176
     1
 62
     5
 63
     7
421
 16777215
176
     1
 74
     1
176
     1
 91
        4
176
     1
 64
     7
176
     1
 65
   257
176
     1
 75
     1
176
     1
175
     1
176
     1
 42
1.0
176
     1
 92
        8
176
     1
 66
     7
176
     1
 43
1.0
176
     1
 76
     1
176
     1
 77
     6
176
     1
 78
     2
176
     1
 67
     7
176
     1
 79
     5
176
     1
170
     0
176
     1
171
     0
176
     1
290
     0
176
     1
 93
        1
176
     1
 44
-50.0
176
     1
173
     0
176
     1
  0
VISUALSTYLE
  5
39
102
{ACAD_REACTORS
330
2A
102
}
330
2A
100
AcDbVisualStyle
  2
Facepattern
 70
    15
177
     2
291
     1
 71
     2
176
     1
 72
     2
176
     1
 73
     0
176
     1
 90
        0
176
     1
 40
-0.6
176
     1
 41
-30.0
176
     1
 62
     5
 63
     7
421
 16777215
176
     1
 74
     1
176
     1
 91
        4
176
     1
 64
     7
176
     1
 65
   257
176
     1
 75
     1
176
     1
175
     1
176
     1
 42
1.0
176
     1
 92
        8
176
     1
 66
     7
176
     1
 43
1.0
176
     1
 76
     1
176
     1
 77
     6
176
     1
 78
     2
176
     1
 67
     7
176
     1
 79
     5
176
     1
170
     0
176
     1
171
     0
176
     1
290
     0
176
     1
 93
        1
176
     1
 44
0.0
176
     1
173
     0
176
     1
  0
VISUALSTYLE
  5
2B
102
{ACAD_REACTORS
330
2A
102
}
330
2A
100
AcDbVisualStyle
  2
Flat
 70
     0
177
     2
291
     1
 71
     2
176
     1
 72
     1
176
     1
 73
     1
176
     1
 90
        2
176
     1
 40
-0.6
176
     1
 41
30.0
176
     1
 62
     5
 63
     7
421
 16777215
176
     1
 74
     0
176
     1
 91
        4
176
     1
 64
     7
176
     1
 65
   257
176
     1
 75
     1
176
     1
175
     1
176
     1
 42
1.0
176
     1
 92
        8
176
     1
 66
     7
176
     1
 43
1.0
176
     1
 76
     1
176
     1
 77
     6
176
     1
 78
     2
176
     1
 67
     7
176
     1
 79
     5
176
     1
170
     0
176
     1
171
     0
176
     1
290
     0
176
     1
 93
       13
176
     1
 44
0.0
176
     1
173
     0
176
     1
  0
VISUALSTYLE
  5
2C
102
{ACAD_REACTORS
330
2A
102
}
330
2A
100
AcDbVisualStyle
  2
FlatWithEdges
 70
     1
177
     2
291
     1
 71
     2
176
     1
 72
     1
176
     1
 73
     1
176
     1
 90
        2
176
     1
 40
-0.6
176
     1
 41
30.0
176
     1
 62
     5
 63
     7
421
 16777215
176
     1
 74
     1
176
     1
 91
        4
176
     1
 64
     7
176
     1
 65
   257
176
     1
 75
     1
176
     1
175
     1
176
     1
 42
1.0
176
     1
 92
        0
176
     1
 66
   257
176
     1
 43
1.0
176
     1
 76
     1
176
     1
 77
     6
176
     1
 78
     2
176
     1
 67
     7
176
     1
 79
     5
176
     1
170
     0
176
     1
171
     0
176
     1
290
     0
176
     1
 93
       13
176
     1
 44
0.0
176
     1
173
     0
176
     1
  0
VISUALSTYLE
  5
2D
102
{ACAD_REACTORS
330
2A
102
}
330
2A
100
AcDbVisualStyle
  2
Gouraud
 70
     2
177
     2
291
     1
 71
     2
176
     1
 72
     2
176
     1
 73
     1
176
     1
 90
        2
176
     1
 40
-0.6
176
     1
 41
30.0
176
     1
 62
     5
 63
     7
421
 16777215
176
     1
 74
     0
176
     1
 91
        4
176
     1
 64
     7
176
     1
 65
   257
176
     1
 75
     1
176
     1
175
     1
176
     1
 42
1.0
176
     1
 92
        0
176
     1
 66
     7
176
     1
 43
1.0
176
     1
 76
     1
176
     1
 77
     6
176
     1
 78
     2
176
     1
 67
     7
176
     1
 79
     5
176
     1
170
     0
176
     1
171
     0
176
     1
290
     0
176
     1
 93
       13
176
     1
 44
0.0
176
     1
173
     0
176
     1
  0
VISUALSTYLE
  5
2E
102
{ACAD_REACTORS
330
2A
102
}
330
2A
100
AcDbVisualStyle
  2
GouraudWithEdges
 70
     3
177
     2
291
     1
 71
     2
176
     1
 72
     2
176
     1
 73
     1
176
     1
 90
        2
176
     1
 40
-0.6
176
     1
 41
30.0
176
     1
 62
     5
 63
     7
421
 16777215
176
     1
 74
     1
176
     1
 91
        4
176
     1
 64
     7
176
     1
 65
   257
176
     1
 75
     1
176
     1
175
     1
176
     1
 42
1.0
176
     1
 92
        0
176
     1
 66
   257
176
     1
 43
1.0
176
     1
 76
     1
176
     1
 77
     6
176
     1
 78
     2
176
     1
 67
     7
176
     1
 79
     5
176
     1
170
     0
176
     1
171
     0
176
     1
290
     0
176
     1
 93
       13
176
     1
 44
0.0
176
     1
173
     0
176
     1
  0
VISUALSTYLE
  5
38
102
{ACAD_REACTORS
330
2A
102
}
330
2A
100
AcDbVisualStyle
  2
Linepattern
 70
    14
177
     2
291
     1
 71
     2
176
     1
 72
     2
176
     1
 73
     0
176
     1
 90
        0
176
     1
 40
-0.6
176
     1
 41
-30.0
176
     1
 62
     5
 63
     7
421
 16777215
176
     1
 74
     1
176
     1
 91
        4
176
     1
 64
     7
176
     1
 65
   257
176
     1
 75
     7
176
     1
175
     7
176
     1
 42
1.0
176
     1
 92
        8
176
     1
 66
     7
176
     1
 43
1.0
176
     1
 76
     1
176
     1
 77
     6
176
     1
 78
     2
176
     1
 67
     7
176
     1
 79
     5
176
     1
170
     0
176
     1
171
     0
176
     1
290
     0
176
     1
 93
        1
176
     1
 44
0.0
176
     1
173
     0
176
     1
  0
VISUALSTYLE
  5
33
102
{ACAD_REACTORS
330
2A
102
}
330
2A
100
AcDbVisualStyle
  2
Realistic
 70
     8
177
     2
291
     0
 71
     2
176
     1
 72
     2
176
     1
 73
     0
176
     1
 90
        0
176
     1
 40
-0.6
176
     1
 41
-30.0
176
     1
 62
     5
 63
     7
421
 16777215
176
     1
 74
     1
176
     1
 91
        0
176
     1
 64
     7
176
     1
 65
   257
176
     1
 75
     1
176
     1
175
     1
176
     1
 42
1.0
176
     1
 92
        8
176
     1
 66
     8
424
  7895160
176
     1
 43
1.0
176
     1
 76
     1
176
     1
 77
     6
176
     1
 78
     2
176
     1
 67
     7
176
     1
 79
     5
176
     1
170
     0
176
     1
171
     0
176
     1
290
     0
176
     1
 93
       13
176
     1
 44
0.0
176
     1
173
     0
176
     1
  0
VISUALSTYLE
  5
37
102
{ACAD_REACTORS
330
2A
102
}
330
2A
100
AcDbVisualStyle
  2
Thicken
 70
    13
177
     2
291
     1
 71
     2
176
     1
 72
     2
176
     1
 73
     0
176
     1
 90
        0
176
     1
 40
-0.6
176
     1
 41
-30.0
176
     1
 62
     5
 63
     7
421
 16777215
176
     1
 74
     1
176
     1
 91
        4
176
     1
 64
     7
176
     1
 65
   257
176
     1
 75
     1
176
     1
175
     1
176
     1
 42
1.0
176
     1
 92
       12
176
     1
 66
     7
176
     1
 43
1.0
176
     1
 76
     1
176
     1
 77
     6
176
     1
 78
     2
176
     1
 67
     7
176
     1
 79
     5
176
     1
170
     0
176
     1
171
     0
176
     1
290
     0
176
     1
 93
        1
176
     1
 44
0.0
176
     1
173
     0
176
     1
  0
ENDSEC
  0
EOF
