  0
SECTION
  2
HEADER
  9
$ACADVER
  1
AC1024
  9
$ACADMAINTVER
 70
     6
  9
$DWGCODEPAGE
  3
ANSI_932
  9
$INSBASE
 10
0.0
 20
0.0
 30
0.0
  9
$EXTMIN
 10
-6300.0
 20
-4455.0
 30
0.0
  9
$EXTMAX
 10
6300.0
 20
4455.0
 30
0.0
  9
$LIMMIN
 10
-6300.0
 20
-4455.0
  9
$LIMMAX
 10
6300.0
 20
4455.0
  9
$ORTHOMODE
 70
     0
  9
$REGENMODE
 70
     1
  9
$FILLMODE
 70
     1
  9
$QTEXTMODE
 70
     0
  9
$MIRRTEXT
 70
     1
  9
$LTSCALE
 40
30.0
  9
$ATTMODE
 70
     1
  9
$TEXTSIZE
 40
2.5
  9
$TRACEWID
 40
1.0
  9
$TEXTSTYLE
  7
Standard
  9
$CLAYER
  8
0
  9
$CELTYPE
  6
ByLayer
  9
$CECOLOR
 62
   256
  9
$CELTSCALE
 40
1.0
  9
$DISPSILH
 70
     0
  9
$DIMSCALE
 40
1.0
  9
$DIMASZ
 40
2.5
  9
$DIMEXO
 40
0.625
  9
$DIMDLI
 40
3.75
  9
$DIMRND
 40
0.0
  9
$DIMDLE
 40
0.0
  9
$DIMEXE
 40
1.25
  9
$DIMTP
 40
0.0
  9
$DIMTM
 40
0.0
  9
$DIMTXT
 40
2.5
  9
$DIMCEN
 40
2.5
  9
$DIMTSZ
 40
0.0
  9
$DIMTOL
 70
     0
  9
$DIMLIM
 70
     0
  9
$DIMTIH
 70
     0
  9
$DIMTOH
 70
     0
  9
$DIMSE1
 70
     0
  9
$DIMSE2
 70
     0
  9
$DIMTAD
 70
     1
  9
$DIMZIN
 70
     8
  9
$DIMBLK
  1

  9
$DIMASO
 70
     1
  9
$DIMSHO
 70
     1
  9
$DIMPOST
  1

  9
$DIMAPOST
  1

  9
$DIMALT
 70
     0
  9
$DIMALTD
 70
     3
  9
$DIMALTF
 40
0.03937007874016
  9
$DIMLFAC
 40
1.0
  9
$DIMTOFL
 70
     1
  9
$DIMTVP
 40
0.0
  9
$DIMTIX
 70
     0
  9
$DIMSOXD
 70
     0
  9
$DIMSAH
 70
     0
  9
$DIMBLK1
  1

  9
$DIMBLK2
  1

  9
$DIMSTYLE
  2
ISO-25
  9
$DIMCLRD
 70
     0
  9
$DIMCLRE
 70
     0
  9
$DIMCLRT
 70
     0
  9
$DIMTFAC
 40
1.0
  9
$DIMGAP
 40
0.625
  9
$DIMJUST
 70
     0
  9
$DIMSD1
 70
     0
  9
$DIMSD2
 70
     0
  9
$DIMTOLJ
 70
     0
  9
$DIMTZIN
 70
     8
  9
$DIMALTZ
 70
     0
  9
$DIMALTTZ
 70
     0
  9
$DIMUPT
 70
     0
  9
$DIMDEC
 70
     2
  9
$DIMTDEC
 70
     2
  9
$DIMALTU
 70
     2
  9
$DIMALTTD
 70
     3
  9
$DIMTXSTY
  7
Standard
  9
$DIMAUNIT
 70
     0
  9
$DIMADEC
 70
     0
  9
$DIMALTRND
 40
0.0
  9
$DIMAZIN
 70
     0
  9
$DIMDSEP
 70
    44
  9
$DIMATFIT
 70
     3
  9
$DIMFRAC
 70
     0
  9
$DIMLDRBLK
  1

  9
$DIMLUNIT
 70
     2
  9
$DIMLWD
 70
    -2
  9
$DIMLWE
 70
    -2
  9
$DIMTMOVE
 70
     0
  9
$DIMFXL
 40
1.0
  9
$DIMFXLON
 70
     0
  9
$DIMJOGANG
 40
0.7853981633974483
  9
$DIMTFILL
 70
     0
  9
$DIMTFILLCLR
 70
     0
  9
$DIMARCSYM
 70
     0
  9
$DIMLTYPE
  6

  9
$DIMLTEX1
  6

  9
$DIMLTEX2
  6

  9
$DIMTXTDIRECTION
 70
     0
  9
$LUNITS
 70
     2
  9
$LUPREC
 70
     4
  9
$SKETCHINC
 40
1.0
  9
$FILLETRAD
 40
10.0
  9
$AUNITS
 70
     0
  9
$AUPREC
 70
     0
  9
$MENU
  1
.
  9
$ELEVATION
 40
0.0
  9
$PELEVATION
 40
0.0
  9
$THICKNESS
 40
0.0
  9
$LIMCHECK
 70
     0
  9
$CHAMFERA
 40
10.0
  9
$CHAMFERB
 40
10.0
  9
$CHAMFERC
 40
20.0
  9
$CHAMFERD
 40
0.0
  9
$SKPOLY
 70
     0
  9
$TDCREATE
 40
2456763.390789526
  9
$TDUCREATE
 40
2456763.015789526
  9
$TDUPDATE
 40
2456763.390789537
  9
$TDUUPDATE
 40
2456763.015789537
  9
$TDINDWG
 40
0.0000000116
  9
$TDUSRTIMER
 40
0.0000000116
  9
$USRTIMER
 70
     1
  9
$ANGBASE
 50
0.0
  9
$ANGDIR
 70
     0
  9
$PDMODE
 70
     0
  9
$PDSIZE
 40
0.0
  9
$PLINEWID
 40
0.0
  9
$SPLFRAME
 70
     0
  9
$SPLINETYPE
 70
     6
  9
$SPLINESEGS
 70
     8
  9
$HANDSEED
  5
346
  9
$SURFTAB1
 70
     6
  9
$SURFTAB2
 70
     6
  9
$SURFTYPE
 70
     6
  9
$SURFU
 70
     6
  9
$SURFV
 70
     6
  9
$UCSBASE
  2

  9
$UCSNAME
  2

  9
$UCSORG
 10
0.0
 20
0.0
 30
0.0
  9
$UCSXDIR
 10
1.0
 20
0.0
 30
0.0
  9
$UCSYDIR
 10
0.0
 20
1.0
 30
0.0
  9
$UCSORTHOREF
  2

  9
$UCSORTHOVIEW
 70
     0
  9
$UCSORGTOP
 10
0.0
 20
0.0
 30
0.0
  9
$UCSORGBOTTOM
 10
0.0
 20
0.0
 30
0.0
  9
$UCSORGLEFT
 10
0.0
 20
0.0
 30
0.0
  9
$UCSORGRIGHT
 10
0.0
 20
0.0
 30
0.0
  9
$UCSORGFRONT
 10
0.0
 20
0.0
 30
0.0
  9
$UCSORGBACK
 10
0.0
 20
0.0
 30
0.0
  9
$PUCSBASE
  2

  9
$PUCSNAME
  2

  9
$PUCSORG
 10
0.0
 20
0.0
 30
0.0
  9
$PUCSXDIR
 10
1.0
 20
0.0
 30
0.0
  9
$PUCSYDIR
 10
0.0
 20
1.0
 30
0.0
  9
$PUCSORTHOREF
  2

  9
$PUCSORTHOVIEW
 70
     0
  9
$PUCSORGTOP
 10
0.0
 20
0.0
 30
0.0
  9
$PUCSORGBOTTOM
 10
0.0
 20
0.0
 30
0.0
  9
$PUCSORGLEFT
 10
0.0
 20
0.0
 30
0.0
  9
$PUCSORGRIGHT
 10
0.0
 20
0.0
 30
0.0
  9
$PUCSORGFRONT
 10
0.0
 20
0.0
 30
0.0
  9
$PUCSORGBACK
 10
0.0
 20
0.0
 30
0.0
  9
$USERI1
 70
     0
  9
$USERI2
 70
     0
  9
$USERI3
 70
     0
  9
$USERI4
 70
     0
  9
$USERI5
 70
     0
  9
$USERR1
 40
0.0
  9
$USERR2
 40
0.0
  9
$USERR3
 40
0.0
  9
$USERR4
 40
0.0
  9
$USERR5
 40
0.0
  9
$WORLDVIEW
 70
     1
  9
$SHADEDGE
 70
     3
  9
$SHADEDIF
 70
    70
  9
$TILEMODE
 70
     1
  9
$MAXACTVP
 70
    64
  9
$PINSBASE
 10
0.0
 20
0.0
 30
0.0
  9
$PLIMCHECK
 70
     0
  9
$PEXTMIN
 10
1.000000000000000E+20
 20
1.000000000000000E+20
 30
1.000000000000000E+20
  9
$PEXTMAX
 10
-1.000000000000000E+20
 20
-1.000000000000000E+20
 30
-1.000000000000000E+20
  9
$PLIMMIN
 10
0.0
 20
0.0
  9
$PLIMMAX
 10
420.0
 20
297.0
  9
$UNITMODE
 70
     0
  9
$VISRETAIN
 70
     1
  9
$PLINEGEN
 70
     0
  9
$PSLTSCALE
 70
     1
  9
$TREEDEPTH
 70
  3020
  9
$CMLSTYLE
  2
Standard
  9
$CMLJUST
 70
     0
  9
$CMLSCALE
 40
20.0
  9
$PROXYGRAPHICS
 70
     1
  9
$MEASUREMENT
 70
     1
  9
$CELWEIGHT
370
    -1
  9
$ENDCAPS
280
     0
  9
$JOINSTYLE
280
     0
  9
$LWDISPLAY
290
     0
  9
$INSUNITS
 70
     4
  9
$HYPERLINKBASE
  1

  9
$STYLESHEET
  1

  9
$XEDIT
290
     1
  9
$CEPSNTYPE
380
     0
  9
$PSTYLEMODE
290
     1
  9
$FINGERPRINTGUID
  2
{B8799052-B288-423A-A86B-499F60175536}
  9
$VERSIONGUID
  2
{FAEB1C32-E019-11D5-929B-00C0DF256EC4}
  9
$EXTNAMES
290
     1
  9
$PSVPSCALE
 40
0.0
  9
$OLESTARTUP
290
     0
  9
$SORTENTS
280
   127
  9
$INDEXCTL
280
     0
  9
$HIDETEXT
280
     1
  9
$XCLIPFRAME
280
     2
  9
$HALOGAP
280
     0
  9
$OBSCOLOR
 70
   257
  9
$OBSLTYPE
280
     0
  9
$INTERSECTIONDISPLAY
280
     0
  9
$INTERSECTIONCOLOR
 70
   257
  9
$DIMASSOC
280
     2
  9
$PROJECTNAME
  1

  9
$CAMERADISPLAY
290
     0
  9
$LENSLENGTH
 40
50.0
  9
$CAMERAHEIGHT
 40
0.0
  9
$STEPSPERSEC
 40
2.0
  9
$STEPSIZE
 40
6.0
  9
$3DDWFPREC
 40
2.0
  9
$PSOLWIDTH
 40
5.0
  9
$PSOLHEIGHT
 40
80.0
  9
$LOFTANG1
 40
1.570796326794897
  9
$LOFTANG2
 40
1.570796326794897
  9
$LOFTMAG1
 40
0.0
  9
$LOFTMAG2
 40
0.0
  9
$LOFTPARAM
 70
     7
  9
$LOFTNORMALS
280
     1
  9
$LATITUDE
 40
37.795
  9
$LONGITUDE
 40
-122.394
  9
$NORTHDIRECTION
 40
0.0
  9
$TIMEZONE
 70
 -8000
  9
$LIGHTGLYPHDISPLAY
280
     1
  9
$TILEMODELIGHTSYNCH
280
     1
  9
$SOLIDHIST
280
     1
  9
$SHOWHIST
280
     1
  9
$DWFFRAME
280
     2
  9
$DGNFRAME
280
     2
  9
$REALWORLDSCALE
290
     1
  9
$INTERFERECOLOR
 62
   256
  9
$CSHADOW
280
     0
  9
$SHADOWPLANELOCATION
 40
0.0
  0
ENDSEC
  0
SECTION
  2
CLASSES
  0
CLASS
  1
ACDBDICTIONARYWDFLT
  2
AcDbDictionaryWithDefault
  3
ObjectDBX Classes
 90
        0
 91
        4
280
     0
281
     0
  0
CLASS
  1
VISUALSTYLE
  2
AcDbVisualStyle
  3
ObjectDBX Classes
 90
     4095
 91
        4
280
     0
281
     0
  0
CLASS
  1
MATERIAL
  2
AcDbMaterial
  3
ObjectDBX Classes
 90
     1153
 91
        4
280
     0
281
     0
  0
ENDSEC
  0
SECTION
  2
TABLES
  0
TABLE
  2
VPORT
  5
8
330
0
100
AcDbSymbolTable
 70
     1
  0
VPORT
  5
29
330
8
100
AcDbSymbolTableRecord
100
AcDbViewportTableRecord
  2
*Active
 70
     0
 10
0.0
 20
0.0
 11
1.0
 21
1.0
 12
0.0
 22
0.0
 13
0.0
 23
0.0
 14
10.0
 24
10.0
 15
10.0
 25
10.0
 16
0.0
 26
0.0
 36
1.0
 17
0.0
 27
0.0
 37
0.0
 40
9801.0
 41
1.414141414141414
 42
50.0
 43
0.0
 44
0.0
 50
0.0
 51
0.0
 71
     0
 72
 10000
 73
     1
 74
     3
 75
     0
 76
     0
 77
     0
 78
     0
281
     0
 65
     1
110
0.0
120
0.0
130
0.0
111
1.0
121
0.0
131
0.0
112
0.0
122
1.0
132
0.0
 79
     0
146
0.0
 60
     3
 61
     5
292
     1
282
     1
141
0.0
142
0.0
 63
   250
  0
ENDTAB
  0
TABLE
  2
LTYPE
  5
5
330
0
100
AcDbSymbolTable
 70
     3
  0
LTYPE
  5
14
330
5
100
AcDbSymbolTableRecord
100
AcDbLinetypeTableRecord
  2
ByBlock
 70
     0
  3

 72
    65
 73
     0
 40
0.0
  0
LTYPE
  5
15
330
5
100
AcDbSymbolTableRecord
100
AcDbLinetypeTableRecord
  2
ByLayer
 70
     0
  3

 72
    65
 73
     0
 40
0.0
  0
LTYPE
  5
16
330
5
100
AcDbSymbolTableRecord
100
AcDbLinetypeTableRecord
  2
Continuous
 70
     0
  3
Solid line
 72
    65
 73
     0
 40
0.0
  0
LTYPE
  5
41
330
5
100
AcDbSymbolTableRecord
100
AcDbLinetypeTableRecord
  2
JWW_CENTER1
 70
     0
  3
-----  --  ----------  --  -----
 72
    65
 73
     4
 40
3.386666666666667
 49
2.116666666666667
 74
     0
 49
-0.4233333333333333
 74
     0
 49
0.4233333333333333
 74
     0
 49
-0.4233333333333333
 74
     0
  0
LTYPE
  5
42
330
5
100
AcDbSymbolTableRecord
100
AcDbLinetypeTableRecord
  2
JWW_HOJO
 70
     0
  3
  -   -   -   -   -   -   -   - 
 72
    65
 73
     2
 40
1.693333333333333
 49
-1.27
 74
     0
 49
0.4233333333333333
 74
     0
  0
ENDTAB
  0
TABLE
  2
LAYER
  5
2
330
0
100
AcDbSymbolTable
 70
    15
  0
LAYER
  5
10
330
2
100
AcDbSymbolTableRecord
100
AcDbLayerTableRecord
  2
0
 70
     0
 62
     7
  6
Continuous
370
    -3
390
F
347
3E
  0
LAYER
  5
43
330
2
100
AcDbSymbolTableRecord
100
AcDbLayerTableRecord
  2
0-B_寸法
 70
     0
 62
     7
  6
Continuous
370
    -3
390
F
347
3E
  0
LAYER
  5
44
330
2
100
AcDbSymbolTableRecord
100
AcDbLayerTableRecord
  2
0-1_本体
 70
     0
 62
     7
  6
Continuous
370
    -3
390
F
347
3E
  0
LAYER
  5
45
330
2
100
AcDbSymbolTableRecord
100
AcDbLayerTableRecord
  2
0-2_扉
 70
     0
 62
     7
  6
Continuous
370
    -3
390
F
347
3E
  0
LAYER
  5
46
330
2
100
AcDbSymbolTableRecord
100
AcDbLayerTableRecord
  2
0-4_棚
 70
     0
 62
     7
  6
Continuous
370
    -3
390
F
347
3E
  0
LAYER
  5
47
330
2
100
AcDbSymbolTableRecord
100
AcDbLayerTableRecord
  2
0-A_文字
 70
     0
 62
     7
  6
Continuous
370
    -3
390
F
347
3E
  0
LAYER
  5
48
330
2
100
AcDbSymbolTableRecord
100
AcDbLayerTableRecord
  2
1-3_扉仕上
 70
     0
 62
     7
  6
Continuous
370
    -3
390
F
347
3E
  0
LAYER
  5
49
330
2
100
AcDbSymbolTableRecord
100
AcDbLayerTableRecord
  2
0-7__
 70
     0
 62
     7
  6
Continuous
370
    -3
390
F
347
3E
  0
LAYER
  5
4A
330
2
100
AcDbSymbolTableRecord
100
AcDbLayerTableRecord
  2
0-0_補助線
 70
     0
 62
     7
  6
Continuous
370
    -3
390
F
347
3E
  0
LAYER
  5
4B
330
2
100
AcDbSymbolTableRecord
100
AcDbLayerTableRecord
  2
0-6_桟木
 70
     0
 62
     7
  6
Continuous
370
    -3
390
F
347
3E
  0
LAYER
  5
4C
330
2
100
AcDbSymbolTableRecord
100
AcDbLayerTableRecord
  2
F-1_枠
 70
     0
 62
     7
  6
Continuous
370
    -3
390
F
347
3E
  0
LAYER
  5
4D
330
2
100
AcDbSymbolTableRecord
100
AcDbLayerTableRecord
  2
F-0_補助線
 70
     0
 62
     7
  6
Continuous
370
    -3
390
F
347
3E
  0
LAYER
  5
4E
330
2
100
AcDbSymbolTableRecord
100
AcDbLayerTableRecord
  2
F-A_文字
 70
     0
 62
     7
  6
Continuous
370
    -3
390
F
347
3E
  0
LAYER
  5
4F
330
2
100
AcDbSymbolTableRecord
100
AcDbLayerTableRecord
  2
0-5_ダボ
 70
     0
 62
     7
  6
Continuous
370
    -3
390
F
347
3E
  0
LAYER
  5
50
330
2
100
AcDbSymbolTableRecord
100
AcDbLayerTableRecord
  2
1-2_扉
 70
     0
 62
     7
  6
Continuous
370
    -3
390
F
347
3E
  0
ENDTAB
  0
TABLE
  2
STYLE
  5
3
330
0
100
AcDbSymbolTable
 70
     3
  0
STYLE
  5
11
330
3
100
AcDbSymbolTableRecord
100
AcDbTextStyleTableRecord
  2
Standard
 70
     0
 40
0.0
 41
1.0
 50
0.0
 71
     0
 42
2.5
  3
txt
  4

  0
STYLE
  5
3F
330
3
100
AcDbSymbolTableRecord
100
AcDbTextStyleTableRecord
  2
ＭＳ ゴシック
 70
     0
 40
1.0
 41
1.0
 50
0.0
 71
     0
 42
10.0
  3

  4

1001
ACAD
1000
MS Gothic
1071
    32817
  0
STYLE
  5
40
330
3
100
AcDbSymbolTableRecord
100
AcDbTextStyleTableRecord
  2
HG明朝B
 70
     0
 40
1.0
 41
1.0
 50
0.0
 71
     0
 42
10.0
  3

  4

1001
ACAD
1000
HGMinchoB
1071
    32785
  0
ENDTAB
  0
TABLE
  2
VIEW
  5
6
330
0
100
AcDbSymbolTable
 70
     0
  0
ENDTAB
  0
TABLE
  2
UCS
  5
7
330
0
100
AcDbSymbolTable
 70
     0
  0
ENDTAB
  0
TABLE
  2
APPID
  5
9
330
0
100
AcDbSymbolTable
 70
     1
  0
APPID
  5
12
330
9
100
AcDbSymbolTableRecord
100
AcDbRegAppTableRecord
  2
ACAD
 70
     0
  0
ENDTAB
  0
TABLE
  2
DIMSTYLE
  5
A
330
0
100
AcDbSymbolTable
 70
     1
100
AcDbDimStyleTable
  0
DIMSTYLE
105
27
330
A
100
AcDbSymbolTableRecord
100
AcDbDimStyleTableRecord
  2
ISO-25
 70
     0
 41
2.5
 42
0.625
 43
3.75
 44
1.25
 73
     0
 74
     0
 77
     1
 78
     8
140
2.5
141
2.5
143
0.03937007874016
147
0.625
171
     3
172
     1
178
     0
271
     2
272
     2
274
     3
278
    44
283
     0
284
     8
340
11
  0
ENDTAB
  0
TABLE
  2
BLOCK_RECORD
  5
1
330
0
100
AcDbSymbolTable
 70
     1
  0
BLOCK_RECORD
  5
1F
330
1
100
AcDbSymbolTableRecord
100
AcDbBlockTableRecord
  2
*Model_Space
340
22
 70
     0
280
     1
281
     0
  0
BLOCK_RECORD
  5
1B
330
1
100
AcDbSymbolTableRecord
100
AcDbBlockTableRecord
  2
*Paper_Space
340
1E
 70
     0
280
     1
281
     0
  0
BLOCK_RECORD
  5
23
330
1
100
AcDbSymbolTableRecord
100
AcDbBlockTableRecord
  2
*Paper_Space0
340
26
 70
     0
280
     1
281
     0
  0
ENDTAB
  0
ENDSEC
  0
SECTION
  2
BLOCKS
  0
BLOCK
  5
20
330
1F
100
AcDbEntity
  8
0
100
AcDbBlockBegin
  2
*Model_Space
 70
     0
 10
0.0
 20
0.0
 30
0.0
  3
*Model_Space
  1

  0
ENDBLK
  5
21
330
1F
100
AcDbEntity
  8
0
100
AcDbBlockEnd
  0
BLOCK
  5
1C
330
1B
100
AcDbEntity
 67
     1
  8
0
100
AcDbBlockBegin
  2
*Paper_Space
 70
     0
 10
0.0
 20
0.0
 30
0.0
  3
*Paper_Space
  1

  0
ENDBLK
  5
1D
330
1B
100
AcDbEntity
 67
     1
  8
0
100
AcDbBlockEnd
  0
BLOCK
  5
24
330
23
100
AcDbEntity
  8
0
100
AcDbBlockBegin
  2
*Paper_Space0
 70
     0
 10
0.0
 20
0.0
 30
0.0
  3
*Paper_Space0
  1

  0
ENDBLK
  5
25
330
23
100
AcDbEntity
  8
0
100
AcDbBlockEnd
  0
ENDSEC
  0
SECTION
  2
ENTITIES
  0
TEXT
  5
51
330
1F
100
AcDbEntity
  8
0-B_寸法
  6
Continuous
 62
     7
370
   211
100
AcDbText
 10
5200.106476778798
 20
-1023.568952136872
 30
0.0
 40
68.58
  1
100
 50
90.0
 41
1.111111111111111
  7
ＭＳ ゴシック
100
AcDbText
  0
TEXT
  5
52
330
1F
100
AcDbEntity
  8
0-B_寸法
  6
Continuous
 62
     7
370
   211
100
AcDbText
 10
5320.106476778798
 20
-133.4747158887892
 30
0.0
 40
68.58
  1
15.5
 50
90.0
 41
1.125
  7
ＭＳ ゴシック
100
AcDbText
  0
TEXT
  5
53
330
1F
100
AcDbEntity
  8
0-B_寸法
  6
Continuous
 62
     7
370
   211
100
AcDbText
 10
5320.106476778798
 20
-956.2247158887895
 30
0.0
 40
68.58
  1
15.5
 50
90.0
 41
1.125
  7
ＭＳ ゴシック
100
AcDbText
  0
LINE
  5
54
330
1F
100
AcDbEntity
  8
0-B_寸法
  6
Continuous
 62
   120
370
     5
100
AcDbLine
 10
5227.796476778797
 20
-1016.29396403166
 30
0.0
 11
5077.796476778797
 21
-1016.29396403166
 31
0.0
  0
LWPOLYLINE
  5
55
330
1F
100
AcDbEntity
  8
0-B_寸法
  6
Continuous
 62
     7
370
     9
100
AcDbPolyline
 90
        4
 70
     1
 43
3.0
 10
5229.296476778797
 20
-1016.29396403166
 42
0.4142135623731
 10
5227.796476778797
 20
-1014.79396403166
 42
0.4142135623731
 10
5226.296476778796
 20
-1016.29396403166
 42
0.4142135623731
 10
5227.796476778797
 20
-1017.79396403166
 42
0.4142135623731
  0
LINE
  5
56
330
1F
100
AcDbEntity
  8
0-B_寸法
  6
Continuous
 62
   120
370
     5
100
AcDbLine
 10
5227.796476778797
 20
-866.2939640316599
 30
0.0
 11
5227.796476778797
 21
-1016.29396403166
 31
0.0
  0
LINE
  5
57
330
1F
100
AcDbEntity
  8
0-B_寸法
  6
Continuous
 62
   120
370
     5
100
AcDbLine
 10
5227.796476778797
 20
-866.2939640316599
 30
0.0
 11
5077.796476778797
 21
-866.2939640316599
 31
0.0
  0
LWPOLYLINE
  5
58
330
1F
100
AcDbEntity
  8
0-B_寸法
  6
Continuous
 62
     7
370
     9
100
AcDbPolyline
 90
        4
 70
     1
 43
3.0
 10
5229.296476778797
 20
-866.2939640316599
 42
0.4142135623731
 10
5227.796476778797
 20
-864.7939640316599
 42
0.4142135623731
 10
5226.296476778796
 20
-866.2939640316599
 42
0.4142135623731
 10
5227.796476778797
 20
-867.79396403166
 42
0.4142135623731
  0
LINE
  5
59
330
1F
100
AcDbEntity
  8
0-B_寸法
  6
Continuous
 62
   120
370
     5
100
AcDbLine
 10
5227.796476778797
 20
-843.0439640316606
 30
0.0
 11
5227.796476778797
 21
-866.2939640316599
 31
0.0
  0
TEXT
  5
5A
330
1F
100
AcDbEntity
  8
0-B_寸法
  6
Continuous
 62
     7
370
   211
100
AcDbText
 10
5200.106476778798
 20
-518.2939640316602
 30
0.0
 40
68.58
  1
533
 50
90.0
 41
1.111111111111111
  7
ＭＳ ゴシック
100
AcDbText
  0
LINE
  5
5B
330
1F
100
AcDbEntity
  8
0-B_寸法
  6
Continuous
 62
   120
370
     5
100
AcDbLine
 10
5227.796476778797
 20
-843.0439640316606
 30
0.0
 11
5077.796476778797
 21
-843.0439640316606
 31
0.0
  0
LWPOLYLINE
  5
5C
330
1F
100
AcDbEntity
  8
0-B_寸法
  6
Continuous
 62
     7
370
     9
100
AcDbPolyline
 90
        4
 70
     1
 43
3.0
 10
5229.296476778797
 20
-843.0439640316606
 42
0.4142135623731
 10
5227.796476778797
 20
-841.5439640316606
 42
0.4142135623731
 10
5226.296476778796
 20
-843.0439640316606
 42
0.4142135623731
 10
5227.796476778797
 20
-844.5439640316607
 42
0.4142135623731
  0
LINE
  5
5D
330
1F
100
AcDbEntity
  8
0-B_寸法
  6
Continuous
 62
   120
370
     5
100
AcDbLine
 10
5227.796476778797
 20
-43.54396403165964
 30
0.0
 11
5227.796476778797
 21
-843.0439640316606
 31
0.0
  0
LINE
  5
5E
330
1F
100
AcDbEntity
  8
0-B_寸法
  6
Continuous
 62
   120
370
     5
100
AcDbLine
 10
5227.796476778797
 20
-43.54396403165964
 30
0.0
 11
5077.796476778797
 21
-43.54396403165964
 31
0.0
  0
LINE
  5
5F
330
1F
100
AcDbEntity
  8
0-B_寸法
  6
Continuous
 62
   120
370
     5
100
AcDbLine
 10
5227.796476778797
 20
-20.29396403166032
 30
0.0
 11
5077.796476778797
 21
-20.29396403166032
 31
0.0
  0
LWPOLYLINE
  5
60
330
1F
100
AcDbEntity
  8
0-B_寸法
  6
Continuous
 62
     7
370
     9
100
AcDbPolyline
 90
        4
 70
     1
 43
3.0
 10
5229.296476778797
 20
-43.54396403165964
 42
0.4142135623731
 10
5227.796476778797
 20
-42.04396403165964
 42
0.4142135623731
 10
5226.296476778796
 20
-43.54396403165964
 42
0.4142135623731
 10
5227.796476778797
 20
-45.04396403165964
 42
0.4142135623731
  0
LWPOLYLINE
  5
61
330
1F
100
AcDbEntity
  8
0-B_寸法
  6
Continuous
 62
     7
370
     9
100
AcDbPolyline
 90
        4
 70
     1
 43
3.0
 10
5229.296476778797
 20
-20.29396403166032
 42
0.4142135623731
 10
5227.796476778797
 20
-18.79396403166032
 42
0.4142135623731
 10
5226.296476778796
 20
-20.29396403166032
 42
0.4142135623731
 10
5227.796476778797
 20
-21.79396403166032
 42
0.4142135623731
  0
LINE
  5
62
330
1F
100
AcDbEntity
  8
0-B_寸法
  6
Continuous
 62
   120
370
     5
100
AcDbLine
 10
5227.796476778797
 20
-20.29396403166032
 30
0.0
 11
5227.796476778797
 21
-43.54396403165964
 31
0.0
  0
LINE
  5
63
330
1F
100
AcDbEntity
  8
0-1_本体
  6
Continuous
 62
    92
370
    13
100
AcDbLine
 10
-5152.79672421862
 20
-20.29396403165947
 30
0.0
 11
-3892.796703009492
 21
-20.29396403165947
 31
0.0
  0
LINE
  5
64
330
1F
100
AcDbEntity
  8
0-1_本体
  6
Continuous
 62
    92
370
    13
100
AcDbLine
 10
-5152.79672421862
 20
-1016.29396403166
 30
0.0
 11
-5152.79672421862
 21
-20.29396403165947
 31
0.0
  0
LINE
  5
65
330
1F
100
AcDbEntity
  8
0-1_本体
  6
Continuous
 62
    92
370
    13
100
AcDbLine
 10
-3892.796703009492
 20
-20.29396403165947
 30
0.0
 11
-3892.796703009492
 21
-1016.29396403166
 31
0.0
  0
LINE
  5
66
330
1F
100
AcDbEntity
  8
0-1_本体
  6
Continuous
 62
    92
370
    13
100
AcDbLine
 10
-3892.796703009492
 20
-1016.29396403166
 30
0.0
 11
-5152.79672421862
 21
-1016.29396403166
 31
0.0
  0
LINE
  5
67
330
1F
100
AcDbEntity
  8
0-2_扉
  6
Continuous
 62
    92
370
    13
100
AcDbLine
 10
-3895.797303581289
 20
-24.79396403165964
 30
0.0
 11
-3895.797303581289
 21
-866.2932859581753
 31
0.0
  0
LINE
  5
68
330
1F
100
AcDbEntity
  8
0-2_扉
  6
Continuous
 62
    92
370
    13
100
AcDbLine
 10
-5149.796724218622
 20
-866.2932859581753
 30
0.0
 11
-5149.796724218622
 21
-24.79396403165964
 31
0.0
  0
LINE
  5
69
330
1F
100
AcDbEntity
  8
0-2_扉
  6
JWW_CENTER1
 62
   120
370
     5
100
AcDbLine
 10
-4525.797013899958
 20
-24.79396403165964
 30
0.0
 11
-5149.796724218622
 21
-445.5436249949179
 31
0.0
  0
LINE
  5
6A
330
1F
100
AcDbEntity
  8
0-2_扉
  6
JWW_CENTER1
 62
   120
370
     5
100
AcDbLine
 10
-5149.796724218622
 20
-445.5436249949179
 30
0.0
 11
-4525.797013899958
 21
-866.2932859581753
 31
0.0
  0
LINE
  5
6B
330
1F
100
AcDbEntity
  8
0-2_扉
  6
Continuous
 62
    92
370
    13
100
AcDbLine
 10
-4525.797013899958
 20
-866.2932859581753
 30
0.0
 11
-4525.797013899958
 21
-24.79396403165964
 31
0.0
  0
LINE
  5
6C
330
1F
100
AcDbEntity
  8
0-2_扉
  6
Continuous
 62
    92
370
    13
100
AcDbLine
 10
-5149.796724218622
 20
-866.2932859581753
 30
0.0
 11
-4525.797013899958
 21
-866.2932859581753
 31
0.0
  0
LINE
  5
6D
330
1F
100
AcDbEntity
  8
0-2_扉
  6
Continuous
 62
    92
370
    13
100
AcDbLine
 10
-5149.796724218622
 20
-24.79396403165964
 30
0.0
 11
-4525.797013899958
 21
-24.79396403165964
 31
0.0
  0
LINE
  5
6E
330
1F
100
AcDbEntity
  8
0-2_扉
  6
JWW_CENTER1
 62
   120
370
     5
100
AcDbLine
 10
-4519.797013899955
 20
-24.79396403165964
 30
0.0
 11
-3895.797303581289
 21
-445.5436249949179
 31
0.0
  0
LINE
  5
6F
330
1F
100
AcDbEntity
  8
0-2_扉
  6
JWW_CENTER1
 62
   120
370
     5
100
AcDbLine
 10
-3895.797303581289
 20
-445.5436249949179
 30
0.0
 11
-4519.797013899955
 21
-866.2932859581753
 31
0.0
  0
LINE
  5
70
330
1F
100
AcDbEntity
  8
0-2_扉
  6
Continuous
 62
    92
370
    13
100
AcDbLine
 10
-4519.797013899955
 20
-866.2932859581753
 30
0.0
 11
-3895.797303581289
 21
-866.2932859581753
 31
0.0
  0
LINE
  5
71
330
1F
100
AcDbEntity
  8
0-2_扉
  6
Continuous
 62
    92
370
    13
100
AcDbLine
 10
-4519.797013899955
 20
-866.2932859581753
 30
0.0
 11
-4519.797013899955
 21
-24.79396403165964
 31
0.0
  0
LINE
  5
72
330
1F
100
AcDbEntity
  8
0-2_扉
  6
Continuous
 62
    92
370
    13
100
AcDbLine
 10
-4519.797013899955
 20
-24.79396403165964
 30
0.0
 11
-3895.797303581289
 21
-24.79396403165964
 31
0.0
  0
LINE
  5
73
330
1F
100
AcDbEntity
  8
0-1_本体
  6
Continuous
 62
    92
370
    13
100
AcDbLine
 10
-5129.546724218621
 20
-1016.29396403166
 30
0.0
 11
-5129.546724218621
 21
-866.2939640316596
 31
0.0
  0
LINE
  5
74
330
1F
100
AcDbEntity
  8
0-1_本体
  6
Continuous
 62
    92
370
    13
100
AcDbLine
 10
-3916.046703009491
 20
-866.2932859581753
 30
0.0
 11
-3916.046703009491
 21
-1016.29396403166
 31
0.0
  0
LINE
  5
75
330
1F
100
AcDbEntity
  8
0-B_寸法
  6
Continuous
 62
   120
370
     5
100
AcDbLine
 10
-3667.796703009492
 20
-20.29396403165947
 30
0.0
 11
-3817.796703009492
 21
-20.29396403165947
 31
0.0
  0
LINE
  5
76
330
1F
100
AcDbEntity
  8
0-B_寸法
  6
Continuous
 62
   120
370
     5
100
AcDbLine
 10
-3667.796703009492
 20
-24.79396403165964
 30
0.0
 11
-3817.796703009492
 21
-24.79396403165964
 31
0.0
  0
LINE
  5
77
330
1F
100
AcDbEntity
  8
0-B_寸法
  6
Continuous
 62
   120
370
     5
100
AcDbLine
 10
-3667.796703009492
 20
-866.2932859581753
 30
0.0
 11
-3817.796703009492
 21
-866.2932859581753
 31
0.0
  0
LINE
  5
78
330
1F
100
AcDbEntity
  8
0-B_寸法
  6
Continuous
 62
   120
370
     5
100
AcDbLine
 10
-3667.796703009492
 20
-1016.29396403166
 30
0.0
 11
-3817.796703009492
 21
-1016.29396403166
 31
0.0
  0
LINE
  5
79
330
1F
100
AcDbEntity
  8
0-B_寸法
  6
Continuous
 62
   120
370
     5
100
AcDbLine
 10
-3667.796703009492
 20
-20.29396403165947
 30
0.0
 11
-3667.796703009492
 21
-24.79396403165964
 31
0.0
  0
LWPOLYLINE
  5
7A
330
1F
100
AcDbEntity
  8
0-B_寸法
  6
Continuous
 62
     7
370
     9
100
AcDbPolyline
 90
        4
 70
     1
 43
3.0
 10
-3666.296703009492
 20
-20.29396403165947
 42
0.4142135623731
 10
-3667.796703009492
 20
-18.79396403165947
 42
0.4142135623731
 10
-3669.296703009492
 20
-20.29396403165947
 42
0.4142135623731
 10
-3667.796703009492
 20
-21.79396403165947
 42
0.4142135623731
  0
LWPOLYLINE
  5
7B
330
1F
100
AcDbEntity
  8
0-B_寸法
  6
Continuous
 62
     7
370
     9
100
AcDbPolyline
 90
        4
 70
     1
 43
3.0
 10
-3666.296703009492
 20
-24.79396403165964
 42
0.4142135623731
 10
-3667.796703009492
 20
-23.29396403165964
 42
0.4142135623731
 10
-3669.296703009492
 20
-24.79396403165964
 42
0.4142135623731
 10
-3667.796703009492
 20
-26.29396403165964
 42
0.4142135623731
  0
LINE
  5
7C
330
1F
100
AcDbEntity
  8
0-B_寸法
  6
Continuous
 62
   120
370
     5
100
AcDbLine
 10
-3667.796703009492
 20
-24.79396403165964
 30
0.0
 11
-3667.796703009492
 21
-866.2932859581753
 31
0.0
  0
LWPOLYLINE
  5
7D
330
1F
100
AcDbEntity
  8
0-B_寸法
  6
Continuous
 62
     7
370
     9
100
AcDbPolyline
 90
        4
 70
     1
 43
3.0
 10
-3666.296703009492
 20
-866.2932859581753
 42
0.4142135623731
 10
-3667.796703009492
 20
-864.7932859581753
 42
0.4142135623731
 10
-3669.296703009492
 20
-866.2932859581753
 42
0.4142135623731
 10
-3667.796703009492
 20
-867.7932859581753
 42
0.4142135623731
  0
LINE
  5
7E
330
1F
100
AcDbEntity
  8
0-B_寸法
  6
Continuous
 62
   120
370
     5
100
AcDbLine
 10
-3667.796703009492
 20
-866.2932859581753
 30
0.0
 11
-3667.796703009492
 21
-1016.29396403166
 31
0.0
  0
LWPOLYLINE
  5
7F
330
1F
100
AcDbEntity
  8
0-B_寸法
  6
Continuous
 62
     7
370
     9
100
AcDbPolyline
 90
        4
 70
     1
 43
3.0
 10
-3666.296703009492
 20
-1016.29396403166
 42
0.4142135623731
 10
-3667.796703009492
 20
-1014.79396403166
 42
0.4142135623731
 10
-3669.296703009492
 20
-1016.29396403166
 42
0.4142135623731
 10
-3667.796703009492
 20
-1017.793964031659
 42
0.4142135623731
  0
TEXT
  5
80
330
1F
100
AcDbEntity
  8
0-B_寸法
  6
Continuous
 62
     7
370
   211
100
AcDbText
 10
-3695.486703009492
 20
-1016.293624994918
 30
0.0
 40
68.58
  1
100
 50
90.0
 41
1.111111111111111
  7
ＭＳ ゴシック
100
AcDbText
  0
LINE
  5
81
330
1F
100
AcDbEntity
  8
0-B_寸法
  6
Continuous
 62
   120
370
     5
100
AcDbLine
 10
-5152.79672421862
 20
-1241.293964031659
 30
0.0
 11
-5129.546724218621
 21
-1241.293964031659
 31
0.0
  0
LWPOLYLINE
  5
82
330
1F
100
AcDbEntity
  8
0-B_寸法
  6
Continuous
 62
     7
370
     9
100
AcDbPolyline
 90
        4
 70
     1
 43
3.0
 10
-5151.29672421862
 20
-1241.293964031659
 42
0.4142135623731
 10
-5152.79672421862
 20
-1239.79396403166
 42
0.4142135623731
 10
-5154.29672421862
 20
-1241.293964031659
 42
0.4142135623731
 10
-5152.79672421862
 20
-1242.793964031659
 42
0.4142135623731
  0
LWPOLYLINE
  5
83
330
1F
100
AcDbEntity
  8
0-B_寸法
  6
Continuous
 62
     7
370
     9
100
AcDbPolyline
 90
        4
 70
     1
 43
3.0
 10
-5128.04672421862
 20
-1241.293964031659
 42
0.4142135623731
 10
-5129.546724218621
 20
-1239.79396403166
 42
0.4142135623731
 10
-5131.046724218621
 20
-1241.293964031659
 42
0.4142135623731
 10
-5129.546724218621
 20
-1242.793964031659
 42
0.4142135623731
  0
LINE
  5
84
330
1F
100
AcDbEntity
  8
0-B_寸法
  6
Continuous
 62
   120
370
     5
100
AcDbLine
 10
-5152.79672421862
 20
-1391.293964031659
 30
0.0
 11
-5152.79672421862
 21
-1091.293964031659
 31
0.0
  0
LINE
  5
85
330
1F
100
AcDbEntity
  8
0-B_寸法
  6
Continuous
 62
   120
370
     5
100
AcDbLine
 10
-5129.546724218621
 20
-1241.293964031659
 30
0.0
 11
-5129.546724218621
 21
-1091.293964031659
 31
0.0
  0
LINE
  5
86
330
1F
100
AcDbEntity
  8
0-B_寸法
  6
Continuous
 62
   120
370
     5
100
AcDbLine
 10
-5129.546724218621
 20
-1241.293964031659
 30
0.0
 11
-3916.047454342838
 21
-1241.293964031659
 31
0.0
  0
LWPOLYLINE
  5
87
330
1F
100
AcDbEntity
  8
0-B_寸法
  6
Continuous
 62
     7
370
     9
100
AcDbPolyline
 90
        4
 70
     1
 43
3.0
 10
-3914.547454342838
 20
-1241.293964031659
 42
0.4142135623731
 10
-3916.047454342838
 20
-1239.79396403166
 42
0.4142135623731
 10
-3917.547454342839
 20
-1241.293964031659
 42
0.4142135623731
 10
-3916.047454342838
 20
-1242.793964031659
 42
0.4142135623731
  0
LINE
  5
88
330
1F
100
AcDbEntity
  8
0-B_寸法
  6
Continuous
 62
   120
370
     5
100
AcDbLine
 10
-3916.047454342838
 20
-1241.293964031659
 30
0.0
 11
-3916.047454342838
 21
-1091.293964031659
 31
0.0
  0
LINE
  5
89
330
1F
100
AcDbEntity
  8
0-B_寸法
  6
Continuous
 62
   120
370
     5
100
AcDbLine
 10
-3916.047454342838
 20
-1241.293964031659
 30
0.0
 11
-3892.797454342839
 21
-1241.293964031659
 31
0.0
  0
LWPOLYLINE
  5
8A
330
1F
100
AcDbEntity
  8
0-B_寸法
  6
Continuous
 62
     7
370
     9
100
AcDbPolyline
 90
        4
 70
     1
 43
3.0
 10
-3891.297454342839
 20
-1241.293964031659
 42
0.4142135623731
 10
-3892.797454342839
 20
-1239.79396403166
 42
0.4142135623731
 10
-3894.297454342839
 20
-1241.293964031659
 42
0.4142135623731
 10
-3892.797454342839
 20
-1242.793964031659
 42
0.4142135623731
  0
LINE
  5
8B
330
1F
100
AcDbEntity
  8
0-B_寸法
  6
Continuous
 62
   120
370
     5
100
AcDbLine
 10
-3892.797454342839
 20
-1391.293964031659
 30
0.0
 11
-3892.797454342839
 21
-1091.293964031659
 31
0.0
  0
LINE
  5
8C
330
1F
100
AcDbEntity
  8
0-B_寸法
  6
Continuous
 62
   120
370
     5
100
AcDbLine
 10
-5152.79672421862
 20
-1391.293964031659
 30
0.0
 11
-3892.797454342839
 21
-1391.293964031659
 31
0.0
  0
LWPOLYLINE
  5
8D
330
1F
100
AcDbEntity
  8
0-B_寸法
  6
Continuous
 62
     7
370
     9
100
AcDbPolyline
 90
        4
 70
     1
 43
3.0
 10
-5151.29672421862
 20
-1391.293964031659
 42
0.4142135623731
 10
-5152.79672421862
 20
-1389.79396403166
 42
0.4142135623731
 10
-5154.29672421862
 20
-1391.293964031659
 42
0.4142135623731
 10
-5152.79672421862
 20
-1392.793964031659
 42
0.4142135623731
  0
LWPOLYLINE
  5
8E
330
1F
100
AcDbEntity
  8
0-B_寸法
  6
Continuous
 62
     7
370
     9
100
AcDbPolyline
 90
        4
 70
     1
 43
3.0
 10
-3891.297454342839
 20
-1391.293964031659
 42
0.4142135623731
 10
-3892.797454342839
 20
-1389.79396403166
 42
0.4142135623731
 10
-3894.297454342839
 20
-1391.293964031659
 42
0.4142135623731
 10
-3892.797454342839
 20
-1392.793964031659
 42
0.4142135623731
  0
TEXT
  5
8F
330
1F
100
AcDbEntity
  8
0-B_寸法
  6
Continuous
 62
     7
370
   211
100
AcDbText
 10
-4121.547454342839
 20
-1213.603964031659
 30
0.0
 40
68.58
  1
15.5
 41
1.125
  7
ＭＳ ゴシック
100
AcDbText
  0
TEXT
  5
90
330
1F
100
AcDbEntity
  8
0-B_寸法
  6
Continuous
 62
     7
370
   211
100
AcDbText
 10
-5126.54672421862
 20
-1213.603964031659
 30
0.0
 40
68.58
  1
15.5
 41
1.125
  7
ＭＳ ゴシック
100
AcDbText
  0
TEXT
  5
91
330
1F
100
AcDbEntity
  8
0-B_寸法
  6
Continuous
 62
     7
370
   211
100
AcDbText
 10
-4597.797089280733
 20
-1213.603964031659
 30
0.0
 40
68.58
  1
809
 41
1.111111111111111
  7
ＭＳ ゴシック
100
AcDbText
  0
TEXT
  5
92
330
1F
100
AcDbEntity
  8
0-B_寸法
  6
Continuous
 62
     7
370
   211
100
AcDbText
 10
-4597.797089280733
 20
-1363.603964031659
 30
0.0
 40
68.58
  1
840
 41
1.111111111111111
  7
ＭＳ ゴシック
100
AcDbText
  0
TEXT
  5
93
330
1F
100
AcDbEntity
  8
0-B_寸法
  6
Continuous
 62
     7
370
   211
100
AcDbText
 10
-3695.486703009492
 20
-678.0436249949179
 30
0.0
 40
68.58
  1
ＤＨ＝561
 50
90.0
 41
1.148148148148148
  7
ＭＳ ゴシック
100
AcDbText
  0
TEXT
  5
94
330
1F
100
AcDbEntity
  8
0-B_寸法
  6
Continuous
 62
     7
370
   211
100
AcDbText
 10
-3695.486703009492
 20
-5.015856360370775
 30
0.0
 40
68.58
  1
3
 50
90.0
  7
ＭＳ ゴシック
100
AcDbText
  0
LINE
  5
95
330
1F
100
AcDbEntity
  8
0-1_本体
  6
Continuous
 62
    92
370
    13
100
AcDbLine
 10
-961.2039843429843
 20
-20.29396403165947
 30
0.0
 11
298.7960368661425
 21
-20.29396403165947
 31
0.0
  0
LINE
  5
96
330
1F
100
AcDbEntity
  8
0-1_本体
  6
Continuous
 62
    92
370
    13
100
AcDbLine
 10
-961.2039843429843
 20
-1016.29396403166
 30
0.0
 11
-961.2039843429843
 21
-20.29396403165947
 31
0.0
  0
LINE
  5
97
330
1F
100
AcDbEntity
  8
0-1_本体
  6
Continuous
 62
    92
370
    13
100
AcDbLine
 10
298.7960368661425
 20
-20.29396403165947
 30
0.0
 11
298.7960368661425
 21
-1016.29396403166
 31
0.0
  0
LINE
  5
98
330
1F
100
AcDbEntity
  8
0-1_本体
  6
Continuous
 62
    92
370
    13
100
AcDbLine
 10
298.7960368661425
 20
-1016.29396403166
 30
0.0
 11
-961.2039843429843
 21
-1016.29396403166
 31
0.0
  0
LWPOLYLINE
  5
99
330
1F
100
AcDbEntity
  8
0-B_寸法
  6
Continuous
 62
     7
370
     9
100
AcDbPolyline
 90
        4
 70
     1
 43
3.0
 10
-959.7039843429843
 20
-1241.293964031659
 42
0.4142135623731
 10
-961.2039843429843
 20
-1239.79396403166
 42
0.4142135623731
 10
-962.7039843429843
 20
-1241.293964031659
 42
0.4142135623731
 10
-961.2039843429843
 20
-1242.793964031659
 42
0.4142135623731
  0
LINE
  5
9A
330
1F
100
AcDbEntity
  8
0-B_寸法
  6
Continuous
 62
   120
370
     5
100
AcDbLine
 10
-961.2039843429843
 20
-1391.293964031659
 30
0.0
 11
-961.2039843429843
 21
-1091.293964031659
 31
0.0
  0
LWPOLYLINE
  5
9B
330
1F
100
AcDbEntity
  8
0-B_寸法
  6
Continuous
 62
     7
370
     9
100
AcDbPolyline
 90
        4
 70
     1
 43
3.0
 10
300.2952855327956
 20
-1241.293964031659
 42
0.4142135623731
 10
298.7952855327956
 20
-1239.79396403166
 42
0.4142135623731
 10
297.2952855327956
 20
-1241.293964031659
 42
0.4142135623731
 10
298.7952855327956
 20
-1242.793964031659
 42
0.4142135623731
  0
LINE
  5
9C
330
1F
100
AcDbEntity
  8
0-B_寸法
  6
Continuous
 62
   120
370
     5
100
AcDbLine
 10
298.7952855327956
 20
-1241.293964031659
 30
0.0
 11
298.7952855327956
 21
-1091.293964031659
 31
0.0
  0
LINE
  5
9D
330
1F
100
AcDbEntity
  8
0-B_寸法
  6
Continuous
 62
   120
370
     5
100
AcDbLine
 10
-961.2039843429843
 20
-1391.293964031659
 30
0.0
 11
298.7952855327956
 21
-1391.293964031659
 31
0.0
  0
LWPOLYLINE
  5
9E
330
1F
100
AcDbEntity
  8
0-B_寸法
  6
Continuous
 62
     7
370
     9
100
AcDbPolyline
 90
        4
 70
     1
 43
3.0
 10
-959.7039843429843
 20
-1391.293964031659
 42
0.4142135623731
 10
-961.2039843429843
 20
-1389.79396403166
 42
0.4142135623731
 10
-962.7039843429843
 20
-1391.293964031659
 42
0.4142135623731
 10
-961.2039843429843
 20
-1392.793964031659
 42
0.4142135623731
  0
LWPOLYLINE
  5
9F
330
1F
100
AcDbEntity
  8
0-B_寸法
  6
Continuous
 62
     7
370
     9
100
AcDbPolyline
 90
        4
 70
     1
 43
3.0
 10
300.2952855327956
 20
-1391.293964031659
 42
0.4142135623731
 10
298.7952855327956
 20
-1389.79396403166
 42
0.4142135623731
 10
297.2952855327956
 20
-1391.293964031659
 42
0.4142135623731
 10
298.7952855327956
 20
-1392.793964031659
 42
0.4142135623731
  0
LINE
  5
A0
330
1F
100
AcDbEntity
  8
0-B_寸法
  6
Continuous
 62
   120
370
     5
100
AcDbLine
 10
298.7952855327956
 20
-1391.293964031659
 30
0.0
 11
298.7952855327956
 21
-1241.293964031659
 31
0.0
  0
LINE
  5
A1
330
1F
100
AcDbEntity
  8
0-1_本体
  6
Continuous
 62
    92
370
    13
100
AcDbLine
 10
-937.9539843429859
 20
-1016.29396403166
 30
0.0
 11
-937.9539843429859
 21
-20.29396403165947
 31
0.0
  0
LINE
  5
A2
330
1F
100
AcDbEntity
  8
0-B_寸法
  6
Continuous
 62
   120
370
     5
100
AcDbLine
 10
-961.2039843429843
 20
-1241.293964031659
 30
0.0
 11
-937.9539843429859
 21
-1241.293964031659
 31
0.0
  0
LWPOLYLINE
  5
A3
330
1F
100
AcDbEntity
  8
0-B_寸法
  6
Continuous
 62
     7
370
     9
100
AcDbPolyline
 90
        4
 70
     1
 43
3.0
 10
-936.4539843429859
 20
-1241.293964031659
 42
0.4142135623731
 10
-937.9539843429859
 20
-1239.79396403166
 42
0.4142135623731
 10
-939.4539843429859
 20
-1241.293964031659
 42
0.4142135623731
 10
-937.9539843429859
 20
-1242.793964031659
 42
0.4142135623731
  0
LINE
  5
A4
330
1F
100
AcDbEntity
  8
0-B_寸法
  6
Continuous
 62
   120
370
     5
100
AcDbLine
 10
-937.9539843429859
 20
-1241.293964031659
 30
0.0
 11
-937.9539843429859
 21
-1091.293964031659
 31
0.0
  0
LINE
  5
A5
330
1F
100
AcDbEntity
  8
0-1_本体
  6
Continuous
 62
    92
370
    13
100
AcDbLine
 10
275.5460368661431
 20
-20.29396403165947
 30
0.0
 11
275.5460368661431
 21
-1016.29396403166
 31
0.0
  0
LWPOLYLINE
  5
A6
330
1F
100
AcDbEntity
  8
0-B_寸法
  6
Continuous
 62
     7
370
     9
100
AcDbPolyline
 90
        4
 70
     1
 43
3.0
 10
277.0452855327962
 20
-1241.293964031659
 42
0.4142135623731
 10
275.5452855327962
 20
-1239.79396403166
 42
0.4142135623731
 10
274.0452855327962
 20
-1241.293964031659
 42
0.4142135623731
 10
275.5452855327962
 20
-1242.793964031659
 42
0.4142135623731
  0
LINE
  5
A7
330
1F
100
AcDbEntity
  8
0-B_寸法
  6
Continuous
 62
   120
370
     5
100
AcDbLine
 10
275.5452855327962
 20
-1241.293964031659
 30
0.0
 11
275.5452855327962
 21
-1091.293964031659
 31
0.0
  0
LINE
  5
A8
330
1F
100
AcDbEntity
  8
0-B_寸法
  6
Continuous
 62
   120
370
     5
100
AcDbLine
 10
275.5452855327962
 20
-1241.293964031659
 30
0.0
 11
298.7952855327956
 21
-1241.293964031659
 31
0.0
  0
LINE
  5
A9
330
1F
100
AcDbEntity
  8
0-1_本体
  6
Continuous
 62
    92
370
    13
100
AcDbLine
 10
275.5460368661431
 20
-866.2939640316596
 30
0.0
 11
-937.9539843429859
 21
-866.2939640316596
 31
0.0
  0
LINE
  5
AA
330
1F
100
AcDbEntity
  8
0-B_寸法
  6
Continuous
 62
   120
370
     5
100
AcDbLine
 10
-937.9539843429859
 20
-1241.293964031659
 30
0.0
 11
275.5452855327962
 21
-1241.293964031659
 31
0.0
  0
TEXT
  5
AB
330
1F
100
AcDbEntity
  8
0-B_寸法
  6
Continuous
 62
     7
370
   211
100
AcDbText
 10
-406.2043494050965
 20
-1363.603964031659
 30
0.0
 40
68.58
  1
840
 41
1.111111111111111
  7
ＭＳ ゴシック
100
AcDbText
  0
TEXT
  5
AC
330
1F
100
AcDbEntity
  8
0-B_寸法
  6
Continuous
 62
     7
370
   211
100
AcDbText
 10
-934.9539843429835
 20
-1213.603964031659
 30
0.0
 40
68.58
  1
15.5
 41
1.125
  7
ＭＳ ゴシック
100
AcDbText
  0
TEXT
  5
AD
330
1F
100
AcDbEntity
  8
0-B_寸法
  6
Continuous
 62
     7
370
   211
100
AcDbText
 10
70.04528553279556
 20
-1213.603964031659
 30
0.0
 40
68.58
  1
15.5
 41
1.125
  7
ＭＳ ゴシック
100
AcDbText
  0
TEXT
  5
AE
330
1F
100
AcDbEntity
  8
0-B_寸法
  6
Continuous
 62
     7
370
   211
100
AcDbText
 10
-406.2043494050965
 20
-1213.603964031659
 30
0.0
 40
68.58
  1
809
 41
1.111111111111111
  7
ＭＳ ゴシック
100
AcDbText
  0
LINE
  5
AF
330
1F
100
AcDbEntity
  8
0-1_本体
  6
Continuous
 62
    92
370
    13
100
AcDbLine
 10
-937.9539843429859
 20
-43.54396403165964
 30
0.0
 11
275.5460368661431
 21
-43.54396403165964
 31
0.0
  0
LINE
  5
B0
330
1F
100
AcDbEntity
  8
0-1_本体
  6
Continuous
 62
    92
370
    13
100
AcDbLine
 10
275.5460368661431
 20
-843.0439640316598
 30
0.0
 11
-937.9539843429859
 21
-843.0439640316598
 31
0.0
  0
LINE
  5
B1
330
1F
100
AcDbEntity
  8
0-4_棚
  6
Continuous
 62
    92
370
    13
100
AcDbLine
 10
-936.4543494050952
 20
-303.8689640316599
 30
0.0
 11
274.0456505949055
 21
-303.8689640316599
 31
0.0
  0
LINE
  5
B2
330
1F
100
AcDbEntity
  8
0-4_棚
  6
Continuous
 62
    92
370
    13
100
AcDbLine
 10
274.0456505949055
 20
-303.8689640316599
 30
0.0
 11
274.0456505949055
 21
-327.1189640316601
 31
0.0
  0
LINE
  5
B3
330
1F
100
AcDbEntity
  8
0-4_棚
  6
Continuous
 62
    92
370
    13
100
AcDbLine
 10
274.0456505949055
 20
-327.1189640316601
 30
0.0
 11
-936.4543494050952
 21
-327.1189640316601
 31
0.0
  0
LINE
  5
B4
330
1F
100
AcDbEntity
  8
0-4_棚
  6
Continuous
 62
    92
370
    13
100
AcDbLine
 10
-936.4543494050952
 20
-327.1189640316601
 30
0.0
 11
-936.4543494050952
 21
-303.8689640316599
 31
0.0
  0
LINE
  5
B5
330
1F
100
AcDbEntity
  8
0-B_寸法
  6
Continuous
 62
   120
370
     5
100
AcDbLine
 10
93.91737749259846
 20
-327.1189640316601
 30
0.0
 11
93.91737749259846
 21
-303.8689640316599
 31
0.0
  0
LWPOLYLINE
  5
B6
330
1F
100
AcDbEntity
  8
0-B_寸法
  6
Continuous
 62
     7
370
     9
100
AcDbPolyline
 90
        4
 70
     1
 43
3.0
 10
95.41737749259846
 20
-327.1189640316601
 42
0.4142135623731
 10
93.91737749259846
 20
-325.6189640316601
 42
0.4142135623731
 10
92.41737749259846
 20
-327.1189640316601
 42
0.4142135623731
 10
93.91737749259846
 20
-328.6189640316601
 42
0.4142135623731
  0
LWPOLYLINE
  5
B7
330
1F
100
AcDbEntity
  8
0-B_寸法
  6
Continuous
 62
     7
370
     9
100
AcDbPolyline
 90
        4
 70
     1
 43
3.0
 10
95.41737749259846
 20
-303.8689640316599
 42
0.4142135623731
 10
93.91737749259846
 20
-302.3689640316599
 42
0.4142135623731
 10
92.41737749259846
 20
-303.8689640316599
 42
0.4142135623731
 10
93.91737749259846
 20
-305.3689640316599
 42
0.4142135623731
  0
LINE
  5
B8
330
1F
100
AcDbEntity
  8
0-B_寸法
  6
Continuous
 62
   120
370
     5
100
AcDbLine
 10
93.91737749259846
 20
-327.1189640316601
 30
0.0
 11
-56.08262250740154
 21
-327.1189640316601
 31
0.0
  0
LINE
  5
B9
330
1F
100
AcDbEntity
  8
0-B_寸法
  6
Continuous
 62
   120
370
     5
100
AcDbLine
 10
93.91737749259846
 20
-303.8689640316599
 30
0.0
 11
-56.08262250740154
 21
-303.8689640316599
 31
0.0
  0
TEXT
  5
BA
330
1F
100
AcDbEntity
  8
0-B_寸法
  6
Continuous
 62
     7
370
   211
100
AcDbText
 10
66.22737749259846
 20
-416.7439640316592
 30
0.0
 40
68.58
  1
15.5
 50
90.0
 41
1.125000000000002
  7
ＭＳ ゴシック
100
AcDbText
  0
LINE
  5
BB
330
1F
100
AcDbEntity
  8
0-4_棚
  6
Continuous
 62
    92
370
    13
100
AcDbLine
 10
-936.4543494050952
 20
-573.86896403166
 30
0.0
 11
274.0456505949055
 21
-573.86896403166
 31
0.0
  0
LINE
  5
BC
330
1F
100
AcDbEntity
  8
0-4_棚
  6
Continuous
 62
    92
370
    13
100
AcDbLine
 10
274.0456505949055
 20
-573.86896403166
 30
0.0
 11
274.0456505949055
 21
-597.1189640316601
 31
0.0
  0
LINE
  5
BD
330
1F
100
AcDbEntity
  8
0-4_棚
  6
Continuous
 62
    92
370
    13
100
AcDbLine
 10
274.0456505949055
 20
-597.1189640316601
 30
0.0
 11
-936.4543494050952
 21
-597.1189640316601
 31
0.0
  0
LINE
  5
BE
330
1F
100
AcDbEntity
  8
0-4_棚
  6
Continuous
 62
    92
370
    13
100
AcDbLine
 10
-936.4543494050952
 20
-597.1189640316601
 30
0.0
 11
-936.4543494050952
 21
-573.86896403166
 31
0.0
  0
LINE
  5
BF
330
1F
100
AcDbEntity
  8
0-B_寸法
  6
Continuous
 62
   120
370
     5
100
AcDbLine
 10
93.91737749259846
 20
-597.1189640316601
 30
0.0
 11
93.91737749259846
 21
-573.86896403166
 31
0.0
  0
LWPOLYLINE
  5
C0
330
1F
100
AcDbEntity
  8
0-B_寸法
  6
Continuous
 62
     7
370
     9
100
AcDbPolyline
 90
        4
 70
     1
 43
3.0
 10
95.41737749259846
 20
-597.1189640316601
 42
0.4142135623731
 10
93.91737749259846
 20
-595.6189640316601
 42
0.4142135623731
 10
92.41737749259846
 20
-597.1189640316601
 42
0.4142135623731
 10
93.91737749259846
 20
-598.6189640316601
 42
0.4142135623731
  0
LWPOLYLINE
  5
C1
330
1F
100
AcDbEntity
  8
0-B_寸法
  6
Continuous
 62
     7
370
     9
100
AcDbPolyline
 90
        4
 70
     1
 43
3.0
 10
95.41737749259846
 20
-573.86896403166
 42
0.4142135623731
 10
93.91737749259846
 20
-572.3689640316599
 42
0.4142135623731
 10
92.41737749259846
 20
-573.86896403166
 42
0.4142135623731
 10
93.91737749259846
 20
-575.36896403166
 42
0.4142135623731
  0
LINE
  5
C2
330
1F
100
AcDbEntity
  8
0-B_寸法
  6
Continuous
 62
   120
370
     5
100
AcDbLine
 10
93.91737749259846
 20
-597.1189640316601
 30
0.0
 11
-56.08262250740154
 21
-597.1189640316601
 31
0.0
  0
LINE
  5
C3
330
1F
100
AcDbEntity
  8
0-B_寸法
  6
Continuous
 62
   120
370
     5
100
AcDbLine
 10
93.91737749259846
 20
-573.86896403166
 30
0.0
 11
-56.08262250740154
 21
-573.86896403166
 31
0.0
  0
TEXT
  5
C4
330
1F
100
AcDbEntity
  8
0-B_寸法
  6
Continuous
 62
     7
370
   211
100
AcDbText
 10
66.22737749259846
 20
-686.74396403166
 30
0.0
 40
68.58
  1
15.5
 50
90.0
 41
1.125
  7
ＭＳ ゴシック
100
AcDbText
  0
TEXT
  5
C5
330
1F
100
AcDbEntity
  8
0-A_文字
  6
Continuous
 62
     7
370
     9
100
AcDbText
 10
-466.2043494050965
 20
-266.5828782115174
 30
0.0
 40
68.58
  1
可動棚
  7
ＭＳ ゴシック
100
AcDbText
  0
TEXT
  5
C6
330
1F
100
AcDbEntity
  8
0-A_文字
  6
Continuous
 62
     7
370
     9
100
AcDbText
 10
-466.2043494050965
 20
-536.5828782115169
 30
0.0
 40
68.58
  1
可動棚
  7
ＭＳ ゴシック
100
AcDbText
  0
LINE
  5
C7
330
1F
100
AcDbEntity
  8
0-1_本体
  6
Continuous
 62
     7
370
     9
100
AcDbLine
 10
-2176.046724218621
 20
-866.2939640316596
 30
0.0
 11
-2176.046724218621
 21
-1016.29396403166
 31
0.0
  0
LINE
  5
C8
330
1F
100
AcDbEntity
  8
0-1_本体
  6
Continuous
 62
     7
370
     9
100
AcDbLine
 10
-2759.546724218621
 20
-866.2939640316596
 30
0.0
 11
-2759.546724218621
 21
-1016.29396403166
 31
0.0
  0
LINE
  5
C9
330
1F
100
AcDbEntity
  8
0-1_本体
  6
Continuous
 62
     7
370
     9
100
AcDbLine
 10
-2782.79672421862
 20
-20.29396403166118
 30
0.0
 11
-2782.79672421862
 21
-1016.29396403166
 31
0.0
  0
LINE
  5
CA
330
1F
100
AcDbEntity
  8
0-1_本体
  6
Continuous
 62
     7
370
     9
100
AcDbLine
 10
-2152.79672421862
 20
-20.29396403166118
 30
0.0
 11
-2782.79672421862
 21
-20.29396403166118
 31
0.0
  0
LINE
  5
CB
330
1F
100
AcDbEntity
  8
0-1_本体
  6
Continuous
 62
     7
370
     9
100
AcDbLine
 10
-2152.79672421862
 20
-1016.29396403166
 30
0.0
 11
-2152.79672421862
 21
-20.29396403166118
 31
0.0
  0
LINE
  5
CC
330
1F
100
AcDbEntity
  8
0-1_本体
  6
Continuous
 62
     7
370
     9
100
AcDbLine
 10
-2782.79672421862
 20
-1016.29396403166
 30
0.0
 11
-2152.79672421862
 21
-1016.29396403166
 31
0.0
  0
LINE
  5
CD
330
1F
100
AcDbEntity
  8
0-B_寸法
  6
Continuous
 62
   120
370
     5
100
AcDbLine
 10
-2782.79672421862
 20
-1241.293964031659
 30
0.0
 11
-2759.546724218621
 21
-1241.293964031659
 31
0.0
  0
LWPOLYLINE
  5
CE
330
1F
100
AcDbEntity
  8
0-B_寸法
  6
Continuous
 62
     7
370
     9
100
AcDbPolyline
 90
        4
 70
     1
 43
3.0
 10
-2781.29672421862
 20
-1241.293964031659
 42
0.4142135623731
 10
-2782.79672421862
 20
-1239.79396403166
 42
0.4142135623731
 10
-2784.29672421862
 20
-1241.293964031659
 42
0.4142135623731
 10
-2782.79672421862
 20
-1242.793964031659
 42
0.4142135623731
  0
LWPOLYLINE
  5
CF
330
1F
100
AcDbEntity
  8
0-B_寸法
  6
Continuous
 62
     7
370
     9
100
AcDbPolyline
 90
        4
 70
     1
 43
3.0
 10
-2758.046724218621
 20
-1241.293964031659
 42
0.4142135623731
 10
-2759.546724218621
 20
-1239.79396403166
 42
0.4142135623731
 10
-2761.04672421862
 20
-1241.293964031659
 42
0.4142135623731
 10
-2759.546724218621
 20
-1242.793964031659
 42
0.4142135623731
  0
LINE
  5
D0
330
1F
100
AcDbEntity
  8
0-B_寸法
  6
Continuous
 62
   120
370
     5
100
AcDbLine
 10
-2782.79672421862
 20
-1241.293964031659
 30
0.0
 11
-2782.79672421862
 21
-1091.293964031659
 31
0.0
  0
LINE
  5
D1
330
1F
100
AcDbEntity
  8
0-B_寸法
  6
Continuous
 62
   120
370
     5
100
AcDbLine
 10
-2759.546724218621
 20
-1241.293964031659
 30
0.0
 11
-2759.546724218621
 21
-1091.293964031659
 31
0.0
  0
LINE
  5
D2
330
1F
100
AcDbEntity
  8
0-B_寸法
  6
Continuous
 62
   120
370
     5
100
AcDbLine
 10
-2759.546724218621
 20
-1241.293964031659
 30
0.0
 11
-2176.046724218621
 21
-1241.293964031659
 31
0.0
  0
LWPOLYLINE
  5
D3
330
1F
100
AcDbEntity
  8
0-B_寸法
  6
Continuous
 62
     7
370
     9
100
AcDbPolyline
 90
        4
 70
     1
 43
3.0
 10
-2174.546724218621
 20
-1241.293964031659
 42
0.4142135623731
 10
-2176.046724218621
 20
-1239.79396403166
 42
0.4142135623731
 10
-2177.546724218621
 20
-1241.293964031659
 42
0.4142135623731
 10
-2176.046724218621
 20
-1242.793964031659
 42
0.4142135623731
  0
LINE
  5
D4
330
1F
100
AcDbEntity
  8
0-B_寸法
  6
Continuous
 62
   120
370
     5
100
AcDbLine
 10
-2176.046724218621
 20
-1241.293964031659
 30
0.0
 11
-2176.046724218621
 21
-1091.293964031659
 31
0.0
  0
TEXT
  5
D5
330
1F
100
AcDbEntity
  8
0-B_寸法
  6
Continuous
 62
     7
370
   211
100
AcDbText
 10
-2542.79672421862
 20
-1213.603964031659
 30
0.0
 40
68.58
  1
389
 41
1.111111111111111
  7
ＭＳ ゴシック
100
AcDbText
  0
LINE
  5
D6
330
1F
100
AcDbEntity
  8
0-B_寸法
  6
Continuous
 62
   120
370
     5
100
AcDbLine
 10
-2176.046724218621
 20
-1241.293964031659
 30
0.0
 11
-2152.79672421862
 21
-1241.293964031659
 31
0.0
  0
LWPOLYLINE
  5
D7
330
1F
100
AcDbEntity
  8
0-B_寸法
  6
Continuous
 62
     7
370
     9
100
AcDbPolyline
 90
        4
 70
     1
 43
3.0
 10
-2151.29672421862
 20
-1241.293964031659
 42
0.4142135623731
 10
-2152.79672421862
 20
-1239.79396403166
 42
0.4142135623731
 10
-2154.29672421862
 20
-1241.293964031659
 42
0.4142135623731
 10
-2152.79672421862
 20
-1242.793964031659
 42
0.4142135623731
  0
LINE
  5
D8
330
1F
100
AcDbEntity
  8
0-B_寸法
  6
Continuous
 62
   120
370
     5
100
AcDbLine
 10
-2152.79672421862
 20
-1391.293964031659
 30
0.0
 11
-2152.79672421862
 21
-1091.293964031659
 31
0.0
  0
LINE
  5
D9
330
1F
100
AcDbEntity
  8
0-B_寸法
  6
Continuous
 62
   120
370
     5
100
AcDbLine
 10
-2782.79672421862
 20
-1391.293964031659
 30
0.0
 11
-2152.79672421862
 21
-1391.293964031659
 31
0.0
  0
LWPOLYLINE
  5
DA
330
1F
100
AcDbEntity
  8
0-B_寸法
  6
Continuous
 62
     7
370
     9
100
AcDbPolyline
 90
        4
 70
     1
 43
3.0
 10
-2781.29672421862
 20
-1391.293964031659
 42
0.4142135623731
 10
-2782.79672421862
 20
-1389.79396403166
 42
0.4142135623731
 10
-2784.29672421862
 20
-1391.293964031659
 42
0.4142135623731
 10
-2782.79672421862
 20
-1392.793964031659
 42
0.4142135623731
  0
LWPOLYLINE
  5
DB
330
1F
100
AcDbEntity
  8
0-B_寸法
  6
Continuous
 62
     7
370
     9
100
AcDbPolyline
 90
        4
 70
     1
 43
3.0
 10
-2151.29672421862
 20
-1391.293964031659
 42
0.4142135623731
 10
-2152.79672421862
 20
-1389.79396403166
 42
0.4142135623731
 10
-2154.29672421862
 20
-1391.293964031659
 42
0.4142135623731
 10
-2152.79672421862
 20
-1392.793964031659
 42
0.4142135623731
  0
LINE
  5
DC
330
1F
100
AcDbEntity
  8
0-B_寸法
  6
Continuous
 62
   120
370
     5
100
AcDbLine
 10
-2782.79672421862
 20
-1391.293964031659
 30
0.0
 11
-2782.79672421862
 21
-1241.293964031659
 31
0.0
  0
TEXT
  5
DD
330
1F
100
AcDbEntity
  8
0-B_寸法
  6
Continuous
 62
     7
370
   211
100
AcDbText
 10
-2542.79672421862
 20
-1363.603964031659
 30
0.0
 40
68.58
  1
420
 41
1.111111111111111
  7
ＭＳ ゴシック
100
AcDbText
  0
LINE
  5
DE
330
1F
100
AcDbEntity
  8
0-2_扉
  6
Continuous
 62
    92
370
    13
100
AcDbLine
 10
-2779.796724218622
 20
-236.2939640316608
 30
0.0
 11
-2779.796724218622
 21
-443.2939640316597
 31
0.0
  0
LINE
  5
DF
330
1F
100
AcDbEntity
  8
0-2_扉
  6
Continuous
 62
    92
370
    13
100
AcDbLine
 10
-2779.796724218622
 20
-24.79396403166049
 30
0.0
 11
-2779.796724218622
 21
-231.7939640316607
 31
0.0
  0
LINE
  5
E0
330
1F
100
AcDbEntity
  8
0-2_扉
  6
Continuous
 62
    92
370
    13
100
AcDbLine
 10
-2779.796724218622
 20
-447.7939640316603
 30
0.0
 11
-2779.796724218622
 21
-654.7939640316597
 31
0.0
  0
LINE
  5
E1
330
1F
100
AcDbEntity
  8
0-2_扉
  6
Continuous
 62
    92
370
    13
100
AcDbLine
 10
-2779.796724218622
 20
-659.2939640316611
 30
0.0
 11
-2779.796724218622
 21
-866.2939640316596
 31
0.0
  0
LINE
  5
E2
330
1F
100
AcDbEntity
  8
0-2_扉
  6
Continuous
 62
    92
370
    13
100
AcDbLine
 10
-2155.796724218621
 20
-236.2939640316608
 30
0.0
 11
-2155.796724218621
 21
-443.2939640316597
 31
0.0
  0
LINE
  5
E3
330
1F
100
AcDbEntity
  8
0-2_扉
  6
Continuous
 62
    92
370
    13
100
AcDbLine
 10
-2155.796724218621
 20
-24.79396403166049
 30
0.0
 11
-2155.796724218621
 21
-231.7939640316607
 31
0.0
  0
LINE
  5
E4
330
1F
100
AcDbEntity
  8
0-2_扉
  6
Continuous
 62
    92
370
    13
100
AcDbLine
 10
-2155.796724218621
 20
-447.7939640316603
 30
0.0
 11
-2155.796724218621
 21
-654.7939640316597
 31
0.0
  0
LINE
  5
E5
330
1F
100
AcDbEntity
  8
0-2_扉
  6
Continuous
 62
    92
370
    13
100
AcDbLine
 10
-2155.796724218621
 20
-659.2939640316611
 30
0.0
 11
-2155.796724218621
 21
-866.2939640316596
 31
0.0
  0
LINE
  5
E6
330
1F
100
AcDbEntity
  8
0-2_扉
  6
Continuous
 62
    92
370
    13
100
AcDbLine
 10
-2779.796724218622
 20
-236.2939640316608
 30
0.0
 11
-2155.796724218621
 21
-236.2939640316608
 31
0.0
  0
LINE
  5
E7
330
1F
100
AcDbEntity
  8
0-2_扉
  6
Continuous
 62
    92
370
    13
100
AcDbLine
 10
-2779.796724218622
 20
-231.7939640316607
 30
0.0
 11
-2155.796724218621
 21
-231.7939640316607
 31
0.0
  0
LINE
  5
E8
330
1F
100
AcDbEntity
  8
0-2_扉
  6
Continuous
 62
    92
370
    13
100
AcDbLine
 10
-2155.796724218621
 20
-447.7939640316603
 30
0.0
 11
-2779.796724218622
 21
-447.7939640316603
 31
0.0
  0
LINE
  5
E9
330
1F
100
AcDbEntity
  8
0-2_扉
  6
Continuous
 62
    92
370
    13
100
AcDbLine
 10
-2155.796724218621
 20
-443.2939640316597
 30
0.0
 11
-2779.796724218622
 21
-443.2939640316597
 31
0.0
  0
LINE
  5
EA
330
1F
100
AcDbEntity
  8
0-2_扉
  6
Continuous
 62
    92
370
    13
100
AcDbLine
 10
-2779.796724218622
 20
-659.2939640316611
 30
0.0
 11
-2155.796724218621
 21
-659.2939640316611
 31
0.0
  0
LINE
  5
EB
330
1F
100
AcDbEntity
  8
0-2_扉
  6
Continuous
 62
    92
370
    13
100
AcDbLine
 10
-2779.796724218622
 20
-654.7939640316597
 30
0.0
 11
-2155.796724218621
 21
-654.7939640316597
 31
0.0
  0
LINE
  5
EC
330
1F
100
AcDbEntity
  8
0-2_扉
  6
Continuous
 62
    92
370
    13
100
AcDbLine
 10
-2155.796724218621
 20
-866.2939640316596
 30
0.0
 11
-2779.796724218622
 21
-866.2939640316596
 31
0.0
  0
LINE
  5
ED
330
1F
100
AcDbEntity
  8
0-2_扉
  6
Continuous
 62
    92
370
    13
100
AcDbLine
 10
-2779.796724218622
 20
-24.79396403166049
 30
0.0
 11
-2155.796724218621
 21
-24.79396403166049
 31
0.0
  0
TEXT
  5
EE
330
1F
100
AcDbEntity
  8
0-B_寸法
  6
Continuous
 62
     7
370
   211
100
AcDbText
 10
-3014.905011500623
 20
-1213.603964031659
 30
0.0
 40
68.58
  1
15.5
 41
1.125
  7
ＭＳ ゴシック
100
AcDbText
  0
LINE
  5
EF
330
1F
100
AcDbEntity
  8
0-1_本体
  6
Continuous
 62
     7
370
     9
100
AcDbLine
 10
2015.546015657016
 20
-866.2939640316596
 30
0.0
 11
2015.546015657016
 21
-1016.29396403166
 31
0.0
  0
LINE
  5
F0
330
1F
100
AcDbEntity
  8
0-1_本体
  6
Continuous
 62
     7
370
     9
100
AcDbLine
 10
1432.046015657015
 20
-866.2939640316596
 30
0.0
 11
1432.046015657015
 21
-1016.29396403166
 31
0.0
  0
LINE
  5
F1
330
1F
100
AcDbEntity
  8
0-1_本体
  6
Continuous
 62
     7
370
     9
100
AcDbLine
 10
1408.796015657016
 20
-20.29396403166118
 30
0.0
 11
1408.796015657016
 21
-1016.29396403166
 31
0.0
  0
LINE
  5
F2
330
1F
100
AcDbEntity
  8
0-1_本体
  6
Continuous
 62
     7
370
     9
100
AcDbLine
 10
2038.796015657015
 20
-1016.29396403166
 30
0.0
 11
2038.796015657015
 21
-20.29396403166118
 31
0.0
  0
LINE
  5
F3
330
1F
100
AcDbEntity
  8
0-1_本体
  6
Continuous
 62
     7
370
     9
100
AcDbLine
 10
1408.796015657016
 20
-1016.29396403166
 30
0.0
 11
2038.796015657015
 21
-1016.29396403166
 31
0.0
  0
LINE
  5
F4
330
1F
100
AcDbEntity
  8
0-B_寸法
  6
Continuous
 62
   120
370
     5
100
AcDbLine
 10
1408.796015657016
 20
-1241.293964031659
 30
0.0
 11
1432.046015657015
 21
-1241.293964031659
 31
0.0
  0
LWPOLYLINE
  5
F5
330
1F
100
AcDbEntity
  8
0-B_寸法
  6
Continuous
 62
     7
370
     9
100
AcDbPolyline
 90
        4
 70
     1
 43
3.0
 10
1410.296015657015
 20
-1241.293964031659
 42
0.4142135623731
 10
1408.796015657016
 20
-1239.79396403166
 42
0.4142135623731
 10
1407.296015657016
 20
-1241.293964031659
 42
0.4142135623731
 10
1408.796015657016
 20
-1242.793964031659
 42
0.4142135623731
  0
LWPOLYLINE
  5
F6
330
1F
100
AcDbEntity
  8
0-B_寸法
  6
Continuous
 62
     7
370
     9
100
AcDbPolyline
 90
        4
 70
     1
 43
3.0
 10
1433.546015657015
 20
-1241.293964031659
 42
0.4142135623731
 10
1432.046015657015
 20
-1239.79396403166
 42
0.4142135623731
 10
1430.546015657015
 20
-1241.293964031659
 42
0.4142135623731
 10
1432.046015657015
 20
-1242.793964031659
 42
0.4142135623731
  0
LINE
  5
F7
330
1F
100
AcDbEntity
  8
0-B_寸法
  6
Continuous
 62
   120
370
     5
100
AcDbLine
 10
1408.796015657016
 20
-1241.293964031659
 30
0.0
 11
1408.796015657016
 21
-1091.293964031659
 31
0.0
  0
LINE
  5
F8
330
1F
100
AcDbEntity
  8
0-B_寸法
  6
Continuous
 62
   120
370
     5
100
AcDbLine
 10
1432.046015657015
 20
-1241.293964031659
 30
0.0
 11
1432.046015657015
 21
-1091.293964031659
 31
0.0
  0
LINE
  5
F9
330
1F
100
AcDbEntity
  8
0-B_寸法
  6
Continuous
 62
   120
370
     5
100
AcDbLine
 10
1432.046015657015
 20
-1241.293964031659
 30
0.0
 11
2015.546015657016
 21
-1241.293964031659
 31
0.0
  0
LWPOLYLINE
  5
FA
330
1F
100
AcDbEntity
  8
0-B_寸法
  6
Continuous
 62
     7
370
     9
100
AcDbPolyline
 90
        4
 70
     1
 43
3.0
 10
2017.046015657016
 20
-1241.293964031659
 42
0.4142135623731
 10
2015.546015657016
 20
-1239.79396403166
 42
0.4142135623731
 10
2014.046015657016
 20
-1241.293964031659
 42
0.4142135623731
 10
2015.546015657016
 20
-1242.793964031659
 42
0.4142135623731
  0
LINE
  5
FB
330
1F
100
AcDbEntity
  8
0-B_寸法
  6
Continuous
 62
   120
370
     5
100
AcDbLine
 10
2015.546015657016
 20
-1241.293964031659
 30
0.0
 11
2015.546015657016
 21
-1091.293964031659
 31
0.0
  0
LINE
  5
FC
330
1F
100
AcDbEntity
  8
0-B_寸法
  6
Continuous
 62
   120
370
     5
100
AcDbLine
 10
2015.546015657016
 20
-1241.293964031659
 30
0.0
 11
2038.796015657015
 21
-1241.293964031659
 31
0.0
  0
LWPOLYLINE
  5
FD
330
1F
100
AcDbEntity
  8
0-B_寸法
  6
Continuous
 62
     7
370
     9
100
AcDbPolyline
 90
        4
 70
     1
 43
3.0
 10
2040.296015657015
 20
-1241.293964031659
 42
0.4142135623731
 10
2038.796015657015
 20
-1239.79396403166
 42
0.4142135623731
 10
2037.296015657015
 20
-1241.293964031659
 42
0.4142135623731
 10
2038.796015657015
 20
-1242.793964031659
 42
0.4142135623731
  0
LINE
  5
FE
330
1F
100
AcDbEntity
  8
0-B_寸法
  6
Continuous
 62
   120
370
     5
100
AcDbLine
 10
2038.796015657015
 20
-1391.293964031659
 30
0.0
 11
2038.796015657015
 21
-1091.293964031659
 31
0.0
  0
LINE
  5
FF
330
1F
100
AcDbEntity
  8
0-B_寸法
  6
Continuous
 62
   120
370
     5
100
AcDbLine
 10
1408.796015657016
 20
-1391.293964031659
 30
0.0
 11
2038.796015657015
 21
-1391.293964031659
 31
0.0
  0
LWPOLYLINE
  5
100
330
1F
100
AcDbEntity
  8
0-B_寸法
  6
Continuous
 62
     7
370
     9
100
AcDbPolyline
 90
        4
 70
     1
 43
3.0
 10
1410.296015657015
 20
-1391.293964031659
 42
0.4142135623731
 10
1408.796015657016
 20
-1389.79396403166
 42
0.4142135623731
 10
1407.296015657016
 20
-1391.293964031659
 42
0.4142135623731
 10
1408.796015657016
 20
-1392.793964031659
 42
0.4142135623731
  0
LWPOLYLINE
  5
101
330
1F
100
AcDbEntity
  8
0-B_寸法
  6
Continuous
 62
     7
370
     9
100
AcDbPolyline
 90
        4
 70
     1
 43
3.0
 10
2040.296015657015
 20
-1391.293964031659
 42
0.4142135623731
 10
2038.796015657015
 20
-1389.79396403166
 42
0.4142135623731
 10
2037.296015657015
 20
-1391.293964031659
 42
0.4142135623731
 10
2038.796015657015
 20
-1392.793964031659
 42
0.4142135623731
  0
LINE
  5
102
330
1F
100
AcDbEntity
  8
0-B_寸法
  6
Continuous
 62
   120
370
     5
100
AcDbLine
 10
1408.796015657016
 20
-1391.293964031659
 30
0.0
 11
1408.796015657016
 21
-1241.293964031659
 31
0.0
  0
TEXT
  5
103
330
1F
100
AcDbEntity
  8
0-B_寸法
  6
Continuous
 62
     7
370
   211
100
AcDbText
 10
1176.687728375011
 20
-1213.603964031659
 30
0.0
 40
68.58
  1
15.5
 41
1.125
  7
ＭＳ ゴシック
100
AcDbText
  0
TEXT
  5
104
330
1F
100
AcDbEntity
  8
0-B_寸法
  6
Continuous
 62
     7
370
   211
100
AcDbText
 10
1648.796015657016
 20
-1213.603964031659
 30
0.0
 40
68.58
  1
389
 41
1.111111111111111
  7
ＭＳ ゴシック
100
AcDbText
  0
TEXT
  5
105
330
1F
100
AcDbEntity
  8
0-B_寸法
  6
Continuous
 62
     7
370
   211
100
AcDbText
 10
1648.796015657016
 20
-1363.603964031659
 30
0.0
 40
68.58
  1
420
 41
1.111111111111111
  7
ＭＳ ゴシック
100
AcDbText
  0
LINE
  5
106
330
1F
100
AcDbEntity
  8
0-1_本体
  6
Continuous
 62
     7
370
     9
100
AcDbLine
 10
2015.546015657016
 20
-43.54396403166049
 30
0.0
 11
1432.046015657015
 21
-43.54396403166049
 31
0.0
  0
LINE
  5
107
330
1F
100
AcDbEntity
  8
0-1_本体
  6
Continuous
 62
     7
370
     9
100
AcDbLine
 10
2015.546015657016
 20
-866.2939640316596
 30
0.0
 11
2015.546015657016
 21
-20.29396403166118
 31
0.0
  0
LINE
  5
108
330
1F
100
AcDbEntity
  8
0-1_本体
  6
Continuous
 62
     7
370
     9
100
AcDbLine
 10
1432.046015657015
 20
-20.29396403166118
 30
0.0
 11
1432.046015657015
 21
-866.2939640316596
 31
0.0
  0
LINE
  5
109
330
1F
100
AcDbEntity
  8
0-1_本体
  6
Continuous
 62
     7
370
     9
100
AcDbLine
 10
2038.796015657015
 20
-20.29396403166118
 30
0.0
 11
1408.796015657016
 21
-20.29396403166118
 31
0.0
  0
LINE
  5
10A
330
1F
100
AcDbEntity
  8
0-B_寸法
  6
Continuous
 62
   120
370
     5
100
AcDbLine
 10
3835.796476778794
 20
-20.29396403165947
 30
0.0
 11
3835.796476778794
 21
-285.7939640316593
 31
0.0
  0
LWPOLYLINE
  5
10B
330
1F
100
AcDbEntity
  8
0-B_寸法
  6
Continuous
 62
     7
370
     9
100
AcDbPolyline
 90
        4
 70
     1
 43
3.0
 10
3837.296476778794
 20
-20.29396403165947
 42
0.4142135623731
 10
3835.796476778794
 20
-18.79396403165947
 42
0.4142135623731
 10
3834.296476778794
 20
-20.29396403165947
 42
0.4142135623731
 10
3835.796476778794
 20
-21.79396403165947
 42
0.4142135623731
  0
LWPOLYLINE
  5
10C
330
1F
100
AcDbEntity
  8
0-B_寸法
  6
Continuous
 62
     7
370
     9
100
AcDbPolyline
 90
        4
 70
     1
 43
3.0
 10
3837.296476778794
 20
-285.7939640316593
 42
0.4142135623731
 10
3835.796476778794
 20
-284.2939640316593
 42
0.4142135623731
 10
3834.296476778794
 20
-285.7939640316593
 42
0.4142135623731
 10
3835.796476778794
 20
-287.2939640316593
 42
0.4142135623731
  0
LINE
  5
10D
330
1F
100
AcDbEntity
  8
0-B_寸法
  6
Continuous
 62
   120
370
     5
100
AcDbLine
 10
3835.796476778794
 20
-20.29396403165947
 30
0.0
 11
3685.796476778794
 21
-20.29396403165947
 31
0.0
  0
LINE
  5
10E
330
1F
100
AcDbEntity
  8
0-B_寸法
  6
Continuous
 62
   120
370
     5
100
AcDbLine
 10
3835.796476778794
 20
-285.7939640316593
 30
0.0
 11
3685.796476778794
 21
-285.7939640316593
 31
0.0
  0
TEXT
  5
10F
330
1F
100
AcDbEntity
  8
0-B_寸法
  6
Continuous
 62
     7
370
   211
100
AcDbText
 10
3808.106476778794
 20
-228.0439640316598
 30
0.0
 40
68.58
  1
177
 50
90.0
 41
1.111111111111111
  7
ＭＳ ゴシック
100
AcDbText
  0
LINE
  5
110
330
1F
100
AcDbEntity
  8
0-B_寸法
  6
Continuous
 62
   120
370
     5
100
AcDbLine
 10
3835.796476778794
 20
-285.7939640316593
 30
0.0
 11
3835.796476778794
 21
-600.7939640316597
 31
0.0
  0
LWPOLYLINE
  5
111
330
1F
100
AcDbEntity
  8
0-B_寸法
  6
Continuous
 62
     7
370
     9
100
AcDbPolyline
 90
        4
 70
     1
 43
3.0
 10
3837.296476778794
 20
-600.7939640316597
 42
0.4142135623731
 10
3835.796476778794
 20
-599.2939640316597
 42
0.4142135623731
 10
3834.296476778794
 20
-600.7939640316597
 42
0.4142135623731
 10
3835.796476778794
 20
-602.2939640316597
 42
0.4142135623731
  0
LINE
  5
112
330
1F
100
AcDbEntity
  8
0-B_寸法
  6
Continuous
 62
   120
370
     5
100
AcDbLine
 10
3835.796476778794
 20
-600.7939640316597
 30
0.0
 11
3685.796476778794
 21
-600.7939640316597
 31
0.0
  0
TEXT
  5
113
330
1F
100
AcDbEntity
  8
0-B_寸法
  6
Continuous
 62
     7
370
   211
100
AcDbText
 10
3808.106476778794
 20
-518.2939640316597
 30
0.0
 40
68.58
  1
210
 50
90.0
 41
1.111111111111111
  7
ＭＳ ゴシック
100
AcDbText
  0
LINE
  5
114
330
1F
100
AcDbEntity
  8
0-B_寸法
  6
Continuous
 62
   120
370
     5
100
AcDbLine
 10
3835.796476778794
 20
-600.7939640316597
 30
0.0
 11
3835.796476778794
 21
-1016.29396403166
 31
0.0
  0
LWPOLYLINE
  5
115
330
1F
100
AcDbEntity
  8
0-B_寸法
  6
Continuous
 62
     7
370
     9
100
AcDbPolyline
 90
        4
 70
     1
 43
3.0
 10
3837.296476778794
 20
-1016.29396403166
 42
0.4142135623731
 10
3835.796476778794
 20
-1014.79396403166
 42
0.4142135623731
 10
3834.296476778794
 20
-1016.29396403166
 42
0.4142135623731
 10
3835.796476778794
 20
-1017.793964031659
 42
0.4142135623731
  0
LINE
  5
116
330
1F
100
AcDbEntity
  8
0-B_寸法
  6
Continuous
 62
   120
370
     5
100
AcDbLine
 10
3835.796476778794
 20
-1016.29396403166
 30
0.0
 11
3685.796476778794
 21
-1016.29396403166
 31
0.0
  0
TEXT
  5
117
330
1F
100
AcDbEntity
  8
0-B_寸法
  6
Continuous
 62
     7
370
   211
100
AcDbText
 10
3808.106476778794
 20
-883.5439640316597
 30
0.0
 40
68.58
  1
277
 50
90.0
 41
1.111111111111111
  7
ＭＳ ゴシック
100
AcDbText
  0
LINE
  5
118
330
1F
100
AcDbEntity
  8
0-A_文字
  6
Continuous
 62
     7
370
     9
100
AcDbLine
 10
-4312.79672421862
 20
-1916.293964031661
 30
0.0
 11
-3112.79672421862
 21
-1916.293964031661
 31
0.0
  0
LINE
  5
119
330
1F
100
AcDbEntity
  8
0-A_文字
  6
Continuous
 62
     7
370
     9
100
AcDbLine
 10
-3112.79672421862
 20
-1916.293964031661
 30
0.0
 11
-3112.79672421862
 21
-1691.293964031661
 31
0.0
  0
LINE
  5
11A
330
1F
100
AcDbEntity
  8
0-A_文字
  6
Continuous
 62
     7
370
     9
100
AcDbLine
 10
-3112.79672421862
 20
-1691.293964031661
 30
0.0
 11
-4312.79672421862
 21
-1691.293964031661
 31
0.0
  0
LINE
  5
11B
330
1F
100
AcDbEntity
  8
0-A_文字
  6
Continuous
 62
     7
370
     9
100
AcDbLine
 10
-4312.79672421862
 20
-1691.293964031661
 30
0.0
 11
-4312.79672421862
 21
-1916.293964031661
 31
0.0
  0
TEXT
  5
11C
330
1F
100
AcDbEntity
  8
0-A_文字
  6
Continuous
 62
     7
370
     9
100
AcDbText
 10
-4042.79672421862
 20
-1846.873964031661
 30
0.0
 40
91.44
  1
正面図・・
 41
1.1
  7
ＭＳ ゴシック
100
AcDbText
  0
TEXT
  5
11D
330
1F
100
AcDbEntity
  8
0-A_文字
  6
Continuous
 62
     7
370
     9
100
AcDbText
 10
73.79601565701478
 20
-1846.873964031661
 30
0.0
 40
91.44
  1
キャビネット図
 41
1.107142857142857
  7
ＭＳ ゴシック
100
AcDbText
  0
LINE
  5
11E
330
1F
100
AcDbEntity
  8
0-A_文字
  6
Continuous
 62
     7
370
     9
100
AcDbLine
 10
-61.20398434298522
 20
-1691.293964031661
 30
0.0
 11
-61.20398434298522
 21
-1916.293964031661
 31
0.0
  0
LINE
  5
11F
330
1F
100
AcDbEntity
  8
0-A_文字
  6
Continuous
 62
     7
370
     9
100
AcDbLine
 10
1138.796015657016
 20
-1691.293964031661
 30
0.0
 11
-61.20398434298522
 21
-1691.293964031661
 31
0.0
  0
LINE
  5
120
330
1F
100
AcDbEntity
  8
0-A_文字
  6
Continuous
 62
     7
370
     9
100
AcDbLine
 10
1138.796015657016
 20
-1916.293964031661
 30
0.0
 11
1138.796015657016
 21
-1691.293964031661
 31
0.0
  0
LINE
  5
121
330
1F
100
AcDbEntity
  8
0-A_文字
  6
Continuous
 62
     7
370
     9
100
AcDbLine
 10
-61.20398434298522
 20
-1916.293964031661
 30
0.0
 11
1138.796015657016
 21
-1916.293964031661
 31
0.0
  0
LINE
  5
122
330
1F
100
AcDbEntity
  8
0-A_文字
  6
Continuous
 62
     7
370
     9
100
AcDbLine
 10
3400.796476778794
 20
-1691.293964031661
 30
0.0
 11
3400.796476778794
 21
-1916.293964031661
 31
0.0
  0
LINE
  5
123
330
1F
100
AcDbEntity
  8
0-A_文字
  6
Continuous
 62
     7
370
     9
100
AcDbLine
 10
4600.796476778794
 20
-1691.293964031661
 30
0.0
 11
3400.796476778794
 21
-1691.293964031661
 31
0.0
  0
LINE
  5
124
330
1F
100
AcDbEntity
  8
0-A_文字
  6
Continuous
 62
     7
370
     9
100
AcDbLine
 10
4600.796476778794
 20
-1916.293964031661
 30
0.0
 11
4600.796476778794
 21
-1691.293964031661
 31
0.0
  0
LINE
  5
125
330
1F
100
AcDbEntity
  8
0-A_文字
  6
Continuous
 62
     7
370
     9
100
AcDbLine
 10
3400.796476778794
 20
-1916.293964031661
 30
0.0
 11
4600.796476778794
 21
-1916.293964031661
 31
0.0
  0
TEXT
  5
126
330
1F
100
AcDbEntity
  8
0-A_文字
  6
Continuous
 62
     7
370
     9
100
AcDbText
 10
3670.796476778794
 20
-1846.873964031661
 30
0.0
 40
91.44
  1
断面図・・
 41
1.1
  7
ＭＳ ゴシック
100
AcDbText
  0
TEXT
  5
127
330
1F
100
AcDbEntity
  8
0-B_寸法
  6
Continuous
 62
     7
370
   211
100
AcDbText
 10
-2106.200582605078
 20
-1213.603964031659
 30
0.0
 40
68.58
  1
15.5
 41
1.125
  7
ＭＳ ゴシック
100
AcDbText
  0
LINE
  5
128
330
1F
100
AcDbEntity
  8
0-A_文字
  6
Continuous
 62
     7
370
     9
100
AcDbLine
 10
-4489.999990205507
 20
3864.999983504013
 30
0.0
 11
-5689.999990205507
 21
3864.999983504013
 31
0.0
  0
LINE
  5
129
330
1F
100
AcDbEntity
  8
0-A_文字
  6
Continuous
 62
     7
370
     9
100
AcDbLine
 10
-4489.999990205507
 20
3639.999983504013
 30
0.0
 11
-4489.999990205507
 21
3864.999983504013
 31
0.0
  0
LINE
  5
12A
330
1F
100
AcDbEntity
  8
0-A_文字
  6
Continuous
 62
     7
370
     9
100
AcDbLine
 10
-5689.999990205507
 20
3639.999983504013
 30
0.0
 11
-4489.999990205507
 21
3639.999983504013
 31
0.0
  0
LINE
  5
12B
330
1F
100
AcDbEntity
  8
0-A_文字
  6
Continuous
 62
     7
370
     9
100
AcDbLine
 10
-5689.999990205507
 20
3864.999983504013
 30
0.0
 11
-5689.999990205507
 21
3639.999983504013
 31
0.0
  0
LINE
  5
12C
330
1F
100
AcDbEntity
  8
0-1_本体
  6
Continuous
 62
   200
370
    20
100
AcDbLine
 10
-5999.999752560178
 20
4164.999241184543
 30
0.0
 11
5699.998762800888
 21
4164.999241184543
 31
0.0
  0
TEXT
  5
12D
330
1F
100
AcDbEntity
  8
0-A_文字
  6
Continuous
 62
     7
370
     9
100
AcDbText
 10
-5487.499990205507
 20
3709.419983504013
 30
0.0
 40
91.44
  1
プラン　０３
 41
1.104166666666667
  7
ＭＳ ゴシック
100
AcDbText
  0
LINE
  5
12E
330
1F
100
AcDbEntity
  8
1-3_扉仕上
  6
Continuous
 62
     7
370
     9
100
AcDbLine
 10
-4489.795864541982
 20
-219.7939640316596
 30
0.0
 11
-4474.795864541982
 21
-219.7939640316596
 31
0.0
  0
LINE
  5
12F
330
1F
100
AcDbEntity
  8
1-3_扉仕上
  6
Continuous
 62
     7
370
     9
100
AcDbLine
 10
-4474.795864541982
 20
-219.7939640316596
 30
0.0
 11
-4474.795864541982
 21
-69.79396403165964
 31
0.0
  0
LINE
  5
130
330
1F
100
AcDbEntity
  8
1-3_扉仕上
  6
Continuous
 62
     7
370
     9
100
AcDbLine
 10
-4474.795864541982
 20
-69.79396403165964
 30
0.0
 11
-4489.795864541982
 21
-69.79396403165964
 31
0.0
  0
LINE
  5
131
330
1F
100
AcDbEntity
  8
1-3_扉仕上
  6
Continuous
 62
     7
370
     9
100
AcDbLine
 10
-4489.795864541982
 20
-69.79396403165964
 30
0.0
 11
-4489.795864541982
 21
-219.7939640316596
 31
0.0
  0
LINE
  5
132
330
1F
100
AcDbEntity
  8
1-3_扉仕上
  6
Continuous
 62
     7
370
     9
100
AcDbLine
 10
-4570.795864541984
 20
-219.7939640316596
 30
0.0
 11
-4555.795864541984
 21
-219.7939640316596
 31
0.0
  0
LINE
  5
133
330
1F
100
AcDbEntity
  8
1-3_扉仕上
  6
Continuous
 62
     7
370
     9
100
AcDbLine
 10
-4555.795864541984
 20
-219.7939640316596
 30
0.0
 11
-4555.795864541984
 21
-69.79396403165964
 31
0.0
  0
LINE
  5
134
330
1F
100
AcDbEntity
  8
1-3_扉仕上
  6
Continuous
 62
     7
370
     9
100
AcDbLine
 10
-4555.795864541984
 20
-69.79396403165964
 30
0.0
 11
-4570.795864541984
 21
-69.79396403165964
 31
0.0
  0
LINE
  5
135
330
1F
100
AcDbEntity
  8
1-3_扉仕上
  6
Continuous
 62
     7
370
     9
100
AcDbLine
 10
-4570.795864541984
 20
-69.79396403165964
 30
0.0
 11
-4570.795864541984
 21
-219.7939640316596
 31
0.0
  0
LINE
  5
136
330
1F
100
AcDbEntity
  8
0-7__
  6
Continuous
 62
     7
370
     9
100
AcDbLine
 10
-2542.796724218621
 20
-135.793964031661
 30
0.0
 11
-2392.796724218621
 21
-135.793964031661
 31
0.0
  0
LINE
  5
137
330
1F
100
AcDbEntity
  8
0-7__
  6
Continuous
 62
     7
370
     9
100
AcDbLine
 10
-2392.796724218621
 20
-135.793964031661
 30
0.0
 11
-2392.796724218621
 21
-120.793964031661
 31
0.0
  0
LINE
  5
138
330
1F
100
AcDbEntity
  8
0-7__
  6
Continuous
 62
     7
370
     9
100
AcDbLine
 10
-2392.796724218621
 20
-120.793964031661
 30
0.0
 11
-2542.796724218621
 21
-120.793964031661
 31
0.0
  0
LINE
  5
139
330
1F
100
AcDbEntity
  8
0-7__
  6
Continuous
 62
     7
370
     9
100
AcDbLine
 10
-2542.796724218621
 20
-120.793964031661
 30
0.0
 11
-2542.796724218621
 21
-135.793964031661
 31
0.0
  0
LINE
  5
13A
330
1F
100
AcDbEntity
  8
0-7__
  6
Continuous
 62
     7
370
     9
100
AcDbLine
 10
-2542.796724218621
 20
-347.2939640316622
 30
0.0
 11
-2392.796724218621
 21
-347.2939640316622
 31
0.0
  0
LINE
  5
13B
330
1F
100
AcDbEntity
  8
0-7__
  6
Continuous
 62
     7
370
     9
100
AcDbLine
 10
-2392.796724218621
 20
-347.2939640316622
 30
0.0
 11
-2392.796724218621
 21
-332.2939640316622
 31
0.0
  0
LINE
  5
13C
330
1F
100
AcDbEntity
  8
0-7__
  6
Continuous
 62
     7
370
     9
100
AcDbLine
 10
-2392.796724218621
 20
-332.2939640316622
 30
0.0
 11
-2542.796724218621
 21
-332.2939640316622
 31
0.0
  0
LINE
  5
13D
330
1F
100
AcDbEntity
  8
0-7__
  6
Continuous
 62
     7
370
     9
100
AcDbLine
 10
-2542.796724218621
 20
-332.2939640316622
 30
0.0
 11
-2542.796724218621
 21
-347.2939640316622
 31
0.0
  0
LINE
  5
13E
330
1F
100
AcDbEntity
  8
0-7__
  6
Continuous
 62
     7
370
     9
100
AcDbLine
 10
-2542.796724218621
 20
-558.7939640316617
 30
0.0
 11
-2392.796724218621
 21
-558.7939640316617
 31
0.0
  0
LINE
  5
13F
330
1F
100
AcDbEntity
  8
0-7__
  6
Continuous
 62
     7
370
     9
100
AcDbLine
 10
-2392.796724218621
 20
-558.7939640316617
 30
0.0
 11
-2392.796724218621
 21
-543.7939640316617
 31
0.0
  0
LINE
  5
140
330
1F
100
AcDbEntity
  8
0-7__
  6
Continuous
 62
     7
370
     9
100
AcDbLine
 10
-2392.796724218621
 20
-543.7939640316617
 30
0.0
 11
-2542.796724218621
 21
-543.7939640316617
 31
0.0
  0
LINE
  5
141
330
1F
100
AcDbEntity
  8
0-7__
  6
Continuous
 62
     7
370
     9
100
AcDbLine
 10
-2542.796724218621
 20
-543.7939640316617
 30
0.0
 11
-2542.796724218621
 21
-558.7939640316617
 31
0.0
  0
LINE
  5
142
330
1F
100
AcDbEntity
  8
0-7__
  6
Continuous
 62
     7
370
     9
100
AcDbLine
 10
-2542.796724218621
 20
-770.293964031662
 30
0.0
 11
-2392.796724218621
 21
-770.293964031662
 31
0.0
  0
LINE
  5
143
330
1F
100
AcDbEntity
  8
0-7__
  6
Continuous
 62
     7
370
     9
100
AcDbLine
 10
-2392.796724218621
 20
-770.293964031662
 30
0.0
 11
-2392.796724218621
 21
-755.293964031662
 31
0.0
  0
LINE
  5
144
330
1F
100
AcDbEntity
  8
0-7__
  6
Continuous
 62
     7
370
     9
100
AcDbLine
 10
-2392.796724218621
 20
-755.293964031662
 30
0.0
 11
-2542.796724218621
 21
-755.293964031662
 31
0.0
  0
LINE
  5
145
330
1F
100
AcDbEntity
  8
0-7__
  6
Continuous
 62
     7
370
     9
100
AcDbLine
 10
-2542.796724218621
 20
-755.293964031662
 30
0.0
 11
-2542.796724218621
 21
-770.293964031662
 31
0.0
  0
LINE
  5
146
330
1F
100
AcDbEntity
  8
0-B_寸法
  6
Continuous
 62
   120
370
     5
100
AcDbLine
 10
2263.796015657015
 20
-20.29396403166118
 30
0.0
 11
2263.796015657015
 21
-43.54396403166049
 31
0.0
  0
LWPOLYLINE
  5
147
330
1F
100
AcDbEntity
  8
0-B_寸法
  6
Continuous
 62
     7
370
     9
100
AcDbPolyline
 90
        4
 70
     1
 43
3.0
 10
2265.296015657015
 20
-20.29396403166118
 42
0.4142135623731
 10
2263.796015657015
 20
-18.79396403166118
 42
0.4142135623731
 10
2262.296015657015
 20
-20.29396403166118
 42
0.4142135623731
 10
2263.796015657015
 20
-21.79396403166118
 42
0.4142135623731
  0
LWPOLYLINE
  5
148
330
1F
100
AcDbEntity
  8
0-B_寸法
  6
Continuous
 62
     7
370
     9
100
AcDbPolyline
 90
        4
 70
     1
 43
3.0
 10
2265.296015657015
 20
-43.54396403166049
 42
0.4142135623731
 10
2263.796015657015
 20
-42.04396403166049
 42
0.4142135623731
 10
2262.296015657015
 20
-43.54396403166049
 42
0.4142135623731
 10
2263.796015657015
 20
-45.04396403166049
 42
0.4142135623731
  0
LINE
  5
149
330
1F
100
AcDbEntity
  8
0-B_寸法
  6
Continuous
 62
   120
370
     5
100
AcDbLine
 10
2263.796015657015
 20
-20.29396403166118
 30
0.0
 11
2113.796015657015
 21
-20.29396403166118
 31
0.0
  0
LINE
  5
14A
330
1F
100
AcDbEntity
  8
0-B_寸法
  6
Continuous
 62
   120
370
     5
100
AcDbLine
 10
2263.796015657015
 20
-43.54396403166049
 30
0.0
 11
2113.796015657015
 21
-43.54396403166049
 31
0.0
  0
LINE
  5
14B
330
1F
100
AcDbEntity
  8
0-B_寸法
  6
Continuous
 62
   120
370
     5
100
AcDbLine
 10
2263.796015657015
 20
-43.54396403166049
 30
0.0
 11
2263.796015657015
 21
-843.0439640316603
 31
0.0
  0
LWPOLYLINE
  5
14C
330
1F
100
AcDbEntity
  8
0-B_寸法
  6
Continuous
 62
     7
370
     9
100
AcDbPolyline
 90
        4
 70
     1
 43
3.0
 10
2265.296015657015
 20
-843.0439640316603
 42
0.4142135623731
 10
2263.796015657015
 20
-841.5439640316603
 42
0.4142135623731
 10
2262.296015657015
 20
-843.0439640316603
 42
0.4142135623731
 10
2263.796015657015
 20
-844.5439640316603
 42
0.4142135623731
  0
LINE
  5
14D
330
1F
100
AcDbEntity
  8
0-B_寸法
  6
Continuous
 62
   120
370
     5
100
AcDbLine
 10
2263.796015657015
 20
-843.0439640316603
 30
0.0
 11
2113.796015657015
 21
-843.0439640316603
 31
0.0
  0
LINE
  5
14E
330
1F
100
AcDbEntity
  8
0-B_寸法
  6
Continuous
 62
   120
370
     5
100
AcDbLine
 10
2263.796015657015
 20
-843.0439640316603
 30
0.0
 11
2263.796015657015
 21
-866.2939640316596
 31
0.0
  0
LWPOLYLINE
  5
14F
330
1F
100
AcDbEntity
  8
0-B_寸法
  6
Continuous
 62
     7
370
     9
100
AcDbPolyline
 90
        4
 70
     1
 43
3.0
 10
2265.296015657015
 20
-866.2939640316596
 42
0.4142135623731
 10
2263.796015657015
 20
-864.7939640316596
 42
0.4142135623731
 10
2262.296015657015
 20
-866.2939640316596
 42
0.4142135623731
 10
2263.796015657015
 20
-867.7939640316596
 42
0.4142135623731
  0
LINE
  5
150
330
1F
100
AcDbEntity
  8
0-B_寸法
  6
Continuous
 62
   120
370
     5
100
AcDbLine
 10
2263.796015657015
 20
-866.2939640316596
 30
0.0
 11
2113.796015657015
 21
-866.2939640316596
 31
0.0
  0
LINE
  5
151
330
1F
100
AcDbEntity
  8
0-B_寸法
  6
Continuous
 62
   120
370
     5
100
AcDbLine
 10
2263.796015657015
 20
-866.2939640316596
 30
0.0
 11
2263.796015657015
 21
-1016.29396403166
 31
0.0
  0
LWPOLYLINE
  5
152
330
1F
100
AcDbEntity
  8
0-B_寸法
  6
Continuous
 62
     7
370
     9
100
AcDbPolyline
 90
        4
 70
     1
 43
3.0
 10
2265.296015657015
 20
-1016.29396403166
 42
0.4142135623731
 10
2263.796015657015
 20
-1014.79396403166
 42
0.4142135623731
 10
2262.296015657015
 20
-1016.29396403166
 42
0.4142135623731
 10
2263.796015657015
 20
-1017.793964031659
 42
0.4142135623731
  0
LINE
  5
153
330
1F
100
AcDbEntity
  8
0-B_寸法
  6
Continuous
 62
   120
370
     5
100
AcDbLine
 10
2263.796015657015
 20
-1016.29396403166
 30
0.0
 11
2113.796015657015
 21
-1016.29396403166
 31
0.0
  0
TEXT
  5
154
330
1F
100
AcDbEntity
  8
0-B_寸法
  6
Continuous
 62
     7
370
   211
100
AcDbText
 10
2356.106015657015
 20
-133.4747158887896
 30
0.0
 40
68.58
  1
15.5
 50
90.0
 41
1.125
  7
ＭＳ ゴシック
100
AcDbText
  0
TEXT
  5
155
330
1F
100
AcDbEntity
  8
0-B_寸法
  6
Continuous
 62
     7
370
   211
100
AcDbText
 10
2236.106015657015
 20
-518.2939640316602
 30
0.0
 40
68.58
  1
533
 50
90.0
 41
1.111111111111111
  7
ＭＳ ゴシック
100
AcDbText
  0
TEXT
  5
156
330
1F
100
AcDbEntity
  8
0-B_寸法
  6
Continuous
 62
     7
370
   211
100
AcDbText
 10
2356.106015657015
 20
-956.2247158887895
 30
0.0
 40
68.58
  1
15.5
 50
90.0
 41
1.125
  7
ＭＳ ゴシック
100
AcDbText
  0
TEXT
  5
157
330
1F
100
AcDbEntity
  8
0-B_寸法
  6
Continuous
 62
     7
370
   211
100
AcDbText
 10
2236.106015657015
 20
-1023.568952136872
 30
0.0
 40
68.58
  1
100
 50
90.0
 41
1.111111111111111
  7
ＭＳ ゴシック
100
AcDbText
  0
LINE
  5
158
330
1F
100
AcDbEntity
  8
0-B_寸法
  6
Continuous
 62
   120
370
     5
100
AcDbLine
 10
-1927.796724218621
 20
-1016.29396403166
 30
0.0
 11
-2077.79672421862
 21
-1016.29396403166
 31
0.0
  0
LINE
  5
159
330
1F
100
AcDbEntity
  8
0-B_寸法
  6
Continuous
 62
   120
370
     5
100
AcDbLine
 10
-1927.796724218621
 20
-866.2939640316596
 30
0.0
 11
-2077.79672421862
 21
-866.2939640316596
 31
0.0
  0
LINE
  5
15A
330
1F
100
AcDbEntity
  8
0-B_寸法
  6
Continuous
 62
   120
370
     5
100
AcDbLine
 10
-1927.796724218621
 20
-659.2939640316611
 30
0.0
 11
-2077.79672421862
 21
-659.2939640316611
 31
0.0
  0
LINE
  5
15B
330
1F
100
AcDbEntity
  8
0-B_寸法
  6
Continuous
 62
   120
370
     5
100
AcDbLine
 10
-1927.796724218621
 20
-654.7939640316597
 30
0.0
 11
-2077.79672421862
 21
-654.7939640316597
 31
0.0
  0
LINE
  5
15C
330
1F
100
AcDbEntity
  8
0-B_寸法
  6
Continuous
 62
   120
370
     5
100
AcDbLine
 10
-1927.796724218621
 20
-447.7939640316603
 30
0.0
 11
-2077.79672421862
 21
-447.7939640316603
 31
0.0
  0
LINE
  5
15D
330
1F
100
AcDbEntity
  8
0-B_寸法
  6
Continuous
 62
   120
370
     5
100
AcDbLine
 10
-1927.796724218621
 20
-443.2939640316597
 30
0.0
 11
-2077.79672421862
 21
-443.2939640316597
 31
0.0
  0
LINE
  5
15E
330
1F
100
AcDbEntity
  8
0-B_寸法
  6
Continuous
 62
   120
370
     5
100
AcDbLine
 10
-1927.796724218621
 20
-236.2939640316608
 30
0.0
 11
-2077.79672421862
 21
-236.2939640316608
 31
0.0
  0
LINE
  5
15F
330
1F
100
AcDbEntity
  8
0-B_寸法
  6
Continuous
 62
   120
370
     5
100
AcDbLine
 10
-1927.796724218621
 20
-231.7939640316607
 30
0.0
 11
-2077.79672421862
 21
-231.7939640316607
 31
0.0
  0
LINE
  5
160
330
1F
100
AcDbEntity
  8
0-B_寸法
  6
Continuous
 62
   120
370
     5
100
AcDbLine
 10
-1927.796724218621
 20
-24.79396403166049
 30
0.0
 11
-2077.79672421862
 21
-24.79396403166049
 31
0.0
  0
LINE
  5
161
330
1F
100
AcDbEntity
  8
0-B_寸法
  6
Continuous
 62
   120
370
     5
100
AcDbLine
 10
-1927.796724218621
 20
-20.29396403166118
 30
0.0
 11
-2077.79672421862
 21
-20.29396403166118
 31
0.0
  0
LINE
  5
162
330
1F
100
AcDbEntity
  8
0-B_寸法
  6
Continuous
 62
   120
370
     5
100
AcDbLine
 10
-1927.796724218621
 20
-1016.29396403166
 30
0.0
 11
-1927.796724218621
 21
-866.2939640316596
 31
0.0
  0
LWPOLYLINE
  5
163
330
1F
100
AcDbEntity
  8
0-B_寸法
  6
Continuous
 62
     7
370
     9
100
AcDbPolyline
 90
        4
 70
     1
 43
3.0
 10
-1926.296724218621
 20
-1016.29396403166
 42
0.4142135623731
 10
-1927.796724218621
 20
-1014.79396403166
 42
0.4142135623731
 10
-1929.296724218621
 20
-1016.29396403166
 42
0.4142135623731
 10
-1927.796724218621
 20
-1017.793964031659
 42
0.4142135623731
  0
LWPOLYLINE
  5
164
330
1F
100
AcDbEntity
  8
0-B_寸法
  6
Continuous
 62
     7
370
     9
100
AcDbPolyline
 90
        4
 70
     1
 43
3.0
 10
-1926.296724218621
 20
-866.2939640316596
 42
0.4142135623731
 10
-1927.796724218621
 20
-864.7939640316596
 42
0.4142135623731
 10
-1929.296724218621
 20
-866.2939640316596
 42
0.4142135623731
 10
-1927.796724218621
 20
-867.7939640316596
 42
0.4142135623731
  0
TEXT
  5
165
330
1F
100
AcDbEntity
  8
0-B_寸法
  6
Continuous
 62
     7
370
   211
100
AcDbText
 10
-1955.486724218621
 20
-1016.29396403166
 30
0.0
 40
68.58
  1
100
 50
90.0
 41
1.111111111111111
  7
ＭＳ ゴシック
100
AcDbText
  0
LINE
  5
166
330
1F
100
AcDbEntity
  8
0-B_寸法
  6
Continuous
 62
   120
370
     5
100
AcDbLine
 10
-1927.796724218621
 20
-866.2939640316596
 30
0.0
 11
-1927.796724218621
 21
-659.2939640316611
 31
0.0
  0
LWPOLYLINE
  5
167
330
1F
100
AcDbEntity
  8
0-B_寸法
  6
Continuous
 62
     7
370
     9
100
AcDbPolyline
 90
        4
 70
     1
 43
3.0
 10
-1926.296724218621
 20
-659.2939640316611
 42
0.4142135623731
 10
-1927.796724218621
 20
-657.7939640316611
 42
0.4142135623731
 10
-1929.296724218621
 20
-659.2939640316611
 42
0.4142135623731
 10
-1927.796724218621
 20
-660.7939640316611
 42
0.4142135623731
  0
TEXT
  5
168
330
1F
100
AcDbEntity
  8
0-B_寸法
  6
Continuous
 62
     7
370
   211
100
AcDbText
 10
-1955.486724218621
 20
-837.7939640316604
 30
0.0
 40
68.58
  1
138
 50
90.0
 41
1.111111111111111
  7
ＭＳ ゴシック
100
AcDbText
  0
LINE
  5
169
330
1F
100
AcDbEntity
  8
0-B_寸法
  6
Continuous
 62
   120
370
     5
100
AcDbLine
 10
-1927.796724218621
 20
-659.2939640316611
 30
0.0
 11
-1927.796724218621
 21
-654.7939640316597
 31
0.0
  0
LWPOLYLINE
  5
16A
330
1F
100
AcDbEntity
  8
0-B_寸法
  6
Continuous
 62
     7
370
     9
100
AcDbPolyline
 90
        4
 70
     1
 43
3.0
 10
-1926.296724218621
 20
-654.7939640316597
 42
0.4142135623731
 10
-1927.796724218621
 20
-653.2939640316596
 42
0.4142135623731
 10
-1929.296724218621
 20
-654.7939640316597
 42
0.4142135623731
 10
-1927.796724218621
 20
-656.2939640316597
 42
0.4142135623731
  0
LINE
  5
16B
330
1F
100
AcDbEntity
  8
0-B_寸法
  6
Continuous
 62
   120
370
     5
100
AcDbLine
 10
-1927.796724218621
 20
-654.7939640316597
 30
0.0
 11
-1927.796724218621
 21
-447.7939640316603
 31
0.0
  0
LWPOLYLINE
  5
16C
330
1F
100
AcDbEntity
  8
0-B_寸法
  6
Continuous
 62
     7
370
     9
100
AcDbPolyline
 90
        4
 70
     1
 43
3.0
 10
-1926.296724218621
 20
-447.7939640316603
 42
0.4142135623731
 10
-1927.796724218621
 20
-446.2939640316603
 42
0.4142135623731
 10
-1929.296724218621
 20
-447.7939640316603
 42
0.4142135623731
 10
-1927.796724218621
 20
-449.2939640316603
 42
0.4142135623731
  0
TEXT
  5
16D
330
1F
100
AcDbEntity
  8
0-B_寸法
  6
Continuous
 62
     7
370
   211
100
AcDbText
 10
-1955.486724218621
 20
-626.2939640316604
 30
0.0
 40
68.58
  1
138
 50
90.0
 41
1.111111111111111
  7
ＭＳ ゴシック
100
AcDbText
  0
LINE
  5
16E
330
1F
100
AcDbEntity
  8
0-B_寸法
  6
Continuous
 62
   120
370
     5
100
AcDbLine
 10
-1927.796724218621
 20
-447.7939640316603
 30
0.0
 11
-1927.796724218621
 21
-443.2939640316597
 31
0.0
  0
LWPOLYLINE
  5
16F
330
1F
100
AcDbEntity
  8
0-B_寸法
  6
Continuous
 62
     7
370
     9
100
AcDbPolyline
 90
        4
 70
     1
 43
3.0
 10
-1926.296724218621
 20
-443.2939640316597
 42
0.4142135623731
 10
-1927.796724218621
 20
-441.7939640316597
 42
0.4142135623731
 10
-1929.296724218621
 20
-443.2939640316597
 42
0.4142135623731
 10
-1927.796724218621
 20
-444.7939640316598
 42
0.4142135623731
  0
LINE
  5
170
330
1F
100
AcDbEntity
  8
0-B_寸法
  6
Continuous
 62
   120
370
     5
100
AcDbLine
 10
-1927.796724218621
 20
-443.2939640316597
 30
0.0
 11
-1927.796724218621
 21
-236.2939640316608
 31
0.0
  0
LWPOLYLINE
  5
171
330
1F
100
AcDbEntity
  8
0-B_寸法
  6
Continuous
 62
     7
370
     9
100
AcDbPolyline
 90
        4
 70
     1
 43
3.0
 10
-1926.296724218621
 20
-236.2939640316608
 42
0.4142135623731
 10
-1927.796724218621
 20
-234.7939640316608
 42
0.4142135623731
 10
-1929.296724218621
 20
-236.2939640316608
 42
0.4142135623731
 10
-1927.796724218621
 20
-237.7939640316608
 42
0.4142135623731
  0
TEXT
  5
172
330
1F
100
AcDbEntity
  8
0-B_寸法
  6
Continuous
 62
     7
370
   211
100
AcDbText
 10
-1955.486724218621
 20
-414.7939640316532
 30
0.0
 40
68.58
  1
138
 50
90.0
 41
1.111111111111007
  7
ＭＳ ゴシック
100
AcDbText
  0
LINE
  5
173
330
1F
100
AcDbEntity
  8
0-B_寸法
  6
Continuous
 62
   120
370
     5
100
AcDbLine
 10
-1927.796724218621
 20
-236.2939640316608
 30
0.0
 11
-1927.796724218621
 21
-231.7939640316607
 31
0.0
  0
LWPOLYLINE
  5
174
330
1F
100
AcDbEntity
  8
0-B_寸法
  6
Continuous
 62
     7
370
     9
100
AcDbPolyline
 90
        4
 70
     1
 43
3.0
 10
-1926.296724218621
 20
-231.7939640316607
 42
0.4142135623731
 10
-1927.796724218621
 20
-230.2939640316607
 42
0.4142135623731
 10
-1929.296724218621
 20
-231.7939640316607
 42
0.4142135623731
 10
-1927.796724218621
 20
-233.2939640316607
 42
0.4142135623731
  0
LINE
  5
175
330
1F
100
AcDbEntity
  8
0-B_寸法
  6
Continuous
 62
   120
370
     5
100
AcDbLine
 10
-1927.796724218621
 20
-231.7939640316607
 30
0.0
 11
-1927.796724218621
 21
-24.79396403166049
 31
0.0
  0
LWPOLYLINE
  5
176
330
1F
100
AcDbEntity
  8
0-B_寸法
  6
Continuous
 62
     7
370
     9
100
AcDbPolyline
 90
        4
 70
     1
 43
3.0
 10
-1926.296724218621
 20
-24.79396403166049
 42
0.4142135623731
 10
-1927.796724218621
 20
-23.29396403166049
 42
0.4142135623731
 10
-1929.296724218621
 20
-24.79396403166049
 42
0.4142135623731
 10
-1927.796724218621
 20
-26.29396403166049
 42
0.4142135623731
  0
TEXT
  5
177
330
1F
100
AcDbEntity
  8
0-B_寸法
  6
Continuous
 62
     7
370
   211
100
AcDbText
 10
-1955.486724218621
 20
-203.293964031661
 30
0.0
 40
68.58
  1
138
 50
90.0
 41
1.111111111111111
  7
ＭＳ ゴシック
100
AcDbText
  0
LINE
  5
178
330
1F
100
AcDbEntity
  8
0-B_寸法
  6
Continuous
 62
   120
370
     5
100
AcDbLine
 10
-1927.796724218621
 20
-24.79396403166049
 30
0.0
 11
-1927.796724218621
 21
-20.29396403166118
 31
0.0
  0
LWPOLYLINE
  5
179
330
1F
100
AcDbEntity
  8
0-B_寸法
  6
Continuous
 62
     7
370
     9
100
AcDbPolyline
 90
        4
 70
     1
 43
3.0
 10
-1926.296724218621
 20
-20.29396403166118
 42
0.4142135623731
 10
-1927.796724218621
 20
-18.79396403166118
 42
0.4142135623731
 10
-1929.296724218621
 20
-20.29396403166118
 42
0.4142135623731
 10
-1927.796724218621
 20
-21.79396403166118
 42
0.4142135623731
  0
TEXT
  5
17A
330
1F
100
AcDbEntity
  8
0-B_寸法
  6
Continuous
 62
     7
370
   211
100
AcDbText
 10
-1852.341785741596
 20
-17.29396403166049
 30
0.0
 40
68.58
  1
3
 50
90.0
  7
ＭＳ ゴシック
100
AcDbText
  0
TEXT
  5
17B
330
1F
100
AcDbEntity
  8
0-B_寸法
  6
Continuous
 62
     7
370
   211
100
AcDbText
 10
-1852.341785741596
 20
-228.7939640316608
 30
0.0
 40
68.58
  1
3
 50
90.0
  7
ＭＳ ゴシック
100
AcDbText
  0
TEXT
  5
17C
330
1F
100
AcDbEntity
  8
0-B_寸法
  6
Continuous
 62
     7
370
   211
100
AcDbText
 10
-1852.341785741596
 20
-440.2939640316603
 30
0.0
 40
68.58
  1
3
 50
90.0
  7
ＭＳ ゴシック
100
AcDbText
  0
TEXT
  5
17D
330
1F
100
AcDbEntity
  8
0-B_寸法
  6
Continuous
 62
     7
370
   211
100
AcDbText
 10
-1852.341785741596
 20
-651.7939640316606
 30
0.0
 40
68.58
  1
3
 50
90.0
  7
ＭＳ ゴシック
100
AcDbText
  0
TEXT
  5
17E
330
1F
100
AcDbEntity
  8
0-A_文字
  6
Continuous
 62
     7
370
     9
100
AcDbText
 10
-1882.796724218621
 20
-988.6039640316595
 30
0.0
 40
68.58
  1
▽ＦＬ
 41
1.111111111111111
  7
ＭＳ ゴシック
100
AcDbText
  0
TEXT
  5
17F
330
1F
100
AcDbEntity
  8
0-B_寸法
  6
Continuous
 62
     7
370
   211
100
AcDbText
 10
2055.392157270558
 20
-1213.603964031659
 30
0.0
 40
68.58
  1
15.5
 41
1.125
  7
ＭＳ ゴシック
100
AcDbText
  0
LINE
  5
180
330
1F
100
AcDbEntity
  8
0-B_寸法
  6
Continuous
 62
   120
370
     5
100
AcDbLine
 10
-5347.796724218621
 20
-1016.29396403166
 30
0.0
 11
-5347.796724218621
 21
-20.29396403165947
 31
0.0
  0
LWPOLYLINE
  5
181
330
1F
100
AcDbEntity
  8
0-B_寸法
  6
Continuous
 62
     7
370
     9
100
AcDbPolyline
 90
        4
 70
     1
 43
3.0
 10
-5346.296724218621
 20
-1016.29396403166
 42
0.4142135623731
 10
-5347.796724218621
 20
-1014.79396403166
 42
0.4142135623731
 10
-5349.296724218621
 20
-1016.29396403166
 42
0.4142135623731
 10
-5347.796724218621
 20
-1017.793964031659
 42
0.4142135623731
  0
LWPOLYLINE
  5
182
330
1F
100
AcDbEntity
  8
0-B_寸法
  6
Continuous
 62
     7
370
     9
100
AcDbPolyline
 90
        4
 70
     1
 43
3.0
 10
-5346.296724218621
 20
-20.29396403165947
 42
0.4142135623731
 10
-5347.796724218621
 20
-18.79396403165947
 42
0.4142135623731
 10
-5349.296724218621
 20
-20.29396403165947
 42
0.4142135623731
 10
-5347.796724218621
 20
-21.79396403165947
 42
0.4142135623731
  0
LINE
  5
183
330
1F
100
AcDbEntity
  8
0-B_寸法
  6
Continuous
 62
   120
370
     5
100
AcDbLine
 10
-5497.796724218621
 20
-1016.29396403166
 30
0.0
 11
-5197.796724218621
 21
-1016.29396403166
 31
0.0
  0
LINE
  5
184
330
1F
100
AcDbEntity
  8
0-B_寸法
  6
Continuous
 62
   120
370
     5
100
AcDbLine
 10
-5347.796724218621
 20
-20.29396403165947
 30
0.0
 11
-5197.796724218621
 21
-20.29396403165947
 31
0.0
  0
TEXT
  5
185
330
1F
100
AcDbEntity
  8
0-B_寸法
  6
Continuous
 62
     7
370
   211
100
AcDbText
 10
-5375.486724218621
 20
-593.2939640316597
 30
0.0
 40
68.58
  1
664
 50
90.0
 41
1.111111111111111
  7
ＭＳ ゴシック
100
AcDbText
  0
LINE
  5
186
330
1F
100
AcDbEntity
  8
0-B_寸法
  6
Continuous
 62
   120
370
     5
100
AcDbLine
 10
-1186.203984342984
 20
-20.29396403165947
 30
0.0
 11
-1186.203984342984
 21
-866.2932859581753
 31
0.0
  0
LWPOLYLINE
  5
187
330
1F
100
AcDbEntity
  8
0-B_寸法
  6
Continuous
 62
     7
370
     9
100
AcDbPolyline
 90
        4
 70
     1
 43
3.0
 10
-1184.703984342985
 20
-20.29396403165947
 42
0.4142135623731
 10
-1186.203984342984
 20
-18.79396403165947
 42
0.4142135623731
 10
-1187.703984342984
 20
-20.29396403165947
 42
0.4142135623731
 10
-1186.203984342984
 20
-21.79396403165947
 42
0.4142135623731
  0
LWPOLYLINE
  5
188
330
1F
100
AcDbEntity
  8
0-B_寸法
  6
Continuous
 62
     7
370
     9
100
AcDbPolyline
 90
        4
 70
     1
 43
3.0
 10
-1184.703984342985
 20
-866.2932859581753
 42
0.4142135623731
 10
-1186.203984342984
 20
-864.7932859581753
 42
0.4142135623731
 10
-1187.703984342984
 20
-866.2932859581753
 42
0.4142135623731
 10
-1186.203984342984
 20
-867.7932859581753
 42
0.4142135623731
  0
LINE
  5
189
330
1F
100
AcDbEntity
  8
0-B_寸法
  6
Continuous
 62
   120
370
     5
100
AcDbLine
 10
-1186.203984342984
 20
-20.29396403165947
 30
0.0
 11
-1036.203984342984
 21
-20.29396403165947
 31
0.0
  0
LINE
  5
18A
330
1F
100
AcDbEntity
  8
0-B_寸法
  6
Continuous
 62
   120
370
     5
100
AcDbLine
 10
-1186.203984342984
 20
-866.2932859581753
 30
0.0
 11
-1036.203984342984
 21
-866.2932859581753
 31
0.0
  0
TEXT
  5
18B
330
1F
100
AcDbEntity
  8
0-B_寸法
  6
Continuous
 62
     7
370
   211
100
AcDbText
 10
-1213.893984342984
 20
-518.293624994917
 30
0.0
 40
68.58
  1
564
 50
90.0
 41
1.111111111111111
  7
ＭＳ ゴシック
100
AcDbText
  0
LINE
  5
18C
330
1F
100
AcDbEntity
  8
0-B_寸法
  6
Continuous
 62
   120
370
     5
100
AcDbLine
 10
-1186.203984342984
 20
-866.2932859581753
 30
0.0
 11
-1186.203984342984
 21
-1016.29396403166
 31
0.0
  0
LWPOLYLINE
  5
18D
330
1F
100
AcDbEntity
  8
0-B_寸法
  6
Continuous
 62
     7
370
     9
100
AcDbPolyline
 90
        4
 70
     1
 43
3.0
 10
-1184.703984342985
 20
-1016.29396403166
 42
0.4142135623731
 10
-1186.203984342984
 20
-1014.79396403166
 42
0.4142135623731
 10
-1187.703984342984
 20
-1016.29396403166
 42
0.4142135623731
 10
-1186.203984342984
 20
-1017.793964031659
 42
0.4142135623731
  0
LINE
  5
18E
330
1F
100
AcDbEntity
  8
0-B_寸法
  6
Continuous
 62
   120
370
     5
100
AcDbLine
 10
-1186.203984342984
 20
-1016.29396403166
 30
0.0
 11
-1036.203984342984
 21
-1016.29396403166
 31
0.0
  0
TEXT
  5
18F
330
1F
100
AcDbEntity
  8
0-B_寸法
  6
Continuous
 62
     7
370
   211
100
AcDbText
 10
-1213.893984342984
 20
-1016.293624994918
 30
0.0
 40
68.58
  1
100
 50
90.0
 41
1.111111111111111
  7
ＭＳ ゴシック
100
AcDbText
  0
LWPOLYLINE
  5
190
330
1F
100
AcDbEntity
  8
0-B_寸法
  6
Continuous
 62
     7
370
     9
100
AcDbPolyline
 90
        4
 70
     1
 43
3.0
 10
-5496.296724218621
 20
-1016.29396403166
 42
0.4142135623731
 10
-5497.796724218621
 20
-1014.79396403166
 42
0.4142135623731
 10
-5499.296724218621
 20
-1016.29396403166
 42
0.4142135623731
 10
-5497.796724218621
 20
-1017.793964031659
 42
0.4142135623731
  0
LINE
  5
191
330
1F
100
AcDbEntity
  8
0-A_文字
  6
JWW_CENTER1
 62
     7
370
     9
100
AcDbLine
 10
-5152.79672421862
 20
-1016.29396403166
 30
0.0
 11
5002.796476778793
 21
-1016.29396403166
 31
0.0
  0
LINE
  5
192
330
1F
100
AcDbEntity
  8
0-0_補助線
  6
JWW_HOJO
 62
   120
370
     5
100
AcDbLine
 10
-5197.796724218621
 20
-1091.293964031659
 30
0.0
 11
-2077.79672421862
 21
-1091.293964031659
 31
0.0
  0
LINE
  5
193
330
1F
100
AcDbEntity
  8
0-0_補助線
  6
JWW_HOJO
 62
   120
370
     5
100
AcDbLine
 10
-1036.203984342987
 20
-1091.293964031659
 30
0.0
 11
2113.796015657015
 21
-1091.293964031659
 31
0.0
  0
LINE
  5
194
330
1F
100
AcDbEntity
  8
0-6_桟木
  6
Continuous
 62
    92
370
    13
100
AcDbLine
 10
-5152.79672421862
 20
-20.29396403165947
 30
0.0
 11
-2152.79672421862
 21
-20.29396403165947
 31
0.0
  0
LINE
  5
195
330
1F
100
AcDbEntity
  8
0-6_桟木
  6
Continuous
 62
    92
370
    13
100
AcDbLine
 10
-961.2039843429843
 20
-20.29396403165947
 30
0.0
 11
2038.796015657015
 21
-20.29396403165947
 31
0.0
  0
LINE
  5
196
330
1F
100
AcDbEntity
  8
F-1_枠
  6
Continuous
 62
   200
370
    20
100
AcDbLine
 10
5689.998977248734
 20
4174.999769056166
 30
0.0
 11
5689.998977248734
 21
-4195.000217025344
 31
0.0
  0
LINE
  5
197
330
1F
100
AcDbEntity
  8
F-0_補助線
  6
JWW_HOJO
 62
   120
370
     5
100
AcDbLine
 10
-6300.0
 20
-4455.0
 30
0.0
 11
-6300.0
 21
4424.999604096284
 31
0.0
  0
LINE
  5
198
330
1F
100
AcDbEntity
  8
F-0_補助線
  6
JWW_HOJO
 62
   120
370
     5
100
AcDbLine
 10
-6300.0
 20
4424.999604096284
 30
0.0
 11
5999.999010240709
 21
4424.999604096284
 31
0.0
  0
LINE
  5
199
330
1F
100
AcDbEntity
  8
F-0_補助線
  6
JWW_HOJO
 62
   120
370
     5
100
AcDbLine
 10
5999.999010240709
 20
4424.999604096284
 30
0.0
 11
5999.999010240709
 21
-4455.0
 31
0.0
  0
LINE
  5
19A
330
1F
100
AcDbEntity
  8
F-0_補助線
  6
JWW_HOJO
 62
   120
370
     5
100
AcDbLine
 10
5999.999010240709
 20
-4455.0
 30
0.0
 11
-6300.0
 21
-4455.0
 31
0.0
  0
LINE
  5
19B
330
1F
100
AcDbEntity
  8
F-1_枠
  6
Continuous
 62
   200
370
    20
100
AcDbLine
 10
-5999.999752560178
 20
4174.999769056166
 30
0.0
 11
5699.998762800888
 21
4174.999769056166
 31
0.0
  0
LINE
  5
19C
330
1F
100
AcDbEntity
  8
F-1_枠
  6
Continuous
 62
   200
370
    20
100
AcDbLine
 10
-5999.999752560178
 20
4164.999983504013
 30
0.0
 11
5699.998762800888
 21
4164.999983504013
 31
0.0
  0
LINE
  5
19D
330
1F
100
AcDbEntity
  8
F-1_枠
  6
Continuous
 62
   200
370
    20
100
AcDbLine
 10
-5999.999752560178
 20
4169.999505120355
 30
0.0
 11
5699.998762800888
 21
4169.999505120355
 31
0.0
  0
LINE
  5
19E
330
1F
100
AcDbEntity
  8
F-1_枠
  6
Continuous
 62
   200
370
    20
100
AcDbLine
 10
5694.998498865077
 20
4174.999769056166
 30
0.0
 11
5694.998498865077
 21
-4195.000217025344
 31
0.0
  0
LINE
  5
19F
330
1F
100
AcDbEntity
  8
F-1_枠
  6
Continuous
 62
   200
370
    20
100
AcDbLine
 10
5699.998762800888
 20
4174.999769056166
 30
0.0
 11
5699.998762800888
 21
-4195.000217025344
 31
0.0
  0
LINE
  5
1A0
330
1F
100
AcDbEntity
  8
F-1_枠
  6
Continuous
 62
   200
370
    20
100
AcDbLine
 10
-5999.99998453501
 20
4174.999769056166
 30
0.0
 11
-5999.99998453501
 21
-4195.000217025344
 31
0.0
  0
LINE
  5
1A1
330
1F
100
AcDbEntity
  8
F-1_枠
  6
Continuous
 62
   200
370
    20
100
AcDbLine
 10
-5994.999975771518
 20
4174.999769056166
 30
0.0
 11
-5994.999975771518
 21
-4195.000217025344
 31
0.0
  0
LINE
  5
1A2
330
1F
100
AcDbEntity
  8
F-1_枠
  6
Continuous
 62
   200
370
    20
100
AcDbLine
 10
-5989.999990205507
 20
4174.999769056166
 30
0.0
 11
-5989.999990205507
 21
-4195.000217025344
 31
0.0
  0
TEXT
  5
1A3
330
1F
100
AcDbEntity
  8
F-A_文字
  6
Continuous
 62
     7
370
     0
100
AcDbText
 10
-60.0001237199109
 20
-3861.539872937397
 30
0.0
 40
45.72
  1
図面名
  7
ＭＳ ゴシック
100
AcDbText
  0
TEXT
  5
1A4
330
1F
100
AcDbEntity
  8
F-A_文字
  6
Continuous
 62
     7
370
     0
100
AcDbText
 10
2779.998729808911
 20
-3861.542512683236
 30
0.0
 40
45.72
  1
ＳＣＡＬＥ
  7
ＭＳ ゴシック
100
AcDbText
  0
TEXT
  5
1A5
330
1F
100
AcDbEntity
  8
F-A_文字
  6
Continuous
 62
     7
370
     0
100
AcDbText
 10
4279.999224688556
 20
-3861.543906916216
 30
0.0
 40
45.72
  1
ＤＡＴＥ
  7
ＭＳ ゴシック
100
AcDbText
  0
TEXT
  5
1A6
330
1F
100
AcDbEntity
  8
F-A_文字
  6
Continuous
 62
     7
370
     0
100
AcDbText
 10
4778.749126529666
 20
-3909.814562205428
 30
0.0
 40
68.58
  1
07.06.01
 41
1.145833333333333
  7
ＭＳ ゴシック
100
AcDbText
  0
TEXT
  5
1A7
330
1F
100
AcDbEntity
  8
F-A_文字
  6
Continuous
 62
     7
370
     0
100
AcDbText
 10
1180.417701903719
 20
-3917.310213665301
 30
0.0
 40
68.58
  1
造り付け家具
 41
1.138888888888889
  7
ＭＳ ゴシック
100
AcDbText
  0
TEXT
  5
1A8
330
1F
100
AcDbEntity
  8
F-A_文字
  6
Continuous
 62
     7
370
     0
100
AcDbText
 10
3383.748977248734
 20
-3917.31316797277
 30
0.0
 40
68.58
  1
1/20
 41
1.125
  7
ＭＳ ゴシック
100
AcDbText
  0
TEXT
  5
1A9
330
1F
100
AcDbEntity
  8
F-A_文字
  6
Continuous
 62
     7
370
     0
100
AcDbText
 10
349.9999175200594
 20
-3918.097343937965
 30
0.0
 40
66.06
  1
ＳＯＦＴＡＲＴ
 41
0.8333333333333334
  7
HG明朝B
100
AcDbText
  0
LINE
  5
1AA
330
1F
100
AcDbEntity
  8
F-0_補助線
  6
JWW_HOJO
 62
     7
370
     9
100
AcDbLine
 10
849.9995876002961
 20
-3785.00005515846
 30
0.0
 11
849.9995876002961
 21
-4185.000060313456
 31
0.0
  0
LINE
  5
1AB
330
1F
100
AcDbEntity
  8
F-0_補助線
  6
JWW_HOJO
 62
     7
370
     9
100
AcDbLine
 10
349.9999175200594
 20
-3785.00005515846
 30
0.0
 11
349.9999175200594
 21
-4185.000060313456
 31
0.0
  0
LINE
  5
1AC
330
1F
100
AcDbEntity
  8
F-1_枠
  6
Continuous
 62
   200
370
    20
100
AcDbLine
 10
5699.998762800888
 20
-4195.00005464296
 30
0.0
 11
-5999.999752560178
 21
-4195.00005464296
 31
0.0
  0
LINE
  5
1AD
330
1F
100
AcDbEntity
  8
F-1_枠
  6
Continuous
 62
   200
370
    20
100
AcDbLine
 10
5699.998762800888
 20
-4190.000045879467
 30
0.0
 11
-5999.999752560178
 21
-4190.000045879467
 31
0.0
  0
LINE
  5
1AE
330
1F
100
AcDbEntity
  8
F-1_枠
  6
Continuous
 62
   200
370
    20
100
AcDbLine
 10
5699.998762800888
 20
-4185.000060313456
 30
0.0
 11
-5999.999752560178
 21
-4185.000060313456
 31
0.0
  0
LINE
  5
1AF
330
1F
100
AcDbEntity
  8
F-1_枠
  6
Continuous
 62
   200
370
    20
100
AcDbLine
 10
4189.999224688556
 20
-3785.00005515846
 30
0.0
 11
4189.999224688556
 21
-4185.000060313456
 31
0.0
  0
LINE
  5
1B0
330
1F
100
AcDbEntity
  8
F-1_枠
  6
Continuous
 62
   200
370
    20
100
AcDbLine
 10
2689.998729808911
 20
-3785.00005515846
 30
0.0
 11
2689.998729808911
 21
-4185.000060313456
 31
0.0
  0
LINE
  5
1B1
330
1F
100
AcDbEntity
  8
F-1_枠
  6
Continuous
 62
   200
370
    20
100
AcDbLine
 10
-150.0001237199109
 20
-3785.00005515846
 30
0.0
 11
-150.0001237199109
 21
-4185.000060313456
 31
0.0
  0
LINE
  5
1B2
330
1F
100
AcDbEntity
  8
F-1_枠
  6
Continuous
 62
   200
370
    20
100
AcDbLine
 10
-150.0001237199109
 20
-3984.999988143508
 30
0.0
 11
5689.998977248734
 21
-3985.005416354617
 31
0.0
  0
LINE
  5
1B3
330
1F
100
AcDbEntity
  8
F-0_補助線
  6
JWW_HOJO
 62
     7
370
     9
100
AcDbLine
 10
-5989.999990205507
 20
-3984.999988143853
 30
0.0
 11
-150.0001237199109
 21
-3984.999988143853
 31
0.0
  0
LINE
  5
1B4
330
1F
100
AcDbEntity
  8
F-0_補助線
  6
JWW_HOJO
 62
     7
370
     9
100
AcDbLine
 10
-5989.999990205507
 20
-3894.999988143853
 30
0.0
 11
-150.0001237199109
 21
-3894.999988143853
 31
0.0
  0
LINE
  5
1B5
330
1F
100
AcDbEntity
  8
F-0_補助線
  6
JWW_HOJO
 62
     7
370
     9
100
AcDbLine
 10
-5989.999990205507
 20
-4074.999988143853
 30
0.0
 11
-150.0001237199109
 21
-4074.999988143853
 31
0.0
  0
LINE
  5
1B6
330
1F
100
AcDbEntity
  8
F-0_補助線
  6
JWW_HOJO
 62
     7
370
     9
100
AcDbLine
 10
-150.0002584955388
 20
-4129.999791843446
 30
0.0
 11
5689.998842473105
 21
-4130.005220054553
 31
0.0
  0
LINE
  5
1B7
330
1F
100
AcDbEntity
  8
F-0_補助線
  6
JWW_HOJO
 62
     7
370
     9
100
AcDbLine
 10
-150.0001748415872
 20
-4039.999791843484
 30
0.0
 11
5689.998926127057
 21
-4040.005220054593
 31
0.0
  0
LINE
  5
1B8
330
1F
100
AcDbEntity
  8
F-0_補助線
  6
JWW_HOJO
 62
     7
370
     9
100
AcDbLine
 10
-150.0000725978671
 20
-3929.999789283532
 30
0.0
 11
5689.999028370777
 21
-3930.005217494641
 31
0.0
  0
LINE
  5
1B9
330
1F
100
AcDbEntity
  8
F-0_補助線
  6
JWW_HOJO
 62
     7
370
     9
100
AcDbLine
 10
-149.9999889439155
 20
-3839.999789283571
 30
0.0
 11
5689.999112024728
 21
-3840.00521749468
 31
0.0
  0
LINE
  5
1BA
330
1F
100
AcDbEntity
  8
F-0_補助線
  6
JWW_HOJO
 62
     7
370
     9
100
AcDbLine
 10
2779.998729808911
 20
-3785.00005515846
 30
0.0
 11
2779.998729808911
 21
-4185.000060313456
 31
0.0
  0
LINE
  5
1BB
330
1F
100
AcDbEntity
  8
F-0_補助線
  6
JWW_HOJO
 62
     7
370
     9
100
AcDbLine
 10
-60.0001237199109
 20
-3785.00005515846
 30
0.0
 11
-60.0001237199109
 21
-4185.000060313456
 31
0.0
  0
LINE
  5
1BC
330
1F
100
AcDbEntity
  8
F-0_補助線
  6
JWW_HOJO
 62
     7
370
     9
100
AcDbLine
 10
4279.999224688556
 20
-3785.00005515846
 30
0.0
 11
4279.999224688556
 21
-4185.000060313456
 31
0.0
  0
TEXT
  5
1BD
330
1F
100
AcDbEntity
  8
F-A_文字
  6
Continuous
 62
     7
370
     0
100
AcDbText
 10
2779.998729808911
 20
-4061.542515243322
 30
0.0
 40
45.72
  1
ＦＩＬＥ
  7
ＭＳ ゴシック
100
AcDbText
  0
TEXT
  5
1BE
330
1F
100
AcDbEntity
  8
F-A_文字
  6
Continuous
 62
     7
370
     0
100
AcDbText
 10
4279.999224688556
 20
-4061.543909476301
 30
0.0
 40
45.72
  1
ＮＯ．
  7
ＭＳ ゴシック
100
AcDbText
  0
TEXT
  5
1BF
330
1F
100
AcDbEntity
  8
F-A_文字
  6
Continuous
 62
     7
370
     0
100
AcDbText
 10
1234.998729808911
 20
-4070.54072133161
 30
0.0
 40
45.72
  1
株式
  7
ＭＳ ゴシック
100
AcDbText
  0
TEXT
  5
1C0
330
1F
100
AcDbEntity
  8
F-A_文字
  6
Continuous
 62
     7
370
     0
100
AcDbText
 10
1444.998729808911
 20
-4128.08243158939
 30
0.0
 40
91.44
  1
ウッドワン・・・
 41
1.109375
  7
ＭＳ ゴシック
100
AcDbText
  0
TEXT
  5
1C1
330
1F
100
AcDbEntity
  8
F-A_文字
  6
Continuous
 62
     7
370
     0
100
AcDbText
 10
1234.998729808911
 20
-4142.540721331648
 30
0.0
 40
45.72
  1
会社
  7
ＭＳ ゴシック
100
AcDbText
  0
TEXT
  5
1C2
330
1F
100
AcDbEntity
  8
F-A_文字
  6
Continuous
 62
     7
370
     0
100
AcDbText
 10
5608.403311109712
 20
-4281.441308703997
 30
0.0
 40
68.58
  1
）
  7
ＭＳ ゴシック
100
AcDbText
  0
LINE
  5
1C3
330
1F
100
AcDbEntity
  8
F-1_枠
  6
Continuous
 62
   200
370
    20
100
AcDbLine
 10
5699.998762800888
 20
-3785.00005515846
 30
0.0
 11
-5999.999752560178
 21
-3785.00005515846
 31
0.0
  0
LINE
  5
1C4
330
1F
100
AcDbEntity
  8
F-1_枠
  6
Continuous
 62
   200
370
    20
100
AcDbLine
 10
5699.998762800888
 20
-3780.00006959245
 30
0.0
 11
-5999.999752560178
 21
-3780.00006959245
 31
0.0
  0
LINE
  5
1C5
330
1F
100
AcDbEntity
  8
F-0_補助線
  6
JWW_HOJO
 62
     7
370
     9
100
AcDbLine
 10
-5247.547376752838
 20
-3785.000055158461
 30
0.0
 11
-5247.547376752838
 21
-4195.000217025344
 31
0.0
  0
LINE
  5
1C6
330
1F
100
AcDbEntity
  8
F-0_補助線
  6
JWW_HOJO
 62
     7
370
     9
100
AcDbLine
 10
-210.0001237199109
 20
-3785.00005515846
 30
0.0
 11
-210.0001237199109
 21
-4185.000060313456
 31
0.0
  0
TEXT
  5
1C7
330
1F
100
AcDbEntity
  8
F-A_文字
  6
Continuous
 62
     7
370
     0
100
AcDbText
 10
5190.195950842071
 20
-4282.835333552935
 30
0.0
 40
68.58
  1
,
  7
ＭＳ ゴシック
100
AcDbText
  0
TEXT
  5
1C8
330
1F
100
AcDbEntity
  8
F-A_文字
  6
Continuous
 62
     7
370
     0
100
AcDbText
 10
4923.937261915373
 20
-4284.22935697136
 30
0.0
 40
68.58
  1
$y
 41
1.083333333333333
  7
ＭＳ ゴシック
100
AcDbText
  0
TEXT
  5
1C9
330
1F
100
AcDbEntity
  8
F-A_文字
  6
Continuous
 62
     7
370
     0
100
AcDbText
 10
5078.673982954195
 20
-4284.22935697136
 30
0.0
 40
68.58
  1
$m
 41
1.083333333333333
  7
ＭＳ ゴシック
100
AcDbText
  0
TEXT
  5
1CA
330
1F
100
AcDbEntity
  8
F-A_文字
  6
Continuous
 62
     7
370
     0
100
AcDbText
 10
5233.410715437103
 20
-4284.22935697136
 30
0.0
 40
68.58
  1
$d
 41
1.083333333333333
  7
ＭＳ ゴシック
100
AcDbText
  0
TEXT
  5
1CB
330
1F
100
AcDbEntity
  8
F-A_文字
  6
Continuous
 62
     7
370
     0
100
AcDbText
 10
5388.147447920011
 20
-4284.22935697136
 30
0.0
 40
68.58
  1
印刷
 41
1.083333333333333
  7
ＭＳ ゴシック
100
AcDbText
  0
TEXT
  5
1CC
330
1F
100
AcDbEntity
  8
F-A_文字
  6
Continuous
 62
     7
370
     0
100
AcDbText
 10
4784.033374252999
 20
-4285.62338325081
 30
0.0
 40
68.58
  1
（
  7
ＭＳ ゴシック
100
AcDbText
  0
TEXT
  5
1CD
330
1F
100
AcDbEntity
  8
F-A_文字
  6
Continuous
 62
     7
370
     0
100
AcDbText
 10
5031.277143812345
 20
-4285.62338325081
 30
0.0
 40
68.58
  1
,
  7
ＭＳ ゴシック
100
AcDbText
  0
TEXT
  5
1CE
330
1F
100
AcDbEntity
  8
F-A_文字
  6
Continuous
 62
     7
370
     9
100
AcDbText
 10
3226.248977248734
 20
-4117.313170532875
 30
0.0
 40
68.58
  1
MQP03A_C02
 41
1.15
  7
ＭＳ ゴシック
100
AcDbText
  0
TEXT
  5
1CF
330
1F
100
AcDbEntity
  8
F-A_文字
  6
Continuous
 62
     7
370
     0
100
AcDbText
 10
-5239.999990205507
 20
-4017.309988143852
 30
0.0
 40
68.58
  1
ソフトアート　造り付け家具　参考プラン（リビング３）フラット
 41
1.161111111111111
  7
ＭＳ ゴシック
100
AcDbText
  0
TEXT
  5
1D0
330
1F
100
AcDbEntity
  8
F-A_文字
  6
Continuous
 62
     7
370
     9
100
AcDbText
 10
4936.249033580831
 20
-4117.314564765447
 30
0.0
 40
68.58
  1
03
 41
1.083333333333333
  7
ＭＳ ゴシック
100
AcDbText
  0
LINE
  5
1D1
330
1F
100
AcDbEntity
  8
0-1_本体
  6
JWW_HOJO
 62
   120
370
     5
100
AcDbLine
 10
5077.796476778793
 20
-1091.29396403166
 30
0.0
 11
5077.796476778793
 21
99.70603596833884
 31
0.0
  0
LINE
  5
1D2
330
1F
100
AcDbEntity
  8
0-B_寸法
  6
Continuous
 62
   120
370
     5
100
AcDbLine
 10
-5152.79672421862
 20
303.70603596834
 30
0.0
 11
-5149.795823537668
 21
303.70603596834
 31
0.0
  0
LWPOLYLINE
  5
1D3
330
1F
100
AcDbEntity
  8
0-B_寸法
  6
Continuous
 62
     7
370
     9
100
AcDbPolyline
 90
        4
 70
     1
 43
3.0
 10
-5151.29672421862
 20
303.70603596834
 42
0.4142135623731
 10
-5152.79672421862
 20
305.20603596834
 42
0.4142135623731
 10
-5154.29672421862
 20
303.70603596834
 42
0.4142135623731
 10
-5152.79672421862
 20
302.20603596834
 42
0.4142135623731
  0
LWPOLYLINE
  5
1D4
330
1F
100
AcDbEntity
  8
0-B_寸法
  6
Continuous
 62
     7
370
     9
100
AcDbPolyline
 90
        4
 70
     1
 43
3.0
 10
-5148.295823537668
 20
303.70603596834
 42
0.4142135623731
 10
-5149.795823537668
 20
305.20603596834
 42
0.4142135623731
 10
-5151.295823537668
 20
303.70603596834
 42
0.4142135623731
 10
-5149.795823537668
 20
302.20603596834
 42
0.4142135623731
  0
LINE
  5
1D5
330
1F
100
AcDbEntity
  8
0-B_寸法
  6
Continuous
 62
   120
370
     5
100
AcDbLine
 10
-5152.79672421862
 20
303.70603596834
 30
0.0
 11
-5152.79672421862
 21
153.70603596834
 31
0.0
  0
LINE
  5
1D6
330
1F
100
AcDbEntity
  8
0-B_寸法
  6
Continuous
 62
   120
370
     5
100
AcDbLine
 10
-5149.795823537668
 20
303.70603596834
 30
0.0
 11
-5149.795823537668
 21
153.70603596834
 31
0.0
  0
LWPOLYLINE
  5
1D7
330
1F
100
AcDbEntity
  8
0-B_寸法
  6
Continuous
 62
     7
370
     9
100
AcDbPolyline
 90
        4
 70
     1
 43
3.0
 10
-3894.296552954915
 20
303.70603596834
 42
0.4142135623731
 10
-3895.796552954915
 20
305.20603596834
 42
0.4142135623731
 10
-3897.296552954915
 20
303.70603596834
 42
0.4142135623731
 10
-3895.796552954915
 20
302.20603596834
 42
0.4142135623731
  0
LINE
  5
1D8
330
1F
100
AcDbEntity
  8
0-B_寸法
  6
Continuous
 62
   120
370
     5
100
AcDbLine
 10
-3895.796552954915
 20
303.70603596834
 30
0.0
 11
-3895.796552954915
 21
153.70603596834
 31
0.0
  0
LINE
  5
1D9
330
1F
100
AcDbEntity
  8
0-B_寸法
  6
Continuous
 62
   120
370
     5
100
AcDbLine
 10
-3895.796552954915
 20
303.70603596834
 30
0.0
 11
-3892.797454342839
 21
303.70603596834
 31
0.0
  0
LWPOLYLINE
  5
1DA
330
1F
100
AcDbEntity
  8
0-B_寸法
  6
Continuous
 62
     7
370
     9
100
AcDbPolyline
 90
        4
 70
     1
 43
3.0
 10
-3891.297454342839
 20
303.70603596834
 42
0.4142135623731
 10
-3892.797454342839
 20
305.20603596834
 42
0.4142135623731
 10
-3894.297454342839
 20
303.70603596834
 42
0.4142135623731
 10
-3892.797454342839
 20
302.20603596834
 42
0.4142135623731
  0
LINE
  5
1DB
330
1F
100
AcDbEntity
  8
0-B_寸法
  6
Continuous
 62
   120
370
     5
100
AcDbLine
 10
-3892.797454342839
 20
303.70603596834
 30
0.0
 11
-3892.797454342839
 21
153.70603596834
 31
0.0
  0
TEXT
  5
1DC
330
1F
100
AcDbEntity
  8
0-B_寸法
  6
Continuous
 62
     7
370
   211
100
AcDbText
 10
-3916.797003648876
 20
331.39603596834
 30
0.0
 40
68.58
  1
2
  7
ＭＳ ゴシック
100
AcDbText
  0
LINE
  5
1DD
330
1F
100
AcDbEntity
  8
0-B_寸法
  6
Continuous
 62
   120
370
     5
100
AcDbLine
 10
-5149.795823537668
 20
303.70603596834
 30
0.0
 11
-4525.796113219001
 21
303.70603596834
 31
0.0
  0
LWPOLYLINE
  5
1DE
330
1F
100
AcDbEntity
  8
0-B_寸法
  6
Continuous
 62
     7
370
     9
100
AcDbPolyline
 90
        4
 70
     1
 43
3.0
 10
-4524.296113219
 20
303.70603596834
 42
0.4142135623731
 10
-4525.796113219001
 20
305.20603596834
 42
0.4142135623731
 10
-4527.296113219001
 20
303.70603596834
 42
0.4142135623731
 10
-4525.796113219001
 20
302.20603596834
 42
0.4142135623731
  0
LINE
  5
1DF
330
1F
100
AcDbEntity
  8
0-B_寸法
  6
Continuous
 62
   120
370
     5
100
AcDbLine
 10
-4525.796113219001
 20
303.70603596834
 30
0.0
 11
-4525.796113219001
 21
153.70603596834
 31
0.0
  0
LWPOLYLINE
  5
1E0
330
1F
100
AcDbEntity
  8
0-B_寸法
  6
Continuous
 62
     7
370
     9
100
AcDbPolyline
 90
        4
 70
     1
 43
3.0
 10
-4518.296263273579
 20
303.70603596834
 42
0.4142135623731
 10
-4519.796263273579
 20
305.20603596834
 42
0.4142135623731
 10
-4521.296263273579
 20
303.70603596834
 42
0.4142135623731
 10
-4519.796263273579
 20
302.20603596834
 42
0.4142135623731
  0
LINE
  5
1E1
330
1F
100
AcDbEntity
  8
0-B_寸法
  6
Continuous
 62
   120
370
     5
100
AcDbLine
 10
-4519.796263273579
 20
303.70603596834
 30
0.0
 11
-4519.796263273579
 21
153.70603596834
 31
0.0
  0
LINE
  5
1E2
330
1F
100
AcDbEntity
  8
0-B_寸法
  6
Continuous
 62
   120
370
     5
100
AcDbLine
 10
-4519.796263273579
 20
303.70603596834
 30
0.0
 11
-3895.796552954915
 21
303.70603596834
 31
0.0
  0
LINE
  5
1E3
330
1F
100
AcDbEntity
  8
0-B_寸法
  6
Continuous
 62
   120
370
     5
100
AcDbLine
 10
-4525.796113219001
 20
303.70603596834
 30
0.0
 11
-4519.796263273579
 21
303.70603596834
 31
0.0
  0
TEXT
  5
1E4
330
1F
100
AcDbEntity
  8
0-B_寸法
  6
Continuous
 62
     7
370
   211
100
AcDbText
 10
-5173.796273878144
 20
331.39603596834
 30
0.0
 40
68.58
  1
2
  7
ＭＳ ゴシック
100
AcDbText
  0
TEXT
  5
1E5
330
1F
100
AcDbEntity
  8
0-B_寸法
  6
Continuous
 62
     7
370
   211
100
AcDbText
 10
-5069.545968378333
 20
331.39603596834
 30
0.0
 40
68.58
  1
ＤＷ＝416
 41
1.148148148148148
  7
ＭＳ ゴシック
100
AcDbText
  0
TEXT
  5
1E6
330
1F
100
AcDbEntity
  8
0-B_寸法
  6
Continuous
 62
     7
370
   211
100
AcDbText
 10
-4545.29618824629
 20
331.39603596834
 30
0.0
 40
68.58
  1
4
  7
ＭＳ ゴシック
100
AcDbText
  0
TEXT
  5
1E7
330
1F
100
AcDbEntity
  8
0-B_寸法
  6
Continuous
 62
     7
370
   211
100
AcDbText
 10
-4441.046408114247
 20
331.39603596834
 30
0.0
 40
68.58
  1
ＤＷ＝416
 41
1.148148148148148
  7
ＭＳ ゴシック
100
AcDbText
  0
LWPOLYLINE
  5
1E8
330
1F
100
AcDbEntity
  8
0-B_寸法
  6
Continuous
 62
     7
370
     9
100
AcDbPolyline
 90
        4
 70
     1
 43
3.0
 10
-2781.29672421862
 20
249.7060359683388
 42
0.4142135623731
 10
-2782.79672421862
 20
251.2060359683389
 42
0.4142135623731
 10
-2784.29672421862
 20
249.7060359683388
 42
0.4142135623731
 10
-2782.79672421862
 20
248.2060359683388
 42
0.4142135623731
  0
LINE
  5
1E9
330
1F
100
AcDbEntity
  8
0-B_寸法
  6
Continuous
 62
   120
370
     5
100
AcDbLine
 10
-2782.79672421862
 20
249.7060359683388
 30
0.0
 11
-2782.79672421862
 21
99.70603596833884
 31
0.0
  0
LWPOLYLINE
  5
1EA
330
1F
100
AcDbEntity
  8
0-B_寸法
  6
Continuous
 62
     7
370
     9
100
AcDbPolyline
 90
        4
 70
     1
 43
3.0
 10
-2151.29672421862
 20
249.7060359683388
 42
0.4142135623731
 10
-2152.79672421862
 20
251.2060359683389
 42
0.4142135623731
 10
-2154.29672421862
 20
249.7060359683388
 42
0.4142135623731
 10
-2152.79672421862
 20
248.2060359683388
 42
0.4142135623731
  0
LINE
  5
1EB
330
1F
100
AcDbEntity
  8
0-B_寸法
  6
Continuous
 62
   120
370
     5
100
AcDbLine
 10
-2152.79672421862
 20
249.7060359683388
 30
0.0
 11
-2152.79672421862
 21
99.70603596833884
 31
0.0
  0
LINE
  5
1EC
330
1F
100
AcDbEntity
  8
0-B_寸法
  6
Continuous
 62
   120
370
     5
100
AcDbLine
 10
-2782.79672421862
 20
249.7060359683388
 30
0.0
 11
-2779.796724218622
 21
249.7060359683388
 31
0.0
  0
LWPOLYLINE
  5
1ED
330
1F
100
AcDbEntity
  8
0-B_寸法
  6
Continuous
 62
     7
370
     9
100
AcDbPolyline
 90
        4
 70
     1
 43
3.0
 10
-2778.296724218622
 20
249.7060359683388
 42
0.4142135623731
 10
-2779.796724218622
 20
251.2060359683389
 42
0.4142135623731
 10
-2781.296724218622
 20
249.7060359683388
 42
0.4142135623731
 10
-2779.796724218622
 20
248.2060359683388
 42
0.4142135623731
  0
LINE
  5
1EE
330
1F
100
AcDbEntity
  8
0-B_寸法
  6
Continuous
 62
   120
370
     5
100
AcDbLine
 10
-2779.796724218622
 20
249.7060359683388
 30
0.0
 11
-2779.796724218622
 21
99.70603596833884
 31
0.0
  0
LWPOLYLINE
  5
1EF
330
1F
100
AcDbEntity
  8
0-B_寸法
  6
Continuous
 62
     7
370
     9
100
AcDbPolyline
 90
        4
 70
     1
 43
3.0
 10
-2154.296724218621
 20
249.7060359683388
 42
0.4142135623731
 10
-2155.796724218621
 20
251.2060359683389
 42
0.4142135623731
 10
-2157.29672421862
 20
249.7060359683388
 42
0.4142135623731
 10
-2155.796724218621
 20
248.2060359683388
 42
0.4142135623731
  0
LINE
  5
1F0
330
1F
100
AcDbEntity
  8
0-B_寸法
  6
Continuous
 62
   120
370
     5
100
AcDbLine
 10
-2155.796724218621
 20
249.7060359683388
 30
0.0
 11
-2155.796724218621
 21
99.70603596833884
 31
0.0
  0
LINE
  5
1F1
330
1F
100
AcDbEntity
  8
0-B_寸法
  6
Continuous
 62
   120
370
     5
100
AcDbLine
 10
-2155.796724218621
 20
249.7060359683388
 30
0.0
 11
-2152.79672421862
 21
249.7060359683388
 31
0.0
  0
LINE
  5
1F2
330
1F
100
AcDbEntity
  8
0-B_寸法
  6
Continuous
 62
   120
370
     5
100
AcDbLine
 10
-2779.796724218622
 20
249.7060359683388
 30
0.0
 11
-2155.796724218621
 21
249.7060359683388
 31
0.0
  0
TEXT
  5
1F3
330
1F
100
AcDbEntity
  8
0-B_寸法
  6
Continuous
 62
     7
370
   211
100
AcDbText
 10
-2803.796724218621
 20
277.3960359683388
 30
0.0
 40
68.58
  1
2
  7
ＭＳ ゴシック
100
AcDbText
  0
TEXT
  5
1F4
330
1F
100
AcDbEntity
  8
0-B_寸法
  6
Continuous
 62
     7
370
   211
100
AcDbText
 10
-2176.796724218621
 20
277.3960359683388
 30
0.0
 40
68.58
  1
2
  7
ＭＳ ゴシック
100
AcDbText
  0
TEXT
  5
1F5
330
1F
100
AcDbEntity
  8
0-B_寸法
  6
Continuous
 62
     7
370
   211
100
AcDbText
 10
-2542.79672421862
 20
277.3960359683388
 30
0.0
 40
68.58
  1
416
 41
1.111111111111111
  7
ＭＳ ゴシック
100
AcDbText
  0
TEXT
  5
1F6
330
1F
100
AcDbEntity
  8
0-B_寸法
  6
Continuous
 62
     7
370
   211
100
AcDbText
 10
1387.796015657013
 20
277.3960359683388
 30
0.0
 40
68.58
  1
2
  7
ＭＳ ゴシック
100
AcDbText
  0
TEXT
  5
1F7
330
1F
100
AcDbEntity
  8
0-B_寸法
  6
Continuous
 62
     7
370
   211
100
AcDbText
 10
1648.796015657016
 20
277.3960359683388
 30
0.0
 40
68.58
  1
416
 41
1.111111111111111
  7
ＭＳ ゴシック
100
AcDbText
  0
LWPOLYLINE
  5
1F8
330
1F
100
AcDbEntity
  8
0-B_寸法
  6
Continuous
 62
     7
370
     9
100
AcDbPolyline
 90
        4
 70
     1
 43
3.0
 10
1410.296015657015
 20
249.7060359683388
 42
0.4142135623731
 10
1408.796015657016
 20
251.2060359683389
 42
0.4142135623731
 10
1407.296015657016
 20
249.7060359683388
 42
0.4142135623731
 10
1408.796015657016
 20
248.2060359683388
 42
0.4142135623731
  0
LINE
  5
1F9
330
1F
100
AcDbEntity
  8
0-B_寸法
  6
Continuous
 62
   120
370
     5
100
AcDbLine
 10
1408.796015657016
 20
249.7060359683388
 30
0.0
 11
1408.796015657016
 21
99.70603596833884
 31
0.0
  0
LWPOLYLINE
  5
1FA
330
1F
100
AcDbEntity
  8
0-B_寸法
  6
Continuous
 62
     7
370
     9
100
AcDbPolyline
 90
        4
 70
     1
 43
3.0
 10
2040.296015657015
 20
249.7060359683388
 42
0.4142135623731
 10
2038.796015657015
 20
251.2060359683389
 42
0.4142135623731
 10
2037.296015657015
 20
249.7060359683388
 42
0.4142135623731
 10
2038.796015657015
 20
248.2060359683388
 42
0.4142135623731
  0
LINE
  5
1FB
330
1F
100
AcDbEntity
  8
0-B_寸法
  6
Continuous
 62
   120
370
     5
100
AcDbLine
 10
2038.796015657015
 20
399.7060359683388
 30
0.0
 11
2038.796015657015
 21
99.70603596833884
 31
0.0
  0
LINE
  5
1FC
330
1F
100
AcDbEntity
  8
0-B_寸法
  6
Continuous
 62
   120
370
     5
100
AcDbLine
 10
1408.796015657016
 20
249.7060359683388
 30
0.0
 11
1411.796015657013
 21
249.7060359683388
 31
0.0
  0
LWPOLYLINE
  5
1FD
330
1F
100
AcDbEntity
  8
0-B_寸法
  6
Continuous
 62
     7
370
     9
100
AcDbPolyline
 90
        4
 70
     1
 43
3.0
 10
1413.296015657013
 20
249.7060359683388
 42
0.4142135623731
 10
1411.796015657013
 20
251.2060359683389
 42
0.4142135623731
 10
1410.296015657013
 20
249.7060359683388
 42
0.4142135623731
 10
1411.796015657013
 20
248.2060359683388
 42
0.4142135623731
  0
LINE
  5
1FE
330
1F
100
AcDbEntity
  8
0-B_寸法
  6
Continuous
 62
   120
370
     5
100
AcDbLine
 10
1411.796015657013
 20
249.7060359683388
 30
0.0
 11
1411.796015657013
 21
99.70603596833884
 31
0.0
  0
LWPOLYLINE
  5
1FF
330
1F
100
AcDbEntity
  8
0-B_寸法
  6
Continuous
 62
     7
370
     9
100
AcDbPolyline
 90
        4
 70
     1
 43
3.0
 10
2037.296015657014
 20
249.7060359683388
 42
0.4142135623731
 10
2035.796015657015
 20
251.2060359683389
 42
0.4142135623731
 10
2034.296015657015
 20
249.7060359683388
 42
0.4142135623731
 10
2035.796015657015
 20
248.2060359683388
 42
0.4142135623731
  0
LINE
  5
200
330
1F
100
AcDbEntity
  8
0-B_寸法
  6
Continuous
 62
   120
370
     5
100
AcDbLine
 10
2035.796015657015
 20
249.7060359683388
 30
0.0
 11
2035.796015657015
 21
99.70603596833884
 31
0.0
  0
LINE
  5
201
330
1F
100
AcDbEntity
  8
0-B_寸法
  6
Continuous
 62
   120
370
     5
100
AcDbLine
 10
2035.796015657015
 20
249.7060359683388
 30
0.0
 11
2038.796015657015
 21
249.7060359683388
 31
0.0
  0
LINE
  5
202
330
1F
100
AcDbEntity
  8
0-B_寸法
  6
Continuous
 62
   120
370
     5
100
AcDbLine
 10
1411.796015657013
 20
249.7060359683388
 30
0.0
 11
2035.796015657015
 21
249.7060359683388
 31
0.0
  0
TEXT
  5
203
330
1F
100
AcDbEntity
  8
0-B_寸法
  6
Continuous
 62
     7
370
   211
100
AcDbText
 10
283.7960156570148
 20
427.3960359683388
 30
0.0
 40
68.58
  1
カウンター
 41
1.133333333333333
  7
ＭＳ ゴシック
100
AcDbText
  0
TEXT
  5
204
330
1F
100
AcDbEntity
  8
0-B_寸法
  6
Continuous
 62
     7
370
   211
100
AcDbText
 10
3234.29647677879
 20
577.3960359683406
 30
0.0
 40
68.58
  1
428
 41
1.111111111111111
  7
ＭＳ ゴシック
100
AcDbText
  0
LINE
  5
205
330
1F
100
AcDbEntity
  8
0-0_補助線
  6
JWW_HOJO
 62
   120
370
     5
100
AcDbLine
 10
3685.796476778788
 20
99.70603596833969
 30
0.0
 11
3685.796476778788
 21
-1091.293964031659
 31
0.0
  0
LINE
  5
206
330
1F
100
AcDbEntity
  8
0-B_寸法
  6
Continuous
 62
   120
370
     5
100
AcDbLine
 10
2998.796476778793
 20
249.7060359683397
 30
0.0
 11
3061.79647677879
 21
249.7060359683397
 31
0.0
  0
LWPOLYLINE
  5
207
330
1F
100
AcDbEntity
  8
0-B_寸法
  6
Continuous
 62
     7
370
     9
100
AcDbPolyline
 90
        4
 70
     1
 43
3.0
 10
3000.296476778793
 20
249.7060359683397
 42
0.4142135623731
 10
2998.796476778793
 20
251.2060359683397
 42
0.4142135623731
 10
2997.296476778793
 20
249.7060359683397
 42
0.4142135623731
 10
2998.796476778793
 20
248.2060359683396
 42
0.4142135623731
  0
LWPOLYLINE
  5
208
330
1F
100
AcDbEntity
  8
0-B_寸法
  6
Continuous
 62
     7
370
     9
100
AcDbPolyline
 90
        4
 70
     1
 43
3.0
 10
3063.29647677879
 20
249.7060359683397
 42
0.4142135623731
 10
3061.79647677879
 20
251.2060359683397
 42
0.4142135623731
 10
3060.29647677879
 20
249.7060359683397
 42
0.4142135623731
 10
3061.79647677879
 20
248.2060359683396
 42
0.4142135623731
  0
LINE
  5
209
330
1F
100
AcDbEntity
  8
0-B_寸法
  6
Continuous
 62
   120
370
     5
100
AcDbLine
 10
2998.796476778793
 20
399.7060359683397
 30
0.0
 11
2998.796476778793
 21
99.70603596833969
 31
0.0
  0
LINE
  5
20A
330
1F
100
AcDbEntity
  8
0-B_寸法
  6
Continuous
 62
   120
370
     5
100
AcDbLine
 10
3061.79647677879
 20
249.7060359683397
 30
0.0
 11
3061.79647677879
 21
99.70603596833969
 31
0.0
  0
LINE
  5
20B
330
1F
100
AcDbEntity
  8
0-B_寸法
  6
Continuous
 62
   120
370
     5
100
AcDbLine
 10
3061.79647677879
 20
249.7060359683397
 30
0.0
 11
3556.796476778792
 21
249.7060359683397
 31
0.0
  0
LWPOLYLINE
  5
20C
330
1F
100
AcDbEntity
  8
0-B_寸法
  6
Continuous
 62
     7
370
     9
100
AcDbPolyline
 90
        4
 70
     1
 43
3.0
 10
3558.296476778792
 20
249.7060359683397
 42
0.4142135623731
 10
3556.796476778792
 20
251.2060359683397
 42
0.4142135623731
 10
3555.296476778792
 20
249.7060359683397
 42
0.4142135623731
 10
3556.796476778792
 20
248.2060359683396
 42
0.4142135623731
  0
LINE
  5
20D
330
1F
100
AcDbEntity
  8
0-B_寸法
  6
Continuous
 62
   120
370
     5
100
AcDbLine
 10
3556.796476778792
 20
249.7060359683397
 30
0.0
 11
3556.796476778792
 21
99.70603596833969
 31
0.0
  0
LINE
  5
20E
330
1F
100
AcDbEntity
  8
0-B_寸法
  6
Continuous
 62
   120
370
     5
100
AcDbLine
 10
3556.796476778792
 20
249.7060359683397
 30
0.0
 11
3610.796476778788
 21
249.7060359683397
 31
0.0
  0
LWPOLYLINE
  5
20F
330
1F
100
AcDbEntity
  8
0-B_寸法
  6
Continuous
 62
     7
370
     9
100
AcDbPolyline
 90
        4
 70
     1
 43
3.0
 10
3612.296476778787
 20
249.7060359683397
 42
0.4142135623731
 10
3610.796476778788
 20
251.2060359683397
 42
0.4142135623731
 10
3609.296476778788
 20
249.7060359683397
 42
0.4142135623731
 10
3610.796476778788
 20
248.2060359683396
 42
0.4142135623731
  0
LINE
  5
210
330
1F
100
AcDbEntity
  8
0-B_寸法
  6
Continuous
 62
   120
370
     5
100
AcDbLine
 10
3610.796476778788
 20
699.7060359683405
 30
0.0
 11
3610.796476778788
 21
99.70603596833713
 31
0.0
  0
LINE
  5
211
330
1F
100
AcDbEntity
  8
0-B_寸法
  6
Continuous
 62
   120
370
     5
100
AcDbLine
 10
2968.796476778793
 20
399.7060359683397
 30
0.0
 11
2998.796476778793
 21
399.7060359683397
 31
0.0
  0
LWPOLYLINE
  5
212
330
1F
100
AcDbEntity
  8
0-B_寸法
  6
Continuous
 62
     7
370
     9
100
AcDbPolyline
 90
        4
 70
     1
 43
3.0
 10
2970.296476778793
 20
399.7060359683397
 42
0.4142135623731
 10
2968.796476778793
 20
401.2060359683397
 42
0.4142135623731
 10
2967.296476778793
 20
399.7060359683397
 42
0.4142135623731
 10
2968.796476778793
 20
398.2060359683397
 42
0.4142135623731
  0
LWPOLYLINE
  5
213
330
1F
100
AcDbEntity
  8
0-B_寸法
  6
Continuous
 62
     7
370
     9
100
AcDbPolyline
 90
        4
 70
     1
 43
3.0
 10
3000.296476778793
 20
399.7060359683397
 42
0.4142135623731
 10
2998.796476778793
 20
401.2060359683397
 42
0.4142135623731
 10
2997.296476778793
 20
399.7060359683397
 42
0.4142135623731
 10
2998.796476778793
 20
398.2060359683397
 42
0.4142135623731
  0
LINE
  5
214
330
1F
100
AcDbEntity
  8
0-B_寸法
  6
Continuous
 62
   120
370
     5
100
AcDbLine
 10
2968.796476778793
 20
549.7060359683405
 30
0.0
 11
2968.796476778793
 21
99.70603596833969
 31
0.0
  0
LINE
  5
215
330
1F
100
AcDbEntity
  8
0-B_寸法
  6
Continuous
 62
   120
370
     5
100
AcDbLine
 10
2998.796476778793
 20
399.7060359683397
 30
0.0
 11
3610.796476778788
 21
399.7060359683397
 31
0.0
  0
LWPOLYLINE
  5
216
330
1F
100
AcDbEntity
  8
0-B_寸法
  6
Continuous
 62
     7
370
     9
100
AcDbPolyline
 90
        4
 70
     1
 43
3.0
 10
3612.296476778787
 20
399.7060359683397
 42
0.4142135623731
 10
3610.796476778788
 20
401.2060359683397
 42
0.4142135623731
 10
3609.296476778788
 20
399.7060359683397
 42
0.4142135623731
 10
3610.796476778788
 20
398.2060359683397
 42
0.4142135623731
  0
LINE
  5
217
330
1F
100
AcDbEntity
  8
0-B_寸法
  6
Continuous
 62
   120
370
     5
100
AcDbLine
 10
2968.796476778793
 20
549.7060359683405
 30
0.0
 11
3610.796476778788
 21
549.7060359683405
 31
0.0
  0
LWPOLYLINE
  5
218
330
1F
100
AcDbEntity
  8
0-B_寸法
  6
Continuous
 62
     7
370
     9
100
AcDbPolyline
 90
        4
 70
     1
 43
3.0
 10
2970.296476778793
 20
549.7060359683405
 42
0.4142135623731
 10
2968.796476778793
 20
551.2060359683405
 42
0.4142135623731
 10
2967.296476778793
 20
549.7060359683405
 42
0.4142135623731
 10
2968.796476778793
 20
548.2060359683405
 42
0.4142135623731
  0
LWPOLYLINE
  5
219
330
1F
100
AcDbEntity
  8
0-B_寸法
  6
Continuous
 62
     7
370
     9
100
AcDbPolyline
 90
        4
 70
     1
 43
3.0
 10
3612.296476778787
 20
549.7060359683405
 42
0.4142135623731
 10
3610.796476778788
 20
551.2060359683405
 42
0.4142135623731
 10
3609.296476778788
 20
549.7060359683405
 42
0.4142135623731
 10
3610.796476778788
 20
548.2060359683405
 42
0.4142135623731
  0
TEXT
  5
21A
330
1F
100
AcDbEntity
  8
0-B_寸法
  6
Continuous
 62
     7
370
   211
100
AcDbText
 10
3613.796476778792
 20
277.3960359683397
 30
0.0
 40
68.58
  1
36
 41
1.083333333333333
  7
ＭＳ ゴシック
100
AcDbText
  0
TEXT
  5
21B
330
1F
100
AcDbEntity
  8
0-B_寸法
  6
Continuous
 62
     7
370
   211
100
AcDbText
 10
3234.29647677879
 20
427.3960359683405
 30
0.0
 40
68.58
  1
408
 41
1.111111111111111
  7
ＭＳ ゴシック
100
AcDbText
  0
TEXT
  5
21C
330
1F
100
AcDbEntity
  8
0-B_寸法
  6
Continuous
 62
     7
370
   211
100
AcDbText
 10
3234.29647677879
 20
277.3960359683397
 30
0.0
 40
68.58
  1
330
 41
1.111111111111111
  7
ＭＳ ゴシック
100
AcDbText
  0
TEXT
  5
21D
330
1F
100
AcDbEntity
  8
0-B_寸法
  6
Continuous
 62
     7
370
   211
100
AcDbText
 10
3001.79647677879
 20
277.3960359683397
 30
0.0
 40
68.58
  1
42
 41
1.083333333333333
  7
ＭＳ ゴシック
100
AcDbText
  0
TEXT
  5
21E
330
1F
100
AcDbEntity
  8
0-B_寸法
  6
Continuous
 62
     7
370
   211
100
AcDbText
 10
2971.79647677879
 20
427.3960359683405
 30
0.0
 40
68.58
  1
20
 41
1.083333333333333
  7
ＭＳ ゴシック
100
AcDbText
  0
LINE
  5
21F
330
1F
100
AcDbEntity
  8
0-B_寸法
  6
Continuous
 62
   120
370
     5
100
AcDbLine
 10
5002.796476778793
 20
249.7060359683363
 30
0.0
 11
5002.796476778793
 21
99.70603596833628
 31
0.0
  0
LWPOLYLINE
  5
220
330
1F
100
AcDbEntity
  8
0-B_寸法
  6
Continuous
 62
     7
370
     9
100
AcDbPolyline
 90
        4
 70
     1
 43
3.0
 10
5004.296476778793
 20
249.7060359683363
 42
0.4142135623731
 10
5002.796476778793
 20
251.2060359683363
 42
0.4142135623731
 10
5001.296476778793
 20
249.7060359683363
 42
0.4142135623731
 10
5002.796476778793
 20
248.2060359683362
 42
0.4142135623731
  0
LINE
  5
221
330
1F
100
AcDbEntity
  8
0-6_桟木
  6
Continuous
 62
    40
370
    15
100
AcDbLine
 10
5002.796476778793
 20
24.70603596833884
 30
0.0
 11
5002.796476778793
 21
-20.29396403166118
 31
0.0
  0
LINE
  5
222
330
1F
100
AcDbEntity
  8
0-6_桟木
  6
Continuous
 62
    40
370
    15
100
AcDbLine
 10
3610.796476778788
 20
24.70603596834054
 30
0.0
 11
3610.796476778788
 21
-20.29396403165947
 31
0.0
  0
LWPOLYLINE
  5
223
330
1F
100
AcDbEntity
  8
0-B_寸法
  6
Continuous
 62
     7
370
     9
100
AcDbPolyline
 90
        4
 70
     1
 43
3.0
 10
3612.296476778787
 20
699.7060359683405
 42
0.4142135623731
 10
3610.796476778788
 20
701.2060359683405
 42
0.4142135623731
 10
3609.296476778788
 20
699.7060359683405
 42
0.4142135623731
 10
3610.796476778788
 20
698.2060359683405
 42
0.4142135623731
  0
LINE
  5
224
330
1F
100
AcDbEntity
  8
0-0_補助線
  6
JWW_HOJO
 62
   120
370
     5
100
AcDbLine
 10
-2077.79672421862
 20
-1091.293964031659
 30
0.0
 11
-2077.79672421862
 21
99.70603596833884
 31
0.0
  0
LINE
  5
225
330
1F
100
AcDbEntity
  8
0-0_補助線
  6
JWW_HOJO
 62
   120
370
     5
100
AcDbLine
 10
2113.796015657015
 20
-1091.293964031659
 30
0.0
 11
2113.796015657015
 21
99.70603596833884
 31
0.0
  0
LINE
  5
226
330
1F
100
AcDbEntity
  8
0-6_桟木
  6
Continuous
 62
    92
370
    13
100
AcDbLine
 10
-2152.79672421862
 20
-20.29396403165947
 30
0.0
 11
-2152.79672421862
 21
24.70603596833969
 31
0.0
  0
LINE
  5
227
330
1F
100
AcDbEntity
  8
0-6_桟木
  6
Continuous
 62
    92
370
    13
100
AcDbLine
 10
2038.796015657015
 20
-20.29396403165947
 30
0.0
 11
2038.796015657015
 21
24.70603596833969
 31
0.0
  0
LWPOLYLINE
  5
228
330
1F
100
AcDbEntity
  8
0-B_寸法
  6
Continuous
 62
     7
370
     9
100
AcDbPolyline
 90
        4
 70
     1
 43
3.0
 10
2040.296015657015
 20
399.7060359683388
 42
0.4142135623731
 10
2038.796015657015
 20
401.2060359683388
 42
0.4142135623731
 10
2037.296015657015
 20
399.7060359683388
 42
0.4142135623731
 10
2038.796015657015
 20
398.2060359683388
 42
0.4142135623731
  0
TEXT
  5
229
330
1F
100
AcDbEntity
  8
0-B_寸法
  6
Continuous
 62
     7
370
   211
100
AcDbText
 10
1983.574519297658
 20
277.3960359683388
 30
0.0
 40
68.58
  1
2
  7
ＭＳ ゴシック
100
AcDbText
  0
LINE
  5
22A
330
1F
100
AcDbEntity
  8
0-0_補助線
  6
JWW_HOJO
 62
   120
370
     5
100
AcDbLine
 10
-5197.796724218621
 20
-1091.293964031659
 30
0.0
 11
-5197.796724218621
 21
99.70603596833884
 31
0.0
  0
LINE
  5
22B
330
1F
100
AcDbEntity
  8
0-6_桟木
  6
Continuous
 62
    92
370
    13
100
AcDbLine
 10
-5152.79672421862
 20
24.70603596833969
 30
0.0
 11
-5152.79672421862
 21
-20.29396403165947
 31
0.0
  0
LINE
  5
22C
330
1F
100
AcDbEntity
  8
0-6_桟木
  6
Continuous
 62
    92
370
    13
100
AcDbLine
 10
-961.2039843429843
 20
24.70603596833969
 30
0.0
 11
-961.2039843429843
 21
-20.29396403165947
 31
0.0
  0
LWPOLYLINE
  5
22D
330
1F
100
AcDbEntity
  8
0-B_寸法
  6
Continuous
 62
     7
370
     9
100
AcDbPolyline
 90
        4
 70
     1
 43
3.0
 10
-959.7039843429843
 20
399.7060359683388
 42
0.4142135623731
 10
-961.2039843429843
 20
401.2060359683388
 42
0.4142135623731
 10
-962.7039843429843
 20
399.7060359683388
 42
0.4142135623731
 10
-961.2039843429843
 20
398.2060359683388
 42
0.4142135623731
  0
LINE
  5
22E
330
1F
100
AcDbEntity
  8
0-B_寸法
  6
Continuous
 62
   120
370
     5
100
AcDbLine
 10
-961.2039843429843
 20
399.7060359683388
 30
0.0
 11
-961.2039843429843
 21
99.70603596833884
 31
0.0
  0
LINE
  5
22F
330
1F
100
AcDbEntity
  8
0-0_補助線
  6
JWW_HOJO
 62
   120
370
     5
100
AcDbLine
 10
-1036.203984342987
 20
-1091.293964031659
 30
0.0
 11
-1036.203984342987
 21
99.70603596833884
 31
0.0
  0
LINE
  5
230
330
1F
100
AcDbEntity
  8
0-B_寸法
  6
Continuous
 62
   120
370
     5
100
AcDbLine
 10
-1186.203984342984
 20
-20.29396403165947
 30
0.0
 11
-1186.203984342984
 21
24.70603596833969
 31
0.0
  0
LWPOLYLINE
  5
231
330
1F
100
AcDbEntity
  8
0-B_寸法
  6
Continuous
 62
     7
370
     9
100
AcDbPolyline
 90
        4
 70
     1
 43
3.0
 10
-1184.703984342985
 20
24.70603596833969
 42
0.4142135623731
 10
-1186.203984342984
 20
26.20603596833969
 42
0.4142135623731
 10
-1187.703984342984
 20
24.70603596833969
 42
0.4142135623731
 10
-1186.203984342984
 20
23.20603596833969
 42
0.4142135623731
  0
LINE
  5
232
330
1F
100
AcDbEntity
  8
0-B_寸法
  6
Continuous
 62
   120
370
     5
100
AcDbLine
 10
-1186.203984342984
 20
24.70603596833969
 30
0.0
 11
-1036.203984342984
 21
24.70603596833969
 31
0.0
  0
LINE
  5
233
330
1F
100
AcDbEntity
  8
0-B_寸法
  6
Continuous
 62
   120
370
     5
100
AcDbLine
 10
-5347.796724218621
 20
-20.29396403165947
 30
0.0
 11
-5347.796724218621
 21
24.70603596833969
 31
0.0
  0
LWPOLYLINE
  5
234
330
1F
100
AcDbEntity
  8
0-B_寸法
  6
Continuous
 62
     7
370
     9
100
AcDbPolyline
 90
        4
 70
     1
 43
3.0
 10
-5346.296724218621
 20
24.70603596833969
 42
0.4142135623731
 10
-5347.796724218621
 20
26.20603596833969
 42
0.4142135623731
 10
-5349.296724218621
 20
24.70603596833969
 42
0.4142135623731
 10
-5347.796724218621
 20
23.20603596833969
 42
0.4142135623731
  0
LINE
  5
235
330
1F
100
AcDbEntity
  8
0-B_寸法
  6
Continuous
 62
   120
370
     5
100
AcDbLine
 10
-5497.796724218621
 20
24.70603596833969
 30
0.0
 11
-5197.796724218621
 21
24.70603596833969
 31
0.0
  0
LINE
  5
236
330
1F
100
AcDbEntity
  8
0-B_寸法
  6
Continuous
 62
   120
370
     5
100
AcDbLine
 10
-5497.796724218621
 20
-1016.29396403166
 30
0.0
 11
-5497.796724218621
 21
24.70603596833969
 31
0.0
  0
LWPOLYLINE
  5
237
330
1F
100
AcDbEntity
  8
0-B_寸法
  6
Continuous
 62
     7
370
     9
100
AcDbPolyline
 90
        4
 70
     1
 43
3.0
 10
-5496.296724218621
 20
24.70603596833969
 42
0.4142135623731
 10
-5497.796724218621
 20
26.20603596833969
 42
0.4142135623731
 10
-5499.296724218621
 20
24.70603596833969
 42
0.4142135623731
 10
-5497.796724218621
 20
23.20603596833969
 42
0.4142135623731
  0
LINE
  5
238
330
1F
100
AcDbEntity
  8
0-A_文字
  6
JWW_CENTER1
 62
     7
370
     9
100
AcDbLine
 10
-5152.79672421862
 20
24.70603596833969
 30
0.0
 11
5002.796476778793
 21
24.70603596833969
 31
0.0
  0
LINE
  5
239
330
1F
100
AcDbEntity
  8
0-0_補助線
  6
JWW_HOJO
 62
   120
370
     5
100
AcDbLine
 10
2113.796015657015
 20
99.70603596833884
 30
0.0
 11
-1036.203984342987
 21
99.70603596833884
 31
0.0
  0
LINE
  5
23A
330
1F
100
AcDbEntity
  8
0-0_補助線
  6
JWW_HOJO
 62
   120
370
     5
100
AcDbLine
 10
-2077.79672421862
 20
99.70603596833884
 30
0.0
 11
-5197.796724218621
 21
99.70603596833884
 31
0.0
  0
LINE
  5
23B
330
1F
100
AcDbEntity
  8
0-6_桟木
  6
Continuous
 62
    92
370
    13
100
AcDbLine
 10
-2152.79672421862
 20
24.70603596833969
 30
0.0
 11
-5152.79672421862
 21
24.70603596833969
 31
0.0
  0
LINE
  5
23C
330
1F
100
AcDbEntity
  8
0-6_桟木
  6
Continuous
 62
    92
370
    13
100
AcDbLine
 10
2038.796015657015
 20
24.70603596833969
 30
0.0
 11
-961.2039843429843
 21
24.70603596833969
 31
0.0
  0
LINE
  5
23D
330
1F
100
AcDbEntity
  8
0-B_寸法
  6
Continuous
 62
   120
370
     5
100
AcDbLine
 10
-961.2039843429843
 20
399.7060359683388
 30
0.0
 11
2038.796015657015
 21
399.7060359683388
 31
0.0
  0
LINE
  5
23E
330
1F
100
AcDbEntity
  8
0-B_寸法
  6
Continuous
 62
   120
370
     5
100
AcDbLine
 10
5227.796476778797
 20
-20.29396403166119
 30
0.0
 11
5227.796476778797
 21
24.70603596833968
 31
0.0
  0
LWPOLYLINE
  5
23F
330
1F
100
AcDbEntity
  8
0-B_寸法
  6
Continuous
 62
     7
370
     9
100
AcDbPolyline
 90
        4
 70
     1
 43
3.0
 10
5229.296476778797
 20
24.70603596833968
 42
0.4142135623731
 10
5227.796476778797
 20
26.20603596833968
 42
0.4142135623731
 10
5226.296476778796
 20
24.70603596833968
 42
0.4142135623731
 10
5227.796476778797
 20
23.20603596833968
 42
0.4142135623731
  0
LINE
  5
240
330
1F
100
AcDbEntity
  8
0-B_寸法
  6
Continuous
 62
   120
370
     5
100
AcDbLine
 10
5227.796476778797
 20
24.70603596833968
 30
0.0
 11
5077.796476778797
 21
24.70603596833968
 31
0.0
  0
TEXT
  5
241
330
1F
100
AcDbEntity
  8
0-B_寸法
  6
Continuous
 62
     7
370
   211
100
AcDbText
 10
4229.207021779599
 20
-651.7939640316605
 30
0.0
 40
68.58
  1
3
 50
90.0
  7
ＭＳ ゴシック
100
AcDbText
  0
TEXT
  5
242
330
1F
100
AcDbEntity
  8
0-B_寸法
  6
Continuous
 62
     7
370
   211
100
AcDbText
 10
4229.207021779599
 20
-440.2939640316601
 30
0.0
 40
68.58
  1
3
 50
90.0
  7
ＭＳ ゴシック
100
AcDbText
  0
TEXT
  5
243
330
1F
100
AcDbEntity
  8
0-B_寸法
  6
Continuous
 62
     7
370
   211
100
AcDbText
 10
4229.207021779599
 20
-228.7939640316606
 30
0.0
 40
68.58
  1
3
 50
90.0
  7
ＭＳ ゴシック
100
AcDbText
  0
TEXT
  5
244
330
1F
100
AcDbEntity
  8
0-B_寸法
  6
Continuous
 62
     7
370
   211
100
AcDbText
 10
4229.207021779599
 20
-17.29396403166049
 30
0.0
 40
68.58
  1
3
 50
90.0
  7
ＭＳ ゴシック
100
AcDbText
  0
TEXT
  5
245
330
1F
100
AcDbEntity
  8
0-B_寸法
  6
Continuous
 62
     7
370
   211
100
AcDbText
 10
4099.106476778794
 20
-837.7939640316604
 30
0.0
 40
68.58
  1
138
 50
90.0
 41
1.111111111111111
  7
ＭＳ ゴシック
100
AcDbText
  0
LINE
  5
246
330
1F
100
AcDbEntity
  8
0-B_寸法
  6
Continuous
 62
   120
370
     5
100
AcDbLine
 10
4126.796476778793
 20
-866.2939640316599
 30
0.0
 11
4276.796476778793
 21
-866.2939640316599
 31
0.0
  0
LWPOLYLINE
  5
247
330
1F
100
AcDbEntity
  8
0-B_寸法
  6
Continuous
 62
     7
370
     9
100
AcDbPolyline
 90
        4
 70
     1
 43
3.0
 10
4128.296476778794
 20
-866.2939640316599
 42
0.4142135623731
 10
4126.796476778793
 20
-864.7939640316599
 42
0.4142135623731
 10
4125.296476778793
 20
-866.2939640316599
 42
0.4142135623731
 10
4126.796476778793
 20
-867.79396403166
 42
0.4142135623731
  0
LINE
  5
248
330
1F
100
AcDbEntity
  8
0-B_寸法
  6
Continuous
 62
   120
370
     5
100
AcDbLine
 10
4126.796476778793
 20
-659.2939640316606
 30
0.0
 11
4126.796476778793
 21
-866.2939640316599
 31
0.0
  0
LINE
  5
249
330
1F
100
AcDbEntity
  8
0-B_寸法
  6
Continuous
 62
   120
370
     5
100
AcDbLine
 10
4126.796476778793
 20
-659.2939640316606
 30
0.0
 11
4276.796476778793
 21
-659.2939640316606
 31
0.0
  0
LWPOLYLINE
  5
24A
330
1F
100
AcDbEntity
  8
0-B_寸法
  6
Continuous
 62
     7
370
     9
100
AcDbPolyline
 90
        4
 70
     1
 43
3.0
 10
4128.296476778794
 20
-659.2939640316606
 42
0.4142135623731
 10
4126.796476778793
 20
-657.7939640316606
 42
0.4142135623731
 10
4125.296476778793
 20
-659.2939640316606
 42
0.4142135623731
 10
4126.796476778793
 20
-660.7939640316607
 42
0.4142135623731
  0
LINE
  5
24B
330
1F
100
AcDbEntity
  8
0-B_寸法
  6
Continuous
 62
   120
370
     5
100
AcDbLine
 10
4126.796476778793
 20
-654.7939640316597
 30
0.0
 11
4126.796476778793
 21
-659.2939640316606
 31
0.0
  0
TEXT
  5
24C
330
1F
100
AcDbEntity
  8
0-B_寸法
  6
Continuous
 62
     7
370
   211
100
AcDbText
 10
4099.106476778794
 20
-626.2939640316599
 30
0.0
 40
68.58
  1
138
 50
90.0
 41
1.111111111111111
  7
ＭＳ ゴシック
100
AcDbText
  0
LINE
  5
24D
330
1F
100
AcDbEntity
  8
0-B_寸法
  6
Continuous
 62
   120
370
     5
100
AcDbLine
 10
4126.796476778793
 20
-654.7939640316597
 30
0.0
 11
4276.796476778793
 21
-654.7939640316597
 31
0.0
  0
LWPOLYLINE
  5
24E
330
1F
100
AcDbEntity
  8
0-B_寸法
  6
Continuous
 62
     7
370
     9
100
AcDbPolyline
 90
        4
 70
     1
 43
3.0
 10
4128.296476778794
 20
-654.7939640316597
 42
0.4142135623731
 10
4126.796476778793
 20
-653.2939640316596
 42
0.4142135623731
 10
4125.296476778793
 20
-654.7939640316597
 42
0.4142135623731
 10
4126.796476778793
 20
-656.2939640316597
 42
0.4142135623731
  0
LINE
  5
24F
330
1F
100
AcDbEntity
  8
0-B_寸法
  6
Continuous
 62
   120
370
     5
100
AcDbLine
 10
4126.796476778793
 20
-447.7939640316603
 30
0.0
 11
4126.796476778793
 21
-654.7939640316597
 31
0.0
  0
LINE
  5
250
330
1F
100
AcDbEntity
  8
0-B_寸法
  6
Continuous
 62
   120
370
     5
100
AcDbLine
 10
4126.796476778793
 20
-447.7939640316603
 30
0.0
 11
4276.796476778793
 21
-447.7939640316603
 31
0.0
  0
LWPOLYLINE
  5
251
330
1F
100
AcDbEntity
  8
0-B_寸法
  6
Continuous
 62
     7
370
     9
100
AcDbPolyline
 90
        4
 70
     1
 43
3.0
 10
4128.296476778794
 20
-447.7939640316603
 42
0.4142135623731
 10
4126.796476778793
 20
-446.2939640316603
 42
0.4142135623731
 10
4125.296476778793
 20
-447.7939640316603
 42
0.4142135623731
 10
4126.796476778793
 20
-449.2939640316603
 42
0.4142135623731
  0
LINE
  5
252
330
1F
100
AcDbEntity
  8
0-B_寸法
  6
Continuous
 62
   120
370
     5
100
AcDbLine
 10
4126.796476778793
 20
-443.2939640316593
 30
0.0
 11
4126.796476778793
 21
-447.7939640316603
 31
0.0
  0
TEXT
  5
253
330
1F
100
AcDbEntity
  8
0-B_寸法
  6
Continuous
 62
     7
370
   211
100
AcDbText
 10
4099.106476778794
 20
-414.7939640316596
 30
0.0
 40
68.58
  1
138
 50
90.0
 41
1.111111111111111
  7
ＭＳ ゴシック
100
AcDbText
  0
LINE
  5
254
330
1F
100
AcDbEntity
  8
0-B_寸法
  6
Continuous
 62
   120
370
     5
100
AcDbLine
 10
4126.796476778793
 20
-443.2939640316593
 30
0.0
 11
4276.796476778793
 21
-443.2939640316593
 31
0.0
  0
LWPOLYLINE
  5
255
330
1F
100
AcDbEntity
  8
0-B_寸法
  6
Continuous
 62
     7
370
     9
100
AcDbPolyline
 90
        4
 70
     1
 43
3.0
 10
4128.296476778794
 20
-443.2939640316593
 42
0.4142135623731
 10
4126.796476778793
 20
-441.7939640316593
 42
0.4142135623731
 10
4125.296476778793
 20
-443.2939640316593
 42
0.4142135623731
 10
4126.796476778793
 20
-444.7939640316593
 42
0.4142135623731
  0
LINE
  5
256
330
1F
100
AcDbEntity
  8
0-B_寸法
  6
Continuous
 62
   120
370
     5
100
AcDbLine
 10
4126.796476778793
 20
-236.29396403166
 30
0.0
 11
4126.796476778793
 21
-443.2939640316593
 31
0.0
  0
LINE
  5
257
330
1F
100
AcDbEntity
  8
0-B_寸法
  6
Continuous
 62
   120
370
     5
100
AcDbLine
 10
4126.796476778793
 20
-236.29396403166
 30
0.0
 11
4276.796476778793
 21
-236.29396403166
 31
0.0
  0
LWPOLYLINE
  5
258
330
1F
100
AcDbEntity
  8
0-B_寸法
  6
Continuous
 62
     7
370
     9
100
AcDbPolyline
 90
        4
 70
     1
 43
3.0
 10
4128.296476778794
 20
-236.29396403166
 42
0.4142135623731
 10
4126.796476778793
 20
-234.79396403166
 42
0.4142135623731
 10
4125.296476778793
 20
-236.29396403166
 42
0.4142135623731
 10
4126.796476778793
 20
-237.79396403166
 42
0.4142135623731
  0
LINE
  5
259
330
1F
100
AcDbEntity
  8
0-B_寸法
  6
Continuous
 62
   120
370
     5
100
AcDbLine
 10
4126.796476778793
 20
-231.7939640316607
 30
0.0
 11
4126.796476778793
 21
-236.29396403166
 31
0.0
  0
TEXT
  5
25A
330
1F
100
AcDbEntity
  8
0-B_寸法
  6
Continuous
 62
     7
370
   211
100
AcDbText
 10
4099.106476778794
 20
-203.2939640316602
 30
0.0
 40
68.58
  1
138
 50
90.0
 41
1.111111111111111
  7
ＭＳ ゴシック
100
AcDbText
  0
LINE
  5
25B
330
1F
100
AcDbEntity
  8
0-B_寸法
  6
Continuous
 62
   120
370
     5
100
AcDbLine
 10
4126.796476778793
 20
-231.7939640316607
 30
0.0
 11
4276.796476778793
 21
-231.7939640316607
 31
0.0
  0
LWPOLYLINE
  5
25C
330
1F
100
AcDbEntity
  8
0-B_寸法
  6
Continuous
 62
     7
370
     9
100
AcDbPolyline
 90
        4
 70
     1
 43
3.0
 10
4128.296476778794
 20
-231.7939640316607
 42
0.4142135623731
 10
4126.796476778793
 20
-230.2939640316607
 42
0.4142135623731
 10
4125.296476778793
 20
-231.7939640316607
 42
0.4142135623731
 10
4126.796476778793
 20
-233.2939640316607
 42
0.4142135623731
  0
LINE
  5
25D
330
1F
100
AcDbEntity
  8
0-B_寸法
  6
Continuous
 62
   120
370
     5
100
AcDbLine
 10
4126.796476778793
 20
-24.79396403165964
 30
0.0
 11
4126.796476778793
 21
-231.7939640316607
 31
0.0
  0
LINE
  5
25E
330
1F
100
AcDbEntity
  8
0-B_寸法
  6
Continuous
 62
   120
370
     5
100
AcDbLine
 10
4126.796476778793
 20
-24.79396403165964
 30
0.0
 11
4276.796476778793
 21
-24.79396403165964
 31
0.0
  0
LINE
  5
25F
330
1F
100
AcDbEntity
  8
0-B_寸法
  6
Continuous
 62
   120
370
     5
100
AcDbLine
 10
4126.796476778793
 20
-20.29396403166032
 30
0.0
 11
4276.796476778793
 21
-20.29396403166032
 31
0.0
  0
LWPOLYLINE
  5
260
330
1F
100
AcDbEntity
  8
0-B_寸法
  6
Continuous
 62
     7
370
     9
100
AcDbPolyline
 90
        4
 70
     1
 43
3.0
 10
4128.296476778794
 20
-24.79396403165964
 42
0.4142135623731
 10
4126.796476778793
 20
-23.29396403165964
 42
0.4142135623731
 10
4125.296476778793
 20
-24.79396403165964
 42
0.4142135623731
 10
4126.796476778793
 20
-26.29396403165964
 42
0.4142135623731
  0
LWPOLYLINE
  5
261
330
1F
100
AcDbEntity
  8
0-B_寸法
  6
Continuous
 62
     7
370
     9
100
AcDbPolyline
 90
        4
 70
     1
 43
3.0
 10
4128.296476778794
 20
-20.29396403166032
 42
0.4142135623731
 10
4126.796476778793
 20
-18.79396403166032
 42
0.4142135623731
 10
4125.296476778793
 20
-20.29396403166032
 42
0.4142135623731
 10
4126.796476778793
 20
-21.79396403166032
 42
0.4142135623731
  0
LINE
  5
262
330
1F
100
AcDbEntity
  8
0-B_寸法
  6
Continuous
 62
   120
370
     5
100
AcDbLine
 10
4126.796476778793
 20
-20.29396403166032
 30
0.0
 11
4126.796476778793
 21
-24.79396403165964
 31
0.0
  0
LINE
  5
263
330
1F
100
AcDbEntity
  8
0-1_本体
  6
JWW_HOJO
 62
   120
370
     5
100
AcDbLine
 10
4276.796476778793
 20
-1091.29396403166
 30
0.0
 11
5077.796476778793
 21
-1091.29396403166
 31
0.0
  0
LINE
  5
264
330
1F
100
AcDbEntity
  8
0-6_桟木
  6
Continuous
 62
    40
370
    15
100
AcDbLine
 10
4329.296476778799
 20
-20.29396403166118
 30
0.0
 11
5002.796476778793
 21
-20.29396403166118
 31
0.0
  0
LINE
  5
265
330
1F
100
AcDbEntity
  8
0-6_桟木
  6
Continuous
 62
    40
370
    15
100
AcDbLine
 10
4327.796476778793
 20
-18.79396403165913
 30
0.0
 11
4329.296476778799
 21
-20.29396403166118
 31
0.0
  0
LINE
  5
266
330
1F
100
AcDbEntity
  8
0-1_本体
  6
JWW_HOJO
 62
   120
370
     5
100
AcDbLine
 10
5077.796476778793
 20
99.70603596833884
 30
0.0
 11
4276.796476778793
 21
99.70603596833884
 31
0.0
  0
LINE
  5
267
330
1F
100
AcDbEntity
  8
0-1_本体
  6
JWW_HOJO
 62
   120
370
     5
100
AcDbLine
 10
4276.796476778793
 20
99.70603596833884
 30
0.0
 11
4276.796476778793
 21
-1091.29396403166
 31
0.0
  0
LINE
  5
268
330
1F
100
AcDbEntity
  8
0-B_寸法
  6
Continuous
 62
   120
370
     5
100
AcDbLine
 10
4327.796476778793
 20
249.7060359683363
 30
0.0
 11
4327.796476778793
 21
99.70603596833628
 31
0.0
  0
LWPOLYLINE
  5
269
330
1F
100
AcDbEntity
  8
0-B_寸法
  6
Continuous
 62
     7
370
     9
100
AcDbPolyline
 90
        4
 70
     1
 43
3.0
 10
4329.296476778793
 20
249.7060359683363
 42
0.4142135623731
 10
4327.796476778793
 20
251.2060359683363
 42
0.4142135623731
 10
4326.296476778793
 20
249.7060359683363
 42
0.4142135623731
 10
4327.796476778793
 20
248.2060359683362
 42
0.4142135623731
  0
LINE
  5
26A
330
1F
100
AcDbEntity
  8
0-B_寸法
  6
Continuous
 62
   120
370
     5
100
AcDbLine
 10
5002.796476778793
 20
249.7060359683363
 30
0.0
 11
4327.796476778793
 21
249.7060359683363
 31
0.0
  0
ARC
  5
26B
330
1F
100
AcDbEntity
  8
0-6_桟木
  6
Continuous
 62
    40
370
    15
100
AcDbCircle
 10
4335.296476778793
 20
17.20603596834054
 30
0.0
 40
7.5
100
AcDbArc
 50
90.0
 51
180.0
  0
LINE
  5
26C
330
1F
100
AcDbEntity
  8
0-6_桟木
  6
Continuous
 62
    40
370
    15
100
AcDbLine
 10
4327.796476778793
 20
-18.79396403165913
 30
0.0
 11
4327.796476778793
 21
17.20603596834054
 31
0.0
  0
LINE
  5
26D
330
1F
100
AcDbEntity
  8
0-6_桟木
  6
Continuous
 62
    40
370
    15
100
AcDbLine
 10
4335.296476778793
 20
24.70603596833884
 30
0.0
 11
5002.796476778793
 21
24.70603596833884
 31
0.0
  0
TEXT
  5
26E
330
1F
100
AcDbEntity
  8
0-B_寸法
  6
Continuous
 62
     7
370
   211
100
AcDbText
 10
4415.546476778793
 20
277.3960359683363
 30
0.0
 40
68.58
  1
450(ｶｳﾝﾀｰ)
 41
1.15
  7
ＭＳ ゴシック
100
AcDbText
  0
LINE
  5
26F
330
1F
100
AcDbEntity
  8
0-0_補助線
  6
JWW_HOJO
 62
   120
370
     5
100
AcDbLine
 10
3685.796476778788
 20
-1091.293964031659
 30
0.0
 11
2884.796015657003
 21
-1091.293964031659
 31
0.0
  0
LINE
  5
270
330
1F
100
AcDbEntity
  8
0-B_寸法
  6
Continuous
 62
   120
370
     5
100
AcDbLine
 10
2734.796015657007
 20
-20.29396403165947
 30
0.0
 11
2734.796015657007
 21
-24.79426431755883
 31
0.0
  0
LWPOLYLINE
  5
271
330
1F
100
AcDbEntity
  8
0-B_寸法
  6
Continuous
 62
     7
370
     9
100
AcDbPolyline
 90
        4
 70
     1
 43
3.0
 10
2736.296015657007
 20
-20.29396403165947
 42
0.4142135623731
 10
2734.796015657007
 20
-18.79396403165947
 42
0.4142135623731
 10
2733.296015657007
 20
-20.29396403165947
 42
0.4142135623731
 10
2734.796015657007
 20
-21.79396403165947
 42
0.4142135623731
  0
LWPOLYLINE
  5
272
330
1F
100
AcDbEntity
  8
0-B_寸法
  6
Continuous
 62
     7
370
     9
100
AcDbPolyline
 90
        4
 70
     1
 43
3.0
 10
2736.296015657007
 20
-24.79426431755883
 42
0.4142135623731
 10
2734.796015657007
 20
-23.29426431755883
 42
0.4142135623731
 10
2733.296015657007
 20
-24.79426431755883
 42
0.4142135623731
 10
2734.796015657007
 20
-26.29426431755883
 42
0.4142135623731
  0
LINE
  5
273
330
1F
100
AcDbEntity
  8
0-B_寸法
  6
Continuous
 62
   120
370
     5
100
AcDbLine
 10
2734.796015657007
 20
-20.29396403165947
 30
0.0
 11
2884.796015657007
 21
-20.29396403165947
 31
0.0
  0
LINE
  5
274
330
1F
100
AcDbEntity
  8
0-B_寸法
  6
Continuous
 62
   120
370
     5
100
AcDbLine
 10
2734.796015657007
 20
-24.79426431755883
 30
0.0
 11
2884.796015657007
 21
-24.79426431755883
 31
0.0
  0
TEXT
  5
275
330
1F
100
AcDbEntity
  8
0-B_寸法
  6
Continuous
 62
     7
370
   211
100
AcDbText
 10
2707.106015657007
 20
-45.04411417460915
 30
0.0
 40
68.58
  1
3
 50
90.0
  7
ＭＳ ゴシック
100
AcDbText
  0
LINE
  5
276
330
1F
100
AcDbEntity
  8
0-B_寸法
  6
Continuous
 62
   120
370
     5
100
AcDbLine
 10
2734.796015657007
 20
-24.79426431755883
 30
0.0
 11
2734.796015657007
 21
-866.2935862440745
 31
0.0
  0
LWPOLYLINE
  5
277
330
1F
100
AcDbEntity
  8
0-B_寸法
  6
Continuous
 62
     7
370
     9
100
AcDbPolyline
 90
        4
 70
     1
 43
3.0
 10
2736.296015657007
 20
-866.2935862440745
 42
0.4142135623731
 10
2734.796015657007
 20
-864.7935862440744
 42
0.4142135623731
 10
2733.296015657007
 20
-866.2935862440745
 42
0.4142135623731
 10
2734.796015657007
 20
-867.7935862440745
 42
0.4142135623731
  0
LINE
  5
278
330
1F
100
AcDbEntity
  8
0-B_寸法
  6
Continuous
 62
   120
370
     5
100
AcDbLine
 10
2734.796015657007
 20
-866.2935862440745
 30
0.0
 11
2884.796015657007
 21
-866.2935862440745
 31
0.0
  0
LINE
  5
279
330
1F
100
AcDbEntity
  8
0-B_寸法
  6
Continuous
 62
   120
370
     5
100
AcDbLine
 10
2734.796015657007
 20
-866.2935862440745
 30
0.0
 11
2734.796015657007
 21
-1016.29396403166
 31
0.0
  0
LWPOLYLINE
  5
27A
330
1F
100
AcDbEntity
  8
0-B_寸法
  6
Continuous
 62
     7
370
     9
100
AcDbPolyline
 90
        4
 70
     1
 43
3.0
 10
2736.296015657007
 20
-1016.29396403166
 42
0.4142135623731
 10
2734.796015657007
 20
-1014.79396403166
 42
0.4142135623731
 10
2733.296015657007
 20
-1016.29396403166
 42
0.4142135623731
 10
2734.796015657007
 20
-1017.793964031659
 42
0.4142135623731
  0
LINE
  5
27B
330
1F
100
AcDbEntity
  8
0-B_寸法
  6
Continuous
 62
   120
370
     5
100
AcDbLine
 10
2734.796015657007
 20
-1016.29396403166
 30
0.0
 11
2884.796015657007
 21
-1016.29396403166
 31
0.0
  0
TEXT
  5
27C
330
1F
100
AcDbEntity
  8
0-B_寸法
  6
Continuous
 62
     7
370
   211
100
AcDbText
 10
2707.106015657007
 20
-1016.293775137867
 30
0.0
 40
68.58
  1
100
 50
90.0
 41
1.111111111111111
  7
ＭＳ ゴシック
100
AcDbText
  0
TEXT
  5
27D
330
1F
100
AcDbEntity
  8
0-B_寸法
  6
Continuous
 62
     7
370
   211
100
AcDbText
 10
2707.106015657007
 20
-678.0439252808171
 30
0.0
 40
68.58
  1
ＤＨ＝561
 50
90.0
 41
1.148148148148148
  7
ＭＳ ゴシック
100
AcDbText
  0
LINE
  5
27E
330
1F
100
AcDbEntity
  8
0-6_桟木
  6
Continuous
 62
    40
370
    15
100
AcDbLine
 10
2937.296476778789
 20
-20.29396403165947
 30
0.0
 11
3610.796476778788
 21
-20.29396403165947
 31
0.0
  0
LINE
  5
27F
330
1F
100
AcDbEntity
  8
0-6_桟木
  6
Continuous
 62
    40
370
    15
100
AcDbLine
 10
2935.796476778788
 20
-18.79396403165657
 30
0.0
 11
2937.296476778789
 21
-20.29396403165947
 31
0.0
  0
LINE
  5
280
330
1F
100
AcDbEntity
  8
0-0_補助線
  6
JWW_HOJO
 62
   120
370
     5
100
AcDbLine
 10
2884.796015657003
 20
99.70603596833969
 30
0.0
 11
3685.796476778788
 21
99.70603596833969
 31
0.0
  0
LINE
  5
281
330
1F
100
AcDbEntity
  8
0-0_補助線
  6
JWW_HOJO
 62
   120
370
     5
100
AcDbLine
 10
2884.796015657003
 20
-1091.293964031659
 30
0.0
 11
2884.796015657003
 21
99.70603596833969
 31
0.0
  0
LWPOLYLINE
  5
282
330
1F
100
AcDbEntity
  8
0-B_寸法
  6
Continuous
 62
     7
370
     9
100
AcDbPolyline
 90
        4
 70
     1
 43
3.0
 10
2736.296015657007
 20
24.7060359683431
 42
0.4142135623731
 10
2734.796015657007
 20
26.2060359683431
 42
0.4142135623731
 10
2733.296015657007
 20
24.7060359683431
 42
0.4142135623731
 10
2734.796015657007
 20
23.2060359683431
 42
0.4142135623731
  0
LINE
  5
283
330
1F
100
AcDbEntity
  8
0-B_寸法
  6
Continuous
 62
   120
370
     5
100
AcDbLine
 10
2734.796015657007
 20
24.7060359683431
 30
0.0
 11
2884.796015657003
 21
24.7060359683431
 31
0.0
  0
LINE
  5
284
330
1F
100
AcDbEntity
  8
0-B_寸法
  6
Continuous
 62
   120
370
     5
100
AcDbLine
 10
2734.796015657007
 20
-20.29396403165947
 30
0.0
 11
2734.796015657007
 21
125.5875761436755
 31
0.0
  0
ARC
  5
285
330
1F
100
AcDbEntity
  8
0-6_桟木
  6
Continuous
 62
    40
370
    15
100
AcDbCircle
 10
2943.296476778788
 20
17.2060359683431
 30
0.0
 40
7.5
100
AcDbArc
 50
90.0
 51
180.0
  0
LINE
  5
286
330
1F
100
AcDbEntity
  8
0-6_桟木
  6
Continuous
 62
    40
370
    15
100
AcDbLine
 10
2935.796476778788
 20
-18.79396403165657
 30
0.0
 11
2935.796476778788
 21
17.2060359683431
 31
0.0
  0
LINE
  5
287
330
1F
100
AcDbEntity
  8
0-6_桟木
  6
Continuous
 62
    40
370
    15
100
AcDbLine
 10
2943.296476778788
 20
24.70603596834054
 30
0.0
 11
3610.796476778788
 21
24.70603596834054
 31
0.0
  0
LINE
  5
288
330
1F
100
AcDbEntity
  8
0-B_寸法
  6
Continuous
 62
   120
370
     5
100
AcDbLine
 10
2935.796476778788
 20
699.7060359683405
 30
0.0
 11
2935.796476778788
 21
99.70603596833713
 31
0.0
  0
LWPOLYLINE
  5
289
330
1F
100
AcDbEntity
  8
0-B_寸法
  6
Continuous
 62
     7
370
     9
100
AcDbPolyline
 90
        4
 70
     1
 43
3.0
 10
2937.296476778787
 20
699.7060359683405
 42
0.4142135623731
 10
2935.796476778788
 20
701.2060359683405
 42
0.4142135623731
 10
2934.296476778788
 20
699.7060359683405
 42
0.4142135623731
 10
2935.796476778788
 20
698.2060359683405
 42
0.4142135623731
  0
LINE
  5
28A
330
1F
100
AcDbEntity
  8
0-B_寸法
  6
Continuous
 62
   120
370
     5
100
AcDbLine
 10
3610.796476778788
 20
699.7060359683405
 30
0.0
 11
2935.796476778788
 21
699.7060359683405
 31
0.0
  0
TEXT
  5
28B
330
1F
100
AcDbEntity
  8
0-B_寸法
  6
Continuous
 62
     7
370
   211
100
AcDbText
 10
3014.546476778788
 20
727.3960359683406
 30
0.0
 40
68.58
  1
450(ｶｳﾝﾀｰ)
 41
1.15
  7
ＭＳ ゴシック
100
AcDbText
  0
TEXT
  5
28C
330
1F
100
AcDbEntity
  8
0-B_寸法
  6
Continuous
 62
     7
370
   211
100
AcDbText
 10
5200.106476778798
 20
37.76457715049638
 30
0.0
 40
68.58
  1
30
 50
90.0
 41
1.083333333333333
  7
ＭＳ ゴシック
100
AcDbText
  0
TEXT
  5
28D
330
1F
100
AcDbEntity
  8
0-B_寸法
  6
Continuous
 62
     7
370
   211
100
AcDbText
 10
2707.106015657007
 20
28.08757614367552
 30
0.0
 40
68.58
  1
30
 50
90.0
 41
1.083333333333333
  7
ＭＳ ゴシック
100
AcDbText
  0
TEXT
  5
28E
330
1F
100
AcDbEntity
  8
0-B_寸法
  6
Continuous
 62
     7
370
   211
100
AcDbText
 10
-1213.893984342984
 20
-83.31112852664542
 30
0.0
 40
68.58
  1
30
 50
90.0
 41
1.083333333333333
  7
ＭＳ ゴシック
100
AcDbText
  0
TEXT
  5
28F
330
1F
100
AcDbEntity
  8
0-B_寸法
  6
Continuous
 62
     7
370
   211
100
AcDbText
 10
-5375.486724218621
 20
-73.80621402601889
 30
0.0
 40
68.58
  1
30
 50
90.0
 41
1.083333333333333
  7
ＭＳ ゴシック
100
AcDbText
  0
TEXT
  5
290
330
1F
100
AcDbEntity
  8
0-B_寸法
  6
Continuous
 62
     7
370
   211
100
AcDbText
 10
-5525.486724218621
 20
-570.7939640316599
 30
0.0
 40
68.58
  1
694
 50
90.0
 41
1.111111111111111
  7
ＭＳ ゴシック
100
AcDbText
  0
TEXT
  5
291
330
1F
100
AcDbEntity
  8
0-A_文字
  6
Continuous
 62
     7
370
     9
100
AcDbText
 10
3757.796476778793
 20
-2053.603964031661
 30
0.0
 40
68.58
  1
※カウンター：集成オーク
 41
1.152777777777778
  7
ＭＳ ゴシック
100
AcDbText
  0
LINE
  5
292
330
1F
100
AcDbEntity
  8
0-1_本体
  6
Continuous
 62
     7
370
     9
100
AcDbLine
 10
1432.046015657015
 20
-843.0439640316603
 30
0.0
 11
2015.546015657016
 21
-843.0439640316603
 31
0.0
  0
LINE
  5
293
330
1F
100
AcDbEntity
  8
0-1_本体
  6
Continuous
 62
     7
370
     9
100
AcDbLine
 10
1432.046015657015
 20
-866.2939640316596
 30
0.0
 11
2015.546015657016
 21
-866.2939640316596
 31
0.0
  0
LINE
  5
294
330
1F
100
AcDbEntity
  8
0-1_本体
  6
Continuous
 62
    40
370
    15
100
AcDbLine
 10
3610.796476778788
 20
-20.29396403165947
 30
0.0
 11
3610.796476778788
 21
-27.79396403165947
 31
0.0
  0
LINE
  5
295
330
1F
100
AcDbEntity
  8
0-1_本体
  6
Continuous
 62
    40
370
    15
100
AcDbLine
 10
2998.796476778788
 20
-20.29396403165947
 30
0.0
 11
3610.796476778788
 21
-20.29396403165947
 31
0.0
  0
LINE
  5
296
330
1F
100
AcDbEntity
  8
0-1_本体
  6
Continuous
 62
    40
370
    15
100
AcDbLine
 10
2998.796476778788
 20
-43.54396403165879
 30
0.0
 11
2998.796476778788
 21
-20.29396403165947
 31
0.0
  0
LWPOLYLINE
  5
297
330
1F
100
AcDbEntity
  8
0-B_寸法
  6
Continuous
 62
     7
370
     9
100
AcDbPolyline
 90
        4
 70
     1
 43
3.0
 10
3607.796476778788
 20
-225.2787894906001
 42
0.4142135623731
 10
3606.296476778788
 20
-223.7787894906001
 42
0.4142135623731
 10
3604.796476778788
 20
-225.2787894906001
 42
0.4142135623731
 10
3606.296476778788
 20
-226.7787894906001
 42
0.4142135623731
  0
LINE
  5
298
330
1F
100
AcDbEntity
  8
0-B_寸法
  6
Continuous
 62
   120
370
     5
100
AcDbLine
 10
3606.296476778788
 20
-225.2787894906001
 30
0.0
 11
3606.296476778788
 21
-75.2787894906001
 31
0.0
  0
LINE
  5
299
330
1F
100
AcDbEntity
  8
0-1_本体
  6
Continuous
 62
    40
370
    15
100
AcDbLine
 10
3606.296476778788
 20
-27.79396403165947
 30
0.0
 11
3610.796476778788
 21
-27.79396403165947
 31
0.0
  0
LINE
  5
29A
330
1F
100
AcDbEntity
  8
0-1_本体
  6
Continuous
 62
    40
370
    15
100
AcDbLine
 10
2998.796476778788
 20
-43.54396403165879
 30
0.0
 11
3606.296476778788
 21
-43.54396403165879
 31
0.0
  0
LINE
  5
29B
330
1F
100
AcDbEntity
  8
0-1_本体
  6
Continuous
 62
    40
370
    15
100
AcDbLine
 10
3606.296476778788
 20
-28.54396403165879
 30
0.0
 11
3610.796476778788
 21
-28.54396403165879
 31
0.0
  0
LWPOLYLINE
  5
29C
330
1F
100
AcDbEntity
  8
0-B_寸法
  6
Continuous
 62
     7
370
     9
100
AcDbPolyline
 90
        4
 70
     1
 43
3.0
 10
3612.296476778787
 20
-225.2787894906001
 42
0.4142135623731
 10
3610.796476778788
 20
-223.7787894906001
 42
0.4142135623731
 10
3609.296476778788
 20
-225.2787894906001
 42
0.4142135623731
 10
3610.796476778788
 20
-226.7787894906001
 42
0.4142135623731
  0
LINE
  5
29D
330
1F
100
AcDbEntity
  8
0-B_寸法
  6
Continuous
 62
   120
370
     5
100
AcDbLine
 10
3610.796476778788
 20
-225.2787894906001
 30
0.0
 11
3610.796476778788
 21
-75.2787894906001
 31
0.0
  0
LINE
  5
29E
330
1F
100
AcDbEntity
  8
0-B_寸法
  6
Continuous
 62
   120
370
     5
100
AcDbLine
 10
3606.296476778788
 20
-225.2787894906001
 30
0.0
 11
3610.796476778788
 21
-225.2787894906001
 31
0.0
  0
LINE
  5
29F
330
1F
100
AcDbEntity
  8
0-1_本体
  6
Continuous
 62
     7
370
     9
100
AcDbLine
 10
3610.796476778788
 20
-866.2939640316591
 30
0.0
 11
3610.796476778788
 21
-1016.293964031659
 31
0.0
  0
LINE
  5
2A0
330
1F
100
AcDbEntity
  8
0-1_本体
  6
Continuous
 62
    40
370
    15
100
AcDbLine
 10
3610.796476778788
 20
-858.7939640316591
 30
0.0
 11
3610.796476778788
 21
-866.2939640316591
 31
0.0
  0
LINE
  5
2A1
330
1F
100
AcDbEntity
  8
0-1_本体
  6
Continuous
 62
    40
370
    15
100
AcDbLine
 10
3610.796476778788
 20
-866.2939640316591
 30
0.0
 11
2998.796476778788
 21
-866.2939640316591
 31
0.0
  0
LINE
  5
2A2
330
1F
100
AcDbEntity
  8
0-1_本体
  6
Continuous
 62
     7
370
     9
100
AcDbLine
 10
2998.796476778788
 20
-866.2939640316591
 30
0.0
 11
2998.796476778788
 21
-1016.293964031659
 31
0.0
  0
LINE
  5
2A3
330
1F
100
AcDbEntity
  8
0-1_本体
  6
Continuous
 62
    40
370
    15
100
AcDbLine
 10
2998.796476778788
 20
-866.2939640316591
 30
0.0
 11
2998.796476778788
 21
-843.0439640316598
 31
0.0
  0
LWPOLYLINE
  5
2A4
330
1F
100
AcDbEntity
  8
0-B_寸法
  6
Continuous
 62
     7
370
     9
100
AcDbPolyline
 90
        4
 70
     1
 43
3.0
 10
3612.296476778787
 20
-1241.293964031659
 42
0.4142135623731
 10
3610.796476778788
 20
-1239.793964031659
 42
0.4142135623731
 10
3609.296476778788
 20
-1241.293964031659
 42
0.4142135623731
 10
3610.796476778788
 20
-1242.793964031659
 42
0.4142135623731
  0
LINE
  5
2A5
330
1F
100
AcDbEntity
  8
0-B_寸法
  6
Continuous
 62
   120
370
     5
100
AcDbLine
 10
3610.796476778788
 20
-1391.293964031659
 30
0.0
 11
3610.796476778788
 21
-1091.293964031659
 31
0.0
  0
LWPOLYLINE
  5
2A6
330
1F
100
AcDbEntity
  8
0-B_寸法
  6
Continuous
 62
     7
370
     9
100
AcDbPolyline
 90
        4
 70
     1
 43
3.0
 10
3000.296476778788
 20
-1241.293964031659
 42
0.4142135623731
 10
2998.796476778788
 20
-1239.793964031659
 42
0.4142135623731
 10
2997.296476778788
 20
-1241.293964031659
 42
0.4142135623731
 10
2998.796476778788
 20
-1242.793964031659
 42
0.4142135623731
  0
LINE
  5
2A7
330
1F
100
AcDbEntity
  8
0-B_寸法
  6
Continuous
 62
   120
370
     5
100
AcDbLine
 10
2998.796476778788
 20
-1391.293964031659
 30
0.0
 11
2998.796476778788
 21
-1091.293964031659
 31
0.0
  0
LINE
  5
2A8
330
1F
100
AcDbEntity
  8
0-0_補助線
  6
JWW_HOJO
 62
     7
370
     9
100
AcDbLine
 10
3556.796476778789
 20
-43.54396403165879
 30
0.0
 11
3556.796476778789
 21
-843.0439640316598
 31
0.0
  0
LINE
  5
2A9
330
1F
100
AcDbEntity
  8
0-0_補助線
  6
JWW_HOJO
 62
     7
370
     9
100
AcDbLine
 10
3061.796476778789
 20
-43.54396403165879
 30
0.0
 11
3061.796476778789
 21
-843.0439640316598
 31
0.0
  0
LINE
  5
2AA
330
1F
100
AcDbEntity
  8
0-B_寸法
  6
Continuous
 62
   120
370
     5
100
AcDbLine
 10
2998.796476778788
 20
-1391.293964031659
 30
0.0
 11
3610.796476778788
 21
-1391.293964031659
 31
0.0
  0
LWPOLYLINE
  5
2AB
330
1F
100
AcDbEntity
  8
0-B_寸法
  6
Continuous
 62
     7
370
     9
100
AcDbPolyline
 90
        4
 70
     1
 43
3.0
 10
3000.296476778788
 20
-1391.293964031659
 42
0.4142135623731
 10
2998.796476778788
 20
-1389.793964031659
 42
0.4142135623731
 10
2997.296476778788
 20
-1391.293964031659
 42
0.4142135623731
 10
2998.796476778788
 20
-1392.793964031659
 42
0.4142135623731
  0
LWPOLYLINE
  5
2AC
330
1F
100
AcDbEntity
  8
0-B_寸法
  6
Continuous
 62
     7
370
     9
100
AcDbPolyline
 90
        4
 70
     1
 43
3.0
 10
3612.296476778787
 20
-1391.293964031659
 42
0.4142135623731
 10
3610.796476778788
 20
-1389.793964031659
 42
0.4142135623731
 10
3609.296476778788
 20
-1391.293964031659
 42
0.4142135623731
 10
3610.796476778788
 20
-1392.793964031659
 42
0.4142135623731
  0
LINE
  5
2AD
330
1F
100
AcDbEntity
  8
0-1_本体
  6
Continuous
 62
    40
370
    15
100
AcDbLine
 10
3606.296476778788
 20
-27.79396403165947
 30
0.0
 11
3606.296476778788
 21
-858.7939640316591
 31
0.0
  0
LINE
  5
2AE
330
1F
100
AcDbEntity
  8
0-1_本体
  6
Continuous
 62
    40
370
    15
100
AcDbLine
 10
3610.796476778788
 20
-858.7939640316591
 30
0.0
 11
3606.297002058182
 21
-858.7939640316591
 31
0.0
  0
LINE
  5
2AF
330
1F
100
AcDbEntity
  8
0-1_本体
  6
Continuous
 62
    40
370
    15
100
AcDbLine
 10
3606.296476778788
 20
-843.0439640316598
 30
0.0
 11
2998.796476778788
 21
-843.0439640316598
 31
0.0
  0
LINE
  5
2B0
330
1F
100
AcDbEntity
  8
0-1_本体
  6
Continuous
 62
    40
370
    15
100
AcDbLine
 10
3610.796476778788
 20
-28.54396403165879
 30
0.0
 11
3610.796476778788
 21
-858.0439640316598
 31
0.0
  0
LINE
  5
2B1
330
1F
100
AcDbEntity
  8
0-1_本体
  6
Continuous
 62
    40
370
    15
100
AcDbLine
 10
3610.796476778788
 20
-858.0439640316598
 30
0.0
 11
3606.297002058182
 21
-858.0439640316598
 31
0.0
  0
CIRCLE
  5
2B2
330
1F
100
AcDbEntity
  8
0-5_ダボ
  6
Continuous
 62
     7
370
     9
100
AcDbCircle
 10
3556.796476778789
 20
-600.7939640316592
 30
0.0
 40
3.675
  0
CIRCLE
  5
2B3
330
1F
100
AcDbEntity
  8
0-5_ダボ
  6
Continuous
 62
     7
370
     9
100
AcDbCircle
 10
3061.796476778789
 20
-600.7939640316592
 30
0.0
 40
3.675
  0
LINE
  5
2B4
330
1F
100
AcDbEntity
  8
0-0_補助線
  6
JWW_HOJO
 62
     7
370
     9
100
AcDbLine
 10
2998.796476778788
 20
-600.7939640316592
 30
0.0
 11
3606.296476778788
 21
-600.7939640316592
 31
0.0
  0
CIRCLE
  5
2B5
330
1F
100
AcDbEntity
  8
0-5_ダボ
  6
Continuous
 62
     7
370
     9
100
AcDbCircle
 10
3556.796476778789
 20
-375.7939640316584
 30
0.0
 40
3.675
  0
CIRCLE
  5
2B6
330
1F
100
AcDbEntity
  8
0-5_ダボ
  6
Continuous
 62
     7
370
     9
100
AcDbCircle
 10
3556.796476778789
 20
-330.7939640316584
 30
0.0
 40
3.675
  0
CIRCLE
  5
2B7
330
1F
100
AcDbEntity
  8
0-5_ダボ
  6
Continuous
 62
     7
370
     9
100
AcDbCircle
 10
3556.796476778789
 20
-285.7939640316584
 30
0.0
 40
3.675
  0
CIRCLE
  5
2B8
330
1F
100
AcDbEntity
  8
0-5_ダボ
  6
Continuous
 62
     7
370
     9
100
AcDbCircle
 10
3061.796476778789
 20
-285.7939640316584
 30
0.0
 40
3.675
  0
CIRCLE
  5
2B9
330
1F
100
AcDbEntity
  8
0-5_ダボ
  6
Continuous
 62
     7
370
     9
100
AcDbCircle
 10
3061.796476778789
 20
-330.7939640316584
 30
0.0
 40
3.675
  0
CIRCLE
  5
2BA
330
1F
100
AcDbEntity
  8
0-5_ダボ
  6
Continuous
 62
     7
370
     9
100
AcDbCircle
 10
3061.796476778789
 20
-375.7939640316584
 30
0.0
 40
3.675
  0
LINE
  5
2BB
330
1F
100
AcDbEntity
  8
0-0_補助線
  6
JWW_HOJO
 62
     7
370
     9
100
AcDbLine
 10
2998.796476778788
 20
-375.7939640316584
 30
0.0
 11
3606.296476778788
 21
-375.7939640316584
 31
0.0
  0
LINE
  5
2BC
330
1F
100
AcDbEntity
  8
0-0_補助線
  6
JWW_HOJO
 62
     7
370
     9
100
AcDbLine
 10
2998.796476778788
 20
-285.7939640316584
 30
0.0
 11
3606.296476778788
 21
-285.7939640316584
 31
0.0
  0
LINE
  5
2BD
330
1F
100
AcDbEntity
  8
0-0_補助線
  6
JWW_HOJO
 62
     7
370
     9
100
AcDbLine
 10
2998.796476778788
 20
-330.7939640316584
 30
0.0
 11
3606.296476778788
 21
-330.7939640316584
 31
0.0
  0
CIRCLE
  5
2BE
330
1F
100
AcDbEntity
  8
0-5_ダボ
  6
Continuous
 62
     7
370
     9
100
AcDbCircle
 10
3556.796476778789
 20
-420.7939640316584
 30
0.0
 40
3.675
  0
CIRCLE
  5
2BF
330
1F
100
AcDbEntity
  8
0-5_ダボ
  6
Continuous
 62
     7
370
     9
100
AcDbCircle
 10
3061.796476778789
 20
-420.7939640316584
 30
0.0
 40
3.675
  0
LINE
  5
2C0
330
1F
100
AcDbEntity
  8
0-0_補助線
  6
JWW_HOJO
 62
     7
370
     9
100
AcDbLine
 10
2998.796476778788
 20
-420.7939640316584
 30
0.0
 11
3606.296476778788
 21
-420.7939640316584
 31
0.0
  0
CIRCLE
  5
2C1
330
1F
100
AcDbEntity
  8
0-5_ダボ
  6
Continuous
 62
     7
370
     9
100
AcDbCircle
 10
3556.796476778789
 20
-465.7939640316584
 30
0.0
 40
3.675
  0
CIRCLE
  5
2C2
330
1F
100
AcDbEntity
  8
0-5_ダボ
  6
Continuous
 62
     7
370
     9
100
AcDbCircle
 10
3061.796476778789
 20
-465.7939640316584
 30
0.0
 40
3.675
  0
LINE
  5
2C3
330
1F
100
AcDbEntity
  8
0-0_補助線
  6
JWW_HOJO
 62
     7
370
     9
100
AcDbLine
 10
2998.796476778788
 20
-465.7939640316584
 30
0.0
 11
3606.296476778788
 21
-465.7939640316584
 31
0.0
  0
CIRCLE
  5
2C4
330
1F
100
AcDbEntity
  8
0-5_ダボ
  6
Continuous
 62
     7
370
     9
100
AcDbCircle
 10
3556.796476778789
 20
-510.7939640316584
 30
0.0
 40
3.675
  0
CIRCLE
  5
2C5
330
1F
100
AcDbEntity
  8
0-5_ダボ
  6
Continuous
 62
     7
370
     9
100
AcDbCircle
 10
3061.796476778789
 20
-510.7939640316584
 30
0.0
 40
3.675
  0
LINE
  5
2C6
330
1F
100
AcDbEntity
  8
0-0_補助線
  6
JWW_HOJO
 62
     7
370
     9
100
AcDbLine
 10
2998.796476778788
 20
-510.7939640316584
 30
0.0
 11
3606.296476778788
 21
-510.7939640316584
 31
0.0
  0
CIRCLE
  5
2C7
330
1F
100
AcDbEntity
  8
0-5_ダボ
  6
Continuous
 62
     7
370
     9
100
AcDbCircle
 10
3556.796476778789
 20
-555.7939640316592
 30
0.0
 40
3.675
  0
CIRCLE
  5
2C8
330
1F
100
AcDbEntity
  8
0-5_ダボ
  6
Continuous
 62
     7
370
     9
100
AcDbCircle
 10
3061.796476778789
 20
-555.7939640316592
 30
0.0
 40
3.675
  0
LINE
  5
2C9
330
1F
100
AcDbEntity
  8
0-0_補助線
  6
JWW_HOJO
 62
     7
370
     9
100
AcDbLine
 10
2998.796476778788
 20
-555.7939640316592
 30
0.0
 11
3606.296476778788
 21
-555.7939640316592
 31
0.0
  0
LINE
  5
2CA
330
1F
100
AcDbEntity
  8
0-4_棚
  6
Continuous
 62
    40
370
    15
100
AcDbLine
 10
3606.296476778788
 20
-303.8689640316591
 30
0.0
 11
3606.296476778788
 21
-327.1189640316584
 31
0.0
  0
LINE
  5
2CB
330
1F
100
AcDbEntity
  8
0-4_棚
  6
Continuous
 62
    40
370
    15
100
AcDbLine
 10
3024.296476778789
 20
-303.8689640316591
 30
0.0
 11
3606.296476778788
 21
-303.8689640316591
 31
0.0
  0
LINE
  5
2CC
330
1F
100
AcDbEntity
  8
0-4_棚
  6
Continuous
 62
    40
370
    15
100
AcDbLine
 10
3024.296476778789
 20
-327.1189640316584
 30
0.0
 11
3024.296476778789
 21
-303.8689640316591
 31
0.0
  0
LINE
  5
2CD
330
1F
100
AcDbEntity
  8
0-4_棚
  6
Continuous
 62
    40
370
    15
100
AcDbLine
 10
3606.296476778788
 20
-327.1189640316584
 30
0.0
 11
3024.296476778789
 21
-327.1189640316584
 31
0.0
  0
LINE
  5
2CE
330
1F
100
AcDbEntity
  8
0-4_棚
  6
Continuous
 62
    40
370
    15
100
AcDbLine
 10
3606.296476778788
 20
-573.8689640316591
 30
0.0
 11
3606.296476778788
 21
-597.1189640316584
 31
0.0
  0
LINE
  5
2CF
330
1F
100
AcDbEntity
  8
0-4_棚
  6
Continuous
 62
    40
370
    15
100
AcDbLine
 10
3024.296476778789
 20
-573.8689640316591
 30
0.0
 11
3606.296476778788
 21
-573.8689640316591
 31
0.0
  0
LINE
  5
2D0
330
1F
100
AcDbEntity
  8
0-4_棚
  6
Continuous
 62
    40
370
    15
100
AcDbLine
 10
3024.296476778789
 20
-597.1189640316584
 30
0.0
 11
3024.296476778789
 21
-573.8689640316591
 31
0.0
  0
LINE
  5
2D1
330
1F
100
AcDbEntity
  8
0-4_棚
  6
Continuous
 62
    40
370
    15
100
AcDbLine
 10
3606.296476778788
 20
-597.1189640316584
 30
0.0
 11
3024.296476778789
 21
-597.1189640316584
 31
0.0
  0
LINE
  5
2D2
330
1F
100
AcDbEntity
  8
0-B_寸法
  6
Continuous
 62
   120
370
     5
100
AcDbLine
 10
3024.296476778789
 20
-795.7939640316592
 30
0.0
 11
3606.296476778788
 21
-795.7939640316592
 31
0.0
  0
LWPOLYLINE
  5
2D3
330
1F
100
AcDbEntity
  8
0-B_寸法
  6
Continuous
 62
     7
370
     9
100
AcDbPolyline
 90
        4
 70
     1
 43
3.0
 10
3025.796476778788
 20
-795.7939640316592
 42
0.4142135623731
 10
3024.296476778789
 20
-794.2939640316592
 42
0.4142135623731
 10
3022.796476778789
 20
-795.7939640316592
 42
0.4142135623731
 10
3024.296476778789
 20
-797.2939640316594
 42
0.4142135623731
  0
LWPOLYLINE
  5
2D4
330
1F
100
AcDbEntity
  8
0-B_寸法
  6
Continuous
 62
     7
370
     9
100
AcDbPolyline
 90
        4
 70
     1
 43
3.0
 10
3607.796476778788
 20
-795.7939640316592
 42
0.4142135623731
 10
3606.296476778788
 20
-794.2939640316592
 42
0.4142135623731
 10
3604.796476778788
 20
-795.7939640316592
 42
0.4142135623731
 10
3606.296476778788
 20
-797.2939640316594
 42
0.4142135623731
  0
LINE
  5
2D5
330
1F
100
AcDbEntity
  8
0-B_寸法
  6
Continuous
 62
   120
370
     5
100
AcDbLine
 10
3024.296476778789
 20
-795.7939640316592
 30
0.0
 11
3024.296476778789
 21
-645.7939640316592
 31
0.0
  0
LINE
  5
2D6
330
1F
100
AcDbEntity
  8
0-B_寸法
  6
Continuous
 62
   120
370
     5
100
AcDbLine
 10
3606.296476778788
 20
-795.7939640316592
 30
0.0
 11
3606.296476778788
 21
-645.7939640316592
 31
0.0
  0
LINE
  5
2D7
330
1F
100
AcDbEntity
  8
0-B_寸法
  6
Continuous
 62
   120
370
     5
100
AcDbLine
 10
3151.796476778789
 20
-375.7939640316584
 30
0.0
 11
3151.796476778789
 21
-420.7939640316584
 31
0.0
  0
LWPOLYLINE
  5
2D8
330
1F
100
AcDbEntity
  8
0-B_寸法
  6
Continuous
 62
     7
370
     9
100
AcDbPolyline
 90
        4
 70
     1
 43
3.0
 10
3153.296476778788
 20
-375.7939640316584
 42
0.4142135623731
 10
3151.796476778789
 20
-374.2939640316584
 42
0.4142135623731
 10
3150.296476778789
 20
-375.7939640316584
 42
0.4142135623731
 10
3151.796476778789
 20
-377.2939640316584
 42
0.4142135623731
  0
LWPOLYLINE
  5
2D9
330
1F
100
AcDbEntity
  8
0-B_寸法
  6
Continuous
 62
     7
370
     9
100
AcDbPolyline
 90
        4
 70
     1
 43
3.0
 10
3153.296476778788
 20
-420.7939640316584
 42
0.4142135623731
 10
3151.796476778789
 20
-419.2939640316584
 42
0.4142135623731
 10
3150.296476778789
 20
-420.7939640316584
 42
0.4142135623731
 10
3151.796476778789
 20
-422.2939640316584
 42
0.4142135623731
  0
LINE
  5
2DA
330
1F
100
AcDbEntity
  8
0-B_寸法
  6
Continuous
 62
   120
370
     5
100
AcDbLine
 10
3151.796476778789
 20
-375.7939640316584
 30
0.0
 11
3091.796476778789
 21
-375.7939640316584
 31
0.0
  0
LINE
  5
2DB
330
1F
100
AcDbEntity
  8
0-B_寸法
  6
Continuous
 62
   120
370
     5
100
AcDbLine
 10
3151.796476778789
 20
-420.7939640316584
 30
0.0
 11
3091.796476778789
 21
-420.7939640316584
 31
0.0
  0
TEXT
  5
2DC
330
1F
100
AcDbEntity
  8
0-B_寸法
  6
Continuous
 62
     7
370
   211
100
AcDbText
 10
3618.125287646567
 20
-197.5887894906001
 30
0.0
 40
68.58
  1
3
  7
ＭＳ ゴシック
100
AcDbText
  0
TEXT
  5
2DD
330
1F
100
AcDbEntity
  8
0-B_寸法
  6
Continuous
 62
     7
370
   211
100
AcDbText
 10
3185.139407420226
 20
-432.7189640316585
 30
0.0
 40
57.15000000000001
  1
P30
 41
0.9999999999999999
  7
ＭＳ ゴシック
100
AcDbText
  0
TEXT
  5
2DE
330
1F
100
AcDbEntity
  8
0-B_寸法
  6
Continuous
 62
     7
370
   211
100
AcDbText
 10
3109.046476778788
 20
-770.2189640316592
 30
0.0
 40
57.15000000000001
  1
可動棚＝388
 41
0.9999999999999999
  7
ＭＳ ゴシック
100
AcDbText
  0
TEXT
  5
2DF
330
1F
100
AcDbEntity
  8
0-B_寸法
  6
Continuous
 62
     7
370
   211
100
AcDbText
 10
2793.296476778788
 20
-1333.603964031659
 30
0.0
 40
68.58
  1
15.5
 41
1.125
  7
ＭＳ ゴシック
100
AcDbText
  0
TEXT
  5
2E0
330
1F
100
AcDbEntity
  8
0-B_寸法
  6
Continuous
 62
     7
370
   211
100
AcDbText
 10
3229.796476778789
 20
-1363.603964031659
 30
0.0
 40
68.58
  1
408
 41
1.111111111111111
  7
ＭＳ ゴシック
100
AcDbText
  0
LINE
  5
2E1
330
1F
100
AcDbEntity
  8
1-2_扉
  6
Continuous
 62
    40
370
    15
100
AcDbLine
 10
2998.796476778788
 20
-866.2935862440736
 30
0.0
 11
2998.796476778788
 21
-24.79426431755883
 31
0.0
  0
LINE
  5
2E2
330
1F
100
AcDbEntity
  8
1-2_扉
  6
Continuous
 62
    40
370
    15
100
AcDbLine
 10
2971.796476778789
 20
-24.79426431755883
 30
0.0
 11
2998.796476778788
 21
-24.79426431755883
 31
0.0
  0
LINE
  5
2E3
330
1F
100
AcDbEntity
  8
1-2_扉
  6
Continuous
 62
    40
370
    15
100
AcDbLine
 10
2971.796476778789
 20
-866.2935862440736
 30
0.0
 11
2998.796476778788
 21
-866.2935862440736
 31
0.0
  0
LINE
  5
2E4
330
1F
100
AcDbEntity
  8
1-2_扉
  6
Continuous
 62
    40
370
    15
100
AcDbLine
 10
2971.796476778789
 20
-866.2935862440736
 30
0.0
 11
2971.796476778789
 21
-24.79426431755883
 31
0.0
  0
LINE
  5
2E5
330
1F
100
AcDbEntity
  8
0-1_本体
  6
Continuous
 62
    40
370
    15
100
AcDbLine
 10
3002.546476778788
 20
-1016.293964031659
 30
0.0
 11
3002.546476778788
 21
-866.2939640316591
 31
0.0
  0
LINE
  5
2E6
330
1F
100
AcDbEntity
  8
0-1_本体
  6
Continuous
 62
     7
370
     9
100
AcDbLine
 10
3002.546476778788
 20
-1016.293964031659
 30
0.0
 11
2998.796476778788
 21
-1016.293964031659
 31
0.0
  0
LINE
  5
2E7
330
1F
100
AcDbEntity
  8
0-1_本体
  6
Continuous
 62
    40
370
    15
100
AcDbLine
 10
3025.796476778788
 20
-1016.293964031659
 30
0.0
 11
3025.796476778788
 21
-866.2939640316591
 31
0.0
  0
LINE
  5
2E8
330
1F
100
AcDbEntity
  8
0-1_本体
  6
Continuous
 62
    40
370
    15
100
AcDbLine
 10
3025.796476778788
 20
-1016.293964031659
 30
0.0
 11
3002.546476778788
 21
-1016.293964031659
 31
0.0
  0
LINE
  5
2E9
330
1F
100
AcDbEntity
  8
0-1_本体
  6
Continuous
 62
     7
370
     9
100
AcDbLine
 10
3025.796476778788
 20
-1016.293964031659
 30
0.0
 11
3610.796476778788
 21
-1016.293964031659
 31
0.0
  0
LINE
  5
2EA
330
1F
100
AcDbEntity
  8
0-B_寸法
  6
Continuous
 62
   120
370
     5
100
AcDbLine
 10
3610.796476778788
 20
-1241.293964031659
 30
0.0
 11
3025.796476778788
 21
-1241.293964031659
 31
0.0
  0
LWPOLYLINE
  5
2EB
330
1F
100
AcDbEntity
  8
0-B_寸法
  6
Continuous
 62
     7
370
     9
100
AcDbPolyline
 90
        4
 70
     1
 43
3.0
 10
3027.296476778787
 20
-1241.293964031659
 42
0.4142135623731
 10
3025.796476778788
 20
-1239.793964031659
 42
0.4142135623731
 10
3024.296476778788
 20
-1241.293964031659
 42
0.4142135623731
 10
3025.796476778788
 20
-1242.793964031659
 42
0.4142135623731
  0
LINE
  5
2EC
330
1F
100
AcDbEntity
  8
0-B_寸法
  6
Continuous
 62
   120
370
     5
100
AcDbLine
 10
3025.796476778788
 20
-1241.293964031659
 30
0.0
 11
3025.796476778788
 21
-1091.293964031659
 31
0.0
  0
LINE
  5
2ED
330
1F
100
AcDbEntity
  8
0-B_寸法
  6
Continuous
 62
   120
370
     5
100
AcDbLine
 10
3025.796476778788
 20
-1241.293964031659
 30
0.0
 11
3002.546476778788
 21
-1241.293964031659
 31
0.0
  0
LWPOLYLINE
  5
2EE
330
1F
100
AcDbEntity
  8
0-B_寸法
  6
Continuous
 62
     7
370
     9
100
AcDbPolyline
 90
        4
 70
     1
 43
3.0
 10
3004.046476778788
 20
-1241.293964031659
 42
0.4142135623731
 10
3002.546476778788
 20
-1239.793964031659
 42
0.4142135623731
 10
3001.046476778788
 20
-1241.293964031659
 42
0.4142135623731
 10
3002.546476778788
 20
-1242.793964031659
 42
0.4142135623731
  0
LINE
  5
2EF
330
1F
100
AcDbEntity
  8
0-B_寸法
  6
Continuous
 62
   120
370
     5
100
AcDbLine
 10
3002.546476778788
 20
-1241.293964031659
 30
0.0
 11
3002.546476778788
 21
-1091.293964031659
 31
0.0
  0
LINE
  5
2F0
330
1F
100
AcDbEntity
  8
0-B_寸法
  6
Continuous
 62
   120
370
     5
100
AcDbLine
 10
3002.546476778788
 20
-1241.293964031659
 30
0.0
 11
2998.796476778788
 21
-1241.293964031659
 31
0.0
  0
TEXT
  5
2F1
330
1F
100
AcDbEntity
  8
0-B_寸法
  6
Continuous
 62
     7
370
   211
100
AcDbText
 10
3243.296476778788
 20
-1213.603964031659
 30
0.0
 40
68.58
  1
390
 41
1.111111111111111
  7
ＭＳ ゴシック
100
AcDbText
  0
TEXT
  5
2F2
330
1F
100
AcDbEntity
  8
0-B_寸法
  6
Continuous
 62
     7
370
   211
100
AcDbText
 10
2845.796476778788
 20
-1213.603964031659
 30
0.0
 40
68.58
  1
2.5
 41
1.111111111111111
  7
ＭＳ ゴシック
100
AcDbText
  0
LINE
  5
2F3
330
1F
100
AcDbEntity
  8
0-B_寸法
  6
Continuous
 62
   120
370
     5
100
AcDbLine
 10
4417.796476778793
 20
-1241.29396403166
 30
0.0
 11
5002.796476778793
 21
-1241.29396403166
 31
0.0
  0
LINE
  5
2F4
330
1F
100
AcDbEntity
  8
0-B_寸法
  6
Continuous
 62
   120
370
     5
100
AcDbLine
 10
4417.796476778793
 20
-1241.29396403166
 30
0.0
 11
4417.796476778793
 21
-1091.29396403166
 31
0.0
  0
LWPOLYLINE
  5
2F5
330
1F
100
AcDbEntity
  8
0-B_寸法
  6
Continuous
 62
     7
370
     9
100
AcDbPolyline
 90
        4
 70
     1
 43
3.0
 10
4419.296476778793
 20
-1241.29396403166
 42
0.4142135623731
 10
4417.796476778793
 20
-1239.79396403166
 42
0.4142135623731
 10
4416.296476778793
 20
-1241.29396403166
 42
0.4142135623731
 10
4417.796476778793
 20
-1242.79396403166
 42
0.4142135623731
  0
LINE
  5
2F6
330
1F
100
AcDbEntity
  8
0-1_本体
  6
Continuous
 62
     7
370
     9
100
AcDbLine
 10
4417.796476778793
 20
-1016.29396403166
 30
0.0
 11
5002.796476778793
 21
-1016.29396403166
 31
0.0
  0
LINE
  5
2F7
330
1F
100
AcDbEntity
  8
0-1_本体
  6
Continuous
 62
    40
370
    15
100
AcDbLine
 10
4417.796476778793
 20
-866.2939640316608
 30
0.0
 11
4417.796476778793
 21
-1016.29396403166
 31
0.0
  0
TEXT
  5
2F8
330
1F
100
AcDbEntity
  8
0-B_寸法
  6
Continuous
 62
     7
370
   211
100
AcDbText
 10
4253.578224588034
 20
-1363.60396403166
 30
0.0
 40
68.58
  1
18
 41
1.083333333333333
  7
ＭＳ ゴシック
100
AcDbText
  0
LINE
  5
2F9
330
1F
100
AcDbEntity
  8
0-2_扉
  6
Continuous
 62
    40
370
    15
100
AcDbLine
 10
4363.796476778795
 20
-24.79396403165964
 30
0.0
 11
4390.796476778794
 21
-24.79396403165964
 31
0.0
  0
LINE
  5
2FA
330
1F
100
AcDbEntity
  8
0-2_扉
  6
Continuous
 62
    40
370
    15
100
AcDbLine
 10
4363.796476778795
 20
-231.7939640316615
 30
0.0
 11
4363.796476778795
 21
-24.79396403165964
 31
0.0
  0
LINE
  5
2FB
330
1F
100
AcDbEntity
  8
0-2_扉
  6
Continuous
 62
    40
370
    15
100
AcDbLine
 10
4363.796476778795
 20
-236.2939640316608
 30
0.0
 11
4390.796476778794
 21
-236.2939640316608
 31
0.0
  0
LINE
  5
2FC
330
1F
100
AcDbEntity
  8
0-2_扉
  6
Continuous
 62
    40
370
    15
100
AcDbLine
 10
4363.796476778795
 20
-443.2939640316602
 30
0.0
 11
4363.796476778795
 21
-236.2939640316608
 31
0.0
  0
LINE
  5
2FD
330
1F
100
AcDbEntity
  8
0-2_扉
  6
Continuous
 62
    40
370
    15
100
AcDbLine
 10
4363.796476778795
 20
-447.7939640316612
 30
0.0
 11
4390.796476778794
 21
-447.7939640316612
 31
0.0
  0
LINE
  5
2FE
330
1F
100
AcDbEntity
  8
0-2_扉
  6
Continuous
 62
    40
370
    15
100
AcDbLine
 10
4363.796476778795
 20
-654.7939640316597
 30
0.0
 11
4363.796476778795
 21
-447.7939640316612
 31
0.0
  0
LINE
  5
2FF
330
1F
100
AcDbEntity
  8
0-2_扉
  6
Continuous
 62
    40
370
    15
100
AcDbLine
 10
4363.796476778795
 20
-659.2939640316615
 30
0.0
 11
4390.796476778794
 21
-659.2939640316615
 31
0.0
  0
LINE
  5
300
330
1F
100
AcDbEntity
  8
0-2_扉
  6
Continuous
 62
    40
370
    15
100
AcDbLine
 10
4363.796476778795
 20
-866.2939640316608
 30
0.0
 11
4363.796476778795
 21
-659.2939640316615
 31
0.0
  0
LINE
  5
301
330
1F
100
AcDbEntity
  8
0-2_扉
  6
Continuous
 62
    40
370
    15
100
AcDbLine
 10
4363.796476778795
 20
-866.2939640316608
 30
0.0
 11
4390.796476778794
 21
-866.2939640316608
 31
0.0
  0
LINE
  5
302
330
1F
100
AcDbEntity
  8
0-2_扉
  6
Continuous
 62
    40
370
    15
100
AcDbLine
 10
4363.796476778795
 20
-654.7939640316597
 30
0.0
 11
4390.796476778794
 21
-654.7939640316597
 31
0.0
  0
LINE
  5
303
330
1F
100
AcDbEntity
  8
0-2_扉
  6
Continuous
 62
    40
370
    15
100
AcDbLine
 10
4363.796476778795
 20
-443.2939640316602
 30
0.0
 11
4390.796476778794
 21
-443.2939640316602
 31
0.0
  0
LINE
  5
304
330
1F
100
AcDbEntity
  8
0-2_扉
  6
Continuous
 62
    40
370
    15
100
AcDbLine
 10
4363.796476778795
 20
-231.7939640316615
 30
0.0
 11
4390.796476778794
 21
-231.7939640316615
 31
0.0
  0
LWPOLYLINE
  5
305
330
1F
100
AcDbEntity
  8
0-B_寸法
  6
Continuous
 62
     7
370
     9
100
AcDbPolyline
 90
        4
 70
     1
 43
3.0
 10
4365.296476778795
 20
-1391.29396403166
 42
0.4142135623731
 10
4363.796476778795
 20
-1389.79396403166
 42
0.4142135623731
 10
4362.296476778794
 20
-1391.29396403166
 42
0.4142135623731
 10
4363.796476778795
 20
-1392.79396403166
 42
0.4142135623731
  0
LINE
  5
306
330
1F
100
AcDbEntity
  8
0-B_寸法
  6
Continuous
 62
   120
370
     5
100
AcDbLine
 10
4363.796476778795
 20
-1391.29396403166
 30
0.0
 11
4390.796476778794
 21
-1391.29396403166
 31
0.0
  0
LINE
  5
307
330
1F
100
AcDbEntity
  8
0-B_寸法
  6
Continuous
 62
   120
370
     5
100
AcDbLine
 10
4363.796476778795
 20
-1391.29396403166
 30
0.0
 11
4363.796476778795
 21
-1091.29396403166
 31
0.0
  0
TEXT
  5
308
330
1F
100
AcDbEntity
  8
0-B_寸法
  6
Continuous
 62
     7
370
   211
100
AcDbText
 10
4621.796476778795
 20
-1363.60396403166
 30
0.0
 40
68.58
  1
408
 41
1.111111111111111
  7
ＭＳ ゴシック
100
AcDbText
  0
LINE
  5
309
330
1F
100
AcDbEntity
  8
0-2_扉
  6
Continuous
 62
    40
370
    15
100
AcDbLine
 10
4390.796476778794
 20
-231.7939640316615
 30
0.0
 11
4390.796476778794
 21
-24.79396403165964
 31
0.0
  0
LINE
  5
30A
330
1F
100
AcDbEntity
  8
0-2_扉
  6
Continuous
 62
    40
370
    15
100
AcDbLine
 10
4390.796476778794
 20
-443.2939640316602
 30
0.0
 11
4390.796476778794
 21
-236.2939640316608
 31
0.0
  0
LINE
  5
30B
330
1F
100
AcDbEntity
  8
0-2_扉
  6
Continuous
 62
    40
370
    15
100
AcDbLine
 10
4390.796476778794
 20
-654.7939640316597
 30
0.0
 11
4390.796476778794
 21
-447.7939640316612
 31
0.0
  0
LINE
  5
30C
330
1F
100
AcDbEntity
  8
0-2_扉
  6
Continuous
 62
    40
370
    15
100
AcDbLine
 10
4390.796476778794
 20
-866.2939640316608
 30
0.0
 11
4390.796476778794
 21
-659.2939640316615
 31
0.0
  0
LINE
  5
30D
330
1F
100
AcDbEntity
  8
0-B_寸法
  6
Continuous
 62
   120
370
     5
100
AcDbLine
 10
5002.796476778793
 20
-1391.29396403166
 30
0.0
 11
5002.796476778793
 21
-1241.29396403166
 31
0.0
  0
LWPOLYLINE
  5
30E
330
1F
100
AcDbEntity
  8
0-B_寸法
  6
Continuous
 62
     7
370
     9
100
AcDbPolyline
 90
        4
 70
     1
 43
3.0
 10
5004.296476778793
 20
-1391.29396403166
 42
0.4142135623731
 10
5002.796476778793
 20
-1389.79396403166
 42
0.4142135623731
 10
5001.296476778793
 20
-1391.29396403166
 42
0.4142135623731
 10
5002.796476778793
 20
-1392.79396403166
 42
0.4142135623731
  0
LINE
  5
30F
330
1F
100
AcDbEntity
  8
0-B_寸法
  6
Continuous
 62
   120
370
     5
100
AcDbLine
 10
4390.796476778794
 20
-1391.29396403166
 30
0.0
 11
5002.796476778793
 21
-1391.29396403166
 31
0.0
  0
LINE
  5
310
330
1F
100
AcDbEntity
  8
0-B_寸法
  6
Continuous
 62
   120
370
     5
100
AcDbLine
 10
4390.796476778794
 20
-1391.29396403166
 30
0.0
 11
4390.796476778794
 21
-1241.29396403166
 31
0.0
  0
LWPOLYLINE
  5
311
330
1F
100
AcDbEntity
  8
0-B_寸法
  6
Continuous
 62
     7
370
     9
100
AcDbPolyline
 90
        4
 70
     1
 43
3.0
 10
4392.296476778794
 20
-1391.29396403166
 42
0.4142135623731
 10
4390.796476778794
 20
-1389.79396403166
 42
0.4142135623731
 10
4389.296476778793
 20
-1391.29396403166
 42
0.4142135623731
 10
4390.796476778794
 20
-1392.79396403166
 42
0.4142135623731
  0
TEXT
  5
312
330
1F
100
AcDbEntity
  8
0-B_寸法
  6
Continuous
 62
     7
370
   211
100
AcDbText
 10
4635.296476778793
 20
-1213.60396403166
 30
0.0
 40
68.58
  1
390
 41
1.111111111111111
  7
ＭＳ ゴシック
100
AcDbText
  0
LINE
  5
313
330
1F
100
AcDbEntity
  8
0-B_寸法
  6
Continuous
 62
   120
370
     5
100
AcDbLine
 10
5002.796476778793
 20
-1241.29396403166
 30
0.0
 11
5002.796476778793
 21
-1091.29396403166
 31
0.0
  0
LWPOLYLINE
  5
314
330
1F
100
AcDbEntity
  8
0-B_寸法
  6
Continuous
 62
     7
370
     9
100
AcDbPolyline
 90
        4
 70
     1
 43
3.0
 10
5004.296476778793
 20
-1241.29396403166
 42
0.4142135623731
 10
5002.796476778793
 20
-1239.79396403166
 42
0.4142135623731
 10
5001.296476778793
 20
-1241.29396403166
 42
0.4142135623731
 10
5002.796476778793
 20
-1242.79396403166
 42
0.4142135623731
  0
LINE
  5
315
330
1F
100
AcDbEntity
  8
0-B_寸法
  6
Continuous
 62
   120
370
     5
100
AcDbLine
 10
4390.796476778794
 20
-1241.29396403166
 30
0.0
 11
4390.796476778794
 21
-1091.29396403166
 31
0.0
  0
LWPOLYLINE
  5
316
330
1F
100
AcDbEntity
  8
0-B_寸法
  6
Continuous
 62
     7
370
     9
100
AcDbPolyline
 90
        4
 70
     1
 43
3.0
 10
4392.296476778794
 20
-1241.29396403166
 42
0.4142135623731
 10
4390.796476778794
 20
-1239.79396403166
 42
0.4142135623731
 10
4389.296476778793
 20
-1241.29396403166
 42
0.4142135623731
 10
4390.796476778794
 20
-1242.79396403166
 42
0.4142135623731
  0
LINE
  5
317
330
1F
100
AcDbEntity
  8
0-1_本体
  6
Continuous
 62
    40
370
    15
100
AcDbLine
 10
4999.046476778793
 20
-43.54396403165964
 30
0.0
 11
4390.796476778794
 21
-43.54396403165964
 31
0.0
  0
LINE
  5
318
330
1F
100
AcDbEntity
  8
0-1_本体
  6
Continuous
 62
    40
370
    15
100
AcDbLine
 10
4390.796476778794
 20
-843.0439640316615
 30
0.0
 11
4999.046476778793
 21
-843.0439640316615
 31
0.0
  0
LINE
  5
319
330
1F
100
AcDbEntity
  8
0-1_本体
  6
Continuous
 62
    40
370
    15
100
AcDbLine
 10
5002.796476778793
 20
-28.54396403165964
 30
0.0
 11
4999.046476778793
 21
-28.54396403165964
 31
0.0
  0
LINE
  5
31A
330
1F
100
AcDbEntity
  8
0-1_本体
  6
Continuous
 62
    40
370
    15
100
AcDbLine
 10
4999.046476778793
 20
-858.0439640316615
 30
0.0
 11
5002.796476778793
 21
-858.0439640316615
 31
0.0
  0
LINE
  5
31B
330
1F
100
AcDbEntity
  8
0-1_本体
  6
Continuous
 62
    40
370
    15
100
AcDbLine
 10
4999.046476778793
 20
-858.0439640316615
 30
0.0
 11
4999.046476778793
 21
-28.54396403165964
 31
0.0
  0
LINE
  5
31C
330
1F
100
AcDbEntity
  8
0-1_本体
  6
Continuous
 62
     7
370
     9
100
AcDbLine
 10
5002.796476778793
 20
-866.2939640316608
 30
0.0
 11
5002.796476778793
 21
-1016.29396403166
 31
0.0
  0
LINE
  5
31D
330
1F
100
AcDbEntity
  8
0-1_本体
  6
Continuous
 62
     7
370
     9
100
AcDbLine
 10
4390.796476778794
 20
-866.2939640316608
 30
0.0
 11
4390.796476778794
 21
-1016.29396403166
 31
0.0
  0
LINE
  5
31E
330
1F
100
AcDbEntity
  8
0-1_本体
  6
Continuous
 62
    40
370
    15
100
AcDbLine
 10
5002.796476778793
 20
-866.2939640316608
 30
0.0
 11
5002.796476778793
 21
-20.29396403166118
 31
0.0
  0
LINE
  5
31F
330
1F
100
AcDbEntity
  8
0-1_本体
  6
Continuous
 62
    40
370
    15
100
AcDbLine
 10
4390.796476778794
 20
-843.0439640316615
 30
0.0
 11
4390.796476778794
 21
-866.2939640316608
 31
0.0
  0
LINE
  5
320
330
1F
100
AcDbEntity
  8
0-1_本体
  6
Continuous
 62
    40
370
    15
100
AcDbLine
 10
4390.796476778794
 20
-20.29396403166118
 30
0.0
 11
4390.796476778794
 21
-43.54396403165964
 31
0.0
  0
LINE
  5
321
330
1F
100
AcDbEntity
  8
0-1_本体
  6
Continuous
 62
    40
370
    15
100
AcDbLine
 10
4390.796476778794
 20
-866.2939640316608
 30
0.0
 11
5002.796476778793
 21
-866.2939640316608
 31
0.0
  0
LINE
  5
322
330
1F
100
AcDbEntity
  8
0-1_本体
  6
Continuous
 62
    40
370
    15
100
AcDbLine
 10
5002.796476778793
 20
-20.29396403166118
 30
0.0
 11
4390.796476778794
 21
-20.29396403166118
 31
0.0
  0
LINE
  5
323
330
1F
100
AcDbEntity
  8
0-4_棚
  6
JWW_CENTER1
 62
   120
370
     5
100
AcDbLine
 10
4390.796476778794
 20
-684.0439640316612
 30
0.0
 11
4390.796476778794
 21
-834.0439640316612
 31
0.0
  0
LINE
  5
324
330
1F
100
AcDbEntity
  8
0-4_棚
  6
JWW_CENTER1
 62
   120
370
     5
100
AcDbLine
 10
4390.796476778794
 20
-495.7939640316602
 30
0.0
 11
4390.796476778794
 21
-645.7939640316602
 31
0.0
  0
LINE
  5
325
330
1F
100
AcDbEntity
  8
0-4_棚
  6
JWW_CENTER1
 62
   120
370
     5
100
AcDbLine
 10
4390.796476778794
 20
-284.2939640316615
 30
0.0
 11
4390.796476778794
 21
-434.2939640316615
 31
0.0
  0
LINE
  5
326
330
1F
100
AcDbEntity
  8
0-4_棚
  6
JWW_CENTER1
 62
   120
370
     5
100
AcDbLine
 10
4390.796476778794
 20
-72.79396403166118
 30
0.0
 11
4390.796476778794
 21
-222.7939640316612
 31
0.0
  0
LINE
  5
327
330
1F
100
AcDbEntity
  8
0-4_棚
  6
JWW_CENTER1
 62
   120
370
     5
100
AcDbLine
 10
4390.796476778794
 20
-834.0439640316612
 30
0.0
 11
4915.796476778794
 21
-834.0439640316612
 31
0.0
  0
LINE
  5
328
330
1F
100
AcDbEntity
  8
0-4_棚
  6
JWW_CENTER1
 62
   120
370
     5
100
AcDbLine
 10
4390.796476778794
 20
-645.7939640316602
 30
0.0
 11
4915.796476778794
 21
-645.7939640316602
 31
0.0
  0
LINE
  5
329
330
1F
100
AcDbEntity
  8
0-4_棚
  6
JWW_CENTER1
 62
   120
370
     5
100
AcDbLine
 10
4390.796476778794
 20
-434.2939640316615
 30
0.0
 11
4915.796476778794
 21
-434.2939640316615
 31
0.0
  0
LINE
  5
32A
330
1F
100
AcDbEntity
  8
0-4_棚
  6
JWW_CENTER1
 62
   120
370
     5
100
AcDbLine
 10
4390.796476778794
 20
-222.7939640316612
 30
0.0
 11
4915.796476778794
 21
-222.7939640316612
 31
0.0
  0
LINE
  5
32B
330
1F
100
AcDbEntity
  8
0-4_棚
  6
JWW_CENTER1
 62
   120
370
     5
100
AcDbLine
 10
4915.796476778794
 20
-684.0439640316612
 30
0.0
 11
4390.796476778794
 21
-684.0439640316612
 31
0.0
  0
LINE
  5
32C
330
1F
100
AcDbEntity
  8
0-4_棚
  6
JWW_CENTER1
 62
   120
370
     5
100
AcDbLine
 10
4915.796476778794
 20
-834.0439640316612
 30
0.0
 11
4915.796476778794
 21
-684.0439640316612
 31
0.0
  0
LINE
  5
32D
330
1F
100
AcDbEntity
  8
0-4_棚
  6
JWW_CENTER1
 62
   120
370
     5
100
AcDbLine
 10
4915.796476778794
 20
-495.7939640316602
 30
0.0
 11
4390.796476778794
 21
-495.7939640316602
 31
0.0
  0
LINE
  5
32E
330
1F
100
AcDbEntity
  8
0-4_棚
  6
JWW_CENTER1
 62
   120
370
     5
100
AcDbLine
 10
4915.796476778794
 20
-645.7939640316602
 30
0.0
 11
4915.796476778794
 21
-495.7939640316602
 31
0.0
  0
LINE
  5
32F
330
1F
100
AcDbEntity
  8
0-4_棚
  6
JWW_CENTER1
 62
   120
370
     5
100
AcDbLine
 10
4915.796476778794
 20
-284.2939640316615
 30
0.0
 11
4390.796476778794
 21
-284.2939640316615
 31
0.0
  0
LINE
  5
330
330
1F
100
AcDbEntity
  8
0-4_棚
  6
JWW_CENTER1
 62
   120
370
     5
100
AcDbLine
 10
4915.796476778794
 20
-434.2939640316615
 30
0.0
 11
4915.796476778794
 21
-284.2939640316615
 31
0.0
  0
LINE
  5
331
330
1F
100
AcDbEntity
  8
0-4_棚
  6
JWW_CENTER1
 62
   120
370
     5
100
AcDbLine
 10
4915.796476778794
 20
-72.79396403166118
 30
0.0
 11
4390.796476778794
 21
-72.79396403166118
 31
0.0
  0
LINE
  5
332
330
1F
100
AcDbEntity
  8
0-4_棚
  6
JWW_CENTER1
 62
   120
370
     5
100
AcDbLine
 10
4915.796476778794
 20
-222.7939640316612
 30
0.0
 11
4915.796476778794
 21
-72.79396403166118
 31
0.0
  0
TEXT
  5
333
330
1F
100
AcDbEntity
  8
0-A_文字
  6
Continuous
 62
     7
370
     9
100
AcDbText
 10
4368.145865947321
 20
-153.4372257611864
 30
0.0
 40
61.722
  1
BOX 363x100x350
  7
ＭＳ ゴシック
100
AcDbText
  0
TEXT
  5
334
330
1F
100
AcDbEntity
  8
0-A_文字
  6
Continuous
 62
     7
370
     9
100
AcDbText
 10
4476.097608642419
 20
-214.9220661837111
 30
0.0
 40
61.722
  1
ｽﾗｲﾄﾞﾚｰﾙ L400
 41
1.000000000000001
  7
ＭＳ ゴシック
100
AcDbText
  0
TEXT
  5
335
330
1F
100
AcDbEntity
  8
0-A_文字
  6
Continuous
 62
     7
370
     9
100
AcDbText
 10
4368.145865947321
 20
-364.9372257611876
 30
0.0
 40
61.722
  1
BOX 363x100x350
  7
ＭＳ ゴシック
100
AcDbText
  0
TEXT
  5
336
330
1F
100
AcDbEntity
  8
0-A_文字
  6
Continuous
 62
     7
370
     9
100
AcDbText
 10
4476.097608642419
 20
-426.4220661837098
 30
0.0
 40
61.722
  1
ｽﾗｲﾄﾞﾚｰﾙ L400
 41
1.000000000000001
  7
ＭＳ ゴシック
100
AcDbText
  0
TEXT
  5
337
330
1F
100
AcDbEntity
  8
0-A_文字
  6
Continuous
 62
     7
370
     9
100
AcDbText
 10
4368.145865947321
 20
-576.437225761188
 30
0.0
 40
61.722
  1
BOX 363x100x350
  7
ＭＳ ゴシック
100
AcDbText
  0
TEXT
  5
338
330
1F
100
AcDbEntity
  8
0-A_文字
  6
Continuous
 62
     7
370
     9
100
AcDbText
 10
4476.097608642419
 20
-637.9220661837102
 30
0.0
 40
61.722
  1
ｽﾗｲﾄﾞﾚｰﾙ L400
 41
1.000000000000001
  7
ＭＳ ゴシック
100
AcDbText
  0
TEXT
  5
339
330
1F
100
AcDbEntity
  8
0-A_文字
  6
Continuous
 62
     7
370
     9
100
AcDbText
 10
4368.145865947321
 20
-764.6872257611873
 30
0.0
 40
61.722
  1
BOX 363x100x350
  7
ＭＳ ゴシック
100
AcDbText
  0
TEXT
  5
33A
330
1F
100
AcDbEntity
  8
0-A_文字
  6
Continuous
 62
     7
370
     9
100
AcDbText
 10
4476.097608642419
 20
-826.1720661837112
 30
0.0
 40
61.722
  1
ｽﾗｲﾄﾞﾚｰﾙ L400
 41
1.000000000000001
  7
ＭＳ ゴシック
100
AcDbText
  0
LINE
  5
33B
330
1F
100
AcDbEntity
  8
0-B_寸法
  6
Continuous
 62
   120
370
     5
100
AcDbLine
 10
4394.546476778794
 20
-1241.29396403166
 30
0.0
 11
4394.546476778794
 21
-1091.29396403166
 31
0.0
  0
LWPOLYLINE
  5
33C
330
1F
100
AcDbEntity
  8
0-B_寸法
  6
Continuous
 62
     7
370
     9
100
AcDbPolyline
 90
        4
 70
     1
 43
3.0
 10
4396.046476778794
 20
-1241.29396403166
 42
0.4142135623731
 10
4394.546476778794
 20
-1239.79396403166
 42
0.4142135623731
 10
4393.046476778793
 20
-1241.29396403166
 42
0.4142135623731
 10
4394.546476778794
 20
-1242.79396403166
 42
0.4142135623731
  0
LINE
  5
33D
330
1F
100
AcDbEntity
  8
0-B_寸法
  6
Continuous
 62
   120
370
     5
100
AcDbLine
 10
4390.796476778794
 20
-1241.29396403166
 30
0.0
 11
4394.546476778794
 21
-1241.29396403166
 31
0.0
  0
LINE
  5
33E
330
1F
100
AcDbEntity
  8
0-B_寸法
  6
Continuous
 62
   120
370
     5
100
AcDbLine
 10
4394.546476778794
 20
-1241.29396403166
 30
0.0
 11
4417.796476778793
 21
-1241.29396403166
 31
0.0
  0
LINE
  5
33F
330
1F
100
AcDbEntity
  8
0-1_本体
  6
Continuous
 62
     7
370
     9
100
AcDbLine
 10
4394.546476778794
 20
-1016.29396403166
 30
0.0
 11
4390.796476778794
 21
-1016.29396403166
 31
0.0
  0
LINE
  5
340
330
1F
100
AcDbEntity
  8
0-1_本体
  6
Continuous
 62
    40
370
    15
100
AcDbLine
 10
4394.546476778794
 20
-866.2939640316608
 30
0.0
 11
4394.546476778794
 21
-1016.29396403166
 31
0.0
  0
LINE
  5
341
330
1F
100
AcDbEntity
  8
0-1_本体
  6
Continuous
 62
    40
370
    15
100
AcDbLine
 10
4394.546476778794
 20
-1016.29396403166
 30
0.0
 11
4417.796476778793
 21
-1016.29396403166
 31
0.0
  0
TEXT
  5
342
330
1F
100
AcDbEntity
  8
0-B_寸法
  6
Continuous
 62
     7
370
   211
100
AcDbText
 10
4201.078224588034
 20
-1213.60396403166
 30
0.0
 40
68.58
  1
2.5
 41
1.111111111111111
  7
ＭＳ ゴシック
100
AcDbText
  0
TEXT
  5
343
330
1F
100
AcDbEntity
  8
0-B_寸法
  6
Continuous
 62
     7
370
   211
100
AcDbText
 10
4411.278750106189
 20
-1123.60396403166
 30
0.0
 40
68.58
  1
15.5
 41
1.125
  7
ＭＳ ゴシック
100
AcDbText
  0
ENDSEC
  0
SECTION
  2
OBJECTS
  0
DICTIONARY
  5
C
330
0
100
AcDbDictionary
281
     1
  3
ACAD_GROUP
350
D
  3
ACAD_LAYOUT
350
1A
  3
ACAD_MATERIAL
350
3B
  3
ACAD_MLEADERSTYLE
350
345
  3
ACAD_MLINESTYLE
350
17
  3
ACAD_PLOTSETTINGS
350
19
  3
ACAD_PLOTSTYLENAME
350
E
  3
ACAD_TABLESTYLE
350
344
  3
ACAD_VISUALSTYLE
350
2A
  0
DICTIONARY
  5
D
102
{ACAD_REACTORS
330
C
102
}
330
C
100
AcDbDictionary
281
     1
  0
DICTIONARY
  5
1A
102
{ACAD_REACTORS
330
C
102
}
330
C
100
AcDbDictionary
281
     1
  3
Layout1
350
1E
  3
Layout2
350
26
  3
Model
350
22
  0
DICTIONARY
  5
3B
102
{ACAD_REACTORS
330
C
102
}
330
C
100
AcDbDictionary
281
     1
  3
ByBlock
350
3D
  3
ByLayer
350
3C
  3
Global
350
3E
  0
DICTIONARY
  5
345
102
{ACAD_REACTORS
330
C
102
}
330
C
100
AcDbDictionary
281
     1
  0
DICTIONARY
  5
17
102
{ACAD_REACTORS
330
C
102
}
330
C
100
AcDbDictionary
281
     1
  3
Standard
350
18
  0
DICTIONARY
  5
19
102
{ACAD_REACTORS
330
C
102
}
330
C
100
AcDbDictionary
281
     1
  0
ACDBDICTIONARYWDFLT
  5
E
102
{ACAD_REACTORS
330
C
102
}
330
C
100
AcDbDictionary
281
     1
  3
Normal
350
F
100
AcDbDictionaryWithDefault
340
F
  0
DICTIONARY
  5
344
102
{ACAD_REACTORS
330
C
102
}
330
C
100
AcDbDictionary
281
     1
  0
DICTIONARY
  5
2A
102
{ACAD_REACTORS
330
C
102
}
330
C
100
AcDbDictionary
281
     1
  3
2dWireframe
350
2F
  3
3D Hidden
350
31
  3
3dWireframe
350
30
  3
Basic
350
32
  3
Brighten
350
36
  3
ColorChange
350
3A
  3
Conceptual
350
34
  3
Dim
350
35
  3
Facepattern
350
39
  3
Flat
350
2B
  3
FlatWithEdges
350
2C
  3
Gouraud
350
2D
  3
GouraudWithEdges
350
2E
  3
Linepattern
350
38
  3
Realistic
350
33
  3
Thicken
350
37
  0
LAYOUT
  5
1E
102
{ACAD_REACTORS
330
1A
102
}
330
1A
100
AcDbPlotSettings
  1

  2
none_device
  4

  6

 40
0.0
 41
0.0
 42
0.0
 43
0.0
 44
0.0
 45
0.0
 46
0.0
 47
0.0
 48
0.0
 49
0.0
140
0.0
141
0.0
142
1.0
143
1.0
 70
   688
 72
     0
 73
     0
 74
     5
  7

 75
    16
 76
     0
 77
     5
 78
   300
147
1.0
148
0.0
149
0.0
100
AcDbLayout
  1
Layout1
 70
     1
 71
     1
 10
0.0
 20
0.0
 11
420.0
 21
297.0
 12
0.0
 22
0.0
 32
0.0
 14
1.000000000000000E+20
 24
1.000000000000000E+20
 34
1.000000000000000E+20
 15
-1.000000000000000E+20
 25
-1.000000000000000E+20
 35
-1.000000000000000E+20
146
0.0
 13
0.0
 23
0.0
 33
0.0
 16
1.0
 26
0.0
 36
0.0
 17
0.0
 27
1.0
 37
0.0
 76
     0
330
1B
  0
LAYOUT
  5
26
102
{ACAD_REACTORS
330
1A
102
}
330
1A
100
AcDbPlotSettings
  1

  2
none_device
  4

  6

 40
0.0
 41
0.0
 42
0.0
 43
0.0
 44
0.0
 45
0.0
 46
0.0
 47
0.0
 48
0.0
 49
0.0
140
0.0
141
0.0
142
1.0
143
1.0
 70
   688
 72
     0
 73
     0
 74
     5
  7

 75
    16
 76
     0
 77
     5
 78
   300
147
1.0
148
0.0
149
0.0
100
AcDbLayout
  1
Layout2
 70
     1
 71
     2
 10
0.0
 20
0.0
 11
0.0
 21
0.0
 12
0.0
 22
0.0
 32
0.0
 14
0.0
 24
0.0
 34
0.0
 15
0.0
 25
0.0
 35
0.0
146
0.0
 13
0.0
 23
0.0
 33
0.0
 16
1.0
 26
0.0
 36
0.0
 17
0.0
 27
1.0
 37
0.0
 76
     0
330
23
  0
LAYOUT
  5
22
102
{ACAD_REACTORS
330
1A
102
}
330
1A
100
AcDbPlotSettings
  1

  2
none_device
  4

  6

 40
0.0
 41
0.0
 42
0.0
 43
0.0
 44
0.0
 45
0.0
 46
0.0
 47
0.0
 48
0.0
 49
0.0
140
0.0
141
0.0
142
1.0
143
1.0
 70
  1712
 72
     0
 73
     0
 74
     0
  7

 75
     0
 76
     0
 77
     5
 78
   300
147
1.0
148
0.0
149
0.0
100
AcDbLayout
  1
Model
 70
     1
 71
     0
 10
-6300.0
 20
-4455.0
 11
6300.0
 21
4455.0
 12
0.0
 22
0.0
 32
0.0
 14
-6300.0
 24
-4455.0
 34
0.0
 15
6300.0
 25
4455.0
 35
0.0
146
0.0
 13
0.0
 23
0.0
 33
0.0
 16
1.0
 26
0.0
 36
0.0
 17
0.0
 27
1.0
 37
0.0
 76
     0
330
1F
331
29
  0
MATERIAL
  5
3D
102
{ACAD_REACTORS
330
3B
102
}
330
3B
100
AcDbMaterial
  1
ByBlock
 72
     1
 94
      127
  0
MATERIAL
  5
3C
102
{ACAD_REACTORS
330
3B
102
}
330
3B
100
AcDbMaterial
  1
ByLayer
 72
     1
 94
      127
  0
MATERIAL
  5
3E
102
{ACAD_REACTORS
330
3B
102
}
330
3B
100
AcDbMaterial
  1
Global
 72
     1
 94
      127
  0
MLINESTYLE
  5
18
102
{ACAD_REACTORS
330
17
102
}
330
17
100
AcDbMlineStyle
  2
Standard
 70
     0
  3

 62
   256
 51
90.0
 52
90.0
 71
     2
 49
0.5
 62
   256
  6
BYLAYER
 49
-0.5
 62
   256
  6
BYLAYER
  0
ACDBPLACEHOLDER
  5
F
102
{ACAD_REACTORS
330
E
102
}
330
E
  0
VISUALSTYLE
  5
2F
102
{ACAD_REACTORS
330
2A
102
}
330
2A
100
AcDbVisualStyle
  2
2dWireframe
 70
     4
177
     2
291
     0
 71
     0
176
     1
 72
     2
176
     1
 73
     0
176
     1
 90
        0
176
     1
 40
-0.6
176
     1
 41
-30.0
176
     1
 62
     5
 63
     7
421
 16777215
176
     1
 74
     1
176
     1
 91
        4
176
     1
 64
     7
176
     1
 65
   257
176
     1
 75
     1
176
     1
175
     1
176
     1
 42
1.0
176
     1
 92
        0
176
     1
 66
   257
176
     1
 43
1.0
176
     1
 76
     1
176
     1
 77
     6
176
     1
 78
     2
176
     1
 67
     7
176
     1
 79
     5
176
     1
170
     0
176
     1
171
     0
176
     1
290
     0
176
     1
 93
        1
176
     1
 44
0.0
176
     1
173
     0
176
     1
  0
VISUALSTYLE
  5
31
102
{ACAD_REACTORS
330
2A
102
}
330
2A
100
AcDbVisualStyle
  2
3D Hidden
 70
     6
177
     2
291
     0
 71
     1
176
     1
 72
     2
176
     1
 73
     2
176
     1
 90
        0
176
     1
 40
-0.6
176
     1
 41
-30.0
176
     1
 62
     5
 63
     7
421
 16777215
176
     1
 74
     2
176
     1
 91
        2
176
     1
 64
     7
176
     1
 65
   257
176
     1
 75
     2
176
     1
175
     1
176
     1
 42
40.0
176
     1
 92
        0
176
     1
 66
   257
176
     1
 43
1.0
176
     1
 76
     1
176
     1
 77
     6
176
     1
 78
     2
176
     1
 67
     7
176
     1
 79
     3
176
     1
170
     0
176
     1
171
     0
176
     1
290
     0
176
     1
 93
        1
176
     1
 44
0.0
176
     1
173
     0
176
     1
  0
VISUALSTYLE
  5
30
102
{ACAD_REACTORS
330
2A
102
}
330
2A
100
AcDbVisualStyle
  2
3dWireframe
 70
     5
177
     2
291
     0
 71
     0
176
     1
 72
     2
176
     1
 73
     0
176
     1
 90
        0
176
     1
 40
-0.6
176
     1
 41
-30.0
176
     1
 62
     5
 63
     7
421
 16777215
176
     1
 74
     1
176
     1
 91
        4
176
     1
 64
     7
176
     1
 65
   257
176
     1
 75
     1
176
     1
175
     1
176
     1
 42
1.0
176
     1
 92
        0
176
     1
 66
   257
176
     1
 43
1.0
176
     1
 76
     1
176
     1
 77
     6
176
     1
 78
     2
176
     1
 67
     7
176
     1
 79
     5
176
     1
170
     0
176
     1
171
     0
176
     1
290
     0
176
     1
 93
        1
176
     1
 44
0.0
176
     1
173
     0
176
     1
  0
VISUALSTYLE
  5
32
102
{ACAD_REACTORS
330
2A
102
}
330
2A
100
AcDbVisualStyle
  2
Basic
 70
     7
177
     2
291
     1
 71
     1
176
     1
 72
     0
176
     1
 73
     1
176
     1
 90
        0
176
     1
 40
-0.6
176
     1
 41
-30.0
176
     1
 62
     5
 63
     7
421
 16777215
176
     1
 74
     0
176
     1
 91
        4
176
     1
 64
     7
176
     1
 65
   257
176
     1
 75
     1
176
     1
175
     1
176
     1
 42
1.0
176
     1
 92
        8
176
     1
 66
     7
176
     1
 43
1.0
176
     1
 76
     1
176
     1
 77
     6
176
     1
 78
     2
176
     1
 67
     7
176
     1
 79
     5
176
     1
170
     0
176
     1
171
     0
176
     1
290
     0
176
     1
 93
        1
176
     1
 44
0.0
176
     1
173
     0
176
     1
  0
VISUALSTYLE
  5
36
102
{ACAD_REACTORS
330
2A
102
}
330
2A
100
AcDbVisualStyle
  2
Brighten
 70
    12
177
     2
291
     1
 71
     2
176
     1
 72
     2
176
     1
 73
     0
176
     1
 90
        0
176
     1
 40
-0.6
176
     1
 41
-30.0
176
     1
 62
     5
 63
     7
421
 16777215
176
     1
 74
     1
176
     1
 91
        4
176
     1
 64
     7
176
     1
 65
   257
176
     1
 75
     1
176
     1
175
     1
176
     1
 42
1.0
176
     1
 92
        8
176
     1
 66
     7
176
     1
 43
1.0
176
     1
 76
     1
176
     1
 77
     6
176
     1
 78
     2
176
     1
 67
     7
176
     1
 79
     5
176
     1
170
     0
176
     1
171
     0
176
     1
290
     0
176
     1
 93
        1
176
     1
 44
50.0
176
     1
173
     0
176
     1
  0
VISUALSTYLE
  5
3A
102
{ACAD_REACTORS
330
2A
102
}
330
2A
100
AcDbVisualStyle
  2
ColorChange
 70
    16
177
     2
291
     1
 71
     2
176
     1
 72
     2
176
     1
 73
     3
176
     1
 90
        0
176
     1
 40
-0.6
176
     1
 41
-30.0
176
     1
 62
     5
 63
     8
421
  8421504
176
     1
 74
     1
176
     1
 91
        4
176
     1
 64
     7
176
     1
 65
   257
176
     1
 75
     1
176
     1
175
     1
176
     1
 42
1.0
176
     1
 92
        8
176
     1
 66
     8
424
  8421504
176
     1
 43
1.0
176
     1
 76
     1
176
     1
 77
     6
176
     1
 78
     2
176
     1
 67
     7
176
     1
 79
     5
176
     1
170
     0
176
     1
171
     0
176
     1
290
     0
176
     1
 93
        1
176
     1
 44
0.0
176
     1
173
     0
176
     1
  0
VISUALSTYLE
  5
34
102
{ACAD_REACTORS
330
2A
102
}
330
2A
100
AcDbVisualStyle
  2
Conceptual
 70
     9
177
     2
291
     0
 71
     3
176
     1
 72
     2
176
     1
 73
     0
176
     1
 90
        0
176
     1
 40
-0.6
176
     1
 41
-30.0
176
     1
 62
     5
 63
     7
421
 16777215
176
     1
 74
     2
176
     1
 91
        2
176
     1
 64
     7
176
     1
 65
   257
176
     1
 75
     1
176
     1
175
     1
176
     1
 42
40.0
176
     1
 92
        8
176
     1
 66
     7
176
     1
 43
1.0
176
     1
 76
     1
176
     1
 77
     6
176
     1
 78
     2
176
     1
 67
     7
176
     1
 79
     3
176
     1
170
     0
176
     1
171
     0
176
     1
290
     0
176
     1
 93
        1
176
     1
 44
0.0
176
     1
173
     0
176
     1
  0
VISUALSTYLE
  5
35
102
{ACAD_REACTORS
330
2A
102
}
330
2A
100
AcDbVisualStyle
  2
Dim
 70
    11
177
     2
291
     1
 71
     2
176
     1
 72
     2
176
     1
 73
     0
176
     1
 90
        0
176
     1
 40
-0.6
176
     1
 41
-30.0
176
     1
 62
     5
 63
     7
421
 16777215
176
     1
 74
     1
176
     1
 91
        4
176
     1
 64
     7
176
     1
 65
   257
176
     1
 75
     1
176
     1
175
     1
176
     1
 42
1.0
176
     1
 92
        8
176
     1
 66
     7
176
     1
 43
1.0
176
     1
 76
     1
176
     1
 77
     6
176
     1
 78
     2
176
     1
 67
     7
176
     1
 79
     5
176
     1
170
     0
176
     1
171
     0
176
     1
290
     0
176
     1
 93
        1
176
     1
 44
-50.0
176
     1
173
     0
176
     1
  0
VISUALSTYLE
  5
39
102
{ACAD_REACTORS
330
2A
102
}
330
2A
100
AcDbVisualStyle
  2
Facepattern
 70
    15
177
     2
291
     1
 71
     2
176
     1
 72
     2
176
     1
 73
     0
176
     1
 90
        0
176
     1
 40
-0.6
176
     1
 41
-30.0
176
     1
 62
     5
 63
     7
421
 16777215
176
     1
 74
     1
176
     1
 91
        4
176
     1
 64
     7
176
     1
 65
   257
176
     1
 75
     1
176
     1
175
     1
176
     1
 42
1.0
176
     1
 92
        8
176
     1
 66
     7
176
     1
 43
1.0
176
     1
 76
     1
176
     1
 77
     6
176
     1
 78
     2
176
     1
 67
     7
176
     1
 79
     5
176
     1
170
     0
176
     1
171
     0
176
     1
290
     0
176
     1
 93
        1
176
     1
 44
0.0
176
     1
173
     0
176
     1
  0
VISUALSTYLE
  5
2B
102
{ACAD_REACTORS
330
2A
102
}
330
2A
100
AcDbVisualStyle
  2
Flat
 70
     0
177
     2
291
     1
 71
     2
176
     1
 72
     1
176
     1
 73
     1
176
     1
 90
        2
176
     1
 40
-0.6
176
     1
 41
30.0
176
     1
 62
     5
 63
     7
421
 16777215
176
     1
 74
     0
176
     1
 91
        4
176
     1
 64
     7
176
     1
 65
   257
176
     1
 75
     1
176
     1
175
     1
176
     1
 42
1.0
176
     1
 92
        8
176
     1
 66
     7
176
     1
 43
1.0
176
     1
 76
     1
176
     1
 77
     6
176
     1
 78
     2
176
     1
 67
     7
176
     1
 79
     5
176
     1
170
     0
176
     1
171
     0
176
     1
290
     0
176
     1
 93
       13
176
     1
 44
0.0
176
     1
173
     0
176
     1
  0
VISUALSTYLE
  5
2C
102
{ACAD_REACTORS
330
2A
102
}
330
2A
100
AcDbVisualStyle
  2
FlatWithEdges
 70
     1
177
     2
291
     1
 71
     2
176
     1
 72
     1
176
     1
 73
     1
176
     1
 90
        2
176
     1
 40
-0.6
176
     1
 41
30.0
176
     1
 62
     5
 63
     7
421
 16777215
176
     1
 74
     1
176
     1
 91
        4
176
     1
 64
     7
176
     1
 65
   257
176
     1
 75
     1
176
     1
175
     1
176
     1
 42
1.0
176
     1
 92
        0
176
     1
 66
   257
176
     1
 43
1.0
176
     1
 76
     1
176
     1
 77
     6
176
     1
 78
     2
176
     1
 67
     7
176
     1
 79
     5
176
     1
170
     0
176
     1
171
     0
176
     1
290
     0
176
     1
 93
       13
176
     1
 44
0.0
176
     1
173
     0
176
     1
  0
VISUALSTYLE
  5
2D
102
{ACAD_REACTORS
330
2A
102
}
330
2A
100
AcDbVisualStyle
  2
Gouraud
 70
     2
177
     2
291
     1
 71
     2
176
     1
 72
     2
176
     1
 73
     1
176
     1
 90
        2
176
     1
 40
-0.6
176
     1
 41
30.0
176
     1
 62
     5
 63
     7
421
 16777215
176
     1
 74
     0
176
     1
 91
        4
176
     1
 64
     7
176
     1
 65
   257
176
     1
 75
     1
176
     1
175
     1
176
     1
 42
1.0
176
     1
 92
        0
176
     1
 66
     7
176
     1
 43
1.0
176
     1
 76
     1
176
     1
 77
     6
176
     1
 78
     2
176
     1
 67
     7
176
     1
 79
     5
176
     1
170
     0
176
     1
171
     0
176
     1
290
     0
176
     1
 93
       13
176
     1
 44
0.0
176
     1
173
     0
176
     1
  0
VISUALSTYLE
  5
2E
102
{ACAD_REACTORS
330
2A
102
}
330
2A
100
AcDbVisualStyle
  2
GouraudWithEdges
 70
     3
177
     2
291
     1
 71
     2
176
     1
 72
     2
176
     1
 73
     1
176
     1
 90
        2
176
     1
 40
-0.6
176
     1
 41
30.0
176
     1
 62
     5
 63
     7
421
 16777215
176
     1
 74
     1
176
     1
 91
        4
176
     1
 64
     7
176
     1
 65
   257
176
     1
 75
     1
176
     1
175
     1
176
     1
 42
1.0
176
     1
 92
        0
176
     1
 66
   257
176
     1
 43
1.0
176
     1
 76
     1
176
     1
 77
     6
176
     1
 78
     2
176
     1
 67
     7
176
     1
 79
     5
176
     1
170
     0
176
     1
171
     0
176
     1
290
     0
176
     1
 93
       13
176
     1
 44
0.0
176
     1
173
     0
176
     1
  0
VISUALSTYLE
  5
38
102
{ACAD_REACTORS
330
2A
102
}
330
2A
100
AcDbVisualStyle
  2
Linepattern
 70
    14
177
     2
291
     1
 71
     2
176
     1
 72
     2
176
     1
 73
     0
176
     1
 90
        0
176
     1
 40
-0.6
176
     1
 41
-30.0
176
     1
 62
     5
 63
     7
421
 16777215
176
     1
 74
     1
176
     1
 91
        4
176
     1
 64
     7
176
     1
 65
   257
176
     1
 75
     7
176
     1
175
     7
176
     1
 42
1.0
176
     1
 92
        8
176
     1
 66
     7
176
     1
 43
1.0
176
     1
 76
     1
176
     1
 77
     6
176
     1
 78
     2
176
     1
 67
     7
176
     1
 79
     5
176
     1
170
     0
176
     1
171
     0
176
     1
290
     0
176
     1
 93
        1
176
     1
 44
0.0
176
     1
173
     0
176
     1
  0
VISUALSTYLE
  5
33
102
{ACAD_REACTORS
330
2A
102
}
330
2A
100
AcDbVisualStyle
  2
Realistic
 70
     8
177
     2
291
     0
 71
     2
176
     1
 72
     2
176
     1
 73
     0
176
     1
 90
        0
176
     1
 40
-0.6
176
     1
 41
-30.0
176
     1
 62
     5
 63
     7
421
 16777215
176
     1
 74
     1
176
     1
 91
        0
176
     1
 64
     7
176
     1
 65
   257
176
     1
 75
     1
176
     1
175
     1
176
     1
 42
1.0
176
     1
 92
        8
176
     1
 66
     8
424
  7895160
176
     1
 43
1.0
176
     1
 76
     1
176
     1
 77
     6
176
     1
 78
     2
176
     1
 67
     7
176
     1
 79
     5
176
     1
170
     0
176
     1
171
     0
176
     1
290
     0
176
     1
 93
       13
176
     1
 44
0.0
176
     1
173
     0
176
     1
  0
VISUALSTYLE
  5
37
102
{ACAD_REACTORS
330
2A
102
}
330
2A
100
AcDbVisualStyle
  2
Thicken
 70
    13
177
     2
291
     1
 71
     2
176
     1
 72
     2
176
     1
 73
     0
176
     1
 90
        0
176
     1
 40
-0.6
176
     1
 41
-30.0
176
     1
 62
     5
 63
     7
421
 16777215
176
     1
 74
     1
176
     1
 91
        4
176
     1
 64
     7
176
     1
 65
   257
176
     1
 75
     1
176
     1
175
     1
176
     1
 42
1.0
176
     1
 92
       12
176
     1
 66
     7
176
     1
 43
1.0
176
     1
 76
     1
176
     1
 77
     6
176
     1
 78
     2
176
     1
 67
     7
176
     1
 79
     5
176
     1
170
     0
176
     1
171
     0
176
     1
290
     0
176
     1
 93
        1
176
     1
 44
0.0
176
     1
173
     0
176
     1
  0
ENDSEC
  0
EOF
