  0
SECTION
  2
HEADER
  9
$ACADVER
  1
AC1024
  9
$ACADMAINTVER
 70
     6
  9
$DWGCODEPAGE
  3
ANSI_932
  9
$INSBASE
 10
0.0
 20
0.0
 30
0.0
  9
$EXTMIN
 10
-6300.0
 20
-4455.0
 30
0.0
  9
$EXTMAX
 10
6300.0
 20
4455.0
 30
0.0
  9
$LIMMIN
 10
-6300.0
 20
-4455.0
  9
$LIMMAX
 10
6300.0
 20
4455.0
  9
$ORTHOMODE
 70
     0
  9
$REGENMODE
 70
     1
  9
$FILLMODE
 70
     1
  9
$QTEXTMODE
 70
     0
  9
$MIRRTEXT
 70
     1
  9
$LTSCALE
 40
30.0
  9
$ATTMODE
 70
     1
  9
$TEXTSIZE
 40
2.5
  9
$TRACEWID
 40
1.0
  9
$TEXTSTYLE
  7
Standard
  9
$CLAYER
  8
0
  9
$CELTYPE
  6
ByLayer
  9
$CECOLOR
 62
   256
  9
$CELTSCALE
 40
1.0
  9
$DISPSILH
 70
     0
  9
$DIMSCALE
 40
1.0
  9
$DIMASZ
 40
2.5
  9
$DIMEXO
 40
0.625
  9
$DIMDLI
 40
3.75
  9
$DIMRND
 40
0.0
  9
$DIMDLE
 40
0.0
  9
$DIMEXE
 40
1.25
  9
$DIMTP
 40
0.0
  9
$DIMTM
 40
0.0
  9
$DIMTXT
 40
2.5
  9
$DIMCEN
 40
2.5
  9
$DIMTSZ
 40
0.0
  9
$DIMTOL
 70
     0
  9
$DIMLIM
 70
     0
  9
$DIMTIH
 70
     0
  9
$DIMTOH
 70
     0
  9
$DIMSE1
 70
     0
  9
$DIMSE2
 70
     0
  9
$DIMTAD
 70
     1
  9
$DIMZIN
 70
     8
  9
$DIMBLK
  1

  9
$DIMASO
 70
     1
  9
$DIMSHO
 70
     1
  9
$DIMPOST
  1

  9
$DIMAPOST
  1

  9
$DIMALT
 70
     0
  9
$DIMALTD
 70
     3
  9
$DIMALTF
 40
0.03937007874016
  9
$DIMLFAC
 40
1.0
  9
$DIMTOFL
 70
     1
  9
$DIMTVP
 40
0.0
  9
$DIMTIX
 70
     0
  9
$DIMSOXD
 70
     0
  9
$DIMSAH
 70
     0
  9
$DIMBLK1
  1

  9
$DIMBLK2
  1

  9
$DIMSTYLE
  2
ISO-25
  9
$DIMCLRD
 70
     0
  9
$DIMCLRE
 70
     0
  9
$DIMCLRT
 70
     0
  9
$DIMTFAC
 40
1.0
  9
$DIMGAP
 40
0.625
  9
$DIMJUST
 70
     0
  9
$DIMSD1
 70
     0
  9
$DIMSD2
 70
     0
  9
$DIMTOLJ
 70
     0
  9
$DIMTZIN
 70
     8
  9
$DIMALTZ
 70
     0
  9
$DIMALTTZ
 70
     0
  9
$DIMUPT
 70
     0
  9
$DIMDEC
 70
     2
  9
$DIMTDEC
 70
     2
  9
$DIMALTU
 70
     2
  9
$DIMALTTD
 70
     3
  9
$DIMTXSTY
  7
Standard
  9
$DIMAUNIT
 70
     0
  9
$DIMADEC
 70
     0
  9
$DIMALTRND
 40
0.0
  9
$DIMAZIN
 70
     0
  9
$DIMDSEP
 70
    44
  9
$DIMATFIT
 70
     3
  9
$DIMFRAC
 70
     0
  9
$DIMLDRBLK
  1

  9
$DIMLUNIT
 70
     2
  9
$DIMLWD
 70
    -2
  9
$DIMLWE
 70
    -2
  9
$DIMTMOVE
 70
     0
  9
$DIMFXL
 40
1.0
  9
$DIMFXLON
 70
     0
  9
$DIMJOGANG
 40
0.7853981633974483
  9
$DIMTFILL
 70
     0
  9
$DIMTFILLCLR
 70
     0
  9
$DIMARCSYM
 70
     0
  9
$DIMLTYPE
  6

  9
$DIMLTEX1
  6

  9
$DIMLTEX2
  6

  9
$DIMTXTDIRECTION
 70
     0
  9
$LUNITS
 70
     2
  9
$LUPREC
 70
     4
  9
$SKETCHINC
 40
1.0
  9
$FILLETRAD
 40
10.0
  9
$AUNITS
 70
     0
  9
$AUPREC
 70
     0
  9
$MENU
  1
.
  9
$ELEVATION
 40
0.0
  9
$PELEVATION
 40
0.0
  9
$THICKNESS
 40
0.0
  9
$LIMCHECK
 70
     0
  9
$CHAMFERA
 40
10.0
  9
$CHAMFERB
 40
10.0
  9
$CHAMFERC
 40
20.0
  9
$CHAMFERD
 40
0.0
  9
$SKPOLY
 70
     0
  9
$TDCREATE
 40
2456763.390781562
  9
$TDUCREATE
 40
2456763.015781562
  9
$TDUPDATE
 40
2456763.390781574
  9
$TDUUPDATE
 40
2456763.015781574
  9
$TDINDWG
 40
0.0000000116
  9
$TDUSRTIMER
 40
0.0000000116
  9
$USRTIMER
 70
     1
  9
$ANGBASE
 50
0.0
  9
$ANGDIR
 70
     0
  9
$PDMODE
 70
     0
  9
$PDSIZE
 40
0.0
  9
$PLINEWID
 40
0.0
  9
$SPLFRAME
 70
     0
  9
$SPLINETYPE
 70
     6
  9
$SPLINESEGS
 70
     8
  9
$HANDSEED
  5
352
  9
$SURFTAB1
 70
     6
  9
$SURFTAB2
 70
     6
  9
$SURFTYPE
 70
     6
  9
$SURFU
 70
     6
  9
$SURFV
 70
     6
  9
$UCSBASE
  2

  9
$UCSNAME
  2

  9
$UCSORG
 10
0.0
 20
0.0
 30
0.0
  9
$UCSXDIR
 10
1.0
 20
0.0
 30
0.0
  9
$UCSYDIR
 10
0.0
 20
1.0
 30
0.0
  9
$UCSORTHOREF
  2

  9
$UCSORTHOVIEW
 70
     0
  9
$UCSORGTOP
 10
0.0
 20
0.0
 30
0.0
  9
$UCSORGBOTTOM
 10
0.0
 20
0.0
 30
0.0
  9
$UCSORGLEFT
 10
0.0
 20
0.0
 30
0.0
  9
$UCSORGRIGHT
 10
0.0
 20
0.0
 30
0.0
  9
$UCSORGFRONT
 10
0.0
 20
0.0
 30
0.0
  9
$UCSORGBACK
 10
0.0
 20
0.0
 30
0.0
  9
$PUCSBASE
  2

  9
$PUCSNAME
  2

  9
$PUCSORG
 10
0.0
 20
0.0
 30
0.0
  9
$PUCSXDIR
 10
1.0
 20
0.0
 30
0.0
  9
$PUCSYDIR
 10
0.0
 20
1.0
 30
0.0
  9
$PUCSORTHOREF
  2

  9
$PUCSORTHOVIEW
 70
     0
  9
$PUCSORGTOP
 10
0.0
 20
0.0
 30
0.0
  9
$PUCSORGBOTTOM
 10
0.0
 20
0.0
 30
0.0
  9
$PUCSORGLEFT
 10
0.0
 20
0.0
 30
0.0
  9
$PUCSORGRIGHT
 10
0.0
 20
0.0
 30
0.0
  9
$PUCSORGFRONT
 10
0.0
 20
0.0
 30
0.0
  9
$PUCSORGBACK
 10
0.0
 20
0.0
 30
0.0
  9
$USERI1
 70
     0
  9
$USERI2
 70
     0
  9
$USERI3
 70
     0
  9
$USERI4
 70
     0
  9
$USERI5
 70
     0
  9
$USERR1
 40
0.0
  9
$USERR2
 40
0.0
  9
$USERR3
 40
0.0
  9
$USERR4
 40
0.0
  9
$USERR5
 40
0.0
  9
$WORLDVIEW
 70
     1
  9
$SHADEDGE
 70
     3
  9
$SHADEDIF
 70
    70
  9
$TILEMODE
 70
     1
  9
$MAXACTVP
 70
    64
  9
$PINSBASE
 10
0.0
 20
0.0
 30
0.0
  9
$PLIMCHECK
 70
     0
  9
$PEXTMIN
 10
1.000000000000000E+20
 20
1.000000000000000E+20
 30
1.000000000000000E+20
  9
$PEXTMAX
 10
-1.000000000000000E+20
 20
-1.000000000000000E+20
 30
-1.000000000000000E+20
  9
$PLIMMIN
 10
0.0
 20
0.0
  9
$PLIMMAX
 10
420.0
 20
297.0
  9
$UNITMODE
 70
     0
  9
$VISRETAIN
 70
     1
  9
$PLINEGEN
 70
     0
  9
$PSLTSCALE
 70
     1
  9
$TREEDEPTH
 70
  3020
  9
$CMLSTYLE
  2
Standard
  9
$CMLJUST
 70
     0
  9
$CMLSCALE
 40
20.0
  9
$PROXYGRAPHICS
 70
     1
  9
$MEASUREMENT
 70
     1
  9
$CELWEIGHT
370
    -1
  9
$ENDCAPS
280
     0
  9
$JOINSTYLE
280
     0
  9
$LWDISPLAY
290
     0
  9
$INSUNITS
 70
     4
  9
$HYPERLINKBASE
  1

  9
$STYLESHEET
  1

  9
$XEDIT
290
     1
  9
$CEPSNTYPE
380
     0
  9
$PSTYLEMODE
290
     1
  9
$FINGERPRINTGUID
  2
{A082457D-7A97-47C9-8B27-EA9F5EF04E81}
  9
$VERSIONGUID
  2
{FAEB1C32-E019-11D5-929B-00C0DF256EC4}
  9
$EXTNAMES
290
     1
  9
$PSVPSCALE
 40
0.0
  9
$OLESTARTUP
290
     0
  9
$SORTENTS
280
   127
  9
$INDEXCTL
280
     0
  9
$HIDETEXT
280
     1
  9
$XCLIPFRAME
280
     2
  9
$HALOGAP
280
     0
  9
$OBSCOLOR
 70
   257
  9
$OBSLTYPE
280
     0
  9
$INTERSECTIONDISPLAY
280
     0
  9
$INTERSECTIONCOLOR
 70
   257
  9
$DIMASSOC
280
     2
  9
$PROJECTNAME
  1

  9
$CAMERADISPLAY
290
     0
  9
$LENSLENGTH
 40
50.0
  9
$CAMERAHEIGHT
 40
0.0
  9
$STEPSPERSEC
 40
2.0
  9
$STEPSIZE
 40
6.0
  9
$3DDWFPREC
 40
2.0
  9
$PSOLWIDTH
 40
5.0
  9
$PSOLHEIGHT
 40
80.0
  9
$LOFTANG1
 40
1.570796326794897
  9
$LOFTANG2
 40
1.570796326794897
  9
$LOFTMAG1
 40
0.0
  9
$LOFTMAG2
 40
0.0
  9
$LOFTPARAM
 70
     7
  9
$LOFTNORMALS
280
     1
  9
$LATITUDE
 40
37.795
  9
$LONGITUDE
 40
-122.394
  9
$NORTHDIRECTION
 40
0.0
  9
$TIMEZONE
 70
 -8000
  9
$LIGHTGLYPHDISPLAY
280
     1
  9
$TILEMODELIGHTSYNCH
280
     1
  9
$SOLIDHIST
280
     1
  9
$SHOWHIST
280
     1
  9
$DWFFRAME
280
     2
  9
$DGNFRAME
280
     2
  9
$REALWORLDSCALE
290
     1
  9
$INTERFERECOLOR
 62
   256
  9
$CSHADOW
280
     0
  9
$SHADOWPLANELOCATION
 40
0.0
  0
ENDSEC
  0
SECTION
  2
CLASSES
  0
CLASS
  1
ACDBDICTIONARYWDFLT
  2
AcDbDictionaryWithDefault
  3
ObjectDBX Classes
 90
        0
 91
        4
280
     0
281
     0
  0
CLASS
  1
VISUALSTYLE
  2
AcDbVisualStyle
  3
ObjectDBX Classes
 90
     4095
 91
        4
280
     0
281
     0
  0
CLASS
  1
MATERIAL
  2
AcDbMaterial
  3
ObjectDBX Classes
 90
     1153
 91
        4
280
     0
281
     0
  0
ENDSEC
  0
SECTION
  2
TABLES
  0
TABLE
  2
VPORT
  5
8
330
0
100
AcDbSymbolTable
 70
     1
  0
VPORT
  5
29
330
8
100
AcDbSymbolTableRecord
100
AcDbViewportTableRecord
  2
*Active
 70
     0
 10
0.0
 20
0.0
 11
1.0
 21
1.0
 12
0.0
 22
0.0
 13
0.0
 23
0.0
 14
10.0
 24
10.0
 15
10.0
 25
10.0
 16
0.0
 26
0.0
 36
1.0
 17
0.0
 27
0.0
 37
0.0
 40
9801.0
 41
1.414141414141414
 42
50.0
 43
0.0
 44
0.0
 50
0.0
 51
0.0
 71
     0
 72
 10000
 73
     1
 74
     3
 75
     0
 76
     0
 77
     0
 78
     0
281
     0
 65
     1
110
0.0
120
0.0
130
0.0
111
1.0
121
0.0
131
0.0
112
0.0
122
1.0
132
0.0
 79
     0
146
0.0
 60
     3
 61
     5
292
     1
282
     1
141
0.0
142
0.0
 63
   250
  0
ENDTAB
  0
TABLE
  2
LTYPE
  5
5
330
0
100
AcDbSymbolTable
 70
     3
  0
LTYPE
  5
14
330
5
100
AcDbSymbolTableRecord
100
AcDbLinetypeTableRecord
  2
ByBlock
 70
     0
  3

 72
    65
 73
     0
 40
0.0
  0
LTYPE
  5
15
330
5
100
AcDbSymbolTableRecord
100
AcDbLinetypeTableRecord
  2
ByLayer
 70
     0
  3

 72
    65
 73
     0
 40
0.0
  0
LTYPE
  5
16
330
5
100
AcDbSymbolTableRecord
100
AcDbLinetypeTableRecord
  2
Continuous
 70
     0
  3
Solid line
 72
    65
 73
     0
 40
0.0
  0
LTYPE
  5
41
330
5
100
AcDbSymbolTableRecord
100
AcDbLinetypeTableRecord
  2
JWW_CENTER1
 70
     0
  3
-----  --  ----------  --  -----
 72
    65
 73
     4
 40
3.386666666666667
 49
2.116666666666667
 74
     0
 49
-0.4233333333333333
 74
     0
 49
0.4233333333333333
 74
     0
 49
-0.4233333333333333
 74
     0
  0
LTYPE
  5
42
330
5
100
AcDbSymbolTableRecord
100
AcDbLinetypeTableRecord
  2
JWW_HOJO
 70
     0
  3
  -   -   -   -   -   -   -   - 
 72
    65
 73
     2
 40
1.693333333333333
 49
-1.27
 74
     0
 49
0.4233333333333333
 74
     0
  0
ENDTAB
  0
TABLE
  2
LAYER
  5
2
330
0
100
AcDbSymbolTable
 70
    14
  0
LAYER
  5
10
330
2
100
AcDbSymbolTableRecord
100
AcDbLayerTableRecord
  2
0
 70
     0
 62
     7
  6
Continuous
370
    -3
390
F
347
3E
  0
LAYER
  5
43
330
2
100
AcDbSymbolTableRecord
100
AcDbLayerTableRecord
  2
0-A_文字
 70
     0
 62
     7
  6
Continuous
370
    -3
390
F
347
3E
  0
LAYER
  5
44
330
2
100
AcDbSymbolTableRecord
100
AcDbLayerTableRecord
  2
0-1_本体
 70
     0
 62
     7
  6
Continuous
370
    -3
390
F
347
3E
  0
LAYER
  5
45
330
2
100
AcDbSymbolTableRecord
100
AcDbLayerTableRecord
  2
0-6_桟木
 70
     0
 62
     7
  6
Continuous
370
    -3
390
F
347
3E
  0
LAYER
  5
46
330
2
100
AcDbSymbolTableRecord
100
AcDbLayerTableRecord
  2
0-B_寸法
 70
     0
 62
     7
  6
Continuous
370
    -3
390
F
347
3E
  0
LAYER
  5
47
330
2
100
AcDbSymbolTableRecord
100
AcDbLayerTableRecord
  2
0-2_扉
 70
     0
 62
     7
  6
Continuous
370
    -3
390
F
347
3E
  0
LAYER
  5
48
330
2
100
AcDbSymbolTableRecord
100
AcDbLayerTableRecord
  2
0-4_棚
 70
     0
 62
     7
  6
Continuous
370
    -3
390
F
347
3E
  0
LAYER
  5
49
330
2
100
AcDbSymbolTableRecord
100
AcDbLayerTableRecord
  2
0-7__
 70
     0
 62
     7
  6
Continuous
370
    -3
390
F
347
3E
  0
LAYER
  5
4A
330
2
100
AcDbSymbolTableRecord
100
AcDbLayerTableRecord
  2
1-3_扉仕上
 70
     0
 62
     7
  6
Continuous
370
    -3
390
F
347
3E
  0
LAYER
  5
4B
330
2
100
AcDbSymbolTableRecord
100
AcDbLayerTableRecord
  2
0-0_補助線
 70
     0
 62
     7
  6
Continuous
370
    -3
390
F
347
3E
  0
LAYER
  5
4C
330
2
100
AcDbSymbolTableRecord
100
AcDbLayerTableRecord
  2
F-1_枠
 70
     0
 62
     7
  6
Continuous
370
    -3
390
F
347
3E
  0
LAYER
  5
4D
330
2
100
AcDbSymbolTableRecord
100
AcDbLayerTableRecord
  2
F-0_補助線
 70
     0
 62
     7
  6
Continuous
370
    -3
390
F
347
3E
  0
LAYER
  5
4E
330
2
100
AcDbSymbolTableRecord
100
AcDbLayerTableRecord
  2
F-A_文字
 70
     0
 62
     7
  6
Continuous
370
    -3
390
F
347
3E
  0
LAYER
  5
4F
330
2
100
AcDbSymbolTableRecord
100
AcDbLayerTableRecord
  2
0-5_ダボ
 70
     0
 62
     7
  6
Continuous
370
    -3
390
F
347
3E
  0
ENDTAB
  0
TABLE
  2
STYLE
  5
3
330
0
100
AcDbSymbolTable
 70
     3
  0
STYLE
  5
11
330
3
100
AcDbSymbolTableRecord
100
AcDbTextStyleTableRecord
  2
Standard
 70
     0
 40
0.0
 41
1.0
 50
0.0
 71
     0
 42
2.5
  3
txt
  4

  0
STYLE
  5
3F
330
3
100
AcDbSymbolTableRecord
100
AcDbTextStyleTableRecord
  2
ＭＳ ゴシック
 70
     0
 40
1.0
 41
1.0
 50
0.0
 71
     0
 42
10.0
  3

  4

1001
ACAD
1000
MS Gothic
1071
    32817
  0
STYLE
  5
40
330
3
100
AcDbSymbolTableRecord
100
AcDbTextStyleTableRecord
  2
HG明朝B
 70
     0
 40
1.0
 41
1.0
 50
0.0
 71
     0
 42
10.0
  3

  4

1001
ACAD
1000
HGMinchoB
1071
    32785
  0
ENDTAB
  0
TABLE
  2
VIEW
  5
6
330
0
100
AcDbSymbolTable
 70
     0
  0
ENDTAB
  0
TABLE
  2
UCS
  5
7
330
0
100
AcDbSymbolTable
 70
     0
  0
ENDTAB
  0
TABLE
  2
APPID
  5
9
330
0
100
AcDbSymbolTable
 70
     1
  0
APPID
  5
12
330
9
100
AcDbSymbolTableRecord
100
AcDbRegAppTableRecord
  2
ACAD
 70
     0
  0
ENDTAB
  0
TABLE
  2
DIMSTYLE
  5
A
330
0
100
AcDbSymbolTable
 70
     1
100
AcDbDimStyleTable
  0
DIMSTYLE
105
27
330
A
100
AcDbSymbolTableRecord
100
AcDbDimStyleTableRecord
  2
ISO-25
 70
     0
 41
2.5
 42
0.625
 43
3.75
 44
1.25
 73
     0
 74
     0
 77
     1
 78
     8
140
2.5
141
2.5
143
0.03937007874016
147
0.625
171
     3
172
     1
178
     0
271
     2
272
     2
274
     3
278
    44
283
     0
284
     8
340
11
  0
ENDTAB
  0
TABLE
  2
BLOCK_RECORD
  5
1
330
0
100
AcDbSymbolTable
 70
     1
  0
BLOCK_RECORD
  5
1F
330
1
100
AcDbSymbolTableRecord
100
AcDbBlockTableRecord
  2
*Model_Space
340
22
 70
     0
280
     1
281
     0
  0
BLOCK_RECORD
  5
1B
330
1
100
AcDbSymbolTableRecord
100
AcDbBlockTableRecord
  2
*Paper_Space
340
1E
 70
     0
280
     1
281
     0
  0
BLOCK_RECORD
  5
23
330
1
100
AcDbSymbolTableRecord
100
AcDbBlockTableRecord
  2
*Paper_Space0
340
26
 70
     0
280
     1
281
     0
  0
ENDTAB
  0
ENDSEC
  0
SECTION
  2
BLOCKS
  0
BLOCK
  5
20
330
1F
100
AcDbEntity
  8
0
100
AcDbBlockBegin
  2
*Model_Space
 70
     0
 10
0.0
 20
0.0
 30
0.0
  3
*Model_Space
  1

  0
ENDBLK
  5
21
330
1F
100
AcDbEntity
  8
0
100
AcDbBlockEnd
  0
BLOCK
  5
1C
330
1B
100
AcDbEntity
 67
     1
  8
0
100
AcDbBlockBegin
  2
*Paper_Space
 70
     0
 10
0.0
 20
0.0
 30
0.0
  3
*Paper_Space
  1

  0
ENDBLK
  5
1D
330
1B
100
AcDbEntity
 67
     1
  8
0
100
AcDbBlockEnd
  0
BLOCK
  5
24
330
23
100
AcDbEntity
  8
0
100
AcDbBlockBegin
  2
*Paper_Space0
 70
     0
 10
0.0
 20
0.0
 30
0.0
  3
*Paper_Space0
  1

  0
ENDBLK
  5
25
330
23
100
AcDbEntity
  8
0
100
AcDbBlockEnd
  0
ENDSEC
  0
SECTION
  2
ENTITIES
  0
LINE
  5
50
330
1F
100
AcDbEntity
  8
0-A_文字
  6
Continuous
 62
     7
370
     9
100
AcDbLine
 10
-4489.999990205507
 20
3864.999983504013
 30
0.0
 11
-5689.999990205507
 21
3864.999983504013
 31
0.0
  0
LINE
  5
51
330
1F
100
AcDbEntity
  8
0-A_文字
  6
Continuous
 62
     7
370
     9
100
AcDbLine
 10
-4489.999990205507
 20
3639.999983504013
 30
0.0
 11
-4489.999990205507
 21
3864.999983504013
 31
0.0
  0
LINE
  5
52
330
1F
100
AcDbEntity
  8
0-A_文字
  6
Continuous
 62
     7
370
     9
100
AcDbLine
 10
-5689.999990205507
 20
3639.999983504013
 30
0.0
 11
-4489.999990205507
 21
3639.999983504013
 31
0.0
  0
LINE
  5
53
330
1F
100
AcDbEntity
  8
0-A_文字
  6
Continuous
 62
     7
370
     9
100
AcDbLine
 10
-5689.999990205507
 20
3864.999983504013
 30
0.0
 11
-5689.999990205507
 21
3639.999983504013
 31
0.0
  0
LINE
  5
54
330
1F
100
AcDbEntity
  8
0-1_本体
  6
Continuous
 62
   200
370
    20
100
AcDbLine
 10
-5999.999752560178
 20
4164.999241184543
 30
0.0
 11
5699.998762800888
 21
4164.999241184543
 31
0.0
  0
TEXT
  5
55
330
1F
100
AcDbEntity
  8
0-A_文字
  6
Continuous
 62
     7
370
     9
100
AcDbText
 10
-5487.499990205507
 20
3709.419983504013
 30
0.0
 40
91.44
  1
プラン　０２
 41
1.104166666666667
  7
ＭＳ ゴシック
100
AcDbText
  0
LINE
  5
56
330
1F
100
AcDbEntity
  8
0-6_桟木
  6
Continuous
 62
    40
370
    15
100
AcDbLine
 10
4997.335896989101
 20
60.06650685314213
 30
0.0
 11
4997.335896989101
 21
6.066506853141789
 31
0.0
  0
LWPOLYLINE
  5
57
330
1F
100
AcDbEntity
  8
0-B_寸法
  6
Continuous
 62
     7
370
     9
100
AcDbPolyline
 90
        4
 70
     1
 43
3.0
 10
4998.835896989101
 20
285.0665068531421
 42
0.4142135623731
 10
4997.335896989101
 20
286.5665068531421
 42
0.4142135623731
 10
4995.835896989101
 20
285.0665068531421
 42
0.4142135623731
 10
4997.335896989101
 20
283.5665068531421
 42
0.4142135623731
  0
LINE
  5
58
330
1F
100
AcDbEntity
  8
0-B_寸法
  6
Continuous
 62
   120
370
     5
100
AcDbLine
 10
4997.335896989101
 20
285.0665068531421
 30
0.0
 11
4997.335896989101
 21
135.0665068531421
 31
0.0
  0
LINE
  5
59
330
1F
100
AcDbEntity
  8
0-A_文字
  6
Continuous
 62
     7
370
     9
100
AcDbLine
 10
4059.835896989101
 20
-1916.293964031662
 30
0.0
 11
5259.835896989101
 21
-1916.293964031662
 31
0.0
  0
LINE
  5
5A
330
1F
100
AcDbEntity
  8
0-A_文字
  6
Continuous
 62
     7
370
     9
100
AcDbLine
 10
5259.835896989101
 20
-1916.293964031662
 30
0.0
 11
5259.835896989101
 21
-1691.293964031662
 31
0.0
  0
LINE
  5
5B
330
1F
100
AcDbEntity
  8
0-A_文字
  6
Continuous
 62
     7
370
     9
100
AcDbLine
 10
5259.835896989101
 20
-1691.293964031662
 30
0.0
 11
4059.835896989101
 21
-1691.293964031662
 31
0.0
  0
LINE
  5
5C
330
1F
100
AcDbEntity
  8
0-A_文字
  6
Continuous
 62
     7
370
     9
100
AcDbLine
 10
4059.835896989101
 20
-1691.293964031662
 30
0.0
 11
4059.835896989101
 21
-1916.293964031662
 31
0.0
  0
TEXT
  5
5D
330
1F
100
AcDbEntity
  8
0-A_文字
  6
Continuous
 62
     7
370
     9
100
AcDbText
 10
4329.835896989101
 20
-1846.873964031662
 30
0.0
 40
91.44
  1
断面図・・
 41
1.1
  7
ＭＳ ゴシック
100
AcDbText
  0
LINE
  5
5E
330
1F
100
AcDbEntity
  8
0-A_文字
  6
Continuous
 62
     7
370
     9
100
AcDbLine
 10
-3857.336112615232
 20
-1916.293964031661
 30
0.0
 11
-2657.336112615232
 21
-1916.293964031661
 31
0.0
  0
LINE
  5
5F
330
1F
100
AcDbEntity
  8
0-A_文字
  6
Continuous
 62
     7
370
     9
100
AcDbLine
 10
-2657.336112615232
 20
-1916.293964031661
 30
0.0
 11
-2657.336112615232
 21
-1691.293964031661
 31
0.0
  0
LINE
  5
60
330
1F
100
AcDbEntity
  8
0-A_文字
  6
Continuous
 62
     7
370
     9
100
AcDbLine
 10
-2657.336112615232
 20
-1691.293964031661
 30
0.0
 11
-3857.336112615232
 21
-1691.293964031661
 31
0.0
  0
LINE
  5
61
330
1F
100
AcDbEntity
  8
0-A_文字
  6
Continuous
 62
     7
370
     9
100
AcDbLine
 10
-3857.336112615232
 20
-1691.293964031661
 30
0.0
 11
-3857.336112615232
 21
-1916.293964031661
 31
0.0
  0
TEXT
  5
62
330
1F
100
AcDbEntity
  8
0-A_文字
  6
Continuous
 62
     7
370
     9
100
AcDbText
 10
-3587.336112615232
 20
-1846.873964031661
 30
0.0
 40
91.44
  1
正面図・・
 41
1.1
  7
ＭＳ ゴシック
100
AcDbText
  0
LINE
  5
63
330
1F
100
AcDbEntity
  8
0-2_扉
  6
JWW_CENTER1
 62
   120
370
     5
100
AcDbLine
 10
-4514.336434110257
 20
-182.932815073373
 30
0.0
 11
-3890.336723791592
 21
-597.6828150733727
 31
0.0
  0
LINE
  5
64
330
1F
100
AcDbEntity
  8
0-2_扉
  6
Continuous
 62
    92
370
    13
100
AcDbLine
 10
-4514.336434110257
 20
-178.4328150733737
 30
0.0
 11
-3890.336434110257
 21
-178.4328150733737
 31
0.0
  0
LINE
  5
65
330
1F
100
AcDbEntity
  8
0-2_扉
  6
Continuous
 62
    92
370
    13
100
AcDbLine
 10
-4514.336434110257
 20
-178.4328150733737
 30
0.0
 11
-4514.336434110257
 21
1.567184926626339
 31
0.0
  0
LINE
  5
66
330
1F
100
AcDbEntity
  8
0-2_扉
  6
Continuous
 62
    92
370
    13
100
AcDbLine
 10
-4514.336434110257
 20
1.567184926626339
 30
0.0
 11
-3890.336434110257
 21
1.567184926626339
 31
0.0
  0
LINE
  5
67
330
1F
100
AcDbEntity
  8
0-2_扉
  6
JWW_CENTER1
 62
   120
370
     5
100
AcDbLine
 10
-3890.336723791592
 20
-597.6828150733727
 30
0.0
 11
-4514.336434110257
 21
-1012.432815073374
 31
0.0
  0
LINE
  5
68
330
1F
100
AcDbEntity
  8
0-2_扉
  6
Continuous
 62
    92
370
    13
100
AcDbLine
 10
-4514.336434110257
 20
-1012.432815073374
 30
0.0
 11
-4514.336434110257
 21
-182.932815073373
 31
0.0
  0
LINE
  5
69
330
1F
100
AcDbEntity
  8
0-2_扉
  6
Continuous
 62
    92
370
    13
100
AcDbLine
 10
-4514.336434110257
 20
-182.932815073373
 30
0.0
 11
-3890.336723791592
 21
-182.932815073373
 31
0.0
  0
LINE
  5
6A
330
1F
100
AcDbEntity
  8
0-2_扉
  6
Continuous
 62
    92
370
    13
100
AcDbLine
 10
-4514.336434110257
 20
-1012.432815073374
 30
0.0
 11
-3890.336723791592
 21
-1012.432815073374
 31
0.0
  0
LINE
  5
6B
330
1F
100
AcDbEntity
  8
0-2_扉
  6
Continuous
 62
    92
370
    13
100
AcDbLine
 10
-4520.336144428922
 20
-178.4328150733737
 30
0.0
 11
-4520.336144428922
 21
1.567184926626339
 31
0.0
  0
LINE
  5
6C
330
1F
100
AcDbEntity
  8
0-2_扉
  6
Continuous
 62
    92
370
    13
100
AcDbLine
 10
-5144.336144428921
 20
-178.4328150733737
 30
0.0
 11
-4520.336144428922
 21
-178.4328150733737
 31
0.0
  0
LINE
  5
6D
330
1F
100
AcDbEntity
  8
0-2_扉
  6
Continuous
 62
    92
370
    13
100
AcDbLine
 10
-5144.336144428921
 20
1.567184926626339
 30
0.0
 11
-4520.336144428922
 21
1.567184926626339
 31
0.0
  0
LINE
  5
6E
330
1F
100
AcDbEntity
  8
0-2_扉
  6
JWW_CENTER1
 62
   120
370
     5
100
AcDbLine
 10
-5144.336144428921
 20
-597.6828150733727
 30
0.0
 11
-4520.336434110257
 21
-1012.432815073374
 31
0.0
  0
LINE
  5
6F
330
1F
100
AcDbEntity
  8
0-2_扉
  6
JWW_CENTER1
 62
   120
370
     5
100
AcDbLine
 10
-4520.336434110257
 20
-182.932815073373
 30
0.0
 11
-5144.336144428921
 21
-597.6828150733727
 31
0.0
  0
LINE
  5
70
330
1F
100
AcDbEntity
  8
0-2_扉
  6
Continuous
 62
    92
370
    13
100
AcDbLine
 10
-4520.336434110257
 20
-1012.432815073374
 30
0.0
 11
-4520.336434110257
 21
-182.932815073373
 31
0.0
  0
LINE
  5
71
330
1F
100
AcDbEntity
  8
0-2_扉
  6
Continuous
 62
    92
370
    13
100
AcDbLine
 10
-5144.336144428921
 20
-182.932815073373
 30
0.0
 11
-4520.336434110257
 21
-182.932815073373
 31
0.0
  0
LINE
  5
72
330
1F
100
AcDbEntity
  8
0-2_扉
  6
Continuous
 62
    92
370
    13
100
AcDbLine
 10
-5144.336144428921
 20
-1012.432815073374
 30
0.0
 11
-4520.336434110257
 21
-1012.432815073374
 31
0.0
  0
LINE
  5
73
330
1F
100
AcDbEntity
  8
0-1_本体
  6
Continuous
 62
     7
370
     9
100
AcDbLine
 10
-3887.336123219796
 20
-1162.433493146858
 30
0.0
 11
-5147.336144428922
 21
-1162.433493146858
 31
0.0
  0
LINE
  5
74
330
1F
100
AcDbEntity
  8
0-1_本体
  6
Continuous
 62
     7
370
     9
100
AcDbLine
 10
-5147.336144428922
 20
-1162.433493146858
 30
0.0
 11
-5147.336144428922
 21
6.066506853141789
 31
0.0
  0
LINE
  5
75
330
1F
100
AcDbEntity
  8
0-1_本体
  6
Continuous
 62
     7
370
     9
100
AcDbLine
 10
-3887.336123219796
 20
6.066506853141789
 30
0.0
 11
-3887.336123219796
 21
-1162.433493146858
 31
0.0
  0
LINE
  5
76
330
1F
100
AcDbEntity
  8
0-1_本体
  6
Continuous
 62
     7
370
     9
100
AcDbLine
 10
-5147.336144428922
 20
6.066506853141789
 30
0.0
 11
-3887.336123219796
 21
6.066506853141789
 31
0.0
  0
LINE
  5
77
330
1F
100
AcDbEntity
  8
0-2_扉
  6
Continuous
 62
    92
370
    13
100
AcDbLine
 10
-3890.336434110257
 20
-178.4328150733737
 30
0.0
 11
-3890.336434110257
 21
1.567184926626339
 31
0.0
  0
LINE
  5
78
330
1F
100
AcDbEntity
  8
0-2_扉
  6
Continuous
 62
    92
370
    13
100
AcDbLine
 10
-5144.336144428921
 20
-178.4328150733737
 30
0.0
 11
-5144.336144428921
 21
1.567184926626339
 31
0.0
  0
LINE
  5
79
330
1F
100
AcDbEntity
  8
0-2_扉
  6
Continuous
 62
    92
370
    13
100
AcDbLine
 10
-5144.336144428921
 20
-1012.432815073374
 30
0.0
 11
-5144.336144428921
 21
-182.932815073373
 31
0.0
  0
LINE
  5
7A
330
1F
100
AcDbEntity
  8
0-2_扉
  6
Continuous
 62
    92
370
    13
100
AcDbLine
 10
-3890.336723791592
 20
-182.932815073373
 30
0.0
 11
-3890.336723791592
 21
-1012.432815073374
 31
0.0
  0
LINE
  5
7B
330
1F
100
AcDbEntity
  8
0-1_本体
  6
Continuous
 62
     7
370
     9
100
AcDbLine
 10
-5124.086144428922
 20
-1162.433493146858
 30
0.0
 11
-5124.086144428922
 21
-1012.433493146858
 31
0.0
  0
LINE
  5
7C
330
1F
100
AcDbEntity
  8
0-1_本体
  6
Continuous
 62
     7
370
     9
100
AcDbLine
 10
-3910.586144428921
 20
-1162.433493146858
 30
0.0
 11
-3910.586144428921
 21
-1012.433493146858
 31
0.0
  0
LINE
  5
7D
330
1F
100
AcDbEntity
  8
0-B_寸法
  6
Continuous
 62
   120
370
     5
100
AcDbLine
 10
-5147.336144428922
 20
-1387.433493146858
 30
0.0
 11
-5124.086144428922
 21
-1387.433493146858
 31
0.0
  0
LWPOLYLINE
  5
7E
330
1F
100
AcDbEntity
  8
0-B_寸法
  6
Continuous
 62
     7
370
     9
100
AcDbPolyline
 90
        4
 70
     1
 43
3.0
 10
-5145.836144428921
 20
-1387.433493146858
 42
0.4142135623731
 10
-5147.336144428922
 20
-1385.933493146858
 42
0.4142135623731
 10
-5148.836144428922
 20
-1387.433493146858
 42
0.4142135623731
 10
-5147.336144428922
 20
-1388.933493146858
 42
0.4142135623731
  0
LWPOLYLINE
  5
7F
330
1F
100
AcDbEntity
  8
0-B_寸法
  6
Continuous
 62
     7
370
     9
100
AcDbPolyline
 90
        4
 70
     1
 43
3.0
 10
-5122.586144428922
 20
-1387.433493146858
 42
0.4142135623731
 10
-5124.086144428922
 20
-1385.933493146858
 42
0.4142135623731
 10
-5125.586144428923
 20
-1387.433493146858
 42
0.4142135623731
 10
-5124.086144428922
 20
-1388.933493146858
 42
0.4142135623731
  0
LINE
  5
80
330
1F
100
AcDbEntity
  8
0-B_寸法
  6
Continuous
 62
   120
370
     5
100
AcDbLine
 10
-5147.336144428922
 20
-1537.433493146858
 30
0.0
 11
-5147.336144428922
 21
-1237.433493146858
 31
0.0
  0
LINE
  5
81
330
1F
100
AcDbEntity
  8
0-B_寸法
  6
Continuous
 62
   120
370
     5
100
AcDbLine
 10
-5124.086144428922
 20
-1387.433493146858
 30
0.0
 11
-5124.086144428922
 21
-1237.433493146858
 31
0.0
  0
LINE
  5
82
330
1F
100
AcDbEntity
  8
0-B_寸法
  6
Continuous
 62
   120
370
     5
100
AcDbLine
 10
-5124.086144428922
 20
-1387.433493146858
 30
0.0
 11
-3910.586144428921
 21
-1387.433493146858
 31
0.0
  0
LWPOLYLINE
  5
83
330
1F
100
AcDbEntity
  8
0-B_寸法
  6
Continuous
 62
     7
370
     9
100
AcDbPolyline
 90
        4
 70
     1
 43
3.0
 10
-3909.086144428921
 20
-1387.433493146858
 42
0.4142135623731
 10
-3910.586144428921
 20
-1385.933493146858
 42
0.4142135623731
 10
-3912.086144428922
 20
-1387.433493146858
 42
0.4142135623731
 10
-3910.586144428921
 20
-1388.933493146858
 42
0.4142135623731
  0
LINE
  5
84
330
1F
100
AcDbEntity
  8
0-B_寸法
  6
Continuous
 62
   120
370
     5
100
AcDbLine
 10
-3910.586144428921
 20
-1387.433493146858
 30
0.0
 11
-3910.586144428921
 21
-1237.433493146858
 31
0.0
  0
TEXT
  5
85
330
1F
100
AcDbEntity
  8
0-B_寸法
  6
Continuous
 62
     7
370
   211
100
AcDbText
 10
-4592.336144428922
 20
-1359.743493146858
 30
0.0
 40
68.58
  1
809
 41
1.111111111111111
  7
ＭＳ ゴシック
100
AcDbText
  0
LINE
  5
86
330
1F
100
AcDbEntity
  8
0-B_寸法
  6
Continuous
 62
   120
370
     5
100
AcDbLine
 10
-3910.586144428921
 20
-1387.433493146858
 30
0.0
 11
-3887.336123219796
 21
-1387.433493146858
 31
0.0
  0
LWPOLYLINE
  5
87
330
1F
100
AcDbEntity
  8
0-B_寸法
  6
Continuous
 62
     7
370
     9
100
AcDbPolyline
 90
        4
 70
     1
 43
3.0
 10
-3885.836123219796
 20
-1387.433493146858
 42
0.4142135623731
 10
-3887.336123219796
 20
-1385.933493146858
 42
0.4142135623731
 10
-3888.836123219796
 20
-1387.433493146858
 42
0.4142135623731
 10
-3887.336123219796
 20
-1388.933493146858
 42
0.4142135623731
  0
LINE
  5
88
330
1F
100
AcDbEntity
  8
0-B_寸法
  6
Continuous
 62
   120
370
     5
100
AcDbLine
 10
-3887.336123219796
 20
-1537.433493146858
 30
0.0
 11
-3887.336123219796
 21
-1237.433493146858
 31
0.0
  0
LINE
  5
89
330
1F
100
AcDbEntity
  8
0-B_寸法
  6
Continuous
 62
   120
370
     5
100
AcDbLine
 10
-5147.336144428922
 20
-1537.433493146858
 30
0.0
 11
-3887.336123219796
 21
-1537.433493146858
 31
0.0
  0
LWPOLYLINE
  5
8A
330
1F
100
AcDbEntity
  8
0-B_寸法
  6
Continuous
 62
     7
370
     9
100
AcDbPolyline
 90
        4
 70
     1
 43
3.0
 10
-5145.836144428921
 20
-1537.433493146858
 42
0.4142135623731
 10
-5147.336144428922
 20
-1535.933493146858
 42
0.4142135623731
 10
-5148.836144428922
 20
-1537.433493146858
 42
0.4142135623731
 10
-5147.336144428922
 20
-1538.933493146858
 42
0.4142135623731
  0
LWPOLYLINE
  5
8B
330
1F
100
AcDbEntity
  8
0-B_寸法
  6
Continuous
 62
     7
370
     9
100
AcDbPolyline
 90
        4
 70
     1
 43
3.0
 10
-3885.836123219796
 20
-1537.433493146858
 42
0.4142135623731
 10
-3887.336123219796
 20
-1535.933493146858
 42
0.4142135623731
 10
-3888.836123219796
 20
-1537.433493146858
 42
0.4142135623731
 10
-3887.336123219796
 20
-1538.933493146858
 42
0.4142135623731
  0
TEXT
  5
8C
330
1F
100
AcDbEntity
  8
0-B_寸法
  6
Continuous
 62
     7
370
   211
100
AcDbText
 10
-4592.336133824358
 20
-1509.743493146858
 30
0.0
 40
68.58
  1
840
 41
1.111111111111111
  7
ＭＳ ゴシック
100
AcDbText
  0
TEXT
  5
8D
330
1F
100
AcDbEntity
  8
0-B_寸法
  6
Continuous
 62
     7
370
   211
100
AcDbText
 10
-3873.712993397141
 20
-1359.743493146858
 30
0.0
 40
68.58
  1
15.5
 41
1.125
  7
ＭＳ ゴシック
100
AcDbText
  0
LINE
  5
8E
330
1F
100
AcDbEntity
  8
0-2_扉
  6
JWW_CENTER1
 62
   120
370
     5
100
AcDbLine
 10
-3254.33641290113
 20
-182.932815073373
 30
0.0
 11
-2630.336702582465
 21
-597.6828150733727
 31
0.0
  0
LINE
  5
8F
330
1F
100
AcDbEntity
  8
0-2_扉
  6
Continuous
 62
    92
370
    13
100
AcDbLine
 10
-3254.33641290113
 20
-178.4328150733737
 30
0.0
 11
-2630.336412901128
 21
-178.4328150733737
 31
0.0
  0
LINE
  5
90
330
1F
100
AcDbEntity
  8
0-2_扉
  6
Continuous
 62
    92
370
    13
100
AcDbLine
 10
-3254.33641290113
 20
-178.4328150733737
 30
0.0
 11
-3254.33641290113
 21
1.567184926626339
 31
0.0
  0
LINE
  5
91
330
1F
100
AcDbEntity
  8
0-2_扉
  6
Continuous
 62
    92
370
    13
100
AcDbLine
 10
-3254.33641290113
 20
1.567184926626339
 30
0.0
 11
-2630.336412901128
 21
1.567184926626339
 31
0.0
  0
LINE
  5
92
330
1F
100
AcDbEntity
  8
0-2_扉
  6
JWW_CENTER1
 62
   120
370
     5
100
AcDbLine
 10
-2630.336702582465
 20
-597.6828150733727
 30
0.0
 11
-3254.33641290113
 21
-1012.432815073374
 31
0.0
  0
LINE
  5
93
330
1F
100
AcDbEntity
  8
0-2_扉
  6
Continuous
 62
    92
370
    13
100
AcDbLine
 10
-3254.33641290113
 20
-1012.432815073374
 30
0.0
 11
-3254.33641290113
 21
-182.932815073373
 31
0.0
  0
LINE
  5
94
330
1F
100
AcDbEntity
  8
0-2_扉
  6
Continuous
 62
    92
370
    13
100
AcDbLine
 10
-3254.33641290113
 20
-182.932815073373
 30
0.0
 11
-2630.336702582465
 21
-182.932815073373
 31
0.0
  0
LINE
  5
95
330
1F
100
AcDbEntity
  8
0-2_扉
  6
Continuous
 62
    92
370
    13
100
AcDbLine
 10
-3254.33641290113
 20
-1012.432815073374
 30
0.0
 11
-2630.336702582465
 21
-1012.432815073374
 31
0.0
  0
LINE
  5
96
330
1F
100
AcDbEntity
  8
0-2_扉
  6
Continuous
 62
    92
370
    13
100
AcDbLine
 10
-3260.336123219795
 20
-178.4328150733737
 30
0.0
 11
-3260.336123219795
 21
1.567184926626339
 31
0.0
  0
LINE
  5
97
330
1F
100
AcDbEntity
  8
0-2_扉
  6
Continuous
 62
    92
370
    13
100
AcDbLine
 10
-3884.336123219794
 20
-178.4328150733737
 30
0.0
 11
-3260.336123219795
 21
-178.4328150733737
 31
0.0
  0
LINE
  5
98
330
1F
100
AcDbEntity
  8
0-2_扉
  6
Continuous
 62
    92
370
    13
100
AcDbLine
 10
-3884.336123219794
 20
1.567184926626339
 30
0.0
 11
-3260.336123219795
 21
1.567184926626339
 31
0.0
  0
LINE
  5
99
330
1F
100
AcDbEntity
  8
0-2_扉
  6
JWW_CENTER1
 62
   120
370
     5
100
AcDbLine
 10
-3884.336123219794
 20
-597.6828150733727
 30
0.0
 11
-3260.336412901128
 21
-1012.432815073374
 31
0.0
  0
LINE
  5
9A
330
1F
100
AcDbEntity
  8
0-2_扉
  6
JWW_CENTER1
 62
   120
370
     5
100
AcDbLine
 10
-3260.336412901128
 20
-182.932815073373
 30
0.0
 11
-3884.336123219794
 21
-597.6828150733727
 31
0.0
  0
LINE
  5
9B
330
1F
100
AcDbEntity
  8
0-2_扉
  6
Continuous
 62
    92
370
    13
100
AcDbLine
 10
-3260.336412901128
 20
-1012.432815073374
 30
0.0
 11
-3260.336412901128
 21
-182.932815073373
 31
0.0
  0
LINE
  5
9C
330
1F
100
AcDbEntity
  8
0-2_扉
  6
Continuous
 62
    92
370
    13
100
AcDbLine
 10
-3884.336123219794
 20
-182.932815073373
 30
0.0
 11
-3260.336412901128
 21
-182.932815073373
 31
0.0
  0
LINE
  5
9D
330
1F
100
AcDbEntity
  8
0-2_扉
  6
Continuous
 62
    92
370
    13
100
AcDbLine
 10
-3884.336123219794
 20
-1012.432815073374
 30
0.0
 11
-3260.336412901128
 21
-1012.432815073374
 31
0.0
  0
LINE
  5
9E
330
1F
100
AcDbEntity
  8
0-1_本体
  6
Continuous
 62
     7
370
     9
100
AcDbLine
 10
-2627.336102010667
 20
-1162.433493146858
 30
0.0
 11
-3887.336123219796
 21
-1162.433493146858
 31
0.0
  0
LINE
  5
9F
330
1F
100
AcDbEntity
  8
0-1_本体
  6
Continuous
 62
     7
370
     9
100
AcDbLine
 10
-2627.336102010667
 20
6.066506853141789
 30
0.0
 11
-2627.336102010667
 21
-1162.433493146858
 31
0.0
  0
LINE
  5
A0
330
1F
100
AcDbEntity
  8
0-1_本体
  6
Continuous
 62
     7
370
     9
100
AcDbLine
 10
-3887.336123219796
 20
6.066506853141789
 30
0.0
 11
-2627.336102010667
 21
6.066506853141789
 31
0.0
  0
LINE
  5
A1
330
1F
100
AcDbEntity
  8
0-2_扉
  6
Continuous
 62
    92
370
    13
100
AcDbLine
 10
-2630.336412901128
 20
-178.4328150733737
 30
0.0
 11
-2630.336412901128
 21
1.567184926626339
 31
0.0
  0
LINE
  5
A2
330
1F
100
AcDbEntity
  8
0-2_扉
  6
Continuous
 62
    92
370
    13
100
AcDbLine
 10
-3884.336123219794
 20
-178.4328150733737
 30
0.0
 11
-3884.336123219794
 21
1.567184926626339
 31
0.0
  0
LINE
  5
A3
330
1F
100
AcDbEntity
  8
0-2_扉
  6
Continuous
 62
    92
370
    13
100
AcDbLine
 10
-3884.336123219794
 20
-1012.432815073374
 30
0.0
 11
-3884.336123219794
 21
-182.932815073373
 31
0.0
  0
LINE
  5
A4
330
1F
100
AcDbEntity
  8
0-2_扉
  6
Continuous
 62
    92
370
    13
100
AcDbLine
 10
-2630.336702582465
 20
-182.932815073373
 30
0.0
 11
-2630.336702582465
 21
-1012.432815073374
 31
0.0
  0
LINE
  5
A5
330
1F
100
AcDbEntity
  8
0-1_本体
  6
Continuous
 62
     7
370
     9
100
AcDbLine
 10
-3864.086123219795
 20
-1162.433493146858
 30
0.0
 11
-3864.086123219795
 21
-1012.433493146858
 31
0.0
  0
LINE
  5
A6
330
1F
100
AcDbEntity
  8
0-1_本体
  6
Continuous
 62
     7
370
     9
100
AcDbLine
 10
-2650.586123219794
 20
-1162.433493146858
 30
0.0
 11
-2650.586123219794
 21
-1012.433493146858
 31
0.0
  0
LINE
  5
A7
330
1F
100
AcDbEntity
  8
0-B_寸法
  6
Continuous
 62
   120
370
     5
100
AcDbLine
 10
-3887.336123219796
 20
-1387.433493146858
 30
0.0
 11
-3864.086123219795
 21
-1387.433493146858
 31
0.0
  0
LWPOLYLINE
  5
A8
330
1F
100
AcDbEntity
  8
0-B_寸法
  6
Continuous
 62
     7
370
     9
100
AcDbPolyline
 90
        4
 70
     1
 43
3.0
 10
-3862.586123219794
 20
-1387.433493146858
 42
0.4142135623731
 10
-3864.086123219795
 20
-1385.933493146858
 42
0.4142135623731
 10
-3865.586123219795
 20
-1387.433493146858
 42
0.4142135623731
 10
-3864.086123219795
 20
-1388.933493146858
 42
0.4142135623731
  0
LINE
  5
A9
330
1F
100
AcDbEntity
  8
0-B_寸法
  6
Continuous
 62
   120
370
     5
100
AcDbLine
 10
-3864.086123219795
 20
-1387.433493146858
 30
0.0
 11
-3864.086123219795
 21
-1237.433493146858
 31
0.0
  0
LINE
  5
AA
330
1F
100
AcDbEntity
  8
0-B_寸法
  6
Continuous
 62
   120
370
     5
100
AcDbLine
 10
-3864.086123219795
 20
-1387.433493146858
 30
0.0
 11
-2650.586123219794
 21
-1387.433493146858
 31
0.0
  0
LWPOLYLINE
  5
AB
330
1F
100
AcDbEntity
  8
0-B_寸法
  6
Continuous
 62
     7
370
     9
100
AcDbPolyline
 90
        4
 70
     1
 43
3.0
 10
-2649.086123219794
 20
-1387.433493146858
 42
0.4142135623731
 10
-2650.586123219794
 20
-1385.933493146858
 42
0.4142135623731
 10
-2652.086123219794
 20
-1387.433493146858
 42
0.4142135623731
 10
-2650.586123219794
 20
-1388.933493146858
 42
0.4142135623731
  0
LINE
  5
AC
330
1F
100
AcDbEntity
  8
0-B_寸法
  6
Continuous
 62
   120
370
     5
100
AcDbLine
 10
-2650.586123219794
 20
-1387.433493146858
 30
0.0
 11
-2650.586123219794
 21
-1237.433493146858
 31
0.0
  0
TEXT
  5
AD
330
1F
100
AcDbEntity
  8
0-B_寸法
  6
Continuous
 62
     7
370
   211
100
AcDbText
 10
-3332.336123219796
 20
-1359.743493146858
 30
0.0
 40
68.58
  1
809
 41
1.111111111111111
  7
ＭＳ ゴシック
100
AcDbText
  0
LINE
  5
AE
330
1F
100
AcDbEntity
  8
0-B_寸法
  6
Continuous
 62
   120
370
     5
100
AcDbLine
 10
-2650.586123219794
 20
-1387.433493146858
 30
0.0
 11
-2627.336102010667
 21
-1387.433493146858
 31
0.0
  0
LWPOLYLINE
  5
AF
330
1F
100
AcDbEntity
  8
0-B_寸法
  6
Continuous
 62
     7
370
     9
100
AcDbPolyline
 90
        4
 70
     1
 43
3.0
 10
-2625.836102010667
 20
-1387.433493146858
 42
0.4142135623731
 10
-2627.336102010667
 20
-1385.933493146858
 42
0.4142135623731
 10
-2628.836102010666
 20
-1387.433493146858
 42
0.4142135623731
 10
-2627.336102010667
 20
-1388.933493146858
 42
0.4142135623731
  0
LINE
  5
B0
330
1F
100
AcDbEntity
  8
0-B_寸法
  6
Continuous
 62
   120
370
     5
100
AcDbLine
 10
-2627.336102010667
 20
-1537.433493146858
 30
0.0
 11
-2627.336102010667
 21
-1237.433493146858
 31
0.0
  0
LINE
  5
B1
330
1F
100
AcDbEntity
  8
0-B_寸法
  6
Continuous
 62
   120
370
     5
100
AcDbLine
 10
-3887.336123219796
 20
-1537.433493146858
 30
0.0
 11
-2627.336102010667
 21
-1537.433493146858
 31
0.0
  0
LWPOLYLINE
  5
B2
330
1F
100
AcDbEntity
  8
0-B_寸法
  6
Continuous
 62
     7
370
     9
100
AcDbPolyline
 90
        4
 70
     1
 43
3.0
 10
-2625.836102010667
 20
-1537.433493146858
 42
0.4142135623731
 10
-2627.336102010667
 20
-1535.933493146858
 42
0.4142135623731
 10
-2628.836102010666
 20
-1537.433493146858
 42
0.4142135623731
 10
-2627.336102010667
 20
-1538.933493146858
 42
0.4142135623731
  0
TEXT
  5
B3
330
1F
100
AcDbEntity
  8
0-B_寸法
  6
Continuous
 62
     7
370
   211
100
AcDbText
 10
-3332.33611261523
 20
-1509.743493146858
 30
0.0
 40
68.58
  1
840
 41
1.111111111111111
  7
ＭＳ ゴシック
100
AcDbText
  0
TEXT
  5
B4
330
1F
100
AcDbEntity
  8
0-B_寸法
  6
Continuous
 62
     7
370
   211
100
AcDbText
 10
-4105.396205397283
 20
-1359.743493146858
 30
0.0
 40
68.58
  1
15.5
 41
1.125
  7
ＭＳ ゴシック
100
AcDbText
  0
TEXT
  5
B5
330
1F
100
AcDbEntity
  8
0-B_寸法
  6
Continuous
 62
     7
370
   211
100
AcDbText
 10
-2613.712972188014
 20
-1359.743493146858
 30
0.0
 40
68.58
  1
15.5
 41
1.125
  7
ＭＳ ゴシック
100
AcDbText
  0
LINE
  5
B6
330
1F
100
AcDbEntity
  8
0-2_扉
  6
JWW_CENTER1
 62
   120
370
     5
100
AcDbLine
 10
-1994.336391692002
 20
-182.932815073373
 30
0.0
 11
-1370.336681373337
 21
-597.6828150733727
 31
0.0
  0
LINE
  5
B7
330
1F
100
AcDbEntity
  8
0-2_扉
  6
Continuous
 62
    92
370
    13
100
AcDbLine
 10
-1994.336391692002
 20
-178.4328150733737
 30
0.0
 11
-1370.336391692001
 21
-178.4328150733737
 31
0.0
  0
LINE
  5
B8
330
1F
100
AcDbEntity
  8
0-2_扉
  6
Continuous
 62
    92
370
    13
100
AcDbLine
 10
-1994.336391692002
 20
-178.4328150733737
 30
0.0
 11
-1994.336391692002
 21
1.567184926626339
 31
0.0
  0
LINE
  5
B9
330
1F
100
AcDbEntity
  8
0-2_扉
  6
Continuous
 62
    92
370
    13
100
AcDbLine
 10
-1994.336391692002
 20
1.567184926626339
 30
0.0
 11
-1370.336391692001
 21
1.567184926626339
 31
0.0
  0
LINE
  5
BA
330
1F
100
AcDbEntity
  8
0-2_扉
  6
JWW_CENTER1
 62
   120
370
     5
100
AcDbLine
 10
-1370.336681373337
 20
-597.6828150733727
 30
0.0
 11
-1994.336391692002
 21
-1012.432815073374
 31
0.0
  0
LINE
  5
BB
330
1F
100
AcDbEntity
  8
0-2_扉
  6
Continuous
 62
    92
370
    13
100
AcDbLine
 10
-1994.336391692002
 20
-1012.432815073374
 30
0.0
 11
-1994.336391692002
 21
-182.932815073373
 31
0.0
  0
LINE
  5
BC
330
1F
100
AcDbEntity
  8
0-2_扉
  6
Continuous
 62
    92
370
    13
100
AcDbLine
 10
-1994.336391692002
 20
-182.932815073373
 30
0.0
 11
-1370.336681373337
 21
-182.932815073373
 31
0.0
  0
LINE
  5
BD
330
1F
100
AcDbEntity
  8
0-2_扉
  6
Continuous
 62
    92
370
    13
100
AcDbLine
 10
-1994.336391692002
 20
-1012.432815073374
 30
0.0
 11
-1370.336681373337
 21
-1012.432815073374
 31
0.0
  0
LINE
  5
BE
330
1F
100
AcDbEntity
  8
0-2_扉
  6
Continuous
 62
    92
370
    13
100
AcDbLine
 10
-2000.336102010667
 20
-178.4328150733737
 30
0.0
 11
-2000.336102010667
 21
1.567184926626339
 31
0.0
  0
LINE
  5
BF
330
1F
100
AcDbEntity
  8
0-2_扉
  6
Continuous
 62
    92
370
    13
100
AcDbLine
 10
-2624.336102010666
 20
-178.4328150733737
 30
0.0
 11
-2000.336102010667
 21
-178.4328150733737
 31
0.0
  0
LINE
  5
C0
330
1F
100
AcDbEntity
  8
0-2_扉
  6
Continuous
 62
    92
370
    13
100
AcDbLine
 10
-2624.336102010666
 20
1.567184926626339
 30
0.0
 11
-2000.336102010667
 21
1.567184926626339
 31
0.0
  0
LINE
  5
C1
330
1F
100
AcDbEntity
  8
0-2_扉
  6
JWW_CENTER1
 62
   120
370
     5
100
AcDbLine
 10
-2624.336102010666
 20
-597.6828150733727
 30
0.0
 11
-2000.336391692002
 21
-1012.432815073374
 31
0.0
  0
LINE
  5
C2
330
1F
100
AcDbEntity
  8
0-2_扉
  6
JWW_CENTER1
 62
   120
370
     5
100
AcDbLine
 10
-2000.336391692002
 20
-182.932815073373
 30
0.0
 11
-2624.336102010666
 21
-597.6828150733727
 31
0.0
  0
LINE
  5
C3
330
1F
100
AcDbEntity
  8
0-2_扉
  6
Continuous
 62
    92
370
    13
100
AcDbLine
 10
-2000.336391692002
 20
-1012.432815073374
 30
0.0
 11
-2000.336391692002
 21
-182.932815073373
 31
0.0
  0
LINE
  5
C4
330
1F
100
AcDbEntity
  8
0-2_扉
  6
Continuous
 62
    92
370
    13
100
AcDbLine
 10
-2624.336102010666
 20
-182.932815073373
 30
0.0
 11
-2000.336391692002
 21
-182.932815073373
 31
0.0
  0
LINE
  5
C5
330
1F
100
AcDbEntity
  8
0-2_扉
  6
Continuous
 62
    92
370
    13
100
AcDbLine
 10
-2624.336102010666
 20
-1012.432815073374
 30
0.0
 11
-2000.336391692002
 21
-1012.432815073374
 31
0.0
  0
LINE
  5
C6
330
1F
100
AcDbEntity
  8
0-1_本体
  6
Continuous
 62
     7
370
     9
100
AcDbLine
 10
-1367.33608080154
 20
-1162.433493146858
 30
0.0
 11
-2627.336102010667
 21
-1162.433493146858
 31
0.0
  0
LINE
  5
C7
330
1F
100
AcDbEntity
  8
0-1_本体
  6
Continuous
 62
     7
370
     9
100
AcDbLine
 10
-1367.33608080154
 20
6.066506853141789
 30
0.0
 11
-1367.33608080154
 21
-1162.433493146858
 31
0.0
  0
LINE
  5
C8
330
1F
100
AcDbEntity
  8
0-1_本体
  6
Continuous
 62
     7
370
     9
100
AcDbLine
 10
-2627.336102010667
 20
6.066506853141789
 30
0.0
 11
-1367.33608080154
 21
6.066506853141789
 31
0.0
  0
LINE
  5
C9
330
1F
100
AcDbEntity
  8
0-2_扉
  6
Continuous
 62
    92
370
    13
100
AcDbLine
 10
-1370.336391692001
 20
-178.4328150733737
 30
0.0
 11
-1370.336391692001
 21
1.567184926626339
 31
0.0
  0
LINE
  5
CA
330
1F
100
AcDbEntity
  8
0-2_扉
  6
Continuous
 62
    92
370
    13
100
AcDbLine
 10
-2624.336102010666
 20
-178.4328150733737
 30
0.0
 11
-2624.336102010666
 21
1.567184926626339
 31
0.0
  0
LINE
  5
CB
330
1F
100
AcDbEntity
  8
0-2_扉
  6
Continuous
 62
    92
370
    13
100
AcDbLine
 10
-2624.336102010666
 20
-1012.432815073374
 30
0.0
 11
-2624.336102010666
 21
-182.932815073373
 31
0.0
  0
LINE
  5
CC
330
1F
100
AcDbEntity
  8
0-2_扉
  6
Continuous
 62
    92
370
    13
100
AcDbLine
 10
-1370.336681373337
 20
-182.932815073373
 30
0.0
 11
-1370.336681373337
 21
-1012.432815073374
 31
0.0
  0
LINE
  5
CD
330
1F
100
AcDbEntity
  8
0-1_本体
  6
Continuous
 62
     7
370
     9
100
AcDbLine
 10
-2604.086102010667
 20
-1162.433493146858
 30
0.0
 11
-2604.086102010667
 21
-1012.433493146858
 31
0.0
  0
LINE
  5
CE
330
1F
100
AcDbEntity
  8
0-1_本体
  6
Continuous
 62
     7
370
     9
100
AcDbLine
 10
-1390.586102010668
 20
-1162.433493146858
 30
0.0
 11
-1390.586102010668
 21
-1012.433493146858
 31
0.0
  0
LINE
  5
CF
330
1F
100
AcDbEntity
  8
0-B_寸法
  6
Continuous
 62
   120
370
     5
100
AcDbLine
 10
-2627.336102010667
 20
-1387.433493146858
 30
0.0
 11
-2604.086102010667
 21
-1387.433493146858
 31
0.0
  0
LWPOLYLINE
  5
D0
330
1F
100
AcDbEntity
  8
0-B_寸法
  6
Continuous
 62
     7
370
     9
100
AcDbPolyline
 90
        4
 70
     1
 43
3.0
 10
-2602.586102010667
 20
-1387.433493146858
 42
0.4142135623731
 10
-2604.086102010667
 20
-1385.933493146858
 42
0.4142135623731
 10
-2605.586102010667
 20
-1387.433493146858
 42
0.4142135623731
 10
-2604.086102010667
 20
-1388.933493146858
 42
0.4142135623731
  0
LINE
  5
D1
330
1F
100
AcDbEntity
  8
0-B_寸法
  6
Continuous
 62
   120
370
     5
100
AcDbLine
 10
-2604.086102010667
 20
-1387.433493146858
 30
0.0
 11
-2604.086102010667
 21
-1237.433493146858
 31
0.0
  0
LINE
  5
D2
330
1F
100
AcDbEntity
  8
0-B_寸法
  6
Continuous
 62
   120
370
     5
100
AcDbLine
 10
-2604.086102010667
 20
-1387.433493146858
 30
0.0
 11
-1390.586102010668
 21
-1387.433493146858
 31
0.0
  0
LWPOLYLINE
  5
D3
330
1F
100
AcDbEntity
  8
0-B_寸法
  6
Continuous
 62
     7
370
     9
100
AcDbPolyline
 90
        4
 70
     1
 43
3.0
 10
-1389.086102010668
 20
-1387.433493146858
 42
0.4142135623731
 10
-1390.586102010668
 20
-1385.933493146858
 42
0.4142135623731
 10
-1392.086102010667
 20
-1387.433493146858
 42
0.4142135623731
 10
-1390.586102010668
 20
-1388.933493146858
 42
0.4142135623731
  0
LINE
  5
D4
330
1F
100
AcDbEntity
  8
0-B_寸法
  6
Continuous
 62
   120
370
     5
100
AcDbLine
 10
-1390.586102010668
 20
-1387.433493146858
 30
0.0
 11
-1390.586102010668
 21
-1237.433493146858
 31
0.0
  0
TEXT
  5
D5
330
1F
100
AcDbEntity
  8
0-B_寸法
  6
Continuous
 62
     7
370
   211
100
AcDbText
 10
-2072.336102010653
 20
-1359.743493146858
 30
0.0
 40
68.58
  1
809
 41
1.111111111110903
  7
ＭＳ ゴシック
100
AcDbText
  0
LINE
  5
D6
330
1F
100
AcDbEntity
  8
0-B_寸法
  6
Continuous
 62
   120
370
     5
100
AcDbLine
 10
-1390.586102010668
 20
-1387.433493146858
 30
0.0
 11
-1367.33608080154
 21
-1387.433493146858
 31
0.0
  0
LWPOLYLINE
  5
D7
330
1F
100
AcDbEntity
  8
0-B_寸法
  6
Continuous
 62
     7
370
     9
100
AcDbPolyline
 90
        4
 70
     1
 43
3.0
 10
-1365.83608080154
 20
-1387.433493146858
 42
0.4142135623731
 10
-1367.33608080154
 20
-1385.933493146858
 42
0.4142135623731
 10
-1368.83608080154
 20
-1387.433493146858
 42
0.4142135623731
 10
-1367.33608080154
 20
-1388.933493146858
 42
0.4142135623731
  0
LINE
  5
D8
330
1F
100
AcDbEntity
  8
0-B_寸法
  6
Continuous
 62
   120
370
     5
100
AcDbLine
 10
-1367.33608080154
 20
-1537.433493146858
 30
0.0
 11
-1367.33608080154
 21
-1237.433493146858
 31
0.0
  0
LINE
  5
D9
330
1F
100
AcDbEntity
  8
0-B_寸法
  6
Continuous
 62
   120
370
     5
100
AcDbLine
 10
-2627.336102010667
 20
-1537.433493146858
 30
0.0
 11
-1367.33608080154
 21
-1537.433493146858
 31
0.0
  0
LWPOLYLINE
  5
DA
330
1F
100
AcDbEntity
  8
0-B_寸法
  6
Continuous
 62
     7
370
     9
100
AcDbPolyline
 90
        4
 70
     1
 43
3.0
 10
-1365.83608080154
 20
-1537.433493146858
 42
0.4142135623731
 10
-1367.33608080154
 20
-1535.933493146858
 42
0.4142135623731
 10
-1368.83608080154
 20
-1537.433493146858
 42
0.4142135623731
 10
-1367.33608080154
 20
-1538.933493146858
 42
0.4142135623731
  0
TEXT
  5
DB
330
1F
100
AcDbEntity
  8
0-B_寸法
  6
Continuous
 62
     7
370
   211
100
AcDbText
 10
-2072.336091406089
 20
-1509.743493146858
 30
0.0
 40
68.58
  1
840
 41
1.111111111110903
  7
ＭＳ ゴシック
100
AcDbText
  0
TEXT
  5
DC
330
1F
100
AcDbEntity
  8
0-B_寸法
  6
Continuous
 62
     7
370
   211
100
AcDbText
 10
-2845.396184188155
 20
-1359.743493146858
 30
0.0
 40
68.58
  1
15.5
 41
1.125
  7
ＭＳ ゴシック
100
AcDbText
  0
LINE
  5
DD
330
1F
100
AcDbEntity
  8
0-B_寸法
  6
Continuous
 62
   120
370
     5
100
AcDbLine
 10
-5147.336144428922
 20
285.0665068531421
 30
0.0
 11
-5144.336144428921
 21
285.0665068531421
 31
0.0
  0
LWPOLYLINE
  5
DE
330
1F
100
AcDbEntity
  8
0-B_寸法
  6
Continuous
 62
     7
370
     9
100
AcDbPolyline
 90
        4
 70
     1
 43
3.0
 10
-5145.836144428921
 20
285.0665068531421
 42
0.4142135623731
 10
-5147.336144428922
 20
286.5665068531421
 42
0.4142135623731
 10
-5148.836144428922
 20
285.0665068531421
 42
0.4142135623731
 10
-5147.336144428922
 20
283.5665068531421
 42
0.4142135623731
  0
LWPOLYLINE
  5
DF
330
1F
100
AcDbEntity
  8
0-B_寸法
  6
Continuous
 62
     7
370
     9
100
AcDbPolyline
 90
        4
 70
     1
 43
3.0
 10
-5142.836144428921
 20
285.0665068531421
 42
0.4142135623731
 10
-5144.336144428921
 20
286.5665068531421
 42
0.4142135623731
 10
-5145.836144428921
 20
285.0665068531421
 42
0.4142135623731
 10
-5144.336144428921
 20
283.5665068531421
 42
0.4142135623731
  0
LINE
  5
E0
330
1F
100
AcDbEntity
  8
0-B_寸法
  6
Continuous
 62
   120
370
     5
100
AcDbLine
 10
-5147.336144428922
 20
285.0665068531421
 30
0.0
 11
-5147.336144428922
 21
135.0665068531421
 31
0.0
  0
LINE
  5
E1
330
1F
100
AcDbEntity
  8
0-B_寸法
  6
Continuous
 62
   120
370
     5
100
AcDbLine
 10
-5144.336144428921
 20
285.0665068531421
 30
0.0
 11
-5144.336144428921
 21
135.0665068531421
 31
0.0
  0
LINE
  5
E2
330
1F
100
AcDbEntity
  8
0-B_寸法
  6
Continuous
 62
   120
370
     5
100
AcDbLine
 10
-5144.336144428921
 20
285.0665068531421
 30
0.0
 11
-4520.336144428922
 21
285.0665068531421
 31
0.0
  0
LWPOLYLINE
  5
E3
330
1F
100
AcDbEntity
  8
0-B_寸法
  6
Continuous
 62
     7
370
     9
100
AcDbPolyline
 90
        4
 70
     1
 43
3.0
 10
-4518.836144428922
 20
285.0665068531421
 42
0.4142135623731
 10
-4520.336144428922
 20
286.5665068531421
 42
0.4142135623731
 10
-4521.836144428923
 20
285.0665068531421
 42
0.4142135623731
 10
-4520.336144428922
 20
283.5665068531421
 42
0.4142135623731
  0
LINE
  5
E4
330
1F
100
AcDbEntity
  8
0-B_寸法
  6
Continuous
 62
   120
370
     5
100
AcDbLine
 10
-4520.336144428922
 20
285.0665068531421
 30
0.0
 11
-4520.336144428922
 21
135.0665068531421
 31
0.0
  0
LINE
  5
E5
330
1F
100
AcDbEntity
  8
0-B_寸法
  6
Continuous
 62
   120
370
     5
100
AcDbLine
 10
-4520.336144428922
 20
285.0665068531421
 30
0.0
 11
-4514.336434110257
 21
285.0665068531421
 31
0.0
  0
LWPOLYLINE
  5
E6
330
1F
100
AcDbEntity
  8
0-B_寸法
  6
Continuous
 62
     7
370
     9
100
AcDbPolyline
 90
        4
 70
     1
 43
3.0
 10
-4512.836434110257
 20
285.0665068531421
 42
0.4142135623731
 10
-4514.336434110257
 20
286.5665068531421
 42
0.4142135623731
 10
-4515.836434110258
 20
285.0665068531421
 42
0.4142135623731
 10
-4514.336434110257
 20
283.5665068531421
 42
0.4142135623731
  0
LINE
  5
E7
330
1F
100
AcDbEntity
  8
0-B_寸法
  6
Continuous
 62
   120
370
     5
100
AcDbLine
 10
-4514.336434110257
 20
285.0665068531421
 30
0.0
 11
-4514.336434110257
 21
135.0665068531421
 31
0.0
  0
TEXT
  5
E8
330
1F
100
AcDbEntity
  8
0-B_寸法
  6
Continuous
 62
     7
370
   211
100
AcDbText
 10
-4539.83628926959
 20
312.7565068531421
 30
0.0
 40
68.58
  1
4
  7
ＭＳ ゴシック
100
AcDbText
  0
LINE
  5
E9
330
1F
100
AcDbEntity
  8
0-B_寸法
  6
Continuous
 62
   120
370
     5
100
AcDbLine
 10
-4514.336434110257
 20
285.0665068531421
 30
0.0
 11
-3890.336434110257
 21
285.0665068531421
 31
0.0
  0
LWPOLYLINE
  5
EA
330
1F
100
AcDbEntity
  8
0-B_寸法
  6
Continuous
 62
     7
370
     9
100
AcDbPolyline
 90
        4
 70
     1
 43
3.0
 10
-3888.836434110257
 20
285.0665068531421
 42
0.4142135623731
 10
-3890.336434110257
 20
286.5665068531421
 42
0.4142135623731
 10
-3891.836434110257
 20
285.0665068531421
 42
0.4142135623731
 10
-3890.336434110257
 20
283.5665068531421
 42
0.4142135623731
  0
LINE
  5
EB
330
1F
100
AcDbEntity
  8
0-B_寸法
  6
Continuous
 62
   120
370
     5
100
AcDbLine
 10
-3890.336434110257
 20
285.0665068531421
 30
0.0
 11
-3890.336434110257
 21
135.0665068531421
 31
0.0
  0
LINE
  5
EC
330
1F
100
AcDbEntity
  8
0-B_寸法
  6
Continuous
 62
   120
370
     5
100
AcDbLine
 10
-3890.336434110257
 20
285.0665068531421
 30
0.0
 11
-3887.336123219796
 21
285.0665068531421
 31
0.0
  0
LWPOLYLINE
  5
ED
330
1F
100
AcDbEntity
  8
0-B_寸法
  6
Continuous
 62
     7
370
     9
100
AcDbPolyline
 90
        4
 70
     1
 43
3.0
 10
-3885.836123219796
 20
285.0665068531421
 42
0.4142135623731
 10
-3887.336123219796
 20
286.5665068531421
 42
0.4142135623731
 10
-3888.836123219796
 20
285.0665068531421
 42
0.4142135623731
 10
-3887.336123219796
 20
283.5665068531421
 42
0.4142135623731
  0
LINE
  5
EE
330
1F
100
AcDbEntity
  8
0-B_寸法
  6
Continuous
 62
   120
370
     5
100
AcDbLine
 10
-3887.336123219796
 20
285.0665068531421
 30
0.0
 11
-3887.336123219796
 21
135.0665068531421
 31
0.0
  0
TEXT
  5
EF
330
1F
100
AcDbEntity
  8
0-B_寸法
  6
Continuous
 62
     7
370
   211
100
AcDbText
 10
-5064.836144428922
 20
312.7565068531421
 30
0.0
 40
68.58
  1
ＤＷ＝416
 41
1.148148148148148
  7
ＭＳ ゴシック
100
AcDbText
  0
TEXT
  5
F0
330
1F
100
AcDbEntity
  8
0-B_寸法
  6
Continuous
 62
     7
370
   211
100
AcDbText
 10
-4434.836434110255
 20
312.7565068531421
 30
0.0
 40
68.58
  1
ＤＷ＝416
 41
1.148148148148148
  7
ＭＳ ゴシック
100
AcDbText
  0
LINE
  5
F1
330
1F
100
AcDbEntity
  8
0-B_寸法
  6
Continuous
 62
   120
370
     5
100
AcDbLine
 10
-3887.336123219796
 20
285.0665068531421
 30
0.0
 11
-3884.336123219794
 21
285.0665068531421
 31
0.0
  0
LWPOLYLINE
  5
F2
330
1F
100
AcDbEntity
  8
0-B_寸法
  6
Continuous
 62
     7
370
     9
100
AcDbPolyline
 90
        4
 70
     1
 43
3.0
 10
-3882.836123219793
 20
285.0665068531421
 42
0.4142135623731
 10
-3884.336123219794
 20
286.5665068531421
 42
0.4142135623731
 10
-3885.836123219794
 20
285.0665068531421
 42
0.4142135623731
 10
-3884.336123219794
 20
283.5665068531421
 42
0.4142135623731
  0
LINE
  5
F3
330
1F
100
AcDbEntity
  8
0-B_寸法
  6
Continuous
 62
   120
370
     5
100
AcDbLine
 10
-3884.336123219794
 20
285.0665068531421
 30
0.0
 11
-3884.336123219794
 21
135.0665068531421
 31
0.0
  0
LINE
  5
F4
330
1F
100
AcDbEntity
  8
0-B_寸法
  6
Continuous
 62
   120
370
     5
100
AcDbLine
 10
-3884.336123219794
 20
285.0665068531421
 30
0.0
 11
-3260.336123219795
 21
285.0665068531421
 31
0.0
  0
LWPOLYLINE
  5
F5
330
1F
100
AcDbEntity
  8
0-B_寸法
  6
Continuous
 62
     7
370
     9
100
AcDbPolyline
 90
        4
 70
     1
 43
3.0
 10
-3258.836123219795
 20
285.0665068531421
 42
0.4142135623731
 10
-3260.336123219795
 20
286.5665068531421
 42
0.4142135623731
 10
-3261.836123219795
 20
285.0665068531421
 42
0.4142135623731
 10
-3260.336123219795
 20
283.5665068531421
 42
0.4142135623731
  0
LINE
  5
F6
330
1F
100
AcDbEntity
  8
0-B_寸法
  6
Continuous
 62
   120
370
     5
100
AcDbLine
 10
-3260.336123219795
 20
285.0665068531421
 30
0.0
 11
-3260.336123219795
 21
135.0665068531421
 31
0.0
  0
LINE
  5
F7
330
1F
100
AcDbEntity
  8
0-B_寸法
  6
Continuous
 62
   120
370
     5
100
AcDbLine
 10
-3260.336123219795
 20
285.0665068531421
 30
0.0
 11
-3254.33641290113
 21
285.0665068531421
 31
0.0
  0
LWPOLYLINE
  5
F8
330
1F
100
AcDbEntity
  8
0-B_寸法
  6
Continuous
 62
     7
370
     9
100
AcDbPolyline
 90
        4
 70
     1
 43
3.0
 10
-3252.83641290113
 20
285.0665068531421
 42
0.4142135623731
 10
-3254.33641290113
 20
286.5665068531421
 42
0.4142135623731
 10
-3255.83641290113
 20
285.0665068531421
 42
0.4142135623731
 10
-3254.33641290113
 20
283.5665068531421
 42
0.4142135623731
  0
LINE
  5
F9
330
1F
100
AcDbEntity
  8
0-B_寸法
  6
Continuous
 62
   120
370
     5
100
AcDbLine
 10
-3254.33641290113
 20
285.0665068531421
 30
0.0
 11
-3254.33641290113
 21
135.0665068531421
 31
0.0
  0
TEXT
  5
FA
330
1F
100
AcDbEntity
  8
0-B_寸法
  6
Continuous
 62
     7
370
   211
100
AcDbText
 10
-3279.836268060462
 20
312.7565068531421
 30
0.0
 40
68.58
  1
4
  7
ＭＳ ゴシック
100
AcDbText
  0
LINE
  5
FB
330
1F
100
AcDbEntity
  8
0-B_寸法
  6
Continuous
 62
   120
370
     5
100
AcDbLine
 10
-3254.33641290113
 20
285.0665068531421
 30
0.0
 11
-2630.336412901128
 21
285.0665068531421
 31
0.0
  0
LWPOLYLINE
  5
FC
330
1F
100
AcDbEntity
  8
0-B_寸法
  6
Continuous
 62
     7
370
     9
100
AcDbPolyline
 90
        4
 70
     1
 43
3.0
 10
-2628.836412901128
 20
285.0665068531421
 42
0.4142135623731
 10
-2630.336412901128
 20
286.5665068531421
 42
0.4142135623731
 10
-2631.836412901127
 20
285.0665068531421
 42
0.4142135623731
 10
-2630.336412901128
 20
283.5665068531421
 42
0.4142135623731
  0
LINE
  5
FD
330
1F
100
AcDbEntity
  8
0-B_寸法
  6
Continuous
 62
   120
370
     5
100
AcDbLine
 10
-2630.336412901128
 20
285.0665068531421
 30
0.0
 11
-2630.336412901128
 21
135.0665068531421
 31
0.0
  0
LINE
  5
FE
330
1F
100
AcDbEntity
  8
0-B_寸法
  6
Continuous
 62
   120
370
     5
100
AcDbLine
 10
-2630.336412901128
 20
285.0665068531421
 30
0.0
 11
-2627.336102010667
 21
285.0665068531421
 31
0.0
  0
LWPOLYLINE
  5
FF
330
1F
100
AcDbEntity
  8
0-B_寸法
  6
Continuous
 62
     7
370
     9
100
AcDbPolyline
 90
        4
 70
     1
 43
3.0
 10
-2625.836102010667
 20
285.0665068531421
 42
0.4142135623731
 10
-2627.336102010667
 20
286.5665068531421
 42
0.4142135623731
 10
-2628.836102010666
 20
285.0665068531421
 42
0.4142135623731
 10
-2627.336102010667
 20
283.5665068531421
 42
0.4142135623731
  0
LINE
  5
100
330
1F
100
AcDbEntity
  8
0-B_寸法
  6
Continuous
 62
   120
370
     5
100
AcDbLine
 10
-2627.336102010667
 20
285.0665068531421
 30
0.0
 11
-2627.336102010667
 21
135.0665068531421
 31
0.0
  0
TEXT
  5
101
330
1F
100
AcDbEntity
  8
0-B_寸法
  6
Continuous
 62
     7
370
   211
100
AcDbText
 10
-3804.836123219796
 20
312.7565068531421
 30
0.0
 40
68.58
  1
ＤＷ＝416
 41
1.148148148148148
  7
ＭＳ ゴシック
100
AcDbText
  0
TEXT
  5
102
330
1F
100
AcDbEntity
  8
0-B_寸法
  6
Continuous
 62
     7
370
   211
100
AcDbText
 10
-3174.836412901127
 20
312.7565068531421
 30
0.0
 40
68.58
  1
ＤＷ＝416
 41
1.148148148148148
  7
ＭＳ ゴシック
100
AcDbText
  0
LINE
  5
103
330
1F
100
AcDbEntity
  8
0-B_寸法
  6
Continuous
 62
   120
370
     5
100
AcDbLine
 10
-2627.336102010667
 20
285.0665068531421
 30
0.0
 11
-2624.336102010666
 21
285.0665068531421
 31
0.0
  0
LWPOLYLINE
  5
104
330
1F
100
AcDbEntity
  8
0-B_寸法
  6
Continuous
 62
     7
370
     9
100
AcDbPolyline
 90
        4
 70
     1
 43
3.0
 10
-2622.836102010666
 20
285.0665068531421
 42
0.4142135623731
 10
-2624.336102010666
 20
286.5665068531421
 42
0.4142135623731
 10
-2625.836102010666
 20
285.0665068531421
 42
0.4142135623731
 10
-2624.336102010666
 20
283.5665068531421
 42
0.4142135623731
  0
LINE
  5
105
330
1F
100
AcDbEntity
  8
0-B_寸法
  6
Continuous
 62
   120
370
     5
100
AcDbLine
 10
-2624.336102010666
 20
285.0665068531421
 30
0.0
 11
-2624.336102010666
 21
135.0665068531421
 31
0.0
  0
LINE
  5
106
330
1F
100
AcDbEntity
  8
0-B_寸法
  6
Continuous
 62
   120
370
     5
100
AcDbLine
 10
-2624.336102010666
 20
285.0665068531421
 30
0.0
 11
-2000.336102010667
 21
285.0665068531421
 31
0.0
  0
LWPOLYLINE
  5
107
330
1F
100
AcDbEntity
  8
0-B_寸法
  6
Continuous
 62
     7
370
     9
100
AcDbPolyline
 90
        4
 70
     1
 43
3.0
 10
-1998.836102010667
 20
285.0665068531421
 42
0.4142135623731
 10
-2000.336102010667
 20
286.5665068531421
 42
0.4142135623731
 10
-2001.836102010667
 20
285.0665068531421
 42
0.4142135623731
 10
-2000.336102010667
 20
283.5665068531421
 42
0.4142135623731
  0
LINE
  5
108
330
1F
100
AcDbEntity
  8
0-B_寸法
  6
Continuous
 62
   120
370
     5
100
AcDbLine
 10
-2000.336102010667
 20
285.0665068531421
 30
0.0
 11
-2000.336102010667
 21
135.0665068531421
 31
0.0
  0
LINE
  5
109
330
1F
100
AcDbEntity
  8
0-B_寸法
  6
Continuous
 62
   120
370
     5
100
AcDbLine
 10
-2000.336102010667
 20
285.0665068531421
 30
0.0
 11
-1994.336391692002
 21
285.0665068531421
 31
0.0
  0
LWPOLYLINE
  5
10A
330
1F
100
AcDbEntity
  8
0-B_寸法
  6
Continuous
 62
     7
370
     9
100
AcDbPolyline
 90
        4
 70
     1
 43
3.0
 10
-1992.836391692002
 20
285.0665068531421
 42
0.4142135623731
 10
-1994.336391692002
 20
286.5665068531421
 42
0.4142135623731
 10
-1995.836391692002
 20
285.0665068531421
 42
0.4142135623731
 10
-1994.336391692002
 20
283.5665068531421
 42
0.4142135623731
  0
LINE
  5
10B
330
1F
100
AcDbEntity
  8
0-B_寸法
  6
Continuous
 62
   120
370
     5
100
AcDbLine
 10
-1994.336391692002
 20
285.0665068531421
 30
0.0
 11
-1994.336391692002
 21
135.0665068531421
 31
0.0
  0
TEXT
  5
10C
330
1F
100
AcDbEntity
  8
0-B_寸法
  6
Continuous
 62
     7
370
   211
100
AcDbText
 10
-2019.836246851321
 20
312.7565068531421
 30
0.0
 40
68.58
  1
4
 41
0.9999999999993747
  7
ＭＳ ゴシック
100
AcDbText
  0
LINE
  5
10D
330
1F
100
AcDbEntity
  8
0-B_寸法
  6
Continuous
 62
   120
370
     5
100
AcDbLine
 10
-1994.336391692002
 20
285.0665068531421
 30
0.0
 11
-1370.336391692001
 21
285.0665068531421
 31
0.0
  0
LWPOLYLINE
  5
10E
330
1F
100
AcDbEntity
  8
0-B_寸法
  6
Continuous
 62
     7
370
     9
100
AcDbPolyline
 90
        4
 70
     1
 43
3.0
 10
-1368.836391692001
 20
285.0665068531421
 42
0.4142135623731
 10
-1370.336391692001
 20
286.5665068531421
 42
0.4142135623731
 10
-1371.836391692001
 20
285.0665068531421
 42
0.4142135623731
 10
-1370.336391692001
 20
283.5665068531421
 42
0.4142135623731
  0
LINE
  5
10F
330
1F
100
AcDbEntity
  8
0-B_寸法
  6
Continuous
 62
   120
370
     5
100
AcDbLine
 10
-1370.336391692001
 20
285.0665068531421
 30
0.0
 11
-1370.336391692001
 21
135.0665068531421
 31
0.0
  0
LINE
  5
110
330
1F
100
AcDbEntity
  8
0-B_寸法
  6
Continuous
 62
   120
370
     5
100
AcDbLine
 10
-1370.336391692001
 20
285.0665068531421
 30
0.0
 11
-1367.33608080154
 21
285.0665068531421
 31
0.0
  0
LWPOLYLINE
  5
111
330
1F
100
AcDbEntity
  8
0-B_寸法
  6
Continuous
 62
     7
370
     9
100
AcDbPolyline
 90
        4
 70
     1
 43
3.0
 10
-1365.83608080154
 20
285.0665068531421
 42
0.4142135623731
 10
-1367.33608080154
 20
286.5665068531421
 42
0.4142135623731
 10
-1368.83608080154
 20
285.0665068531421
 42
0.4142135623731
 10
-1367.33608080154
 20
283.5665068531421
 42
0.4142135623731
  0
LINE
  5
112
330
1F
100
AcDbEntity
  8
0-B_寸法
  6
Continuous
 62
   120
370
     5
100
AcDbLine
 10
-1367.33608080154
 20
435.066506853143
 30
0.0
 11
-1367.33608080154
 21
135.0665068531421
 31
0.0
  0
TEXT
  5
113
330
1F
100
AcDbEntity
  8
0-B_寸法
  6
Continuous
 62
     7
370
   211
100
AcDbText
 10
-2544.836102010667
 20
312.7565068531421
 30
0.0
 40
68.58
  1
ＤＷ＝416
 41
1.148148148148148
  7
ＭＳ ゴシック
100
AcDbText
  0
TEXT
  5
114
330
1F
100
AcDbEntity
  8
0-B_寸法
  6
Continuous
 62
     7
370
   211
100
AcDbText
 10
-1914.836391692001
 20
312.7565068531421
 30
0.0
 40
68.58
  1
ＤＷ＝416
 41
1.148148148148148
  7
ＭＳ ゴシック
100
AcDbText
  0
TEXT
  5
115
330
1F
100
AcDbEntity
  8
0-B_寸法
  6
Continuous
 62
     7
370
   211
100
AcDbText
 10
-3938.049024553279
 20
312.7565068531421
 30
0.0
 40
68.58
  1
2
  7
ＭＳ ゴシック
100
AcDbText
  0
TEXT
  5
116
330
1F
100
AcDbEntity
  8
0-B_寸法
  6
Continuous
 62
     7
370
   211
100
AcDbText
 10
-2678.049003344152
 20
312.7565068531421
 30
0.0
 40
68.58
  1
2
  7
ＭＳ ゴシック
100
AcDbText
  0
TEXT
  5
117
330
1F
100
AcDbEntity
  8
0-B_寸法
  6
Continuous
 62
     7
370
   211
100
AcDbText
 10
-3878.469178373351
 20
312.7565068531421
 30
0.0
 40
68.58
  1
2
  7
ＭＳ ゴシック
100
AcDbText
  0
TEXT
  5
118
330
1F
100
AcDbEntity
  8
0-B_寸法
  6
Continuous
 62
     7
370
   211
100
AcDbText
 10
-2618.469157164223
 20
312.7565068531421
 30
0.0
 40
68.58
  1
2
  7
ＭＳ ゴシック
100
AcDbText
  0
TEXT
  5
119
330
1F
100
AcDbEntity
  8
0-A_文字
  6
Continuous
 62
     7
370
     9
100
AcDbText
 10
-1322.33608080154
 20
-1134.743493146858
 30
0.0
 40
68.58
  1
▽ＦＬ
 41
1.111111111111111
  7
ＭＳ ゴシック
100
AcDbText
  0
TEXT
  5
11A
330
1F
100
AcDbEntity
  8
0-A_文字
  6
Continuous
 62
     7
370
     9
100
AcDbText
 10
-321.3273061084539
 20
-127.2621541101159
 30
0.0
 40
61.722
  1
引出
 41
1.000000000000017
  7
ＭＳ ゴシック
100
AcDbText
  0
LINE
  5
11B
330
1F
100
AcDbEntity
  8
0-B_寸法
  6
Continuous
 62
   120
370
     5
100
AcDbLine
 10
-556.0776377219997
 20
-1387.433493146858
 30
0.0
 11
-532.8276377219979
 21
-1387.433493146858
 31
0.0
  0
LWPOLYLINE
  5
11C
330
1F
100
AcDbEntity
  8
0-B_寸法
  6
Continuous
 62
     7
370
     9
100
AcDbPolyline
 90
        4
 70
     1
 43
3.0
 10
-554.5776377219997
 20
-1387.433493146858
 42
0.4142135623731
 10
-556.0776377219997
 20
-1385.933493146858
 42
0.4142135623731
 10
-557.5776377219997
 20
-1387.433493146858
 42
0.4142135623731
 10
-556.0776377219997
 20
-1388.933493146858
 42
0.4142135623731
  0
LWPOLYLINE
  5
11D
330
1F
100
AcDbEntity
  8
0-B_寸法
  6
Continuous
 62
     7
370
     9
100
AcDbPolyline
 90
        4
 70
     1
 43
3.0
 10
-531.3276377219978
 20
-1387.433493146858
 42
0.4142135623731
 10
-532.8276377219979
 20
-1385.933493146858
 42
0.4142135623731
 10
-534.3276377219979
 20
-1387.433493146858
 42
0.4142135623731
 10
-532.8276377219979
 20
-1388.933493146858
 42
0.4142135623731
  0
LINE
  5
11E
330
1F
100
AcDbEntity
  8
0-B_寸法
  6
Continuous
 62
   120
370
     5
100
AcDbLine
 10
-556.0776377219997
 20
-1537.433493146858
 30
0.0
 11
-556.0776377219997
 21
-1237.433493146858
 31
0.0
  0
LINE
  5
11F
330
1F
100
AcDbEntity
  8
0-B_寸法
  6
Continuous
 62
   120
370
     5
100
AcDbLine
 10
-532.8276377219979
 20
-1387.433493146858
 30
0.0
 11
-532.8276377219979
 21
-1237.433493146858
 31
0.0
  0
LINE
  5
120
330
1F
100
AcDbEntity
  8
0-B_寸法
  6
Continuous
 62
   120
370
     5
100
AcDbLine
 10
-532.8276377219979
 20
-1387.433493146858
 30
0.0
 11
680.672362278001
 21
-1387.433493146858
 31
0.0
  0
LWPOLYLINE
  5
121
330
1F
100
AcDbEntity
  8
0-B_寸法
  6
Continuous
 62
     7
370
     9
100
AcDbPolyline
 90
        4
 70
     1
 43
3.0
 10
682.172362278001
 20
-1387.433493146858
 42
0.4142135623731
 10
680.672362278001
 20
-1385.933493146858
 42
0.4142135623731
 10
679.172362278001
 20
-1387.433493146858
 42
0.4142135623731
 10
680.672362278001
 20
-1388.933493146858
 42
0.4142135623731
  0
LINE
  5
122
330
1F
100
AcDbEntity
  8
0-B_寸法
  6
Continuous
 62
   120
370
     5
100
AcDbLine
 10
680.672362278001
 20
-1387.433493146858
 30
0.0
 11
680.672362278001
 21
-1237.433493146858
 31
0.0
  0
TEXT
  5
123
330
1F
100
AcDbEntity
  8
0-B_寸法
  6
Continuous
 62
     7
370
   211
100
AcDbText
 10
-1.077637721999736
 20
-1359.743493146858
 30
0.0
 40
68.58
  1
809
 41
1.111111111111111
  7
ＭＳ ゴシック
100
AcDbText
  0
LINE
  5
124
330
1F
100
AcDbEntity
  8
0-B_寸法
  6
Continuous
 62
   120
370
     5
100
AcDbLine
 10
680.672362278001
 20
-1387.433493146858
 30
0.0
 11
703.922383487128
 21
-1387.433493146858
 31
0.0
  0
LWPOLYLINE
  5
125
330
1F
100
AcDbEntity
  8
0-B_寸法
  6
Continuous
 62
     7
370
     9
100
AcDbPolyline
 90
        4
 70
     1
 43
3.0
 10
705.422383487128
 20
-1387.433493146858
 42
0.4142135623731
 10
703.922383487128
 20
-1385.933493146858
 42
0.4142135623731
 10
702.422383487128
 20
-1387.433493146858
 42
0.4142135623731
 10
703.922383487128
 20
-1388.933493146858
 42
0.4142135623731
  0
LINE
  5
126
330
1F
100
AcDbEntity
  8
0-B_寸法
  6
Continuous
 62
   120
370
     5
100
AcDbLine
 10
703.922383487128
 20
-1537.433493146858
 30
0.0
 11
703.922383487128
 21
-1237.433493146858
 31
0.0
  0
LINE
  5
127
330
1F
100
AcDbEntity
  8
0-B_寸法
  6
Continuous
 62
   120
370
     5
100
AcDbLine
 10
-556.0776377219997
 20
-1537.433493146858
 30
0.0
 11
703.922383487128
 21
-1537.433493146858
 31
0.0
  0
LWPOLYLINE
  5
128
330
1F
100
AcDbEntity
  8
0-B_寸法
  6
Continuous
 62
     7
370
     9
100
AcDbPolyline
 90
        4
 70
     1
 43
3.0
 10
-554.5776377219997
 20
-1537.433493146858
 42
0.4142135623731
 10
-556.0776377219997
 20
-1535.933493146858
 42
0.4142135623731
 10
-557.5776377219997
 20
-1537.433493146858
 42
0.4142135623731
 10
-556.0776377219997
 20
-1538.933493146858
 42
0.4142135623731
  0
LWPOLYLINE
  5
129
330
1F
100
AcDbEntity
  8
0-B_寸法
  6
Continuous
 62
     7
370
     9
100
AcDbPolyline
 90
        4
 70
     1
 43
3.0
 10
705.422383487128
 20
-1537.433493146858
 42
0.4142135623731
 10
703.922383487128
 20
-1535.933493146858
 42
0.4142135623731
 10
702.422383487128
 20
-1537.433493146858
 42
0.4142135623731
 10
703.922383487128
 20
-1538.933493146858
 42
0.4142135623731
  0
TEXT
  5
12A
330
1F
100
AcDbEntity
  8
0-B_寸法
  6
Continuous
 62
     7
370
   211
100
AcDbText
 10
-1.077627117435895
 20
-1509.743493146858
 30
0.0
 40
68.58
  1
840
 41
1.111111111111111
  7
ＭＳ ゴシック
100
AcDbText
  0
LINE
  5
12B
330
1F
100
AcDbEntity
  8
0-B_寸法
  6
Continuous
 62
   120
370
     5
100
AcDbLine
 10
592.5214763943598
 20
-422.1834931468579
 30
0.0
 11
592.5214763943598
 21
-444.6834931468579
 31
0.0
  0
LINE
  5
12C
330
1F
100
AcDbEntity
  8
0-B_寸法
  6
Continuous
 62
   120
370
     5
100
AcDbLine
 10
592.5214763943598
 20
-422.1834931468579
 30
0.0
 11
442.5214763943598
 21
-422.1834931468579
 31
0.0
  0
LINE
  5
12D
330
1F
100
AcDbEntity
  8
0-B_寸法
  6
Continuous
 62
   120
370
     5
100
AcDbLine
 10
592.5214763943598
 20
-444.6834931468579
 30
0.0
 11
442.5214763943598
 21
-444.6834931468579
 31
0.0
  0
LWPOLYLINE
  5
12E
330
1F
100
AcDbEntity
  8
0-B_寸法
  6
Continuous
 62
     7
370
     9
100
AcDbPolyline
 90
        4
 70
     1
 43
3.0
 10
594.0214763943598
 20
-422.1834931468579
 42
0.4142135623731
 10
592.5214763943598
 20
-420.6834931468579
 42
0.4142135623731
 10
591.0214763943598
 20
-422.1834931468579
 42
0.4142135623731
 10
592.5214763943598
 20
-423.683493146858
 42
0.4142135623731
  0
LWPOLYLINE
  5
12F
330
1F
100
AcDbEntity
  8
0-B_寸法
  6
Continuous
 62
     7
370
     9
100
AcDbPolyline
 90
        4
 70
     1
 43
3.0
 10
594.0214763943598
 20
-444.6834931468579
 42
0.4142135623731
 10
592.5214763943598
 20
-443.1834931468579
 42
0.4142135623731
 10
591.0214763943598
 20
-444.6834931468579
 42
0.4142135623731
 10
592.5214763943598
 20
-446.183493146858
 42
0.4142135623731
  0
TEXT
  5
130
330
1F
100
AcDbEntity
  8
0-B_寸法
  6
Continuous
 62
     7
370
   211
100
AcDbText
 10
564.8314763943597
 20
-482.1834931468579
 30
0.0
 40
68.58
  1
15
 50
90.0
 41
1.083333333333333
  7
ＭＳ ゴシック
100
AcDbText
  0
LINE
  5
131
330
1F
100
AcDbEntity
  8
0-B_寸法
  6
Continuous
 62
   120
370
     5
100
AcDbLine
 10
592.5214763943598
 20
-692.1834931468584
 30
0.0
 11
592.5214763943598
 21
-714.6834931468584
 31
0.0
  0
LWPOLYLINE
  5
132
330
1F
100
AcDbEntity
  8
0-B_寸法
  6
Continuous
 62
     7
370
     9
100
AcDbPolyline
 90
        4
 70
     1
 43
3.0
 10
594.0214763943598
 20
-692.1834931468584
 42
0.4142135623731
 10
592.5214763943598
 20
-690.6834931468584
 42
0.4142135623731
 10
591.0214763943598
 20
-692.1834931468584
 42
0.4142135623731
 10
592.5214763943598
 20
-693.6834931468584
 42
0.4142135623731
  0
LWPOLYLINE
  5
133
330
1F
100
AcDbEntity
  8
0-B_寸法
  6
Continuous
 62
     7
370
     9
100
AcDbPolyline
 90
        4
 70
     1
 43
3.0
 10
594.0214763943598
 20
-714.6834931468584
 42
0.4142135623731
 10
592.5214763943598
 20
-713.1834931468584
 42
0.4142135623731
 10
591.0214763943598
 20
-714.6834931468584
 42
0.4142135623731
 10
592.5214763943598
 20
-716.1834931468584
 42
0.4142135623731
  0
LINE
  5
134
330
1F
100
AcDbEntity
  8
0-B_寸法
  6
Continuous
 62
   120
370
     5
100
AcDbLine
 10
592.5214763943598
 20
-692.1834931468584
 30
0.0
 11
442.5214763943598
 21
-692.1834931468584
 31
0.0
  0
LINE
  5
135
330
1F
100
AcDbEntity
  8
0-B_寸法
  6
Continuous
 62
   120
370
     5
100
AcDbLine
 10
592.5214763943598
 20
-714.6834931468584
 30
0.0
 11
442.5214763943598
 21
-714.6834931468584
 31
0.0
  0
TEXT
  5
136
330
1F
100
AcDbEntity
  8
0-B_寸法
  6
Continuous
 62
     7
370
   211
100
AcDbText
 10
564.8314763943597
 20
-752.1834931468584
 30
0.0
 40
68.58
  1
15
 50
90.0
 41
1.083333333333333
  7
ＭＳ ゴシック
100
AcDbText
  0
TEXT
  5
137
330
1F
100
AcDbEntity
  8
0-A_文字
  6
Continuous
 62
     7
370
     9
100
AcDbText
 10
-59.33331922476782
 20
-465.9232437567379
 30
0.0
 40
68.58
  1
可動棚
  7
ＭＳ ゴシック
100
AcDbText
  0
TEXT
  5
138
330
1F
100
AcDbEntity
  8
0-A_文字
  6
Continuous
 62
     7
370
     9
100
AcDbText
 10
-59.33331922476782
 20
-735.9232437567379
 30
0.0
 40
68.58
  1
可動棚
  7
ＭＳ ゴシック
100
AcDbText
  0
LINE
  5
139
330
1F
100
AcDbEntity
  8
0-B_寸法
  6
Continuous
 62
   120
370
     5
100
AcDbLine
 10
703.922383487128
 20
-1387.433493146858
 30
0.0
 11
727.1723834871298
 21
-1387.433493146858
 31
0.0
  0
LWPOLYLINE
  5
13A
330
1F
100
AcDbEntity
  8
0-B_寸法
  6
Continuous
 62
     7
370
     9
100
AcDbPolyline
 90
        4
 70
     1
 43
3.0
 10
728.6723834871299
 20
-1387.433493146858
 42
0.4142135623731
 10
727.1723834871298
 20
-1385.933493146858
 42
0.4142135623731
 10
725.6723834871298
 20
-1387.433493146858
 42
0.4142135623731
 10
727.1723834871298
 20
-1388.933493146858
 42
0.4142135623731
  0
LINE
  5
13B
330
1F
100
AcDbEntity
  8
0-B_寸法
  6
Continuous
 62
   120
370
     5
100
AcDbLine
 10
727.1723834871298
 20
-1387.433493146858
 30
0.0
 11
727.1723834871298
 21
-1237.433493146858
 31
0.0
  0
LINE
  5
13C
330
1F
100
AcDbEntity
  8
0-B_寸法
  6
Continuous
 62
   120
370
     5
100
AcDbLine
 10
727.1723834871298
 20
-1387.433493146858
 30
0.0
 11
1940.672383487129
 21
-1387.433493146858
 31
0.0
  0
LWPOLYLINE
  5
13D
330
1F
100
AcDbEntity
  8
0-B_寸法
  6
Continuous
 62
     7
370
     9
100
AcDbPolyline
 90
        4
 70
     1
 43
3.0
 10
1942.172383487129
 20
-1387.433493146858
 42
0.4142135623731
 10
1940.672383487129
 20
-1385.933493146858
 42
0.4142135623731
 10
1939.172383487129
 20
-1387.433493146858
 42
0.4142135623731
 10
1940.672383487129
 20
-1388.933493146858
 42
0.4142135623731
  0
LINE
  5
13E
330
1F
100
AcDbEntity
  8
0-B_寸法
  6
Continuous
 62
   120
370
     5
100
AcDbLine
 10
1940.672383487129
 20
-1387.433493146858
 30
0.0
 11
1940.672383487129
 21
-1237.433493146858
 31
0.0
  0
TEXT
  5
13F
330
1F
100
AcDbEntity
  8
0-B_寸法
  6
Continuous
 62
     7
370
   211
100
AcDbText
 10
1258.922383487129
 20
-1359.743493146858
 30
0.0
 40
68.58
  1
809
 41
1.111111111111111
  7
ＭＳ ゴシック
100
AcDbText
  0
LINE
  5
140
330
1F
100
AcDbEntity
  8
0-B_寸法
  6
Continuous
 62
   120
370
     5
100
AcDbLine
 10
1940.672383487129
 20
-1387.433493146858
 30
0.0
 11
1963.922404696256
 21
-1387.433493146858
 31
0.0
  0
LWPOLYLINE
  5
141
330
1F
100
AcDbEntity
  8
0-B_寸法
  6
Continuous
 62
     7
370
     9
100
AcDbPolyline
 90
        4
 70
     1
 43
3.0
 10
1965.422404696256
 20
-1387.433493146858
 42
0.4142135623731
 10
1963.922404696256
 20
-1385.933493146858
 42
0.4142135623731
 10
1962.422404696256
 20
-1387.433493146858
 42
0.4142135623731
 10
1963.922404696256
 20
-1388.933493146858
 42
0.4142135623731
  0
LINE
  5
142
330
1F
100
AcDbEntity
  8
0-B_寸法
  6
Continuous
 62
   120
370
     5
100
AcDbLine
 10
1963.922404696256
 20
-1537.433493146858
 30
0.0
 11
1963.922404696256
 21
-1237.433493146858
 31
0.0
  0
LINE
  5
143
330
1F
100
AcDbEntity
  8
0-B_寸法
  6
Continuous
 62
   120
370
     5
100
AcDbLine
 10
703.922383487128
 20
-1537.433493146858
 30
0.0
 11
1963.922404696256
 21
-1537.433493146858
 31
0.0
  0
LWPOLYLINE
  5
144
330
1F
100
AcDbEntity
  8
0-B_寸法
  6
Continuous
 62
     7
370
     9
100
AcDbPolyline
 90
        4
 70
     1
 43
3.0
 10
1965.422404696256
 20
-1537.433493146858
 42
0.4142135623731
 10
1963.922404696256
 20
-1535.933493146858
 42
0.4142135623731
 10
1962.422404696256
 20
-1537.433493146858
 42
0.4142135623731
 10
1963.922404696256
 20
-1538.933493146858
 42
0.4142135623731
  0
TEXT
  5
145
330
1F
100
AcDbEntity
  8
0-B_寸法
  6
Continuous
 62
     7
370
   211
100
AcDbText
 10
1258.922394091693
 20
-1509.743493146858
 30
0.0
 40
68.58
  1
840
 41
1.111111111111111
  7
ＭＳ ゴシック
100
AcDbText
  0
LINE
  5
146
330
1F
100
AcDbEntity
  8
0-B_寸法
  6
Continuous
 62
   120
370
     5
100
AcDbLine
 10
1852.521497603488
 20
-422.1834931468579
 30
0.0
 11
1852.521497603488
 21
-444.6834931468579
 31
0.0
  0
LINE
  5
147
330
1F
100
AcDbEntity
  8
0-B_寸法
  6
Continuous
 62
   120
370
     5
100
AcDbLine
 10
1852.521497603488
 20
-422.1834931468579
 30
0.0
 11
1702.521497603488
 21
-422.1834931468579
 31
0.0
  0
LINE
  5
148
330
1F
100
AcDbEntity
  8
0-B_寸法
  6
Continuous
 62
   120
370
     5
100
AcDbLine
 10
1852.521497603488
 20
-444.6834931468579
 30
0.0
 11
1702.521497603488
 21
-444.6834931468579
 31
0.0
  0
LWPOLYLINE
  5
149
330
1F
100
AcDbEntity
  8
0-B_寸法
  6
Continuous
 62
     7
370
     9
100
AcDbPolyline
 90
        4
 70
     1
 43
3.0
 10
1854.021497603488
 20
-422.1834931468579
 42
0.4142135623731
 10
1852.521497603488
 20
-420.6834931468579
 42
0.4142135623731
 10
1851.021497603488
 20
-422.1834931468579
 42
0.4142135623731
 10
1852.521497603488
 20
-423.683493146858
 42
0.4142135623731
  0
LWPOLYLINE
  5
14A
330
1F
100
AcDbEntity
  8
0-B_寸法
  6
Continuous
 62
     7
370
     9
100
AcDbPolyline
 90
        4
 70
     1
 43
3.0
 10
1854.021497603488
 20
-444.6834931468579
 42
0.4142135623731
 10
1852.521497603488
 20
-443.1834931468579
 42
0.4142135623731
 10
1851.021497603488
 20
-444.6834931468579
 42
0.4142135623731
 10
1852.521497603488
 20
-446.183493146858
 42
0.4142135623731
  0
TEXT
  5
14B
330
1F
100
AcDbEntity
  8
0-B_寸法
  6
Continuous
 62
     7
370
   211
100
AcDbText
 10
1824.831497603488
 20
-482.1834931468579
 30
0.0
 40
68.58
  1
15
 50
90.0
 41
1.083333333333333
  7
ＭＳ ゴシック
100
AcDbText
  0
LINE
  5
14C
330
1F
100
AcDbEntity
  8
0-B_寸法
  6
Continuous
 62
   120
370
     5
100
AcDbLine
 10
1852.521497603488
 20
-692.1834931468584
 30
0.0
 11
1852.521497603488
 21
-714.6834931468584
 31
0.0
  0
LWPOLYLINE
  5
14D
330
1F
100
AcDbEntity
  8
0-B_寸法
  6
Continuous
 62
     7
370
     9
100
AcDbPolyline
 90
        4
 70
     1
 43
3.0
 10
1854.021497603488
 20
-692.1834931468584
 42
0.4142135623731
 10
1852.521497603488
 20
-690.6834931468584
 42
0.4142135623731
 10
1851.021497603488
 20
-692.1834931468584
 42
0.4142135623731
 10
1852.521497603488
 20
-693.6834931468584
 42
0.4142135623731
  0
LWPOLYLINE
  5
14E
330
1F
100
AcDbEntity
  8
0-B_寸法
  6
Continuous
 62
     7
370
     9
100
AcDbPolyline
 90
        4
 70
     1
 43
3.0
 10
1854.021497603488
 20
-714.6834931468584
 42
0.4142135623731
 10
1852.521497603488
 20
-713.1834931468584
 42
0.4142135623731
 10
1851.021497603488
 20
-714.6834931468584
 42
0.4142135623731
 10
1852.521497603488
 20
-716.1834931468584
 42
0.4142135623731
  0
LINE
  5
14F
330
1F
100
AcDbEntity
  8
0-B_寸法
  6
Continuous
 62
   120
370
     5
100
AcDbLine
 10
1852.521497603488
 20
-692.1834931468584
 30
0.0
 11
1702.521497603488
 21
-692.1834931468584
 31
0.0
  0
LINE
  5
150
330
1F
100
AcDbEntity
  8
0-B_寸法
  6
Continuous
 62
   120
370
     5
100
AcDbLine
 10
1852.521497603488
 20
-714.6834931468584
 30
0.0
 11
1702.521497603488
 21
-714.6834931468584
 31
0.0
  0
TEXT
  5
151
330
1F
100
AcDbEntity
  8
0-B_寸法
  6
Continuous
 62
     7
370
   211
100
AcDbText
 10
1824.831497603488
 20
-752.1834931468584
 30
0.0
 40
68.58
  1
15
 50
90.0
 41
1.083333333333333
  7
ＭＳ ゴシック
100
AcDbText
  0
TEXT
  5
152
330
1F
100
AcDbEntity
  8
0-A_文字
  6
Continuous
 62
     7
370
     9
100
AcDbText
 10
1200.66670198436
 20
-465.9232437567379
 30
0.0
 40
68.58
  1
可動棚
  7
ＭＳ ゴシック
100
AcDbText
  0
TEXT
  5
153
330
1F
100
AcDbEntity
  8
0-A_文字
  6
Continuous
 62
     7
370
     9
100
AcDbText
 10
1200.66670198436
 20
-735.9232437567379
 30
0.0
 40
68.58
  1
可動棚
  7
ＭＳ ゴシック
100
AcDbText
  0
LINE
  5
154
330
1F
100
AcDbEntity
  8
0-B_寸法
  6
Continuous
 62
   120
370
     5
100
AcDbLine
 10
1963.922404696256
 20
-1387.433493146858
 30
0.0
 11
1987.172404696257
 21
-1387.433493146858
 31
0.0
  0
LWPOLYLINE
  5
155
330
1F
100
AcDbEntity
  8
0-B_寸法
  6
Continuous
 62
     7
370
     9
100
AcDbPolyline
 90
        4
 70
     1
 43
3.0
 10
1988.672404696257
 20
-1387.433493146858
 42
0.4142135623731
 10
1987.172404696257
 20
-1385.933493146858
 42
0.4142135623731
 10
1985.672404696258
 20
-1387.433493146858
 42
0.4142135623731
 10
1987.172404696257
 20
-1388.933493146858
 42
0.4142135623731
  0
LINE
  5
156
330
1F
100
AcDbEntity
  8
0-B_寸法
  6
Continuous
 62
   120
370
     5
100
AcDbLine
 10
1987.172404696257
 20
-1387.433493146858
 30
0.0
 11
1987.172404696257
 21
-1237.433493146858
 31
0.0
  0
LINE
  5
157
330
1F
100
AcDbEntity
  8
0-B_寸法
  6
Continuous
 62
   120
370
     5
100
AcDbLine
 10
1987.172404696257
 20
-1387.433493146858
 30
0.0
 11
3200.672404696257
 21
-1387.433493146858
 31
0.0
  0
LWPOLYLINE
  5
158
330
1F
100
AcDbEntity
  8
0-B_寸法
  6
Continuous
 62
     7
370
     9
100
AcDbPolyline
 90
        4
 70
     1
 43
3.0
 10
3202.172404696257
 20
-1387.433493146858
 42
0.4142135623731
 10
3200.672404696257
 20
-1385.933493146858
 42
0.4142135623731
 10
3199.172404696257
 20
-1387.433493146858
 42
0.4142135623731
 10
3200.672404696257
 20
-1388.933493146858
 42
0.4142135623731
  0
LINE
  5
159
330
1F
100
AcDbEntity
  8
0-B_寸法
  6
Continuous
 62
   120
370
     5
100
AcDbLine
 10
3200.672404696257
 20
-1387.433493146858
 30
0.0
 11
3200.672404696257
 21
-1237.433493146858
 31
0.0
  0
TEXT
  5
15A
330
1F
100
AcDbEntity
  8
0-B_寸法
  6
Continuous
 62
     7
370
   211
100
AcDbText
 10
2518.922404696256
 20
-1359.743493146858
 30
0.0
 40
68.58
  1
809
 41
1.111111111111111
  7
ＭＳ ゴシック
100
AcDbText
  0
LINE
  5
15B
330
1F
100
AcDbEntity
  8
0-B_寸法
  6
Continuous
 62
   120
370
     5
100
AcDbLine
 10
3200.672404696257
 20
-1387.433493146858
 30
0.0
 11
3223.922425905384
 21
-1387.433493146858
 31
0.0
  0
LWPOLYLINE
  5
15C
330
1F
100
AcDbEntity
  8
0-B_寸法
  6
Continuous
 62
     7
370
     9
100
AcDbPolyline
 90
        4
 70
     1
 43
3.0
 10
3225.422425905384
 20
-1387.433493146858
 42
0.4142135623731
 10
3223.922425905384
 20
-1385.933493146858
 42
0.4142135623731
 10
3222.422425905384
 20
-1387.433493146858
 42
0.4142135623731
 10
3223.922425905384
 20
-1388.933493146858
 42
0.4142135623731
  0
LINE
  5
15D
330
1F
100
AcDbEntity
  8
0-B_寸法
  6
Continuous
 62
   120
370
     5
100
AcDbLine
 10
3223.922425905384
 20
-1537.433493146858
 30
0.0
 11
3223.922425905384
 21
-1237.433493146858
 31
0.0
  0
LINE
  5
15E
330
1F
100
AcDbEntity
  8
0-B_寸法
  6
Continuous
 62
   120
370
     5
100
AcDbLine
 10
1963.922404696256
 20
-1537.433493146858
 30
0.0
 11
3223.922425905384
 21
-1537.433493146858
 31
0.0
  0
LWPOLYLINE
  5
15F
330
1F
100
AcDbEntity
  8
0-B_寸法
  6
Continuous
 62
     7
370
     9
100
AcDbPolyline
 90
        4
 70
     1
 43
3.0
 10
3225.422425905384
 20
-1537.433493146858
 42
0.4142135623731
 10
3223.922425905384
 20
-1535.933493146858
 42
0.4142135623731
 10
3222.422425905384
 20
-1537.433493146858
 42
0.4142135623731
 10
3223.922425905384
 20
-1538.933493146858
 42
0.4142135623731
  0
TEXT
  5
160
330
1F
100
AcDbEntity
  8
0-B_寸法
  6
Continuous
 62
     7
370
   211
100
AcDbText
 10
2518.92241530082
 20
-1509.743493146858
 30
0.0
 40
68.58
  1
840
 41
1.111111111111111
  7
ＭＳ ゴシック
100
AcDbText
  0
LINE
  5
161
330
1F
100
AcDbEntity
  8
0-B_寸法
  6
Continuous
 62
   120
370
     5
100
AcDbLine
 10
3112.521518812615
 20
-422.1834931468579
 30
0.0
 11
3112.521518812615
 21
-444.6834931468579
 31
0.0
  0
LINE
  5
162
330
1F
100
AcDbEntity
  8
0-B_寸法
  6
Continuous
 62
   120
370
     5
100
AcDbLine
 10
3112.521518812615
 20
-422.1834931468579
 30
0.0
 11
2962.521518812615
 21
-422.1834931468579
 31
0.0
  0
LINE
  5
163
330
1F
100
AcDbEntity
  8
0-B_寸法
  6
Continuous
 62
   120
370
     5
100
AcDbLine
 10
3112.521518812615
 20
-444.6834931468579
 30
0.0
 11
2962.521518812615
 21
-444.6834931468579
 31
0.0
  0
LWPOLYLINE
  5
164
330
1F
100
AcDbEntity
  8
0-B_寸法
  6
Continuous
 62
     7
370
     9
100
AcDbPolyline
 90
        4
 70
     1
 43
3.0
 10
3114.021518812615
 20
-422.1834931468579
 42
0.4142135623731
 10
3112.521518812615
 20
-420.6834931468579
 42
0.4142135623731
 10
3111.021518812616
 20
-422.1834931468579
 42
0.4142135623731
 10
3112.521518812615
 20
-423.683493146858
 42
0.4142135623731
  0
LWPOLYLINE
  5
165
330
1F
100
AcDbEntity
  8
0-B_寸法
  6
Continuous
 62
     7
370
     9
100
AcDbPolyline
 90
        4
 70
     1
 43
3.0
 10
3114.021518812615
 20
-444.6834931468579
 42
0.4142135623731
 10
3112.521518812615
 20
-443.1834931468579
 42
0.4142135623731
 10
3111.021518812616
 20
-444.6834931468579
 42
0.4142135623731
 10
3112.521518812615
 20
-446.183493146858
 42
0.4142135623731
  0
TEXT
  5
166
330
1F
100
AcDbEntity
  8
0-B_寸法
  6
Continuous
 62
     7
370
   211
100
AcDbText
 10
3084.831518812615
 20
-482.1834931468579
 30
0.0
 40
68.58
  1
15
 50
90.0
 41
1.083333333333333
  7
ＭＳ ゴシック
100
AcDbText
  0
LINE
  5
167
330
1F
100
AcDbEntity
  8
0-B_寸法
  6
Continuous
 62
   120
370
     5
100
AcDbLine
 10
3112.521518812615
 20
-692.1834931468584
 30
0.0
 11
3112.521518812615
 21
-714.6834931468584
 31
0.0
  0
LWPOLYLINE
  5
168
330
1F
100
AcDbEntity
  8
0-B_寸法
  6
Continuous
 62
     7
370
     9
100
AcDbPolyline
 90
        4
 70
     1
 43
3.0
 10
3114.021518812615
 20
-692.1834931468584
 42
0.4142135623731
 10
3112.521518812615
 20
-690.6834931468584
 42
0.4142135623731
 10
3111.021518812616
 20
-692.1834931468584
 42
0.4142135623731
 10
3112.521518812615
 20
-693.6834931468584
 42
0.4142135623731
  0
LWPOLYLINE
  5
169
330
1F
100
AcDbEntity
  8
0-B_寸法
  6
Continuous
 62
     7
370
     9
100
AcDbPolyline
 90
        4
 70
     1
 43
3.0
 10
3114.021518812615
 20
-714.6834931468584
 42
0.4142135623731
 10
3112.521518812615
 20
-713.1834931468584
 42
0.4142135623731
 10
3111.021518812616
 20
-714.6834931468584
 42
0.4142135623731
 10
3112.521518812615
 20
-716.1834931468584
 42
0.4142135623731
  0
LINE
  5
16A
330
1F
100
AcDbEntity
  8
0-B_寸法
  6
Continuous
 62
   120
370
     5
100
AcDbLine
 10
3112.521518812615
 20
-692.1834931468584
 30
0.0
 11
2962.521518812615
 21
-692.1834931468584
 31
0.0
  0
LINE
  5
16B
330
1F
100
AcDbEntity
  8
0-B_寸法
  6
Continuous
 62
   120
370
     5
100
AcDbLine
 10
3112.521518812615
 20
-714.6834931468584
 30
0.0
 11
2962.521518812615
 21
-714.6834931468584
 31
0.0
  0
TEXT
  5
16C
330
1F
100
AcDbEntity
  8
0-B_寸法
  6
Continuous
 62
     7
370
   211
100
AcDbText
 10
3084.831518812615
 20
-752.1834931468584
 30
0.0
 40
68.58
  1
15
 50
90.0
 41
1.083333333333333
  7
ＭＳ ゴシック
100
AcDbText
  0
TEXT
  5
16D
330
1F
100
AcDbEntity
  8
0-A_文字
  6
Continuous
 62
     7
370
     9
100
AcDbText
 10
2460.666723193488
 20
-465.9232437567379
 30
0.0
 40
68.58
  1
可動棚
  7
ＭＳ ゴシック
100
AcDbText
  0
TEXT
  5
16E
330
1F
100
AcDbEntity
  8
0-A_文字
  6
Continuous
 62
     7
370
     9
100
AcDbText
 10
2460.666723193488
 20
-735.9232437567379
 30
0.0
 40
68.58
  1
可動棚
  7
ＭＳ ゴシック
100
AcDbText
  0
LINE
  5
16F
330
1F
100
AcDbEntity
  8
0-1_本体
  6
Continuous
 62
    92
370
    13
100
AcDbLine
 10
703.922383487128
 20
-1162.433493146858
 30
0.0
 11
-556.0776377219997
 21
-1162.433493146858
 31
0.0
  0
LINE
  5
170
330
1F
100
AcDbEntity
  8
0-1_本体
  6
Continuous
 62
    92
370
    13
100
AcDbLine
 10
-556.0776377219997
 20
-1162.433493146858
 30
0.0
 11
-556.0776377219997
 21
6.066506853141789
 31
0.0
  0
LINE
  5
171
330
1F
100
AcDbEntity
  8
0-1_本体
  6
Continuous
 62
    92
370
    13
100
AcDbLine
 10
703.922383487128
 20
6.066506853141789
 30
0.0
 11
703.922383487128
 21
-1162.433493146858
 31
0.0
  0
LINE
  5
172
330
1F
100
AcDbEntity
  8
0-1_本体
  6
Continuous
 62
    92
370
    13
100
AcDbLine
 10
-556.0776377219997
 20
6.066506853141789
 30
0.0
 11
703.922383487128
 21
6.066506853141789
 31
0.0
  0
LINE
  5
173
330
1F
100
AcDbEntity
  8
0-1_本体
  6
Continuous
 62
    92
370
    13
100
AcDbLine
 10
-532.8276377219979
 20
-1012.433493146858
 30
0.0
 11
-532.8276377219979
 21
6.066506853141789
 31
0.0
  0
LINE
  5
174
330
1F
100
AcDbEntity
  8
0-1_本体
  6
Continuous
 62
    92
370
    13
100
AcDbLine
 10
-532.8276377219979
 20
-1162.433493146858
 30
0.0
 11
-532.8276377219979
 21
-1012.433493146858
 31
0.0
  0
LINE
  5
175
330
1F
100
AcDbEntity
  8
0-1_本体
  6
Continuous
 62
    92
370
    13
100
AcDbLine
 10
680.672362278001
 20
-1012.433493146858
 30
0.0
 11
680.672362278001
 21
6.066506853141789
 31
0.0
  0
LINE
  5
176
330
1F
100
AcDbEntity
  8
0-1_本体
  6
Continuous
 62
    92
370
    13
100
AcDbLine
 10
680.672362278001
 20
-1162.433493146858
 30
0.0
 11
680.672362278001
 21
-1012.433493146858
 31
0.0
  0
LINE
  5
177
330
1F
100
AcDbEntity
  8
0-1_本体
  6
Continuous
 62
    92
370
    13
100
AcDbLine
 10
51.42236227800026
 20
-176.933493146858
 30
0.0
 11
51.42236227800026
 21
-16.43349314685821
 31
0.0
  0
LINE
  5
178
330
1F
100
AcDbEntity
  8
0-1_本体
  6
Continuous
 62
    92
370
    13
100
AcDbLine
 10
96.42236227800026
 20
-176.933493146858
 30
0.0
 11
96.42236227800026
 21
-16.43349314685821
 31
0.0
  0
LINE
  5
179
330
1F
100
AcDbEntity
  8
0-1_本体
  6
Continuous
 62
    92
370
    13
100
AcDbLine
 10
-532.8276377219979
 20
-16.43349314685821
 30
0.0
 11
680.672362278001
 21
-16.43349314685821
 31
0.0
  0
LINE
  5
17A
330
1F
100
AcDbEntity
  8
0-1_本体
  6
Continuous
 62
    92
370
    13
100
AcDbLine
 10
-532.8276377219979
 20
-200.1834931468582
 30
0.0
 11
680.672362278001
 21
-200.1834931468582
 31
0.0
  0
LINE
  5
17B
330
1F
100
AcDbEntity
  8
0-1_本体
  6
Continuous
 62
    92
370
    13
100
AcDbLine
 10
-532.8276377219979
 20
-176.933493146858
 30
0.0
 11
680.672362278001
 21
-176.933493146858
 31
0.0
  0
LINE
  5
17C
330
1F
100
AcDbEntity
  8
0-1_本体
  6
Continuous
 62
    92
370
    13
100
AcDbLine
 10
-532.8276377219979
 20
-989.1834931468577
 30
0.0
 11
680.672362278001
 21
-989.1834931468577
 31
0.0
  0
LINE
  5
17D
330
1F
100
AcDbEntity
  8
0-1_本体
  6
Continuous
 62
    92
370
    13
100
AcDbLine
 10
-532.8276377219979
 20
-1012.433493146858
 30
0.0
 11
680.672362278001
 21
-1012.433493146858
 31
0.0
  0
LINE
  5
17E
330
1F
100
AcDbEntity
  8
0-1_本体
  6
Continuous
 62
    92
370
    13
100
AcDbLine
 10
1963.922404696256
 20
-1162.433493146858
 30
0.0
 11
703.922383487128
 21
-1162.433493146858
 31
0.0
  0
LINE
  5
17F
330
1F
100
AcDbEntity
  8
0-1_本体
  6
Continuous
 62
    92
370
    13
100
AcDbLine
 10
1963.922404696256
 20
6.066506853141789
 30
0.0
 11
1963.922404696256
 21
-1162.433493146858
 31
0.0
  0
LINE
  5
180
330
1F
100
AcDbEntity
  8
0-1_本体
  6
Continuous
 62
    92
370
    13
100
AcDbLine
 10
703.922383487128
 20
6.066506853141789
 30
0.0
 11
1963.922404696256
 21
6.066506853141789
 31
0.0
  0
LINE
  5
181
330
1F
100
AcDbEntity
  8
0-1_本体
  6
Continuous
 62
    92
370
    13
100
AcDbLine
 10
727.1723834871298
 20
-1012.433493146858
 30
0.0
 11
727.1723834871298
 21
6.066506853141789
 31
0.0
  0
LINE
  5
182
330
1F
100
AcDbEntity
  8
0-1_本体
  6
Continuous
 62
    92
370
    13
100
AcDbLine
 10
727.1723834871298
 20
-1162.433493146858
 30
0.0
 11
727.1723834871298
 21
-1012.433493146858
 31
0.0
  0
LINE
  5
183
330
1F
100
AcDbEntity
  8
0-1_本体
  6
Continuous
 62
    92
370
    13
100
AcDbLine
 10
1940.672383487129
 20
-1012.433493146858
 30
0.0
 11
1940.672383487129
 21
6.066506853141789
 31
0.0
  0
LINE
  5
184
330
1F
100
AcDbEntity
  8
0-1_本体
  6
Continuous
 62
    92
370
    13
100
AcDbLine
 10
1940.672383487129
 20
-1162.433493146858
 30
0.0
 11
1940.672383487129
 21
-1012.433493146858
 31
0.0
  0
LINE
  5
185
330
1F
100
AcDbEntity
  8
0-1_本体
  6
Continuous
 62
    92
370
    13
100
AcDbLine
 10
1311.422383487129
 20
-176.933493146858
 30
0.0
 11
1311.422383487129
 21
-16.43349314685821
 31
0.0
  0
LINE
  5
186
330
1F
100
AcDbEntity
  8
0-1_本体
  6
Continuous
 62
    92
370
    13
100
AcDbLine
 10
1356.422383487129
 20
-176.933493146858
 30
0.0
 11
1356.422383487129
 21
-16.43349314685821
 31
0.0
  0
LINE
  5
187
330
1F
100
AcDbEntity
  8
0-1_本体
  6
Continuous
 62
    92
370
    13
100
AcDbLine
 10
727.1723834871298
 20
-16.43349314685821
 30
0.0
 11
1940.672383487129
 21
-16.43349314685821
 31
0.0
  0
LINE
  5
188
330
1F
100
AcDbEntity
  8
0-1_本体
  6
Continuous
 62
    92
370
    13
100
AcDbLine
 10
727.1723834871298
 20
-200.1834931468582
 30
0.0
 11
1940.672383487129
 21
-200.1834931468582
 31
0.0
  0
LINE
  5
189
330
1F
100
AcDbEntity
  8
0-1_本体
  6
Continuous
 62
    92
370
    13
100
AcDbLine
 10
727.1723834871298
 20
-176.933493146858
 30
0.0
 11
1940.672383487129
 21
-176.933493146858
 31
0.0
  0
LINE
  5
18A
330
1F
100
AcDbEntity
  8
0-1_本体
  6
Continuous
 62
    92
370
    13
100
AcDbLine
 10
727.1723834871298
 20
-989.1834931468577
 30
0.0
 11
1940.672383487129
 21
-989.1834931468577
 31
0.0
  0
LINE
  5
18B
330
1F
100
AcDbEntity
  8
0-1_本体
  6
Continuous
 62
    92
370
    13
100
AcDbLine
 10
727.1723834871298
 20
-1012.433493146858
 30
0.0
 11
1940.672383487129
 21
-1012.433493146858
 31
0.0
  0
LINE
  5
18C
330
1F
100
AcDbEntity
  8
0-1_本体
  6
Continuous
 62
    92
370
    13
100
AcDbLine
 10
3223.922425905384
 20
-1162.433493146858
 30
0.0
 11
1963.922404696256
 21
-1162.433493146858
 31
0.0
  0
LINE
  5
18D
330
1F
100
AcDbEntity
  8
0-1_本体
  6
Continuous
 62
    92
370
    13
100
AcDbLine
 10
3223.922425905384
 20
6.066506853141789
 30
0.0
 11
3223.922425905384
 21
-1162.433493146858
 31
0.0
  0
LINE
  5
18E
330
1F
100
AcDbEntity
  8
0-1_本体
  6
Continuous
 62
    92
370
    13
100
AcDbLine
 10
1963.922404696256
 20
6.066506853141789
 30
0.0
 11
3223.922425905384
 21
6.066506853141789
 31
0.0
  0
LINE
  5
18F
330
1F
100
AcDbEntity
  8
0-1_本体
  6
Continuous
 62
    92
370
    13
100
AcDbLine
 10
1987.172404696257
 20
-1012.433493146858
 30
0.0
 11
1987.172404696257
 21
6.066506853141789
 31
0.0
  0
LINE
  5
190
330
1F
100
AcDbEntity
  8
0-1_本体
  6
Continuous
 62
    92
370
    13
100
AcDbLine
 10
1987.172404696257
 20
-1162.433493146858
 30
0.0
 11
1987.172404696257
 21
-1012.433493146858
 31
0.0
  0
LINE
  5
191
330
1F
100
AcDbEntity
  8
0-1_本体
  6
Continuous
 62
    92
370
    13
100
AcDbLine
 10
3200.672404696257
 20
-1012.433493146858
 30
0.0
 11
3200.672404696257
 21
6.066506853141789
 31
0.0
  0
LINE
  5
192
330
1F
100
AcDbEntity
  8
0-1_本体
  6
Continuous
 62
    92
370
    13
100
AcDbLine
 10
3200.672404696257
 20
-1162.433493146858
 30
0.0
 11
3200.672404696257
 21
-1012.433493146858
 31
0.0
  0
LINE
  5
193
330
1F
100
AcDbEntity
  8
0-1_本体
  6
Continuous
 62
    92
370
    13
100
AcDbLine
 10
2571.422404696256
 20
-176.933493146858
 30
0.0
 11
2571.422404696256
 21
-16.43349314685821
 31
0.0
  0
LINE
  5
194
330
1F
100
AcDbEntity
  8
0-1_本体
  6
Continuous
 62
    92
370
    13
100
AcDbLine
 10
2616.422404696256
 20
-176.933493146858
 30
0.0
 11
2616.422404696256
 21
-16.43349314685821
 31
0.0
  0
LINE
  5
195
330
1F
100
AcDbEntity
  8
0-1_本体
  6
Continuous
 62
    92
370
    13
100
AcDbLine
 10
1987.172404696257
 20
-16.43349314685821
 30
0.0
 11
3200.672404696257
 21
-16.43349314685821
 31
0.0
  0
LINE
  5
196
330
1F
100
AcDbEntity
  8
0-1_本体
  6
Continuous
 62
    92
370
    13
100
AcDbLine
 10
1987.172404696257
 20
-200.1834931468582
 30
0.0
 11
3200.672404696257
 21
-200.1834931468582
 31
0.0
  0
LINE
  5
197
330
1F
100
AcDbEntity
  8
0-1_本体
  6
Continuous
 62
    92
370
    13
100
AcDbLine
 10
1987.172404696257
 20
-176.933493146858
 30
0.0
 11
3200.672404696257
 21
-176.933493146858
 31
0.0
  0
LINE
  5
198
330
1F
100
AcDbEntity
  8
0-1_本体
  6
Continuous
 62
    92
370
    13
100
AcDbLine
 10
1987.172404696257
 20
-989.1834931468577
 30
0.0
 11
3200.672404696257
 21
-989.1834931468577
 31
0.0
  0
LINE
  5
199
330
1F
100
AcDbEntity
  8
0-1_本体
  6
Continuous
 62
    92
370
    13
100
AcDbLine
 10
1987.172404696257
 20
-1012.433493146858
 30
0.0
 11
3200.672404696257
 21
-1012.433493146858
 31
0.0
  0
LINE
  5
19A
330
1F
100
AcDbEntity
  8
0-4_棚
  6
Continuous
 62
    92
370
    13
100
AcDbLine
 10
-79.70405277707499
 20
-422.1834931468579
 30
0.0
 11
-532.8276377219979
 21
-422.1834931468579
 31
0.0
  0
LINE
  5
19B
330
1F
100
AcDbEntity
  8
0-4_棚
  6
Continuous
 62
    92
370
    13
100
AcDbLine
 10
-79.70405277707499
 20
-444.6834931468579
 30
0.0
 11
-532.8276377219979
 21
-444.6834931468579
 31
0.0
  0
LINE
  5
19C
330
1F
100
AcDbEntity
  8
0-4_棚
  6
Continuous
 62
    92
370
    13
100
AcDbLine
 10
680.672362278001
 20
-422.1834931468579
 30
0.0
 11
235.9014403565072
 21
-422.1834931468579
 31
0.0
  0
LINE
  5
19D
330
1F
100
AcDbEntity
  8
0-4_棚
  6
Continuous
 62
    92
370
    13
100
AcDbLine
 10
680.672362278001
 20
-444.6834931468579
 30
0.0
 11
235.9014403565072
 21
-444.6834931468579
 31
0.0
  0
LINE
  5
19E
330
1F
100
AcDbEntity
  8
0-4_棚
  6
Continuous
 62
    92
370
    13
100
AcDbLine
 10
-79.70405277707499
 20
-692.1834931468584
 30
0.0
 11
-532.8276377219979
 21
-692.1834931468584
 31
0.0
  0
LINE
  5
19F
330
1F
100
AcDbEntity
  8
0-4_棚
  6
Continuous
 62
    92
370
    13
100
AcDbLine
 10
-79.70405277707499
 20
-714.6834931468584
 30
0.0
 11
-532.8276377219979
 21
-714.6834931468584
 31
0.0
  0
LINE
  5
1A0
330
1F
100
AcDbEntity
  8
0-4_棚
  6
Continuous
 62
    92
370
    13
100
AcDbLine
 10
680.672362278001
 20
-692.1834931468584
 30
0.0
 11
235.9014403565072
 21
-692.1834931468584
 31
0.0
  0
LINE
  5
1A1
330
1F
100
AcDbEntity
  8
0-4_棚
  6
Continuous
 62
    92
370
    13
100
AcDbLine
 10
680.672362278001
 20
-714.6834931468584
 30
0.0
 11
235.9014403565072
 21
-714.6834931468584
 31
0.0
  0
LINE
  5
1A2
330
1F
100
AcDbEntity
  8
0-4_棚
  6
Continuous
 62
    92
370
    13
100
AcDbLine
 10
1180.295968432053
 20
-422.1834931468579
 30
0.0
 11
727.1723834871298
 21
-422.1834931468579
 31
0.0
  0
LINE
  5
1A3
330
1F
100
AcDbEntity
  8
0-4_棚
  6
Continuous
 62
    92
370
    13
100
AcDbLine
 10
1180.295968432053
 20
-444.6834931468579
 30
0.0
 11
727.1723834871298
 21
-444.6834931468579
 31
0.0
  0
LINE
  5
1A4
330
1F
100
AcDbEntity
  8
0-4_棚
  6
Continuous
 62
    92
370
    13
100
AcDbLine
 10
1940.672383487129
 20
-422.1834931468579
 30
0.0
 11
1495.901461565636
 21
-422.1834931468579
 31
0.0
  0
LINE
  5
1A5
330
1F
100
AcDbEntity
  8
0-4_棚
  6
Continuous
 62
    92
370
    13
100
AcDbLine
 10
1940.672383487129
 20
-444.6834931468579
 30
0.0
 11
1495.901461565636
 21
-444.6834931468579
 31
0.0
  0
LINE
  5
1A6
330
1F
100
AcDbEntity
  8
0-4_棚
  6
Continuous
 62
    92
370
    13
100
AcDbLine
 10
1180.295968432053
 20
-692.1834931468584
 30
0.0
 11
727.1723834871298
 21
-692.1834931468584
 31
0.0
  0
LINE
  5
1A7
330
1F
100
AcDbEntity
  8
0-4_棚
  6
Continuous
 62
    92
370
    13
100
AcDbLine
 10
1180.295968432053
 20
-714.6834931468584
 30
0.0
 11
727.1723834871298
 21
-714.6834931468584
 31
0.0
  0
LINE
  5
1A8
330
1F
100
AcDbEntity
  8
0-4_棚
  6
Continuous
 62
    92
370
    13
100
AcDbLine
 10
1940.672383487129
 20
-692.1834931468584
 30
0.0
 11
1495.901461565636
 21
-692.1834931468584
 31
0.0
  0
LINE
  5
1A9
330
1F
100
AcDbEntity
  8
0-4_棚
  6
Continuous
 62
    92
370
    13
100
AcDbLine
 10
1940.672383487129
 20
-714.6834931468584
 30
0.0
 11
1495.901461565636
 21
-714.6834931468584
 31
0.0
  0
LINE
  5
1AA
330
1F
100
AcDbEntity
  8
0-4_棚
  6
Continuous
 62
    92
370
    13
100
AcDbLine
 10
2440.29598964118
 20
-422.1834931468579
 30
0.0
 11
1987.172404696257
 21
-422.1834931468579
 31
0.0
  0
LINE
  5
1AB
330
1F
100
AcDbEntity
  8
0-4_棚
  6
Continuous
 62
    92
370
    13
100
AcDbLine
 10
2440.29598964118
 20
-444.6834931468579
 30
0.0
 11
1987.172404696257
 21
-444.6834931468579
 31
0.0
  0
LINE
  5
1AC
330
1F
100
AcDbEntity
  8
0-4_棚
  6
Continuous
 62
    92
370
    13
100
AcDbLine
 10
3200.672404696257
 20
-422.1834931468579
 30
0.0
 11
2755.901482774763
 21
-422.1834931468579
 31
0.0
  0
LINE
  5
1AD
330
1F
100
AcDbEntity
  8
0-4_棚
  6
Continuous
 62
    92
370
    13
100
AcDbLine
 10
3200.672404696257
 20
-444.6834931468579
 30
0.0
 11
2755.901482774763
 21
-444.6834931468579
 31
0.0
  0
LINE
  5
1AE
330
1F
100
AcDbEntity
  8
0-4_棚
  6
Continuous
 62
    92
370
    13
100
AcDbLine
 10
2440.29598964118
 20
-692.1834931468584
 30
0.0
 11
1987.172404696257
 21
-692.1834931468584
 31
0.0
  0
LINE
  5
1AF
330
1F
100
AcDbEntity
  8
0-4_棚
  6
Continuous
 62
    92
370
    13
100
AcDbLine
 10
2440.29598964118
 20
-714.6834931468584
 30
0.0
 11
1987.172404696257
 21
-714.6834931468584
 31
0.0
  0
LINE
  5
1B0
330
1F
100
AcDbEntity
  8
0-4_棚
  6
Continuous
 62
    92
370
    13
100
AcDbLine
 10
3200.672404696257
 20
-692.1834931468584
 30
0.0
 11
2755.901482774763
 21
-692.1834931468584
 31
0.0
  0
LINE
  5
1B1
330
1F
100
AcDbEntity
  8
0-4_棚
  6
Continuous
 62
    92
370
    13
100
AcDbLine
 10
3200.672404696257
 20
-714.6834931468584
 30
0.0
 11
2755.901482774763
 21
-714.6834931468584
 31
0.0
  0
LINE
  5
1B2
330
1F
100
AcDbEntity
  8
0-A_文字
  6
Continuous
 62
   120
370
     5
100
AcDbLine
 10
-556.0776377219997
 20
285.0665068531421
 30
0.0
 11
-556.0776377219997
 21
135.0665068531421
 31
0.0
  0
LINE
  5
1B3
330
1F
100
AcDbEntity
  8
0-A_文字
  6
Continuous
 62
   120
370
     5
100
AcDbLine
 10
-532.8276377219979
 20
285.0665068531421
 30
0.0
 11
-532.8276377219979
 21
135.0665068531421
 31
0.0
  0
LINE
  5
1B4
330
1F
100
AcDbEntity
  8
0-A_文字
  6
Continuous
 62
   120
370
     5
100
AcDbLine
 10
51.42236227800026
 20
285.0665068531421
 30
0.0
 11
51.42236227800026
 21
135.0665068531421
 31
0.0
  0
LINE
  5
1B5
330
1F
100
AcDbEntity
  8
0-A_文字
  6
Continuous
 62
   120
370
     5
100
AcDbLine
 10
96.42236227800026
 20
285.0665068531421
 30
0.0
 11
96.42236227800026
 21
135.0665068531421
 31
0.0
  0
LINE
  5
1B6
330
1F
100
AcDbEntity
  8
0-A_文字
  6
Continuous
 62
   120
370
     5
100
AcDbLine
 10
680.672362278001
 20
285.0665068531421
 30
0.0
 11
680.672362278001
 21
135.0665068531421
 31
0.0
  0
LINE
  5
1B7
330
1F
100
AcDbEntity
  8
0-A_文字
  6
Continuous
 62
   120
370
     5
100
AcDbLine
 10
703.922383487128
 20
285.0665068531421
 30
0.0
 11
703.922383487128
 21
135.0665068531421
 31
0.0
  0
TEXT
  5
1B8
330
1F
100
AcDbEntity
  8
0-B_寸法
  6
Continuous
 62
     7
370
   211
100
AcDbText
 10
1078.922425905383
 20
462.756506853143
 30
0.0
 40
68.58
  1
カウンター
 41
1.133333333333333
  7
ＭＳ ゴシック
100
AcDbText
  0
TEXT
  5
1B9
330
1F
100
AcDbEntity
  8
0-A_文字
  6
Continuous
 62
     7
370
     9
100
AcDbText
 10
307.1727044961114
 20
-127.2621541101159
 30
0.0
 40
61.722
  1
引出
 41
1.000000000000017
  7
ＭＳ ゴシック
100
AcDbText
  0
LINE
  5
1BA
330
1F
100
AcDbEntity
  8
0-A_文字
  6
Continuous
 62
     7
370
     9
100
AcDbLine
 10
73.92296187771308
 20
-98.1831541101161
 30
0.0
 11
288.5278278668957
 21
-312.7880200992971
 31
0.0
  0
TEXT
  5
1BB
330
1F
100
AcDbEntity
  8
0-A_文字
  6
Continuous
 62
     7
370
     9
100
AcDbText
 10
318.5278278668949
 20
-341.8670200992986
 30
0.0
 40
61.722
  1
ツカ
 41
1.000000000000017
  7
ＭＳ ゴシック
100
AcDbText
  0
LINE
  5
1BC
330
1F
100
AcDbEntity
  8
0-A_文字
  6
Continuous
 62
     7
370
     9
100
AcDbLine
 10
288.5278278668957
 20
-312.7880200992971
 30
0.0
 11
318.5278278668957
 21
-312.7880200992971
 31
0.0
  0
LINE
  5
1BD
330
1F
100
AcDbEntity
  8
0-A_文字
  6
JWW_CENTER1
 62
   120
370
     5
100
AcDbLine
 10
-532.8276377219979
 20
-176.933493146858
 30
0.0
 11
51.42236227800026
 21
-16.43349314685821
 31
0.0
  0
LINE
  5
1BE
330
1F
100
AcDbEntity
  8
0-A_文字
  6
JWW_CENTER1
 62
   120
370
     5
100
AcDbLine
 10
51.42236227800026
 20
-176.933493146858
 30
0.0
 11
-532.8276377219979
 21
-16.43349314685821
 31
0.0
  0
LINE
  5
1BF
330
1F
100
AcDbEntity
  8
0-A_文字
  6
JWW_CENTER1
 62
   120
370
     5
100
AcDbLine
 10
96.42236227800026
 20
-176.933493146858
 30
0.0
 11
680.672362278001
 21
-16.43349314685821
 31
0.0
  0
LINE
  5
1C0
330
1F
100
AcDbEntity
  8
0-A_文字
  6
JWW_CENTER1
 62
   120
370
     5
100
AcDbLine
 10
680.672362278001
 20
-176.933493146858
 30
0.0
 11
96.42236227800026
 21
-16.43349314685821
 31
0.0
  0
LINE
  5
1C1
330
1F
100
AcDbEntity
  8
0-A_文字
  6
JWW_CENTER1
 62
     7
370
     9
100
AcDbLine
 10
-5147.336144428922
 20
-1162.433493146858
 30
0.0
 11
4997.335896989101
 21
-1162.433493146858
 31
0.0
  0
LINE
  5
1C2
330
1F
100
AcDbEntity
  8
0-A_文字
  6
JWW_CENTER1
 62
     7
370
     9
100
AcDbLine
 10
4997.335896989101
 20
60.06650685314213
 30
0.0
 11
-5147.33608080154
 21
60.06650685314213
 31
0.0
  0
LINE
  5
1C3
330
1F
100
AcDbEntity
  8
0-A_文字
  6
Continuous
 62
   120
370
     5
100
AcDbLine
 10
-556.0776377219997
 20
285.0665068531421
 30
0.0
 11
-532.8276377219979
 21
285.0665068531421
 31
0.0
  0
LWPOLYLINE
  5
1C4
330
1F
100
AcDbEntity
  8
0-A_文字
  6
Continuous
 62
     7
370
     9
100
AcDbPolyline
 90
        4
 70
     1
 43
3.0
 10
-554.5776377219997
 20
285.0665068531421
 42
0.4142135623731
 10
-556.0776377219997
 20
286.5665068531421
 42
0.4142135623731
 10
-557.5776377219997
 20
285.0665068531421
 42
0.4142135623731
 10
-556.0776377219997
 20
283.5665068531421
 42
0.4142135623731
  0
LWPOLYLINE
  5
1C5
330
1F
100
AcDbEntity
  8
0-A_文字
  6
Continuous
 62
     7
370
     9
100
AcDbPolyline
 90
        4
 70
     1
 43
3.0
 10
-531.3276377219978
 20
285.0665068531421
 42
0.4142135623731
 10
-532.8276377219979
 20
286.5665068531421
 42
0.4142135623731
 10
-534.3276377219979
 20
285.0665068531421
 42
0.4142135623731
 10
-532.8276377219979
 20
283.5665068531421
 42
0.4142135623731
  0
LINE
  5
1C6
330
1F
100
AcDbEntity
  8
0-A_文字
  6
Continuous
 62
   120
370
     5
100
AcDbLine
 10
-532.8276377219979
 20
285.0665068531421
 30
0.0
 11
51.42236227800026
 21
285.0665068531421
 31
0.0
  0
LWPOLYLINE
  5
1C7
330
1F
100
AcDbEntity
  8
0-A_文字
  6
Continuous
 62
     7
370
     9
100
AcDbPolyline
 90
        4
 70
     1
 43
3.0
 10
52.92236227800026
 20
285.0665068531421
 42
0.4142135623731
 10
51.42236227800026
 20
286.5665068531421
 42
0.4142135623731
 10
49.92236227800026
 20
285.0665068531421
 42
0.4142135623731
 10
51.42236227800026
 20
283.5665068531421
 42
0.4142135623731
  0
TEXT
  5
1C8
330
1F
100
AcDbEntity
  8
0-A_文字
  6
Continuous
 62
     7
370
   211
100
AcDbText
 10
-368.2026377219984
 20
312.7565068531421
 30
0.0
 40
68.58
  1
389.5
 41
1.133333333333333
  7
ＭＳ ゴシック
100
AcDbText
  0
LINE
  5
1C9
330
1F
100
AcDbEntity
  8
0-A_文字
  6
Continuous
 62
   120
370
     5
100
AcDbLine
 10
51.42236227800026
 20
285.0665068531421
 30
0.0
 11
96.42236227800026
 21
285.0665068531421
 31
0.0
  0
LWPOLYLINE
  5
1CA
330
1F
100
AcDbEntity
  8
0-A_文字
  6
Continuous
 62
     7
370
     9
100
AcDbPolyline
 90
        4
 70
     1
 43
3.0
 10
97.92236227800026
 20
285.0665068531421
 42
0.4142135623731
 10
96.42236227800026
 20
286.5665068531421
 42
0.4142135623731
 10
94.92236227800026
 20
285.0665068531421
 42
0.4142135623731
 10
96.42236227800026
 20
283.5665068531421
 42
0.4142135623731
  0
TEXT
  5
1CB
330
1F
100
AcDbEntity
  8
0-A_文字
  6
Continuous
 62
     7
370
   211
100
AcDbText
 10
25.17236227800026
 20
312.7565068531421
 30
0.0
 40
68.58
  1
30
 41
1.083333333333333
  7
ＭＳ ゴシック
100
AcDbText
  0
LINE
  5
1CC
330
1F
100
AcDbEntity
  8
0-A_文字
  6
Continuous
 62
   120
370
     5
100
AcDbLine
 10
96.42236227800026
 20
285.0665068531421
 30
0.0
 11
680.672362278001
 21
285.0665068531421
 31
0.0
  0
LWPOLYLINE
  5
1CD
330
1F
100
AcDbEntity
  8
0-A_文字
  6
Continuous
 62
     7
370
     9
100
AcDbPolyline
 90
        4
 70
     1
 43
3.0
 10
682.172362278001
 20
285.0665068531421
 42
0.4142135623731
 10
680.672362278001
 20
286.5665068531421
 42
0.4142135623731
 10
679.172362278001
 20
285.0665068531421
 42
0.4142135623731
 10
680.672362278001
 20
283.5665068531421
 42
0.4142135623731
  0
TEXT
  5
1CE
330
1F
100
AcDbEntity
  8
0-A_文字
  6
Continuous
 62
     7
370
   211
100
AcDbText
 10
261.0473622780015
 20
312.7565068531421
 30
0.0
 40
68.58
  1
389.5
 41
1.133333333333333
  7
ＭＳ ゴシック
100
AcDbText
  0
LINE
  5
1CF
330
1F
100
AcDbEntity
  8
0-A_文字
  6
Continuous
 62
   120
370
     5
100
AcDbLine
 10
680.672362278001
 20
285.0665068531421
 30
0.0
 11
703.922383487128
 21
285.0665068531421
 31
0.0
  0
LWPOLYLINE
  5
1D0
330
1F
100
AcDbEntity
  8
0-A_文字
  6
Continuous
 62
     7
370
     9
100
AcDbPolyline
 90
        4
 70
     1
 43
3.0
 10
705.422383487128
 20
285.0665068531421
 42
0.4142135623731
 10
703.922383487128
 20
286.5665068531421
 42
0.4142135623731
 10
702.422383487128
 20
285.0665068531421
 42
0.4142135623731
 10
703.922383487128
 20
283.5665068531421
 42
0.4142135623731
  0
TEXT
  5
1D1
330
1F
100
AcDbEntity
  8
0-A_文字
  6
Continuous
 62
     7
370
   211
100
AcDbText
 10
722.9595865523578
 20
312.7565068531421
 30
0.0
 40
68.58
  1
15.5
 41
1.125
  7
ＭＳ ゴシック
100
AcDbText
  0
TEXT
  5
1D2
330
1F
100
AcDbEntity
  8
0-B_寸法
  6
Continuous
 62
     7
370
   211
100
AcDbText
 10
462.5686350070305
 20
-1359.743493146858
 30
0.0
 40
68.58
  1
15.5
 41
1.125
  7
ＭＳ ゴシック
100
AcDbText
  0
TEXT
  5
1D3
330
1F
100
AcDbEntity
  8
0-B_寸法
  6
Continuous
 62
     7
370
   211
100
AcDbText
 10
1722.568656216158
 20
-1359.743493146858
 30
0.0
 40
68.58
  1
15.5
 41
1.124999999999998
  7
ＭＳ ゴシック
100
AcDbText
  0
TEXT
  5
1D4
330
1F
100
AcDbEntity
  8
0-B_寸法
  6
Continuous
 62
     7
370
   211
100
AcDbText
 10
741.5532375871379
 20
-1359.743493146858
 30
0.0
 40
68.58
  1
15.5
 41
1.125
  7
ＭＳ ゴシック
100
AcDbText
  0
TEXT
  5
1D5
330
1F
100
AcDbEntity
  8
0-B_寸法
  6
Continuous
 62
     7
370
   211
100
AcDbText
 10
2001.553258796266
 20
-1359.743493146858
 30
0.0
 40
68.58
  1
15.5
 41
1.125
  7
ＭＳ ゴシック
100
AcDbText
  0
LINE
  5
1D6
330
1F
100
AcDbEntity
  8
0-A_文字
  6
Continuous
 62
     7
370
     9
100
AcDbLine
 10
733.9223940916918
 20
-1916.293964031662
 30
0.0
 11
1933.922394091692
 21
-1916.293964031662
 31
0.0
  0
LINE
  5
1D7
330
1F
100
AcDbEntity
  8
0-A_文字
  6
Continuous
 62
     7
370
     9
100
AcDbLine
 10
1933.922394091692
 20
-1916.293964031662
 30
0.0
 11
1933.922394091692
 21
-1691.293964031662
 31
0.0
  0
LINE
  5
1D8
330
1F
100
AcDbEntity
  8
0-A_文字
  6
Continuous
 62
     7
370
     9
100
AcDbLine
 10
1933.922394091692
 20
-1691.293964031662
 30
0.0
 11
733.9223940916918
 21
-1691.293964031662
 31
0.0
  0
LINE
  5
1D9
330
1F
100
AcDbEntity
  8
0-A_文字
  6
Continuous
 62
     7
370
     9
100
AcDbLine
 10
733.9223940916918
 20
-1691.293964031662
 30
0.0
 11
733.9223940916918
 21
-1916.293964031662
 31
0.0
  0
TEXT
  5
1DA
330
1F
100
AcDbEntity
  8
0-A_文字
  6
Continuous
 62
     7
370
     9
100
AcDbText
 10
868.9223940916918
 20
-1846.873964031662
 30
0.0
 40
91.44
  1
キャビネット図
 41
1.107142857142857
  7
ＭＳ ゴシック
100
AcDbText
  0
TEXT
  5
1DB
330
1F
100
AcDbEntity
  8
0-B_寸法
  6
Continuous
 62
     7
370
   211
100
AcDbText
 10
-5106.535060341239
 20
-1359.743493146858
 30
0.0
 40
68.58
  1
15.5
 41
1.125
  7
ＭＳ ゴシック
100
AcDbText
  0
TEXT
  5
1DC
330
1F
100
AcDbEntity
  8
0-B_寸法
  6
Continuous
 62
     7
370
   211
100
AcDbText
 10
-515.2765536343151
 20
-1359.743493146858
 30
0.0
 40
68.58
  1
15.5
 41
1.125
  7
ＭＳ ゴシック
100
AcDbText
  0
TEXT
  5
1DD
330
1F
100
AcDbEntity
  8
0-B_寸法
  6
Continuous
 62
     7
370
   211
100
AcDbText
 10
-1608.158031627131
 20
-1359.743493146858
 30
0.0
 40
68.58
  1
15.5
 41
1.125
  7
ＭＳ ゴシック
100
AcDbText
  0
TEXT
  5
1DE
330
1F
100
AcDbEntity
  8
0-B_寸法
  6
Continuous
 62
     7
370
   211
100
AcDbText
 10
3013.100475079793
 20
-1359.743493146858
 30
0.0
 40
68.58
  1
15.5
 41
1.125
  7
ＭＳ ゴシック
100
AcDbText
  0
LINE
  5
1DF
330
1F
100
AcDbEntity
  8
0-7__
  6
Continuous
 62
     7
370
     9
100
AcDbLine
 10
-4907.336289269589
 20
-95.93281507337366
 30
0.0
 11
-4757.336289269589
 21
-95.93281507337366
 31
0.0
  0
LINE
  5
1E0
330
1F
100
AcDbEntity
  8
0-7__
  6
Continuous
 62
     7
370
     9
100
AcDbLine
 10
-4757.336289269589
 20
-95.93281507337366
 30
0.0
 11
-4757.336289269589
 21
-80.93281507337366
 31
0.0
  0
LINE
  5
1E1
330
1F
100
AcDbEntity
  8
0-7__
  6
Continuous
 62
     7
370
     9
100
AcDbLine
 10
-4757.336289269589
 20
-80.93281507337366
 30
0.0
 11
-4907.336289269589
 21
-80.93281507337366
 31
0.0
  0
LINE
  5
1E2
330
1F
100
AcDbEntity
  8
0-7__
  6
Continuous
 62
     7
370
     9
100
AcDbLine
 10
-4907.336289269589
 20
-80.93281507337366
 30
0.0
 11
-4907.336289269589
 21
-95.93281507337366
 31
0.0
  0
LINE
  5
1E3
330
1F
100
AcDbEntity
  8
0-7__
  6
Continuous
 62
     7
370
     9
100
AcDbLine
 10
-4277.336434110256
 20
-95.93281507337366
 30
0.0
 11
-4127.336434110256
 21
-95.93281507337366
 31
0.0
  0
LINE
  5
1E4
330
1F
100
AcDbEntity
  8
0-7__
  6
Continuous
 62
     7
370
     9
100
AcDbLine
 10
-4127.336434110256
 20
-95.93281507337366
 30
0.0
 11
-4127.336434110256
 21
-80.93281507337366
 31
0.0
  0
LINE
  5
1E5
330
1F
100
AcDbEntity
  8
0-7__
  6
Continuous
 62
     7
370
     9
100
AcDbLine
 10
-4127.336434110256
 20
-80.93281507337366
 30
0.0
 11
-4277.336434110256
 21
-80.93281507337366
 31
0.0
  0
LINE
  5
1E6
330
1F
100
AcDbEntity
  8
0-7__
  6
Continuous
 62
     7
370
     9
100
AcDbLine
 10
-4277.336434110256
 20
-80.93281507337366
 30
0.0
 11
-4277.336434110256
 21
-95.93281507337366
 31
0.0
  0
LINE
  5
1E7
330
1F
100
AcDbEntity
  8
0-7__
  6
Continuous
 62
     7
370
     9
100
AcDbLine
 10
-3647.33626806046
 20
-95.93281507337366
 30
0.0
 11
-3497.33626806046
 21
-95.93281507337366
 31
0.0
  0
LINE
  5
1E8
330
1F
100
AcDbEntity
  8
0-7__
  6
Continuous
 62
     7
370
     9
100
AcDbLine
 10
-3497.33626806046
 20
-95.93281507337366
 30
0.0
 11
-3497.33626806046
 21
-80.93281507337366
 31
0.0
  0
LINE
  5
1E9
330
1F
100
AcDbEntity
  8
0-7__
  6
Continuous
 62
     7
370
     9
100
AcDbLine
 10
-3497.33626806046
 20
-80.93281507337366
 30
0.0
 11
-3647.33626806046
 21
-80.93281507337366
 31
0.0
  0
LINE
  5
1EA
330
1F
100
AcDbEntity
  8
0-7__
  6
Continuous
 62
     7
370
     9
100
AcDbLine
 10
-3647.33626806046
 20
-80.93281507337366
 30
0.0
 11
-3647.33626806046
 21
-95.93281507337366
 31
0.0
  0
LINE
  5
1EB
330
1F
100
AcDbEntity
  8
0-7__
  6
Continuous
 62
     7
370
     9
100
AcDbLine
 10
-3017.336412901129
 20
-95.93281507337366
 30
0.0
 11
-2867.336412901129
 21
-95.93281507337366
 31
0.0
  0
LINE
  5
1EC
330
1F
100
AcDbEntity
  8
0-7__
  6
Continuous
 62
     7
370
     9
100
AcDbLine
 10
-2867.336412901129
 20
-95.93281507337366
 30
0.0
 11
-2867.336412901129
 21
-80.93281507337366
 31
0.0
  0
LINE
  5
1ED
330
1F
100
AcDbEntity
  8
0-7__
  6
Continuous
 62
     7
370
     9
100
AcDbLine
 10
-2867.336412901129
 20
-80.93281507337366
 30
0.0
 11
-3017.336412901129
 21
-80.93281507337366
 31
0.0
  0
LINE
  5
1EE
330
1F
100
AcDbEntity
  8
0-7__
  6
Continuous
 62
     7
370
     9
100
AcDbLine
 10
-3017.336412901129
 20
-80.93281507337366
 30
0.0
 11
-3017.336412901129
 21
-95.93281507337366
 31
0.0
  0
LINE
  5
1EF
330
1F
100
AcDbEntity
  8
0-7__
  6
Continuous
 62
     7
370
     9
100
AcDbLine
 10
-2387.336246851333
 20
-95.93281507337366
 30
0.0
 11
-2237.336246851333
 21
-95.93281507337366
 31
0.0
  0
LINE
  5
1F0
330
1F
100
AcDbEntity
  8
0-7__
  6
Continuous
 62
     7
370
     9
100
AcDbLine
 10
-2237.336246851333
 20
-95.93281507337366
 30
0.0
 11
-2237.336246851333
 21
-80.93281507337366
 31
0.0
  0
LINE
  5
1F1
330
1F
100
AcDbEntity
  8
0-7__
  6
Continuous
 62
     7
370
     9
100
AcDbLine
 10
-2237.336246851333
 20
-80.93281507337366
 30
0.0
 11
-2387.336246851333
 21
-80.93281507337366
 31
0.0
  0
LINE
  5
1F2
330
1F
100
AcDbEntity
  8
0-7__
  6
Continuous
 62
     7
370
     9
100
AcDbLine
 10
-2387.336246851333
 20
-80.93281507337366
 30
0.0
 11
-2387.336246851333
 21
-95.93281507337366
 31
0.0
  0
LINE
  5
1F3
330
1F
100
AcDbEntity
  8
0-7__
  6
Continuous
 62
     7
370
     9
100
AcDbLine
 10
-1757.336391692001
 20
-95.93281507337366
 30
0.0
 11
-1607.336391692001
 21
-95.93281507337366
 31
0.0
  0
LINE
  5
1F4
330
1F
100
AcDbEntity
  8
0-7__
  6
Continuous
 62
     7
370
     9
100
AcDbLine
 10
-1607.336391692001
 20
-95.93281507337366
 30
0.0
 11
-1607.336391692001
 21
-80.93281507337366
 31
0.0
  0
LINE
  5
1F5
330
1F
100
AcDbEntity
  8
0-7__
  6
Continuous
 62
     7
370
     9
100
AcDbLine
 10
-1607.336391692001
 20
-80.93281507337366
 30
0.0
 11
-1757.336391692001
 21
-80.93281507337366
 31
0.0
  0
LINE
  5
1F6
330
1F
100
AcDbEntity
  8
0-7__
  6
Continuous
 62
     7
370
     9
100
AcDbLine
 10
-1757.336391692001
 20
-80.93281507337366
 30
0.0
 11
-1757.336391692001
 21
-95.93281507337366
 31
0.0
  0
LINE
  5
1F7
330
1F
100
AcDbEntity
  8
1-3_扉仕上
  6
Continuous
 62
     7
370
     9
100
AcDbLine
 10
-4484.335284752281
 20
-377.932815073373
 30
0.0
 11
-4469.335284752281
 21
-377.932815073373
 31
0.0
  0
LINE
  5
1F8
330
1F
100
AcDbEntity
  8
1-3_扉仕上
  6
Continuous
 62
     7
370
     9
100
AcDbLine
 10
-4469.335284752281
 20
-377.932815073373
 30
0.0
 11
-4469.335284752281
 21
-227.932815073373
 31
0.0
  0
LINE
  5
1F9
330
1F
100
AcDbEntity
  8
1-3_扉仕上
  6
Continuous
 62
     7
370
     9
100
AcDbLine
 10
-4469.335284752281
 20
-227.932815073373
 30
0.0
 11
-4484.335284752281
 21
-227.932815073373
 31
0.0
  0
LINE
  5
1FA
330
1F
100
AcDbEntity
  8
1-3_扉仕上
  6
Continuous
 62
     7
370
     9
100
AcDbLine
 10
-4484.335284752281
 20
-227.932815073373
 30
0.0
 11
-4484.335284752281
 21
-377.932815073373
 31
0.0
  0
LINE
  5
1FB
330
1F
100
AcDbEntity
  8
1-3_扉仕上
  6
Continuous
 62
     7
370
     9
100
AcDbLine
 10
-4565.335284752283
 20
-377.932815073373
 30
0.0
 11
-4550.335284752283
 21
-377.932815073373
 31
0.0
  0
LINE
  5
1FC
330
1F
100
AcDbEntity
  8
1-3_扉仕上
  6
Continuous
 62
     7
370
     9
100
AcDbLine
 10
-4550.335284752283
 20
-377.932815073373
 30
0.0
 11
-4550.335284752283
 21
-227.932815073373
 31
0.0
  0
LINE
  5
1FD
330
1F
100
AcDbEntity
  8
1-3_扉仕上
  6
Continuous
 62
     7
370
     9
100
AcDbLine
 10
-4550.335284752283
 20
-227.932815073373
 30
0.0
 11
-4565.335284752283
 21
-227.932815073373
 31
0.0
  0
LINE
  5
1FE
330
1F
100
AcDbEntity
  8
1-3_扉仕上
  6
Continuous
 62
     7
370
     9
100
AcDbLine
 10
-4565.335284752283
 20
-227.932815073373
 30
0.0
 11
-4565.335284752283
 21
-377.932815073373
 31
0.0
  0
LINE
  5
1FF
330
1F
100
AcDbEntity
  8
1-3_扉仕上
  6
Continuous
 62
     7
370
     9
100
AcDbLine
 10
-3224.335263543152
 20
-377.932815073373
 30
0.0
 11
-3209.335263543152
 21
-377.932815073373
 31
0.0
  0
LINE
  5
200
330
1F
100
AcDbEntity
  8
1-3_扉仕上
  6
Continuous
 62
     7
370
     9
100
AcDbLine
 10
-3209.335263543152
 20
-377.932815073373
 30
0.0
 11
-3209.335263543152
 21
-227.932815073373
 31
0.0
  0
LINE
  5
201
330
1F
100
AcDbEntity
  8
1-3_扉仕上
  6
Continuous
 62
     7
370
     9
100
AcDbLine
 10
-3209.335263543152
 20
-227.932815073373
 30
0.0
 11
-3224.335263543152
 21
-227.932815073373
 31
0.0
  0
LINE
  5
202
330
1F
100
AcDbEntity
  8
1-3_扉仕上
  6
Continuous
 62
     7
370
     9
100
AcDbLine
 10
-3224.335263543152
 20
-227.932815073373
 30
0.0
 11
-3224.335263543152
 21
-377.932815073373
 31
0.0
  0
LINE
  5
203
330
1F
100
AcDbEntity
  8
1-3_扉仕上
  6
Continuous
 62
     7
370
     9
100
AcDbLine
 10
-3305.335263543153
 20
-377.932815073373
 30
0.0
 11
-3290.335263543153
 21
-377.932815073373
 31
0.0
  0
LINE
  5
204
330
1F
100
AcDbEntity
  8
1-3_扉仕上
  6
Continuous
 62
     7
370
     9
100
AcDbLine
 10
-3290.335263543153
 20
-377.932815073373
 30
0.0
 11
-3290.335263543153
 21
-227.932815073373
 31
0.0
  0
LINE
  5
205
330
1F
100
AcDbEntity
  8
1-3_扉仕上
  6
Continuous
 62
     7
370
     9
100
AcDbLine
 10
-3290.335263543153
 20
-227.932815073373
 30
0.0
 11
-3305.335263543153
 21
-227.932815073373
 31
0.0
  0
LINE
  5
206
330
1F
100
AcDbEntity
  8
1-3_扉仕上
  6
Continuous
 62
     7
370
     9
100
AcDbLine
 10
-3305.335263543153
 20
-227.932815073373
 30
0.0
 11
-3305.335263543153
 21
-377.932815073373
 31
0.0
  0
LINE
  5
207
330
1F
100
AcDbEntity
  8
1-3_扉仕上
  6
Continuous
 62
     7
370
     9
100
AcDbLine
 10
-1964.335242334025
 20
-377.932815073373
 30
0.0
 11
-1949.335242334025
 21
-377.932815073373
 31
0.0
  0
LINE
  5
208
330
1F
100
AcDbEntity
  8
1-3_扉仕上
  6
Continuous
 62
     7
370
     9
100
AcDbLine
 10
-1949.335242334025
 20
-377.932815073373
 30
0.0
 11
-1949.335242334025
 21
-227.932815073373
 31
0.0
  0
LINE
  5
209
330
1F
100
AcDbEntity
  8
1-3_扉仕上
  6
Continuous
 62
     7
370
     9
100
AcDbLine
 10
-1949.335242334025
 20
-227.932815073373
 30
0.0
 11
-1964.335242334025
 21
-227.932815073373
 31
0.0
  0
LINE
  5
20A
330
1F
100
AcDbEntity
  8
1-3_扉仕上
  6
Continuous
 62
     7
370
     9
100
AcDbLine
 10
-1964.335242334025
 20
-227.932815073373
 30
0.0
 11
-1964.335242334025
 21
-377.932815073373
 31
0.0
  0
LINE
  5
20B
330
1F
100
AcDbEntity
  8
1-3_扉仕上
  6
Continuous
 62
     7
370
     9
100
AcDbLine
 10
-2045.335242334027
 20
-377.932815073373
 30
0.0
 11
-2030.335242334027
 21
-377.932815073373
 31
0.0
  0
LINE
  5
20C
330
1F
100
AcDbEntity
  8
1-3_扉仕上
  6
Continuous
 62
     7
370
     9
100
AcDbLine
 10
-2030.335242334027
 20
-377.932815073373
 30
0.0
 11
-2030.335242334027
 21
-227.932815073373
 31
0.0
  0
LINE
  5
20D
330
1F
100
AcDbEntity
  8
1-3_扉仕上
  6
Continuous
 62
     7
370
     9
100
AcDbLine
 10
-2030.335242334027
 20
-227.932815073373
 30
0.0
 11
-2045.335242334027
 21
-227.932815073373
 31
0.0
  0
LINE
  5
20E
330
1F
100
AcDbEntity
  8
1-3_扉仕上
  6
Continuous
 62
     7
370
     9
100
AcDbLine
 10
-2045.335242334027
 20
-227.932815073373
 30
0.0
 11
-2045.335242334027
 21
-377.932815073373
 31
0.0
  0
LINE
  5
20F
330
1F
100
AcDbEntity
  8
0-B_寸法
  6
Continuous
 62
   120
370
     5
100
AcDbLine
 10
-5402.336144428922
 20
6.066506853141789
 30
0.0
 11
-5402.336144428922
 21
1.567184926626339
 31
0.0
  0
LWPOLYLINE
  5
210
330
1F
100
AcDbEntity
  8
0-B_寸法
  6
Continuous
 62
     7
370
     9
100
AcDbPolyline
 90
        4
 70
     1
 43
3.0
 10
-5400.836144428921
 20
6.066506853141789
 42
0.4142135623731
 10
-5402.336144428922
 20
7.566506853141789
 42
0.4142135623731
 10
-5403.836144428922
 20
6.066506853141789
 42
0.4142135623731
 10
-5402.336144428922
 20
4.566506853141789
 42
0.4142135623731
  0
LWPOLYLINE
  5
211
330
1F
100
AcDbEntity
  8
0-B_寸法
  6
Continuous
 62
     7
370
     9
100
AcDbPolyline
 90
        4
 70
     1
 43
3.0
 10
-5400.836144428921
 20
1.567184926626339
 42
0.4142135623731
 10
-5402.336144428922
 20
3.067184926626339
 42
0.4142135623731
 10
-5403.836144428922
 20
1.567184926626339
 42
0.4142135623731
 10
-5402.336144428922
 20
0.0671849266263393
 42
0.4142135623731
  0
LINE
  5
212
330
1F
100
AcDbEntity
  8
0-B_寸法
  6
Continuous
 62
   120
370
     5
100
AcDbLine
 10
-5402.336144428922
 20
6.066506853141789
 30
0.0
 11
-5252.336144428922
 21
6.066506853141789
 31
0.0
  0
LINE
  5
213
330
1F
100
AcDbEntity
  8
0-B_寸法
  6
Continuous
 62
   120
370
     5
100
AcDbLine
 10
-5552.336144428922
 20
1.567184926626339
 30
0.0
 11
-5252.336144428922
 21
1.567184926626339
 31
0.0
  0
LINE
  5
214
330
1F
100
AcDbEntity
  8
0-B_寸法
  6
Continuous
 62
   120
370
     5
100
AcDbLine
 10
-5402.336144428922
 20
1.567184926626339
 30
0.0
 11
-5402.336144428922
 21
-178.4328150733737
 31
0.0
  0
LWPOLYLINE
  5
215
330
1F
100
AcDbEntity
  8
0-B_寸法
  6
Continuous
 62
     7
370
     9
100
AcDbPolyline
 90
        4
 70
     1
 43
3.0
 10
-5400.836144428921
 20
-178.4328150733737
 42
0.4142135623731
 10
-5402.336144428922
 20
-176.9328150733737
 42
0.4142135623731
 10
-5403.836144428922
 20
-178.4328150733737
 42
0.4142135623731
 10
-5402.336144428922
 20
-179.9328150733737
 42
0.4142135623731
  0
LINE
  5
216
330
1F
100
AcDbEntity
  8
0-B_寸法
  6
Continuous
 62
   120
370
     5
100
AcDbLine
 10
-5402.336144428922
 20
-178.4328150733737
 30
0.0
 11
-5252.336144428922
 21
-178.4328150733737
 31
0.0
  0
TEXT
  5
217
330
1F
100
AcDbEntity
  8
0-B_寸法
  6
Continuous
 62
     7
370
   211
100
AcDbText
 10
-5430.026144428922
 20
-163.4328150733737
 30
0.0
 40
68.58
  1
120
 50
90.0
 41
1.111111111111111
  7
ＭＳ ゴシック
100
AcDbText
  0
LINE
  5
218
330
1F
100
AcDbEntity
  8
0-B_寸法
  6
Continuous
 62
   120
370
     5
100
AcDbLine
 10
-5402.336144428922
 20
-178.4328150733737
 30
0.0
 11
-5402.336144428922
 21
-182.932815073373
 31
0.0
  0
LWPOLYLINE
  5
219
330
1F
100
AcDbEntity
  8
0-B_寸法
  6
Continuous
 62
     7
370
     9
100
AcDbPolyline
 90
        4
 70
     1
 43
3.0
 10
-5400.836144428921
 20
-182.932815073373
 42
0.4142135623731
 10
-5402.336144428922
 20
-181.432815073373
 42
0.4142135623731
 10
-5403.836144428922
 20
-182.932815073373
 42
0.4142135623731
 10
-5402.336144428922
 20
-184.432815073373
 42
0.4142135623731
  0
LINE
  5
21A
330
1F
100
AcDbEntity
  8
0-B_寸法
  6
Continuous
 62
   120
370
     5
100
AcDbLine
 10
-5402.336144428922
 20
-182.932815073373
 30
0.0
 11
-5252.336144428922
 21
-182.932815073373
 31
0.0
  0
LINE
  5
21B
330
1F
100
AcDbEntity
  8
0-B_寸法
  6
Continuous
 62
   120
370
     5
100
AcDbLine
 10
-5402.336144428922
 20
-182.932815073373
 30
0.0
 11
-5402.336144428922
 21
-1012.432815073374
 31
0.0
  0
LWPOLYLINE
  5
21C
330
1F
100
AcDbEntity
  8
0-B_寸法
  6
Continuous
 62
     7
370
     9
100
AcDbPolyline
 90
        4
 70
     1
 43
3.0
 10
-5400.836144428921
 20
-1012.432815073374
 42
0.4142135623731
 10
-5402.336144428922
 20
-1010.932815073374
 42
0.4142135623731
 10
-5403.836144428922
 20
-1012.432815073374
 42
0.4142135623731
 10
-5402.336144428922
 20
-1013.932815073374
 42
0.4142135623731
  0
LINE
  5
21D
330
1F
100
AcDbEntity
  8
0-B_寸法
  6
Continuous
 62
   120
370
     5
100
AcDbLine
 10
-5402.336144428922
 20
-1012.432815073374
 30
0.0
 11
-5252.336144428922
 21
-1012.432815073374
 31
0.0
  0
LINE
  5
21E
330
1F
100
AcDbEntity
  8
0-B_寸法
  6
Continuous
 62
   120
370
     5
100
AcDbLine
 10
-5402.336144428922
 20
-1012.432815073374
 30
0.0
 11
-5402.336144428922
 21
-1162.433493146858
 31
0.0
  0
LWPOLYLINE
  5
21F
330
1F
100
AcDbEntity
  8
0-B_寸法
  6
Continuous
 62
     7
370
     9
100
AcDbPolyline
 90
        4
 70
     1
 43
3.0
 10
-5400.836144428921
 20
-1162.433493146858
 42
0.4142135623731
 10
-5402.336144428922
 20
-1160.933493146858
 42
0.4142135623731
 10
-5403.836144428922
 20
-1162.433493146858
 42
0.4142135623731
 10
-5402.336144428922
 20
-1163.933493146858
 42
0.4142135623731
  0
LINE
  5
220
330
1F
100
AcDbEntity
  8
0-B_寸法
  6
Continuous
 62
   120
370
     5
100
AcDbLine
 10
-5552.336144428922
 20
-1162.433493146858
 30
0.0
 11
-5252.336144428922
 21
-1162.433493146858
 31
0.0
  0
TEXT
  5
221
330
1F
100
AcDbEntity
  8
0-B_寸法
  6
Continuous
 62
     7
370
   211
100
AcDbText
 10
-5430.026144428922
 20
-1162.433154110116
 30
0.0
 40
68.58
  1
100
 50
90.0
 41
1.111111111111111
  7
ＭＳ ゴシック
100
AcDbText
  0
TEXT
  5
222
330
1F
100
AcDbEntity
  8
0-B_寸法
  6
Continuous
 62
     7
370
   211
100
AcDbText
 10
-5430.026144428922
 20
-237.5508172033287
 30
0.0
 40
68.58
  1
3
 50
90.0
  7
ＭＳ ゴシック
100
AcDbText
  0
TEXT
  5
223
330
1F
100
AcDbEntity
  8
0-B_寸法
  6
Continuous
 62
     7
370
   211
100
AcDbText
 10
-5430.026144428922
 20
15.18936996280502
 30
0.0
 40
68.58
  1
3
 50
90.0
  7
ＭＳ ゴシック
100
AcDbText
  0
LINE
  5
224
330
1F
100
AcDbEntity
  8
0-B_寸法
  6
Continuous
 62
   120
370
     5
100
AcDbLine
 10
-5552.336144428922
 20
-1162.433493146858
 30
0.0
 11
-5552.336144428922
 21
1.567184926626339
 31
0.0
  0
LWPOLYLINE
  5
225
330
1F
100
AcDbEntity
  8
0-B_寸法
  6
Continuous
 62
     7
370
     9
100
AcDbPolyline
 90
        4
 70
     1
 43
3.0
 10
-5550.836144428921
 20
-1162.433493146858
 42
0.4142135623731
 10
-5552.336144428922
 20
-1160.933493146858
 42
0.4142135623731
 10
-5553.836144428922
 20
-1162.433493146858
 42
0.4142135623731
 10
-5552.336144428922
 20
-1163.933493146858
 42
0.4142135623731
  0
LWPOLYLINE
  5
226
330
1F
100
AcDbEntity
  8
0-B_寸法
  6
Continuous
 62
     7
370
     9
100
AcDbPolyline
 90
        4
 70
     1
 43
3.0
 10
-5550.836144428921
 20
1.567184926626339
 42
0.4142135623731
 10
-5552.336144428922
 20
3.067184926626339
 42
0.4142135623731
 10
-5553.836144428922
 20
1.567184926626339
 42
0.4142135623731
 10
-5552.336144428922
 20
0.0671849266263393
 42
0.4142135623731
  0
TEXT
  5
227
330
1F
100
AcDbEntity
  8
0-B_寸法
  6
Continuous
 62
     7
370
   211
100
AcDbText
 10
-5580.026144428922
 20
-655.4331541101153
 30
0.0
 40
68.58
  1
776
 50
90.0
 41
1.111111111111111
  7
ＭＳ ゴシック
100
AcDbText
  0
TEXT
  5
228
330
1F
100
AcDbEntity
  8
0-B_寸法
  6
Continuous
 62
     7
370
   211
100
AcDbText
 10
-5430.026144428922
 20
-830.1828150733735
 30
0.0
 40
68.58
  1
ＤＨ＝553
 50
90.0
 41
1.148148148148148
  7
ＭＳ ゴシック
100
AcDbText
  0
LINE
  5
229
330
1F
100
AcDbEntity
  8
0-0_補助線
  6
JWW_HOJO
 62
   120
370
     5
100
AcDbLine
 10
-5252.336144428922
 20
-1237.433493146858
 30
0.0
 11
-5252.336144428922
 21
135.0665068531421
 31
0.0
  0
LINE
  5
22A
330
1F
100
AcDbEntity
  8
0-0_補助線
  6
JWW_HOJO
 62
   120
370
     5
100
AcDbLine
 10
-5402.336144428922
 20
-1237.433493146858
 30
0.0
 11
-5402.336144428922
 21
135.0665068531421
 31
0.0
  0
LINE
  5
22B
330
1F
100
AcDbEntity
  8
0-0_補助線
  6
JWW_HOJO
 62
   120
370
     5
100
AcDbLine
 10
-661.0776377219997
 20
-1237.433493146858
 30
0.0
 11
-661.0776377219997
 21
135.0665068531421
 31
0.0
  0
LINE
  5
22C
330
1F
100
AcDbEntity
  8
0-0_補助線
  6
JWW_HOJO
 62
   120
370
     5
100
AcDbLine
 10
-811.0776377219997
 20
-1237.433493146858
 30
0.0
 11
-811.0776377219997
 21
135.0665068531421
 31
0.0
  0
LINE
  5
22D
330
1F
100
AcDbEntity
  8
0-6_桟木
  6
Continuous
 62
    92
370
    13
100
AcDbLine
 10
-556.0776377219997
 20
6.066506853141789
 30
0.0
 11
-556.0776377219997
 21
60.06650685314213
 31
0.0
  0
LINE
  5
22E
330
1F
100
AcDbEntity
  8
0-B_寸法
  6
Continuous
 62
   120
370
     5
100
AcDbLine
 10
-556.0776377219997
 20
435.066506853143
 30
0.0
 11
-556.0776377219997
 21
135.0665068531421
 31
0.0
  0
LWPOLYLINE
  5
22F
330
1F
100
AcDbEntity
  8
0-B_寸法
  6
Continuous
 62
     7
370
     9
100
AcDbPolyline
 90
        4
 70
     1
 43
3.0
 10
-554.5776377219997
 20
435.066506853143
 42
0.4142135623731
 10
-556.0776377219997
 20
436.566506853143
 42
0.4142135623731
 10
-557.5776377219997
 20
435.066506853143
 42
0.4142135623731
 10
-556.0776377219997
 20
433.566506853143
 42
0.4142135623731
  0
LINE
  5
230
330
1F
100
AcDbEntity
  8
0-6_桟木
  6
Continuous
 62
    92
370
    13
100
AcDbLine
 10
-5147.33608080154
 20
6.066506853141789
 30
0.0
 11
-5147.33608080154
 21
60.06650685314213
 31
0.0
  0
LWPOLYLINE
  5
231
330
1F
100
AcDbEntity
  8
0-B_寸法
  6
Continuous
 62
     7
370
     9
100
AcDbPolyline
 90
        4
 70
     1
 43
3.0
 10
-5145.83608080154
 20
435.066506853143
 42
0.4142135623731
 10
-5147.33608080154
 20
436.566506853143
 42
0.4142135623731
 10
-5148.83608080154
 20
435.066506853143
 42
0.4142135623731
 10
-5147.33608080154
 20
433.566506853143
 42
0.4142135623731
  0
LINE
  5
232
330
1F
100
AcDbEntity
  8
0-B_寸法
  6
Continuous
 62
   120
370
     5
100
AcDbLine
 10
-5147.33608080154
 20
435.066506853143
 30
0.0
 11
-5147.33608080154
 21
135.0665068531421
 31
0.0
  0
TEXT
  5
233
330
1F
100
AcDbEntity
  8
0-A_文字
  6
Continuous
 62
     7
370
   211
100
AcDbText
 10
-766.3076780971631
 20
312.7565068531421
 30
0.0
 40
68.58
  1
15.5
 41
1.125
  7
ＭＳ ゴシック
100
AcDbText
  0
TEXT
  5
234
330
1F
100
AcDbEntity
  8
0-B_寸法
  6
Continuous
 62
     7
370
   211
100
AcDbText
 10
3571.232383487128
 20
-1102.058493146858
 30
0.0
 40
68.58
  1
15.5
 50
90.0
 41
1.125
  7
ＭＳ ゴシック
100
AcDbText
  0
TEXT
  5
235
330
1F
100
AcDbEntity
  8
0-B_寸法
  6
Continuous
 62
     7
370
   211
100
AcDbText
 10
3571.232383487128
 20
-289.8084931468577
 30
0.0
 40
68.58
  1
15.5
 50
90.0
 41
1.125
  7
ＭＳ ゴシック
100
AcDbText
  0
TEXT
  5
236
330
1F
100
AcDbEntity
  8
0-B_寸法
  6
Continuous
 62
     7
370
   211
100
AcDbText
 10
3451.232383487128
 20
-1162.433493146858
 30
0.0
 40
68.58
  1
100
 50
90.0
 41
1.111111111111111
  7
ＭＳ ゴシック
100
AcDbText
  0
LINE
  5
237
330
1F
100
AcDbEntity
  8
0-B_寸法
  6
Continuous
 62
   120
370
     5
100
AcDbLine
 10
3478.922383487128
 20
-1162.433493146858
 30
0.0
 11
3328.922383487128
 21
-1162.433493146858
 31
0.0
  0
LWPOLYLINE
  5
238
330
1F
100
AcDbEntity
  8
0-B_寸法
  6
Continuous
 62
     7
370
     9
100
AcDbPolyline
 90
        4
 70
     1
 43
3.0
 10
3480.422383487128
 20
-1162.433493146858
 42
0.4142135623731
 10
3478.922383487128
 20
-1160.933493146858
 42
0.4142135623731
 10
3477.422383487129
 20
-1162.433493146858
 42
0.4142135623731
 10
3478.922383487128
 20
-1163.933493146858
 42
0.4142135623731
  0
LINE
  5
239
330
1F
100
AcDbEntity
  8
0-B_寸法
  6
Continuous
 62
   120
370
     5
100
AcDbLine
 10
3478.922383487128
 20
-1012.433493146858
 30
0.0
 11
3478.922383487128
 21
-1162.433493146858
 31
0.0
  0
LINE
  5
23A
330
1F
100
AcDbEntity
  8
0-B_寸法
  6
Continuous
 62
   120
370
     5
100
AcDbLine
 10
3478.922383487128
 20
-1012.433493146858
 30
0.0
 11
3328.922383487128
 21
-1012.433493146858
 31
0.0
  0
LWPOLYLINE
  5
23B
330
1F
100
AcDbEntity
  8
0-B_寸法
  6
Continuous
 62
     7
370
     9
100
AcDbPolyline
 90
        4
 70
     1
 43
3.0
 10
3480.422383487128
 20
-1012.433493146858
 42
0.4142135623731
 10
3478.922383487128
 20
-1010.933493146858
 42
0.4142135623731
 10
3477.422383487129
 20
-1012.433493146858
 42
0.4142135623731
 10
3478.922383487128
 20
-1013.933493146858
 42
0.4142135623731
  0
LINE
  5
23C
330
1F
100
AcDbEntity
  8
0-B_寸法
  6
Continuous
 62
   120
370
     5
100
AcDbLine
 10
3478.922383487128
 20
-989.1834931468577
 30
0.0
 11
3478.922383487128
 21
-1012.433493146858
 31
0.0
  0
TEXT
  5
23D
330
1F
100
AcDbEntity
  8
0-B_寸法
  6
Continuous
 62
     7
370
   211
100
AcDbText
 10
3451.232383487128
 20
-669.6834931468579
 30
0.0
 40
68.58
  1
526
 50
90.0
 41
1.111111111111111
  7
ＭＳ ゴシック
100
AcDbText
  0
LINE
  5
23E
330
1F
100
AcDbEntity
  8
0-B_寸法
  6
Continuous
 62
   120
370
     5
100
AcDbLine
 10
3478.922383487128
 20
-989.1834931468577
 30
0.0
 11
3328.922383487128
 21
-989.1834931468577
 31
0.0
  0
LWPOLYLINE
  5
23F
330
1F
100
AcDbEntity
  8
0-B_寸法
  6
Continuous
 62
     7
370
     9
100
AcDbPolyline
 90
        4
 70
     1
 43
3.0
 10
3480.422383487128
 20
-989.1834931468577
 42
0.4142135623731
 10
3478.922383487128
 20
-987.6834931468578
 42
0.4142135623731
 10
3477.422383487129
 20
-989.1834931468577
 42
0.4142135623731
 10
3478.922383487128
 20
-990.6834931468576
 42
0.4142135623731
  0
LINE
  5
240
330
1F
100
AcDbEntity
  8
0-B_寸法
  6
Continuous
 62
   120
370
     5
100
AcDbLine
 10
3478.922383487128
 20
-200.1834931468582
 30
0.0
 11
3478.922383487128
 21
-989.1834931468577
 31
0.0
  0
LINE
  5
241
330
1F
100
AcDbEntity
  8
0-B_寸法
  6
Continuous
 62
   120
370
     5
100
AcDbLine
 10
3478.922383487128
 20
-200.1834931468582
 30
0.0
 11
3328.922383487128
 21
-200.1834931468582
 31
0.0
  0
LWPOLYLINE
  5
242
330
1F
100
AcDbEntity
  8
0-B_寸法
  6
Continuous
 62
     7
370
     9
100
AcDbPolyline
 90
        4
 70
     1
 43
3.0
 10
3480.422383487128
 20
-200.1834931468582
 42
0.4142135623731
 10
3478.922383487128
 20
-198.6834931468582
 42
0.4142135623731
 10
3477.422383487129
 20
-200.1834931468582
 42
0.4142135623731
 10
3478.922383487128
 20
-201.6834931468582
 42
0.4142135623731
  0
LINE
  5
243
330
1F
100
AcDbEntity
  8
0-B_寸法
  6
Continuous
 62
   120
370
     5
100
AcDbLine
 10
3478.922383487128
 20
-176.933493146858
 30
0.0
 11
3478.922383487128
 21
-200.1834931468582
 31
0.0
  0
TEXT
  5
244
330
1F
100
AcDbEntity
  8
0-B_寸法
  6
Continuous
 62
     7
370
   211
100
AcDbText
 10
3451.232383487128
 20
-171.6834931468568
 30
0.0
 40
68.58
  1
107
 50
90.0
 41
1.111111111111111
  7
ＭＳ ゴシック
100
AcDbText
  0
LINE
  5
245
330
1F
100
AcDbEntity
  8
0-B_寸法
  6
Continuous
 62
   120
370
     5
100
AcDbLine
 10
3478.922383487128
 20
-176.933493146858
 30
0.0
 11
3328.922383487128
 21
-176.933493146858
 31
0.0
  0
LWPOLYLINE
  5
246
330
1F
100
AcDbEntity
  8
0-B_寸法
  6
Continuous
 62
     7
370
     9
100
AcDbPolyline
 90
        4
 70
     1
 43
3.0
 10
3480.422383487128
 20
-176.933493146858
 42
0.4142135623731
 10
3478.922383487128
 20
-175.433493146858
 42
0.4142135623731
 10
3477.422383487129
 20
-176.933493146858
 42
0.4142135623731
 10
3478.922383487128
 20
-178.433493146858
 42
0.4142135623731
  0
LINE
  5
247
330
1F
100
AcDbEntity
  8
0-B_寸法
  6
Continuous
 62
   120
370
     5
100
AcDbLine
 10
3478.922383487128
 20
-16.43349314685821
 30
0.0
 11
3478.922383487128
 21
-176.933493146858
 31
0.0
  0
LINE
  5
248
330
1F
100
AcDbEntity
  8
0-B_寸法
  6
Continuous
 62
   120
370
     5
100
AcDbLine
 10
3478.922383487128
 20
-16.43349314685821
 30
0.0
 11
3328.922383487128
 21
-16.43349314685821
 31
0.0
  0
LINE
  5
249
330
1F
100
AcDbEntity
  8
0-B_寸法
  6
Continuous
 62
   120
370
     5
100
AcDbLine
 10
3478.922383487128
 20
6.066506853141789
 30
0.0
 11
3328.922383487128
 21
6.066506853141789
 31
0.0
  0
LWPOLYLINE
  5
24A
330
1F
100
AcDbEntity
  8
0-B_寸法
  6
Continuous
 62
     7
370
     9
100
AcDbPolyline
 90
        4
 70
     1
 43
3.0
 10
3480.422383487128
 20
-16.43349314685821
 42
0.4142135623731
 10
3478.922383487128
 20
-14.93349314685821
 42
0.4142135623731
 10
3477.422383487129
 20
-16.43349314685821
 42
0.4142135623731
 10
3478.922383487128
 20
-17.93349314685821
 42
0.4142135623731
  0
LINE
  5
24B
330
1F
100
AcDbEntity
  8
0-B_寸法
  6
Continuous
 62
   120
370
     5
100
AcDbLine
 10
3478.922383487128
 20
6.066506853141789
 30
0.0
 11
3478.922383487128
 21
-16.43349314685821
 31
0.0
  0
LWPOLYLINE
  5
24C
330
1F
100
AcDbEntity
  8
0-B_寸法
  6
Continuous
 62
     7
370
     9
100
AcDbPolyline
 90
        4
 70
     1
 43
3.0
 10
3480.422383487128
 20
6.066506853141789
 42
0.4142135623731
 10
3478.922383487128
 20
7.566506853141789
 42
0.4142135623731
 10
3477.422383487129
 20
6.066506853141789
 42
0.4142135623731
 10
3478.922383487128
 20
4.566506853141789
 42
0.4142135623731
  0
LINE
  5
24D
330
1F
100
AcDbEntity
  8
0-0_補助線
  6
JWW_HOJO
 62
   120
370
     5
100
AcDbLine
 10
3328.922383487128
 20
135.0665068531421
 30
0.0
 11
3328.922383487128
 21
-1237.433493146858
 31
0.0
  0
TEXT
  5
24E
330
1F
100
AcDbEntity
  8
0-B_寸法
  6
Continuous
 62
     7
370
   211
100
AcDbText
 10
3571.232383487128
 20
17.50755893203461
 30
0.0
 40
68.58
  1
15
 50
90.0
 41
1.083333333333333
  7
ＭＳ ゴシック
100
AcDbText
  0
LINE
  5
24F
330
1F
100
AcDbEntity
  8
0-B_寸法
  6
Continuous
 62
   120
370
     5
100
AcDbLine
 10
3478.922383487128
 20
6.066513061523438
 30
0.0
 11
3478.922383487128
 21
60.06650685314213
 31
0.0
  0
LWPOLYLINE
  5
250
330
1F
100
AcDbEntity
  8
0-B_寸法
  6
Continuous
 62
     7
370
     9
100
AcDbPolyline
 90
        4
 70
     1
 43
3.0
 10
3480.422383487128
 20
6.066513061523438
 42
0.4142135623731
 10
3478.922383487128
 20
7.566513061523438
 42
0.4142135623731
 10
3477.422383487129
 20
6.066513061523438
 42
0.4142135623731
 10
3478.922383487128
 20
4.566513061523438
 42
0.4142135623731
  0
LWPOLYLINE
  5
251
330
1F
100
AcDbEntity
  8
0-B_寸法
  6
Continuous
 62
     7
370
     9
100
AcDbPolyline
 90
        4
 70
     1
 43
3.0
 10
3480.422383487128
 20
60.06650685314213
 42
0.4142135623731
 10
3478.922383487128
 20
61.56650685314212
 42
0.4142135623731
 10
3477.422383487129
 20
60.06650685314213
 42
0.4142135623731
 10
3478.922383487128
 20
58.56650685314213
 42
0.4142135623731
  0
LINE
  5
252
330
1F
100
AcDbEntity
  8
0-B_寸法
  6
Continuous
 62
   120
370
     5
100
AcDbLine
 10
3478.922383487128
 20
6.066513061523438
 30
0.0
 11
3328.922383487128
 21
6.066513061523438
 31
0.0
  0
LINE
  5
253
330
1F
100
AcDbEntity
  8
0-B_寸法
  6
Continuous
 62
   120
370
     5
100
AcDbLine
 10
3478.922383487128
 20
60.06650685314213
 30
0.0
 11
3328.922383487128
 21
60.06650685314213
 31
0.0
  0
TEXT
  5
254
330
1F
100
AcDbEntity
  8
0-B_寸法
  6
Continuous
 62
     7
370
   211
100
AcDbText
 10
3451.232383487128
 20
72.16829657372898
 30
0.0
 40
68.58
  1
36
 50
90.0
 41
1.083333333333333
  7
ＭＳ ゴシック
100
AcDbText
  0
LINE
  5
255
330
1F
100
AcDbEntity
  8
0-0_補助線
  6
JWW_HOJO
 62
   120
370
     5
100
AcDbLine
 10
-1262.336123219795
 20
135.0665068531421
 30
0.0
 11
-1262.336123219795
 21
-1237.433493146858
 31
0.0
  0
LINE
  5
256
330
1F
100
AcDbEntity
  8
0-6_桟木
  6
Continuous
 62
    92
370
    13
100
AcDbLine
 10
3223.922425905384
 20
60.06650685314213
 30
0.0
 11
3223.922425905384
 21
6.066506853141789
 31
0.0
  0
LWPOLYLINE
  5
257
330
1F
100
AcDbEntity
  8
0-B_寸法
  6
Continuous
 62
     7
370
     9
100
AcDbPolyline
 90
        4
 70
     1
 43
3.0
 10
3225.422425905384
 20
435.066506853143
 42
0.4142135623731
 10
3223.922425905384
 20
436.566506853143
 42
0.4142135623731
 10
3222.422425905384
 20
435.066506853143
 42
0.4142135623731
 10
3223.922425905384
 20
433.566506853143
 42
0.4142135623731
  0
LINE
  5
258
330
1F
100
AcDbEntity
  8
0-B_寸法
  6
Continuous
 62
   120
370
     5
100
AcDbLine
 10
3223.922425905384
 20
435.066506853143
 30
0.0
 11
3223.922425905384
 21
135.0665068531421
 31
0.0
  0
LINE
  5
259
330
1F
100
AcDbEntity
  8
0-6_桟木
  6
Continuous
 62
    92
370
    13
100
AcDbLine
 10
-1367.33608080154
 20
60.06650685314213
 30
0.0
 11
-1367.33608080154
 21
6.066506853141789
 31
0.0
  0
LWPOLYLINE
  5
25A
330
1F
100
AcDbEntity
  8
0-B_寸法
  6
Continuous
 62
     7
370
     9
100
AcDbPolyline
 90
        4
 70
     1
 43
3.0
 10
-1365.83608080154
 20
435.066506853143
 42
0.4142135623731
 10
-1367.33608080154
 20
436.566506853143
 42
0.4142135623731
 10
-1368.83608080154
 20
435.066506853143
 42
0.4142135623731
 10
-1367.33608080154
 20
433.566506853143
 42
0.4142135623731
  0
LINE
  5
25B
330
1F
100
AcDbEntity
  8
0-0_補助線
  6
JWW_HOJO
 62
   120
370
     5
100
AcDbLine
 10
-1262.336123219795
 20
-1237.433493146858
 30
0.0
 11
-5402.336144428922
 21
-1237.433493146858
 31
0.0
  0
LINE
  5
25C
330
1F
100
AcDbEntity
  8
0-0_補助線
  6
JWW_HOJO
 62
   120
370
     5
100
AcDbLine
 10
-5402.336144428922
 20
135.0665068531421
 30
0.0
 11
-1262.336123219795
 21
135.0665068531421
 31
0.0
  0
LINE
  5
25D
330
1F
100
AcDbEntity
  8
0-0_補助線
  6
JWW_HOJO
 62
   120
370
     5
100
AcDbLine
 10
3328.922383487128
 20
-1237.433493146858
 30
0.0
 11
-811.0776377219997
 21
-1237.433493146858
 31
0.0
  0
LINE
  5
25E
330
1F
100
AcDbEntity
  8
0-0_補助線
  6
JWW_HOJO
 62
   120
370
     5
100
AcDbLine
 10
-811.0776377219997
 20
135.0665068531421
 30
0.0
 11
3328.922383487128
 21
135.0665068531421
 31
0.0
  0
LINE
  5
25F
330
1F
100
AcDbEntity
  8
0-6_桟木
  6
Continuous
 62
    92
370
    13
100
AcDbLine
 10
3223.922425905384
 20
6.066506853141789
 30
0.0
 11
-556.0776377219997
 21
6.066506853141789
 31
0.0
  0
LINE
  5
260
330
1F
100
AcDbEntity
  8
0-6_桟木
  6
Continuous
 62
    92
370
    13
100
AcDbLine
 10
-556.0776377219997
 20
60.06650685314213
 30
0.0
 11
3223.922425905384
 21
60.06650685314213
 31
0.0
  0
LINE
  5
261
330
1F
100
AcDbEntity
  8
0-B_寸法
  6
Continuous
 62
   120
370
     5
100
AcDbLine
 10
3223.922425905384
 20
435.066506853143
 30
0.0
 11
-556.0776377219997
 21
435.066506853143
 31
0.0
  0
LINE
  5
262
330
1F
100
AcDbEntity
  8
0-6_桟木
  6
Continuous
 62
    92
370
    13
100
AcDbLine
 10
-1367.33608080154
 20
6.066506853141789
 30
0.0
 11
-5147.33608080154
 21
6.066506853141789
 31
0.0
  0
LINE
  5
263
330
1F
100
AcDbEntity
  8
0-6_桟木
  6
Continuous
 62
    92
370
    13
100
AcDbLine
 10
-5147.33608080154
 20
60.06650685314213
 30
0.0
 11
-1367.33608080154
 21
60.06650685314213
 31
0.0
  0
LINE
  5
264
330
1F
100
AcDbEntity
  8
0-B_寸法
  6
Continuous
 62
   120
370
     5
100
AcDbLine
 10
-5147.33608080154
 20
435.066506853143
 30
0.0
 11
-1367.33608080154
 21
435.066506853143
 31
0.0
  0
TEXT
  5
265
330
1F
100
AcDbEntity
  8
0-B_寸法
  6
Continuous
 62
     7
370
   211
100
AcDbText
 10
-1353.632568414478
 20
312.7565068531421
 30
0.0
 40
68.58
  1
2
  7
ＭＳ ゴシック
100
AcDbText
  0
TEXT
  5
266
330
1F
100
AcDbEntity
  8
0-B_寸法
  6
Continuous
 62
     7
370
   211
100
AcDbText
 10
-5203.473493737496
 20
312.7565068531421
 30
0.0
 40
68.58
  1
2
  7
ＭＳ ゴシック
100
AcDbText
  0
TEXT
  5
267
330
1F
100
AcDbEntity
  8
0-B_寸法
  6
Continuous
 62
     7
370
   211
100
AcDbText
 10
-3384.836080801539
 20
462.756506853143
 30
0.0
 40
68.58
  1
2,520
 41
1.133333333333333
  7
ＭＳ ゴシック
100
AcDbText
  0
LINE
  5
268
330
1F
100
AcDbEntity
  8
F-1_枠
  6
Continuous
 62
   200
370
    20
100
AcDbLine
 10
5689.998977248734
 20
4174.999769056166
 30
0.0
 11
5689.998977248734
 21
-4195.000217025344
 31
0.0
  0
LINE
  5
269
330
1F
100
AcDbEntity
  8
F-0_補助線
  6
JWW_HOJO
 62
   120
370
     5
100
AcDbLine
 10
-6300.0
 20
-4455.0
 30
0.0
 11
-6300.0
 21
4424.999604096284
 31
0.0
  0
LINE
  5
26A
330
1F
100
AcDbEntity
  8
F-0_補助線
  6
JWW_HOJO
 62
   120
370
     5
100
AcDbLine
 10
-6300.0
 20
4424.999604096284
 30
0.0
 11
5999.999010240709
 21
4424.999604096284
 31
0.0
  0
LINE
  5
26B
330
1F
100
AcDbEntity
  8
F-0_補助線
  6
JWW_HOJO
 62
   120
370
     5
100
AcDbLine
 10
5999.999010240709
 20
4424.999604096284
 30
0.0
 11
5999.999010240709
 21
-4455.0
 31
0.0
  0
LINE
  5
26C
330
1F
100
AcDbEntity
  8
F-0_補助線
  6
JWW_HOJO
 62
   120
370
     5
100
AcDbLine
 10
5999.999010240709
 20
-4455.0
 30
0.0
 11
-6300.0
 21
-4455.0
 31
0.0
  0
LINE
  5
26D
330
1F
100
AcDbEntity
  8
F-1_枠
  6
Continuous
 62
   200
370
    20
100
AcDbLine
 10
-5999.999752560178
 20
4174.999769056166
 30
0.0
 11
5699.998762800888
 21
4174.999769056166
 31
0.0
  0
LINE
  5
26E
330
1F
100
AcDbEntity
  8
F-1_枠
  6
Continuous
 62
   200
370
    20
100
AcDbLine
 10
-5999.999752560178
 20
4164.999983504013
 30
0.0
 11
5699.998762800888
 21
4164.999983504013
 31
0.0
  0
LINE
  5
26F
330
1F
100
AcDbEntity
  8
F-1_枠
  6
Continuous
 62
   200
370
    20
100
AcDbLine
 10
-5999.999752560178
 20
4169.999505120355
 30
0.0
 11
5699.998762800888
 21
4169.999505120355
 31
0.0
  0
LINE
  5
270
330
1F
100
AcDbEntity
  8
F-1_枠
  6
Continuous
 62
   200
370
    20
100
AcDbLine
 10
5694.998498865077
 20
4174.999769056166
 30
0.0
 11
5694.998498865077
 21
-4195.000217025344
 31
0.0
  0
LINE
  5
271
330
1F
100
AcDbEntity
  8
F-1_枠
  6
Continuous
 62
   200
370
    20
100
AcDbLine
 10
5699.998762800888
 20
4174.999769056166
 30
0.0
 11
5699.998762800888
 21
-4195.000217025344
 31
0.0
  0
LINE
  5
272
330
1F
100
AcDbEntity
  8
F-1_枠
  6
Continuous
 62
   200
370
    20
100
AcDbLine
 10
-5999.99998453501
 20
4174.999769056166
 30
0.0
 11
-5999.99998453501
 21
-4195.000217025344
 31
0.0
  0
LINE
  5
273
330
1F
100
AcDbEntity
  8
F-1_枠
  6
Continuous
 62
   200
370
    20
100
AcDbLine
 10
-5994.999975771518
 20
4174.999769056166
 30
0.0
 11
-5994.999975771518
 21
-4195.000217025344
 31
0.0
  0
LINE
  5
274
330
1F
100
AcDbEntity
  8
F-1_枠
  6
Continuous
 62
   200
370
    20
100
AcDbLine
 10
-5989.999990205507
 20
4174.999769056166
 30
0.0
 11
-5989.999990205507
 21
-4195.000217025344
 31
0.0
  0
TEXT
  5
275
330
1F
100
AcDbEntity
  8
F-A_文字
  6
Continuous
 62
     7
370
     0
100
AcDbText
 10
-60.0001237199109
 20
-3861.539872937397
 30
0.0
 40
45.72
  1
図面名
  7
ＭＳ ゴシック
100
AcDbText
  0
TEXT
  5
276
330
1F
100
AcDbEntity
  8
F-A_文字
  6
Continuous
 62
     7
370
     0
100
AcDbText
 10
2779.998729808911
 20
-3861.542512683236
 30
0.0
 40
45.72
  1
ＳＣＡＬＥ
  7
ＭＳ ゴシック
100
AcDbText
  0
TEXT
  5
277
330
1F
100
AcDbEntity
  8
F-A_文字
  6
Continuous
 62
     7
370
     0
100
AcDbText
 10
4279.999224688556
 20
-3861.543906916216
 30
0.0
 40
45.72
  1
ＤＡＴＥ
  7
ＭＳ ゴシック
100
AcDbText
  0
TEXT
  5
278
330
1F
100
AcDbEntity
  8
F-A_文字
  6
Continuous
 62
     7
370
     0
100
AcDbText
 10
4778.749126529666
 20
-3909.814562205428
 30
0.0
 40
68.58
  1
07.06.01
 41
1.145833333333333
  7
ＭＳ ゴシック
100
AcDbText
  0
TEXT
  5
279
330
1F
100
AcDbEntity
  8
F-A_文字
  6
Continuous
 62
     7
370
     0
100
AcDbText
 10
1180.417701903719
 20
-3917.310213665301
 30
0.0
 40
68.58
  1
造り付け家具
 41
1.138888888888889
  7
ＭＳ ゴシック
100
AcDbText
  0
TEXT
  5
27A
330
1F
100
AcDbEntity
  8
F-A_文字
  6
Continuous
 62
     7
370
     0
100
AcDbText
 10
3383.748977248734
 20
-3917.31316797277
 30
0.0
 40
68.58
  1
1/20
 41
1.125
  7
ＭＳ ゴシック
100
AcDbText
  0
TEXT
  5
27B
330
1F
100
AcDbEntity
  8
F-A_文字
  6
Continuous
 62
     7
370
     0
100
AcDbText
 10
349.9999175200594
 20
-3918.097343937965
 30
0.0
 40
66.06
  1
ＳＯＦＴＡＲＴ
 41
0.8333333333333334
  7
HG明朝B
100
AcDbText
  0
LINE
  5
27C
330
1F
100
AcDbEntity
  8
F-0_補助線
  6
JWW_HOJO
 62
     7
370
     9
100
AcDbLine
 10
849.9995876002961
 20
-3785.00005515846
 30
0.0
 11
849.9995876002961
 21
-4185.000060313456
 31
0.0
  0
LINE
  5
27D
330
1F
100
AcDbEntity
  8
F-0_補助線
  6
JWW_HOJO
 62
     7
370
     9
100
AcDbLine
 10
349.9999175200594
 20
-3785.00005515846
 30
0.0
 11
349.9999175200594
 21
-4185.000060313456
 31
0.0
  0
LINE
  5
27E
330
1F
100
AcDbEntity
  8
F-1_枠
  6
Continuous
 62
   200
370
    20
100
AcDbLine
 10
5699.998762800888
 20
-4195.00005464296
 30
0.0
 11
-5999.999752560178
 21
-4195.00005464296
 31
0.0
  0
LINE
  5
27F
330
1F
100
AcDbEntity
  8
F-1_枠
  6
Continuous
 62
   200
370
    20
100
AcDbLine
 10
5699.998762800888
 20
-4190.000045879467
 30
0.0
 11
-5999.999752560178
 21
-4190.000045879467
 31
0.0
  0
LINE
  5
280
330
1F
100
AcDbEntity
  8
F-1_枠
  6
Continuous
 62
   200
370
    20
100
AcDbLine
 10
5699.998762800888
 20
-4185.000060313456
 30
0.0
 11
-5999.999752560178
 21
-4185.000060313456
 31
0.0
  0
LINE
  5
281
330
1F
100
AcDbEntity
  8
F-1_枠
  6
Continuous
 62
   200
370
    20
100
AcDbLine
 10
4189.999224688556
 20
-3785.00005515846
 30
0.0
 11
4189.999224688556
 21
-4185.000060313456
 31
0.0
  0
LINE
  5
282
330
1F
100
AcDbEntity
  8
F-1_枠
  6
Continuous
 62
   200
370
    20
100
AcDbLine
 10
2689.998729808911
 20
-3785.00005515846
 30
0.0
 11
2689.998729808911
 21
-4185.000060313456
 31
0.0
  0
LINE
  5
283
330
1F
100
AcDbEntity
  8
F-1_枠
  6
Continuous
 62
   200
370
    20
100
AcDbLine
 10
-150.0001237199109
 20
-3785.00005515846
 30
0.0
 11
-150.0001237199109
 21
-4185.000060313456
 31
0.0
  0
LINE
  5
284
330
1F
100
AcDbEntity
  8
F-1_枠
  6
Continuous
 62
   200
370
    20
100
AcDbLine
 10
-150.0001237199109
 20
-3984.999988143508
 30
0.0
 11
5689.998977248734
 21
-3985.005416354617
 31
0.0
  0
LINE
  5
285
330
1F
100
AcDbEntity
  8
F-0_補助線
  6
JWW_HOJO
 62
     7
370
     9
100
AcDbLine
 10
-5989.999990205507
 20
-3984.999988143853
 30
0.0
 11
-150.0001237199109
 21
-3984.999988143853
 31
0.0
  0
LINE
  5
286
330
1F
100
AcDbEntity
  8
F-0_補助線
  6
JWW_HOJO
 62
     7
370
     9
100
AcDbLine
 10
-5989.999990205507
 20
-3894.999988143853
 30
0.0
 11
-150.0001237199109
 21
-3894.999988143853
 31
0.0
  0
LINE
  5
287
330
1F
100
AcDbEntity
  8
F-0_補助線
  6
JWW_HOJO
 62
     7
370
     9
100
AcDbLine
 10
-5989.999990205507
 20
-4074.999988143853
 30
0.0
 11
-150.0001237199109
 21
-4074.999988143853
 31
0.0
  0
LINE
  5
288
330
1F
100
AcDbEntity
  8
F-0_補助線
  6
JWW_HOJO
 62
     7
370
     9
100
AcDbLine
 10
-150.0002584955388
 20
-4129.999791843446
 30
0.0
 11
5689.998842473105
 21
-4130.005220054553
 31
0.0
  0
LINE
  5
289
330
1F
100
AcDbEntity
  8
F-0_補助線
  6
JWW_HOJO
 62
     7
370
     9
100
AcDbLine
 10
-150.0001748415872
 20
-4039.999791843484
 30
0.0
 11
5689.998926127057
 21
-4040.005220054593
 31
0.0
  0
LINE
  5
28A
330
1F
100
AcDbEntity
  8
F-0_補助線
  6
JWW_HOJO
 62
     7
370
     9
100
AcDbLine
 10
-150.0000725978671
 20
-3929.999789283532
 30
0.0
 11
5689.999028370777
 21
-3930.005217494641
 31
0.0
  0
LINE
  5
28B
330
1F
100
AcDbEntity
  8
F-0_補助線
  6
JWW_HOJO
 62
     7
370
     9
100
AcDbLine
 10
-149.9999889439155
 20
-3839.999789283571
 30
0.0
 11
5689.999112024728
 21
-3840.00521749468
 31
0.0
  0
LINE
  5
28C
330
1F
100
AcDbEntity
  8
F-0_補助線
  6
JWW_HOJO
 62
     7
370
     9
100
AcDbLine
 10
2779.998729808911
 20
-3785.00005515846
 30
0.0
 11
2779.998729808911
 21
-4185.000060313456
 31
0.0
  0
LINE
  5
28D
330
1F
100
AcDbEntity
  8
F-0_補助線
  6
JWW_HOJO
 62
     7
370
     9
100
AcDbLine
 10
-60.0001237199109
 20
-3785.00005515846
 30
0.0
 11
-60.0001237199109
 21
-4185.000060313456
 31
0.0
  0
LINE
  5
28E
330
1F
100
AcDbEntity
  8
F-0_補助線
  6
JWW_HOJO
 62
     7
370
     9
100
AcDbLine
 10
4279.999224688556
 20
-3785.00005515846
 30
0.0
 11
4279.999224688556
 21
-4185.000060313456
 31
0.0
  0
TEXT
  5
28F
330
1F
100
AcDbEntity
  8
F-A_文字
  6
Continuous
 62
     7
370
     0
100
AcDbText
 10
2779.998729808911
 20
-4061.542515243322
 30
0.0
 40
45.72
  1
ＦＩＬＥ
  7
ＭＳ ゴシック
100
AcDbText
  0
TEXT
  5
290
330
1F
100
AcDbEntity
  8
F-A_文字
  6
Continuous
 62
     7
370
     0
100
AcDbText
 10
4279.999224688556
 20
-4061.543909476301
 30
0.0
 40
45.72
  1
ＮＯ．
  7
ＭＳ ゴシック
100
AcDbText
  0
TEXT
  5
291
330
1F
100
AcDbEntity
  8
F-A_文字
  6
Continuous
 62
     7
370
     0
100
AcDbText
 10
1234.998729808911
 20
-4070.54072133161
 30
0.0
 40
45.72
  1
株式
  7
ＭＳ ゴシック
100
AcDbText
  0
TEXT
  5
292
330
1F
100
AcDbEntity
  8
F-A_文字
  6
Continuous
 62
     7
370
     0
100
AcDbText
 10
1444.998729808911
 20
-4128.08243158939
 30
0.0
 40
91.44
  1
ウッドワン・・・
 41
1.109375
  7
ＭＳ ゴシック
100
AcDbText
  0
TEXT
  5
293
330
1F
100
AcDbEntity
  8
F-A_文字
  6
Continuous
 62
     7
370
     0
100
AcDbText
 10
1234.998729808911
 20
-4142.540721331648
 30
0.0
 40
45.72
  1
会社
  7
ＭＳ ゴシック
100
AcDbText
  0
TEXT
  5
294
330
1F
100
AcDbEntity
  8
F-A_文字
  6
Continuous
 62
     7
370
     0
100
AcDbText
 10
5608.403311109712
 20
-4281.441308703997
 30
0.0
 40
68.58
  1
）
  7
ＭＳ ゴシック
100
AcDbText
  0
LINE
  5
295
330
1F
100
AcDbEntity
  8
F-1_枠
  6
Continuous
 62
   200
370
    20
100
AcDbLine
 10
5699.998762800888
 20
-3785.00005515846
 30
0.0
 11
-5999.999752560178
 21
-3785.00005515846
 31
0.0
  0
LINE
  5
296
330
1F
100
AcDbEntity
  8
F-1_枠
  6
Continuous
 62
   200
370
    20
100
AcDbLine
 10
5699.998762800888
 20
-3780.00006959245
 30
0.0
 11
-5999.999752560178
 21
-3780.00006959245
 31
0.0
  0
LINE
  5
297
330
1F
100
AcDbEntity
  8
F-0_補助線
  6
JWW_HOJO
 62
     7
370
     9
100
AcDbLine
 10
-5247.547376752838
 20
-3785.000055158461
 30
0.0
 11
-5247.547376752838
 21
-4195.000217025344
 31
0.0
  0
LINE
  5
298
330
1F
100
AcDbEntity
  8
F-0_補助線
  6
JWW_HOJO
 62
     7
370
     9
100
AcDbLine
 10
-210.0001237199109
 20
-3785.00005515846
 30
0.0
 11
-210.0001237199109
 21
-4185.000060313456
 31
0.0
  0
TEXT
  5
299
330
1F
100
AcDbEntity
  8
F-A_文字
  6
Continuous
 62
     7
370
     0
100
AcDbText
 10
5190.195950842071
 20
-4282.835333552935
 30
0.0
 40
68.58
  1
,
  7
ＭＳ ゴシック
100
AcDbText
  0
TEXT
  5
29A
330
1F
100
AcDbEntity
  8
F-A_文字
  6
Continuous
 62
     7
370
     0
100
AcDbText
 10
4923.937261915373
 20
-4284.22935697136
 30
0.0
 40
68.58
  1
$y
 41
1.083333333333333
  7
ＭＳ ゴシック
100
AcDbText
  0
TEXT
  5
29B
330
1F
100
AcDbEntity
  8
F-A_文字
  6
Continuous
 62
     7
370
     0
100
AcDbText
 10
5078.673982954195
 20
-4284.22935697136
 30
0.0
 40
68.58
  1
$m
 41
1.083333333333333
  7
ＭＳ ゴシック
100
AcDbText
  0
TEXT
  5
29C
330
1F
100
AcDbEntity
  8
F-A_文字
  6
Continuous
 62
     7
370
     0
100
AcDbText
 10
5233.410715437103
 20
-4284.22935697136
 30
0.0
 40
68.58
  1
$d
 41
1.083333333333333
  7
ＭＳ ゴシック
100
AcDbText
  0
TEXT
  5
29D
330
1F
100
AcDbEntity
  8
F-A_文字
  6
Continuous
 62
     7
370
     0
100
AcDbText
 10
5388.147447920011
 20
-4284.22935697136
 30
0.0
 40
68.58
  1
印刷
 41
1.083333333333333
  7
ＭＳ ゴシック
100
AcDbText
  0
TEXT
  5
29E
330
1F
100
AcDbEntity
  8
F-A_文字
  6
Continuous
 62
     7
370
     0
100
AcDbText
 10
4784.033374252999
 20
-4285.62338325081
 30
0.0
 40
68.58
  1
（
  7
ＭＳ ゴシック
100
AcDbText
  0
TEXT
  5
29F
330
1F
100
AcDbEntity
  8
F-A_文字
  6
Continuous
 62
     7
370
     0
100
AcDbText
 10
5031.277143812345
 20
-4285.62338325081
 30
0.0
 40
68.58
  1
,
  7
ＭＳ ゴシック
100
AcDbText
  0
TEXT
  5
2A0
330
1F
100
AcDbEntity
  8
F-A_文字
  6
Continuous
 62
     7
370
     9
100
AcDbText
 10
3226.248977248734
 20
-4117.313170532875
 30
0.0
 40
68.58
  1
MQP02A_C02
 41
1.15
  7
ＭＳ ゴシック
100
AcDbText
  0
TEXT
  5
2A1
330
1F
100
AcDbEntity
  8
F-A_文字
  6
Continuous
 62
     7
370
     9
100
AcDbText
 10
4936.249033580831
 20
-4117.314564765447
 30
0.0
 40
68.58
  1
02
 41
1.083333333333333
  7
ＭＳ ゴシック
100
AcDbText
  0
TEXT
  5
2A2
330
1F
100
AcDbEntity
  8
F-A_文字
  6
Continuous
 62
     7
370
     0
100
AcDbText
 10
-5239.999990205507
 20
-4017.309988143852
 30
0.0
 40
68.58
  1
ソフトアート　造り付け家具　参考プラン（リビング２）フラット
 41
1.161111111111111
  7
ＭＳ ゴシック
100
AcDbText
  0
LWPOLYLINE
  5
2A3
330
1F
100
AcDbEntity
  8
0-B_寸法
  6
Continuous
 62
     7
370
     9
100
AcDbPolyline
 90
        4
 70
     1
 43
3.0
 10
5223.835896989101
 20
6.066506853141789
 42
0.4142135623731
 10
5222.335896989101
 20
7.566506853141789
 42
0.4142135623731
 10
5220.835896989101
 20
6.066506853141789
 42
0.4142135623731
 10
5222.335896989101
 20
4.566506853141789
 42
0.4142135623731
  0
LWPOLYLINE
  5
2A4
330
1F
100
AcDbEntity
  8
0-B_寸法
  6
Continuous
 62
     7
370
     9
100
AcDbPolyline
 90
        4
 70
     1
 43
3.0
 10
5223.835896989101
 20
-448.433493146859
 42
0.4142135623731
 10
5222.335896989101
 20
-446.933493146859
 42
0.4142135623731
 10
5220.835896989101
 20
-448.433493146859
 42
0.4142135623731
 10
5222.335896989101
 20
-449.9334931468591
 42
0.4142135623731
  0
LINE
  5
2A5
330
1F
100
AcDbEntity
  8
0-B_寸法
  6
Continuous
 62
   120
370
     5
100
AcDbLine
 10
5222.335896989101
 20
6.066506853141789
 30
0.0
 11
5072.335896989101
 21
6.066506853141789
 31
0.0
  0
LINE
  5
2A6
330
1F
100
AcDbEntity
  8
0-B_寸法
  6
Continuous
 62
   120
370
     5
100
AcDbLine
 10
5222.335896989101
 20
-448.433493146859
 30
0.0
 11
5072.335896989101
 21
-448.433493146859
 31
0.0
  0
TEXT
  5
2A7
330
1F
100
AcDbEntity
  8
0-B_寸法
  6
Continuous
 62
     7
370
   211
100
AcDbText
 10
5194.645896989101
 20
-296.1834931468583
 30
0.0
 40
68.58
  1
303
 50
90.0
 41
1.111111111111111
  7
ＭＳ ゴシック
100
AcDbText
  0
LINE
  5
2A8
330
1F
100
AcDbEntity
  8
0-B_寸法
  6
Continuous
 62
   120
370
     5
100
AcDbLine
 10
5222.335896989101
 20
-448.433493146859
 30
0.0
 11
5222.335896989101
 21
-718.4334931468591
 31
0.0
  0
LWPOLYLINE
  5
2A9
330
1F
100
AcDbEntity
  8
0-B_寸法
  6
Continuous
 62
     7
370
     9
100
AcDbPolyline
 90
        4
 70
     1
 43
3.0
 10
5223.835896989101
 20
-718.4334931468591
 42
0.4142135623731
 10
5222.335896989101
 20
-716.933493146859
 42
0.4142135623731
 10
5220.835896989101
 20
-718.4334931468591
 42
0.4142135623731
 10
5222.335896989101
 20
-719.9334931468591
 42
0.4142135623731
  0
LINE
  5
2AA
330
1F
100
AcDbEntity
  8
0-B_寸法
  6
Continuous
 62
   120
370
     5
100
AcDbLine
 10
5222.335896989101
 20
-718.4334931468591
 30
0.0
 11
5072.335896989101
 21
-718.4334931468591
 31
0.0
  0
TEXT
  5
2AB
330
1F
100
AcDbEntity
  8
0-B_寸法
  6
Continuous
 62
     7
370
   211
100
AcDbText
 10
5194.645896989101
 20
-658.4334931468591
 30
0.0
 40
68.58
  1
180
 50
90.0
 41
1.111111111111111
  7
ＭＳ ゴシック
100
AcDbText
  0
LINE
  5
2AC
330
1F
100
AcDbEntity
  8
0-B_寸法
  6
Continuous
 62
   120
370
     5
100
AcDbLine
 10
5222.335896989101
 20
-718.4334931468591
 30
0.0
 11
5222.335896989101
 21
-1162.433493146859
 31
0.0
  0
LWPOLYLINE
  5
2AD
330
1F
100
AcDbEntity
  8
0-B_寸法
  6
Continuous
 62
     7
370
     9
100
AcDbPolyline
 90
        4
 70
     1
 43
3.0
 10
5223.835896989101
 20
-1162.433493146859
 42
0.4142135623731
 10
5222.335896989101
 20
-1160.933493146859
 42
0.4142135623731
 10
5220.835896989101
 20
-1162.433493146859
 42
0.4142135623731
 10
5222.335896989101
 20
-1163.933493146859
 42
0.4142135623731
  0
LINE
  5
2AE
330
1F
100
AcDbEntity
  8
0-B_寸法
  6
Continuous
 62
   120
370
     5
100
AcDbLine
 10
5222.335896989101
 20
-1162.433493146859
 30
0.0
 11
5072.335896989101
 21
-1162.433493146859
 31
0.0
  0
TEXT
  5
2AF
330
1F
100
AcDbEntity
  8
0-B_寸法
  6
Continuous
 62
     7
370
   211
100
AcDbText
 10
5194.645896989101
 20
-1015.433493146858
 30
0.0
 40
68.58
  1
296
 50
90.0
 41
1.111111111111111
  7
ＭＳ ゴシック
100
AcDbText
  0
LINE
  5
2B0
330
1F
100
AcDbEntity
  8
0-B_寸法
  6
Continuous
 62
   120
370
     5
100
AcDbLine
 10
5222.335896989101
 20
6.066506853141789
 30
0.0
 11
5222.335896989101
 21
-448.433493146859
 31
0.0
  0
LINE
  5
2B1
330
1F
100
AcDbEntity
  8
0-0_補助線
  6
JWW_HOJO
 62
   120
370
     5
100
AcDbLine
 10
5072.335896989101
 20
-1237.43349314686
 30
0.0
 11
4280.335296063819
 21
-1237.433493146859
 31
0.0
  0
LINE
  5
2B2
330
1F
100
AcDbEntity
  8
0-B_寸法
  6
Continuous
 62
   120
370
     5
100
AcDbLine
 10
4130.335296063819
 20
6.066506853141789
 30
0.0
 11
4130.335296063819
 21
1.567184926626339
 31
0.0
  0
LWPOLYLINE
  5
2B3
330
1F
100
AcDbEntity
  8
0-B_寸法
  6
Continuous
 62
     7
370
     9
100
AcDbPolyline
 90
        4
 70
     1
 43
3.0
 10
4131.83529606382
 20
6.066506853141789
 42
0.4142135623731
 10
4130.335296063819
 20
7.566506853141789
 42
0.4142135623731
 10
4128.835296063819
 20
6.066506853141789
 42
0.4142135623731
 10
4130.335296063819
 20
4.566506853141789
 42
0.4142135623731
  0
LWPOLYLINE
  5
2B4
330
1F
100
AcDbEntity
  8
0-B_寸法
  6
Continuous
 62
     7
370
     9
100
AcDbPolyline
 90
        4
 70
     1
 43
3.0
 10
4131.83529606382
 20
1.567184926626339
 42
0.4142135623731
 10
4130.335296063819
 20
3.067184926626339
 42
0.4142135623731
 10
4128.835296063819
 20
1.567184926626339
 42
0.4142135623731
 10
4130.335296063819
 20
0.0671849266263393
 42
0.4142135623731
  0
LINE
  5
2B5
330
1F
100
AcDbEntity
  8
0-B_寸法
  6
Continuous
 62
   120
370
     5
100
AcDbLine
 10
4130.335296063819
 20
6.066506853141789
 30
0.0
 11
4280.335296063819
 21
6.066506853141789
 31
0.0
  0
LINE
  5
2B6
330
1F
100
AcDbEntity
  8
0-B_寸法
  6
Continuous
 62
   120
370
     5
100
AcDbLine
 10
4130.335296063819
 20
1.567184926626339
 30
0.0
 11
4280.335296063819
 21
1.567184926626339
 31
0.0
  0
LINE
  5
2B7
330
1F
100
AcDbEntity
  8
0-B_寸法
  6
Continuous
 62
   120
370
     5
100
AcDbLine
 10
4130.335296063819
 20
1.567184926626339
 30
0.0
 11
4130.335296063819
 21
-178.4328150733737
 31
0.0
  0
LWPOLYLINE
  5
2B8
330
1F
100
AcDbEntity
  8
0-B_寸法
  6
Continuous
 62
     7
370
     9
100
AcDbPolyline
 90
        4
 70
     1
 43
3.0
 10
4131.83529606382
 20
-178.4328150733737
 42
0.4142135623731
 10
4130.335296063819
 20
-176.9328150733737
 42
0.4142135623731
 10
4128.835296063819
 20
-178.4328150733737
 42
0.4142135623731
 10
4130.335296063819
 20
-179.9328150733737
 42
0.4142135623731
  0
LINE
  5
2B9
330
1F
100
AcDbEntity
  8
0-B_寸法
  6
Continuous
 62
   120
370
     5
100
AcDbLine
 10
4130.335296063819
 20
-178.4328150733737
 30
0.0
 11
4280.335296063819
 21
-178.4328150733737
 31
0.0
  0
LINE
  5
2BA
330
1F
100
AcDbEntity
  8
0-B_寸法
  6
Continuous
 62
   120
370
     5
100
AcDbLine
 10
4130.335296063819
 20
-178.4328150733737
 30
0.0
 11
4130.335296063819
 21
-182.932815073373
 31
0.0
  0
LWPOLYLINE
  5
2BB
330
1F
100
AcDbEntity
  8
0-B_寸法
  6
Continuous
 62
     7
370
     9
100
AcDbPolyline
 90
        4
 70
     1
 43
3.0
 10
4131.83529606382
 20
-182.932815073373
 42
0.4142135623731
 10
4130.335296063819
 20
-181.432815073373
 42
0.4142135623731
 10
4128.835296063819
 20
-182.932815073373
 42
0.4142135623731
 10
4130.335296063819
 20
-184.432815073373
 42
0.4142135623731
  0
LINE
  5
2BC
330
1F
100
AcDbEntity
  8
0-B_寸法
  6
Continuous
 62
   120
370
     5
100
AcDbLine
 10
4130.335296063819
 20
-182.932815073373
 30
0.0
 11
4280.335296063819
 21
-182.932815073373
 31
0.0
  0
LINE
  5
2BD
330
1F
100
AcDbEntity
  8
0-B_寸法
  6
Continuous
 62
   120
370
     5
100
AcDbLine
 10
4130.335296063819
 20
-182.932815073373
 30
0.0
 11
4130.335296063819
 21
-1012.433115359273
 31
0.0
  0
LWPOLYLINE
  5
2BE
330
1F
100
AcDbEntity
  8
0-B_寸法
  6
Continuous
 62
     7
370
     9
100
AcDbPolyline
 90
        4
 70
     1
 43
3.0
 10
4131.83529606382
 20
-1012.433115359273
 42
0.4142135623731
 10
4130.335296063819
 20
-1010.933115359273
 42
0.4142135623731
 10
4128.835296063819
 20
-1012.433115359273
 42
0.4142135623731
 10
4130.335296063819
 20
-1013.933115359273
 42
0.4142135623731
  0
LINE
  5
2BF
330
1F
100
AcDbEntity
  8
0-B_寸法
  6
Continuous
 62
   120
370
     5
100
AcDbLine
 10
4130.335296063819
 20
-1012.433115359273
 30
0.0
 11
4280.335296063819
 21
-1012.433115359273
 31
0.0
  0
TEXT
  5
2C0
330
1F
100
AcDbEntity
  8
0-B_寸法
  6
Continuous
 62
     7
370
   211
100
AcDbText
 10
4102.64529606382
 20
-672.6829652163228
 30
0.0
 40
68.58
  1
553
 50
90.0
 41
1.111111111111111
  7
ＭＳ ゴシック
100
AcDbText
  0
LINE
  5
2C1
330
1F
100
AcDbEntity
  8
0-B_寸法
  6
Continuous
 62
   120
370
     5
100
AcDbLine
 10
4130.335296063819
 20
-1012.433115359273
 30
0.0
 11
4130.335296063819
 21
-1162.433493146859
 31
0.0
  0
LWPOLYLINE
  5
2C2
330
1F
100
AcDbEntity
  8
0-B_寸法
  6
Continuous
 62
     7
370
     9
100
AcDbPolyline
 90
        4
 70
     1
 43
3.0
 10
4131.83529606382
 20
-1162.433493146859
 42
0.4142135623731
 10
4130.335296063819
 20
-1160.933493146859
 42
0.4142135623731
 10
4128.835296063819
 20
-1162.433493146859
 42
0.4142135623731
 10
4130.335296063819
 20
-1163.933493146858
 42
0.4142135623731
  0
LINE
  5
2C3
330
1F
100
AcDbEntity
  8
0-B_寸法
  6
Continuous
 62
   120
370
     5
100
AcDbLine
 10
4130.335296063819
 20
-1162.433493146859
 30
0.0
 11
4280.335296063819
 21
-1162.433493146859
 31
0.0
  0
TEXT
  5
2C4
330
1F
100
AcDbEntity
  8
0-B_寸法
  6
Continuous
 62
     7
370
   211
100
AcDbText
 10
4102.64529606382
 20
-1162.433304253065
 30
0.0
 40
68.58
  1
100
 50
90.0
 41
1.111111111111111
  7
ＭＳ ゴシック
100
AcDbText
  0
TEXT
  5
2C5
330
1F
100
AcDbEntity
  8
0-B_寸法
  6
Continuous
 62
     7
370
   211
100
AcDbText
 10
4102.64529606382
 20
-163.4328150733737
 30
0.0
 40
68.58
  1
120
 50
90.0
 41
1.111111111111111
  7
ＭＳ ゴシック
100
AcDbText
  0
TEXT
  5
2C6
330
1F
100
AcDbEntity
  8
0-B_寸法
  6
Continuous
 62
     7
370
   211
100
AcDbText
 10
4102.64529606382
 20
-237.5508172033291
 30
0.0
 40
68.58
  1
3
 50
90.0
  7
ＭＳ ゴシック
100
AcDbText
  0
TEXT
  5
2C7
330
1F
100
AcDbEntity
  8
0-B_寸法
  6
Continuous
 62
     7
370
   211
100
AcDbText
 10
4102.64529606382
 20
15.18936996280374
 30
0.0
 40
68.58
  1
3
 50
90.0
  7
ＭＳ ゴシック
100
AcDbText
  0
LINE
  5
2C8
330
1F
100
AcDbEntity
  8
0-0_補助線
  6
JWW_HOJO
 62
   120
370
     5
100
AcDbLine
 10
5072.335896989101
 20
135.0665068531421
 30
0.0
 11
5072.335896989101
 21
-1237.43349314686
 31
0.0
  0
LINE
  5
2C9
330
1F
100
AcDbEntity
  8
0-0_補助線
  6
JWW_HOJO
 62
   120
370
     5
100
AcDbLine
 10
4280.335296063819
 20
135.0665068531421
 30
0.0
 11
5072.335896989101
 21
135.0665068531421
 31
0.0
  0
LINE
  5
2CA
330
1F
100
AcDbEntity
  8
0-0_補助線
  6
JWW_HOJO
 62
   120
370
     5
100
AcDbLine
 10
4280.335296063819
 20
-1237.433493146859
 30
0.0
 11
4280.335296063819
 21
135.0665068531421
 31
0.0
  0
LINE
  5
2CB
330
1F
100
AcDbEntity
  8
0-6_桟木
  6
Continuous
 62
    40
370
    15
100
AcDbLine
 10
4338.835896989101
 20
60.06650685314213
 30
0.0
 11
4997.335896989101
 21
60.06650685314213
 31
0.0
  0
ARC
  5
2CC
330
1F
100
AcDbEntity
  8
0-6_桟木
  6
Continuous
 62
    40
370
    15
100
AcDbCircle
 10
4338.835896989101
 20
52.56650685314213
 30
0.0
 40
7.5
100
AcDbArc
 50
90.0
 51
180.0
  0
LINE
  5
2CD
330
1F
100
AcDbEntity
  8
0-6_桟木
  6
Continuous
 62
    40
370
    15
100
AcDbLine
 10
4331.335896989101
 20
7.56650685314213
 30
0.0
 11
4331.335896989101
 21
52.56650685314213
 31
0.0
  0
LINE
  5
2CE
330
1F
100
AcDbEntity
  8
0-6_桟木
  6
Continuous
 62
    40
370
    15
100
AcDbLine
 10
4332.835896989103
 20
6.066506853141789
 30
0.0
 11
4997.335896989101
 21
6.066506853141789
 31
0.0
  0
LINE
  5
2CF
330
1F
100
AcDbEntity
  8
0-6_桟木
  6
Continuous
 62
    40
370
    15
100
AcDbLine
 10
4331.335896989101
 20
7.56650685314213
 30
0.0
 11
4332.835896989103
 21
6.066506853141789
 31
0.0
  0
LINE
  5
2D0
330
1F
100
AcDbEntity
  8
0-B_寸法
  6
Continuous
 62
   120
370
     5
100
AcDbLine
 10
4997.335896989101
 20
285.0665068531421
 30
0.0
 11
4331.335896989101
 21
285.0665068531421
 31
0.0
  0
LWPOLYLINE
  5
2D1
330
1F
100
AcDbEntity
  8
0-B_寸法
  6
Continuous
 62
     7
370
     9
100
AcDbPolyline
 90
        4
 70
     1
 43
3.0
 10
4332.835896989101
 20
285.0665068531421
 42
0.4142135623731
 10
4331.335896989101
 20
286.5665068531421
 42
0.4142135623731
 10
4329.835896989101
 20
285.0665068531421
 42
0.4142135623731
 10
4331.335896989101
 20
283.5665068531421
 42
0.4142135623731
  0
LINE
  5
2D2
330
1F
100
AcDbEntity
  8
0-B_寸法
  6
Continuous
 62
   120
370
     5
100
AcDbLine
 10
4331.335896989101
 20
285.0665068531421
 30
0.0
 11
4331.335896989101
 21
135.0665068531421
 31
0.0
  0
TEXT
  5
2D3
330
1F
100
AcDbEntity
  8
0-B_寸法
  6
Continuous
 62
     7
370
   211
100
AcDbText
 10
4405.585896989101
 20
312.7565068531421
 30
0.0
 40
68.58
  1
ｶｳﾝﾀｰ＝444
 41
1.15
  7
ＭＳ ゴシック
100
AcDbText
  0
LWPOLYLINE
  5
2D4
330
1F
100
AcDbEntity
  8
0-B_寸法
  6
Continuous
 62
     7
370
     9
100
AcDbPolyline
 90
        4
 70
     1
 43
3.0
 10
5223.835896989101
 20
6.066513061523429
 42
0.4142135623731
 10
5222.335896989101
 20
7.566513061523429
 42
0.4142135623731
 10
5220.835896989101
 20
6.066513061523429
 42
0.4142135623731
 10
5222.335896989101
 20
4.566513061523428
 42
0.4142135623731
  0
LWPOLYLINE
  5
2D5
330
1F
100
AcDbEntity
  8
0-B_寸法
  6
Continuous
 62
     7
370
     9
100
AcDbPolyline
 90
        4
 70
     1
 43
3.0
 10
5223.835896989101
 20
60.06650685314212
 42
0.4142135623731
 10
5222.335896989101
 20
61.56650685314211
 42
0.4142135623731
 10
5220.835896989101
 20
60.06650685314212
 42
0.4142135623731
 10
5222.335896989101
 20
58.56650685314212
 42
0.4142135623731
  0
LINE
  5
2D6
330
1F
100
AcDbEntity
  8
0-B_寸法
  6
Continuous
 62
   120
370
     5
100
AcDbLine
 10
5222.335896989101
 20
6.066513061523429
 30
0.0
 11
5072.335896989101
 21
6.066513061523438
 31
0.0
  0
LINE
  5
2D7
330
1F
100
AcDbEntity
  8
0-B_寸法
  6
Continuous
 62
   120
370
     5
100
AcDbLine
 10
5222.335896989101
 20
60.06650685314212
 30
0.0
 11
5072.335896989101
 21
60.06650685314213
 31
0.0
  0
TEXT
  5
2D8
330
1F
100
AcDbEntity
  8
0-B_寸法
  6
Continuous
 62
     7
370
   211
100
AcDbText
 10
5194.645896989101
 20
70.32775068694612
 30
0.0
 40
68.58
  1
36
 50
90.0
 41
1.083333333333333
  7
ＭＳ ゴシック
100
AcDbText
  0
LINE
  5
2D9
330
1F
100
AcDbEntity
  8
0-B_寸法
  6
Continuous
 62
   120
370
     5
100
AcDbLine
 10
5222.335896989101
 20
6.066513061523429
 30
0.0
 11
5222.335896989101
 21
167.8277506869461
 31
0.0
  0
LINE
  5
2DA
330
1F
100
AcDbEntity
  8
0-1_本体
  6
Continuous
 62
    40
370
    15
100
AcDbLine
 10
4997.335896989101
 20
-1012.433493146858
 30
0.0
 11
4385.335896989105
 21
-1012.433493146858
 31
0.0
  0
LINE
  5
2DB
330
1F
100
AcDbEntity
  8
0-1_本体
  6
Continuous
 62
    40
370
    15
100
AcDbLine
 10
4385.335896989105
 20
-1012.433493146858
 30
0.0
 11
4385.335896989105
 21
-988.4334931468575
 31
0.0
  0
LINE
  5
2DC
330
1F
100
AcDbEntity
  8
0-1_本体
  6
Continuous
 62
     7
370
     9
100
AcDbLine
 10
4385.335896989105
 20
-1012.433115359272
 30
0.0
 11
4385.335896989105
 21
-1162.433493146858
 31
0.0
  0
LINE
  5
2DD
330
1F
100
AcDbEntity
  8
0-1_本体
  6
Continuous
 62
     7
370
     9
100
AcDbLine
 10
4997.335896989101
 20
-1012.433493146858
 30
0.0
 11
4997.335896989101
 21
-1162.433493146858
 31
0.0
  0
LINE
  5
2DE
330
1F
100
AcDbEntity
  8
0-B_寸法
  6
Continuous
 62
   120
370
     5
100
AcDbLine
 10
4385.3358969891
 20
-1537.433493146858
 30
0.0
 11
4385.3358969891
 21
-1237.433493146858
 31
0.0
  0
LINE
  5
2DF
330
1F
100
AcDbEntity
  8
0-B_寸法
  6
Continuous
 62
   120
370
     5
100
AcDbLine
 10
4385.3358969891
 20
-1537.433493146858
 30
0.0
 11
4997.335896989101
 21
-1537.433493146858
 31
0.0
  0
LWPOLYLINE
  5
2E0
330
1F
100
AcDbEntity
  8
0-B_寸法
  6
Continuous
 62
     7
370
     9
100
AcDbPolyline
 90
        4
 70
     1
 43
3.0
 10
4386.835896989101
 20
-1537.433493146858
 42
0.4142135623731
 10
4385.3358969891
 20
-1535.933493146858
 42
0.4142135623731
 10
4383.8358969891
 20
-1537.433493146858
 42
0.4142135623731
 10
4385.3358969891
 20
-1538.933493146858
 42
0.4142135623731
  0
LWPOLYLINE
  5
2E1
330
1F
100
AcDbEntity
  8
0-B_寸法
  6
Continuous
 62
     7
370
     9
100
AcDbPolyline
 90
        4
 70
     1
 43
3.0
 10
4998.835896989101
 20
-1537.433493146858
 42
0.4142135623731
 10
4997.335896989101
 20
-1535.933493146858
 42
0.4142135623731
 10
4995.835896989101
 20
-1537.433493146858
 42
0.4142135623731
 10
4997.335896989101
 20
-1538.933493146858
 42
0.4142135623731
  0
LINE
  5
2E2
330
1F
100
AcDbEntity
  8
0-B_寸法
  6
Continuous
 62
   120
370
     5
100
AcDbLine
 10
4997.335896989101
 20
-1537.433493146858
 30
0.0
 11
4997.335896989101
 21
-1237.433493146858
 31
0.0
  0
TEXT
  5
2E3
330
1F
100
AcDbEntity
  8
0-B_寸法
  6
Continuous
 62
     7
370
   211
100
AcDbText
 10
4616.3358969891
 20
-1509.743493146858
 30
0.0
 40
68.58
  1
408
 41
1.111111111111111
  7
ＭＳ ゴシック
100
AcDbText
  0
LINE
  5
2E4
330
1F
100
AcDbEntity
  8
0-1_本体
  6
Continuous
 62
    40
370
    15
100
AcDbLine
 10
4385.335896989105
 20
6.066506853141789
 30
0.0
 11
4997.335896989101
 21
6.066506853141789
 31
0.0
  0
LINE
  5
2E5
330
1F
100
AcDbEntity
  8
0-1_本体
  6
Continuous
 62
    40
370
    15
100
AcDbLine
 10
4385.335896989105
 20
-16.43349314685821
 30
0.0
 11
4385.335896989105
 21
6.066506853141789
 31
0.0
  0
LINE
  5
2E6
330
1F
100
AcDbEntity
  8
0-6_桟木
  6
Continuous
 62
    40
370
    15
100
AcDbLine
 10
4385.335896989105
 20
-200.1834931468582
 30
0.0
 11
4385.335896989105
 21
-176.9334931468585
 31
0.0
  0
LINE
  5
2E7
330
1F
100
AcDbEntity
  8
0-6_桟木
  6
Continuous
 62
    40
370
    15
100
AcDbLine
 10
4385.335896989105
 20
-176.9334931468585
 30
0.0
 11
4475.335896989105
 21
-176.9334931468585
 31
0.0
  0
LINE
  5
2E8
330
1F
100
AcDbEntity
  8
0-6_桟木
  6
Continuous
 62
    40
370
    15
100
AcDbLine
 10
4475.335896989105
 20
-176.9334931468585
 30
0.0
 11
4475.335896989105
 21
-200.1834931468582
 31
0.0
  0
LINE
  5
2E9
330
1F
100
AcDbEntity
  8
0-6_桟木
  6
Continuous
 62
    40
370
    15
100
AcDbLine
 10
4475.335896989105
 20
-200.1834931468582
 30
0.0
 11
4385.335896989105
 21
-200.1834931468582
 31
0.0
  0
LINE
  5
2EA
330
1F
100
AcDbEntity
  8
0-0_補助線
  6
JWW_HOJO
 62
   120
370
     5
100
AcDbLine
 10
4490.335896989105
 20
-176.9334931468585
 30
0.0
 11
4490.335896989105
 21
-260.1834931468582
 31
0.0
  0
LINE
  5
2EB
330
1F
100
AcDbEntity
  8
0-0_補助線
  6
JWW_HOJO
 62
   120
370
     5
100
AcDbLine
 10
4490.335896989105
 20
-260.1834931468582
 30
0.0
 11
4385.335896989105
 21
-260.1834931468582
 31
0.0
  0
LINE
  5
2EC
330
1F
100
AcDbEntity
  8
0-B_寸法
  6
Continuous
 62
   120
370
     5
100
AcDbLine
 10
4529.335896989101
 20
-493.4334931468588
 30
0.0
 11
4529.335896989101
 21
-538.4334931468588
 31
0.0
  0
LWPOLYLINE
  5
2ED
330
1F
100
AcDbEntity
  8
0-B_寸法
  6
Continuous
 62
     7
370
     9
100
AcDbPolyline
 90
        4
 70
     1
 43
3.0
 10
4530.835896989101
 20
-493.4334931468588
 42
0.4142135623731
 10
4529.335896989101
 20
-491.9334931468588
 42
0.4142135623731
 10
4527.8358969891
 20
-493.4334931468588
 42
0.4142135623731
 10
4529.335896989101
 20
-494.9334931468588
 42
0.4142135623731
  0
LWPOLYLINE
  5
2EE
330
1F
100
AcDbEntity
  8
0-B_寸法
  6
Continuous
 62
     7
370
     9
100
AcDbPolyline
 90
        4
 70
     1
 43
3.0
 10
4530.835896989101
 20
-538.4334931468588
 42
0.4142135623731
 10
4529.335896989101
 20
-536.9334931468588
 42
0.4142135623731
 10
4527.8358969891
 20
-538.4334931468588
 42
0.4142135623731
 10
4529.335896989101
 20
-539.9334931468588
 42
0.4142135623731
  0
LINE
  5
2EF
330
1F
100
AcDbEntity
  8
0-B_寸法
  6
Continuous
 62
   120
370
     5
100
AcDbLine
 10
4529.335896989101
 20
-493.4334931468588
 30
0.0
 11
4469.335896989101
 21
-493.4334931468588
 31
0.0
  0
LINE
  5
2F0
330
1F
100
AcDbEntity
  8
0-B_寸法
  6
Continuous
 62
   120
370
     5
100
AcDbLine
 10
4529.335896989101
 20
-538.4334931468588
 30
0.0
 11
4469.335896989101
 21
-538.4334931468588
 31
0.0
  0
LINE
  5
2F1
330
1F
100
AcDbEntity
  8
0-4_棚
  6
JWW_CENTER1
 62
   120
370
     5
100
AcDbLine
 10
4385.335896989105
 20
-169.4328150733737
 30
0.0
 11
4910.335896989105
 21
-169.4328150733737
 31
0.0
  0
TEXT
  5
2F2
330
1F
100
AcDbEntity
  8
0-B_寸法
  6
Continuous
 62
     7
370
   211
100
AcDbText
 10
4562.678827630537
 20
-550.3584931468588
 30
0.0
 40
57.15000000000001
  1
P30
 41
0.9999999999999999
  7
ＭＳ ゴシック
100
AcDbText
  0
LWPOLYLINE
  5
2F3
330
1F
100
AcDbEntity
  8
0-B_寸法
  6
Continuous
 62
     7
370
     9
100
AcDbPolyline
 90
        4
 70
     1
 43
3.0
 10
4476.835896989105
 20
-305.1834931468582
 42
0.4142135623731
 10
4475.335896989105
 20
-303.6834931468582
 42
0.4142135623731
 10
4473.835896989105
 20
-305.1834931468582
 42
0.4142135623731
 10
4475.335896989105
 20
-306.6834931468582
 42
0.4142135623731
  0
LWPOLYLINE
  5
2F4
330
1F
100
AcDbEntity
  8
0-B_寸法
  6
Continuous
 62
     7
370
     9
100
AcDbPolyline
 90
        4
 70
     1
 43
3.0
 10
4386.835896989105
 20
-305.1834931468582
 42
0.4142135623731
 10
4385.335896989105
 20
-303.6834931468582
 42
0.4142135623731
 10
4383.835896989105
 20
-305.1834931468582
 42
0.4142135623731
 10
4385.335896989105
 20
-306.6834931468582
 42
0.4142135623731
  0
LINE
  5
2F5
330
1F
100
AcDbEntity
  8
0-B_寸法
  6
Continuous
 62
   120
370
     5
100
AcDbLine
 10
4385.335896989105
 20
-305.1834931468582
 30
0.0
 11
4475.335896989105
 21
-305.1834931468582
 31
0.0
  0
LINE
  5
2F6
330
1F
100
AcDbEntity
  8
0-0_補助線
  6
JWW_HOJO
 62
   120
370
     5
100
AcDbLine
 10
4535.335896989105
 20
-305.1834931468582
 30
0.0
 11
4385.335896989105
 21
-305.1834931468582
 31
0.0
  0
LINE
  5
2F7
330
1F
100
AcDbEntity
  8
0-0_補助線
  6
JWW_HOJO
 62
   120
370
     5
100
AcDbLine
 10
4535.335896989105
 20
-176.9334931468585
 30
0.0
 11
4535.335896989105
 21
-305.1834931468582
 31
0.0
  0
LINE
  5
2F8
330
1F
100
AcDbEntity
  8
0-B_寸法
  6
Continuous
 62
   120
370
     5
100
AcDbLine
 10
4475.335896989105
 20
-305.1834931468582
 30
0.0
 11
4475.335896989105
 21
-215.1834931468582
 31
0.0
  0
LINE
  5
2F9
330
1F
100
AcDbEntity
  8
0-B_寸法
  6
Continuous
 62
   120
370
     5
100
AcDbLine
 10
4385.335896989105
 20
-305.1834931468582
 30
0.0
 11
4385.335896989105
 21
-215.1834931468582
 31
0.0
  0
TEXT
  5
2FA
330
1F
100
AcDbEntity
  8
0-B_寸法
  6
Continuous
 62
     7
370
   211
100
AcDbText
 10
4392.835896989105
 20
-279.6084931468582
 30
0.0
 40
57.15000000000001
  1
60
 41
0.9999999999999998
  7
ＭＳ ゴシック
100
AcDbText
  0
LINE
  5
2FB
330
1F
100
AcDbEntity
  8
0-0_補助線
  6
JWW_HOJO
 62
     7
370
     9
100
AcDbLine
 10
4934.335896989101
 20
-988.4334931468575
 30
0.0
 11
4934.335896989101
 21
-16.43349314685821
 31
0.0
  0
LINE
  5
2FC
330
1F
100
AcDbEntity
  8
0-0_補助線
  6
JWW_HOJO
 62
     7
370
     9
100
AcDbLine
 10
4439.335896989101
 20
-988.4334931468575
 30
0.0
 11
4439.335896989101
 21
-16.43349314685821
 31
0.0
  0
LINE
  5
2FD
330
1F
100
AcDbEntity
  8
0-1_本体
  6
Continuous
 62
    40
370
    15
100
AcDbLine
 10
4992.835896989101
 20
-988.4334931468575
 30
0.0
 11
4385.335896989105
 21
-988.4334931468575
 31
0.0
  0
LINE
  5
2FE
330
1F
100
AcDbEntity
  8
0-1_本体
  6
Continuous
 62
    40
370
    15
100
AcDbLine
 10
4385.335896989105
 20
-16.43349314685821
 30
0.0
 11
4992.835896989101
 21
-16.43349314685821
 31
0.0
  0
LINE
  5
2FF
330
1F
100
AcDbEntity
  8
0-6_桟木
  6
Continuous
 62
    40
370
    15
100
AcDbLine
 10
4902.835896989101
 20
-200.1834931468582
 30
0.0
 11
4902.835896989101
 21
-176.9334931468585
 31
0.0
  0
LINE
  5
300
330
1F
100
AcDbEntity
  8
0-6_桟木
  6
Continuous
 62
    40
370
    15
100
AcDbLine
 10
4902.085896989102
 20
-176.9334931468585
 30
0.0
 11
4992.835896989101
 21
-176.9334931468585
 31
0.0
  0
LINE
  5
301
330
1F
100
AcDbEntity
  8
0-6_桟木
  6
Continuous
 62
    40
370
    15
100
AcDbLine
 10
4992.835896989101
 20
-200.1834931468582
 30
0.0
 11
4902.085896989102
 21
-200.1834931468582
 31
0.0
  0
LINE
  5
302
330
1F
100
AcDbEntity
  8
0-6_桟木
  6
Continuous
 62
    40
370
    15
100
AcDbLine
 10
4992.835896989101
 20
-176.9334931468585
 30
0.0
 11
4992.835896989101
 21
-200.1834931468582
 31
0.0
  0
LWPOLYLINE
  5
303
330
1F
100
AcDbEntity
  8
0-B_寸法
  6
Continuous
 62
     7
370
     9
100
AcDbPolyline
 90
        4
 70
     1
 43
3.0
 10
4994.335896989102
 20
-305.1834931468582
 42
0.4142135623731
 10
4992.835896989101
 20
-303.6834931468582
 42
0.4142135623731
 10
4991.335896989101
 20
-305.1834931468582
 42
0.4142135623731
 10
4992.835896989101
 20
-306.6834931468582
 42
0.4142135623731
  0
LWPOLYLINE
  5
304
330
1F
100
AcDbEntity
  8
0-B_寸法
  6
Continuous
 62
     7
370
     9
100
AcDbPolyline
 90
        4
 70
     1
 43
3.0
 10
4904.335896989102
 20
-305.1834931468582
 42
0.4142135623731
 10
4902.835896989101
 20
-303.6834931468582
 42
0.4142135623731
 10
4901.335896989101
 20
-305.1834931468582
 42
0.4142135623731
 10
4902.835896989101
 20
-306.6834931468582
 42
0.4142135623731
  0
LINE
  5
305
330
1F
100
AcDbEntity
  8
0-B_寸法
  6
Continuous
 62
   120
370
     5
100
AcDbLine
 10
4902.085896989102
 20
-305.1834931468582
 30
0.0
 11
4992.835896989101
 21
-305.1834931468582
 31
0.0
  0
LINE
  5
306
330
1F
100
AcDbEntity
  8
0-B_寸法
  6
Continuous
 62
   120
370
     5
100
AcDbLine
 10
4992.835896989101
 20
-305.1834931468582
 30
0.0
 11
4992.835896989101
 21
-215.1834931468582
 31
0.0
  0
LINE
  5
307
330
1F
100
AcDbEntity
  8
0-B_寸法
  6
Continuous
 62
   120
370
     5
100
AcDbLine
 10
4902.835896989101
 20
-305.1834931468582
 30
0.0
 11
4902.835896989101
 21
-215.1834931468582
 31
0.0
  0
TEXT
  5
308
330
1F
100
AcDbEntity
  8
0-B_寸法
  6
Continuous
 62
     7
370
   211
100
AcDbText
 10
4910.335896989101
 20
-279.6084931468582
 30
0.0
 40
57.15000000000001
  1
60
 41
0.9999999999999998
  7
ＭＳ ゴシック
100
AcDbText
  0
LINE
  5
309
330
1F
100
AcDbEntity
  8
0-0_補助線
  6
JWW_HOJO
 62
     7
370
     9
100
AcDbLine
 10
4385.335896989105
 20
-448.4334931468588
 30
0.0
 11
4992.835896989101
 21
-448.4334931468588
 31
0.0
  0
LINE
  5
30A
330
1F
100
AcDbEntity
  8
0-0_補助線
  6
JWW_HOJO
 62
     7
370
     9
100
AcDbLine
 10
4385.335896989105
 20
-673.4334931468588
 30
0.0
 11
4992.835896989101
 21
-673.4334931468588
 31
0.0
  0
LINE
  5
30B
330
1F
100
AcDbEntity
  8
0-0_補助線
  6
JWW_HOJO
 62
     7
370
     9
100
AcDbLine
 10
4385.335896989105
 20
-493.4334931468588
 30
0.0
 11
4992.835896989101
 21
-493.4334931468588
 31
0.0
  0
LINE
  5
30C
330
1F
100
AcDbEntity
  8
0-0_補助線
  6
JWW_HOJO
 62
     7
370
     9
100
AcDbLine
 10
4385.335896989105
 20
-538.4334931468588
 30
0.0
 11
4992.835896989101
 21
-538.4334931468588
 31
0.0
  0
LINE
  5
30D
330
1F
100
AcDbEntity
  8
0-0_補助線
  6
JWW_HOJO
 62
     7
370
     9
100
AcDbLine
 10
4385.335896989105
 20
-583.4334931468588
 30
0.0
 11
4992.835896989101
 21
-583.4334931468588
 31
0.0
  0
LINE
  5
30E
330
1F
100
AcDbEntity
  8
0-0_補助線
  6
JWW_HOJO
 62
     7
370
     9
100
AcDbLine
 10
4385.335896989105
 20
-628.4334931468588
 30
0.0
 11
4992.835896989101
 21
-628.4334931468588
 31
0.0
  0
LINE
  5
30F
330
1F
100
AcDbEntity
  8
0-0_補助線
  6
JWW_HOJO
 62
     7
370
     9
100
AcDbLine
 10
4385.335896989105
 20
-718.4334931468588
 30
0.0
 11
4992.835896989101
 21
-718.4334931468588
 31
0.0
  0
LINE
  5
310
330
1F
100
AcDbEntity
  8
0-1_本体
  6
Continuous
 62
    40
370
    15
100
AcDbLine
 10
4992.835896989101
 20
-1.433493146858211
 30
0.0
 11
4992.835896989101
 21
-1003.433565523008
 31
0.0
  0
LINE
  5
311
330
1F
100
AcDbEntity
  8
0-4_棚
  6
Continuous
 62
    40
370
    15
100
AcDbLine
 10
4992.835896989101
 20
-422.1834931468588
 30
0.0
 11
4992.835896989101
 21
-444.6834931468575
 31
0.0
  0
LINE
  5
312
330
1F
100
AcDbEntity
  8
0-4_棚
  6
Continuous
 62
    40
370
    15
100
AcDbLine
 10
4992.835896989101
 20
-444.6834931468575
 30
0.0
 11
4410.835896989101
 21
-444.6834931468575
 31
0.0
  0
LINE
  5
313
330
1F
100
AcDbEntity
  8
0-4_棚
  6
Continuous
 62
    40
370
    15
100
AcDbLine
 10
4992.835896989101
 20
-422.1834931468588
 30
0.0
 11
4410.835896989101
 21
-422.1834931468588
 31
0.0
  0
LINE
  5
314
330
1F
100
AcDbEntity
  8
0-4_棚
  6
Continuous
 62
    40
370
    15
100
AcDbLine
 10
4410.835896989101
 20
-444.6834931468575
 30
0.0
 11
4410.835896989101
 21
-422.1834931468588
 31
0.0
  0
LINE
  5
315
330
1F
100
AcDbEntity
  8
0-4_棚
  6
Continuous
 62
    40
370
    15
100
AcDbLine
 10
4992.835896989101
 20
-692.1834931468588
 30
0.0
 11
4992.835896989101
 21
-714.6834931468588
 31
0.0
  0
LINE
  5
316
330
1F
100
AcDbEntity
  8
0-4_棚
  6
Continuous
 62
    40
370
    15
100
AcDbLine
 10
4992.835896989101
 20
-714.6834931468588
 30
0.0
 11
4410.835896989101
 21
-714.6834931468588
 31
0.0
  0
LINE
  5
317
330
1F
100
AcDbEntity
  8
0-4_棚
  6
Continuous
 62
    40
370
    15
100
AcDbLine
 10
4992.835896989101
 20
-692.1834931468588
 30
0.0
 11
4410.835896989101
 21
-692.1834931468588
 31
0.0
  0
LINE
  5
318
330
1F
100
AcDbEntity
  8
0-4_棚
  6
Continuous
 62
    40
370
    15
100
AcDbLine
 10
4410.835896989101
 20
-714.6834931468588
 30
0.0
 11
4410.835896989101
 21
-692.1834931468588
 31
0.0
  0
LINE
  5
319
330
1F
100
AcDbEntity
  8
0-B_寸法
  6
Continuous
 62
   120
370
     5
100
AcDbLine
 10
4410.835896989101
 20
-834.683493146859
 30
0.0
 11
4992.835896989101
 21
-834.683493146859
 31
0.0
  0
LWPOLYLINE
  5
31A
330
1F
100
AcDbEntity
  8
0-B_寸法
  6
Continuous
 62
     7
370
     9
100
AcDbPolyline
 90
        4
 70
     1
 43
3.0
 10
4412.335896989101
 20
-834.683493146859
 42
0.4142135623731
 10
4410.835896989101
 20
-833.1834931468588
 42
0.4142135623731
 10
4409.335896989101
 20
-834.683493146859
 42
0.4142135623731
 10
4410.835896989101
 20
-836.183493146859
 42
0.4142135623731
  0
LWPOLYLINE
  5
31B
330
1F
100
AcDbEntity
  8
0-B_寸法
  6
Continuous
 62
     7
370
     9
100
AcDbPolyline
 90
        4
 70
     1
 43
3.0
 10
4994.335896989102
 20
-834.683493146859
 42
0.4142135623731
 10
4992.835896989101
 20
-833.1834931468588
 42
0.4142135623731
 10
4991.335896989101
 20
-834.683493146859
 42
0.4142135623731
 10
4992.835896989101
 20
-836.183493146859
 42
0.4142135623731
  0
LINE
  5
31C
330
1F
100
AcDbEntity
  8
0-B_寸法
  6
Continuous
 62
   120
370
     5
100
AcDbLine
 10
4410.835896989101
 20
-834.683493146859
 30
0.0
 11
4410.835896989101
 21
-744.6834931468588
 31
0.0
  0
LINE
  5
31D
330
1F
100
AcDbEntity
  8
0-B_寸法
  6
Continuous
 62
   120
370
     5
100
AcDbLine
 10
4992.835896989101
 20
-834.683493146859
 30
0.0
 11
4992.835896989101
 21
-744.6834931468588
 31
0.0
  0
TEXT
  5
31E
330
1F
100
AcDbEntity
  8
0-B_寸法
  6
Continuous
 62
     7
370
   211
100
AcDbText
 10
4495.585896989101
 20
-809.1084931468589
 30
0.0
 40
57.15000000000001
  1
可動棚＝388
 41
0.9999999999999999
  7
ＭＳ ゴシック
100
AcDbText
  0
CIRCLE
  5
31F
330
1F
100
AcDbEntity
  8
0-5_ダボ
  6
Continuous
 62
     7
370
     9
100
AcDbCircle
 10
4439.335896989101
 20
-448.4334931468588
 30
0.0
 40
3.675
  0
CIRCLE
  5
320
330
1F
100
AcDbEntity
  8
0-5_ダボ
  6
Continuous
 62
     7
370
     9
100
AcDbCircle
 10
4439.335896989101
 20
-493.4334931468588
 30
0.0
 40
3.675
  0
CIRCLE
  5
321
330
1F
100
AcDbEntity
  8
0-5_ダボ
  6
Continuous
 62
     7
370
     9
100
AcDbCircle
 10
4439.335896989101
 20
-538.4334931468588
 30
0.0
 40
3.675
  0
CIRCLE
  5
322
330
1F
100
AcDbEntity
  8
0-5_ダボ
  6
Continuous
 62
     7
370
     9
100
AcDbCircle
 10
4439.335896989101
 20
-583.4334931468588
 30
0.0
 40
3.675
  0
CIRCLE
  5
323
330
1F
100
AcDbEntity
  8
0-5_ダボ
  6
Continuous
 62
     7
370
     9
100
AcDbCircle
 10
4439.335896989101
 20
-628.4334931468588
 30
0.0
 40
3.675
  0
CIRCLE
  5
324
330
1F
100
AcDbEntity
  8
0-5_ダボ
  6
Continuous
 62
     7
370
     9
100
AcDbCircle
 10
4439.335896989101
 20
-673.4334931468588
 30
0.0
 40
3.675
  0
CIRCLE
  5
325
330
1F
100
AcDbEntity
  8
0-5_ダボ
  6
Continuous
 62
     7
370
     9
100
AcDbCircle
 10
4439.335896989101
 20
-718.4334931468588
 30
0.0
 40
3.675
  0
CIRCLE
  5
326
330
1F
100
AcDbEntity
  8
0-5_ダボ
  6
Continuous
 62
     7
370
     9
100
AcDbCircle
 10
4934.335896989101
 20
-448.4334931468588
 30
0.0
 40
3.675
  0
CIRCLE
  5
327
330
1F
100
AcDbEntity
  8
0-5_ダボ
  6
Continuous
 62
     7
370
     9
100
AcDbCircle
 10
4934.335896989101
 20
-493.4334931468588
 30
0.0
 40
3.675
  0
CIRCLE
  5
328
330
1F
100
AcDbEntity
  8
0-5_ダボ
  6
Continuous
 62
     7
370
     9
100
AcDbCircle
 10
4934.335896989101
 20
-538.4334931468588
 30
0.0
 40
3.675
  0
CIRCLE
  5
329
330
1F
100
AcDbEntity
  8
0-5_ダボ
  6
Continuous
 62
     7
370
     9
100
AcDbCircle
 10
4934.335896989101
 20
-583.4334931468588
 30
0.0
 40
3.675
  0
CIRCLE
  5
32A
330
1F
100
AcDbEntity
  8
0-5_ダボ
  6
Continuous
 62
     7
370
     9
100
AcDbCircle
 10
4934.335896989101
 20
-628.4334931468588
 30
0.0
 40
3.675
  0
CIRCLE
  5
32B
330
1F
100
AcDbEntity
  8
0-5_ダボ
  6
Continuous
 62
     7
370
     9
100
AcDbCircle
 10
4934.335896989101
 20
-673.4334931468588
 30
0.0
 40
3.675
  0
CIRCLE
  5
32C
330
1F
100
AcDbEntity
  8
0-5_ダボ
  6
Continuous
 62
     7
370
     9
100
AcDbCircle
 10
4934.335896989101
 20
-718.4334931468588
 30
0.0
 40
3.675
  0
LINE
  5
32D
330
1F
100
AcDbEntity
  8
0-1_本体
  6
Continuous
 62
    40
370
    15
100
AcDbLine
 10
4996.585896989101
 20
-1.433493146858211
 30
0.0
 11
4996.585896989101
 21
-1003.433565523008
 31
0.0
  0
LINE
  5
32E
330
1F
100
AcDbEntity
  8
0-1_本体
  6
Continuous
 62
    40
370
    15
100
AcDbLine
 10
4992.835896989101
 20
-1.433493146858211
 30
0.0
 11
4997.335896989101
 21
-1.433493146858211
 31
0.0
  0
LINE
  5
32F
330
1F
100
AcDbEntity
  8
0-1_本体
  6
Continuous
 62
    40
370
    15
100
AcDbLine
 10
4997.335896989101
 20
6.066506853141789
 30
0.0
 11
4997.335896989101
 21
-1.433493146858211
 31
0.0
  0
LINE
  5
330
330
1F
100
AcDbEntity
  8
0-1_本体
  6
Continuous
 62
    40
370
    15
100
AcDbLine
 10
4997.335896989101
 20
-1003.433565523008
 30
0.0
 11
4997.335896989101
 21
-1012.433493146858
 31
0.0
  0
LINE
  5
331
330
1F
100
AcDbEntity
  8
0-1_本体
  6
Continuous
 62
    40
370
    15
100
AcDbLine
 10
4997.335896989101
 20
-1003.433565523008
 30
0.0
 11
4992.835896989101
 21
-1003.433565523008
 31
0.0
  0
LINE
  5
332
330
1F
100
AcDbEntity
  8
0-2_扉
  6
Continuous
 62
    40
370
    15
100
AcDbLine
 10
4385.335896989105
 20
-1012.433115359272
 30
0.0
 11
4385.335896989105
 21
-182.932815073373
 31
0.0
  0
LINE
  5
333
330
1F
100
AcDbEntity
  8
0-2_扉
  6
Continuous
 62
    40
370
    15
100
AcDbLine
 10
4385.335896989105
 20
-178.4328150733737
 30
0.0
 11
4385.335896989105
 21
1.567184926626339
 31
0.0
  0
LINE
  5
334
330
1F
100
AcDbEntity
  8
0-2_扉
  6
Continuous
 62
    40
370
    15
100
AcDbLine
 10
4358.335896989104
 20
-1012.433115359272
 30
0.0
 11
4385.335896989105
 21
-1012.433115359272
 31
0.0
  0
LINE
  5
335
330
1F
100
AcDbEntity
  8
0-2_扉
  6
Continuous
 62
    40
370
    15
100
AcDbLine
 10
4358.335896989104
 20
-178.4328150733737
 30
0.0
 11
4385.335896989105
 21
-178.4328150733737
 31
0.0
  0
LINE
  5
336
330
1F
100
AcDbEntity
  8
0-2_扉
  6
Continuous
 62
    40
370
    15
100
AcDbLine
 10
4358.335896989104
 20
-1012.433115359272
 30
0.0
 11
4358.335896989104
 21
-182.932815073373
 31
0.0
  0
LINE
  5
337
330
1F
100
AcDbEntity
  8
0-2_扉
  6
Continuous
 62
    40
370
    15
100
AcDbLine
 10
4358.335896989104
 20
-182.932815073373
 30
0.0
 11
4385.335896989105
 21
-182.932815073373
 31
0.0
  0
LINE
  5
338
330
1F
100
AcDbEntity
  8
0-2_扉
  6
Continuous
 62
    40
370
    15
100
AcDbLine
 10
4358.335896989104
 20
-178.4328150733737
 30
0.0
 11
4358.335896989104
 21
1.567184926626339
 31
0.0
  0
LINE
  5
339
330
1F
100
AcDbEntity
  8
0-2_扉
  6
Continuous
 62
    40
370
    15
100
AcDbLine
 10
4358.335896989104
 20
1.567184926626339
 30
0.0
 11
4385.335896989105
 21
1.567184926626339
 31
0.0
  0
LINE
  5
33A
330
1F
100
AcDbEntity
  8
0-4_棚
  6
JWW_CENTER1
 62
   120
370
     5
100
AcDbLine
 10
4385.335896989105
 20
-49.43281507337375
 30
0.0
 11
4385.335896989105
 21
-169.4328150733737
 31
0.0
  0
LINE
  5
33B
330
1F
100
AcDbEntity
  8
0-4_棚
  6
JWW_CENTER1
 62
   120
370
     5
100
AcDbLine
 10
4910.335896989105
 20
-49.43281507337375
 30
0.0
 11
4385.335896989105
 21
-49.43281507337375
 31
0.0
  0
LINE
  5
33C
330
1F
100
AcDbEntity
  8
0-4_棚
  6
JWW_CENTER1
 62
   120
370
     5
100
AcDbLine
 10
4910.335896989105
 20
-169.4328150733737
 30
0.0
 11
4910.335896989105
 21
-49.43281507337375
 31
0.0
  0
TEXT
  5
33D
330
1F
100
AcDbEntity
  8
0-A_文字
  6
Continuous
 62
     7
370
     9
100
AcDbText
 10
4478.287639684224
 20
-158.8578150733738
 30
0.0
 40
57.15000000000001
  1
ｽﾗｲﾄﾞﾚｰﾙ L400
 41
0.9999999999999999
  7
ＭＳ ゴシック
100
AcDbText
  0
TEXT
  5
33E
330
1F
100
AcDbEntity
  8
0-A_文字
  6
Continuous
 62
     7
370
     9
100
AcDbText
 10
4412.335896989102
 20
-86.88304746277727
 30
0.0
 40
57.15000000000001
  1
BOX 363x80x350
 41
0.9999999999999998
  7
ＭＳ ゴシック
100
AcDbText
  0
LINE
  5
33F
330
1F
100
AcDbEntity
  8
0-1_本体
  6
Continuous
 62
    40
370
    15
100
AcDbLine
 10
4389.0858969891
 20
-1162.433493146858
 30
0.0
 11
4389.0858969891
 21
-1012.433493146858
 31
0.0
  0
LINE
  5
340
330
1F
100
AcDbEntity
  8
0-1_本体
  6
Continuous
 62
     7
370
     9
100
AcDbLine
 10
4389.0858969891
 20
-1162.433493146858
 30
0.0
 11
4385.335896989105
 21
-1162.433493146858
 31
0.0
  0
LINE
  5
341
330
1F
100
AcDbEntity
  8
0-1_本体
  6
Continuous
 62
    40
370
    15
100
AcDbLine
 10
4412.335896989096
 20
-1162.433493146858
 30
0.0
 11
4412.335896989096
 21
-1012.433493146858
 31
0.0
  0
LINE
  5
342
330
1F
100
AcDbEntity
  8
0-1_本体
  6
Continuous
 62
    40
370
    15
100
AcDbLine
 10
4412.335896989096
 20
-1162.433493146858
 30
0.0
 11
4389.0858969891
 21
-1162.433493146858
 31
0.0
  0
LINE
  5
343
330
1F
100
AcDbEntity
  8
0-1_本体
  6
Continuous
 62
     7
370
     9
100
AcDbLine
 10
4412.335896989096
 20
-1162.433493146858
 30
0.0
 11
4997.335896989101
 21
-1162.433493146858
 31
0.0
  0
LWPOLYLINE
  5
344
330
1F
100
AcDbEntity
  8
0-B_寸法
  6
Continuous
 62
     7
370
     9
100
AcDbPolyline
 90
        4
 70
     1
 43
3.0
 10
4386.835896989105
 20
-1387.433493146858
 42
0.4142135623731
 10
4385.335896989105
 20
-1385.933493146858
 42
0.4142135623731
 10
4383.835896989105
 20
-1387.433493146858
 42
0.4142135623731
 10
4385.335896989105
 20
-1388.933493146858
 42
0.4142135623731
  0
LWPOLYLINE
  5
345
330
1F
100
AcDbEntity
  8
0-B_寸法
  6
Continuous
 62
     7
370
     9
100
AcDbPolyline
 90
        4
 70
     1
 43
3.0
 10
4390.585896989101
 20
-1387.433493146858
 42
0.4142135623731
 10
4389.0858969891
 20
-1385.933493146858
 42
0.4142135623731
 10
4387.5858969891
 20
-1387.433493146858
 42
0.4142135623731
 10
4389.0858969891
 20
-1388.933493146858
 42
0.4142135623731
  0
LINE
  5
346
330
1F
100
AcDbEntity
  8
0-B_寸法
  6
Continuous
 62
   120
370
     5
100
AcDbLine
 10
4389.0858969891
 20
-1387.433493146858
 30
0.0
 11
4389.0858969891
 21
-1237.433493146858
 31
0.0
  0
LINE
  5
347
330
1F
100
AcDbEntity
  8
0-B_寸法
  6
Continuous
 62
   120
370
     5
100
AcDbLine
 10
4389.0858969891
 20
-1387.433493146858
 30
0.0
 11
4412.335896989096
 21
-1387.433493146858
 31
0.0
  0
LWPOLYLINE
  5
348
330
1F
100
AcDbEntity
  8
0-B_寸法
  6
Continuous
 62
     7
370
     9
100
AcDbPolyline
 90
        4
 70
     1
 43
3.0
 10
4413.835896989096
 20
-1387.433493146858
 42
0.4142135623731
 10
4412.335896989096
 20
-1385.933493146858
 42
0.4142135623731
 10
4410.835896989095
 20
-1387.433493146858
 42
0.4142135623731
 10
4412.335896989096
 20
-1388.933493146858
 42
0.4142135623731
  0
LINE
  5
349
330
1F
100
AcDbEntity
  8
0-B_寸法
  6
Continuous
 62
   120
370
     5
100
AcDbLine
 10
4412.335896989096
 20
-1387.433493146858
 30
0.0
 11
4412.335896989096
 21
-1237.433493146858
 31
0.0
  0
LINE
  5
34A
330
1F
100
AcDbEntity
  8
0-B_寸法
  6
Continuous
 62
   120
370
     5
100
AcDbLine
 10
4412.335896989096
 20
-1387.433493146858
 30
0.0
 11
4997.335896989101
 21
-1387.433493146858
 31
0.0
  0
LWPOLYLINE
  5
34B
330
1F
100
AcDbEntity
  8
0-B_寸法
  6
Continuous
 62
     7
370
     9
100
AcDbPolyline
 90
        4
 70
     1
 43
3.0
 10
4998.835896989101
 20
-1387.433493146858
 42
0.4142135623731
 10
4997.335896989101
 20
-1385.933493146858
 42
0.4142135623731
 10
4995.835896989101
 20
-1387.433493146858
 42
0.4142135623731
 10
4997.335896989101
 20
-1388.933493146858
 42
0.4142135623731
  0
TEXT
  5
34C
330
1F
100
AcDbEntity
  8
0-B_寸法
  6
Continuous
 62
     7
370
   211
100
AcDbText
 10
4629.835896989099
 20
-1359.743493146858
 30
0.0
 40
68.58
  1
390
 41
1.111111111111111
  7
ＭＳ ゴシック
100
AcDbText
  0
TEXT
  5
34D
330
1F
100
AcDbEntity
  8
0-B_寸法
  6
Continuous
 62
     7
370
   211
100
AcDbText
 10
4226.028224212803
 20
-1359.743493146858
 30
0.0
 40
68.58
  1
2.5
 41
1.111111111111111
  7
ＭＳ ゴシック
100
AcDbText
  0
TEXT
  5
34E
330
1F
100
AcDbEntity
  8
0-B_寸法
  6
Continuous
 62
     7
370
   211
100
AcDbText
 10
4173.528224212803
 20
-1479.743493146858
 30
0.0
 40
68.58
  1
15.5
 41
1.125
  7
ＭＳ ゴシック
100
AcDbText
  0
LINE
  5
34F
330
1F
100
AcDbEntity
  8
0-B_寸法
  6
Continuous
 62
   120
370
     5
100
AcDbLine
 10
4226.028224212803
 20
-1387.433493146858
 30
0.0
 11
4389.0858969891
 21
-1387.433493146858
 31
0.0
  0
ENDSEC
  0
SECTION
  2
OBJECTS
  0
DICTIONARY
  5
C
330
0
100
AcDbDictionary
281
     1
  3
ACAD_GROUP
350
D
  3
ACAD_LAYOUT
350
1A
  3
ACAD_MATERIAL
350
3B
  3
ACAD_MLEADERSTYLE
350
351
  3
ACAD_MLINESTYLE
350
17
  3
ACAD_PLOTSETTINGS
350
19
  3
ACAD_PLOTSTYLENAME
350
E
  3
ACAD_TABLESTYLE
350
350
  3
ACAD_VISUALSTYLE
350
2A
  0
DICTIONARY
  5
D
102
{ACAD_REACTORS
330
C
102
}
330
C
100
AcDbDictionary
281
     1
  0
DICTIONARY
  5
1A
102
{ACAD_REACTORS
330
C
102
}
330
C
100
AcDbDictionary
281
     1
  3
Layout1
350
1E
  3
Layout2
350
26
  3
Model
350
22
  0
DICTIONARY
  5
3B
102
{ACAD_REACTORS
330
C
102
}
330
C
100
AcDbDictionary
281
     1
  3
ByBlock
350
3D
  3
ByLayer
350
3C
  3
Global
350
3E
  0
DICTIONARY
  5
351
102
{ACAD_REACTORS
330
C
102
}
330
C
100
AcDbDictionary
281
     1
  0
DICTIONARY
  5
17
102
{ACAD_REACTORS
330
C
102
}
330
C
100
AcDbDictionary
281
     1
  3
Standard
350
18
  0
DICTIONARY
  5
19
102
{ACAD_REACTORS
330
C
102
}
330
C
100
AcDbDictionary
281
     1
  0
ACDBDICTIONARYWDFLT
  5
E
102
{ACAD_REACTORS
330
C
102
}
330
C
100
AcDbDictionary
281
     1
  3
Normal
350
F
100
AcDbDictionaryWithDefault
340
F
  0
DICTIONARY
  5
350
102
{ACAD_REACTORS
330
C
102
}
330
C
100
AcDbDictionary
281
     1
  0
DICTIONARY
  5
2A
102
{ACAD_REACTORS
330
C
102
}
330
C
100
AcDbDictionary
281
     1
  3
2dWireframe
350
2F
  3
3D Hidden
350
31
  3
3dWireframe
350
30
  3
Basic
350
32
  3
Brighten
350
36
  3
ColorChange
350
3A
  3
Conceptual
350
34
  3
Dim
350
35
  3
Facepattern
350
39
  3
Flat
350
2B
  3
FlatWithEdges
350
2C
  3
Gouraud
350
2D
  3
GouraudWithEdges
350
2E
  3
Linepattern
350
38
  3
Realistic
350
33
  3
Thicken
350
37
  0
LAYOUT
  5
1E
102
{ACAD_REACTORS
330
1A
102
}
330
1A
100
AcDbPlotSettings
  1

  2
none_device
  4

  6

 40
0.0
 41
0.0
 42
0.0
 43
0.0
 44
0.0
 45
0.0
 46
0.0
 47
0.0
 48
0.0
 49
0.0
140
0.0
141
0.0
142
1.0
143
1.0
 70
   688
 72
     0
 73
     0
 74
     5
  7

 75
    16
 76
     0
 77
     5
 78
   300
147
1.0
148
0.0
149
0.0
100
AcDbLayout
  1
Layout1
 70
     1
 71
     1
 10
0.0
 20
0.0
 11
420.0
 21
297.0
 12
0.0
 22
0.0
 32
0.0
 14
1.000000000000000E+20
 24
1.000000000000000E+20
 34
1.000000000000000E+20
 15
-1.000000000000000E+20
 25
-1.000000000000000E+20
 35
-1.000000000000000E+20
146
0.0
 13
0.0
 23
0.0
 33
0.0
 16
1.0
 26
0.0
 36
0.0
 17
0.0
 27
1.0
 37
0.0
 76
     0
330
1B
  0
LAYOUT
  5
26
102
{ACAD_REACTORS
330
1A
102
}
330
1A
100
AcDbPlotSettings
  1

  2
none_device
  4

  6

 40
0.0
 41
0.0
 42
0.0
 43
0.0
 44
0.0
 45
0.0
 46
0.0
 47
0.0
 48
0.0
 49
0.0
140
0.0
141
0.0
142
1.0
143
1.0
 70
   688
 72
     0
 73
     0
 74
     5
  7

 75
    16
 76
     0
 77
     5
 78
   300
147
1.0
148
0.0
149
0.0
100
AcDbLayout
  1
Layout2
 70
     1
 71
     2
 10
0.0
 20
0.0
 11
0.0
 21
0.0
 12
0.0
 22
0.0
 32
0.0
 14
0.0
 24
0.0
 34
0.0
 15
0.0
 25
0.0
 35
0.0
146
0.0
 13
0.0
 23
0.0
 33
0.0
 16
1.0
 26
0.0
 36
0.0
 17
0.0
 27
1.0
 37
0.0
 76
     0
330
23
  0
LAYOUT
  5
22
102
{ACAD_REACTORS
330
1A
102
}
330
1A
100
AcDbPlotSettings
  1

  2
none_device
  4

  6

 40
0.0
 41
0.0
 42
0.0
 43
0.0
 44
0.0
 45
0.0
 46
0.0
 47
0.0
 48
0.0
 49
0.0
140
0.0
141
0.0
142
1.0
143
1.0
 70
  1712
 72
     0
 73
     0
 74
     0
  7

 75
     0
 76
     0
 77
     5
 78
   300
147
1.0
148
0.0
149
0.0
100
AcDbLayout
  1
Model
 70
     1
 71
     0
 10
-6300.0
 20
-4455.0
 11
6300.0
 21
4455.0
 12
0.0
 22
0.0
 32
0.0
 14
-6300.0
 24
-4455.0
 34
0.0
 15
6300.0
 25
4455.0
 35
0.0
146
0.0
 13
0.0
 23
0.0
 33
0.0
 16
1.0
 26
0.0
 36
0.0
 17
0.0
 27
1.0
 37
0.0
 76
     0
330
1F
331
29
  0
MATERIAL
  5
3D
102
{ACAD_REACTORS
330
3B
102
}
330
3B
100
AcDbMaterial
  1
ByBlock
 72
     1
 94
      127
  0
MATERIAL
  5
3C
102
{ACAD_REACTORS
330
3B
102
}
330
3B
100
AcDbMaterial
  1
ByLayer
 72
     1
 94
      127
  0
MATERIAL
  5
3E
102
{ACAD_REACTORS
330
3B
102
}
330
3B
100
AcDbMaterial
  1
Global
 72
     1
 94
      127
  0
MLINESTYLE
  5
18
102
{ACAD_REACTORS
330
17
102
}
330
17
100
AcDbMlineStyle
  2
Standard
 70
     0
  3

 62
   256
 51
90.0
 52
90.0
 71
     2
 49
0.5
 62
   256
  6
BYLAYER
 49
-0.5
 62
   256
  6
BYLAYER
  0
ACDBPLACEHOLDER
  5
F
102
{ACAD_REACTORS
330
E
102
}
330
E
  0
VISUALSTYLE
  5
2F
102
{ACAD_REACTORS
330
2A
102
}
330
2A
100
AcDbVisualStyle
  2
2dWireframe
 70
     4
177
     2
291
     0
 71
     0
176
     1
 72
     2
176
     1
 73
     0
176
     1
 90
        0
176
     1
 40
-0.6
176
     1
 41
-30.0
176
     1
 62
     5
 63
     7
421
 16777215
176
     1
 74
     1
176
     1
 91
        4
176
     1
 64
     7
176
     1
 65
   257
176
     1
 75
     1
176
     1
175
     1
176
     1
 42
1.0
176
     1
 92
        0
176
     1
 66
   257
176
     1
 43
1.0
176
     1
 76
     1
176
     1
 77
     6
176
     1
 78
     2
176
     1
 67
     7
176
     1
 79
     5
176
     1
170
     0
176
     1
171
     0
176
     1
290
     0
176
     1
 93
        1
176
     1
 44
0.0
176
     1
173
     0
176
     1
  0
VISUALSTYLE
  5
31
102
{ACAD_REACTORS
330
2A
102
}
330
2A
100
AcDbVisualStyle
  2
3D Hidden
 70
     6
177
     2
291
     0
 71
     1
176
     1
 72
     2
176
     1
 73
     2
176
     1
 90
        0
176
     1
 40
-0.6
176
     1
 41
-30.0
176
     1
 62
     5
 63
     7
421
 16777215
176
     1
 74
     2
176
     1
 91
        2
176
     1
 64
     7
176
     1
 65
   257
176
     1
 75
     2
176
     1
175
     1
176
     1
 42
40.0
176
     1
 92
        0
176
     1
 66
   257
176
     1
 43
1.0
176
     1
 76
     1
176
     1
 77
     6
176
     1
 78
     2
176
     1
 67
     7
176
     1
 79
     3
176
     1
170
     0
176
     1
171
     0
176
     1
290
     0
176
     1
 93
        1
176
     1
 44
0.0
176
     1
173
     0
176
     1
  0
VISUALSTYLE
  5
30
102
{ACAD_REACTORS
330
2A
102
}
330
2A
100
AcDbVisualStyle
  2
3dWireframe
 70
     5
177
     2
291
     0
 71
     0
176
     1
 72
     2
176
     1
 73
     0
176
     1
 90
        0
176
     1
 40
-0.6
176
     1
 41
-30.0
176
     1
 62
     5
 63
     7
421
 16777215
176
     1
 74
     1
176
     1
 91
        4
176
     1
 64
     7
176
     1
 65
   257
176
     1
 75
     1
176
     1
175
     1
176
     1
 42
1.0
176
     1
 92
        0
176
     1
 66
   257
176
     1
 43
1.0
176
     1
 76
     1
176
     1
 77
     6
176
     1
 78
     2
176
     1
 67
     7
176
     1
 79
     5
176
     1
170
     0
176
     1
171
     0
176
     1
290
     0
176
     1
 93
        1
176
     1
 44
0.0
176
     1
173
     0
176
     1
  0
VISUALSTYLE
  5
32
102
{ACAD_REACTORS
330
2A
102
}
330
2A
100
AcDbVisualStyle
  2
Basic
 70
     7
177
     2
291
     1
 71
     1
176
     1
 72
     0
176
     1
 73
     1
176
     1
 90
        0
176
     1
 40
-0.6
176
     1
 41
-30.0
176
     1
 62
     5
 63
     7
421
 16777215
176
     1
 74
     0
176
     1
 91
        4
176
     1
 64
     7
176
     1
 65
   257
176
     1
 75
     1
176
     1
175
     1
176
     1
 42
1.0
176
     1
 92
        8
176
     1
 66
     7
176
     1
 43
1.0
176
     1
 76
     1
176
     1
 77
     6
176
     1
 78
     2
176
     1
 67
     7
176
     1
 79
     5
176
     1
170
     0
176
     1
171
     0
176
     1
290
     0
176
     1
 93
        1
176
     1
 44
0.0
176
     1
173
     0
176
     1
  0
VISUALSTYLE
  5
36
102
{ACAD_REACTORS
330
2A
102
}
330
2A
100
AcDbVisualStyle
  2
Brighten
 70
    12
177
     2
291
     1
 71
     2
176
     1
 72
     2
176
     1
 73
     0
176
     1
 90
        0
176
     1
 40
-0.6
176
     1
 41
-30.0
176
     1
 62
     5
 63
     7
421
 16777215
176
     1
 74
     1
176
     1
 91
        4
176
     1
 64
     7
176
     1
 65
   257
176
     1
 75
     1
176
     1
175
     1
176
     1
 42
1.0
176
     1
 92
        8
176
     1
 66
     7
176
     1
 43
1.0
176
     1
 76
     1
176
     1
 77
     6
176
     1
 78
     2
176
     1
 67
     7
176
     1
 79
     5
176
     1
170
     0
176
     1
171
     0
176
     1
290
     0
176
     1
 93
        1
176
     1
 44
50.0
176
     1
173
     0
176
     1
  0
VISUALSTYLE
  5
3A
102
{ACAD_REACTORS
330
2A
102
}
330
2A
100
AcDbVisualStyle
  2
ColorChange
 70
    16
177
     2
291
     1
 71
     2
176
     1
 72
     2
176
     1
 73
     3
176
     1
 90
        0
176
     1
 40
-0.6
176
     1
 41
-30.0
176
     1
 62
     5
 63
     8
421
  8421504
176
     1
 74
     1
176
     1
 91
        4
176
     1
 64
     7
176
     1
 65
   257
176
     1
 75
     1
176
     1
175
     1
176
     1
 42
1.0
176
     1
 92
        8
176
     1
 66
     8
424
  8421504
176
     1
 43
1.0
176
     1
 76
     1
176
     1
 77
     6
176
     1
 78
     2
176
     1
 67
     7
176
     1
 79
     5
176
     1
170
     0
176
     1
171
     0
176
     1
290
     0
176
     1
 93
        1
176
     1
 44
0.0
176
     1
173
     0
176
     1
  0
VISUALSTYLE
  5
34
102
{ACAD_REACTORS
330
2A
102
}
330
2A
100
AcDbVisualStyle
  2
Conceptual
 70
     9
177
     2
291
     0
 71
     3
176
     1
 72
     2
176
     1
 73
     0
176
     1
 90
        0
176
     1
 40
-0.6
176
     1
 41
-30.0
176
     1
 62
     5
 63
     7
421
 16777215
176
     1
 74
     2
176
     1
 91
        2
176
     1
 64
     7
176
     1
 65
   257
176
     1
 75
     1
176
     1
175
     1
176
     1
 42
40.0
176
     1
 92
        8
176
     1
 66
     7
176
     1
 43
1.0
176
     1
 76
     1
176
     1
 77
     6
176
     1
 78
     2
176
     1
 67
     7
176
     1
 79
     3
176
     1
170
     0
176
     1
171
     0
176
     1
290
     0
176
     1
 93
        1
176
     1
 44
0.0
176
     1
173
     0
176
     1
  0
VISUALSTYLE
  5
35
102
{ACAD_REACTORS
330
2A
102
}
330
2A
100
AcDbVisualStyle
  2
Dim
 70
    11
177
     2
291
     1
 71
     2
176
     1
 72
     2
176
     1
 73
     0
176
     1
 90
        0
176
     1
 40
-0.6
176
     1
 41
-30.0
176
     1
 62
     5
 63
     7
421
 16777215
176
     1
 74
     1
176
     1
 91
        4
176
     1
 64
     7
176
     1
 65
   257
176
     1
 75
     1
176
     1
175
     1
176
     1
 42
1.0
176
     1
 92
        8
176
     1
 66
     7
176
     1
 43
1.0
176
     1
 76
     1
176
     1
 77
     6
176
     1
 78
     2
176
     1
 67
     7
176
     1
 79
     5
176
     1
170
     0
176
     1
171
     0
176
     1
290
     0
176
     1
 93
        1
176
     1
 44
-50.0
176
     1
173
     0
176
     1
  0
VISUALSTYLE
  5
39
102
{ACAD_REACTORS
330
2A
102
}
330
2A
100
AcDbVisualStyle
  2
Facepattern
 70
    15
177
     2
291
     1
 71
     2
176
     1
 72
     2
176
     1
 73
     0
176
     1
 90
        0
176
     1
 40
-0.6
176
     1
 41
-30.0
176
     1
 62
     5
 63
     7
421
 16777215
176
     1
 74
     1
176
     1
 91
        4
176
     1
 64
     7
176
     1
 65
   257
176
     1
 75
     1
176
     1
175
     1
176
     1
 42
1.0
176
     1
 92
        8
176
     1
 66
     7
176
     1
 43
1.0
176
     1
 76
     1
176
     1
 77
     6
176
     1
 78
     2
176
     1
 67
     7
176
     1
 79
     5
176
     1
170
     0
176
     1
171
     0
176
     1
290
     0
176
     1
 93
        1
176
     1
 44
0.0
176
     1
173
     0
176
     1
  0
VISUALSTYLE
  5
2B
102
{ACAD_REACTORS
330
2A
102
}
330
2A
100
AcDbVisualStyle
  2
Flat
 70
     0
177
     2
291
     1
 71
     2
176
     1
 72
     1
176
     1
 73
     1
176
     1
 90
        2
176
     1
 40
-0.6
176
     1
 41
30.0
176
     1
 62
     5
 63
     7
421
 16777215
176
     1
 74
     0
176
     1
 91
        4
176
     1
 64
     7
176
     1
 65
   257
176
     1
 75
     1
176
     1
175
     1
176
     1
 42
1.0
176
     1
 92
        8
176
     1
 66
     7
176
     1
 43
1.0
176
     1
 76
     1
176
     1
 77
     6
176
     1
 78
     2
176
     1
 67
     7
176
     1
 79
     5
176
     1
170
     0
176
     1
171
     0
176
     1
290
     0
176
     1
 93
       13
176
     1
 44
0.0
176
     1
173
     0
176
     1
  0
VISUALSTYLE
  5
2C
102
{ACAD_REACTORS
330
2A
102
}
330
2A
100
AcDbVisualStyle
  2
FlatWithEdges
 70
     1
177
     2
291
     1
 71
     2
176
     1
 72
     1
176
     1
 73
     1
176
     1
 90
        2
176
     1
 40
-0.6
176
     1
 41
30.0
176
     1
 62
     5
 63
     7
421
 16777215
176
     1
 74
     1
176
     1
 91
        4
176
     1
 64
     7
176
     1
 65
   257
176
     1
 75
     1
176
     1
175
     1
176
     1
 42
1.0
176
     1
 92
        0
176
     1
 66
   257
176
     1
 43
1.0
176
     1
 76
     1
176
     1
 77
     6
176
     1
 78
     2
176
     1
 67
     7
176
     1
 79
     5
176
     1
170
     0
176
     1
171
     0
176
     1
290
     0
176
     1
 93
       13
176
     1
 44
0.0
176
     1
173
     0
176
     1
  0
VISUALSTYLE
  5
2D
102
{ACAD_REACTORS
330
2A
102
}
330
2A
100
AcDbVisualStyle
  2
Gouraud
 70
     2
177
     2
291
     1
 71
     2
176
     1
 72
     2
176
     1
 73
     1
176
     1
 90
        2
176
     1
 40
-0.6
176
     1
 41
30.0
176
     1
 62
     5
 63
     7
421
 16777215
176
     1
 74
     0
176
     1
 91
        4
176
     1
 64
     7
176
     1
 65
   257
176
     1
 75
     1
176
     1
175
     1
176
     1
 42
1.0
176
     1
 92
        0
176
     1
 66
     7
176
     1
 43
1.0
176
     1
 76
     1
176
     1
 77
     6
176
     1
 78
     2
176
     1
 67
     7
176
     1
 79
     5
176
     1
170
     0
176
     1
171
     0
176
     1
290
     0
176
     1
 93
       13
176
     1
 44
0.0
176
     1
173
     0
176
     1
  0
VISUALSTYLE
  5
2E
102
{ACAD_REACTORS
330
2A
102
}
330
2A
100
AcDbVisualStyle
  2
GouraudWithEdges
 70
     3
177
     2
291
     1
 71
     2
176
     1
 72
     2
176
     1
 73
     1
176
     1
 90
        2
176
     1
 40
-0.6
176
     1
 41
30.0
176
     1
 62
     5
 63
     7
421
 16777215
176
     1
 74
     1
176
     1
 91
        4
176
     1
 64
     7
176
     1
 65
   257
176
     1
 75
     1
176
     1
175
     1
176
     1
 42
1.0
176
     1
 92
        0
176
     1
 66
   257
176
     1
 43
1.0
176
     1
 76
     1
176
     1
 77
     6
176
     1
 78
     2
176
     1
 67
     7
176
     1
 79
     5
176
     1
170
     0
176
     1
171
     0
176
     1
290
     0
176
     1
 93
       13
176
     1
 44
0.0
176
     1
173
     0
176
     1
  0
VISUALSTYLE
  5
38
102
{ACAD_REACTORS
330
2A
102
}
330
2A
100
AcDbVisualStyle
  2
Linepattern
 70
    14
177
     2
291
     1
 71
     2
176
     1
 72
     2
176
     1
 73
     0
176
     1
 90
        0
176
     1
 40
-0.6
176
     1
 41
-30.0
176
     1
 62
     5
 63
     7
421
 16777215
176
     1
 74
     1
176
     1
 91
        4
176
     1
 64
     7
176
     1
 65
   257
176
     1
 75
     7
176
     1
175
     7
176
     1
 42
1.0
176
     1
 92
        8
176
     1
 66
     7
176
     1
 43
1.0
176
     1
 76
     1
176
     1
 77
     6
176
     1
 78
     2
176
     1
 67
     7
176
     1
 79
     5
176
     1
170
     0
176
     1
171
     0
176
     1
290
     0
176
     1
 93
        1
176
     1
 44
0.0
176
     1
173
     0
176
     1
  0
VISUALSTYLE
  5
33
102
{ACAD_REACTORS
330
2A
102
}
330
2A
100
AcDbVisualStyle
  2
Realistic
 70
     8
177
     2
291
     0
 71
     2
176
     1
 72
     2
176
     1
 73
     0
176
     1
 90
        0
176
     1
 40
-0.6
176
     1
 41
-30.0
176
     1
 62
     5
 63
     7
421
 16777215
176
     1
 74
     1
176
     1
 91
        0
176
     1
 64
     7
176
     1
 65
   257
176
     1
 75
     1
176
     1
175
     1
176
     1
 42
1.0
176
     1
 92
        8
176
     1
 66
     8
424
  7895160
176
     1
 43
1.0
176
     1
 76
     1
176
     1
 77
     6
176
     1
 78
     2
176
     1
 67
     7
176
     1
 79
     5
176
     1
170
     0
176
     1
171
     0
176
     1
290
     0
176
     1
 93
       13
176
     1
 44
0.0
176
     1
173
     0
176
     1
  0
VISUALSTYLE
  5
37
102
{ACAD_REACTORS
330
2A
102
}
330
2A
100
AcDbVisualStyle
  2
Thicken
 70
    13
177
     2
291
     1
 71
     2
176
     1
 72
     2
176
     1
 73
     0
176
     1
 90
        0
176
     1
 40
-0.6
176
     1
 41
-30.0
176
     1
 62
     5
 63
     7
421
 16777215
176
     1
 74
     1
176
     1
 91
        4
176
     1
 64
     7
176
     1
 65
   257
176
     1
 75
     1
176
     1
175
     1
176
     1
 42
1.0
176
     1
 92
       12
176
     1
 66
     7
176
     1
 43
1.0
176
     1
 76
     1
176
     1
 77
     6
176
     1
 78
     2
176
     1
 67
     7
176
     1
 79
     5
176
     1
170
     0
176
     1
171
     0
176
     1
290
     0
176
     1
 93
        1
176
     1
 44
0.0
176
     1
173
     0
176
     1
  0
ENDSEC
  0
EOF
