  0
SECTION
  2
HEADER
  9
$ACADVER
  1
AC1024
  9
$ACADMAINTVER
 70
     6
  9
$DWGCODEPAGE
  3
ANSI_932
  9
$INSBASE
 10
0.0
 20
0.0
 30
0.0
  9
$EXTMIN
 10
-6300.0
 20
-4455.0
 30
0.0
  9
$EXTMAX
 10
6300.0
 20
4455.0
 30
0.0
  9
$LIMMIN
 10
-6300.0
 20
-4455.0
  9
$LIMMAX
 10
6300.0
 20
4455.0
  9
$ORTHOMODE
 70
     0
  9
$REGENMODE
 70
     1
  9
$FILLMODE
 70
     1
  9
$QTEXTMODE
 70
     0
  9
$MIRRTEXT
 70
     1
  9
$LTSCALE
 40
30.0
  9
$ATTMODE
 70
     1
  9
$TEXTSIZE
 40
2.5
  9
$TRACEWID
 40
1.0
  9
$TEXTSTYLE
  7
Standard
  9
$CLAYER
  8
0
  9
$CELTYPE
  6
ByLayer
  9
$CECOLOR
 62
   256
  9
$CELTSCALE
 40
1.0
  9
$DISPSILH
 70
     0
  9
$DIMSCALE
 40
1.0
  9
$DIMASZ
 40
2.5
  9
$DIMEXO
 40
0.625
  9
$DIMDLI
 40
3.75
  9
$DIMRND
 40
0.0
  9
$DIMDLE
 40
0.0
  9
$DIMEXE
 40
1.25
  9
$DIMTP
 40
0.0
  9
$DIMTM
 40
0.0
  9
$DIMTXT
 40
2.5
  9
$DIMCEN
 40
2.5
  9
$DIMTSZ
 40
0.0
  9
$DIMTOL
 70
     0
  9
$DIMLIM
 70
     0
  9
$DIMTIH
 70
     0
  9
$DIMTOH
 70
     0
  9
$DIMSE1
 70
     0
  9
$DIMSE2
 70
     0
  9
$DIMTAD
 70
     1
  9
$DIMZIN
 70
     8
  9
$DIMBLK
  1

  9
$DIMASO
 70
     1
  9
$DIMSHO
 70
     1
  9
$DIMPOST
  1

  9
$DIMAPOST
  1

  9
$DIMALT
 70
     0
  9
$DIMALTD
 70
     3
  9
$DIMALTF
 40
0.03937007874016
  9
$DIMLFAC
 40
1.0
  9
$DIMTOFL
 70
     1
  9
$DIMTVP
 40
0.0
  9
$DIMTIX
 70
     0
  9
$DIMSOXD
 70
     0
  9
$DIMSAH
 70
     0
  9
$DIMBLK1
  1

  9
$DIMBLK2
  1

  9
$DIMSTYLE
  2
ISO-25
  9
$DIMCLRD
 70
     0
  9
$DIMCLRE
 70
     0
  9
$DIMCLRT
 70
     0
  9
$DIMTFAC
 40
1.0
  9
$DIMGAP
 40
0.625
  9
$DIMJUST
 70
     0
  9
$DIMSD1
 70
     0
  9
$DIMSD2
 70
     0
  9
$DIMTOLJ
 70
     0
  9
$DIMTZIN
 70
     8
  9
$DIMALTZ
 70
     0
  9
$DIMALTTZ
 70
     0
  9
$DIMUPT
 70
     0
  9
$DIMDEC
 70
     2
  9
$DIMTDEC
 70
     2
  9
$DIMALTU
 70
     2
  9
$DIMALTTD
 70
     3
  9
$DIMTXSTY
  7
Standard
  9
$DIMAUNIT
 70
     0
  9
$DIMADEC
 70
     0
  9
$DIMALTRND
 40
0.0
  9
$DIMAZIN
 70
     0
  9
$DIMDSEP
 70
    44
  9
$DIMATFIT
 70
     3
  9
$DIMFRAC
 70
     0
  9
$DIMLDRBLK
  1

  9
$DIMLUNIT
 70
     2
  9
$DIMLWD
 70
    -2
  9
$DIMLWE
 70
    -2
  9
$DIMTMOVE
 70
     0
  9
$DIMFXL
 40
1.0
  9
$DIMFXLON
 70
     0
  9
$DIMJOGANG
 40
0.7853981633974483
  9
$DIMTFILL
 70
     0
  9
$DIMTFILLCLR
 70
     0
  9
$DIMARCSYM
 70
     0
  9
$DIMLTYPE
  6

  9
$DIMLTEX1
  6

  9
$DIMLTEX2
  6

  9
$DIMTXTDIRECTION
 70
     0
  9
$LUNITS
 70
     2
  9
$LUPREC
 70
     4
  9
$SKETCHINC
 40
1.0
  9
$FILLETRAD
 40
10.0
  9
$AUNITS
 70
     0
  9
$AUPREC
 70
     0
  9
$MENU
  1
.
  9
$ELEVATION
 40
0.0
  9
$PELEVATION
 40
0.0
  9
$THICKNESS
 40
0.0
  9
$LIMCHECK
 70
     0
  9
$CHAMFERA
 40
10.0
  9
$CHAMFERB
 40
10.0
  9
$CHAMFERC
 40
20.0
  9
$CHAMFERD
 40
0.0
  9
$SKPOLY
 70
     0
  9
$TDCREATE
 40
2456763.390767095
  9
$TDUCREATE
 40
2456763.015767095
  9
$TDUPDATE
 40
2456763.390767106
  9
$TDUUPDATE
 40
2456763.015767106
  9
$TDINDWG
 40
0.0000000116
  9
$TDUSRTIMER
 40
0.0000000116
  9
$USRTIMER
 70
     1
  9
$ANGBASE
 50
0.0
  9
$ANGDIR
 70
     0
  9
$PDMODE
 70
     0
  9
$PDSIZE
 40
0.0
  9
$PLINEWID
 40
0.0
  9
$SPLFRAME
 70
     0
  9
$SPLINETYPE
 70
     6
  9
$SPLINESEGS
 70
     8
  9
$HANDSEED
  5
44D
  9
$SURFTAB1
 70
     6
  9
$SURFTAB2
 70
     6
  9
$SURFTYPE
 70
     6
  9
$SURFU
 70
     6
  9
$SURFV
 70
     6
  9
$UCSBASE
  2

  9
$UCSNAME
  2

  9
$UCSORG
 10
0.0
 20
0.0
 30
0.0
  9
$UCSXDIR
 10
1.0
 20
0.0
 30
0.0
  9
$UCSYDIR
 10
0.0
 20
1.0
 30
0.0
  9
$UCSORTHOREF
  2

  9
$UCSORTHOVIEW
 70
     0
  9
$UCSORGTOP
 10
0.0
 20
0.0
 30
0.0
  9
$UCSORGBOTTOM
 10
0.0
 20
0.0
 30
0.0
  9
$UCSORGLEFT
 10
0.0
 20
0.0
 30
0.0
  9
$UCSORGRIGHT
 10
0.0
 20
0.0
 30
0.0
  9
$UCSORGFRONT
 10
0.0
 20
0.0
 30
0.0
  9
$UCSORGBACK
 10
0.0
 20
0.0
 30
0.0
  9
$PUCSBASE
  2

  9
$PUCSNAME
  2

  9
$PUCSORG
 10
0.0
 20
0.0
 30
0.0
  9
$PUCSXDIR
 10
1.0
 20
0.0
 30
0.0
  9
$PUCSYDIR
 10
0.0
 20
1.0
 30
0.0
  9
$PUCSORTHOREF
  2

  9
$PUCSORTHOVIEW
 70
     0
  9
$PUCSORGTOP
 10
0.0
 20
0.0
 30
0.0
  9
$PUCSORGBOTTOM
 10
0.0
 20
0.0
 30
0.0
  9
$PUCSORGLEFT
 10
0.0
 20
0.0
 30
0.0
  9
$PUCSORGRIGHT
 10
0.0
 20
0.0
 30
0.0
  9
$PUCSORGFRONT
 10
0.0
 20
0.0
 30
0.0
  9
$PUCSORGBACK
 10
0.0
 20
0.0
 30
0.0
  9
$USERI1
 70
     0
  9
$USERI2
 70
     0
  9
$USERI3
 70
     0
  9
$USERI4
 70
     0
  9
$USERI5
 70
     0
  9
$USERR1
 40
0.0
  9
$USERR2
 40
0.0
  9
$USERR3
 40
0.0
  9
$USERR4
 40
0.0
  9
$USERR5
 40
0.0
  9
$WORLDVIEW
 70
     1
  9
$SHADEDGE
 70
     3
  9
$SHADEDIF
 70
    70
  9
$TILEMODE
 70
     1
  9
$MAXACTVP
 70
    64
  9
$PINSBASE
 10
0.0
 20
0.0
 30
0.0
  9
$PLIMCHECK
 70
     0
  9
$PEXTMIN
 10
1.000000000000000E+20
 20
1.000000000000000E+20
 30
1.000000000000000E+20
  9
$PEXTMAX
 10
-1.000000000000000E+20
 20
-1.000000000000000E+20
 30
-1.000000000000000E+20
  9
$PLIMMIN
 10
0.0
 20
0.0
  9
$PLIMMAX
 10
420.0
 20
297.0
  9
$UNITMODE
 70
     0
  9
$VISRETAIN
 70
     1
  9
$PLINEGEN
 70
     0
  9
$PSLTSCALE
 70
     1
  9
$TREEDEPTH
 70
  3020
  9
$CMLSTYLE
  2
Standard
  9
$CMLJUST
 70
     0
  9
$CMLSCALE
 40
20.0
  9
$PROXYGRAPHICS
 70
     1
  9
$MEASUREMENT
 70
     1
  9
$CELWEIGHT
370
    -1
  9
$ENDCAPS
280
     0
  9
$JOINSTYLE
280
     0
  9
$LWDISPLAY
290
     0
  9
$INSUNITS
 70
     4
  9
$HYPERLINKBASE
  1

  9
$STYLESHEET
  1

  9
$XEDIT
290
     1
  9
$CEPSNTYPE
380
     0
  9
$PSTYLEMODE
290
     1
  9
$FINGERPRINTGUID
  2
{07AF6D38-0600-4929-B5A8-B00EB97F1379}
  9
$VERSIONGUID
  2
{FAEB1C32-E019-11D5-929B-00C0DF256EC4}
  9
$EXTNAMES
290
     1
  9
$PSVPSCALE
 40
0.0
  9
$OLESTARTUP
290
     0
  9
$SORTENTS
280
   127
  9
$INDEXCTL
280
     0
  9
$HIDETEXT
280
     1
  9
$XCLIPFRAME
280
     2
  9
$HALOGAP
280
     0
  9
$OBSCOLOR
 70
   257
  9
$OBSLTYPE
280
     0
  9
$INTERSECTIONDISPLAY
280
     0
  9
$INTERSECTIONCOLOR
 70
   257
  9
$DIMASSOC
280
     2
  9
$PROJECTNAME
  1

  9
$CAMERADISPLAY
290
     0
  9
$LENSLENGTH
 40
50.0
  9
$CAMERAHEIGHT
 40
0.0
  9
$STEPSPERSEC
 40
2.0
  9
$STEPSIZE
 40
6.0
  9
$3DDWFPREC
 40
2.0
  9
$PSOLWIDTH
 40
5.0
  9
$PSOLHEIGHT
 40
80.0
  9
$LOFTANG1
 40
1.570796326794897
  9
$LOFTANG2
 40
1.570796326794897
  9
$LOFTMAG1
 40
0.0
  9
$LOFTMAG2
 40
0.0
  9
$LOFTPARAM
 70
     7
  9
$LOFTNORMALS
280
     1
  9
$LATITUDE
 40
37.795
  9
$LONGITUDE
 40
-122.394
  9
$NORTHDIRECTION
 40
0.0
  9
$TIMEZONE
 70
 -8000
  9
$LIGHTGLYPHDISPLAY
280
     1
  9
$TILEMODELIGHTSYNCH
280
     1
  9
$SOLIDHIST
280
     1
  9
$SHOWHIST
280
     1
  9
$DWFFRAME
280
     2
  9
$DGNFRAME
280
     2
  9
$REALWORLDSCALE
290
     1
  9
$INTERFERECOLOR
 62
   256
  9
$CSHADOW
280
     0
  9
$SHADOWPLANELOCATION
 40
0.0
  0
ENDSEC
  0
SECTION
  2
CLASSES
  0
CLASS
  1
ACDBDICTIONARYWDFLT
  2
AcDbDictionaryWithDefault
  3
ObjectDBX Classes
 90
        0
 91
        4
280
     0
281
     0
  0
CLASS
  1
VISUALSTYLE
  2
AcDbVisualStyle
  3
ObjectDBX Classes
 90
     4095
 91
        4
280
     0
281
     0
  0
CLASS
  1
MATERIAL
  2
AcDbMaterial
  3
ObjectDBX Classes
 90
     1153
 91
        4
280
     0
281
     0
  0
ENDSEC
  0
SECTION
  2
TABLES
  0
TABLE
  2
VPORT
  5
8
330
0
100
AcDbSymbolTable
 70
     1
  0
VPORT
  5
29
330
8
100
AcDbSymbolTableRecord
100
AcDbViewportTableRecord
  2
*Active
 70
     0
 10
0.0
 20
0.0
 11
1.0
 21
1.0
 12
0.0
 22
0.0
 13
0.0
 23
0.0
 14
10.0
 24
10.0
 15
10.0
 25
10.0
 16
0.0
 26
0.0
 36
1.0
 17
0.0
 27
0.0
 37
0.0
 40
9801.0
 41
1.414141414141414
 42
50.0
 43
0.0
 44
0.0
 50
0.0
 51
0.0
 71
     0
 72
 10000
 73
     1
 74
     3
 75
     0
 76
     0
 77
     0
 78
     0
281
     0
 65
     1
110
0.0
120
0.0
130
0.0
111
1.0
121
0.0
131
0.0
112
0.0
122
1.0
132
0.0
 79
     0
146
0.0
 60
     3
 61
     5
292
     1
282
     1
141
0.0
142
0.0
 63
   250
  0
ENDTAB
  0
TABLE
  2
LTYPE
  5
5
330
0
100
AcDbSymbolTable
 70
     3
  0
LTYPE
  5
14
330
5
100
AcDbSymbolTableRecord
100
AcDbLinetypeTableRecord
  2
ByBlock
 70
     0
  3

 72
    65
 73
     0
 40
0.0
  0
LTYPE
  5
15
330
5
100
AcDbSymbolTableRecord
100
AcDbLinetypeTableRecord
  2
ByLayer
 70
     0
  3

 72
    65
 73
     0
 40
0.0
  0
LTYPE
  5
16
330
5
100
AcDbSymbolTableRecord
100
AcDbLinetypeTableRecord
  2
Continuous
 70
     0
  3
Solid line
 72
    65
 73
     0
 40
0.0
  0
LTYPE
  5
41
330
5
100
AcDbSymbolTableRecord
100
AcDbLinetypeTableRecord
  2
JWW_CENTER1
 70
     0
  3
-----  --  ----------  --  -----
 72
    65
 73
     4
 40
3.386666666666667
 49
2.116666666666667
 74
     0
 49
-0.4233333333333333
 74
     0
 49
0.4233333333333333
 74
     0
 49
-0.4233333333333333
 74
     0
  0
LTYPE
  5
42
330
5
100
AcDbSymbolTableRecord
100
AcDbLinetypeTableRecord
  2
JWW_HOJO
 70
     0
  3
  -   -   -   -   -   -   -   - 
 72
    65
 73
     2
 40
1.693333333333333
 49
-1.27
 74
     0
 49
0.4233333333333333
 74
     0
  0
ENDTAB
  0
TABLE
  2
LAYER
  5
2
330
0
100
AcDbSymbolTable
 70
    14
  0
LAYER
  5
10
330
2
100
AcDbSymbolTableRecord
100
AcDbLayerTableRecord
  2
0
 70
     0
 62
     7
  6
Continuous
370
    -3
390
F
347
3E
  0
LAYER
  5
43
330
2
100
AcDbSymbolTableRecord
100
AcDbLayerTableRecord
  2
F-A_文字
 70
     0
 62
     7
  6
Continuous
370
    -3
390
F
347
3E
  0
LAYER
  5
44
330
2
100
AcDbSymbolTableRecord
100
AcDbLayerTableRecord
  2
0-A_文字
 70
     0
 62
     7
  6
Continuous
370
    -3
390
F
347
3E
  0
LAYER
  5
45
330
2
100
AcDbSymbolTableRecord
100
AcDbLayerTableRecord
  2
0-1_本体
 70
     0
 62
     7
  6
Continuous
370
    -3
390
F
347
3E
  0
LAYER
  5
46
330
2
100
AcDbSymbolTableRecord
100
AcDbLayerTableRecord
  2
0-B_寸法
 70
     0
 62
     7
  6
Continuous
370
    -3
390
F
347
3E
  0
LAYER
  5
47
330
2
100
AcDbSymbolTableRecord
100
AcDbLayerTableRecord
  2
0-2_扉
 70
     0
 62
     7
  6
Continuous
370
    -3
390
F
347
3E
  0
LAYER
  5
48
330
2
100
AcDbSymbolTableRecord
100
AcDbLayerTableRecord
  2
0-4_棚
 70
     0
 62
     7
  6
Continuous
370
    -3
390
F
347
3E
  0
LAYER
  5
49
330
2
100
AcDbSymbolTableRecord
100
AcDbLayerTableRecord
  2
0-0_補助線
 70
     0
 62
     7
  6
Continuous
370
    -3
390
F
347
3E
  0
LAYER
  5
4A
330
2
100
AcDbSymbolTableRecord
100
AcDbLayerTableRecord
  2
0-5_ダボ
 70
     0
 62
     7
  6
Continuous
370
    -3
390
F
347
3E
  0
LAYER
  5
4B
330
2
100
AcDbSymbolTableRecord
100
AcDbLayerTableRecord
  2
0-6_桟木
 70
     0
 62
     7
  6
Continuous
370
    -3
390
F
347
3E
  0
LAYER
  5
4C
330
2
100
AcDbSymbolTableRecord
100
AcDbLayerTableRecord
  2
1-3_扉仕上
 70
     0
 62
     7
  6
Continuous
370
    -3
390
F
347
3E
  0
LAYER
  5
4D
330
2
100
AcDbSymbolTableRecord
100
AcDbLayerTableRecord
  2
1-2_扉
 70
     0
 62
     7
  6
Continuous
370
    -3
390
F
347
3E
  0
LAYER
  5
4E
330
2
100
AcDbSymbolTableRecord
100
AcDbLayerTableRecord
  2
F-1_枠
 70
     0
 62
     7
  6
Continuous
370
    -3
390
F
347
3E
  0
LAYER
  5
4F
330
2
100
AcDbSymbolTableRecord
100
AcDbLayerTableRecord
  2
F-0_補助線
 70
     0
 62
     7
  6
Continuous
370
    -3
390
F
347
3E
  0
ENDTAB
  0
TABLE
  2
STYLE
  5
3
330
0
100
AcDbSymbolTable
 70
     3
  0
STYLE
  5
11
330
3
100
AcDbSymbolTableRecord
100
AcDbTextStyleTableRecord
  2
Standard
 70
     0
 40
0.0
 41
1.0
 50
0.0
 71
     0
 42
2.5
  3
txt
  4

  0
STYLE
  5
3F
330
3
100
AcDbSymbolTableRecord
100
AcDbTextStyleTableRecord
  2
ＭＳ ゴシック
 70
     0
 40
1.0
 41
1.0
 50
0.0
 71
     0
 42
10.0
  3

  4

1001
ACAD
1000
MS Gothic
1071
    32817
  0
STYLE
  5
40
330
3
100
AcDbSymbolTableRecord
100
AcDbTextStyleTableRecord
  2
HG明朝B
 70
     0
 40
1.0
 41
1.0
 50
0.0
 71
     0
 42
10.0
  3

  4

1001
ACAD
1000
HGMinchoB
1071
    32785
  0
ENDTAB
  0
TABLE
  2
VIEW
  5
6
330
0
100
AcDbSymbolTable
 70
     0
  0
ENDTAB
  0
TABLE
  2
UCS
  5
7
330
0
100
AcDbSymbolTable
 70
     0
  0
ENDTAB
  0
TABLE
  2
APPID
  5
9
330
0
100
AcDbSymbolTable
 70
     1
  0
APPID
  5
12
330
9
100
AcDbSymbolTableRecord
100
AcDbRegAppTableRecord
  2
ACAD
 70
     0
  0
ENDTAB
  0
TABLE
  2
DIMSTYLE
  5
A
330
0
100
AcDbSymbolTable
 70
     1
100
AcDbDimStyleTable
  0
DIMSTYLE
105
27
330
A
100
AcDbSymbolTableRecord
100
AcDbDimStyleTableRecord
  2
ISO-25
 70
     0
 41
2.5
 42
0.625
 43
3.75
 44
1.25
 73
     0
 74
     0
 77
     1
 78
     8
140
2.5
141
2.5
143
0.03937007874016
147
0.625
171
     3
172
     1
178
     0
271
     2
272
     2
274
     3
278
    44
283
     0
284
     8
340
11
  0
ENDTAB
  0
TABLE
  2
BLOCK_RECORD
  5
1
330
0
100
AcDbSymbolTable
 70
     1
  0
BLOCK_RECORD
  5
1F
330
1
100
AcDbSymbolTableRecord
100
AcDbBlockTableRecord
  2
*Model_Space
340
22
 70
     0
280
     1
281
     0
  0
BLOCK_RECORD
  5
1B
330
1
100
AcDbSymbolTableRecord
100
AcDbBlockTableRecord
  2
*Paper_Space
340
1E
 70
     0
280
     1
281
     0
  0
BLOCK_RECORD
  5
23
330
1
100
AcDbSymbolTableRecord
100
AcDbBlockTableRecord
  2
*Paper_Space0
340
26
 70
     0
280
     1
281
     0
  0
ENDTAB
  0
ENDSEC
  0
SECTION
  2
BLOCKS
  0
BLOCK
  5
20
330
1F
100
AcDbEntity
  8
0
100
AcDbBlockBegin
  2
*Model_Space
 70
     0
 10
0.0
 20
0.0
 30
0.0
  3
*Model_Space
  1

  0
ENDBLK
  5
21
330
1F
100
AcDbEntity
  8
0
100
AcDbBlockEnd
  0
BLOCK
  5
1C
330
1B
100
AcDbEntity
 67
     1
  8
0
100
AcDbBlockBegin
  2
*Paper_Space
 70
     0
 10
0.0
 20
0.0
 30
0.0
  3
*Paper_Space
  1

  0
ENDBLK
  5
1D
330
1B
100
AcDbEntity
 67
     1
  8
0
100
AcDbBlockEnd
  0
BLOCK
  5
24
330
23
100
AcDbEntity
  8
0
100
AcDbBlockBegin
  2
*Paper_Space0
 70
     0
 10
0.0
 20
0.0
 30
0.0
  3
*Paper_Space0
  1

  0
ENDBLK
  5
25
330
23
100
AcDbEntity
  8
0
100
AcDbBlockEnd
  0
ENDSEC
  0
SECTION
  2
ENTITIES
  0
TEXT
  5
50
330
1F
100
AcDbEntity
  8
F-A_文字
  6
Continuous
 62
     7
370
     0
100
AcDbText
 10
-5239.999990205507
 20
-4017.309988143852
 30
0.0
 40
68.58
  1
ソフトアート　造り付け家具　参考プラン（リビング１）フラット
 41
1.161111111111111
  7
ＭＳ ゴシック
100
AcDbText
  0
LINE
  5
51
330
1F
100
AcDbEntity
  8
0-A_文字
  6
Continuous
 62
     7
370
     9
100
AcDbLine
 10
-5699.999752560178
 20
3864.999983504013
 30
0.0
 11
-5699.999752560178
 21
3639.999983504013
 31
0.0
  0
LINE
  5
52
330
1F
100
AcDbEntity
  8
0-A_文字
  6
Continuous
 62
     7
370
     9
100
AcDbLine
 10
-4499.999752560178
 20
3864.999983504013
 30
0.0
 11
-5699.999752560178
 21
3864.999983504013
 31
0.0
  0
LINE
  5
53
330
1F
100
AcDbEntity
  8
0-A_文字
  6
Continuous
 62
     7
370
     9
100
AcDbLine
 10
-4499.999752560178
 20
3639.999983504013
 30
0.0
 11
-4499.999752560178
 21
3864.999983504013
 31
0.0
  0
LINE
  5
54
330
1F
100
AcDbEntity
  8
0-A_文字
  6
Continuous
 62
     7
370
     9
100
AcDbLine
 10
-5699.999752560178
 20
3639.999983504013
 30
0.0
 11
-4499.999752560178
 21
3639.999983504013
 31
0.0
  0
TEXT
  5
55
330
1F
100
AcDbEntity
  8
0-A_文字
  6
Continuous
 62
     7
370
     9
100
AcDbText
 10
-5497.499752560178
 20
3709.419983504013
 30
0.0
 40
91.44
  1
プラン　０１
 41
1.104166666666667
  7
ＭＳ ゴシック
100
AcDbText
  0
LINE
  5
56
330
1F
100
AcDbEntity
  8
0-1_本体
  6
Continuous
 62
    92
370
    13
100
AcDbLine
 10
-5106.000375489932
 20
-620.6353888011819
 30
0.0
 11
-3846.000375489932
 21
-620.6353888011819
 31
0.0
  0
LINE
  5
57
330
1F
100
AcDbEntity
  8
0-1_本体
  6
Continuous
 62
    92
370
    13
100
AcDbLine
 10
-3846.000375489932
 20
-620.6353888011819
 30
0.0
 11
-3846.000375489932
 21
1029.364611198818
 31
0.0
  0
LINE
  5
58
330
1F
100
AcDbEntity
  8
0-1_本体
  6
Continuous
 62
    92
370
    13
100
AcDbLine
 10
-3846.000375489932
 20
1029.364611198818
 30
0.0
 11
-5106.000375489932
 21
1029.364611198818
 31
0.0
  0
LINE
  5
59
330
1F
100
AcDbEntity
  8
0-1_本体
  6
Continuous
 62
    92
370
    13
100
AcDbLine
 10
-5106.000375489932
 20
1029.364611198818
 30
0.0
 11
-5106.000375489932
 21
-620.6353888011819
 31
0.0
  0
LINE
  5
5A
330
1F
100
AcDbEntity
  8
0-B_寸法
  6
Continuous
 62
   120
370
     5
100
AcDbLine
 10
-5106.000375489932
 20
1254.364611198818
 30
0.0
 11
-5103.000375489932
 21
1254.364611198818
 31
0.0
  0
LWPOLYLINE
  5
5B
330
1F
100
AcDbEntity
  8
0-B_寸法
  6
Continuous
 62
     7
370
     9
100
AcDbPolyline
 90
        4
 70
     1
 43
3.0
 10
-5104.500375489932
 20
1254.364611198818
 42
0.4142135623731
 10
-5106.000375489932
 20
1255.864611198818
 42
0.4142135623731
 10
-5107.500375489933
 20
1254.364611198818
 42
0.4142135623731
 10
-5106.000375489932
 20
1252.864611198818
 42
0.4142135623731
  0
LWPOLYLINE
  5
5C
330
1F
100
AcDbEntity
  8
0-B_寸法
  6
Continuous
 62
     7
370
     9
100
AcDbPolyline
 90
        4
 70
     1
 43
3.0
 10
-5101.500375489931
 20
1254.364611198818
 42
0.4142135623731
 10
-5103.000375489932
 20
1255.864611198818
 42
0.4142135623731
 10
-5104.500375489932
 20
1254.364611198818
 42
0.4142135623731
 10
-5103.000375489932
 20
1252.864611198818
 42
0.4142135623731
  0
LINE
  5
5D
330
1F
100
AcDbEntity
  8
0-B_寸法
  6
Continuous
 62
   120
370
     5
100
AcDbLine
 10
-5106.000375489932
 20
1254.364611198818
 30
0.0
 11
-5106.000375489932
 21
1104.364611198818
 31
0.0
  0
LINE
  5
5E
330
1F
100
AcDbEntity
  8
0-B_寸法
  6
Continuous
 62
   120
370
     5
100
AcDbLine
 10
-5103.000375489932
 20
1254.364611198818
 30
0.0
 11
-5103.000375489932
 21
1104.364611198818
 31
0.0
  0
LINE
  5
5F
330
1F
100
AcDbEntity
  8
0-B_寸法
  6
Continuous
 62
   120
370
     5
100
AcDbLine
 10
-5103.000375489932
 20
1254.364611198818
 30
0.0
 11
-4479.000375489934
 21
1254.364611198818
 31
0.0
  0
LWPOLYLINE
  5
60
330
1F
100
AcDbEntity
  8
0-B_寸法
  6
Continuous
 62
     7
370
     9
100
AcDbPolyline
 90
        4
 70
     1
 43
3.0
 10
-4477.500375489934
 20
1254.364611198818
 42
0.4142135623731
 10
-4479.000375489934
 20
1255.864611198818
 42
0.4142135623731
 10
-4480.500375489935
 20
1254.364611198818
 42
0.4142135623731
 10
-4479.000375489934
 20
1252.864611198818
 42
0.4142135623731
  0
LINE
  5
61
330
1F
100
AcDbEntity
  8
0-B_寸法
  6
Continuous
 62
   120
370
     5
100
AcDbLine
 10
-4479.000375489934
 20
1254.364611198818
 30
0.0
 11
-4479.000375489934
 21
1104.364611198818
 31
0.0
  0
LINE
  5
62
330
1F
100
AcDbEntity
  8
0-B_寸法
  6
Continuous
 62
   120
370
     5
100
AcDbLine
 10
-4479.000375489934
 20
1254.364611198818
 30
0.0
 11
-4473.000375489932
 21
1254.364611198818
 31
0.0
  0
LWPOLYLINE
  5
63
330
1F
100
AcDbEntity
  8
0-B_寸法
  6
Continuous
 62
     7
370
     9
100
AcDbPolyline
 90
        4
 70
     1
 43
3.0
 10
-4471.500375489931
 20
1254.364611198818
 42
0.4142135623731
 10
-4473.000375489932
 20
1255.864611198818
 42
0.4142135623731
 10
-4474.500375489932
 20
1254.364611198818
 42
0.4142135623731
 10
-4473.000375489932
 20
1252.864611198818
 42
0.4142135623731
  0
LINE
  5
64
330
1F
100
AcDbEntity
  8
0-B_寸法
  6
Continuous
 62
   120
370
     5
100
AcDbLine
 10
-4473.000375489932
 20
1254.364611198818
 30
0.0
 11
-4473.000375489932
 21
1104.364611198818
 31
0.0
  0
LINE
  5
65
330
1F
100
AcDbEntity
  8
0-B_寸法
  6
Continuous
 62
   120
370
     5
100
AcDbLine
 10
-4473.000375489932
 20
1254.364611198818
 30
0.0
 11
-3849.000375489934
 21
1254.364611198818
 31
0.0
  0
LWPOLYLINE
  5
66
330
1F
100
AcDbEntity
  8
0-B_寸法
  6
Continuous
 62
     7
370
     9
100
AcDbPolyline
 90
        4
 70
     1
 43
3.0
 10
-3847.500375489934
 20
1254.364611198818
 42
0.4142135623731
 10
-3849.000375489934
 20
1255.864611198818
 42
0.4142135623731
 10
-3850.500375489935
 20
1254.364611198818
 42
0.4142135623731
 10
-3849.000375489934
 20
1252.864611198818
 42
0.4142135623731
  0
LINE
  5
67
330
1F
100
AcDbEntity
  8
0-B_寸法
  6
Continuous
 62
   120
370
     5
100
AcDbLine
 10
-3849.000375489934
 20
1254.364611198818
 30
0.0
 11
-3849.000375489934
 21
1104.364611198818
 31
0.0
  0
LINE
  5
68
330
1F
100
AcDbEntity
  8
0-B_寸法
  6
Continuous
 62
   120
370
     5
100
AcDbLine
 10
-3849.000375489934
 20
1254.364611198818
 30
0.0
 11
-3846.000375489932
 21
1254.364611198818
 31
0.0
  0
LWPOLYLINE
  5
69
330
1F
100
AcDbEntity
  8
0-B_寸法
  6
Continuous
 62
     7
370
     9
100
AcDbPolyline
 90
        4
 70
     1
 43
3.0
 10
-3844.500375489932
 20
1254.364611198818
 42
0.4142135623731
 10
-3846.000375489932
 20
1255.864611198818
 42
0.4142135623731
 10
-3847.500375489933
 20
1254.364611198818
 42
0.4142135623731
 10
-3846.000375489932
 20
1252.864611198818
 42
0.4142135623731
  0
LINE
  5
6A
330
1F
100
AcDbEntity
  8
0-B_寸法
  6
Continuous
 62
   120
370
     5
100
AcDbLine
 10
-3846.000375489932
 20
1254.364611198818
 30
0.0
 11
-3846.000375489932
 21
1104.364611198818
 31
0.0
  0
LINE
  5
6B
330
1F
100
AcDbEntity
  8
0-2_扉
  6
Continuous
 62
    92
370
    13
100
AcDbLine
 10
-4478.999355684377
 20
1026.364611198817
 30
0.0
 11
-5102.999645365712
 21
1026.364611198817
 31
0.0
  0
LINE
  5
6C
330
1F
100
AcDbEntity
  8
0-2_扉
  6
Continuous
 62
    92
370
    13
100
AcDbLine
 10
-3848.99964536571
 20
1026.364611198817
 30
0.0
 11
-4472.999935047048
 21
1026.364611198817
 31
0.0
  0
LINE
  5
6D
330
1F
100
AcDbEntity
  8
0-2_扉
  6
Continuous
 62
    92
370
    13
100
AcDbLine
 10
-3848.99964536571
 20
1026.364611198817
 30
0.0
 11
-3848.99964536571
 21
-617.6353888011812
 31
0.0
  0
LINE
  5
6E
330
1F
100
AcDbEntity
  8
0-2_扉
  6
Continuous
 62
    92
370
    13
100
AcDbLine
 10
-5102.999645365712
 20
1026.364611198817
 30
0.0
 11
-5102.999645365712
 21
-617.6353888011812
 31
0.0
  0
LINE
  5
6F
330
1F
100
AcDbEntity
  8
0-2_扉
  6
Continuous
 62
    92
370
    13
100
AcDbLine
 10
-4478.999355684377
 20
1026.364611198817
 30
0.0
 11
-4478.999355684377
 21
-617.6353888011812
 31
0.0
  0
LINE
  5
70
330
1F
100
AcDbEntity
  8
0-2_扉
  6
Continuous
 62
    92
370
    13
100
AcDbLine
 10
-5102.999645365712
 20
-617.6353888011812
 30
0.0
 11
-4478.999355684377
 21
-617.6353888011812
 31
0.0
  0
LINE
  5
71
330
1F
100
AcDbEntity
  8
0-2_扉
  6
Continuous
 62
    92
370
    13
100
AcDbLine
 10
-4472.999935047048
 20
1026.364611198817
 30
0.0
 11
-4472.999935047048
 21
-617.6353888011812
 31
0.0
  0
LINE
  5
72
330
1F
100
AcDbEntity
  8
0-2_扉
  6
Continuous
 62
    92
370
    13
100
AcDbLine
 10
-4472.999935047048
 20
-617.6353888011812
 30
0.0
 11
-3848.99964536571
 21
-617.6353888011812
 31
0.0
  0
LINE
  5
73
330
1F
100
AcDbEntity
  8
0-2_扉
  6
JWW_CENTER1
 62
   120
370
     5
100
AcDbLine
 10
-5102.999645365712
 20
204.3646111988181
 30
0.0
 11
-4478.999355684377
 21
1026.364611198817
 31
0.0
  0
LINE
  5
74
330
1F
100
AcDbEntity
  8
0-2_扉
  6
JWW_CENTER1
 62
   120
370
     5
100
AcDbLine
 10
-3848.99964536571
 20
204.3646111988181
 30
0.0
 11
-4472.999935047048
 21
1026.364611198817
 31
0.0
  0
LINE
  5
75
330
1F
100
AcDbEntity
  8
0-2_扉
  6
JWW_CENTER1
 62
   120
370
     5
100
AcDbLine
 10
-5102.999645365712
 20
204.3646111988181
 30
0.0
 11
-4478.999355684377
 21
-617.6353888011812
 31
0.0
  0
LINE
  5
76
330
1F
100
AcDbEntity
  8
0-2_扉
  6
JWW_CENTER1
 62
   120
370
     5
100
AcDbLine
 10
-3848.99964536571
 20
204.3646111988181
 30
0.0
 11
-4472.999935047048
 21
-617.6353888011812
 31
0.0
  0
TEXT
  5
77
330
1F
100
AcDbEntity
  8
0-B_寸法
  6
Continuous
 62
     7
370
   211
100
AcDbText
 10
-5127.000375489934
 20
1282.054611198818
 30
0.0
 40
68.58
  1
2
  7
ＭＳ ゴシック
100
AcDbText
  0
TEXT
  5
78
330
1F
100
AcDbEntity
  8
0-B_寸法
  6
Continuous
 62
     7
370
   211
100
AcDbText
 10
-5023.500375489932
 20
1282.054611198818
 30
0.0
 40
68.58
  1
ＤＷ＝416
 41
1.148148148148148
  7
ＭＳ ゴシック
100
AcDbText
  0
TEXT
  5
79
330
1F
100
AcDbEntity
  8
0-B_寸法
  6
Continuous
 62
     7
370
   211
100
AcDbText
 10
-4498.500375489932
 20
1282.054611198818
 30
0.0
 40
68.58
  1
4
  7
ＭＳ ゴシック
100
AcDbText
  0
TEXT
  5
7A
330
1F
100
AcDbEntity
  8
0-B_寸法
  6
Continuous
 62
     7
370
   211
100
AcDbText
 10
-4393.500375489932
 20
1282.054611198818
 30
0.0
 40
68.58
  1
ＤＷ＝416
 41
1.148148148148148
  7
ＭＳ ゴシック
100
AcDbText
  0
LINE
  5
7B
330
1F
100
AcDbEntity
  8
0-B_寸法
  6
Continuous
 62
   120
370
     5
100
AcDbLine
 10
-5106.000375489932
 20
-2495.634725043858
 30
0.0
 11
-5106.000375489932
 21
-2195.634725043858
 31
0.0
  0
LINE
  5
7C
330
1F
100
AcDbEntity
  8
0-1_本体
  6
Continuous
 62
    92
370
    13
100
AcDbLine
 10
-5106.000375489932
 20
-2120.634725043858
 30
0.0
 11
-5106.000375489932
 21
-1424.635388801182
 31
0.0
  0
LINE
  5
7D
330
1F
100
AcDbEntity
  8
0-1_本体
  6
Continuous
 62
    92
370
    13
100
AcDbLine
 10
-5106.000375489932
 20
-1424.635388801182
 30
0.0
 11
-3846.001105614153
 21
-1424.635388801182
 31
0.0
  0
LINE
  5
7E
330
1F
100
AcDbEntity
  8
0-1_本体
  6
Continuous
 62
    92
370
    13
100
AcDbLine
 10
-3846.001105614153
 20
-2120.634725043858
 30
0.0
 11
-5106.000375489932
 21
-2120.634725043858
 31
0.0
  0
LINE
  5
7F
330
1F
100
AcDbEntity
  8
0-1_本体
  6
Continuous
 62
    92
370
    13
100
AcDbLine
 10
-3846.001105614153
 20
-2120.634725043858
 30
0.0
 11
-3846.001105614153
 21
-1424.635388801182
 31
0.0
  0
LINE
  5
80
330
1F
100
AcDbEntity
  8
0-2_扉
  6
Continuous
 62
    92
370
    13
100
AcDbLine
 10
-5102.999474808979
 20
-1970.635388801182
 30
0.0
 11
-5102.999474808979
 21
-1429.135388801182
 31
0.0
  0
LINE
  5
81
330
1F
100
AcDbEntity
  8
0-2_扉
  6
Continuous
 62
    92
370
    13
100
AcDbLine
 10
-4478.999764490313
 20
-1970.635388801182
 30
0.0
 11
-4478.999764490313
 21
-1429.135388801182
 31
0.0
  0
LINE
  5
82
330
1F
100
AcDbEntity
  8
0-2_扉
  6
Continuous
 62
    92
370
    13
100
AcDbLine
 10
-5102.999474808979
 20
-1970.635388801182
 30
0.0
 11
-4478.999764490313
 21
-1970.635388801182
 31
0.0
  0
LINE
  5
83
330
1F
100
AcDbEntity
  8
0-2_扉
  6
Continuous
 62
    92
370
    13
100
AcDbLine
 10
-5102.999474808979
 20
-1429.135388801182
 30
0.0
 11
-4478.999764490313
 21
-1429.135388801182
 31
0.0
  0
LINE
  5
84
330
1F
100
AcDbEntity
  8
0-2_扉
  6
JWW_CENTER1
 62
   120
370
     5
100
AcDbLine
 10
-5102.999474808979
 20
-1699.885018171676
 30
0.0
 11
-4478.999764490313
 21
-1970.635388801182
 31
0.0
  0
LINE
  5
85
330
1F
100
AcDbEntity
  8
0-2_扉
  6
JWW_CENTER1
 62
   120
370
     5
100
AcDbLine
 10
-4478.999764490313
 20
-1429.135388801182
 30
0.0
 11
-5102.999474808979
 21
-1699.885018171676
 31
0.0
  0
LINE
  5
86
330
1F
100
AcDbEntity
  8
0-2_扉
  6
JWW_CENTER1
 62
   120
370
     5
100
AcDbLine
 10
-3849.000204226226
 20
-1699.885018171676
 30
0.0
 11
-4472.999914544891
 21
-1970.635388801182
 31
0.0
  0
LINE
  5
87
330
1F
100
AcDbEntity
  8
0-2_扉
  6
JWW_CENTER1
 62
   120
370
     5
100
AcDbLine
 10
-4472.999914544891
 20
-1429.135388801182
 30
0.0
 11
-3849.000204226226
 21
-1699.885018171676
 31
0.0
  0
LINE
  5
88
330
1F
100
AcDbEntity
  8
0-2_扉
  6
Continuous
 62
    92
370
    13
100
AcDbLine
 10
-4472.999914544891
 20
-1429.135388801182
 30
0.0
 11
-3849.000204226226
 21
-1429.135388801182
 31
0.0
  0
LINE
  5
89
330
1F
100
AcDbEntity
  8
0-2_扉
  6
Continuous
 62
    92
370
    13
100
AcDbLine
 10
-4472.999914544891
 20
-1970.635388801182
 30
0.0
 11
-3849.000204226226
 21
-1970.635388801182
 31
0.0
  0
LINE
  5
8A
330
1F
100
AcDbEntity
  8
0-2_扉
  6
Continuous
 62
    92
370
    13
100
AcDbLine
 10
-4472.999914544891
 20
-1970.635388801182
 30
0.0
 11
-4472.999914544891
 21
-1429.135388801182
 31
0.0
  0
LINE
  5
8B
330
1F
100
AcDbEntity
  8
0-1_本体
  6
Continuous
 62
    92
370
    13
100
AcDbLine
 10
-5082.750375489934
 20
-1970.635388801182
 30
0.0
 11
-5082.750375489934
 21
-2120.634725043858
 31
0.0
  0
LINE
  5
8C
330
1F
100
AcDbEntity
  8
0-1_本体
  6
Continuous
 62
    92
370
    13
100
AcDbLine
 10
-3869.251105614151
 20
-1970.635388801182
 30
0.0
 11
-3869.251105614151
 21
-2120.634725043858
 31
0.0
  0
LINE
  5
8D
330
1F
100
AcDbEntity
  8
0-B_寸法
  6
Continuous
 62
   120
370
     5
100
AcDbLine
 10
-5106.000375489932
 20
-2345.634725043858
 30
0.0
 11
-5082.750375489934
 21
-2345.634725043858
 31
0.0
  0
LWPOLYLINE
  5
8E
330
1F
100
AcDbEntity
  8
0-B_寸法
  6
Continuous
 62
     7
370
     9
100
AcDbPolyline
 90
        4
 70
     1
 43
3.0
 10
-5104.500375489932
 20
-2345.634725043858
 42
0.4142135623731
 10
-5106.000375489932
 20
-2344.134725043858
 42
0.4142135623731
 10
-5107.500375489933
 20
-2345.634725043858
 42
0.4142135623731
 10
-5106.000375489932
 20
-2347.134725043858
 42
0.4142135623731
  0
LWPOLYLINE
  5
8F
330
1F
100
AcDbEntity
  8
0-B_寸法
  6
Continuous
 62
     7
370
     9
100
AcDbPolyline
 90
        4
 70
     1
 43
3.0
 10
-5081.250375489934
 20
-2345.634725043858
 42
0.4142135623731
 10
-5082.750375489934
 20
-2344.134725043858
 42
0.4142135623731
 10
-5084.250375489935
 20
-2345.634725043858
 42
0.4142135623731
 10
-5082.750375489934
 20
-2347.134725043858
 42
0.4142135623731
  0
LINE
  5
90
330
1F
100
AcDbEntity
  8
0-B_寸法
  6
Continuous
 62
   120
370
     5
100
AcDbLine
 10
-5082.750375489934
 20
-2345.634725043858
 30
0.0
 11
-5082.750375489934
 21
-2195.634725043858
 31
0.0
  0
LINE
  5
91
330
1F
100
AcDbEntity
  8
0-B_寸法
  6
Continuous
 62
   120
370
     5
100
AcDbLine
 10
-5082.750375489934
 20
-2345.634725043858
 30
0.0
 11
-3869.251105614151
 21
-2345.634725043858
 31
0.0
  0
LWPOLYLINE
  5
92
330
1F
100
AcDbEntity
  8
0-B_寸法
  6
Continuous
 62
     7
370
     9
100
AcDbPolyline
 90
        4
 70
     1
 43
3.0
 10
-3867.75110561415
 20
-2345.634725043858
 42
0.4142135623731
 10
-3869.251105614151
 20
-2344.134725043858
 42
0.4142135623731
 10
-3870.751105614151
 20
-2345.634725043858
 42
0.4142135623731
 10
-3869.251105614151
 20
-2347.134725043858
 42
0.4142135623731
  0
LINE
  5
93
330
1F
100
AcDbEntity
  8
0-B_寸法
  6
Continuous
 62
   120
370
     5
100
AcDbLine
 10
-3869.251105614151
 20
-2345.634725043858
 30
0.0
 11
-3869.251105614151
 21
-2195.634725043858
 31
0.0
  0
LINE
  5
94
330
1F
100
AcDbEntity
  8
0-B_寸法
  6
Continuous
 62
   120
370
     5
100
AcDbLine
 10
-3869.251105614151
 20
-2345.634725043858
 30
0.0
 11
-3846.001105614153
 21
-2345.634725043858
 31
0.0
  0
LWPOLYLINE
  5
95
330
1F
100
AcDbEntity
  8
0-B_寸法
  6
Continuous
 62
     7
370
     9
100
AcDbPolyline
 90
        4
 70
     1
 43
3.0
 10
-3844.501105614153
 20
-2345.634725043858
 42
0.4142135623731
 10
-3846.001105614153
 20
-2344.134725043858
 42
0.4142135623731
 10
-3847.501105614153
 20
-2345.634725043858
 42
0.4142135623731
 10
-3846.001105614153
 20
-2347.134725043858
 42
0.4142135623731
  0
LINE
  5
96
330
1F
100
AcDbEntity
  8
0-B_寸法
  6
Continuous
 62
   120
370
     5
100
AcDbLine
 10
-3846.001105614153
 20
-2495.634725043858
 30
0.0
 11
-3846.001105614153
 21
-2195.634725043858
 31
0.0
  0
LINE
  5
97
330
1F
100
AcDbEntity
  8
0-B_寸法
  6
Continuous
 62
   120
370
     5
100
AcDbLine
 10
-5106.000375489932
 20
-2495.634725043858
 30
0.0
 11
-3846.001105614153
 21
-2495.634725043858
 31
0.0
  0
LWPOLYLINE
  5
98
330
1F
100
AcDbEntity
  8
0-B_寸法
  6
Continuous
 62
     7
370
     9
100
AcDbPolyline
 90
        4
 70
     1
 43
3.0
 10
-5104.500375489932
 20
-2495.634725043858
 42
0.4142135623731
 10
-5106.000375489932
 20
-2494.134725043858
 42
0.4142135623731
 10
-5107.500375489933
 20
-2495.634725043858
 42
0.4142135623731
 10
-5106.000375489932
 20
-2497.134725043858
 42
0.4142135623731
  0
LWPOLYLINE
  5
99
330
1F
100
AcDbEntity
  8
0-B_寸法
  6
Continuous
 62
     7
370
     9
100
AcDbPolyline
 90
        4
 70
     1
 43
3.0
 10
-3844.501105614153
 20
-2495.634725043858
 42
0.4142135623731
 10
-3846.001105614153
 20
-2494.134725043858
 42
0.4142135623731
 10
-3847.501105614153
 20
-2495.634725043858
 42
0.4142135623731
 10
-3846.001105614153
 20
-2497.134725043858
 42
0.4142135623731
  0
TEXT
  5
9A
330
1F
100
AcDbEntity
  8
0-B_寸法
  6
Continuous
 62
     7
370
   211
100
AcDbText
 10
-4074.751105614153
 20
-2317.944725043858
 30
0.0
 40
68.58
  1
15.5
 41
1.125
  7
ＭＳ ゴシック
100
AcDbText
  0
TEXT
  5
9B
330
1F
100
AcDbEntity
  8
0-B_寸法
  6
Continuous
 62
     7
370
   211
100
AcDbText
 10
-5079.750375489932
 20
-2317.944725043858
 30
0.0
 40
68.58
  1
15.5
 41
1.125
  7
ＭＳ ゴシック
100
AcDbText
  0
TEXT
  5
9C
330
1F
100
AcDbEntity
  8
0-B_寸法
  6
Continuous
 62
     7
370
   211
100
AcDbText
 10
-4551.000740552044
 20
-2317.944725043858
 30
0.0
 40
68.58
  1
809
 41
1.111111111111111
  7
ＭＳ ゴシック
100
AcDbText
  0
TEXT
  5
9D
330
1F
100
AcDbEntity
  8
0-B_寸法
  6
Continuous
 62
     7
370
   211
100
AcDbText
 10
-4551.000740552044
 20
-2467.944725043858
 30
0.0
 40
68.58
  1
840
 41
1.111111111111111
  7
ＭＳ ゴシック
100
AcDbText
  0
LINE
  5
9E
330
1F
100
AcDbEntity
  8
0-1_本体
  6
Continuous
 62
    92
370
    13
100
AcDbLine
 10
-3846.000375489932
 20
-620.6353888011819
 30
0.0
 11
-2586.000375489932
 21
-620.6353888011819
 31
0.0
  0
LINE
  5
9F
330
1F
100
AcDbEntity
  8
0-1_本体
  6
Continuous
 62
    92
370
    13
100
AcDbLine
 10
-2586.000375489932
 20
-620.6353888011819
 30
0.0
 11
-2586.000375489932
 21
1029.364611198818
 31
0.0
  0
LINE
  5
A0
330
1F
100
AcDbEntity
  8
0-1_本体
  6
Continuous
 62
    92
370
    13
100
AcDbLine
 10
-2586.000375489932
 20
1029.364611198818
 30
0.0
 11
-3846.000375489932
 21
1029.364611198818
 31
0.0
  0
LINE
  5
A1
330
1F
100
AcDbEntity
  8
0-B_寸法
  6
Continuous
 62
   120
370
     5
100
AcDbLine
 10
-3846.000375489932
 20
1254.364611198818
 30
0.0
 11
-3843.000375489932
 21
1254.364611198818
 31
0.0
  0
LWPOLYLINE
  5
A2
330
1F
100
AcDbEntity
  8
0-B_寸法
  6
Continuous
 62
     7
370
     9
100
AcDbPolyline
 90
        4
 70
     1
 43
3.0
 10
-3841.500375489931
 20
1254.364611198818
 42
0.4142135623731
 10
-3843.000375489932
 20
1255.864611198818
 42
0.4142135623731
 10
-3844.500375489932
 20
1254.364611198818
 42
0.4142135623731
 10
-3843.000375489932
 20
1252.864611198818
 42
0.4142135623731
  0
LINE
  5
A3
330
1F
100
AcDbEntity
  8
0-B_寸法
  6
Continuous
 62
   120
370
     5
100
AcDbLine
 10
-3843.000375489932
 20
1254.364611198818
 30
0.0
 11
-3843.000375489932
 21
1104.364611198818
 31
0.0
  0
LINE
  5
A4
330
1F
100
AcDbEntity
  8
0-B_寸法
  6
Continuous
 62
   120
370
     5
100
AcDbLine
 10
-3843.000375489932
 20
1254.364611198818
 30
0.0
 11
-3219.000375489934
 21
1254.364611198818
 31
0.0
  0
LWPOLYLINE
  5
A5
330
1F
100
AcDbEntity
  8
0-B_寸法
  6
Continuous
 62
     7
370
     9
100
AcDbPolyline
 90
        4
 70
     1
 43
3.0
 10
-3217.500375489934
 20
1254.364611198818
 42
0.4142135623731
 10
-3219.000375489934
 20
1255.864611198818
 42
0.4142135623731
 10
-3220.500375489934
 20
1254.364611198818
 42
0.4142135623731
 10
-3219.000375489934
 20
1252.864611198818
 42
0.4142135623731
  0
LINE
  5
A6
330
1F
100
AcDbEntity
  8
0-B_寸法
  6
Continuous
 62
   120
370
     5
100
AcDbLine
 10
-3219.000375489934
 20
1254.364611198818
 30
0.0
 11
-3219.000375489934
 21
1104.364611198818
 31
0.0
  0
LINE
  5
A7
330
1F
100
AcDbEntity
  8
0-B_寸法
  6
Continuous
 62
   120
370
     5
100
AcDbLine
 10
-3219.000375489934
 20
1254.364611198818
 30
0.0
 11
-3213.000375489932
 21
1254.364611198818
 31
0.0
  0
LWPOLYLINE
  5
A8
330
1F
100
AcDbEntity
  8
0-B_寸法
  6
Continuous
 62
     7
370
     9
100
AcDbPolyline
 90
        4
 70
     1
 43
3.0
 10
-3211.500375489932
 20
1254.364611198818
 42
0.4142135623731
 10
-3213.000375489932
 20
1255.864611198818
 42
0.4142135623731
 10
-3214.500375489931
 20
1254.364611198818
 42
0.4142135623731
 10
-3213.000375489932
 20
1252.864611198818
 42
0.4142135623731
  0
LINE
  5
A9
330
1F
100
AcDbEntity
  8
0-B_寸法
  6
Continuous
 62
   120
370
     5
100
AcDbLine
 10
-3213.000375489932
 20
1254.364611198818
 30
0.0
 11
-3213.000375489932
 21
1104.364611198818
 31
0.0
  0
LINE
  5
AA
330
1F
100
AcDbEntity
  8
0-B_寸法
  6
Continuous
 62
   120
370
     5
100
AcDbLine
 10
-3213.000375489932
 20
1254.364611198818
 30
0.0
 11
-2589.000375489934
 21
1254.364611198818
 31
0.0
  0
LWPOLYLINE
  5
AB
330
1F
100
AcDbEntity
  8
0-B_寸法
  6
Continuous
 62
     7
370
     9
100
AcDbPolyline
 90
        4
 70
     1
 43
3.0
 10
-2587.500375489934
 20
1254.364611198818
 42
0.4142135623731
 10
-2589.000375489934
 20
1255.864611198818
 42
0.4142135623731
 10
-2590.500375489934
 20
1254.364611198818
 42
0.4142135623731
 10
-2589.000375489934
 20
1252.864611198818
 42
0.4142135623731
  0
LINE
  5
AC
330
1F
100
AcDbEntity
  8
0-B_寸法
  6
Continuous
 62
   120
370
     5
100
AcDbLine
 10
-2589.000375489934
 20
1254.364611198818
 30
0.0
 11
-2589.000375489934
 21
1104.364611198818
 31
0.0
  0
LINE
  5
AD
330
1F
100
AcDbEntity
  8
0-B_寸法
  6
Continuous
 62
   120
370
     5
100
AcDbLine
 10
-2589.000375489934
 20
1254.364611198818
 30
0.0
 11
-2586.000375489932
 21
1254.364611198818
 31
0.0
  0
LWPOLYLINE
  5
AE
330
1F
100
AcDbEntity
  8
0-B_寸法
  6
Continuous
 62
     7
370
     9
100
AcDbPolyline
 90
        4
 70
     1
 43
3.0
 10
-2584.500375489932
 20
1254.364611198818
 42
0.4142135623731
 10
-2586.000375489932
 20
1255.864611198818
 42
0.4142135623731
 10
-2587.500375489932
 20
1254.364611198818
 42
0.4142135623731
 10
-2586.000375489932
 20
1252.864611198818
 42
0.4142135623731
  0
LINE
  5
AF
330
1F
100
AcDbEntity
  8
0-B_寸法
  6
Continuous
 62
   120
370
     5
100
AcDbLine
 10
-2586.000375489932
 20
1254.364611198818
 30
0.0
 11
-2586.000375489932
 21
1104.364611198818
 31
0.0
  0
LINE
  5
B0
330
1F
100
AcDbEntity
  8
0-2_扉
  6
Continuous
 62
    92
370
    13
100
AcDbLine
 10
-3218.999355684377
 20
1026.364611198817
 30
0.0
 11
-3842.999645365712
 21
1026.364611198817
 31
0.0
  0
LINE
  5
B1
330
1F
100
AcDbEntity
  8
0-2_扉
  6
Continuous
 62
    92
370
    13
100
AcDbLine
 10
-2588.99964536571
 20
1026.364611198817
 30
0.0
 11
-3212.999935047048
 21
1026.364611198817
 31
0.0
  0
LINE
  5
B2
330
1F
100
AcDbEntity
  8
0-2_扉
  6
Continuous
 62
    92
370
    13
100
AcDbLine
 10
-2588.99964536571
 20
1026.364611198817
 30
0.0
 11
-2588.99964536571
 21
-617.6353888011812
 31
0.0
  0
LINE
  5
B3
330
1F
100
AcDbEntity
  8
0-2_扉
  6
Continuous
 62
    92
370
    13
100
AcDbLine
 10
-3842.999645365712
 20
1026.364611198817
 30
0.0
 11
-3842.999645365712
 21
-617.6353888011812
 31
0.0
  0
LINE
  5
B4
330
1F
100
AcDbEntity
  8
0-2_扉
  6
Continuous
 62
    92
370
    13
100
AcDbLine
 10
-3218.999355684377
 20
1026.364611198817
 30
0.0
 11
-3218.999355684377
 21
-617.6353888011812
 31
0.0
  0
LINE
  5
B5
330
1F
100
AcDbEntity
  8
0-2_扉
  6
Continuous
 62
    92
370
    13
100
AcDbLine
 10
-3842.999645365712
 20
-617.6353888011812
 30
0.0
 11
-3218.999355684377
 21
-617.6353888011812
 31
0.0
  0
LINE
  5
B6
330
1F
100
AcDbEntity
  8
0-2_扉
  6
Continuous
 62
    92
370
    13
100
AcDbLine
 10
-3212.999935047048
 20
1026.364611198817
 30
0.0
 11
-3212.999935047048
 21
-617.6353888011812
 31
0.0
  0
LINE
  5
B7
330
1F
100
AcDbEntity
  8
0-2_扉
  6
Continuous
 62
    92
370
    13
100
AcDbLine
 10
-3212.999935047048
 20
-617.6353888011812
 30
0.0
 11
-2588.99964536571
 21
-617.6353888011812
 31
0.0
  0
LINE
  5
B8
330
1F
100
AcDbEntity
  8
0-2_扉
  6
JWW_CENTER1
 62
   120
370
     5
100
AcDbLine
 10
-3842.999645365712
 20
204.3646111988181
 30
0.0
 11
-3218.999355684377
 21
1026.364611198817
 31
0.0
  0
LINE
  5
B9
330
1F
100
AcDbEntity
  8
0-2_扉
  6
JWW_CENTER1
 62
   120
370
     5
100
AcDbLine
 10
-2588.99964536571
 20
204.3646111988181
 30
0.0
 11
-3212.999935047048
 21
1026.364611198817
 31
0.0
  0
LINE
  5
BA
330
1F
100
AcDbEntity
  8
0-2_扉
  6
JWW_CENTER1
 62
   120
370
     5
100
AcDbLine
 10
-3842.999645365712
 20
204.3646111988181
 30
0.0
 11
-3218.999355684377
 21
-617.6353888011812
 31
0.0
  0
LINE
  5
BB
330
1F
100
AcDbEntity
  8
0-2_扉
  6
JWW_CENTER1
 62
   120
370
     5
100
AcDbLine
 10
-2588.99964536571
 20
204.3646111988181
 30
0.0
 11
-3212.999935047048
 21
-617.6353888011812
 31
0.0
  0
TEXT
  5
BC
330
1F
100
AcDbEntity
  8
0-B_寸法
  6
Continuous
 62
     7
370
   211
100
AcDbText
 10
-3763.500375489932
 20
1282.054611198818
 30
0.0
 40
68.58
  1
ＤＷ＝416
 41
1.148148148148148
  7
ＭＳ ゴシック
100
AcDbText
  0
TEXT
  5
BD
330
1F
100
AcDbEntity
  8
0-B_寸法
  6
Continuous
 62
     7
370
   211
100
AcDbText
 10
-3238.500375489932
 20
1282.054611198818
 30
0.0
 40
68.58
  1
4
  7
ＭＳ ゴシック
100
AcDbText
  0
TEXT
  5
BE
330
1F
100
AcDbEntity
  8
0-B_寸法
  6
Continuous
 62
     7
370
   211
100
AcDbText
 10
-3133.500375489932
 20
1282.054611198818
 30
0.0
 40
68.58
  1
ＤＷ＝416
 41
1.148148148148148
  7
ＭＳ ゴシック
100
AcDbText
  0
LINE
  5
BF
330
1F
100
AcDbEntity
  8
0-B_寸法
  6
Continuous
 62
   120
370
     5
100
AcDbLine
 10
-3846.000375489932
 20
-2495.634725043858
 30
0.0
 11
-3846.000375489932
 21
-2195.634725043858
 31
0.0
  0
LINE
  5
C0
330
1F
100
AcDbEntity
  8
0-1_本体
  6
Continuous
 62
    92
370
    13
100
AcDbLine
 10
-3846.000375489932
 20
-2120.634725043858
 30
0.0
 11
-3846.000375489932
 21
-1424.635388801182
 31
0.0
  0
LINE
  5
C1
330
1F
100
AcDbEntity
  8
0-1_本体
  6
Continuous
 62
    92
370
    13
100
AcDbLine
 10
-3846.000375489932
 20
-1424.635388801182
 30
0.0
 11
-2586.001105614153
 21
-1424.635388801182
 31
0.0
  0
LINE
  5
C2
330
1F
100
AcDbEntity
  8
0-1_本体
  6
Continuous
 62
    92
370
    13
100
AcDbLine
 10
-2586.001105614153
 20
-2120.634725043858
 30
0.0
 11
-3846.000375489932
 21
-2120.634725043858
 31
0.0
  0
LINE
  5
C3
330
1F
100
AcDbEntity
  8
0-1_本体
  6
Continuous
 62
    92
370
    13
100
AcDbLine
 10
-2586.001105614153
 20
-2120.634725043858
 30
0.0
 11
-2586.001105614153
 21
-1424.635388801182
 31
0.0
  0
LINE
  5
C4
330
1F
100
AcDbEntity
  8
0-2_扉
  6
Continuous
 62
    92
370
    13
100
AcDbLine
 10
-2589.000204226226
 20
-1429.135388801182
 30
0.0
 11
-2589.000204226226
 21
-1970.635388801182
 31
0.0
  0
LINE
  5
C5
330
1F
100
AcDbEntity
  8
0-2_扉
  6
Continuous
 62
    92
370
    13
100
AcDbLine
 10
-3218.999764490313
 20
-1970.635388801182
 30
0.0
 11
-3218.999764490313
 21
-1429.135388801182
 31
0.0
  0
LINE
  5
C6
330
1F
100
AcDbEntity
  8
0-2_扉
  6
Continuous
 62
    92
370
    13
100
AcDbLine
 10
-3842.999474808979
 20
-1970.635388801182
 30
0.0
 11
-3218.999764490313
 21
-1970.635388801182
 31
0.0
  0
LINE
  5
C7
330
1F
100
AcDbEntity
  8
0-2_扉
  6
Continuous
 62
    92
370
    13
100
AcDbLine
 10
-3842.999474808979
 20
-1429.135388801182
 30
0.0
 11
-3218.999764490313
 21
-1429.135388801182
 31
0.0
  0
LINE
  5
C8
330
1F
100
AcDbEntity
  8
0-2_扉
  6
JWW_CENTER1
 62
   120
370
     5
100
AcDbLine
 10
-3842.999474808979
 20
-1699.885018171676
 30
0.0
 11
-3218.999764490313
 21
-1970.635388801182
 31
0.0
  0
LINE
  5
C9
330
1F
100
AcDbEntity
  8
0-2_扉
  6
JWW_CENTER1
 62
   120
370
     5
100
AcDbLine
 10
-3218.999764490313
 20
-1429.135388801182
 30
0.0
 11
-3842.999474808979
 21
-1699.885018171676
 31
0.0
  0
LINE
  5
CA
330
1F
100
AcDbEntity
  8
0-2_扉
  6
JWW_CENTER1
 62
   120
370
     5
100
AcDbLine
 10
-2589.000204226226
 20
-1699.885018171676
 30
0.0
 11
-3212.999914544891
 21
-1970.635388801182
 31
0.0
  0
LINE
  5
CB
330
1F
100
AcDbEntity
  8
0-2_扉
  6
JWW_CENTER1
 62
   120
370
     5
100
AcDbLine
 10
-3212.999914544891
 20
-1429.135388801182
 30
0.0
 11
-2589.000204226226
 21
-1699.885018171676
 31
0.0
  0
LINE
  5
CC
330
1F
100
AcDbEntity
  8
0-2_扉
  6
Continuous
 62
    92
370
    13
100
AcDbLine
 10
-3212.999914544891
 20
-1429.135388801182
 30
0.0
 11
-2589.000204226226
 21
-1429.135388801182
 31
0.0
  0
LINE
  5
CD
330
1F
100
AcDbEntity
  8
0-2_扉
  6
Continuous
 62
    92
370
    13
100
AcDbLine
 10
-3212.999914544891
 20
-1970.635388801182
 30
0.0
 11
-2589.000204226226
 21
-1970.635388801182
 31
0.0
  0
LINE
  5
CE
330
1F
100
AcDbEntity
  8
0-2_扉
  6
Continuous
 62
    92
370
    13
100
AcDbLine
 10
-3212.999914544891
 20
-1970.635388801182
 30
0.0
 11
-3212.999914544891
 21
-1429.135388801182
 31
0.0
  0
LINE
  5
CF
330
1F
100
AcDbEntity
  8
0-1_本体
  6
Continuous
 62
    92
370
    13
100
AcDbLine
 10
-3822.750375489934
 20
-1970.635388801182
 30
0.0
 11
-3822.750375489934
 21
-2120.634725043858
 31
0.0
  0
LINE
  5
D0
330
1F
100
AcDbEntity
  8
0-1_本体
  6
Continuous
 62
    92
370
    13
100
AcDbLine
 10
-2609.251105614151
 20
-1970.635388801182
 30
0.0
 11
-2609.251105614151
 21
-2120.634725043858
 31
0.0
  0
LINE
  5
D1
330
1F
100
AcDbEntity
  8
0-B_寸法
  6
Continuous
 62
   120
370
     5
100
AcDbLine
 10
-3846.000375489932
 20
-2345.634725043858
 30
0.0
 11
-3822.750375489934
 21
-2345.634725043858
 31
0.0
  0
LWPOLYLINE
  5
D2
330
1F
100
AcDbEntity
  8
0-B_寸法
  6
Continuous
 62
     7
370
     9
100
AcDbPolyline
 90
        4
 70
     1
 43
3.0
 10
-3844.500375489932
 20
-2345.634725043858
 42
0.4142135623731
 10
-3846.000375489932
 20
-2344.134725043858
 42
0.4142135623731
 10
-3847.500375489933
 20
-2345.634725043858
 42
0.4142135623731
 10
-3846.000375489932
 20
-2347.134725043858
 42
0.4142135623731
  0
LWPOLYLINE
  5
D3
330
1F
100
AcDbEntity
  8
0-B_寸法
  6
Continuous
 62
     7
370
     9
100
AcDbPolyline
 90
        4
 70
     1
 43
3.0
 10
-3821.250375489934
 20
-2345.634725043858
 42
0.4142135623731
 10
-3822.750375489934
 20
-2344.134725043858
 42
0.4142135623731
 10
-3824.250375489934
 20
-2345.634725043858
 42
0.4142135623731
 10
-3822.750375489934
 20
-2347.134725043858
 42
0.4142135623731
  0
LINE
  5
D4
330
1F
100
AcDbEntity
  8
0-B_寸法
  6
Continuous
 62
   120
370
     5
100
AcDbLine
 10
-3822.750375489934
 20
-2345.634725043858
 30
0.0
 11
-3822.750375489934
 21
-2195.634725043858
 31
0.0
  0
LINE
  5
D5
330
1F
100
AcDbEntity
  8
0-B_寸法
  6
Continuous
 62
   120
370
     5
100
AcDbLine
 10
-3822.750375489934
 20
-2345.634725043858
 30
0.0
 11
-2609.251105614151
 21
-2345.634725043858
 31
0.0
  0
LWPOLYLINE
  5
D6
330
1F
100
AcDbEntity
  8
0-B_寸法
  6
Continuous
 62
     7
370
     9
100
AcDbPolyline
 90
        4
 70
     1
 43
3.0
 10
-2607.751105614151
 20
-2345.634725043858
 42
0.4142135623731
 10
-2609.251105614151
 20
-2344.134725043858
 42
0.4142135623731
 10
-2610.751105614151
 20
-2345.634725043858
 42
0.4142135623731
 10
-2609.251105614151
 20
-2347.134725043858
 42
0.4142135623731
  0
LINE
  5
D7
330
1F
100
AcDbEntity
  8
0-B_寸法
  6
Continuous
 62
   120
370
     5
100
AcDbLine
 10
-2609.251105614151
 20
-2345.634725043858
 30
0.0
 11
-2609.251105614151
 21
-2195.634725043858
 31
0.0
  0
LINE
  5
D8
330
1F
100
AcDbEntity
  8
0-B_寸法
  6
Continuous
 62
   120
370
     5
100
AcDbLine
 10
-2609.251105614151
 20
-2345.634725043858
 30
0.0
 11
-2586.001105614153
 21
-2345.634725043858
 31
0.0
  0
LWPOLYLINE
  5
D9
330
1F
100
AcDbEntity
  8
0-B_寸法
  6
Continuous
 62
     7
370
     9
100
AcDbPolyline
 90
        4
 70
     1
 43
3.0
 10
-2584.501105614153
 20
-2345.634725043858
 42
0.4142135623731
 10
-2586.001105614153
 20
-2344.134725043858
 42
0.4142135623731
 10
-2587.501105614153
 20
-2345.634725043858
 42
0.4142135623731
 10
-2586.001105614153
 20
-2347.134725043858
 42
0.4142135623731
  0
LINE
  5
DA
330
1F
100
AcDbEntity
  8
0-B_寸法
  6
Continuous
 62
   120
370
     5
100
AcDbLine
 10
-2586.001105614153
 20
-2495.634725043858
 30
0.0
 11
-2586.001105614153
 21
-2195.634725043858
 31
0.0
  0
LINE
  5
DB
330
1F
100
AcDbEntity
  8
0-B_寸法
  6
Continuous
 62
   120
370
     5
100
AcDbLine
 10
-3846.000375489932
 20
-2495.634725043858
 30
0.0
 11
-2586.001105614153
 21
-2495.634725043858
 31
0.0
  0
LWPOLYLINE
  5
DC
330
1F
100
AcDbEntity
  8
0-B_寸法
  6
Continuous
 62
     7
370
     9
100
AcDbPolyline
 90
        4
 70
     1
 43
3.0
 10
-3844.500375489932
 20
-2495.634725043858
 42
0.4142135623731
 10
-3846.000375489932
 20
-2494.134725043858
 42
0.4142135623731
 10
-3847.500375489933
 20
-2495.634725043858
 42
0.4142135623731
 10
-3846.000375489932
 20
-2497.134725043858
 42
0.4142135623731
  0
LWPOLYLINE
  5
DD
330
1F
100
AcDbEntity
  8
0-B_寸法
  6
Continuous
 62
     7
370
     9
100
AcDbPolyline
 90
        4
 70
     1
 43
3.0
 10
-2584.501105614153
 20
-2495.634725043858
 42
0.4142135623731
 10
-2586.001105614153
 20
-2494.134725043858
 42
0.4142135623731
 10
-2587.501105614153
 20
-2495.634725043858
 42
0.4142135623731
 10
-2586.001105614153
 20
-2497.134725043858
 42
0.4142135623731
  0
TEXT
  5
DE
330
1F
100
AcDbEntity
  8
0-B_寸法
  6
Continuous
 62
     7
370
   211
100
AcDbText
 10
-2814.751105614151
 20
-2317.944725043858
 30
0.0
 40
68.58
  1
15.5
 41
1.125
  7
ＭＳ ゴシック
100
AcDbText
  0
TEXT
  5
DF
330
1F
100
AcDbEntity
  8
0-B_寸法
  6
Continuous
 62
     7
370
   211
100
AcDbText
 10
-3819.750375489932
 20
-2317.944725043858
 30
0.0
 40
68.58
  1
15.5
 41
1.125
  7
ＭＳ ゴシック
100
AcDbText
  0
TEXT
  5
E0
330
1F
100
AcDbEntity
  8
0-B_寸法
  6
Continuous
 62
     7
370
   211
100
AcDbText
 10
-3291.000740552044
 20
-2317.944725043858
 30
0.0
 40
68.58
  1
809
 41
1.111111111111111
  7
ＭＳ ゴシック
100
AcDbText
  0
TEXT
  5
E1
330
1F
100
AcDbEntity
  8
0-B_寸法
  6
Continuous
 62
     7
370
   211
100
AcDbText
 10
-3291.000740552044
 20
-2467.944725043858
 30
0.0
 40
68.58
  1
840
 41
1.111111111111111
  7
ＭＳ ゴシック
100
AcDbText
  0
LINE
  5
E2
330
1F
100
AcDbEntity
  8
0-1_本体
  6
Continuous
 62
    92
370
    13
100
AcDbLine
 10
-2586.000375489932
 20
-620.6353888011819
 30
0.0
 11
-1326.000375489931
 21
-620.6353888011819
 31
0.0
  0
LINE
  5
E3
330
1F
100
AcDbEntity
  8
0-1_本体
  6
Continuous
 62
    92
370
    13
100
AcDbLine
 10
-1326.000375489931
 20
-620.6353888011819
 30
0.0
 11
-1326.000375489931
 21
1029.364611198818
 31
0.0
  0
LINE
  5
E4
330
1F
100
AcDbEntity
  8
0-1_本体
  6
Continuous
 62
    92
370
    13
100
AcDbLine
 10
-1326.000375489931
 20
1029.364611198818
 30
0.0
 11
-2586.000375489932
 21
1029.364611198818
 31
0.0
  0
LINE
  5
E5
330
1F
100
AcDbEntity
  8
0-B_寸法
  6
Continuous
 62
   120
370
     5
100
AcDbLine
 10
-2586.000375489932
 20
1254.364611198818
 30
0.0
 11
-2583.000375489932
 21
1254.364611198818
 31
0.0
  0
LWPOLYLINE
  5
E6
330
1F
100
AcDbEntity
  8
0-B_寸法
  6
Continuous
 62
     7
370
     9
100
AcDbPolyline
 90
        4
 70
     1
 43
3.0
 10
-2581.500375489932
 20
1254.364611198818
 42
0.4142135623731
 10
-2583.000375489932
 20
1255.864611198818
 42
0.4142135623731
 10
-2584.500375489931
 20
1254.364611198818
 42
0.4142135623731
 10
-2583.000375489932
 20
1252.864611198818
 42
0.4142135623731
  0
LINE
  5
E7
330
1F
100
AcDbEntity
  8
0-B_寸法
  6
Continuous
 62
   120
370
     5
100
AcDbLine
 10
-2583.000375489932
 20
1254.364611198818
 30
0.0
 11
-2583.000375489932
 21
1104.364611198818
 31
0.0
  0
LINE
  5
E8
330
1F
100
AcDbEntity
  8
0-B_寸法
  6
Continuous
 62
   120
370
     5
100
AcDbLine
 10
-2583.000375489932
 20
1254.364611198818
 30
0.0
 11
-1959.000375489933
 21
1254.364611198818
 31
0.0
  0
LWPOLYLINE
  5
E9
330
1F
100
AcDbEntity
  8
0-B_寸法
  6
Continuous
 62
     7
370
     9
100
AcDbPolyline
 90
        4
 70
     1
 43
3.0
 10
-1957.500375489933
 20
1254.364611198818
 42
0.4142135623731
 10
-1959.000375489933
 20
1255.864611198818
 42
0.4142135623731
 10
-1960.500375489933
 20
1254.364611198818
 42
0.4142135623731
 10
-1959.000375489933
 20
1252.864611198818
 42
0.4142135623731
  0
LINE
  5
EA
330
1F
100
AcDbEntity
  8
0-B_寸法
  6
Continuous
 62
   120
370
     5
100
AcDbLine
 10
-1959.000375489933
 20
1254.364611198818
 30
0.0
 11
-1959.000375489933
 21
1104.364611198818
 31
0.0
  0
LINE
  5
EB
330
1F
100
AcDbEntity
  8
0-B_寸法
  6
Continuous
 62
   120
370
     5
100
AcDbLine
 10
-1959.000375489933
 20
1254.364611198818
 30
0.0
 11
-1953.000375489932
 21
1254.364611198818
 31
0.0
  0
LWPOLYLINE
  5
EC
330
1F
100
AcDbEntity
  8
0-B_寸法
  6
Continuous
 62
     7
370
     9
100
AcDbPolyline
 90
        4
 70
     1
 43
3.0
 10
-1951.500375489932
 20
1254.364611198818
 42
0.4142135623731
 10
-1953.000375489932
 20
1255.864611198818
 42
0.4142135623731
 10
-1954.500375489932
 20
1254.364611198818
 42
0.4142135623731
 10
-1953.000375489932
 20
1252.864611198818
 42
0.4142135623731
  0
LINE
  5
ED
330
1F
100
AcDbEntity
  8
0-B_寸法
  6
Continuous
 62
   120
370
     5
100
AcDbLine
 10
-1953.000375489932
 20
1254.364611198818
 30
0.0
 11
-1953.000375489932
 21
1104.364611198818
 31
0.0
  0
LINE
  5
EE
330
1F
100
AcDbEntity
  8
0-B_寸法
  6
Continuous
 62
   120
370
     5
100
AcDbLine
 10
-1953.000375489932
 20
1254.364611198818
 30
0.0
 11
-1329.000375489933
 21
1254.364611198818
 31
0.0
  0
LWPOLYLINE
  5
EF
330
1F
100
AcDbEntity
  8
0-B_寸法
  6
Continuous
 62
     7
370
     9
100
AcDbPolyline
 90
        4
 70
     1
 43
3.0
 10
-1327.500375489933
 20
1254.364611198818
 42
0.4142135623731
 10
-1329.000375489933
 20
1255.864611198818
 42
0.4142135623731
 10
-1330.500375489933
 20
1254.364611198818
 42
0.4142135623731
 10
-1329.000375489933
 20
1252.864611198818
 42
0.4142135623731
  0
LINE
  5
F0
330
1F
100
AcDbEntity
  8
0-B_寸法
  6
Continuous
 62
   120
370
     5
100
AcDbLine
 10
-1329.000375489933
 20
1254.364611198818
 30
0.0
 11
-1329.000375489933
 21
1104.364611198818
 31
0.0
  0
LINE
  5
F1
330
1F
100
AcDbEntity
  8
0-B_寸法
  6
Continuous
 62
   120
370
     5
100
AcDbLine
 10
-1329.000375489933
 20
1254.364611198818
 30
0.0
 11
-1326.000375489931
 21
1254.364611198818
 31
0.0
  0
LWPOLYLINE
  5
F2
330
1F
100
AcDbEntity
  8
0-B_寸法
  6
Continuous
 62
     7
370
     9
100
AcDbPolyline
 90
        4
 70
     1
 43
3.0
 10
-1324.500375489931
 20
1254.364611198818
 42
0.4142135623731
 10
-1326.000375489931
 20
1255.864611198818
 42
0.4142135623731
 10
-1327.500375489931
 20
1254.364611198818
 42
0.4142135623731
 10
-1326.000375489931
 20
1252.864611198818
 42
0.4142135623731
  0
LINE
  5
F3
330
1F
100
AcDbEntity
  8
0-B_寸法
  6
Continuous
 62
   120
370
     5
100
AcDbLine
 10
-1326.000375489931
 20
1254.364611198818
 30
0.0
 11
-1326.000375489931
 21
1104.364611198818
 31
0.0
  0
LINE
  5
F4
330
1F
100
AcDbEntity
  8
0-2_扉
  6
Continuous
 62
    92
370
    13
100
AcDbLine
 10
-1958.999355684376
 20
1026.364611198817
 30
0.0
 11
-2582.999645365712
 21
1026.364611198817
 31
0.0
  0
LINE
  5
F5
330
1F
100
AcDbEntity
  8
0-2_扉
  6
Continuous
 62
    92
370
    13
100
AcDbLine
 10
-1328.999645365711
 20
1026.364611198817
 30
0.0
 11
-1952.999935047048
 21
1026.364611198817
 31
0.0
  0
LINE
  5
F6
330
1F
100
AcDbEntity
  8
0-2_扉
  6
Continuous
 62
    92
370
    13
100
AcDbLine
 10
-1328.999645365711
 20
1026.364611198817
 30
0.0
 11
-1328.999645365711
 21
-617.6353888011812
 31
0.0
  0
LINE
  5
F7
330
1F
100
AcDbEntity
  8
0-2_扉
  6
Continuous
 62
    92
370
    13
100
AcDbLine
 10
-2582.999645365712
 20
1026.364611198817
 30
0.0
 11
-2582.999645365712
 21
-617.6353888011812
 31
0.0
  0
LINE
  5
F8
330
1F
100
AcDbEntity
  8
0-2_扉
  6
Continuous
 62
    92
370
    13
100
AcDbLine
 10
-1958.999355684376
 20
1026.364611198817
 30
0.0
 11
-1958.999355684376
 21
-617.6353888011812
 31
0.0
  0
LINE
  5
F9
330
1F
100
AcDbEntity
  8
0-2_扉
  6
Continuous
 62
    92
370
    13
100
AcDbLine
 10
-2582.999645365712
 20
-617.6353888011812
 30
0.0
 11
-1958.999355684376
 21
-617.6353888011812
 31
0.0
  0
LINE
  5
FA
330
1F
100
AcDbEntity
  8
0-2_扉
  6
Continuous
 62
    92
370
    13
100
AcDbLine
 10
-1952.999935047048
 20
1026.364611198817
 30
0.0
 11
-1952.999935047048
 21
-617.6353888011812
 31
0.0
  0
LINE
  5
FB
330
1F
100
AcDbEntity
  8
0-2_扉
  6
Continuous
 62
    92
370
    13
100
AcDbLine
 10
-1952.999935047048
 20
-617.6353888011812
 30
0.0
 11
-1328.999645365711
 21
-617.6353888011812
 31
0.0
  0
LINE
  5
FC
330
1F
100
AcDbEntity
  8
0-2_扉
  6
JWW_CENTER1
 62
   120
370
     5
100
AcDbLine
 10
-2582.999645365712
 20
204.3646111988181
 30
0.0
 11
-1958.999355684376
 21
1026.364611198817
 31
0.0
  0
LINE
  5
FD
330
1F
100
AcDbEntity
  8
0-2_扉
  6
JWW_CENTER1
 62
   120
370
     5
100
AcDbLine
 10
-1328.999645365711
 20
204.3646111988181
 30
0.0
 11
-1952.999935047048
 21
1026.364611198817
 31
0.0
  0
LINE
  5
FE
330
1F
100
AcDbEntity
  8
0-2_扉
  6
JWW_CENTER1
 62
   120
370
     5
100
AcDbLine
 10
-2582.999645365712
 20
204.3646111988181
 30
0.0
 11
-1958.999355684376
 21
-617.6353888011812
 31
0.0
  0
LINE
  5
FF
330
1F
100
AcDbEntity
  8
0-2_扉
  6
JWW_CENTER1
 62
   120
370
     5
100
AcDbLine
 10
-1328.999645365711
 20
204.3646111988181
 30
0.0
 11
-1952.999935047048
 21
-617.6353888011812
 31
0.0
  0
TEXT
  5
100
330
1F
100
AcDbEntity
  8
0-B_寸法
  6
Continuous
 62
     7
370
   211
100
AcDbText
 10
-2503.500375489932
 20
1282.054611198818
 30
0.0
 40
68.58
  1
ＤＷ＝416
 41
1.148148148148148
  7
ＭＳ ゴシック
100
AcDbText
  0
TEXT
  5
101
330
1F
100
AcDbEntity
  8
0-B_寸法
  6
Continuous
 62
     7
370
   211
100
AcDbText
 10
-1978.500375489931
 20
1282.054611198818
 30
0.0
 40
68.58
  1
4
  7
ＭＳ ゴシック
100
AcDbText
  0
TEXT
  5
102
330
1F
100
AcDbEntity
  8
0-B_寸法
  6
Continuous
 62
     7
370
   211
100
AcDbText
 10
-1873.50037548993
 20
1282.054611198818
 30
0.0
 40
68.58
  1
ＤＷ＝416
 41
1.148148148148148
  7
ＭＳ ゴシック
100
AcDbText
  0
TEXT
  5
103
330
1F
100
AcDbEntity
  8
0-B_寸法
  6
Continuous
 62
     7
370
   211
100
AcDbText
 10
-1350.000375489933
 20
1282.054611198818
 30
0.0
 40
68.58
  1
2
  7
ＭＳ ゴシック
100
AcDbText
  0
LINE
  5
104
330
1F
100
AcDbEntity
  8
0-B_寸法
  6
Continuous
 62
   120
370
     5
100
AcDbLine
 10
-2586.000375489932
 20
-2495.634725043858
 30
0.0
 11
-2586.000375489932
 21
-2195.634725043858
 31
0.0
  0
LINE
  5
105
330
1F
100
AcDbEntity
  8
0-1_本体
  6
Continuous
 62
    92
370
    13
100
AcDbLine
 10
-2586.000375489932
 20
-2120.634725043858
 30
0.0
 11
-2586.000375489932
 21
-1424.635388801182
 31
0.0
  0
LINE
  5
106
330
1F
100
AcDbEntity
  8
0-1_本体
  6
Continuous
 62
    92
370
    13
100
AcDbLine
 10
-2586.000375489932
 20
-1424.635388801182
 30
0.0
 11
-1326.001105614151
 21
-1424.635388801182
 31
0.0
  0
LINE
  5
107
330
1F
100
AcDbEntity
  8
0-1_本体
  6
Continuous
 62
    92
370
    13
100
AcDbLine
 10
-1326.001105614151
 20
-2120.634725043858
 30
0.0
 11
-2586.000375489932
 21
-2120.634725043858
 31
0.0
  0
LINE
  5
108
330
1F
100
AcDbEntity
  8
0-1_本体
  6
Continuous
 62
    92
370
    13
100
AcDbLine
 10
-1326.001105614151
 20
-2120.634725043858
 30
0.0
 11
-1326.001105614151
 21
-1424.635388801182
 31
0.0
  0
LINE
  5
109
330
1F
100
AcDbEntity
  8
0-2_扉
  6
Continuous
 62
    92
370
    13
100
AcDbLine
 10
-1329.000204226226
 20
-1429.135388801182
 30
0.0
 11
-1329.000204226226
 21
-1970.635388801182
 31
0.0
  0
LINE
  5
10A
330
1F
100
AcDbEntity
  8
0-2_扉
  6
Continuous
 62
    92
370
    13
100
AcDbLine
 10
-2582.999474808979
 20
-1970.635388801182
 30
0.0
 11
-2582.999474808979
 21
-1429.135388801182
 31
0.0
  0
LINE
  5
10B
330
1F
100
AcDbEntity
  8
0-2_扉
  6
Continuous
 62
    92
370
    13
100
AcDbLine
 10
-1958.999764490312
 20
-1970.635388801182
 30
0.0
 11
-1958.999764490312
 21
-1429.135388801182
 31
0.0
  0
LINE
  5
10C
330
1F
100
AcDbEntity
  8
0-2_扉
  6
Continuous
 62
    92
370
    13
100
AcDbLine
 10
-2582.999474808979
 20
-1970.635388801182
 30
0.0
 11
-1958.999764490312
 21
-1970.635388801182
 31
0.0
  0
LINE
  5
10D
330
1F
100
AcDbEntity
  8
0-2_扉
  6
Continuous
 62
    92
370
    13
100
AcDbLine
 10
-2582.999474808979
 20
-1429.135388801182
 30
0.0
 11
-1958.999764490312
 21
-1429.135388801182
 31
0.0
  0
LINE
  5
10E
330
1F
100
AcDbEntity
  8
0-2_扉
  6
JWW_CENTER1
 62
   120
370
     5
100
AcDbLine
 10
-2582.999474808979
 20
-1699.885018171676
 30
0.0
 11
-1958.999764490312
 21
-1970.635388801182
 31
0.0
  0
LINE
  5
10F
330
1F
100
AcDbEntity
  8
0-2_扉
  6
JWW_CENTER1
 62
   120
370
     5
100
AcDbLine
 10
-1958.999764490312
 20
-1429.135388801182
 30
0.0
 11
-2582.999474808979
 21
-1699.885018171676
 31
0.0
  0
LINE
  5
110
330
1F
100
AcDbEntity
  8
0-2_扉
  6
JWW_CENTER1
 62
   120
370
     5
100
AcDbLine
 10
-1329.000204226226
 20
-1699.885018171676
 30
0.0
 11
-1952.999914544891
 21
-1970.635388801182
 31
0.0
  0
LINE
  5
111
330
1F
100
AcDbEntity
  8
0-2_扉
  6
JWW_CENTER1
 62
   120
370
     5
100
AcDbLine
 10
-1952.999914544891
 20
-1429.135388801182
 30
0.0
 11
-1329.000204226226
 21
-1699.885018171676
 31
0.0
  0
LINE
  5
112
330
1F
100
AcDbEntity
  8
0-2_扉
  6
Continuous
 62
    92
370
    13
100
AcDbLine
 10
-1952.999914544891
 20
-1429.135388801182
 30
0.0
 11
-1329.000204226226
 21
-1429.135388801182
 31
0.0
  0
LINE
  5
113
330
1F
100
AcDbEntity
  8
0-2_扉
  6
Continuous
 62
    92
370
    13
100
AcDbLine
 10
-1952.999914544891
 20
-1970.635388801182
 30
0.0
 11
-1329.000204226226
 21
-1970.635388801182
 31
0.0
  0
LINE
  5
114
330
1F
100
AcDbEntity
  8
0-2_扉
  6
Continuous
 62
    92
370
    13
100
AcDbLine
 10
-1952.999914544891
 20
-1970.635388801182
 30
0.0
 11
-1952.999914544891
 21
-1429.135388801182
 31
0.0
  0
LINE
  5
115
330
1F
100
AcDbEntity
  8
0-1_本体
  6
Continuous
 62
    92
370
    13
100
AcDbLine
 10
-2562.750375489934
 20
-1970.635388801182
 30
0.0
 11
-2562.750375489934
 21
-2120.634725043858
 31
0.0
  0
LINE
  5
116
330
1F
100
AcDbEntity
  8
0-1_本体
  6
Continuous
 62
    92
370
    13
100
AcDbLine
 10
-1349.25110561415
 20
-1970.635388801182
 30
0.0
 11
-1349.25110561415
 21
-2120.634725043858
 31
0.0
  0
LINE
  5
117
330
1F
100
AcDbEntity
  8
0-B_寸法
  6
Continuous
 62
   120
370
     5
100
AcDbLine
 10
-2586.000375489932
 20
-2345.634725043858
 30
0.0
 11
-2562.750375489934
 21
-2345.634725043858
 31
0.0
  0
LWPOLYLINE
  5
118
330
1F
100
AcDbEntity
  8
0-B_寸法
  6
Continuous
 62
     7
370
     9
100
AcDbPolyline
 90
        4
 70
     1
 43
3.0
 10
-2584.500375489932
 20
-2345.634725043858
 42
0.4142135623731
 10
-2586.000375489932
 20
-2344.134725043858
 42
0.4142135623731
 10
-2587.500375489932
 20
-2345.634725043858
 42
0.4142135623731
 10
-2586.000375489932
 20
-2347.134725043858
 42
0.4142135623731
  0
LWPOLYLINE
  5
119
330
1F
100
AcDbEntity
  8
0-B_寸法
  6
Continuous
 62
     7
370
     9
100
AcDbPolyline
 90
        4
 70
     1
 43
3.0
 10
-2561.250375489934
 20
-2345.634725043858
 42
0.4142135623731
 10
-2562.750375489934
 20
-2344.134725043858
 42
0.4142135623731
 10
-2564.250375489934
 20
-2345.634725043858
 42
0.4142135623731
 10
-2562.750375489934
 20
-2347.134725043858
 42
0.4142135623731
  0
LINE
  5
11A
330
1F
100
AcDbEntity
  8
0-B_寸法
  6
Continuous
 62
   120
370
     5
100
AcDbLine
 10
-2562.750375489934
 20
-2345.634725043858
 30
0.0
 11
-2562.750375489934
 21
-2195.634725043858
 31
0.0
  0
LINE
  5
11B
330
1F
100
AcDbEntity
  8
0-B_寸法
  6
Continuous
 62
   120
370
     5
100
AcDbLine
 10
-2562.750375489934
 20
-2345.634725043858
 30
0.0
 11
-1349.25110561415
 21
-2345.634725043858
 31
0.0
  0
LWPOLYLINE
  5
11C
330
1F
100
AcDbEntity
  8
0-B_寸法
  6
Continuous
 62
     7
370
     9
100
AcDbPolyline
 90
        4
 70
     1
 43
3.0
 10
-1347.75110561415
 20
-2345.634725043858
 42
0.4142135623731
 10
-1349.25110561415
 20
-2344.134725043858
 42
0.4142135623731
 10
-1350.75110561415
 20
-2345.634725043858
 42
0.4142135623731
 10
-1349.25110561415
 20
-2347.134725043858
 42
0.4142135623731
  0
LINE
  5
11D
330
1F
100
AcDbEntity
  8
0-B_寸法
  6
Continuous
 62
   120
370
     5
100
AcDbLine
 10
-1349.25110561415
 20
-2345.634725043858
 30
0.0
 11
-1349.25110561415
 21
-2195.634725043858
 31
0.0
  0
LINE
  5
11E
330
1F
100
AcDbEntity
  8
0-B_寸法
  6
Continuous
 62
   120
370
     5
100
AcDbLine
 10
-1349.25110561415
 20
-2345.634725043858
 30
0.0
 11
-1326.001105614151
 21
-2345.634725043858
 31
0.0
  0
LWPOLYLINE
  5
11F
330
1F
100
AcDbEntity
  8
0-B_寸法
  6
Continuous
 62
     7
370
     9
100
AcDbPolyline
 90
        4
 70
     1
 43
3.0
 10
-1324.501105614151
 20
-2345.634725043858
 42
0.4142135623731
 10
-1326.001105614151
 20
-2344.134725043858
 42
0.4142135623731
 10
-1327.501105614151
 20
-2345.634725043858
 42
0.4142135623731
 10
-1326.001105614151
 20
-2347.134725043858
 42
0.4142135623731
  0
LINE
  5
120
330
1F
100
AcDbEntity
  8
0-B_寸法
  6
Continuous
 62
   120
370
     5
100
AcDbLine
 10
-1326.001105614151
 20
-2495.634725043858
 30
0.0
 11
-1326.001105614151
 21
-2195.634725043858
 31
0.0
  0
LINE
  5
121
330
1F
100
AcDbEntity
  8
0-B_寸法
  6
Continuous
 62
   120
370
     5
100
AcDbLine
 10
-2586.000375489932
 20
-2495.634725043858
 30
0.0
 11
-1326.001105614151
 21
-2495.634725043858
 31
0.0
  0
LWPOLYLINE
  5
122
330
1F
100
AcDbEntity
  8
0-B_寸法
  6
Continuous
 62
     7
370
     9
100
AcDbPolyline
 90
        4
 70
     1
 43
3.0
 10
-2584.500375489932
 20
-2495.634725043858
 42
0.4142135623731
 10
-2586.000375489932
 20
-2494.134725043858
 42
0.4142135623731
 10
-2587.500375489932
 20
-2495.634725043858
 42
0.4142135623731
 10
-2586.000375489932
 20
-2497.134725043858
 42
0.4142135623731
  0
LWPOLYLINE
  5
123
330
1F
100
AcDbEntity
  8
0-B_寸法
  6
Continuous
 62
     7
370
     9
100
AcDbPolyline
 90
        4
 70
     1
 43
3.0
 10
-1324.501105614151
 20
-2495.634725043858
 42
0.4142135623731
 10
-1326.001105614151
 20
-2494.134725043858
 42
0.4142135623731
 10
-1327.501105614151
 20
-2495.634725043858
 42
0.4142135623731
 10
-1326.001105614151
 20
-2497.134725043858
 42
0.4142135623731
  0
TEXT
  5
124
330
1F
100
AcDbEntity
  8
0-B_寸法
  6
Continuous
 62
     7
370
   211
100
AcDbText
 10
-1554.751105614151
 20
-2317.944725043858
 30
0.0
 40
68.58
  1
15.5
 41
1.125
  7
ＭＳ ゴシック
100
AcDbText
  0
TEXT
  5
125
330
1F
100
AcDbEntity
  8
0-B_寸法
  6
Continuous
 62
     7
370
   211
100
AcDbText
 10
-2559.750375489932
 20
-2317.944725043858
 30
0.0
 40
68.58
  1
15.5
 41
1.125
  7
ＭＳ ゴシック
100
AcDbText
  0
TEXT
  5
126
330
1F
100
AcDbEntity
  8
0-B_寸法
  6
Continuous
 62
     7
370
   211
100
AcDbText
 10
-2031.000740552043
 20
-2317.944725043858
 30
0.0
 40
68.58
  1
809
 41
1.111111111111111
  7
ＭＳ ゴシック
100
AcDbText
  0
TEXT
  5
127
330
1F
100
AcDbEntity
  8
0-B_寸法
  6
Continuous
 62
     7
370
   211
100
AcDbText
 10
-2031.000740552043
 20
-2467.944725043858
 30
0.0
 40
68.58
  1
840
 41
1.111111111111111
  7
ＭＳ ゴシック
100
AcDbText
  0
TEXT
  5
128
330
1F
100
AcDbEntity
  8
0-B_寸法
  6
Continuous
 62
     7
370
   211
100
AcDbText
 10
-3896.139006465201
 20
1282.054611198818
 30
0.0
 40
68.58
  1
2
  7
ＭＳ ゴシック
100
AcDbText
  0
TEXT
  5
129
330
1F
100
AcDbEntity
  8
0-B_寸法
  6
Continuous
 62
     7
370
   211
100
AcDbText
 10
-2636.139006465201
 20
1282.054611198818
 30
0.0
 40
68.58
  1
2
  7
ＭＳ ゴシック
100
AcDbText
  0
TEXT
  5
12A
330
1F
100
AcDbEntity
  8
0-B_寸法
  6
Continuous
 62
     7
370
   211
100
AcDbText
 10
-3838.118938956994
 20
1282.054611198818
 30
0.0
 40
68.58
  1
2
  7
ＭＳ ゴシック
100
AcDbText
  0
TEXT
  5
12B
330
1F
100
AcDbEntity
  8
0-B_寸法
  6
Continuous
 62
     7
370
   211
100
AcDbText
 10
-2578.118938956994
 20
1282.054611198818
 30
0.0
 40
68.58
  1
2
  7
ＭＳ ゴシック
100
AcDbText
  0
LINE
  5
12C
330
1F
100
AcDbEntity
  8
0-1_本体
  6
Continuous
 62
    92
370
    13
100
AcDbLine
 10
-366.0003542808019
 20
1029.364611198818
 30
0.0
 11
-366.0003542808019
 21
-620.6353888011819
 31
0.0
  0
LINE
  5
12D
330
1F
100
AcDbEntity
  8
0-1_本体
  6
Continuous
 62
    92
370
    13
100
AcDbLine
 10
-366.0003542808019
 20
-620.6353888011819
 30
0.0
 11
893.999645719198
 21
-620.6353888011819
 31
0.0
  0
LINE
  5
12E
330
1F
100
AcDbEntity
  8
0-1_本体
  6
Continuous
 62
    92
370
    13
100
AcDbLine
 10
893.999645719198
 20
-620.6353888011819
 30
0.0
 11
893.999645719198
 21
1029.364611198818
 31
0.0
  0
LINE
  5
12F
330
1F
100
AcDbEntity
  8
0-1_本体
  6
Continuous
 62
    92
370
    13
100
AcDbLine
 10
893.999645719198
 20
1029.364611198818
 30
0.0
 11
-366.0003542808019
 21
1029.364611198818
 31
0.0
  0
TEXT
  5
130
330
1F
100
AcDbEntity
  8
0-A_文字
  6
Continuous
 62
     7
370
   211
100
AcDbText
 10
113.9996457191981
 20
651.3046111988181
 30
0.0
 40
68.58
  1
可動棚
 41
1.111111111111111
  7
ＭＳ ゴシック
100
AcDbText
  0
TEXT
  5
131
330
1F
100
AcDbEntity
  8
0-A_文字
  6
Continuous
 62
     7
370
   211
100
AcDbText
 10
113.9996457191981
 20
246.3046111988188
 30
0.0
 40
68.58
  1
可動棚
 41
1.111111111111111
  7
ＭＳ ゴシック
100
AcDbText
  0
LINE
  5
132
330
1F
100
AcDbEntity
  8
0-1_本体
  6
Continuous
 62
    92
370
    13
100
AcDbLine
 10
-342.7503542808026
 20
1029.364611198818
 30
0.0
 11
-342.7503542808026
 21
-620.6353888011819
 31
0.0
  0
LINE
  5
133
330
1F
100
AcDbEntity
  8
0-1_本体
  6
Continuous
 62
    92
370
    13
100
AcDbLine
 10
870.7496457191962
 20
-620.6353888011819
 30
0.0
 11
870.7496457191962
 21
1029.364611198818
 31
0.0
  0
TEXT
  5
134
330
1F
100
AcDbEntity
  8
0-A_文字
  6
Continuous
 62
     7
370
   211
100
AcDbText
 10
113.9996457191981
 20
-158.6953888011812
 30
0.0
 40
68.58
  1
可動棚
 41
1.111111111111111
  7
ＭＳ ゴシック
100
AcDbText
  0
LINE
  5
135
330
1F
100
AcDbEntity
  8
0-1_本体
  6
Continuous
 62
    92
370
    13
100
AcDbLine
 10
870.7496457191962
 20
1006.114611198818
 30
0.0
 11
-342.7503542808026
 21
1006.114611198818
 31
0.0
  0
LINE
  5
136
330
1F
100
AcDbEntity
  8
0-1_本体
  6
Continuous
 62
    92
370
    13
100
AcDbLine
 10
-342.7503542808026
 20
-597.3853888011826
 30
0.0
 11
870.7496457191987
 21
-597.3853888011826
 31
0.0
  0
TEXT
  5
137
330
1F
100
AcDbEntity
  8
0-B_寸法
  6
Continuous
 62
     7
370
   211
100
AcDbText
 10
627.0741368925599
 20
523.4896111988178
 30
0.0
 40
68.58
  1
15.5
 50
90.0
 41
1.125
  7
ＭＳ ゴシック
100
AcDbText
  0
TEXT
  5
138
330
1F
100
AcDbEntity
  8
0-B_寸法
  6
Continuous
 62
     7
370
   211
100
AcDbText
 10
627.0741368925599
 20
118.4896111988178
 30
0.0
 40
68.58
  1
15.5
 50
90.0
 41
1.125
  7
ＭＳ ゴシック
100
AcDbText
  0
LINE
  5
139
330
1F
100
AcDbEntity
  8
0-B_寸法
  6
Continuous
 62
   120
370
     5
100
AcDbLine
 10
654.7641368925599
 20
231.3646111988174
 30
0.0
 11
654.7641368925599
 21
208.1146111988181
 31
0.0
  0
LWPOLYLINE
  5
13A
330
1F
100
AcDbEntity
  8
0-B_寸法
  6
Continuous
 62
     7
370
     9
100
AcDbPolyline
 90
        4
 70
     1
 43
3.0
 10
656.2641368925599
 20
231.3646111988174
 42
0.4142135623731
 10
654.7641368925599
 20
232.8646111988174
 42
0.4142135623731
 10
653.2641368925599
 20
231.3646111988174
 42
0.4142135623731
 10
654.7641368925599
 20
229.8646111988174
 42
0.4142135623731
  0
LWPOLYLINE
  5
13B
330
1F
100
AcDbEntity
  8
0-B_寸法
  6
Continuous
 62
     7
370
     9
100
AcDbPolyline
 90
        4
 70
     1
 43
3.0
 10
656.2641368925599
 20
208.1146111988181
 42
0.4142135623731
 10
654.7641368925599
 20
209.6146111988181
 42
0.4142135623731
 10
653.2641368925599
 20
208.1146111988181
 42
0.4142135623731
 10
654.7641368925599
 20
206.6146111988181
 42
0.4142135623731
  0
LINE
  5
13C
330
1F
100
AcDbEntity
  8
0-B_寸法
  6
Continuous
 62
   120
370
     5
100
AcDbLine
 10
654.7641368925599
 20
231.3646111988174
 30
0.0
 11
594.7641368925599
 21
231.3646111988174
 31
0.0
  0
LINE
  5
13D
330
1F
100
AcDbEntity
  8
0-B_寸法
  6
Continuous
 62
   120
370
     5
100
AcDbLine
 10
654.7641368925599
 20
208.1146111988181
 30
0.0
 11
594.7641368925599
 21
208.1146111988181
 31
0.0
  0
LINE
  5
13E
330
1F
100
AcDbEntity
  8
0-B_寸法
  6
Continuous
 62
   120
370
     5
100
AcDbLine
 10
654.7641368925599
 20
-196.8853888011819
 30
0.0
 11
654.7641368925599
 21
-173.6353888011826
 31
0.0
  0
LWPOLYLINE
  5
13F
330
1F
100
AcDbEntity
  8
0-B_寸法
  6
Continuous
 62
     7
370
     9
100
AcDbPolyline
 90
        4
 70
     1
 43
3.0
 10
656.2641368925599
 20
-196.8853888011819
 42
0.4142135623731
 10
654.7641368925599
 20
-195.3853888011819
 42
0.4142135623731
 10
653.2641368925599
 20
-196.8853888011819
 42
0.4142135623731
 10
654.7641368925599
 20
-198.3853888011819
 42
0.4142135623731
  0
LWPOLYLINE
  5
140
330
1F
100
AcDbEntity
  8
0-B_寸法
  6
Continuous
 62
     7
370
     9
100
AcDbPolyline
 90
        4
 70
     1
 43
3.0
 10
656.2641368925599
 20
-173.6353888011826
 42
0.4142135623731
 10
654.7641368925599
 20
-172.1353888011826
 42
0.4142135623731
 10
653.2641368925599
 20
-173.6353888011826
 42
0.4142135623731
 10
654.7641368925599
 20
-175.1353888011826
 42
0.4142135623731
  0
LINE
  5
141
330
1F
100
AcDbEntity
  8
0-B_寸法
  6
Continuous
 62
   120
370
     5
100
AcDbLine
 10
654.7641368925599
 20
-196.8853888011819
 30
0.0
 11
594.7641368925599
 21
-196.8853888011819
 31
0.0
  0
LINE
  5
142
330
1F
100
AcDbEntity
  8
0-B_寸法
  6
Continuous
 62
   120
370
     5
100
AcDbLine
 10
654.7641368925599
 20
-173.6353888011826
 30
0.0
 11
594.7641368925599
 21
-173.6353888011826
 31
0.0
  0
LINE
  5
143
330
1F
100
AcDbEntity
  8
0-B_寸法
  6
Continuous
 62
   120
370
     5
100
AcDbLine
 10
654.7641368925599
 20
613.1146111988181
 30
0.0
 11
654.7641368925599
 21
636.3646111988174
 31
0.0
  0
LWPOLYLINE
  5
144
330
1F
100
AcDbEntity
  8
0-B_寸法
  6
Continuous
 62
     7
370
     9
100
AcDbPolyline
 90
        4
 70
     1
 43
3.0
 10
656.2641368925599
 20
613.1146111988181
 42
0.4142135623731
 10
654.7641368925599
 20
614.6146111988181
 42
0.4142135623731
 10
653.2641368925599
 20
613.1146111988181
 42
0.4142135623731
 10
654.7641368925599
 20
611.6146111988181
 42
0.4142135623731
  0
LWPOLYLINE
  5
145
330
1F
100
AcDbEntity
  8
0-B_寸法
  6
Continuous
 62
     7
370
     9
100
AcDbPolyline
 90
        4
 70
     1
 43
3.0
 10
656.2641368925599
 20
636.3646111988174
 42
0.4142135623731
 10
654.7641368925599
 20
637.8646111988174
 42
0.4142135623731
 10
653.2641368925599
 20
636.3646111988174
 42
0.4142135623731
 10
654.7641368925599
 20
634.8646111988174
 42
0.4142135623731
  0
LINE
  5
146
330
1F
100
AcDbEntity
  8
0-B_寸法
  6
Continuous
 62
   120
370
     5
100
AcDbLine
 10
654.7641368925599
 20
613.1146111988181
 30
0.0
 11
594.7641368925599
 21
613.1146111988181
 31
0.0
  0
LINE
  5
147
330
1F
100
AcDbEntity
  8
0-B_寸法
  6
Continuous
 62
   120
370
     5
100
AcDbLine
 10
654.7641368925599
 20
636.3646111988174
 30
0.0
 11
594.7641368925599
 21
636.3646111988174
 31
0.0
  0
TEXT
  5
148
330
1F
100
AcDbEntity
  8
0-B_寸法
  6
Continuous
 62
     7
370
   211
100
AcDbText
 10
627.0741368925599
 20
-286.5103888011822
 30
0.0
 40
68.58
  1
15.5
 50
90.0
 41
1.125
  7
ＭＳ ゴシック
100
AcDbText
  0
LINE
  5
149
330
1F
100
AcDbEntity
  8
0-4_棚
  6
Continuous
 62
    92
370
    13
100
AcDbLine
 10
-341.2503542808031
 20
636.3646111988174
 30
0.0
 11
-341.2503542808031
 21
613.1146111988181
 31
0.0
  0
LINE
  5
14A
330
1F
100
AcDbEntity
  8
0-4_棚
  6
Continuous
 62
    92
370
    13
100
AcDbLine
 10
-341.2503542808031
 20
231.3646111988174
 30
0.0
 11
-341.2503542808031
 21
208.1146111988181
 31
0.0
  0
LINE
  5
14B
330
1F
100
AcDbEntity
  8
0-4_棚
  6
Continuous
 62
    92
370
    13
100
AcDbLine
 10
-341.2503542808031
 20
-173.6353888011826
 30
0.0
 11
-341.2503542808031
 21
-196.8853888011819
 31
0.0
  0
LINE
  5
14C
330
1F
100
AcDbEntity
  8
0-4_棚
  6
Continuous
 62
    92
370
    13
100
AcDbLine
 10
869.2496457191976
 20
613.1146111988181
 30
0.0
 11
869.2496457191976
 21
636.3646111988174
 31
0.0
  0
LINE
  5
14D
330
1F
100
AcDbEntity
  8
0-4_棚
  6
Continuous
 62
    92
370
    13
100
AcDbLine
 10
869.2496457191976
 20
208.1146111988181
 30
0.0
 11
869.2496457191976
 21
231.3646111988174
 31
0.0
  0
LINE
  5
14E
330
1F
100
AcDbEntity
  8
0-4_棚
  6
Continuous
 62
    92
370
    13
100
AcDbLine
 10
869.2496457191976
 20
-196.8853888011819
 30
0.0
 11
869.2496457191976
 21
-173.6353888011826
 31
0.0
  0
LINE
  5
14F
330
1F
100
AcDbEntity
  8
0-4_棚
  6
Continuous
 62
    92
370
    13
100
AcDbLine
 10
-341.2503542808031
 20
613.1146111988181
 30
0.0
 11
869.2496457191976
 21
613.1146111988181
 31
0.0
  0
LINE
  5
150
330
1F
100
AcDbEntity
  8
0-4_棚
  6
Continuous
 62
    92
370
    13
100
AcDbLine
 10
869.2496457191976
 20
636.3646111988174
 30
0.0
 11
-341.2503542808031
 21
636.3646111988174
 31
0.0
  0
LINE
  5
151
330
1F
100
AcDbEntity
  8
0-4_棚
  6
Continuous
 62
    92
370
    13
100
AcDbLine
 10
-341.2503542808031
 20
208.1146111988181
 30
0.0
 11
869.2496457191976
 21
208.1146111988181
 31
0.0
  0
LINE
  5
152
330
1F
100
AcDbEntity
  8
0-4_棚
  6
Continuous
 62
    92
370
    13
100
AcDbLine
 10
869.2496457191976
 20
231.3646111988174
 30
0.0
 11
-341.2503542808031
 21
231.3646111988174
 31
0.0
  0
LINE
  5
153
330
1F
100
AcDbEntity
  8
0-4_棚
  6
Continuous
 62
    92
370
    13
100
AcDbLine
 10
-341.2503542808031
 20
-196.8853888011819
 30
0.0
 11
869.2496457191976
 21
-196.8853888011819
 31
0.0
  0
LINE
  5
154
330
1F
100
AcDbEntity
  8
0-4_棚
  6
Continuous
 62
    92
370
    13
100
AcDbLine
 10
869.2496457191976
 20
-173.6353888011826
 30
0.0
 11
-341.2503542808031
 21
-173.6353888011826
 31
0.0
  0
LINE
  5
155
330
1F
100
AcDbEntity
  8
0-1_本体
  6
Continuous
 62
    92
370
    13
100
AcDbLine
 10
-366.0003542808045
 20
-2120.634725043858
 30
0.0
 11
-366.0003542808045
 21
-1424.635388801182
 31
0.0
  0
LWPOLYLINE
  5
156
330
1F
100
AcDbEntity
  8
0-B_寸法
  6
Continuous
 62
     7
370
     9
100
AcDbPolyline
 90
        4
 70
     1
 43
3.0
 10
-364.5003542808045
 20
-2345.634725043858
 42
0.4142135623731
 10
-366.0003542808045
 20
-2344.134725043858
 42
0.4142135623731
 10
-367.5003542808045
 20
-2345.634725043858
 42
0.4142135623731
 10
-366.0003542808045
 20
-2347.134725043858
 42
0.4142135623731
  0
LINE
  5
157
330
1F
100
AcDbEntity
  8
0-B_寸法
  6
Continuous
 62
   120
370
     5
100
AcDbLine
 10
-366.0003542808045
 20
-2345.634725043858
 30
0.0
 11
-366.0003542808045
 21
-2195.634725043858
 31
0.0
  0
LWPOLYLINE
  5
158
330
1F
100
AcDbEntity
  8
0-B_寸法
  6
Continuous
 62
     7
370
     9
100
AcDbPolyline
 90
        4
 70
     1
 43
3.0
 10
-364.5003542808045
 20
-2495.634725043858
 42
0.4142135623731
 10
-366.0003542808045
 20
-2494.134725043858
 42
0.4142135623731
 10
-367.5003542808045
 20
-2495.634725043858
 42
0.4142135623731
 10
-366.0003542808045
 20
-2497.134725043858
 42
0.4142135623731
  0
LINE
  5
159
330
1F
100
AcDbEntity
  8
0-B_寸法
  6
Continuous
 62
   120
370
     5
100
AcDbLine
 10
-366.0003542808045
 20
-2495.634725043858
 30
0.0
 11
-366.0003542808045
 21
-2345.634725043858
 31
0.0
  0
LINE
  5
15A
330
1F
100
AcDbEntity
  8
0-1_本体
  6
Continuous
 62
    92
370
    13
100
AcDbLine
 10
-342.7503542808017
 20
-1970.634347256273
 30
0.0
 11
-342.7503542808017
 21
-1424.635388801182
 31
0.0
  0
LINE
  5
15B
330
1F
100
AcDbEntity
  8
0-1_本体
  6
Continuous
 62
    92
370
    13
100
AcDbLine
 10
-342.7503542808017
 20
-1970.634347256273
 30
0.0
 11
-342.7503542808017
 21
-2120.634725043858
 31
0.0
  0
LINE
  5
15C
330
1F
100
AcDbEntity
  8
0-B_寸法
  6
Continuous
 62
   120
370
     5
100
AcDbLine
 10
-366.0003542808045
 20
-2345.634725043858
 30
0.0
 11
-342.7503542808017
 21
-2345.634725043858
 31
0.0
  0
LWPOLYLINE
  5
15D
330
1F
100
AcDbEntity
  8
0-B_寸法
  6
Continuous
 62
     7
370
     9
100
AcDbPolyline
 90
        4
 70
     1
 43
3.0
 10
-341.2503542808017
 20
-2345.634725043858
 42
0.4142135623731
 10
-342.7503542808017
 20
-2344.134725043858
 42
0.4142135623731
 10
-344.2503542808017
 20
-2345.634725043858
 42
0.4142135623731
 10
-342.7503542808017
 20
-2347.134725043858
 42
0.4142135623731
  0
LINE
  5
15E
330
1F
100
AcDbEntity
  8
0-B_寸法
  6
Continuous
 62
   120
370
     5
100
AcDbLine
 10
-342.7503542808017
 20
-2345.634725043858
 30
0.0
 11
-342.7503542808017
 21
-2195.634725043858
 31
0.0
  0
LINE
  5
15F
330
1F
100
AcDbEntity
  8
0-1_本体
  6
Continuous
 62
    92
370
    13
100
AcDbLine
 10
870.7489155949795
 20
-1424.635388801182
 30
0.0
 11
870.7489155949795
 21
-1970.634347256273
 31
0.0
  0
LINE
  5
160
330
1F
100
AcDbEntity
  8
0-1_本体
  6
Continuous
 62
    92
370
    13
100
AcDbLine
 10
870.7489155949795
 20
-1970.634347256273
 30
0.0
 11
870.7489155949795
 21
-2120.634725043858
 31
0.0
  0
LWPOLYLINE
  5
161
330
1F
100
AcDbEntity
  8
0-B_寸法
  6
Continuous
 62
     7
370
     9
100
AcDbPolyline
 90
        4
 70
     1
 43
3.0
 10
872.2489155949796
 20
-2345.634725043858
 42
0.4142135623731
 10
870.7489155949795
 20
-2344.134725043858
 42
0.4142135623731
 10
869.2489155949795
 20
-2345.634725043858
 42
0.4142135623731
 10
870.7489155949795
 20
-2347.134725043858
 42
0.4142135623731
  0
LINE
  5
162
330
1F
100
AcDbEntity
  8
0-B_寸法
  6
Continuous
 62
   120
370
     5
100
AcDbLine
 10
870.7489155949795
 20
-2345.634725043858
 30
0.0
 11
870.7489155949795
 21
-2195.634725043858
 31
0.0
  0
LINE
  5
163
330
1F
100
AcDbEntity
  8
0-1_本体
  6
Continuous
 62
    92
370
    13
100
AcDbLine
 10
870.7489155949795
 20
-1970.634725043858
 30
0.0
 11
-342.7503542808017
 21
-1970.634725043858
 31
0.0
  0
LINE
  5
164
330
1F
100
AcDbEntity
  8
0-B_寸法
  6
Continuous
 62
   120
370
     5
100
AcDbLine
 10
-342.7503542808017
 20
-2345.634725043858
 30
0.0
 11
870.7489155949795
 21
-2345.634725043858
 31
0.0
  0
TEXT
  5
165
330
1F
100
AcDbEntity
  8
0-B_寸法
  6
Continuous
 62
     7
370
   211
100
AcDbText
 10
188.9992806570876
 20
-2467.944725043858
 30
0.0
 40
68.58
  1
840
 41
1.111111111111111
  7
ＭＳ ゴシック
100
AcDbText
  0
TEXT
  5
166
330
1F
100
AcDbEntity
  8
0-B_寸法
  6
Continuous
 62
     7
370
   211
100
AcDbText
 10
-339.7503542808028
 20
-2317.944725043858
 30
0.0
 40
68.58
  1
15.5
 41
1.125
  7
ＭＳ ゴシック
100
AcDbText
  0
TEXT
  5
167
330
1F
100
AcDbEntity
  8
0-B_寸法
  6
Continuous
 62
     7
370
   211
100
AcDbText
 10
665.2489155949797
 20
-2317.944725043858
 30
0.0
 40
68.58
  1
15.5
 41
1.125
  7
ＭＳ ゴシック
100
AcDbText
  0
TEXT
  5
168
330
1F
100
AcDbEntity
  8
0-B_寸法
  6
Continuous
 62
     7
370
   211
100
AcDbText
 10
188.9992806570876
 20
-2317.944725043858
 30
0.0
 40
68.58
  1
809
 41
1.111111111111111
  7
ＭＳ ゴシック
100
AcDbText
  0
LINE
  5
169
330
1F
100
AcDbEntity
  8
0-1_本体
  6
Continuous
 62
    92
370
    13
100
AcDbLine
 10
-342.7503542808017
 20
-1447.885388801182
 30
0.0
 11
870.7489155949795
 21
-1447.885388801182
 31
0.0
  0
LINE
  5
16A
330
1F
100
AcDbEntity
  8
0-1_本体
  6
Continuous
 62
    92
370
    13
100
AcDbLine
 10
870.7489155949795
 20
-1947.384725043859
 30
0.0
 11
-342.7503542808017
 21
-1947.384725043859
 31
0.0
  0
LINE
  5
16B
330
1F
100
AcDbEntity
  8
0-4_棚
  6
Continuous
 62
    92
370
    13
100
AcDbLine
 10
-341.250719342911
 20
-1705.960388801182
 30
0.0
 11
869.2492806570888
 21
-1705.960388801182
 31
0.0
  0
LINE
  5
16C
330
1F
100
AcDbEntity
  8
0-4_棚
  6
Continuous
 62
    92
370
    13
100
AcDbLine
 10
869.2492806570888
 20
-1705.960388801182
 30
0.0
 11
869.2492806570888
 21
-1729.210388801182
 31
0.0
  0
LINE
  5
16D
330
1F
100
AcDbEntity
  8
0-4_棚
  6
Continuous
 62
    92
370
    13
100
AcDbLine
 10
869.2492806570888
 20
-1729.210388801182
 30
0.0
 11
-341.250719342911
 21
-1729.210388801182
 31
0.0
  0
LINE
  5
16E
330
1F
100
AcDbEntity
  8
0-4_棚
  6
Continuous
 62
    92
370
    13
100
AcDbLine
 10
-341.250719342911
 20
-1729.210388801182
 30
0.0
 11
-341.250719342911
 21
-1705.960388801182
 31
0.0
  0
LINE
  5
16F
330
1F
100
AcDbEntity
  8
0-B_寸法
  6
Continuous
 62
   120
370
     5
100
AcDbLine
 10
689.1210075547826
 20
-1729.210388801182
 30
0.0
 11
689.1210075547826
 21
-1705.960388801182
 31
0.0
  0
LWPOLYLINE
  5
170
330
1F
100
AcDbEntity
  8
0-B_寸法
  6
Continuous
 62
     7
370
     9
100
AcDbPolyline
 90
        4
 70
     1
 43
3.0
 10
690.6210075547826
 20
-1729.210388801182
 42
0.4142135623731
 10
689.1210075547826
 20
-1727.710388801182
 42
0.4142135623731
 10
687.6210075547826
 20
-1729.210388801182
 42
0.4142135623731
 10
689.1210075547826
 20
-1730.710388801182
 42
0.4142135623731
  0
LWPOLYLINE
  5
171
330
1F
100
AcDbEntity
  8
0-B_寸法
  6
Continuous
 62
     7
370
     9
100
AcDbPolyline
 90
        4
 70
     1
 43
3.0
 10
690.6210075547826
 20
-1705.960388801182
 42
0.4142135623731
 10
689.1210075547826
 20
-1704.460388801182
 42
0.4142135623731
 10
687.6210075547826
 20
-1705.960388801182
 42
0.4142135623731
 10
689.1210075547826
 20
-1707.460388801182
 42
0.4142135623731
  0
LINE
  5
172
330
1F
100
AcDbEntity
  8
0-B_寸法
  6
Continuous
 62
   120
370
     5
100
AcDbLine
 10
689.1210075547826
 20
-1729.210388801182
 30
0.0
 11
539.1210075547826
 21
-1729.210388801182
 31
0.0
  0
LINE
  5
173
330
1F
100
AcDbEntity
  8
0-B_寸法
  6
Continuous
 62
   120
370
     5
100
AcDbLine
 10
689.1210075547826
 20
-1705.960388801182
 30
0.0
 11
539.1210075547826
 21
-1705.960388801182
 31
0.0
  0
TEXT
  5
174
330
1F
100
AcDbEntity
  8
0-B_寸法
  6
Continuous
 62
     7
370
   211
100
AcDbText
 10
661.4310075547826
 20
-1818.835388801182
 30
0.0
 40
68.58
  1
15.5
 50
90.0
 41
1.125
  7
ＭＳ ゴシック
100
AcDbText
  0
TEXT
  5
175
330
1F
100
AcDbEntity
  8
0-A_文字
  6
Continuous
 62
     7
370
     9
100
AcDbText
 10
128.9992806570876
 20
-1668.67430298104
 30
0.0
 40
68.58
  1
可動棚
  7
ＭＳ ゴシック
100
AcDbText
  0
LINE
  5
176
330
1F
100
AcDbEntity
  8
0-B_寸法
  6
Continuous
 62
   120
370
     5
100
AcDbLine
 10
870.7489155949795
 20
-2345.634725043858
 30
0.0
 11
893.9996457191955
 21
-2345.634725043858
 31
0.0
  0
LINE
  5
177
330
1F
100
AcDbEntity
  8
0-B_寸法
  6
Continuous
 62
   120
370
     5
100
AcDbLine
 10
893.9996457191955
 20
-2495.634725043858
 30
0.0
 11
893.9996457191955
 21
-2345.634725043858
 31
0.0
  0
LWPOLYLINE
  5
178
330
1F
100
AcDbEntity
  8
0-B_寸法
  6
Continuous
 62
     7
370
     9
100
AcDbPolyline
 90
        4
 70
     1
 43
3.0
 10
895.4996457191955
 20
-2495.634725043858
 42
0.4142135623731
 10
893.9996457191955
 20
-2494.134725043858
 42
0.4142135623731
 10
892.4996457191955
 20
-2495.634725043858
 42
0.4142135623731
 10
893.9996457191955
 20
-2497.134725043858
 42
0.4142135623731
  0
LINE
  5
179
330
1F
100
AcDbEntity
  8
0-B_寸法
  6
Continuous
 62
   120
370
     5
100
AcDbLine
 10
-366.0003542808045
 20
-2495.634725043858
 30
0.0
 11
893.9996457191955
 21
-2495.634725043858
 31
0.0
  0
LINE
  5
17A
330
1F
100
AcDbEntity
  8
0-B_寸法
  6
Continuous
 62
   120
370
     5
100
AcDbLine
 10
893.9996457191955
 20
-2345.634725043858
 30
0.0
 11
893.9996457191955
 21
-2195.634725043858
 31
0.0
  0
LWPOLYLINE
  5
17B
330
1F
100
AcDbEntity
  8
0-B_寸法
  6
Continuous
 62
     7
370
     9
100
AcDbPolyline
 90
        4
 70
     1
 43
3.0
 10
895.4996457191955
 20
-2345.634725043858
 42
0.4142135623731
 10
893.9996457191955
 20
-2344.134725043858
 42
0.4142135623731
 10
892.4996457191955
 20
-2345.634725043858
 42
0.4142135623731
 10
893.9996457191955
 20
-2347.134725043858
 42
0.4142135623731
  0
LINE
  5
17C
330
1F
100
AcDbEntity
  8
0-1_本体
  6
Continuous
 62
    92
370
    13
100
AcDbLine
 10
893.9996457191955
 20
-2120.634725043858
 30
0.0
 11
893.9996457191955
 21
-1424.635388801182
 31
0.0
  0
LINE
  5
17D
330
1F
100
AcDbEntity
  8
0-1_本体
  6
Continuous
 62
    92
370
    13
100
AcDbLine
 10
893.9996457191955
 20
-2120.634725043858
 30
0.0
 11
-366.0003542808045
 21
-2120.634725043858
 31
0.0
  0
LINE
  5
17E
330
1F
100
AcDbEntity
  8
0-1_本体
  6
Continuous
 62
    92
370
    13
100
AcDbLine
 10
-366.0003542808045
 20
-1424.635388801182
 30
0.0
 11
893.9996457191955
 21
-1424.635388801182
 31
0.0
  0
LINE
  5
17F
330
1F
100
AcDbEntity
  8
0-1_本体
  6
Continuous
 62
    92
370
    13
100
AcDbLine
 10
893.999645719198
 20
-620.6353888011819
 30
0.0
 11
2153.999645719198
 21
-620.6353888011819
 31
0.0
  0
LINE
  5
180
330
1F
100
AcDbEntity
  8
0-1_本体
  6
Continuous
 62
    92
370
    13
100
AcDbLine
 10
2153.999645719198
 20
-620.6353888011819
 30
0.0
 11
2153.999645719198
 21
1029.364611198818
 31
0.0
  0
LINE
  5
181
330
1F
100
AcDbEntity
  8
0-1_本体
  6
Continuous
 62
    92
370
    13
100
AcDbLine
 10
2153.999645719198
 20
1029.364611198818
 30
0.0
 11
893.999645719198
 21
1029.364611198818
 31
0.0
  0
TEXT
  5
182
330
1F
100
AcDbEntity
  8
0-A_文字
  6
Continuous
 62
     7
370
   211
100
AcDbText
 10
1373.999645719198
 20
651.3046111988181
 30
0.0
 40
68.58
  1
可動棚
 41
1.111111111111111
  7
ＭＳ ゴシック
100
AcDbText
  0
TEXT
  5
183
330
1F
100
AcDbEntity
  8
0-A_文字
  6
Continuous
 62
     7
370
   211
100
AcDbText
 10
1373.999645719198
 20
246.3046111988188
 30
0.0
 40
68.58
  1
可動棚
 41
1.111111111111111
  7
ＭＳ ゴシック
100
AcDbText
  0
LINE
  5
184
330
1F
100
AcDbEntity
  8
0-1_本体
  6
Continuous
 62
    92
370
    13
100
AcDbLine
 10
917.2496457191974
 20
1029.364611198818
 30
0.0
 11
917.2496457191974
 21
-620.6353888011819
 31
0.0
  0
LINE
  5
185
330
1F
100
AcDbEntity
  8
0-1_本体
  6
Continuous
 62
    92
370
    13
100
AcDbLine
 10
2130.749645719199
 20
-620.6353888011819
 30
0.0
 11
2130.749645719199
 21
1029.364611198818
 31
0.0
  0
TEXT
  5
186
330
1F
100
AcDbEntity
  8
0-A_文字
  6
Continuous
 62
     7
370
   211
100
AcDbText
 10
1373.999645719198
 20
-158.6953888011812
 30
0.0
 40
68.58
  1
可動棚
 41
1.111111111111111
  7
ＭＳ ゴシック
100
AcDbText
  0
LINE
  5
187
330
1F
100
AcDbEntity
  8
0-1_本体
  6
Continuous
 62
    92
370
    13
100
AcDbLine
 10
2130.749645719199
 20
1006.114611198818
 30
0.0
 11
917.2496457191974
 21
1006.114611198818
 31
0.0
  0
LINE
  5
188
330
1F
100
AcDbEntity
  8
0-1_本体
  6
Continuous
 62
    92
370
    13
100
AcDbLine
 10
917.2496457191974
 20
-597.3853888011826
 30
0.0
 11
2130.749645719199
 21
-597.3853888011826
 31
0.0
  0
TEXT
  5
189
330
1F
100
AcDbEntity
  8
0-B_寸法
  6
Continuous
 62
     7
370
   211
100
AcDbText
 10
1887.074136892562
 20
523.4896111988178
 30
0.0
 40
68.58
  1
15.5
 50
90.0
 41
1.125
  7
ＭＳ ゴシック
100
AcDbText
  0
TEXT
  5
18A
330
1F
100
AcDbEntity
  8
0-B_寸法
  6
Continuous
 62
     7
370
   211
100
AcDbText
 10
1887.074136892562
 20
118.4896111988178
 30
0.0
 40
68.58
  1
15.5
 50
90.0
 41
1.125
  7
ＭＳ ゴシック
100
AcDbText
  0
LINE
  5
18B
330
1F
100
AcDbEntity
  8
0-B_寸法
  6
Continuous
 62
   120
370
     5
100
AcDbLine
 10
1914.764136892562
 20
231.3646111988174
 30
0.0
 11
1914.764136892562
 21
208.1146111988181
 31
0.0
  0
LWPOLYLINE
  5
18C
330
1F
100
AcDbEntity
  8
0-B_寸法
  6
Continuous
 62
     7
370
     9
100
AcDbPolyline
 90
        4
 70
     1
 43
3.0
 10
1916.264136892562
 20
231.3646111988174
 42
0.4142135623731
 10
1914.764136892562
 20
232.8646111988174
 42
0.4142135623731
 10
1913.264136892563
 20
231.3646111988174
 42
0.4142135623731
 10
1914.764136892562
 20
229.8646111988174
 42
0.4142135623731
  0
LWPOLYLINE
  5
18D
330
1F
100
AcDbEntity
  8
0-B_寸法
  6
Continuous
 62
     7
370
     9
100
AcDbPolyline
 90
        4
 70
     1
 43
3.0
 10
1916.264136892562
 20
208.1146111988181
 42
0.4142135623731
 10
1914.764136892562
 20
209.6146111988181
 42
0.4142135623731
 10
1913.264136892563
 20
208.1146111988181
 42
0.4142135623731
 10
1914.764136892562
 20
206.6146111988181
 42
0.4142135623731
  0
LINE
  5
18E
330
1F
100
AcDbEntity
  8
0-B_寸法
  6
Continuous
 62
   120
370
     5
100
AcDbLine
 10
1914.764136892562
 20
231.3646111988174
 30
0.0
 11
1854.764136892562
 21
231.3646111988174
 31
0.0
  0
LINE
  5
18F
330
1F
100
AcDbEntity
  8
0-B_寸法
  6
Continuous
 62
   120
370
     5
100
AcDbLine
 10
1914.764136892562
 20
208.1146111988181
 30
0.0
 11
1854.764136892562
 21
208.1146111988181
 31
0.0
  0
LINE
  5
190
330
1F
100
AcDbEntity
  8
0-B_寸法
  6
Continuous
 62
   120
370
     5
100
AcDbLine
 10
1914.764136892562
 20
-196.8853888011819
 30
0.0
 11
1914.764136892562
 21
-173.6353888011826
 31
0.0
  0
LWPOLYLINE
  5
191
330
1F
100
AcDbEntity
  8
0-B_寸法
  6
Continuous
 62
     7
370
     9
100
AcDbPolyline
 90
        4
 70
     1
 43
3.0
 10
1916.264136892562
 20
-196.8853888011819
 42
0.4142135623731
 10
1914.764136892562
 20
-195.3853888011819
 42
0.4142135623731
 10
1913.264136892563
 20
-196.8853888011819
 42
0.4142135623731
 10
1914.764136892562
 20
-198.3853888011819
 42
0.4142135623731
  0
LWPOLYLINE
  5
192
330
1F
100
AcDbEntity
  8
0-B_寸法
  6
Continuous
 62
     7
370
     9
100
AcDbPolyline
 90
        4
 70
     1
 43
3.0
 10
1916.264136892562
 20
-173.6353888011826
 42
0.4142135623731
 10
1914.764136892562
 20
-172.1353888011826
 42
0.4142135623731
 10
1913.264136892563
 20
-173.6353888011826
 42
0.4142135623731
 10
1914.764136892562
 20
-175.1353888011826
 42
0.4142135623731
  0
LINE
  5
193
330
1F
100
AcDbEntity
  8
0-B_寸法
  6
Continuous
 62
   120
370
     5
100
AcDbLine
 10
1914.764136892562
 20
-196.8853888011819
 30
0.0
 11
1854.764136892562
 21
-196.8853888011819
 31
0.0
  0
LINE
  5
194
330
1F
100
AcDbEntity
  8
0-B_寸法
  6
Continuous
 62
   120
370
     5
100
AcDbLine
 10
1914.764136892562
 20
-173.6353888011826
 30
0.0
 11
1854.764136892562
 21
-173.6353888011826
 31
0.0
  0
LINE
  5
195
330
1F
100
AcDbEntity
  8
0-B_寸法
  6
Continuous
 62
   120
370
     5
100
AcDbLine
 10
1914.764136892562
 20
613.1146111988181
 30
0.0
 11
1914.764136892562
 21
636.3646111988174
 31
0.0
  0
LWPOLYLINE
  5
196
330
1F
100
AcDbEntity
  8
0-B_寸法
  6
Continuous
 62
     7
370
     9
100
AcDbPolyline
 90
        4
 70
     1
 43
3.0
 10
1916.264136892562
 20
613.1146111988181
 42
0.4142135623731
 10
1914.764136892562
 20
614.6146111988181
 42
0.4142135623731
 10
1913.264136892563
 20
613.1146111988181
 42
0.4142135623731
 10
1914.764136892562
 20
611.6146111988181
 42
0.4142135623731
  0
LWPOLYLINE
  5
197
330
1F
100
AcDbEntity
  8
0-B_寸法
  6
Continuous
 62
     7
370
     9
100
AcDbPolyline
 90
        4
 70
     1
 43
3.0
 10
1916.264136892562
 20
636.3646111988174
 42
0.4142135623731
 10
1914.764136892562
 20
637.8646111988174
 42
0.4142135623731
 10
1913.264136892563
 20
636.3646111988174
 42
0.4142135623731
 10
1914.764136892562
 20
634.8646111988174
 42
0.4142135623731
  0
LINE
  5
198
330
1F
100
AcDbEntity
  8
0-B_寸法
  6
Continuous
 62
   120
370
     5
100
AcDbLine
 10
1914.764136892562
 20
613.1146111988181
 30
0.0
 11
1854.764136892562
 21
613.1146111988181
 31
0.0
  0
LINE
  5
199
330
1F
100
AcDbEntity
  8
0-B_寸法
  6
Continuous
 62
   120
370
     5
100
AcDbLine
 10
1914.764136892562
 20
636.3646111988174
 30
0.0
 11
1854.764136892562
 21
636.3646111988174
 31
0.0
  0
TEXT
  5
19A
330
1F
100
AcDbEntity
  8
0-B_寸法
  6
Continuous
 62
     7
370
   211
100
AcDbText
 10
1887.074136892562
 20
-286.5103888011822
 30
0.0
 40
68.58
  1
15.5
 50
90.0
 41
1.125
  7
ＭＳ ゴシック
100
AcDbText
  0
LINE
  5
19B
330
1F
100
AcDbEntity
  8
0-4_棚
  6
Continuous
 62
    92
370
    13
100
AcDbLine
 10
918.7496457191969
 20
636.3646111988174
 30
0.0
 11
918.7496457191969
 21
613.1146111988181
 31
0.0
  0
LINE
  5
19C
330
1F
100
AcDbEntity
  8
0-4_棚
  6
Continuous
 62
    92
370
    13
100
AcDbLine
 10
918.7496457191969
 20
231.3646111988174
 30
0.0
 11
918.7496457191969
 21
208.1146111988181
 31
0.0
  0
LINE
  5
19D
330
1F
100
AcDbEntity
  8
0-4_棚
  6
Continuous
 62
    92
370
    13
100
AcDbLine
 10
918.7496457191969
 20
-173.6353888011826
 30
0.0
 11
918.7496457191969
 21
-196.8853888011819
 31
0.0
  0
LINE
  5
19E
330
1F
100
AcDbEntity
  8
0-4_棚
  6
Continuous
 62
    92
370
    13
100
AcDbLine
 10
2129.2496457192
 20
613.1146111988181
 30
0.0
 11
2129.2496457192
 21
636.3646111988174
 31
0.0
  0
LINE
  5
19F
330
1F
100
AcDbEntity
  8
0-4_棚
  6
Continuous
 62
    92
370
    13
100
AcDbLine
 10
2129.2496457192
 20
208.1146111988181
 30
0.0
 11
2129.2496457192
 21
231.3646111988174
 31
0.0
  0
LINE
  5
1A0
330
1F
100
AcDbEntity
  8
0-4_棚
  6
Continuous
 62
    92
370
    13
100
AcDbLine
 10
2129.2496457192
 20
-196.8853888011819
 30
0.0
 11
2129.2496457192
 21
-173.6353888011826
 31
0.0
  0
LINE
  5
1A1
330
1F
100
AcDbEntity
  8
0-4_棚
  6
Continuous
 62
    92
370
    13
100
AcDbLine
 10
918.7496457191969
 20
613.1146111988181
 30
0.0
 11
2129.2496457192
 21
613.1146111988181
 31
0.0
  0
LINE
  5
1A2
330
1F
100
AcDbEntity
  8
0-4_棚
  6
Continuous
 62
    92
370
    13
100
AcDbLine
 10
2129.2496457192
 20
636.3646111988174
 30
0.0
 11
918.7496457191969
 21
636.3646111988174
 31
0.0
  0
LINE
  5
1A3
330
1F
100
AcDbEntity
  8
0-4_棚
  6
Continuous
 62
    92
370
    13
100
AcDbLine
 10
918.7496457191969
 20
208.1146111988181
 30
0.0
 11
2129.2496457192
 21
208.1146111988181
 31
0.0
  0
LINE
  5
1A4
330
1F
100
AcDbEntity
  8
0-4_棚
  6
Continuous
 62
    92
370
    13
100
AcDbLine
 10
2129.2496457192
 20
231.3646111988174
 30
0.0
 11
918.7496457191969
 21
231.3646111988174
 31
0.0
  0
LINE
  5
1A5
330
1F
100
AcDbEntity
  8
0-4_棚
  6
Continuous
 62
    92
370
    13
100
AcDbLine
 10
918.7496457191969
 20
-196.8853888011819
 30
0.0
 11
2129.2496457192
 21
-196.8853888011819
 31
0.0
  0
LINE
  5
1A6
330
1F
100
AcDbEntity
  8
0-4_棚
  6
Continuous
 62
    92
370
    13
100
AcDbLine
 10
2129.2496457192
 20
-173.6353888011826
 30
0.0
 11
918.7496457191969
 21
-173.6353888011826
 31
0.0
  0
LINE
  5
1A7
330
1F
100
AcDbEntity
  8
0-1_本体
  6
Continuous
 62
    92
370
    13
100
AcDbLine
 10
917.2496457191983
 20
-1970.634347256273
 30
0.0
 11
917.2496457191983
 21
-1424.635388801182
 31
0.0
  0
LINE
  5
1A8
330
1F
100
AcDbEntity
  8
0-1_本体
  6
Continuous
 62
    92
370
    13
100
AcDbLine
 10
917.2496457191983
 20
-1970.634347256273
 30
0.0
 11
917.2496457191983
 21
-2120.634725043858
 31
0.0
  0
LINE
  5
1A9
330
1F
100
AcDbEntity
  8
0-B_寸法
  6
Continuous
 62
   120
370
     5
100
AcDbLine
 10
893.9996457191955
 20
-2345.634725043858
 30
0.0
 11
917.2496457191983
 21
-2345.634725043858
 31
0.0
  0
LWPOLYLINE
  5
1AA
330
1F
100
AcDbEntity
  8
0-B_寸法
  6
Continuous
 62
     7
370
     9
100
AcDbPolyline
 90
        4
 70
     1
 43
3.0
 10
918.7496457191983
 20
-2345.634725043858
 42
0.4142135623731
 10
917.2496457191983
 20
-2344.134725043858
 42
0.4142135623731
 10
915.7496457191983
 20
-2345.634725043858
 42
0.4142135623731
 10
917.2496457191983
 20
-2347.134725043858
 42
0.4142135623731
  0
LINE
  5
1AB
330
1F
100
AcDbEntity
  8
0-B_寸法
  6
Continuous
 62
   120
370
     5
100
AcDbLine
 10
917.2496457191983
 20
-2345.634725043858
 30
0.0
 11
917.2496457191983
 21
-2195.634725043858
 31
0.0
  0
LINE
  5
1AC
330
1F
100
AcDbEntity
  8
0-1_本体
  6
Continuous
 62
    92
370
    13
100
AcDbLine
 10
2130.74891559498
 20
-1424.635388801182
 30
0.0
 11
2130.74891559498
 21
-1970.634347256273
 31
0.0
  0
LINE
  5
1AD
330
1F
100
AcDbEntity
  8
0-1_本体
  6
Continuous
 62
    92
370
    13
100
AcDbLine
 10
2130.74891559498
 20
-1970.634347256273
 30
0.0
 11
2130.74891559498
 21
-2120.634725043858
 31
0.0
  0
LWPOLYLINE
  5
1AE
330
1F
100
AcDbEntity
  8
0-B_寸法
  6
Continuous
 62
     7
370
     9
100
AcDbPolyline
 90
        4
 70
     1
 43
3.0
 10
2132.248915594979
 20
-2345.634725043858
 42
0.4142135623731
 10
2130.74891559498
 20
-2344.134725043858
 42
0.4142135623731
 10
2129.24891559498
 20
-2345.634725043858
 42
0.4142135623731
 10
2130.74891559498
 20
-2347.134725043858
 42
0.4142135623731
  0
LINE
  5
1AF
330
1F
100
AcDbEntity
  8
0-B_寸法
  6
Continuous
 62
   120
370
     5
100
AcDbLine
 10
2130.74891559498
 20
-2345.634725043858
 30
0.0
 11
2130.74891559498
 21
-2195.634725043858
 31
0.0
  0
LINE
  5
1B0
330
1F
100
AcDbEntity
  8
0-1_本体
  6
Continuous
 62
    92
370
    13
100
AcDbLine
 10
2130.74891559498
 20
-1970.634725043858
 30
0.0
 11
917.2496457191983
 21
-1970.634725043858
 31
0.0
  0
LINE
  5
1B1
330
1F
100
AcDbEntity
  8
0-B_寸法
  6
Continuous
 62
   120
370
     5
100
AcDbLine
 10
917.2496457191983
 20
-2345.634725043858
 30
0.0
 11
2130.74891559498
 21
-2345.634725043858
 31
0.0
  0
TEXT
  5
1B2
330
1F
100
AcDbEntity
  8
0-B_寸法
  6
Continuous
 62
     7
370
   211
100
AcDbText
 10
1448.999280657089
 20
-2467.944725043858
 30
0.0
 40
68.58
  1
840
 41
1.111111111111111
  7
ＭＳ ゴシック
100
AcDbText
  0
TEXT
  5
1B3
330
1F
100
AcDbEntity
  8
0-B_寸法
  6
Continuous
 62
     7
370
   211
100
AcDbText
 10
920.2496457191972
 20
-2317.944725043858
 30
0.0
 40
68.58
  1
15.5
 41
1.125
  7
ＭＳ ゴシック
100
AcDbText
  0
TEXT
  5
1B4
330
1F
100
AcDbEntity
  8
0-B_寸法
  6
Continuous
 62
     7
370
   211
100
AcDbText
 10
1925.248915594979
 20
-2317.944725043858
 30
0.0
 40
68.58
  1
15.5
 41
1.125
  7
ＭＳ ゴシック
100
AcDbText
  0
TEXT
  5
1B5
330
1F
100
AcDbEntity
  8
0-B_寸法
  6
Continuous
 62
     7
370
   211
100
AcDbText
 10
1448.999280657089
 20
-2317.944725043858
 30
0.0
 40
68.58
  1
809
 41
1.111111111111111
  7
ＭＳ ゴシック
100
AcDbText
  0
LINE
  5
1B6
330
1F
100
AcDbEntity
  8
0-1_本体
  6
Continuous
 62
    92
370
    13
100
AcDbLine
 10
917.2496457191983
 20
-1447.885388801182
 30
0.0
 11
2130.74891559498
 21
-1447.885388801182
 31
0.0
  0
LINE
  5
1B7
330
1F
100
AcDbEntity
  8
0-1_本体
  6
Continuous
 62
    92
370
    13
100
AcDbLine
 10
2130.74891559498
 20
-1947.384725043859
 30
0.0
 11
917.2496457191983
 21
-1947.384725043859
 31
0.0
  0
LINE
  5
1B8
330
1F
100
AcDbEntity
  8
0-4_棚
  6
Continuous
 62
    92
370
    13
100
AcDbLine
 10
918.749280657089
 20
-1705.960388801182
 30
0.0
 11
2129.249280657089
 21
-1705.960388801182
 31
0.0
  0
LINE
  5
1B9
330
1F
100
AcDbEntity
  8
0-4_棚
  6
Continuous
 62
    92
370
    13
100
AcDbLine
 10
2129.249280657089
 20
-1705.960388801182
 30
0.0
 11
2129.249280657089
 21
-1729.210388801182
 31
0.0
  0
LINE
  5
1BA
330
1F
100
AcDbEntity
  8
0-4_棚
  6
Continuous
 62
    92
370
    13
100
AcDbLine
 10
2129.249280657089
 20
-1729.210388801182
 30
0.0
 11
918.749280657089
 21
-1729.210388801182
 31
0.0
  0
LINE
  5
1BB
330
1F
100
AcDbEntity
  8
0-4_棚
  6
Continuous
 62
    92
370
    13
100
AcDbLine
 10
918.749280657089
 20
-1729.210388801182
 30
0.0
 11
918.749280657089
 21
-1705.960388801182
 31
0.0
  0
LINE
  5
1BC
330
1F
100
AcDbEntity
  8
0-B_寸法
  6
Continuous
 62
   120
370
     5
100
AcDbLine
 10
1949.121007554785
 20
-1729.210388801182
 30
0.0
 11
1949.121007554785
 21
-1705.960388801182
 31
0.0
  0
LWPOLYLINE
  5
1BD
330
1F
100
AcDbEntity
  8
0-B_寸法
  6
Continuous
 62
     7
370
     9
100
AcDbPolyline
 90
        4
 70
     1
 43
3.0
 10
1950.621007554785
 20
-1729.210388801182
 42
0.4142135623731
 10
1949.121007554785
 20
-1727.710388801182
 42
0.4142135623731
 10
1947.621007554785
 20
-1729.210388801182
 42
0.4142135623731
 10
1949.121007554785
 20
-1730.710388801182
 42
0.4142135623731
  0
LWPOLYLINE
  5
1BE
330
1F
100
AcDbEntity
  8
0-B_寸法
  6
Continuous
 62
     7
370
     9
100
AcDbPolyline
 90
        4
 70
     1
 43
3.0
 10
1950.621007554785
 20
-1705.960388801182
 42
0.4142135623731
 10
1949.121007554785
 20
-1704.460388801182
 42
0.4142135623731
 10
1947.621007554785
 20
-1705.960388801182
 42
0.4142135623731
 10
1949.121007554785
 20
-1707.460388801182
 42
0.4142135623731
  0
LINE
  5
1BF
330
1F
100
AcDbEntity
  8
0-B_寸法
  6
Continuous
 62
   120
370
     5
100
AcDbLine
 10
1949.121007554785
 20
-1729.210388801182
 30
0.0
 11
1799.121007554785
 21
-1729.210388801182
 31
0.0
  0
LINE
  5
1C0
330
1F
100
AcDbEntity
  8
0-B_寸法
  6
Continuous
 62
   120
370
     5
100
AcDbLine
 10
1949.121007554785
 20
-1705.960388801182
 30
0.0
 11
1799.121007554785
 21
-1705.960388801182
 31
0.0
  0
TEXT
  5
1C1
330
1F
100
AcDbEntity
  8
0-B_寸法
  6
Continuous
 62
     7
370
   211
100
AcDbText
 10
1921.431007554785
 20
-1818.835388801182
 30
0.0
 40
68.58
  1
15.5
 50
90.0
 41
1.125
  7
ＭＳ ゴシック
100
AcDbText
  0
TEXT
  5
1C2
330
1F
100
AcDbEntity
  8
0-A_文字
  6
Continuous
 62
     7
370
     9
100
AcDbText
 10
1388.999280657088
 20
-1668.67430298104
 30
0.0
 40
68.58
  1
可動棚
  7
ＭＳ ゴシック
100
AcDbText
  0
LINE
  5
1C3
330
1F
100
AcDbEntity
  8
0-B_寸法
  6
Continuous
 62
   120
370
     5
100
AcDbLine
 10
2130.74891559498
 20
-2345.634725043858
 30
0.0
 11
2153.999645719195
 21
-2345.634725043858
 31
0.0
  0
LINE
  5
1C4
330
1F
100
AcDbEntity
  8
0-B_寸法
  6
Continuous
 62
   120
370
     5
100
AcDbLine
 10
2153.999645719195
 20
-2495.634725043858
 30
0.0
 11
2153.999645719195
 21
-2345.634725043858
 31
0.0
  0
LWPOLYLINE
  5
1C5
330
1F
100
AcDbEntity
  8
0-B_寸法
  6
Continuous
 62
     7
370
     9
100
AcDbPolyline
 90
        4
 70
     1
 43
3.0
 10
2155.499645719195
 20
-2495.634725043858
 42
0.4142135623731
 10
2153.999645719195
 20
-2494.134725043858
 42
0.4142135623731
 10
2152.499645719195
 20
-2495.634725043858
 42
0.4142135623731
 10
2153.999645719195
 20
-2497.134725043858
 42
0.4142135623731
  0
LINE
  5
1C6
330
1F
100
AcDbEntity
  8
0-B_寸法
  6
Continuous
 62
   120
370
     5
100
AcDbLine
 10
893.9996457191955
 20
-2495.634725043858
 30
0.0
 11
2153.999645719195
 21
-2495.634725043858
 31
0.0
  0
LINE
  5
1C7
330
1F
100
AcDbEntity
  8
0-B_寸法
  6
Continuous
 62
   120
370
     5
100
AcDbLine
 10
2153.999645719195
 20
-2345.634725043858
 30
0.0
 11
2153.999645719195
 21
-2195.634725043858
 31
0.0
  0
LWPOLYLINE
  5
1C8
330
1F
100
AcDbEntity
  8
0-B_寸法
  6
Continuous
 62
     7
370
     9
100
AcDbPolyline
 90
        4
 70
     1
 43
3.0
 10
2155.499645719195
 20
-2345.634725043858
 42
0.4142135623731
 10
2153.999645719195
 20
-2344.134725043858
 42
0.4142135623731
 10
2152.499645719195
 20
-2345.634725043858
 42
0.4142135623731
 10
2153.999645719195
 20
-2347.134725043858
 42
0.4142135623731
  0
LINE
  5
1C9
330
1F
100
AcDbEntity
  8
0-1_本体
  6
Continuous
 62
    92
370
    13
100
AcDbLine
 10
2153.999645719195
 20
-2120.634725043858
 30
0.0
 11
2153.999645719195
 21
-1424.635388801182
 31
0.0
  0
LINE
  5
1CA
330
1F
100
AcDbEntity
  8
0-1_本体
  6
Continuous
 62
    92
370
    13
100
AcDbLine
 10
2153.999645719195
 20
-2120.634725043858
 30
0.0
 11
893.9996457191955
 21
-2120.634725043858
 31
0.0
  0
LINE
  5
1CB
330
1F
100
AcDbEntity
  8
0-1_本体
  6
Continuous
 62
    92
370
    13
100
AcDbLine
 10
893.9996457191955
 20
-1424.635388801182
 30
0.0
 11
2153.999645719195
 21
-1424.635388801182
 31
0.0
  0
LINE
  5
1CC
330
1F
100
AcDbEntity
  8
0-1_本体
  6
Continuous
 62
    92
370
    13
100
AcDbLine
 10
2153.999645719198
 20
-620.6353888011819
 30
0.0
 11
3413.999645719198
 21
-620.6353888011819
 31
0.0
  0
LINE
  5
1CD
330
1F
100
AcDbEntity
  8
0-1_本体
  6
Continuous
 62
    92
370
    13
100
AcDbLine
 10
3413.999645719198
 20
-620.6353888011819
 30
0.0
 11
3413.999645719198
 21
1029.364611198818
 31
0.0
  0
LINE
  5
1CE
330
1F
100
AcDbEntity
  8
0-1_本体
  6
Continuous
 62
    92
370
    13
100
AcDbLine
 10
3413.999645719198
 20
1029.364611198818
 30
0.0
 11
2153.999645719198
 21
1029.364611198818
 31
0.0
  0
TEXT
  5
1CF
330
1F
100
AcDbEntity
  8
0-A_文字
  6
Continuous
 62
     7
370
   211
100
AcDbText
 10
2633.999645719198
 20
651.3046111988181
 30
0.0
 40
68.58
  1
可動棚
 41
1.111111111111111
  7
ＭＳ ゴシック
100
AcDbText
  0
TEXT
  5
1D0
330
1F
100
AcDbEntity
  8
0-A_文字
  6
Continuous
 62
     7
370
   211
100
AcDbText
 10
2633.999645719198
 20
246.3046111988188
 30
0.0
 40
68.58
  1
可動棚
 41
1.111111111111111
  7
ＭＳ ゴシック
100
AcDbText
  0
LINE
  5
1D1
330
1F
100
AcDbEntity
  8
0-1_本体
  6
Continuous
 62
    92
370
    13
100
AcDbLine
 10
2177.249645719197
 20
1029.364611198818
 30
0.0
 11
2177.249645719197
 21
-620.6353888011819
 31
0.0
  0
LINE
  5
1D2
330
1F
100
AcDbEntity
  8
0-1_本体
  6
Continuous
 62
    92
370
    13
100
AcDbLine
 10
3390.749645719199
 20
-620.6353888011819
 30
0.0
 11
3390.749645719199
 21
1029.364611198818
 31
0.0
  0
TEXT
  5
1D3
330
1F
100
AcDbEntity
  8
0-A_文字
  6
Continuous
 62
     7
370
   211
100
AcDbText
 10
2633.999645719198
 20
-158.6953888011812
 30
0.0
 40
68.58
  1
可動棚
 41
1.111111111111111
  7
ＭＳ ゴシック
100
AcDbText
  0
LINE
  5
1D4
330
1F
100
AcDbEntity
  8
0-1_本体
  6
Continuous
 62
    92
370
    13
100
AcDbLine
 10
3390.749645719199
 20
1006.114611198818
 30
0.0
 11
2177.249645719197
 21
1006.114611198818
 31
0.0
  0
LINE
  5
1D5
330
1F
100
AcDbEntity
  8
0-1_本体
  6
Continuous
 62
    92
370
    13
100
AcDbLine
 10
2177.249645719197
 20
-597.3853888011826
 30
0.0
 11
3390.749645719199
 21
-597.3853888011826
 31
0.0
  0
TEXT
  5
1D6
330
1F
100
AcDbEntity
  8
0-B_寸法
  6
Continuous
 62
     7
370
   211
100
AcDbText
 10
3147.074136892562
 20
523.4896111988178
 30
0.0
 40
68.58
  1
15.5
 50
90.0
 41
1.125
  7
ＭＳ ゴシック
100
AcDbText
  0
TEXT
  5
1D7
330
1F
100
AcDbEntity
  8
0-B_寸法
  6
Continuous
 62
     7
370
   211
100
AcDbText
 10
3147.074136892562
 20
118.4896111988178
 30
0.0
 40
68.58
  1
15.5
 50
90.0
 41
1.125
  7
ＭＳ ゴシック
100
AcDbText
  0
LINE
  5
1D8
330
1F
100
AcDbEntity
  8
0-B_寸法
  6
Continuous
 62
   120
370
     5
100
AcDbLine
 10
3174.764136892562
 20
231.3646111988174
 30
0.0
 11
3174.764136892562
 21
208.1146111988181
 31
0.0
  0
LWPOLYLINE
  5
1D9
330
1F
100
AcDbEntity
  8
0-B_寸法
  6
Continuous
 62
     7
370
     9
100
AcDbPolyline
 90
        4
 70
     1
 43
3.0
 10
3176.264136892562
 20
231.3646111988174
 42
0.4142135623731
 10
3174.764136892562
 20
232.8646111988174
 42
0.4142135623731
 10
3173.264136892562
 20
231.3646111988174
 42
0.4142135623731
 10
3174.764136892562
 20
229.8646111988174
 42
0.4142135623731
  0
LWPOLYLINE
  5
1DA
330
1F
100
AcDbEntity
  8
0-B_寸法
  6
Continuous
 62
     7
370
     9
100
AcDbPolyline
 90
        4
 70
     1
 43
3.0
 10
3176.264136892562
 20
208.1146111988181
 42
0.4142135623731
 10
3174.764136892562
 20
209.6146111988181
 42
0.4142135623731
 10
3173.264136892562
 20
208.1146111988181
 42
0.4142135623731
 10
3174.764136892562
 20
206.6146111988181
 42
0.4142135623731
  0
LINE
  5
1DB
330
1F
100
AcDbEntity
  8
0-B_寸法
  6
Continuous
 62
   120
370
     5
100
AcDbLine
 10
3174.764136892562
 20
231.3646111988174
 30
0.0
 11
3114.764136892562
 21
231.3646111988174
 31
0.0
  0
LINE
  5
1DC
330
1F
100
AcDbEntity
  8
0-B_寸法
  6
Continuous
 62
   120
370
     5
100
AcDbLine
 10
3174.764136892562
 20
208.1146111988181
 30
0.0
 11
3114.764136892562
 21
208.1146111988181
 31
0.0
  0
LINE
  5
1DD
330
1F
100
AcDbEntity
  8
0-B_寸法
  6
Continuous
 62
   120
370
     5
100
AcDbLine
 10
3174.764136892562
 20
-196.8853888011819
 30
0.0
 11
3174.764136892562
 21
-173.6353888011826
 31
0.0
  0
LWPOLYLINE
  5
1DE
330
1F
100
AcDbEntity
  8
0-B_寸法
  6
Continuous
 62
     7
370
     9
100
AcDbPolyline
 90
        4
 70
     1
 43
3.0
 10
3176.264136892562
 20
-196.8853888011819
 42
0.4142135623731
 10
3174.764136892562
 20
-195.3853888011819
 42
0.4142135623731
 10
3173.264136892562
 20
-196.8853888011819
 42
0.4142135623731
 10
3174.764136892562
 20
-198.3853888011819
 42
0.4142135623731
  0
LWPOLYLINE
  5
1DF
330
1F
100
AcDbEntity
  8
0-B_寸法
  6
Continuous
 62
     7
370
     9
100
AcDbPolyline
 90
        4
 70
     1
 43
3.0
 10
3176.264136892562
 20
-173.6353888011826
 42
0.4142135623731
 10
3174.764136892562
 20
-172.1353888011826
 42
0.4142135623731
 10
3173.264136892562
 20
-173.6353888011826
 42
0.4142135623731
 10
3174.764136892562
 20
-175.1353888011826
 42
0.4142135623731
  0
LINE
  5
1E0
330
1F
100
AcDbEntity
  8
0-B_寸法
  6
Continuous
 62
   120
370
     5
100
AcDbLine
 10
3174.764136892562
 20
-196.8853888011819
 30
0.0
 11
3114.764136892562
 21
-196.8853888011819
 31
0.0
  0
LINE
  5
1E1
330
1F
100
AcDbEntity
  8
0-B_寸法
  6
Continuous
 62
   120
370
     5
100
AcDbLine
 10
3174.764136892562
 20
-173.6353888011826
 30
0.0
 11
3114.764136892562
 21
-173.6353888011826
 31
0.0
  0
LINE
  5
1E2
330
1F
100
AcDbEntity
  8
0-B_寸法
  6
Continuous
 62
   120
370
     5
100
AcDbLine
 10
3174.764136892562
 20
613.1146111988181
 30
0.0
 11
3174.764136892562
 21
636.3646111988174
 31
0.0
  0
LWPOLYLINE
  5
1E3
330
1F
100
AcDbEntity
  8
0-B_寸法
  6
Continuous
 62
     7
370
     9
100
AcDbPolyline
 90
        4
 70
     1
 43
3.0
 10
3176.264136892562
 20
613.1146111988181
 42
0.4142135623731
 10
3174.764136892562
 20
614.6146111988181
 42
0.4142135623731
 10
3173.264136892562
 20
613.1146111988181
 42
0.4142135623731
 10
3174.764136892562
 20
611.6146111988181
 42
0.4142135623731
  0
LWPOLYLINE
  5
1E4
330
1F
100
AcDbEntity
  8
0-B_寸法
  6
Continuous
 62
     7
370
     9
100
AcDbPolyline
 90
        4
 70
     1
 43
3.0
 10
3176.264136892562
 20
636.3646111988174
 42
0.4142135623731
 10
3174.764136892562
 20
637.8646111988174
 42
0.4142135623731
 10
3173.264136892562
 20
636.3646111988174
 42
0.4142135623731
 10
3174.764136892562
 20
634.8646111988174
 42
0.4142135623731
  0
LINE
  5
1E5
330
1F
100
AcDbEntity
  8
0-B_寸法
  6
Continuous
 62
   120
370
     5
100
AcDbLine
 10
3174.764136892562
 20
613.1146111988181
 30
0.0
 11
3114.764136892562
 21
613.1146111988181
 31
0.0
  0
LINE
  5
1E6
330
1F
100
AcDbEntity
  8
0-B_寸法
  6
Continuous
 62
   120
370
     5
100
AcDbLine
 10
3174.764136892562
 20
636.3646111988174
 30
0.0
 11
3114.764136892562
 21
636.3646111988174
 31
0.0
  0
TEXT
  5
1E7
330
1F
100
AcDbEntity
  8
0-B_寸法
  6
Continuous
 62
     7
370
   211
100
AcDbText
 10
3147.074136892562
 20
-286.5103888011822
 30
0.0
 40
68.58
  1
15.5
 50
90.0
 41
1.125
  7
ＭＳ ゴシック
100
AcDbText
  0
LINE
  5
1E8
330
1F
100
AcDbEntity
  8
0-4_棚
  6
Continuous
 62
    92
370
    13
100
AcDbLine
 10
2178.749645719196
 20
636.3646111988174
 30
0.0
 11
2178.749645719196
 21
613.1146111988181
 31
0.0
  0
LINE
  5
1E9
330
1F
100
AcDbEntity
  8
0-4_棚
  6
Continuous
 62
    92
370
    13
100
AcDbLine
 10
2178.749645719196
 20
231.3646111988174
 30
0.0
 11
2178.749645719196
 21
208.1146111988181
 31
0.0
  0
LINE
  5
1EA
330
1F
100
AcDbEntity
  8
0-4_棚
  6
Continuous
 62
    92
370
    13
100
AcDbLine
 10
2178.749645719196
 20
-173.6353888011826
 30
0.0
 11
2178.749645719196
 21
-196.8853888011819
 31
0.0
  0
LINE
  5
1EB
330
1F
100
AcDbEntity
  8
0-4_棚
  6
Continuous
 62
    92
370
    13
100
AcDbLine
 10
3389.2496457192
 20
613.1146111988181
 30
0.0
 11
3389.2496457192
 21
636.3646111988174
 31
0.0
  0
LINE
  5
1EC
330
1F
100
AcDbEntity
  8
0-4_棚
  6
Continuous
 62
    92
370
    13
100
AcDbLine
 10
3389.2496457192
 20
208.1146111988181
 30
0.0
 11
3389.2496457192
 21
231.3646111988174
 31
0.0
  0
LINE
  5
1ED
330
1F
100
AcDbEntity
  8
0-4_棚
  6
Continuous
 62
    92
370
    13
100
AcDbLine
 10
3389.2496457192
 20
-196.8853888011819
 30
0.0
 11
3389.2496457192
 21
-173.6353888011826
 31
0.0
  0
LINE
  5
1EE
330
1F
100
AcDbEntity
  8
0-4_棚
  6
Continuous
 62
    92
370
    13
100
AcDbLine
 10
2178.749645719196
 20
613.1146111988181
 30
0.0
 11
3389.2496457192
 21
613.1146111988181
 31
0.0
  0
LINE
  5
1EF
330
1F
100
AcDbEntity
  8
0-4_棚
  6
Continuous
 62
    92
370
    13
100
AcDbLine
 10
3389.2496457192
 20
636.3646111988174
 30
0.0
 11
2178.749645719196
 21
636.3646111988174
 31
0.0
  0
LINE
  5
1F0
330
1F
100
AcDbEntity
  8
0-4_棚
  6
Continuous
 62
    92
370
    13
100
AcDbLine
 10
2178.749645719196
 20
208.1146111988181
 30
0.0
 11
3389.2496457192
 21
208.1146111988181
 31
0.0
  0
LINE
  5
1F1
330
1F
100
AcDbEntity
  8
0-4_棚
  6
Continuous
 62
    92
370
    13
100
AcDbLine
 10
3389.2496457192
 20
231.3646111988174
 30
0.0
 11
2178.749645719196
 21
231.3646111988174
 31
0.0
  0
LINE
  5
1F2
330
1F
100
AcDbEntity
  8
0-4_棚
  6
Continuous
 62
    92
370
    13
100
AcDbLine
 10
2178.749645719196
 20
-196.8853888011819
 30
0.0
 11
3389.2496457192
 21
-196.8853888011819
 31
0.0
  0
LINE
  5
1F3
330
1F
100
AcDbEntity
  8
0-4_棚
  6
Continuous
 62
    92
370
    13
100
AcDbLine
 10
3389.2496457192
 20
-173.6353888011826
 30
0.0
 11
2178.749645719196
 21
-173.6353888011826
 31
0.0
  0
LINE
  5
1F4
330
1F
100
AcDbEntity
  8
0-1_本体
  6
Continuous
 62
    92
370
    13
100
AcDbLine
 10
2177.249645719197
 20
-1970.634347256273
 30
0.0
 11
2177.249645719197
 21
-1424.635388801182
 31
0.0
  0
LINE
  5
1F5
330
1F
100
AcDbEntity
  8
0-1_本体
  6
Continuous
 62
    92
370
    13
100
AcDbLine
 10
2177.249645719197
 20
-1970.634347256273
 30
0.0
 11
2177.249645719197
 21
-2120.634725043858
 31
0.0
  0
LINE
  5
1F6
330
1F
100
AcDbEntity
  8
0-B_寸法
  6
Continuous
 62
   120
370
     5
100
AcDbLine
 10
2153.999645719195
 20
-2345.634725043858
 30
0.0
 11
2177.249645719197
 21
-2345.634725043858
 31
0.0
  0
LWPOLYLINE
  5
1F7
330
1F
100
AcDbEntity
  8
0-B_寸法
  6
Continuous
 62
     7
370
     9
100
AcDbPolyline
 90
        4
 70
     1
 43
3.0
 10
2178.749645719197
 20
-2345.634725043858
 42
0.4142135623731
 10
2177.249645719197
 20
-2344.134725043858
 42
0.4142135623731
 10
2175.749645719197
 20
-2345.634725043858
 42
0.4142135623731
 10
2177.249645719197
 20
-2347.134725043858
 42
0.4142135623731
  0
LINE
  5
1F8
330
1F
100
AcDbEntity
  8
0-B_寸法
  6
Continuous
 62
   120
370
     5
100
AcDbLine
 10
2177.249645719197
 20
-2345.634725043858
 30
0.0
 11
2177.249645719197
 21
-2195.634725043858
 31
0.0
  0
LINE
  5
1F9
330
1F
100
AcDbEntity
  8
0-1_本体
  6
Continuous
 62
    92
370
    13
100
AcDbLine
 10
3390.74891559498
 20
-1424.635388801182
 30
0.0
 11
3390.74891559498
 21
-1970.634347256273
 31
0.0
  0
LINE
  5
1FA
330
1F
100
AcDbEntity
  8
0-1_本体
  6
Continuous
 62
    92
370
    13
100
AcDbLine
 10
3390.74891559498
 20
-1970.634347256273
 30
0.0
 11
3390.74891559498
 21
-2120.634725043858
 31
0.0
  0
LWPOLYLINE
  5
1FB
330
1F
100
AcDbEntity
  8
0-B_寸法
  6
Continuous
 62
     7
370
     9
100
AcDbPolyline
 90
        4
 70
     1
 43
3.0
 10
3392.248915594979
 20
-2345.634725043858
 42
0.4142135623731
 10
3390.74891559498
 20
-2344.134725043858
 42
0.4142135623731
 10
3389.24891559498
 20
-2345.634725043858
 42
0.4142135623731
 10
3390.74891559498
 20
-2347.134725043858
 42
0.4142135623731
  0
LINE
  5
1FC
330
1F
100
AcDbEntity
  8
0-B_寸法
  6
Continuous
 62
   120
370
     5
100
AcDbLine
 10
3390.74891559498
 20
-2345.634725043858
 30
0.0
 11
3390.74891559498
 21
-2195.634725043858
 31
0.0
  0
LINE
  5
1FD
330
1F
100
AcDbEntity
  8
0-1_本体
  6
Continuous
 62
    92
370
    13
100
AcDbLine
 10
3390.74891559498
 20
-1970.634725043858
 30
0.0
 11
2177.249645719197
 21
-1970.634725043858
 31
0.0
  0
LINE
  5
1FE
330
1F
100
AcDbEntity
  8
0-B_寸法
  6
Continuous
 62
   120
370
     5
100
AcDbLine
 10
2177.249645719197
 20
-2345.634725043858
 30
0.0
 11
3390.74891559498
 21
-2345.634725043858
 31
0.0
  0
TEXT
  5
1FF
330
1F
100
AcDbEntity
  8
0-B_寸法
  6
Continuous
 62
     7
370
   211
100
AcDbText
 10
2708.999280657087
 20
-2467.944725043858
 30
0.0
 40
68.58
  1
840
 41
1.111111111111111
  7
ＭＳ ゴシック
100
AcDbText
  0
TEXT
  5
200
330
1F
100
AcDbEntity
  8
0-B_寸法
  6
Continuous
 62
     7
370
   211
100
AcDbText
 10
2180.249645719198
 20
-2317.944725043858
 30
0.0
 40
68.58
  1
15.5
 41
1.125
  7
ＭＳ ゴシック
100
AcDbText
  0
TEXT
  5
201
330
1F
100
AcDbEntity
  8
0-B_寸法
  6
Continuous
 62
     7
370
   211
100
AcDbText
 10
3185.248915594979
 20
-2317.944725043858
 30
0.0
 40
68.58
  1
15.5
 41
1.125
  7
ＭＳ ゴシック
100
AcDbText
  0
TEXT
  5
202
330
1F
100
AcDbEntity
  8
0-B_寸法
  6
Continuous
 62
     7
370
   211
100
AcDbText
 10
2708.999280657087
 20
-2317.944725043858
 30
0.0
 40
68.58
  1
809
 41
1.111111111111111
  7
ＭＳ ゴシック
100
AcDbText
  0
LINE
  5
203
330
1F
100
AcDbEntity
  8
0-1_本体
  6
Continuous
 62
    92
370
    13
100
AcDbLine
 10
2177.249645719197
 20
-1447.885388801182
 30
0.0
 11
3390.74891559498
 21
-1447.885388801182
 31
0.0
  0
LINE
  5
204
330
1F
100
AcDbEntity
  8
0-1_本体
  6
Continuous
 62
    92
370
    13
100
AcDbLine
 10
3390.74891559498
 20
-1947.384725043859
 30
0.0
 11
2177.249645719197
 21
-1947.384725043859
 31
0.0
  0
LINE
  5
205
330
1F
100
AcDbEntity
  8
0-4_棚
  6
Continuous
 62
    92
370
    13
100
AcDbLine
 10
2178.749280657088
 20
-1705.960388801182
 30
0.0
 11
3389.249280657089
 21
-1705.960388801182
 31
0.0
  0
LINE
  5
206
330
1F
100
AcDbEntity
  8
0-4_棚
  6
Continuous
 62
    92
370
    13
100
AcDbLine
 10
3389.249280657089
 20
-1705.960388801182
 30
0.0
 11
3389.249280657089
 21
-1729.210388801182
 31
0.0
  0
LINE
  5
207
330
1F
100
AcDbEntity
  8
0-4_棚
  6
Continuous
 62
    92
370
    13
100
AcDbLine
 10
3389.249280657089
 20
-1729.210388801182
 30
0.0
 11
2178.749280657088
 21
-1729.210388801182
 31
0.0
  0
LINE
  5
208
330
1F
100
AcDbEntity
  8
0-4_棚
  6
Continuous
 62
    92
370
    13
100
AcDbLine
 10
2178.749280657088
 20
-1729.210388801182
 30
0.0
 11
2178.749280657088
 21
-1705.960388801182
 31
0.0
  0
LINE
  5
209
330
1F
100
AcDbEntity
  8
0-B_寸法
  6
Continuous
 62
   120
370
     5
100
AcDbLine
 10
3209.121007554785
 20
-1729.210388801182
 30
0.0
 11
3209.121007554785
 21
-1705.960388801182
 31
0.0
  0
LWPOLYLINE
  5
20A
330
1F
100
AcDbEntity
  8
0-B_寸法
  6
Continuous
 62
     7
370
     9
100
AcDbPolyline
 90
        4
 70
     1
 43
3.0
 10
3210.621007554785
 20
-1729.210388801182
 42
0.4142135623731
 10
3209.121007554785
 20
-1727.710388801182
 42
0.4142135623731
 10
3207.621007554785
 20
-1729.210388801182
 42
0.4142135623731
 10
3209.121007554785
 20
-1730.710388801182
 42
0.4142135623731
  0
LWPOLYLINE
  5
20B
330
1F
100
AcDbEntity
  8
0-B_寸法
  6
Continuous
 62
     7
370
     9
100
AcDbPolyline
 90
        4
 70
     1
 43
3.0
 10
3210.621007554785
 20
-1705.960388801182
 42
0.4142135623731
 10
3209.121007554785
 20
-1704.460388801182
 42
0.4142135623731
 10
3207.621007554785
 20
-1705.960388801182
 42
0.4142135623731
 10
3209.121007554785
 20
-1707.460388801182
 42
0.4142135623731
  0
LINE
  5
20C
330
1F
100
AcDbEntity
  8
0-B_寸法
  6
Continuous
 62
   120
370
     5
100
AcDbLine
 10
3209.121007554785
 20
-1729.210388801182
 30
0.0
 11
3059.121007554785
 21
-1729.210388801182
 31
0.0
  0
LINE
  5
20D
330
1F
100
AcDbEntity
  8
0-B_寸法
  6
Continuous
 62
   120
370
     5
100
AcDbLine
 10
3209.121007554785
 20
-1705.960388801182
 30
0.0
 11
3059.121007554785
 21
-1705.960388801182
 31
0.0
  0
TEXT
  5
20E
330
1F
100
AcDbEntity
  8
0-B_寸法
  6
Continuous
 62
     7
370
   211
100
AcDbText
 10
3181.431007554785
 20
-1818.835388801182
 30
0.0
 40
68.58
  1
15.5
 50
90.0
 41
1.125
  7
ＭＳ ゴシック
100
AcDbText
  0
TEXT
  5
20F
330
1F
100
AcDbEntity
  8
0-A_文字
  6
Continuous
 62
     7
370
     9
100
AcDbText
 10
2648.999280657087
 20
-1668.67430298104
 30
0.0
 40
68.58
  1
可動棚
  7
ＭＳ ゴシック
100
AcDbText
  0
LINE
  5
210
330
1F
100
AcDbEntity
  8
0-B_寸法
  6
Continuous
 62
   120
370
     5
100
AcDbLine
 10
3390.74891559498
 20
-2345.634725043858
 30
0.0
 11
3413.999645719195
 21
-2345.634725043858
 31
0.0
  0
LINE
  5
211
330
1F
100
AcDbEntity
  8
0-B_寸法
  6
Continuous
 62
   120
370
     5
100
AcDbLine
 10
3413.999645719195
 20
-2495.634725043858
 30
0.0
 11
3413.999645719195
 21
-2345.634725043858
 31
0.0
  0
LWPOLYLINE
  5
212
330
1F
100
AcDbEntity
  8
0-B_寸法
  6
Continuous
 62
     7
370
     9
100
AcDbPolyline
 90
        4
 70
     1
 43
3.0
 10
3415.499645719195
 20
-2495.634725043858
 42
0.4142135623731
 10
3413.999645719195
 20
-2494.134725043858
 42
0.4142135623731
 10
3412.499645719195
 20
-2495.634725043858
 42
0.4142135623731
 10
3413.999645719195
 20
-2497.134725043858
 42
0.4142135623731
  0
LINE
  5
213
330
1F
100
AcDbEntity
  8
0-B_寸法
  6
Continuous
 62
   120
370
     5
100
AcDbLine
 10
2153.999645719195
 20
-2495.634725043858
 30
0.0
 11
3413.999645719195
 21
-2495.634725043858
 31
0.0
  0
LINE
  5
214
330
1F
100
AcDbEntity
  8
0-B_寸法
  6
Continuous
 62
   120
370
     5
100
AcDbLine
 10
3413.999645719195
 20
-2345.634725043858
 30
0.0
 11
3413.999645719195
 21
-2195.634725043858
 31
0.0
  0
LWPOLYLINE
  5
215
330
1F
100
AcDbEntity
  8
0-B_寸法
  6
Continuous
 62
     7
370
     9
100
AcDbPolyline
 90
        4
 70
     1
 43
3.0
 10
3415.499645719195
 20
-2345.634725043858
 42
0.4142135623731
 10
3413.999645719195
 20
-2344.134725043858
 42
0.4142135623731
 10
3412.499645719195
 20
-2345.634725043858
 42
0.4142135623731
 10
3413.999645719195
 20
-2347.134725043858
 42
0.4142135623731
  0
LINE
  5
216
330
1F
100
AcDbEntity
  8
0-1_本体
  6
Continuous
 62
    92
370
    13
100
AcDbLine
 10
3413.999645719195
 20
-2120.634725043858
 30
0.0
 11
3413.999645719195
 21
-1424.635388801182
 31
0.0
  0
LINE
  5
217
330
1F
100
AcDbEntity
  8
0-1_本体
  6
Continuous
 62
    92
370
    13
100
AcDbLine
 10
3413.999645719195
 20
-2120.634725043858
 30
0.0
 11
2153.999645719195
 21
-2120.634725043858
 31
0.0
  0
LINE
  5
218
330
1F
100
AcDbEntity
  8
0-1_本体
  6
Continuous
 62
    92
370
    13
100
AcDbLine
 10
2153.999645719195
 20
-1424.635388801182
 30
0.0
 11
3413.999645719195
 21
-1424.635388801182
 31
0.0
  0
LWPOLYLINE
  5
219
330
1F
100
AcDbEntity
  8
0-B_寸法
  6
Continuous
 62
     7
370
     9
100
AcDbPolyline
 90
        4
 70
     1
 43
3.0
 10
3415.499645719198
 20
1254.364611198818
 42
0.4142135623731
 10
3413.999645719198
 20
1255.864611198818
 42
0.4142135623731
 10
3412.499645719198
 20
1254.364611198818
 42
0.4142135623731
 10
3413.999645719198
 20
1252.864611198818
 42
0.4142135623731
  0
LINE
  5
21A
330
1F
100
AcDbEntity
  8
0-B_寸法
  6
Continuous
 62
   120
370
     5
100
AcDbLine
 10
3413.999645719198
 20
1254.364611198818
 30
0.0
 11
3413.999645719198
 21
1104.364611198818
 31
0.0
  0
LINE
  5
21B
330
1F
100
AcDbEntity
  8
0-B_寸法
  6
Continuous
 62
   120
370
     5
100
AcDbLine
 10
3413.999645719198
 20
1254.364611198818
 30
0.0
 11
-366.0003542808019
 21
1254.364611198818
 31
0.0
  0
LWPOLYLINE
  5
21C
330
1F
100
AcDbEntity
  8
0-B_寸法
  6
Continuous
 62
     7
370
     9
100
AcDbPolyline
 90
        4
 70
     1
 43
3.0
 10
-364.5003542808019
 20
1254.364611198818
 42
0.4142135623731
 10
-366.0003542808019
 20
1255.864611198818
 42
0.4142135623731
 10
-367.5003542808019
 20
1254.364611198818
 42
0.4142135623731
 10
-366.0003542808019
 20
1252.864611198818
 42
0.4142135623731
  0
LINE
  5
21D
330
1F
100
AcDbEntity
  8
0-B_寸法
  6
Continuous
 62
   120
370
     5
100
AcDbLine
 10
-366.0003542808019
 20
1254.364611198818
 30
0.0
 11
-366.0003542808019
 21
1104.364611198818
 31
0.0
  0
TEXT
  5
21E
330
1F
100
AcDbEntity
  8
0-B_寸法
  6
Continuous
 62
     7
370
   211
100
AcDbText
 10
1396.499645719198
 20
1282.054611198818
 30
0.0
 40
68.58
  1
2,520
 41
1.133333333333333
  7
ＭＳ ゴシック
100
AcDbText
  0
TEXT
  5
21F
330
1F
100
AcDbEntity
  8
0-B_寸法
  6
Continuous
 62
     7
370
   211
100
AcDbText
 10
1268.999645719195
 20
-1117.945388801182
 30
0.0
 40
68.58
  1
カウンター
 41
1.133333333333333
  7
ＭＳ ゴシック
100
AcDbText
  0
TEXT
  5
220
330
1F
100
AcDbEntity
  8
0-B_寸法
  6
Continuous
 62
     7
370
   211
100
AcDbText
 10
4587.000128050111
 20
1282.054611198818
 30
0.0
 40
68.58
  1
330
 41
1.111111111111111
  7
ＭＳ ゴシック
100
AcDbText
  0
LINE
  5
221
330
1F
100
AcDbEntity
  8
0-B_寸法
  6
Continuous
 62
   120
370
     5
100
AcDbLine
 10
4986.000128050109
 20
1404.364611198818
 30
0.0
 11
4986.000128050109
 21
1104.364611198818
 31
0.0
  0
LWPOLYLINE
  5
222
330
1F
100
AcDbEntity
  8
0-B_寸法
  6
Continuous
 62
     7
370
     9
100
AcDbPolyline
 90
        4
 70
     1
 43
3.0
 10
4987.50012805011
 20
1254.364611198818
 42
0.4142135623731
 10
4986.000128050109
 20
1255.864611198818
 42
0.4142135623731
 10
4984.500128050109
 20
1254.364611198818
 42
0.4142135623731
 10
4986.000128050109
 20
1252.864611198818
 42
0.4142135623731
  0
LINE
  5
223
330
1F
100
AcDbEntity
  8
0-B_寸法
  6
Continuous
 62
   120
370
     5
100
AcDbLine
 10
4909.500128050111
 20
1254.364611198818
 30
0.0
 11
4986.000128050109
 21
1254.364611198818
 31
0.0
  0
LINE
  5
224
330
1F
100
AcDbEntity
  8
0-B_寸法
  6
Continuous
 62
   120
370
     5
100
AcDbLine
 10
4909.500128050111
 20
1254.364611198818
 30
0.0
 11
4909.500128050111
 21
1104.364611198818
 31
0.0
  0
LWPOLYLINE
  5
225
330
1F
100
AcDbEntity
  8
0-B_寸法
  6
Continuous
 62
     7
370
     9
100
AcDbPolyline
 90
        4
 70
     1
 43
3.0
 10
4911.000128050111
 20
1254.364611198818
 42
0.4142135623731
 10
4909.500128050111
 20
1255.864611198818
 42
0.4142135623731
 10
4908.00012805011
 20
1254.364611198818
 42
0.4142135623731
 10
4909.500128050111
 20
1252.864611198818
 42
0.4142135623731
  0
LINE
  5
226
330
1F
100
AcDbEntity
  8
0-B_寸法
  6
Continuous
 62
   120
370
     5
100
AcDbLine
 10
4414.500128050111
 20
1254.364611198818
 30
0.0
 11
4909.500128050111
 21
1254.364611198818
 31
0.0
  0
LINE
  5
227
330
1F
100
AcDbEntity
  8
0-B_寸法
  6
Continuous
 62
   120
370
     5
100
AcDbLine
 10
4414.500128050111
 20
1254.364611198818
 30
0.0
 11
4414.500128050111
 21
1104.364611198818
 31
0.0
  0
LINE
  5
228
330
1F
100
AcDbEntity
  8
0-B_寸法
  6
Continuous
 62
   120
370
     5
100
AcDbLine
 10
4374.00012805011
 20
1254.364611198818
 30
0.0
 11
4374.00012805011
 21
1104.364611198818
 31
0.0
  0
LWPOLYLINE
  5
229
330
1F
100
AcDbEntity
  8
0-B_寸法
  6
Continuous
 62
     7
370
     9
100
AcDbPolyline
 90
        4
 70
     1
 43
3.0
 10
4416.000128050111
 20
1254.364611198818
 42
0.4142135623731
 10
4414.500128050111
 20
1255.864611198818
 42
0.4142135623731
 10
4413.00012805011
 20
1254.364611198818
 42
0.4142135623731
 10
4414.500128050111
 20
1252.864611198818
 42
0.4142135623731
  0
LWPOLYLINE
  5
22A
330
1F
100
AcDbEntity
  8
0-B_寸法
  6
Continuous
 62
     7
370
     9
100
AcDbPolyline
 90
        4
 70
     1
 43
3.0
 10
4375.50012805011
 20
1254.364611198818
 42
0.4142135623731
 10
4374.00012805011
 20
1255.864611198818
 42
0.4142135623731
 10
4372.50012805011
 20
1254.364611198818
 42
0.4142135623731
 10
4374.00012805011
 20
1252.864611198818
 42
0.4142135623731
  0
LINE
  5
22B
330
1F
100
AcDbEntity
  8
0-B_寸法
  6
Continuous
 62
   120
370
     5
100
AcDbLine
 10
4374.00012805011
 20
1254.364611198818
 30
0.0
 11
4414.500128050111
 21
1254.364611198818
 31
0.0
  0
LINE
  5
22C
330
1F
100
AcDbEntity
  8
0-B_寸法
  6
Continuous
 62
   120
370
     5
100
AcDbLine
 10
4149.000119875759
 20
-620.6353888011819
 30
0.0
 11
4299.000119875759
 21
-620.6353888011819
 31
0.0
  0
LWPOLYLINE
  5
22D
330
1F
100
AcDbEntity
  8
0-B_寸法
  6
Continuous
 62
     7
370
     9
100
AcDbPolyline
 90
        4
 70
     1
 43
3.0
 10
4150.50011987576
 20
-620.6353888011819
 42
0.4142135623731
 10
4149.000119875759
 20
-619.1353888011819
 42
0.4142135623731
 10
4147.500119875759
 20
-620.6353888011819
 42
0.4142135623731
 10
4149.000119875759
 20
-622.1353888011819
 42
0.4142135623731
  0
LINE
  5
22E
330
1F
100
AcDbEntity
  8
0-B_寸法
  6
Continuous
 62
   120
370
     5
100
AcDbLine
 10
4149.000119875759
 20
-617.6353888011812
 30
0.0
 11
4149.000119875759
 21
-620.6353888011819
 31
0.0
  0
LINE
  5
22F
330
1F
100
AcDbEntity
  8
0-B_寸法
  6
Continuous
 62
   120
370
     5
100
AcDbLine
 10
4149.000119875759
 20
-617.6353888011812
 30
0.0
 11
4299.000119875759
 21
-617.6353888011812
 31
0.0
  0
LWPOLYLINE
  5
230
330
1F
100
AcDbEntity
  8
0-B_寸法
  6
Continuous
 62
     7
370
     9
100
AcDbPolyline
 90
        4
 70
     1
 43
3.0
 10
4150.50011987576
 20
-617.6353888011812
 42
0.4142135623731
 10
4149.000119875759
 20
-616.1353888011812
 42
0.4142135623731
 10
4147.500119875759
 20
-617.6353888011812
 42
0.4142135623731
 10
4149.000119875759
 20
-619.1353888011812
 42
0.4142135623731
  0
LINE
  5
231
330
1F
100
AcDbEntity
  8
0-B_寸法
  6
Continuous
 62
   120
370
     5
100
AcDbLine
 10
4149.000119875759
 20
1026.364611198817
 30
0.0
 11
4149.000119875759
 21
-617.6353888011812
 31
0.0
  0
LINE
  5
232
330
1F
100
AcDbEntity
  8
0-B_寸法
  6
Continuous
 62
   120
370
     5
100
AcDbLine
 10
4149.000119875759
 20
1026.364611198817
 30
0.0
 11
4299.000119875759
 21
1026.364611198817
 31
0.0
  0
LINE
  5
233
330
1F
100
AcDbEntity
  8
0-B_寸法
  6
Continuous
 62
   120
370
     5
100
AcDbLine
 10
4149.000119875759
 20
1029.364611198818
 30
0.0
 11
4299.000119875759
 21
1029.364611198818
 31
0.0
  0
LWPOLYLINE
  5
234
330
1F
100
AcDbEntity
  8
0-B_寸法
  6
Continuous
 62
     7
370
     9
100
AcDbPolyline
 90
        4
 70
     1
 43
3.0
 10
4150.50011987576
 20
1026.364611198817
 42
0.4142135623731
 10
4149.000119875759
 20
1027.864611198817
 42
0.4142135623731
 10
4147.500119875759
 20
1026.364611198817
 42
0.4142135623731
 10
4149.000119875759
 20
1024.864611198818
 42
0.4142135623731
  0
LWPOLYLINE
  5
235
330
1F
100
AcDbEntity
  8
0-B_寸法
  6
Continuous
 62
     7
370
     9
100
AcDbPolyline
 90
        4
 70
     1
 43
3.0
 10
4150.50011987576
 20
1029.364611198818
 42
0.4142135623731
 10
4149.000119875759
 20
1030.864611198818
 42
0.4142135623731
 10
4147.500119875759
 20
1029.364611198818
 42
0.4142135623731
 10
4149.000119875759
 20
1027.864611198818
 42
0.4142135623731
  0
LINE
  5
236
330
1F
100
AcDbEntity
  8
0-B_寸法
  6
Continuous
 62
   120
370
     5
100
AcDbLine
 10
4149.000119875759
 20
1029.364611198818
 30
0.0
 11
4149.000119875759
 21
1026.364611198817
 31
0.0
  0
LINE
  5
237
330
1F
100
AcDbEntity
  8
0-B_寸法
  6
Continuous
 62
   120
370
     5
100
AcDbLine
 10
5211.000119875759
 20
-620.6353888011819
 30
0.0
 11
5061.000119875759
 21
-620.6353888011819
 31
0.0
  0
LWPOLYLINE
  5
238
330
1F
100
AcDbEntity
  8
0-B_寸法
  6
Continuous
 62
     7
370
     9
100
AcDbPolyline
 90
        4
 70
     1
 43
3.0
 10
5212.500119875759
 20
-620.6353888011819
 42
0.4142135623731
 10
5211.000119875759
 20
-619.1353888011819
 42
0.4142135623731
 10
5209.500119875758
 20
-620.6353888011819
 42
0.4142135623731
 10
5211.000119875759
 20
-622.1353888011819
 42
0.4142135623731
  0
LINE
  5
239
330
1F
100
AcDbEntity
  8
0-B_寸法
  6
Continuous
 62
   120
370
     5
100
AcDbLine
 10
5211.000119875759
 20
-290.6353888011819
 30
0.0
 11
5211.000119875759
 21
-620.6353888011819
 31
0.0
  0
LINE
  5
23A
330
1F
100
AcDbEntity
  8
0-B_寸法
  6
Continuous
 62
   120
370
     5
100
AcDbLine
 10
5211.000119875759
 20
-290.6353888011819
 30
0.0
 11
5061.000119875759
 21
-290.6353888011819
 31
0.0
  0
LWPOLYLINE
  5
23B
330
1F
100
AcDbEntity
  8
0-B_寸法
  6
Continuous
 62
     7
370
     9
100
AcDbPolyline
 90
        4
 70
     1
 43
3.0
 10
5212.500119875759
 20
-290.6353888011819
 42
0.4142135623731
 10
5211.000119875759
 20
-289.1353888011819
 42
0.4142135623731
 10
5209.500119875758
 20
-290.6353888011819
 42
0.4142135623731
 10
5211.000119875759
 20
-292.1353888011819
 42
0.4142135623731
  0
LINE
  5
23C
330
1F
100
AcDbEntity
  8
0-B_寸法
  6
Continuous
 62
   120
370
     5
100
AcDbLine
 10
5211.000119875759
 20
699.3646111988181
 30
0.0
 11
5211.000119875759
 21
-290.6353888011819
 31
0.0
  0
TEXT
  5
23D
330
1F
100
AcDbEntity
  8
0-B_寸法
  6
Continuous
 62
     7
370
   211
100
AcDbText
 10
4121.310119875759
 20
-641.6353888011806
 30
0.0
 40
68.58
  1
2
 50
90.0
  7
ＭＳ ゴシック
100
AcDbText
  0
LINE
  5
23E
330
1F
100
AcDbEntity
  8
0-B_寸法
  6
Continuous
 62
   120
370
     5
100
AcDbLine
 10
5211.000119875759
 20
699.3646111988181
 30
0.0
 11
5061.000119875759
 21
699.3646111988181
 31
0.0
  0
LINE
  5
23F
330
1F
100
AcDbEntity
  8
0-B_寸法
  6
Continuous
 62
   120
370
     5
100
AcDbLine
 10
5211.000119875759
 20
1029.364611198818
 30
0.0
 11
5061.000119875759
 21
1029.364611198818
 31
0.0
  0
LWPOLYLINE
  5
240
330
1F
100
AcDbEntity
  8
0-B_寸法
  6
Continuous
 62
     7
370
     9
100
AcDbPolyline
 90
        4
 70
     1
 43
3.0
 10
5212.500119875759
 20
699.3646111988181
 42
0.4142135623731
 10
5211.000119875759
 20
700.8646111988181
 42
0.4142135623731
 10
5209.500119875758
 20
699.3646111988181
 42
0.4142135623731
 10
5211.000119875759
 20
697.8646111988181
 42
0.4142135623731
  0
LWPOLYLINE
  5
241
330
1F
100
AcDbEntity
  8
0-B_寸法
  6
Continuous
 62
     7
370
     9
100
AcDbPolyline
 90
        4
 70
     1
 43
3.0
 10
5212.500119875759
 20
1029.364611198818
 42
0.4142135623731
 10
5211.000119875759
 20
1030.864611198818
 42
0.4142135623731
 10
5209.500119875758
 20
1029.364611198818
 42
0.4142135623731
 10
5211.000119875759
 20
1027.864611198818
 42
0.4142135623731
  0
LINE
  5
242
330
1F
100
AcDbEntity
  8
0-B_寸法
  6
Continuous
 62
   120
370
     5
100
AcDbLine
 10
5211.000119875759
 20
1029.364611198818
 30
0.0
 11
5211.000119875759
 21
699.3646111988181
 31
0.0
  0
TEXT
  5
243
330
1F
100
AcDbEntity
  8
0-B_寸法
  6
Continuous
 62
     7
370
   211
100
AcDbText
 10
5183.310119875759
 20
-530.6353888011819
 30
0.0
 40
68.58
  1
220
 50
90.0
 41
1.111111111111111
  7
ＭＳ ゴシック
100
AcDbText
  0
LINE
  5
244
330
1F
100
AcDbEntity
  8
0-B_寸法
  6
Continuous
 62
   120
370
     5
100
AcDbLine
 10
4504.500128050111
 20
519.3646111988181
 30
0.0
 11
4444.500128050111
 21
519.3646111988181
 31
0.0
  0
LINE
  5
245
330
1F
100
AcDbEntity
  8
0-B_寸法
  6
Continuous
 62
   120
370
     5
100
AcDbLine
 10
4504.500128050111
 20
564.3646111988181
 30
0.0
 11
4444.500128050111
 21
564.3646111988181
 31
0.0
  0
LWPOLYLINE
  5
246
330
1F
100
AcDbEntity
  8
0-B_寸法
  6
Continuous
 62
     7
370
     9
100
AcDbPolyline
 90
        4
 70
     1
 43
3.0
 10
4506.000128050111
 20
519.3646111988181
 42
0.4142135623731
 10
4504.500128050111
 20
520.8646111988181
 42
0.4142135623731
 10
4503.00012805011
 20
519.3646111988181
 42
0.4142135623731
 10
4504.500128050111
 20
517.8646111988181
 42
0.4142135623731
  0
LWPOLYLINE
  5
247
330
1F
100
AcDbEntity
  8
0-B_寸法
  6
Continuous
 62
     7
370
     9
100
AcDbPolyline
 90
        4
 70
     1
 43
3.0
 10
4506.000128050111
 20
564.3646111988181
 42
0.4142135623731
 10
4504.500128050111
 20
565.8646111988181
 42
0.4142135623731
 10
4503.00012805011
 20
564.3646111988181
 42
0.4142135623731
 10
4504.500128050111
 20
562.8646111988181
 42
0.4142135623731
  0
LINE
  5
248
330
1F
100
AcDbEntity
  8
0-B_寸法
  6
Continuous
 62
   120
370
     5
100
AcDbLine
 10
4504.500128050111
 20
564.3646111988181
 30
0.0
 11
4504.500128050111
 21
519.3646111988181
 31
0.0
  0
TEXT
  5
249
330
1F
100
AcDbEntity
  8
0-B_寸法
  6
Continuous
 62
     7
370
   211
100
AcDbText
 10
4461.750128050112
 20
-437.5603888011819
 30
0.0
 40
57.15000000000001
  1
可動棚＝388
 41
0.9999999999999999
  7
ＭＳ ゴシック
100
AcDbText
  0
TEXT
  5
24A
330
1F
100
AcDbEntity
  8
0-B_寸法
  6
Continuous
 62
     7
370
   211
100
AcDbText
 10
4121.310119875759
 20
-80.63538880118188
 30
0.0
 40
68.58
  1
ＤＨ＝1,096
 50
90.0
 41
1.151515151515152
  7
ＭＳ ゴシック
100
AcDbText
  0
LINE
  5
24B
330
1F
100
AcDbEntity
  8
0-4_棚
  6
Continuous
 62
    40
370
    15
100
AcDbLine
 10
4959.00012805011
 20
231.3646111988174
 30
0.0
 11
4959.00012805011
 21
208.1146111988181
 31
0.0
  0
LINE
  5
24C
330
1F
100
AcDbEntity
  8
0-4_棚
  6
Continuous
 62
    40
370
    15
100
AcDbLine
 10
4377.000128050111
 20
231.3646111988174
 30
0.0
 11
4959.00012805011
 21
231.3646111988174
 31
0.0
  0
LINE
  5
24D
330
1F
100
AcDbEntity
  8
0-4_棚
  6
Continuous
 62
    40
370
    15
100
AcDbLine
 10
4377.000128050111
 20
208.1146111988181
 30
0.0
 11
4377.000128050111
 21
231.3646111988174
 31
0.0
  0
LINE
  5
24E
330
1F
100
AcDbEntity
  8
0-4_棚
  6
Continuous
 62
    40
370
    15
100
AcDbLine
 10
4959.00012805011
 20
208.1146111988181
 30
0.0
 11
4377.000128050111
 21
208.1146111988181
 31
0.0
  0
LINE
  5
24F
330
1F
100
AcDbEntity
  8
0-4_棚
  6
Continuous
 62
    40
370
    15
100
AcDbLine
 10
4959.00012805011
 20
636.3646111988174
 30
0.0
 11
4959.00012805011
 21
613.1146111988181
 31
0.0
  0
LINE
  5
250
330
1F
100
AcDbEntity
  8
0-4_棚
  6
Continuous
 62
    40
370
    15
100
AcDbLine
 10
4377.000128050111
 20
636.3646111988174
 30
0.0
 11
4959.00012805011
 21
636.3646111988174
 31
0.0
  0
LINE
  5
251
330
1F
100
AcDbEntity
  8
0-4_棚
  6
Continuous
 62
    40
370
    15
100
AcDbLine
 10
4377.000128050111
 20
613.1146111988181
 30
0.0
 11
4377.000128050111
 21
636.3646111988174
 31
0.0
  0
LINE
  5
252
330
1F
100
AcDbEntity
  8
0-4_棚
  6
Continuous
 62
    40
370
    15
100
AcDbLine
 10
4959.00012805011
 20
613.1146111988181
 30
0.0
 11
4377.000128050111
 21
613.1146111988181
 31
0.0
  0
LINE
  5
253
330
1F
100
AcDbEntity
  8
0-B_寸法
  6
Continuous
 62
   120
370
     5
100
AcDbLine
 10
4986.000128050109
 20
817.3717122307787
 30
0.0
 11
4986.000128050109
 21
967.3717122307787
 31
0.0
  0
LINE
  5
254
330
1F
100
AcDbEntity
  8
0-B_寸法
  6
Continuous
 62
   120
370
     5
100
AcDbLine
 10
4959.00012805011
 20
817.3717122307787
 30
0.0
 11
4959.00012805011
 21
967.3717122307787
 31
0.0
  0
LWPOLYLINE
  5
255
330
1F
100
AcDbEntity
  8
0-B_寸法
  6
Continuous
 62
     7
370
     9
100
AcDbPolyline
 90
        4
 70
     1
 43
3.0
 10
4987.50012805011
 20
817.3717122307787
 42
0.4142135623731
 10
4986.000128050109
 20
818.8717122307787
 42
0.4142135623731
 10
4984.500128050109
 20
817.3717122307787
 42
0.4142135623731
 10
4986.000128050109
 20
815.8717122307786
 42
0.4142135623731
  0
LWPOLYLINE
  5
256
330
1F
100
AcDbEntity
  8
0-B_寸法
  6
Continuous
 62
     7
370
     9
100
AcDbPolyline
 90
        4
 70
     1
 43
3.0
 10
4960.50012805011
 20
817.3717122307787
 42
0.4142135623731
 10
4959.00012805011
 20
818.8717122307787
 42
0.4142135623731
 10
4957.50012805011
 20
817.3717122307787
 42
0.4142135623731
 10
4959.00012805011
 20
815.8717122307786
 42
0.4142135623731
  0
LINE
  5
257
330
1F
100
AcDbEntity
  8
0-B_寸法
  6
Continuous
 62
   120
370
     5
100
AcDbLine
 10
4959.00012805011
 20
817.3717122307787
 30
0.0
 11
4986.000128050109
 21
817.3717122307787
 31
0.0
  0
LINE
  5
258
330
1F
100
AcDbEntity
  8
0-4_棚
  6
Continuous
 62
    40
370
    15
100
AcDbLine
 10
4959.00012805011
 20
-173.6353888011826
 30
0.0
 11
4959.00012805011
 21
-196.8853888011819
 31
0.0
  0
LINE
  5
259
330
1F
100
AcDbEntity
  8
0-4_棚
  6
Continuous
 62
    40
370
    15
100
AcDbLine
 10
4377.000128050111
 20
-173.6353888011826
 30
0.0
 11
4959.00012805011
 21
-173.6353888011826
 31
0.0
  0
LINE
  5
25A
330
1F
100
AcDbEntity
  8
0-4_棚
  6
Continuous
 62
    40
370
    15
100
AcDbLine
 10
4377.000128050111
 20
-196.8853888011819
 30
0.0
 11
4377.000128050111
 21
-173.6353888011826
 31
0.0
  0
LINE
  5
25B
330
1F
100
AcDbEntity
  8
0-4_棚
  6
Continuous
 62
    40
370
    15
100
AcDbLine
 10
4959.00012805011
 20
-196.8853888011819
 30
0.0
 11
4377.000128050111
 21
-196.8853888011819
 31
0.0
  0
LINE
  5
25C
330
1F
100
AcDbEntity
  8
0-B_寸法
  6
Continuous
 62
   120
370
     5
100
AcDbLine
 10
4959.00012805011
 20
-463.1353888011819
 30
0.0
 11
4959.00012805011
 21
-313.1353888011819
 31
0.0
  0
LINE
  5
25D
330
1F
100
AcDbEntity
  8
0-B_寸法
  6
Continuous
 62
   120
370
     5
100
AcDbLine
 10
4377.000128050111
 20
-463.1353888011819
 30
0.0
 11
4377.000128050111
 21
-313.1353888011819
 31
0.0
  0
LWPOLYLINE
  5
25E
330
1F
100
AcDbEntity
  8
0-B_寸法
  6
Continuous
 62
     7
370
     9
100
AcDbPolyline
 90
        4
 70
     1
 43
3.0
 10
4960.50012805011
 20
-463.1353888011819
 42
0.4142135623731
 10
4959.00012805011
 20
-461.6353888011819
 42
0.4142135623731
 10
4957.50012805011
 20
-463.1353888011819
 42
0.4142135623731
 10
4959.00012805011
 20
-464.6353888011819
 42
0.4142135623731
  0
LWPOLYLINE
  5
25F
330
1F
100
AcDbEntity
  8
0-B_寸法
  6
Continuous
 62
     7
370
     9
100
AcDbPolyline
 90
        4
 70
     1
 43
3.0
 10
4378.500128050111
 20
-463.1353888011819
 42
0.4142135623731
 10
4377.000128050111
 20
-461.6353888011819
 42
0.4142135623731
 10
4375.50012805011
 20
-463.1353888011819
 42
0.4142135623731
 10
4377.000128050111
 20
-464.6353888011819
 42
0.4142135623731
  0
LINE
  5
260
330
1F
100
AcDbEntity
  8
0-B_寸法
  6
Continuous
 62
   120
370
     5
100
AcDbLine
 10
4377.000128050111
 20
-463.1353888011819
 30
0.0
 11
4959.00012805011
 21
-463.1353888011819
 31
0.0
  0
LINE
  5
261
330
1F
100
AcDbEntity
  8
0-0_補助線
  6
JWW_HOJO
 62
     7
370
     9
100
AcDbLine
 10
4374.00012805011
 20
654.3646111988181
 30
0.0
 11
4959.00012805011
 21
654.3646111988181
 31
0.0
  0
CIRCLE
  5
262
330
1F
100
AcDbEntity
  8
0-5_ダボ
  6
Continuous
 62
     7
370
     9
100
AcDbCircle
 10
4414.500128050111
 20
654.3646111988181
 30
0.0
 40
3.75
  0
CIRCLE
  5
263
330
1F
100
AcDbEntity
  8
0-5_ダボ
  6
Continuous
 62
     7
370
     9
100
AcDbCircle
 10
4909.500128050111
 20
654.3646111988181
 30
0.0
 40
3.75
  0
LINE
  5
264
330
1F
100
AcDbEntity
  8
0-0_補助線
  6
JWW_HOJO
 62
     7
370
     9
100
AcDbLine
 10
4374.00012805011
 20
609.3646111988181
 30
0.0
 11
4959.00012805011
 21
609.3646111988181
 31
0.0
  0
CIRCLE
  5
265
330
1F
100
AcDbEntity
  8
0-5_ダボ
  6
Continuous
 62
     7
370
     9
100
AcDbCircle
 10
4414.500128050111
 20
609.3646111988181
 30
0.0
 40
3.75
  0
CIRCLE
  5
266
330
1F
100
AcDbEntity
  8
0-5_ダボ
  6
Continuous
 62
     7
370
     9
100
AcDbCircle
 10
4909.500128050111
 20
609.3646111988181
 30
0.0
 40
3.75
  0
LINE
  5
267
330
1F
100
AcDbEntity
  8
0-0_補助線
  6
JWW_HOJO
 62
     7
370
     9
100
AcDbLine
 10
4374.00012805011
 20
564.3646111988181
 30
0.0
 11
4959.00012805011
 21
564.3646111988181
 31
0.0
  0
CIRCLE
  5
268
330
1F
100
AcDbEntity
  8
0-5_ダボ
  6
Continuous
 62
     7
370
     9
100
AcDbCircle
 10
4414.500128050111
 20
564.3646111988181
 30
0.0
 40
3.75
  0
CIRCLE
  5
269
330
1F
100
AcDbEntity
  8
0-5_ダボ
  6
Continuous
 62
     7
370
     9
100
AcDbCircle
 10
4909.500128050111
 20
564.3646111988181
 30
0.0
 40
3.75
  0
LINE
  5
26A
330
1F
100
AcDbEntity
  8
0-0_補助線
  6
JWW_HOJO
 62
     7
370
     9
100
AcDbLine
 10
4374.00012805011
 20
519.3646111988181
 30
0.0
 11
4959.00012805011
 21
519.3646111988181
 31
0.0
  0
CIRCLE
  5
26B
330
1F
100
AcDbEntity
  8
0-5_ダボ
  6
Continuous
 62
     7
370
     9
100
AcDbCircle
 10
4414.500128050111
 20
519.3646111988181
 30
0.0
 40
3.75
  0
CIRCLE
  5
26C
330
1F
100
AcDbEntity
  8
0-5_ダボ
  6
Continuous
 62
     7
370
     9
100
AcDbCircle
 10
4909.500128050111
 20
519.3646111988181
 30
0.0
 40
3.75
  0
LINE
  5
26D
330
1F
100
AcDbEntity
  8
0-0_補助線
  6
JWW_HOJO
 62
     7
370
     9
100
AcDbLine
 10
4374.00012805011
 20
474.3646111988181
 30
0.0
 11
4959.00012805011
 21
474.3646111988181
 31
0.0
  0
CIRCLE
  5
26E
330
1F
100
AcDbEntity
  8
0-5_ダボ
  6
Continuous
 62
     7
370
     9
100
AcDbCircle
 10
4414.500128050111
 20
474.3646111988181
 30
0.0
 40
3.75
  0
CIRCLE
  5
26F
330
1F
100
AcDbEntity
  8
0-5_ダボ
  6
Continuous
 62
     7
370
     9
100
AcDbCircle
 10
4909.500128050111
 20
474.3646111988181
 30
0.0
 40
3.75
  0
LINE
  5
270
330
1F
100
AcDbEntity
  8
0-0_補助線
  6
JWW_HOJO
 62
     7
370
     9
100
AcDbLine
 10
4374.00012805011
 20
429.3646111988181
 30
0.0
 11
4959.00012805011
 21
429.3646111988181
 31
0.0
  0
CIRCLE
  5
271
330
1F
100
AcDbEntity
  8
0-5_ダボ
  6
Continuous
 62
     7
370
     9
100
AcDbCircle
 10
4414.500128050111
 20
429.3646111988181
 30
0.0
 40
3.75
  0
CIRCLE
  5
272
330
1F
100
AcDbEntity
  8
0-5_ダボ
  6
Continuous
 62
     7
370
     9
100
AcDbCircle
 10
4909.500128050111
 20
429.3646111988181
 30
0.0
 40
3.75
  0
LINE
  5
273
330
1F
100
AcDbEntity
  8
0-0_補助線
  6
JWW_HOJO
 62
     7
370
     9
100
AcDbLine
 10
4374.00012805011
 20
384.3646111988181
 30
0.0
 11
4959.00012805011
 21
384.3646111988181
 31
0.0
  0
CIRCLE
  5
274
330
1F
100
AcDbEntity
  8
0-5_ダボ
  6
Continuous
 62
     7
370
     9
100
AcDbCircle
 10
4414.500128050111
 20
384.3646111988181
 30
0.0
 40
3.75
  0
CIRCLE
  5
275
330
1F
100
AcDbEntity
  8
0-5_ダボ
  6
Continuous
 62
     7
370
     9
100
AcDbCircle
 10
4909.500128050111
 20
384.3646111988181
 30
0.0
 40
3.75
  0
LINE
  5
276
330
1F
100
AcDbEntity
  8
0-0_補助線
  6
JWW_HOJO
 62
     7
370
     9
100
AcDbLine
 10
4374.00012805011
 20
339.3646111988181
 30
0.0
 11
4959.00012805011
 21
339.3646111988181
 31
0.0
  0
CIRCLE
  5
277
330
1F
100
AcDbEntity
  8
0-5_ダボ
  6
Continuous
 62
     7
370
     9
100
AcDbCircle
 10
4414.500128050111
 20
339.3646111988181
 30
0.0
 40
3.75
  0
CIRCLE
  5
278
330
1F
100
AcDbEntity
  8
0-5_ダボ
  6
Continuous
 62
     7
370
     9
100
AcDbCircle
 10
4909.500128050111
 20
339.3646111988181
 30
0.0
 40
3.75
  0
LINE
  5
279
330
1F
100
AcDbEntity
  8
0-0_補助線
  6
JWW_HOJO
 62
     7
370
     9
100
AcDbLine
 10
4374.00012805011
 20
294.3646111988181
 30
0.0
 11
4959.00012805011
 21
294.3646111988181
 31
0.0
  0
CIRCLE
  5
27A
330
1F
100
AcDbEntity
  8
0-5_ダボ
  6
Continuous
 62
     7
370
     9
100
AcDbCircle
 10
4414.500128050111
 20
294.3646111988181
 30
0.0
 40
3.75
  0
CIRCLE
  5
27B
330
1F
100
AcDbEntity
  8
0-5_ダボ
  6
Continuous
 62
     7
370
     9
100
AcDbCircle
 10
4909.500128050111
 20
294.3646111988181
 30
0.0
 40
3.75
  0
LINE
  5
27C
330
1F
100
AcDbEntity
  8
0-0_補助線
  6
JWW_HOJO
 62
     7
370
     9
100
AcDbLine
 10
4374.00012805011
 20
249.3646111988181
 30
0.0
 11
4959.00012805011
 21
249.3646111988181
 31
0.0
  0
CIRCLE
  5
27D
330
1F
100
AcDbEntity
  8
0-5_ダボ
  6
Continuous
 62
     7
370
     9
100
AcDbCircle
 10
4414.500128050111
 20
249.3646111988181
 30
0.0
 40
3.75
  0
CIRCLE
  5
27E
330
1F
100
AcDbEntity
  8
0-5_ダボ
  6
Continuous
 62
     7
370
     9
100
AcDbCircle
 10
4909.500128050111
 20
249.3646111988181
 30
0.0
 40
3.75
  0
LINE
  5
27F
330
1F
100
AcDbEntity
  8
0-0_補助線
  6
JWW_HOJO
 62
     7
370
     9
100
AcDbLine
 10
4374.00012805011
 20
204.3646111988181
 30
0.0
 11
4959.00012805011
 21
204.3646111988181
 31
0.0
  0
CIRCLE
  5
280
330
1F
100
AcDbEntity
  8
0-5_ダボ
  6
Continuous
 62
     7
370
     9
100
AcDbCircle
 10
4414.500128050111
 20
204.3646111988181
 30
0.0
 40
3.75
  0
CIRCLE
  5
281
330
1F
100
AcDbEntity
  8
0-5_ダボ
  6
Continuous
 62
     7
370
     9
100
AcDbCircle
 10
4909.500128050111
 20
204.3646111988181
 30
0.0
 40
3.75
  0
LINE
  5
282
330
1F
100
AcDbEntity
  8
0-0_補助線
  6
JWW_HOJO
 62
     7
370
     9
100
AcDbLine
 10
4374.00012805011
 20
159.3646111988181
 30
0.0
 11
4959.00012805011
 21
159.3646111988181
 31
0.0
  0
CIRCLE
  5
283
330
1F
100
AcDbEntity
  8
0-5_ダボ
  6
Continuous
 62
     7
370
     9
100
AcDbCircle
 10
4414.500128050111
 20
159.3646111988181
 30
0.0
 40
3.75
  0
CIRCLE
  5
284
330
1F
100
AcDbEntity
  8
0-5_ダボ
  6
Continuous
 62
     7
370
     9
100
AcDbCircle
 10
4909.500128050111
 20
159.3646111988181
 30
0.0
 40
3.75
  0
LINE
  5
285
330
1F
100
AcDbEntity
  8
0-0_補助線
  6
JWW_HOJO
 62
     7
370
     9
100
AcDbLine
 10
4374.00012805011
 20
114.3646111988181
 30
0.0
 11
4959.00012805011
 21
114.3646111988181
 31
0.0
  0
CIRCLE
  5
286
330
1F
100
AcDbEntity
  8
0-5_ダボ
  6
Continuous
 62
     7
370
     9
100
AcDbCircle
 10
4414.500128050111
 20
114.3646111988181
 30
0.0
 40
3.75
  0
CIRCLE
  5
287
330
1F
100
AcDbEntity
  8
0-5_ダボ
  6
Continuous
 62
     7
370
     9
100
AcDbCircle
 10
4909.500128050111
 20
114.3646111988181
 30
0.0
 40
3.75
  0
LINE
  5
288
330
1F
100
AcDbEntity
  8
0-0_補助線
  6
JWW_HOJO
 62
     7
370
     9
100
AcDbLine
 10
4374.00012805011
 20
69.36461119881812
 30
0.0
 11
4959.00012805011
 21
69.36461119881812
 31
0.0
  0
CIRCLE
  5
289
330
1F
100
AcDbEntity
  8
0-5_ダボ
  6
Continuous
 62
     7
370
     9
100
AcDbCircle
 10
4414.500128050111
 20
69.36461119881812
 30
0.0
 40
3.75
  0
CIRCLE
  5
28A
330
1F
100
AcDbEntity
  8
0-5_ダボ
  6
Continuous
 62
     7
370
     9
100
AcDbCircle
 10
4909.500128050111
 20
69.36461119881812
 30
0.0
 40
3.75
  0
LINE
  5
28B
330
1F
100
AcDbEntity
  8
0-0_補助線
  6
JWW_HOJO
 62
     7
370
     9
100
AcDbLine
 10
4374.00012805011
 20
24.36461119881812
 30
0.0
 11
4959.00012805011
 21
24.36461119881812
 31
0.0
  0
CIRCLE
  5
28C
330
1F
100
AcDbEntity
  8
0-5_ダボ
  6
Continuous
 62
     7
370
     9
100
AcDbCircle
 10
4414.500128050111
 20
24.36461119881812
 30
0.0
 40
3.75
  0
CIRCLE
  5
28D
330
1F
100
AcDbEntity
  8
0-5_ダボ
  6
Continuous
 62
     7
370
     9
100
AcDbCircle
 10
4909.500128050111
 20
24.36461119881812
 30
0.0
 40
3.75
  0
LINE
  5
28E
330
1F
100
AcDbEntity
  8
0-0_補助線
  6
JWW_HOJO
 62
     7
370
     9
100
AcDbLine
 10
4374.00012805011
 20
-20.63538880118188
 30
0.0
 11
4959.00012805011
 21
-20.63538880118188
 31
0.0
  0
CIRCLE
  5
28F
330
1F
100
AcDbEntity
  8
0-5_ダボ
  6
Continuous
 62
     7
370
     9
100
AcDbCircle
 10
4414.500128050111
 20
-20.63538880118188
 30
0.0
 40
3.75
  0
CIRCLE
  5
290
330
1F
100
AcDbEntity
  8
0-5_ダボ
  6
Continuous
 62
     7
370
     9
100
AcDbCircle
 10
4909.500128050111
 20
-20.63538880118188
 30
0.0
 40
3.75
  0
LINE
  5
291
330
1F
100
AcDbEntity
  8
0-0_補助線
  6
JWW_HOJO
 62
     7
370
     9
100
AcDbLine
 10
4374.00012805011
 20
-65.63538880118188
 30
0.0
 11
4959.00012805011
 21
-65.63538880118188
 31
0.0
  0
CIRCLE
  5
292
330
1F
100
AcDbEntity
  8
0-5_ダボ
  6
Continuous
 62
     7
370
     9
100
AcDbCircle
 10
4414.500128050111
 20
-65.63538880118188
 30
0.0
 40
3.75
  0
CIRCLE
  5
293
330
1F
100
AcDbEntity
  8
0-5_ダボ
  6
Continuous
 62
     7
370
     9
100
AcDbCircle
 10
4909.500128050111
 20
-65.63538880118188
 30
0.0
 40
3.75
  0
LINE
  5
294
330
1F
100
AcDbEntity
  8
0-0_補助線
  6
JWW_HOJO
 62
     7
370
     9
100
AcDbLine
 10
4374.00012805011
 20
-110.6353888011819
 30
0.0
 11
4959.00012805011
 21
-110.6353888011819
 31
0.0
  0
CIRCLE
  5
295
330
1F
100
AcDbEntity
  8
0-5_ダボ
  6
Continuous
 62
     7
370
     9
100
AcDbCircle
 10
4414.500128050111
 20
-110.6353888011819
 30
0.0
 40
3.75
  0
CIRCLE
  5
296
330
1F
100
AcDbEntity
  8
0-5_ダボ
  6
Continuous
 62
     7
370
     9
100
AcDbCircle
 10
4909.500128050111
 20
-110.6353888011819
 30
0.0
 40
3.75
  0
LINE
  5
297
330
1F
100
AcDbEntity
  8
0-0_補助線
  6
JWW_HOJO
 62
     7
370
     9
100
AcDbLine
 10
4374.00012805011
 20
-155.6353888011819
 30
0.0
 11
4959.00012805011
 21
-155.6353888011819
 31
0.0
  0
CIRCLE
  5
298
330
1F
100
AcDbEntity
  8
0-5_ダボ
  6
Continuous
 62
     7
370
     9
100
AcDbCircle
 10
4414.500128050111
 20
-155.6353888011819
 30
0.0
 40
3.75
  0
CIRCLE
  5
299
330
1F
100
AcDbEntity
  8
0-5_ダボ
  6
Continuous
 62
     7
370
     9
100
AcDbCircle
 10
4909.500128050111
 20
-155.6353888011819
 30
0.0
 40
3.75
  0
LINE
  5
29A
330
1F
100
AcDbEntity
  8
0-0_補助線
  6
JWW_HOJO
 62
     7
370
     9
100
AcDbLine
 10
4374.00012805011
 20
-200.6353888011819
 30
0.0
 11
4959.00012805011
 21
-200.6353888011819
 31
0.0
  0
CIRCLE
  5
29B
330
1F
100
AcDbEntity
  8
0-5_ダボ
  6
Continuous
 62
     7
370
     9
100
AcDbCircle
 10
4414.500128050111
 20
-200.6353888011819
 30
0.0
 40
3.75
  0
CIRCLE
  5
29C
330
1F
100
AcDbEntity
  8
0-5_ダボ
  6
Continuous
 62
     7
370
     9
100
AcDbCircle
 10
4909.500128050111
 20
-200.6353888011819
 30
0.0
 40
3.75
  0
LINE
  5
29D
330
1F
100
AcDbEntity
  8
0-0_補助線
  6
JWW_HOJO
 62
     7
370
     9
100
AcDbLine
 10
4374.00012805011
 20
-245.6353888011819
 30
0.0
 11
4959.00012805011
 21
-245.6353888011819
 31
0.0
  0
CIRCLE
  5
29E
330
1F
100
AcDbEntity
  8
0-5_ダボ
  6
Continuous
 62
     7
370
     9
100
AcDbCircle
 10
4414.500128050111
 20
-245.6353888011819
 30
0.0
 40
3.75
  0
CIRCLE
  5
29F
330
1F
100
AcDbEntity
  8
0-5_ダボ
  6
Continuous
 62
     7
370
     9
100
AcDbCircle
 10
4909.500128050111
 20
-245.6353888011819
 30
0.0
 40
3.75
  0
LINE
  5
2A0
330
1F
100
AcDbEntity
  8
0-0_補助線
  6
JWW_HOJO
 62
     7
370
     9
100
AcDbLine
 10
4374.00012805011
 20
-290.6353888011819
 30
0.0
 11
4959.00012805011
 21
-290.6353888011819
 31
0.0
  0
CIRCLE
  5
2A1
330
1F
100
AcDbEntity
  8
0-5_ダボ
  6
Continuous
 62
     7
370
     9
100
AcDbCircle
 10
4414.500128050111
 20
-290.6353888011819
 30
0.0
 40
3.75
  0
CIRCLE
  5
2A2
330
1F
100
AcDbEntity
  8
0-5_ダボ
  6
Continuous
 62
     7
370
     9
100
AcDbCircle
 10
4909.500128050111
 20
-290.6353888011819
 30
0.0
 40
3.75
  0
LINE
  5
2A3
330
1F
100
AcDbEntity
  8
0-0_補助線
  6
JWW_HOJO
 62
     7
370
     9
100
AcDbLine
 10
4374.00012805011
 20
699.3646111988181
 30
0.0
 11
4959.00012805011
 21
699.3646111988181
 31
0.0
  0
CIRCLE
  5
2A4
330
1F
100
AcDbEntity
  8
0-5_ダボ
  6
Continuous
 62
     7
370
     9
100
AcDbCircle
 10
4414.500128050111
 20
699.3646111988181
 30
0.0
 40
3.75
  0
CIRCLE
  5
2A5
330
1F
100
AcDbEntity
  8
0-5_ダボ
  6
Continuous
 62
     7
370
     9
100
AcDbCircle
 10
4909.500128050111
 20
699.3646111988181
 30
0.0
 40
3.75
  0
LINE
  5
2A6
330
1F
100
AcDbEntity
  8
0-1_本体
  6
Continuous
 62
     7
370
     9
100
AcDbLine
 10
4985.25012805011
 20
1020.364611198818
 30
0.0
 11
4985.25012805011
 21
-611.6353888011811
 31
0.0
  0
LINE
  5
2A7
330
1F
100
AcDbEntity
  8
0-1_本体
  6
Continuous
 62
    40
370
    15
100
AcDbLine
 10
4959.00012805011
 20
-611.6353888011811
 30
0.0
 11
4985.25012805011
 21
-611.6353888011811
 31
0.0
  0
LINE
  5
2A8
330
1F
100
AcDbEntity
  8
0-1_本体
  6
Continuous
 62
    40
370
    15
100
AcDbLine
 10
4962.75012805011
 20
-611.6353888011811
 30
0.0
 11
4962.75012805011
 21
1020.364611198818
 31
0.0
  0
LINE
  5
2A9
330
1F
100
AcDbEntity
  8
0-1_本体
  6
Continuous
 62
    40
370
    15
100
AcDbLine
 10
4959.00012805011
 20
-613.1353888011819
 30
0.0
 11
4959.00012805011
 21
1021.864611198818
 31
0.0
  0
LINE
  5
2AA
330
1F
100
AcDbEntity
  8
0-1_本体
  6
Continuous
 62
    40
370
    15
100
AcDbLine
 10
4959.00012805011
 20
1020.364611198818
 30
0.0
 11
4985.25012805011
 21
1020.364611198818
 31
0.0
  0
LINE
  5
2AB
330
1F
100
AcDbEntity
  8
0-1_本体
  6
Continuous
 62
    40
370
    15
100
AcDbLine
 10
4959.00012805011
 20
-613.1353888011819
 30
0.0
 11
4986.000128050109
 21
-613.1353888011819
 31
0.0
  0
LINE
  5
2AC
330
1F
100
AcDbEntity
  8
0-1_本体
  6
Continuous
 62
    40
370
    15
100
AcDbLine
 10
4374.00012805011
 20
-597.3853888011826
 30
0.0
 11
4959.00012805011
 21
-597.3853888011826
 31
0.0
  0
LINE
  5
2AD
330
1F
100
AcDbEntity
  8
0-1_本体
  6
Continuous
 62
    40
370
    15
100
AcDbLine
 10
4986.000128050109
 20
-620.6353888011819
 30
0.0
 11
4986.000128050109
 21
-613.1353888011819
 31
0.0
  0
LINE
  5
2AE
330
1F
100
AcDbEntity
  8
0-1_本体
  6
Continuous
 62
    40
370
    15
100
AcDbLine
 10
4374.00012805011
 20
-620.6353888011819
 30
0.0
 11
4986.000128050109
 21
-620.6353888011819
 31
0.0
  0
LINE
  5
2AF
330
1F
100
AcDbEntity
  8
0-1_本体
  6
Continuous
 62
    40
370
    15
100
AcDbLine
 10
4959.00012805011
 20
1006.114611198818
 30
0.0
 11
4374.00012805011
 21
1006.114611198818
 31
0.0
  0
LINE
  5
2B0
330
1F
100
AcDbEntity
  8
0-1_本体
  6
Continuous
 62
    40
370
    15
100
AcDbLine
 10
4374.00012805011
 20
1029.364611198818
 30
0.0
 11
4986.000128050109
 21
1029.364611198818
 31
0.0
  0
LINE
  5
2B1
330
1F
100
AcDbEntity
  8
0-1_本体
  6
Continuous
 62
    40
370
    15
100
AcDbLine
 10
4959.00012805011
 20
1021.864611198818
 30
0.0
 11
4986.000128050109
 21
1021.864611198818
 31
0.0
  0
LINE
  5
2B2
330
1F
100
AcDbEntity
  8
0-1_本体
  6
Continuous
 62
    40
370
    15
100
AcDbLine
 10
4986.000128050109
 20
1021.864611198818
 30
0.0
 11
4986.000128050109
 21
1029.364611198818
 31
0.0
  0
LINE
  5
2B3
330
1F
100
AcDbEntity
  8
0-1_本体
  6
Continuous
 62
    40
370
    15
100
AcDbLine
 10
4374.00012805011
 20
-597.3853888011826
 30
0.0
 11
4374.00012805011
 21
-620.6353888011819
 31
0.0
  0
LINE
  5
2B4
330
1F
100
AcDbEntity
  8
0-1_本体
  6
Continuous
 62
    40
370
    15
100
AcDbLine
 10
4374.00012805011
 20
1029.364611198818
 30
0.0
 11
4374.00012805011
 21
1006.114611198818
 31
0.0
  0
LINE
  5
2B5
330
1F
100
AcDbEntity
  8
0-0_補助線
  6
JWW_HOJO
 62
     7
370
     9
100
AcDbLine
 10
4909.500128050111
 20
-597.3853888011826
 30
0.0
 11
4909.500128050111
 21
1006.114611198818
 31
0.0
  0
LINE
  5
2B6
330
1F
100
AcDbEntity
  8
0-0_補助線
  6
JWW_HOJO
 62
     7
370
     9
100
AcDbLine
 10
4414.500128050111
 20
-597.3853888011826
 30
0.0
 11
4414.500128050111
 21
1006.114611198818
 31
0.0
  0
TEXT
  5
2B7
330
1F
100
AcDbEntity
  8
0-B_寸法
  6
Continuous
 62
     7
370
   211
100
AcDbText
 10
5183.310119875759
 20
129.3646111988181
 30
0.0
 40
68.58
  1
660
 50
90.0
 41
1.111111111111111
  7
ＭＳ ゴシック
100
AcDbText
  0
TEXT
  5
2B8
330
1F
100
AcDbEntity
  8
0-B_寸法
  6
Continuous
 62
     7
370
   211
100
AcDbText
 10
4537.843058691548
 20
507.4396111988181
 30
0.0
 40
57.15000000000001
  1
P30
 41
0.9999999999999999
  7
ＭＳ ゴシック
100
AcDbText
  0
TEXT
  5
2B9
330
1F
100
AcDbEntity
  8
0-B_寸法
  6
Continuous
 62
     7
370
   211
100
AcDbText
 10
5183.310119875759
 20
789.3646111988181
 30
0.0
 40
68.58
  1
220
 50
90.0
 41
1.111111111111111
  7
ＭＳ ゴシック
100
AcDbText
  0
TEXT
  5
2BA
330
1F
100
AcDbEntity
  8
0-B_寸法
  6
Continuous
 62
     7
370
   211
100
AcDbText
 10
4923.750128050112
 20
845.0617122307788
 30
0.0
 40
68.58
  1
18
 41
1.083333333333333
  7
ＭＳ ゴシック
100
AcDbText
  0
TEXT
  5
2BB
330
1F
100
AcDbEntity
  8
0-B_寸法
  6
Continuous
 62
     7
370
   211
100
AcDbText
 10
4121.310119875759
 20
1005.364611198818
 30
0.0
 40
68.58
  1
2
 50
90.0
  7
ＭＳ ゴシック
100
AcDbText
  0
TEXT
  5
2BC
330
1F
100
AcDbEntity
  8
0-B_寸法
  6
Continuous
 62
     7
370
   211
100
AcDbText
 10
4899.00012805011
 20
1282.054611198818
 30
0.0
 40
68.58
  1
51
 41
1.083333333333333
  7
ＭＳ ゴシック
100
AcDbText
  0
TEXT
  5
2BD
330
1F
100
AcDbEntity
  8
0-B_寸法
  6
Continuous
 62
     7
370
   211
100
AcDbText
 10
4345.500128050114
 20
1282.054611198818
 30
0.0
 40
68.58
  1
27
 41
1.083333333333258
  7
ＭＳ ゴシック
100
AcDbText
  0
LINE
  5
2BE
330
1F
100
AcDbEntity
  8
0-0_補助線
  6
JWW_HOJO
 62
   120
370
     5
100
AcDbLine
 10
4299.000119875759
 20
-695.6353888011819
 30
0.0
 11
5061.000119875759
 21
-695.6353888011819
 31
0.0
  0
LINE
  5
2BF
330
1F
100
AcDbEntity
  8
0-0_補助線
  6
JWW_HOJO
 62
   120
370
     5
100
AcDbLine
 10
5061.000119875759
 20
1104.364611198818
 30
0.0
 11
4299.000119875759
 21
1104.364611198818
 31
0.0
  0
LINE
  5
2C0
330
1F
100
AcDbEntity
  8
0-0_補助線
  6
JWW_HOJO
 62
   120
370
     5
100
AcDbLine
 10
5061.000119875759
 20
-695.6353888011819
 30
0.0
 11
5061.000119875759
 21
1104.364611198818
 31
0.0
  0
LINE
  5
2C1
330
1F
100
AcDbEntity
  8
0-0_補助線
  6
JWW_HOJO
 62
   120
370
     5
100
AcDbLine
 10
4299.000119875759
 20
1104.364611198818
 30
0.0
 11
4299.000119875759
 21
-695.6353888011819
 31
0.0
  0
TEXT
  5
2C2
330
1F
100
AcDbEntity
  8
0-B_寸法
  6
Continuous
 62
     7
370
   211
100
AcDbText
 10
4091.309666928325
 20
-1879.885018171678
 30
0.0
 40
68.58
  1
ＤＨ＝361
 50
90.0
 41
0.8888888888888888
  7
ＭＳ ゴシック
100
AcDbText
  0
TEXT
  5
2C3
330
1F
100
AcDbEntity
  8
0-B_寸法
  6
Continuous
 62
     7
370
   211
100
AcDbText
 10
4091.309666928325
 20
-2120.634536150065
 30
0.0
 40
68.58
  1
100
 50
90.0
 41
1.111111111111111
  7
ＭＳ ゴシック
100
AcDbText
  0
LINE
  5
2C4
330
1F
100
AcDbEntity
  8
0-B_寸法
  6
Continuous
 62
   120
370
     5
100
AcDbLine
 10
4118.999666928325
 20
-2120.634725043858
 30
0.0
 11
4268.999666928325
 21
-2120.634725043858
 31
0.0
  0
LWPOLYLINE
  5
2C5
330
1F
100
AcDbEntity
  8
0-B_寸法
  6
Continuous
 62
     7
370
     9
100
AcDbPolyline
 90
        4
 70
     1
 43
3.0
 10
4120.499666928326
 20
-2120.634725043858
 42
0.4142135623731
 10
4118.999666928325
 20
-2119.134725043858
 42
0.4142135623731
 10
4117.499666928325
 20
-2120.634725043858
 42
0.4142135623731
 10
4118.999666928325
 20
-2122.134725043858
 42
0.4142135623731
  0
LINE
  5
2C6
330
1F
100
AcDbEntity
  8
0-B_寸法
  6
Continuous
 62
   120
370
     5
100
AcDbLine
 10
4118.999666928325
 20
-1970.634347256273
 30
0.0
 11
4118.999666928325
 21
-2120.634725043858
 31
0.0
  0
LINE
  5
2C7
330
1F
100
AcDbEntity
  8
0-B_寸法
  6
Continuous
 62
   120
370
     5
100
AcDbLine
 10
4118.999666928325
 20
-1970.634347256273
 30
0.0
 11
4268.999666928325
 21
-1970.634347256273
 31
0.0
  0
LWPOLYLINE
  5
2C8
330
1F
100
AcDbEntity
  8
0-B_寸法
  6
Continuous
 62
     7
370
     9
100
AcDbPolyline
 90
        4
 70
     1
 43
3.0
 10
4120.499666928326
 20
-1970.634347256273
 42
0.4142135623731
 10
4118.999666928325
 20
-1969.134347256273
 42
0.4142135623731
 10
4117.499666928325
 20
-1970.634347256273
 42
0.4142135623731
 10
4118.999666928325
 20
-1972.134347256272
 42
0.4142135623731
  0
LINE
  5
2C9
330
1F
100
AcDbEntity
  8
0-B_寸法
  6
Continuous
 62
   120
370
     5
100
AcDbLine
 10
4118.999666928325
 20
-1429.135689087082
 30
0.0
 11
4118.999666928325
 21
-1970.634347256273
 31
0.0
  0
TEXT
  5
2CA
330
1F
100
AcDbEntity
  8
0-B_寸法
  6
Continuous
 62
     7
370
   211
100
AcDbText
 10
4091.309666928325
 20
-1449.385538944132
 30
0.0
 40
68.58
  1
3
 50
90.0
  7
ＭＳ ゴシック
100
AcDbText
  0
LINE
  5
2CB
330
1F
100
AcDbEntity
  8
0-B_寸法
  6
Continuous
 62
   120
370
     5
100
AcDbLine
 10
4118.999666928325
 20
-1429.135689087082
 30
0.0
 11
4268.999666928325
 21
-1429.135689087082
 31
0.0
  0
LINE
  5
2CC
330
1F
100
AcDbEntity
  8
0-B_寸法
  6
Continuous
 62
   120
370
     5
100
AcDbLine
 10
4118.999666928325
 20
-1424.635388801182
 30
0.0
 11
4268.999666928325
 21
-1424.635388801182
 31
0.0
  0
LWPOLYLINE
  5
2CD
330
1F
100
AcDbEntity
  8
0-B_寸法
  6
Continuous
 62
     7
370
     9
100
AcDbPolyline
 90
        4
 70
     1
 43
3.0
 10
4120.499666928326
 20
-1429.135689087082
 42
0.4142135623731
 10
4118.999666928325
 20
-1427.635689087082
 42
0.4142135623731
 10
4117.499666928325
 20
-1429.135689087082
 42
0.4142135623731
 10
4118.999666928325
 20
-1430.635689087082
 42
0.4142135623731
  0
LWPOLYLINE
  5
2CE
330
1F
100
AcDbEntity
  8
0-B_寸法
  6
Continuous
 62
     7
370
     9
100
AcDbPolyline
 90
        4
 70
     1
 43
3.0
 10
4120.499666928326
 20
-1424.635388801182
 42
0.4142135623731
 10
4118.999666928325
 20
-1423.135388801182
 42
0.4142135623731
 10
4117.499666928325
 20
-1424.635388801182
 42
0.4142135623731
 10
4118.999666928325
 20
-1426.135388801182
 42
0.4142135623731
  0
LINE
  5
2CF
330
1F
100
AcDbEntity
  8
0-B_寸法
  6
Continuous
 62
   120
370
     5
100
AcDbLine
 10
4118.999666928325
 20
-1424.635388801182
 30
0.0
 11
4118.999666928325
 21
-1429.135689087082
 31
0.0
  0
TEXT
  5
2D0
330
1F
100
AcDbEntity
  8
0-B_寸法
  6
Continuous
 62
     7
370
   211
100
AcDbText
 10
5183.31012805011
 20
-2012.63505692252
 30
0.0
 40
68.58
  1
244
 50
90.0
 41
1.111111111111111
  7
ＭＳ ゴシック
100
AcDbText
  0
LINE
  5
2D1
330
1F
100
AcDbEntity
  8
0-B_寸法
  6
Continuous
 62
   120
370
     5
100
AcDbLine
 10
5211.000128050109
 20
-2120.634725043858
 30
0.0
 11
5061.000128050109
 21
-2120.634725043858
 31
0.0
  0
LWPOLYLINE
  5
2D2
330
1F
100
AcDbEntity
  8
0-B_寸法
  6
Continuous
 62
     7
370
     9
100
AcDbPolyline
 90
        4
 70
     1
 43
3.0
 10
5212.50012805011
 20
-2120.634725043858
 42
0.4142135623731
 10
5211.000128050109
 20
-2119.134725043858
 42
0.4142135623731
 10
5209.500128050109
 20
-2120.634725043858
 42
0.4142135623731
 10
5211.000128050109
 20
-2122.134725043858
 42
0.4142135623731
  0
LINE
  5
2D3
330
1F
100
AcDbEntity
  8
0-B_寸法
  6
Continuous
 62
   120
370
     5
100
AcDbLine
 10
5211.000128050109
 20
-1754.635388801182
 30
0.0
 11
5211.000128050109
 21
-2120.634725043858
 31
0.0
  0
TEXT
  5
2D4
330
1F
100
AcDbEntity
  8
0-B_寸法
  6
Continuous
 62
     7
370
   211
100
AcDbText
 10
5183.31012805011
 20
-1758.385388801182
 30
0.0
 40
68.58
  1
60
 50
90.0
 41
1.083333333333333
  7
ＭＳ ゴシック
100
AcDbText
  0
LINE
  5
2D5
330
1F
100
AcDbEntity
  8
0-B_寸法
  6
Continuous
 62
   120
370
     5
100
AcDbLine
 10
5211.000128050109
 20
-1754.635388801182
 30
0.0
 11
5061.000128050109
 21
-1754.635388801182
 31
0.0
  0
LWPOLYLINE
  5
2D6
330
1F
100
AcDbEntity
  8
0-B_寸法
  6
Continuous
 62
     7
370
     9
100
AcDbPolyline
 90
        4
 70
     1
 43
3.0
 10
5212.50012805011
 20
-1754.635388801182
 42
0.4142135623731
 10
5211.000128050109
 20
-1753.135388801182
 42
0.4142135623731
 10
5209.500128050109
 20
-1754.635388801182
 42
0.4142135623731
 10
5211.000128050109
 20
-1756.135388801182
 42
0.4142135623731
  0
LINE
  5
2D7
330
1F
100
AcDbEntity
  8
0-B_寸法
  6
Continuous
 62
   120
370
     5
100
AcDbLine
 10
5211.000128050109
 20
-1664.635388801182
 30
0.0
 11
5211.000128050109
 21
-1754.635388801182
 31
0.0
  0
TEXT
  5
2D8
330
1F
100
AcDbEntity
  8
0-B_寸法
  6
Continuous
 62
     7
370
   211
100
AcDbText
 10
5183.31012805011
 20
-1619.635388801182
 30
0.0
 40
68.58
  1
160
 50
90.0
 41
1.111111111111111
  7
ＭＳ ゴシック
100
AcDbText
  0
LINE
  5
2D9
330
1F
100
AcDbEntity
  8
0-B_寸法
  6
Continuous
 62
   120
370
     5
100
AcDbLine
 10
5211.000128050109
 20
-1664.635388801182
 30
0.0
 11
5061.000128050109
 21
-1664.635388801182
 31
0.0
  0
LINE
  5
2DA
330
1F
100
AcDbEntity
  8
0-B_寸法
  6
Continuous
 62
   120
370
     5
100
AcDbLine
 10
5211.000128050109
 20
-1424.635388801182
 30
0.0
 11
5061.000128050109
 21
-1424.635388801182
 31
0.0
  0
LWPOLYLINE
  5
2DB
330
1F
100
AcDbEntity
  8
0-B_寸法
  6
Continuous
 62
     7
370
     9
100
AcDbPolyline
 90
        4
 70
     1
 43
3.0
 10
5212.50012805011
 20
-1664.635388801182
 42
0.4142135623731
 10
5211.000128050109
 20
-1663.135388801182
 42
0.4142135623731
 10
5209.500128050109
 20
-1664.635388801182
 42
0.4142135623731
 10
5211.000128050109
 20
-1666.135388801182
 42
0.4142135623731
  0
LWPOLYLINE
  5
2DC
330
1F
100
AcDbEntity
  8
0-B_寸法
  6
Continuous
 62
     7
370
     9
100
AcDbPolyline
 90
        4
 70
     1
 43
3.0
 10
5212.50012805011
 20
-1424.635388801182
 42
0.4142135623731
 10
5211.000128050109
 20
-1423.135388801182
 42
0.4142135623731
 10
5209.500128050109
 20
-1424.635388801182
 42
0.4142135623731
 10
5211.000128050109
 20
-1426.135388801182
 42
0.4142135623731
  0
LINE
  5
2DD
330
1F
100
AcDbEntity
  8
0-B_寸法
  6
Continuous
 62
   120
370
     5
100
AcDbLine
 10
5211.000128050109
 20
-1424.635388801182
 30
0.0
 11
5211.000128050109
 21
-1664.635388801182
 31
0.0
  0
LINE
  5
2DE
330
1F
100
AcDbEntity
  8
0-0_補助線
  6
JWW_HOJO
 62
   120
370
     5
100
AcDbLine
 10
5061.000128050109
 20
-2195.634725043858
 30
0.0
 11
4268.999666928325
 21
-2195.634725043858
 31
0.0
  0
LINE
  5
2DF
330
1F
100
AcDbEntity
  8
0-0_補助線
  6
JWW_HOJO
 62
   120
370
     5
100
AcDbLine
 10
4268.999666928325
 20
-1295.635388801182
 30
0.0
 11
5061.000128050109
 21
-1295.635388801182
 31
0.0
  0
LINE
  5
2E0
330
1F
100
AcDbEntity
  8
0-0_補助線
  6
JWW_HOJO
 62
   120
370
     5
100
AcDbLine
 10
5061.000128050109
 20
-1295.635388801182
 30
0.0
 11
5061.000128050109
 21
-2195.634725043858
 31
0.0
  0
LINE
  5
2E1
330
1F
100
AcDbEntity
  8
0-0_補助線
  6
JWW_HOJO
 62
   120
370
     5
100
AcDbLine
 10
4268.999666928325
 20
-2195.634725043858
 30
0.0
 11
4268.999666928325
 21
-1295.635388801182
 31
0.0
  0
LINE
  5
2E2
330
1F
100
AcDbEntity
  8
0-6_桟木
  6
Continuous
 62
    40
370
    15
100
AcDbLine
 10
4986.000128050109
 20
-1370.635388801182
 30
0.0
 11
4986.000128050109
 21
-1424.635388801182
 31
0.0
  0
LWPOLYLINE
  5
2E3
330
1F
100
AcDbEntity
  8
0-B_寸法
  6
Continuous
 62
     7
370
     9
100
AcDbPolyline
 90
        4
 70
     1
 43
3.0
 10
4987.50012805011
 20
-1145.635388801182
 42
0.4142135623731
 10
4986.000128050109
 20
-1144.135388801182
 42
0.4142135623731
 10
4984.500128050109
 20
-1145.635388801182
 42
0.4142135623731
 10
4986.000128050109
 20
-1147.135388801182
 42
0.4142135623731
  0
LINE
  5
2E4
330
1F
100
AcDbEntity
  8
0-B_寸法
  6
Continuous
 62
   120
370
     5
100
AcDbLine
 10
4986.000128050109
 20
-1145.635388801182
 30
0.0
 11
4986.000128050109
 21
-1295.635388801182
 31
0.0
  0
LINE
  5
2E5
330
1F
100
AcDbEntity
  8
0-B_寸法
  6
Continuous
 62
   120
370
     5
100
AcDbLine
 10
4344.00012805011
 20
1404.364611198818
 30
0.0
 11
4986.000128050109
 21
1404.364611198818
 31
0.0
  0
LWPOLYLINE
  5
2E6
330
1F
100
AcDbEntity
  8
0-B_寸法
  6
Continuous
 62
     7
370
     9
100
AcDbPolyline
 90
        4
 70
     1
 43
3.0
 10
4345.50012805011
 20
1404.364611198818
 42
0.4142135623731
 10
4344.00012805011
 20
1405.864611198818
 42
0.4142135623731
 10
4342.50012805011
 20
1404.364611198818
 42
0.4142135623731
 10
4344.00012805011
 20
1402.864611198818
 42
0.4142135623731
  0
LWPOLYLINE
  5
2E7
330
1F
100
AcDbEntity
  8
0-B_寸法
  6
Continuous
 62
     7
370
     9
100
AcDbPolyline
 90
        4
 70
     1
 43
3.0
 10
4987.50012805011
 20
1404.364611198818
 42
0.4142135623731
 10
4986.000128050109
 20
1405.864611198818
 42
0.4142135623731
 10
4984.500128050109
 20
1404.364611198818
 42
0.4142135623731
 10
4986.000128050109
 20
1402.864611198818
 42
0.4142135623731
  0
LINE
  5
2E8
330
1F
100
AcDbEntity
  8
0-B_寸法
  6
Continuous
 62
   120
370
     5
100
AcDbLine
 10
4344.00012805011
 20
1404.364611198818
 30
0.0
 11
4344.00012805011
 21
1104.364611198818
 31
0.0
  0
TEXT
  5
2E9
330
1F
100
AcDbEntity
  8
0-B_寸法
  6
Continuous
 62
     7
370
   211
100
AcDbText
 10
4590.000128050108
 20
1432.054611198818
 30
0.0
 40
68.58
  1
428
 41
1.111111111111111
  7
ＭＳ ゴシック
100
AcDbText
  0
TEXT
  5
2EA
330
1F
100
AcDbEntity
  8
0-A_文字
  6
Continuous
 62
     7
370
     9
100
AcDbText
 10
-3546.00074055204
 20
-2801.214725043858
 30
0.0
 40
91.44
  1
扉正面図・
 41
1.1
  7
ＭＳ ゴシック
100
AcDbText
  0
LINE
  5
2EB
330
1F
100
AcDbEntity
  8
0-A_文字
  6
Continuous
 62
     7
370
     9
100
AcDbLine
 10
-3816.00074055204
 20
-2645.634725043858
 30
0.0
 11
-3816.00074055204
 21
-2870.634725043858
 31
0.0
  0
LINE
  5
2EC
330
1F
100
AcDbEntity
  8
0-A_文字
  6
Continuous
 62
     7
370
     9
100
AcDbLine
 10
-2616.00074055204
 20
-2645.634725043858
 30
0.0
 11
-3816.00074055204
 21
-2645.634725043858
 31
0.0
  0
LINE
  5
2ED
330
1F
100
AcDbEntity
  8
0-A_文字
  6
Continuous
 62
     7
370
     9
100
AcDbLine
 10
-2616.00074055204
 20
-2870.634725043858
 30
0.0
 11
-2616.00074055204
 21
-2645.634725043858
 31
0.0
  0
LINE
  5
2EE
330
1F
100
AcDbEntity
  8
0-A_文字
  6
Continuous
 62
     7
370
     9
100
AcDbLine
 10
-3816.00074055204
 20
-2870.634725043858
 30
0.0
 11
-2616.00074055204
 21
-2870.634725043858
 31
0.0
  0
LINE
  5
2EF
330
1F
100
AcDbEntity
  8
0-A_文字
  6
Continuous
 62
     7
370
     9
100
AcDbLine
 10
923.9996457191955
 20
-2645.634725043858
 30
0.0
 11
923.9996457191955
 21
-2870.634725043858
 31
0.0
  0
LINE
  5
2F0
330
1F
100
AcDbEntity
  8
0-A_文字
  6
Continuous
 62
     7
370
     9
100
AcDbLine
 10
2123.999645719196
 20
-2645.634725043858
 30
0.0
 11
923.9996457191955
 21
-2645.634725043858
 31
0.0
  0
LINE
  5
2F1
330
1F
100
AcDbEntity
  8
0-A_文字
  6
Continuous
 62
     7
370
     9
100
AcDbLine
 10
2123.999645719196
 20
-2870.634725043858
 30
0.0
 11
2123.999645719196
 21
-2645.634725043858
 31
0.0
  0
LINE
  5
2F2
330
1F
100
AcDbEntity
  8
0-A_文字
  6
Continuous
 62
     7
370
     9
100
AcDbLine
 10
923.9996457191955
 20
-2870.634725043858
 30
0.0
 11
2123.999645719196
 21
-2870.634725043858
 31
0.0
  0
TEXT
  5
2F3
330
1F
100
AcDbEntity
  8
0-A_文字
  6
Continuous
 62
     7
370
     9
100
AcDbText
 10
1058.999645719196
 20
-2801.214725043858
 30
0.0
 40
91.44
  1
キャビネット図
 41
1.107142857142857
  7
ＭＳ ゴシック
100
AcDbText
  0
LINE
  5
2F4
330
1F
100
AcDbEntity
  8
0-A_文字
  6
Continuous
 62
     7
370
     9
100
AcDbLine
 10
4064.999897489218
 20
-2645.634725043858
 30
0.0
 11
4064.999897489218
 21
-2870.634725043858
 31
0.0
  0
LINE
  5
2F5
330
1F
100
AcDbEntity
  8
0-A_文字
  6
Continuous
 62
     7
370
     9
100
AcDbLine
 10
5264.999897489218
 20
-2645.634725043858
 30
0.0
 11
4064.999897489218
 21
-2645.634725043858
 31
0.0
  0
LINE
  5
2F6
330
1F
100
AcDbEntity
  8
0-A_文字
  6
Continuous
 62
     7
370
     9
100
AcDbLine
 10
5264.999897489218
 20
-2870.634725043858
 30
0.0
 11
5264.999897489218
 21
-2645.634725043858
 31
0.0
  0
LINE
  5
2F7
330
1F
100
AcDbEntity
  8
0-A_文字
  6
Continuous
 62
     7
370
     9
100
AcDbLine
 10
4064.999897489218
 20
-2870.634725043858
 30
0.0
 11
5264.999897489218
 21
-2870.634725043858
 31
0.0
  0
TEXT
  5
2F8
330
1F
100
AcDbEntity
  8
0-A_文字
  6
Continuous
 62
     7
370
     9
100
AcDbText
 10
4334.999897489218
 20
-2801.214725043858
 30
0.0
 40
91.44
  1
断面図・・
 41
1.1
  7
ＭＳ ゴシック
100
AcDbText
  0
LINE
  5
2F9
330
1F
100
AcDbEntity
  8
0-B_寸法
  6
Continuous
 62
   120
370
     5
100
AcDbLine
 10
4118.999666928325
 20
-1424.635388801182
 30
0.0
 11
4118.999666928325
 21
-1370.635388801182
 31
0.0
  0
LWPOLYLINE
  5
2FA
330
1F
100
AcDbEntity
  8
0-B_寸法
  6
Continuous
 62
     7
370
     9
100
AcDbPolyline
 90
        4
 70
     1
 43
3.0
 10
4120.499666928326
 20
-1370.635388801182
 42
0.4142135623731
 10
4118.999666928325
 20
-1369.135388801182
 42
0.4142135623731
 10
4117.499666928325
 20
-1370.635388801182
 42
0.4142135623731
 10
4118.999666928325
 20
-1372.135388801182
 42
0.4142135623731
  0
LINE
  5
2FB
330
1F
100
AcDbEntity
  8
0-B_寸法
  6
Continuous
 62
   120
370
     5
100
AcDbLine
 10
4118.999666928325
 20
-1370.635388801182
 30
0.0
 11
4268.999666928325
 21
-1370.635388801182
 31
0.0
  0
TEXT
  5
2FC
330
1F
100
AcDbEntity
  8
0-B_寸法
  6
Continuous
 62
     7
370
   211
100
AcDbText
 10
4091.309666928325
 20
-1359.10733597261
 30
0.0
 40
68.58
  1
36
 50
90.0
 41
1.083333333333333
  7
ＭＳ ゴシック
100
AcDbText
  0
LINE
  5
2FD
330
1F
100
AcDbEntity
  8
1-3_扉仕上
  6
Continuous
 62
     7
370
     9
100
AcDbLine
 10
-4439.997789478674
 20
-1628.635388801183
 30
0.0
 11
-4424.997789478674
 21
-1628.635388801183
 31
0.0
  0
LINE
  5
2FE
330
1F
100
AcDbEntity
  8
1-3_扉仕上
  6
Continuous
 62
     7
370
     9
100
AcDbLine
 10
-4424.997789478674
 20
-1628.635388801183
 30
0.0
 11
-4424.997789478674
 21
-1478.635388801183
 31
0.0
  0
LINE
  5
2FF
330
1F
100
AcDbEntity
  8
1-3_扉仕上
  6
Continuous
 62
     7
370
     9
100
AcDbLine
 10
-4424.997789478674
 20
-1478.635388801183
 30
0.0
 11
-4439.997789478674
 21
-1478.635388801183
 31
0.0
  0
LINE
  5
300
330
1F
100
AcDbEntity
  8
1-3_扉仕上
  6
Continuous
 62
     7
370
     9
100
AcDbLine
 10
-4439.997789478674
 20
-1478.635388801183
 30
0.0
 11
-4439.997789478674
 21
-1628.635388801183
 31
0.0
  0
LINE
  5
301
330
1F
100
AcDbEntity
  8
1-3_扉仕上
  6
Continuous
 62
     7
370
     9
100
AcDbLine
 10
-4520.997789478675
 20
-1628.635388801183
 30
0.0
 11
-4505.997789478675
 21
-1628.635388801183
 31
0.0
  0
LINE
  5
302
330
1F
100
AcDbEntity
  8
1-3_扉仕上
  6
Continuous
 62
     7
370
     9
100
AcDbLine
 10
-4505.997789478675
 20
-1628.635388801183
 30
0.0
 11
-4505.997789478675
 21
-1478.635388801183
 31
0.0
  0
LINE
  5
303
330
1F
100
AcDbEntity
  8
1-3_扉仕上
  6
Continuous
 62
     7
370
     9
100
AcDbLine
 10
-4505.997789478675
 20
-1478.635388801183
 30
0.0
 11
-4520.997789478675
 21
-1478.635388801183
 31
0.0
  0
LINE
  5
304
330
1F
100
AcDbEntity
  8
1-3_扉仕上
  6
Continuous
 62
     7
370
     9
100
AcDbLine
 10
-4520.997789478675
 20
-1478.635388801183
 30
0.0
 11
-4520.997789478675
 21
-1628.635388801183
 31
0.0
  0
LINE
  5
305
330
1F
100
AcDbEntity
  8
1-3_扉仕上
  6
Continuous
 62
     7
370
     9
100
AcDbLine
 10
-3179.997789478674
 20
-1628.635388801183
 30
0.0
 11
-3164.997789478674
 21
-1628.635388801183
 31
0.0
  0
LINE
  5
306
330
1F
100
AcDbEntity
  8
1-3_扉仕上
  6
Continuous
 62
     7
370
     9
100
AcDbLine
 10
-3164.997789478674
 20
-1628.635388801183
 30
0.0
 11
-3164.997789478674
 21
-1478.635388801183
 31
0.0
  0
LINE
  5
307
330
1F
100
AcDbEntity
  8
1-3_扉仕上
  6
Continuous
 62
     7
370
     9
100
AcDbLine
 10
-3164.997789478674
 20
-1478.635388801183
 30
0.0
 11
-3179.997789478674
 21
-1478.635388801183
 31
0.0
  0
LINE
  5
308
330
1F
100
AcDbEntity
  8
1-3_扉仕上
  6
Continuous
 62
     7
370
     9
100
AcDbLine
 10
-3179.997789478674
 20
-1478.635388801183
 30
0.0
 11
-3179.997789478674
 21
-1628.635388801183
 31
0.0
  0
LINE
  5
309
330
1F
100
AcDbEntity
  8
1-3_扉仕上
  6
Continuous
 62
     7
370
     9
100
AcDbLine
 10
-3260.997789478675
 20
-1628.635388801183
 30
0.0
 11
-3245.997789478675
 21
-1628.635388801183
 31
0.0
  0
LINE
  5
30A
330
1F
100
AcDbEntity
  8
1-3_扉仕上
  6
Continuous
 62
     7
370
     9
100
AcDbLine
 10
-3245.997789478675
 20
-1628.635388801183
 30
0.0
 11
-3245.997789478675
 21
-1478.635388801183
 31
0.0
  0
LINE
  5
30B
330
1F
100
AcDbEntity
  8
1-3_扉仕上
  6
Continuous
 62
     7
370
     9
100
AcDbLine
 10
-3245.997789478675
 20
-1478.635388801183
 30
0.0
 11
-3260.997789478675
 21
-1478.635388801183
 31
0.0
  0
LINE
  5
30C
330
1F
100
AcDbEntity
  8
1-3_扉仕上
  6
Continuous
 62
     7
370
     9
100
AcDbLine
 10
-3260.997789478675
 20
-1478.635388801183
 30
0.0
 11
-3260.997789478675
 21
-1628.635388801183
 31
0.0
  0
LINE
  5
30D
330
1F
100
AcDbEntity
  8
1-3_扉仕上
  6
Continuous
 62
     7
370
     9
100
AcDbLine
 10
-1919.997789478674
 20
-1628.635388801183
 30
0.0
 11
-1904.997789478674
 21
-1628.635388801183
 31
0.0
  0
LINE
  5
30E
330
1F
100
AcDbEntity
  8
1-3_扉仕上
  6
Continuous
 62
     7
370
     9
100
AcDbLine
 10
-1904.997789478674
 20
-1628.635388801183
 30
0.0
 11
-1904.997789478674
 21
-1478.635388801183
 31
0.0
  0
LINE
  5
30F
330
1F
100
AcDbEntity
  8
1-3_扉仕上
  6
Continuous
 62
     7
370
     9
100
AcDbLine
 10
-1904.997789478674
 20
-1478.635388801183
 30
0.0
 11
-1919.997789478674
 21
-1478.635388801183
 31
0.0
  0
LINE
  5
310
330
1F
100
AcDbEntity
  8
1-3_扉仕上
  6
Continuous
 62
     7
370
     9
100
AcDbLine
 10
-1919.997789478674
 20
-1478.635388801183
 30
0.0
 11
-1919.997789478674
 21
-1628.635388801183
 31
0.0
  0
LINE
  5
311
330
1F
100
AcDbEntity
  8
1-3_扉仕上
  6
Continuous
 62
     7
370
     9
100
AcDbLine
 10
-2000.997789478675
 20
-1628.635388801183
 30
0.0
 11
-1985.997789478675
 21
-1628.635388801183
 31
0.0
  0
LINE
  5
312
330
1F
100
AcDbEntity
  8
1-3_扉仕上
  6
Continuous
 62
     7
370
     9
100
AcDbLine
 10
-1985.997789478675
 20
-1628.635388801183
 30
0.0
 11
-1985.997789478675
 21
-1478.635388801183
 31
0.0
  0
LINE
  5
313
330
1F
100
AcDbEntity
  8
1-3_扉仕上
  6
Continuous
 62
     7
370
     9
100
AcDbLine
 10
-1985.997789478675
 20
-1478.635388801183
 30
0.0
 11
-2000.997789478675
 21
-1478.635388801183
 31
0.0
  0
LINE
  5
314
330
1F
100
AcDbEntity
  8
1-3_扉仕上
  6
Continuous
 62
     7
370
     9
100
AcDbLine
 10
-2000.997789478675
 20
-1478.635388801183
 30
0.0
 11
-2000.997789478675
 21
-1628.635388801183
 31
0.0
  0
LINE
  5
315
330
1F
100
AcDbEntity
  8
0-2_扉
  6
Continuous
 62
    92
370
    13
100
AcDbLine
 10
-3849.000204226226
 20
-1970.635388801182
 30
0.0
 11
-3849.000204226226
 21
-1429.135388801182
 31
0.0
  0
LINE
  5
316
330
1F
100
AcDbEntity
  8
0-2_扉
  6
Continuous
 62
    92
370
    13
100
AcDbLine
 10
-3842.999474808979
 20
-1970.635388801182
 30
0.0
 11
-3842.999474808979
 21
-1429.135388801182
 31
0.0
  0
LINE
  5
317
330
1F
100
AcDbEntity
  8
1-3_扉仕上
  6
Continuous
 62
     7
370
     9
100
AcDbLine
 10
-4523.999956256176
 20
-572.6353888011812
 30
0.0
 11
-4508.999956256176
 21
-572.6353888011812
 31
0.0
  0
LINE
  5
318
330
1F
100
AcDbEntity
  8
1-3_扉仕上
  6
Continuous
 62
     7
370
     9
100
AcDbLine
 10
-4508.999956256176
 20
-572.6353888011812
 30
0.0
 11
-4508.999956256176
 21
-422.6353888011812
 31
0.0
  0
LINE
  5
319
330
1F
100
AcDbEntity
  8
1-3_扉仕上
  6
Continuous
 62
     7
370
     9
100
AcDbLine
 10
-4508.999956256176
 20
-422.6353888011812
 30
0.0
 11
-4523.999956256176
 21
-422.6353888011812
 31
0.0
  0
LINE
  5
31A
330
1F
100
AcDbEntity
  8
1-3_扉仕上
  6
Continuous
 62
     7
370
     9
100
AcDbLine
 10
-4523.999956256176
 20
-422.6353888011812
 30
0.0
 11
-4523.999956256176
 21
-572.6353888011812
 31
0.0
  0
LINE
  5
31B
330
1F
100
AcDbEntity
  8
1-3_扉仕上
  6
Continuous
 62
     7
370
     9
100
AcDbLine
 10
-4442.999956256174
 20
-572.6353888011812
 30
0.0
 11
-4427.999956256174
 21
-572.6353888011812
 31
0.0
  0
LINE
  5
31C
330
1F
100
AcDbEntity
  8
1-3_扉仕上
  6
Continuous
 62
     7
370
     9
100
AcDbLine
 10
-4427.999956256174
 20
-572.6353888011812
 30
0.0
 11
-4427.999956256174
 21
-422.6353888011812
 31
0.0
  0
LINE
  5
31D
330
1F
100
AcDbEntity
  8
1-3_扉仕上
  6
Continuous
 62
     7
370
     9
100
AcDbLine
 10
-4427.999956256174
 20
-422.6353888011812
 30
0.0
 11
-4442.999956256174
 21
-422.6353888011812
 31
0.0
  0
LINE
  5
31E
330
1F
100
AcDbEntity
  8
1-3_扉仕上
  6
Continuous
 62
     7
370
     9
100
AcDbLine
 10
-4442.999956256174
 20
-422.6353888011812
 30
0.0
 11
-4442.999956256174
 21
-572.6353888011812
 31
0.0
  0
LINE
  5
31F
330
1F
100
AcDbEntity
  8
1-2_扉
  6
Continuous
 62
    40
370
    15
100
AcDbLine
 10
4374.00012805011
 20
1026.364611198818
 30
0.0
 11
4374.00012805011
 21
-617.635388801182
 31
0.0
  0
LINE
  5
320
330
1F
100
AcDbEntity
  8
1-2_扉
  6
Continuous
 62
    40
370
    15
100
AcDbLine
 10
4374.00012805011
 20
1026.364611198818
 30
0.0
 11
4347.00012805011
 21
1026.364611198818
 31
0.0
  0
LINE
  5
321
330
1F
100
AcDbEntity
  8
1-2_扉
  6
Continuous
 62
    40
370
    15
100
AcDbLine
 10
4347.00012805011
 20
1026.364611198818
 30
0.0
 11
4347.00012805011
 21
-617.635388801182
 31
0.0
  0
LINE
  5
322
330
1F
100
AcDbEntity
  8
1-2_扉
  6
Continuous
 62
    40
370
    15
100
AcDbLine
 10
4347.00012805011
 20
-617.635388801182
 30
0.0
 11
4374.00012805011
 21
-617.635388801182
 31
0.0
  0
LINE
  5
323
330
1F
100
AcDbEntity
  8
1-3_扉仕上
  6
Continuous
 62
     7
370
     9
100
AcDbLine
 10
-3263.999956256176
 20
-572.6353888011812
 30
0.0
 11
-3248.999956256176
 21
-572.6353888011812
 31
0.0
  0
LINE
  5
324
330
1F
100
AcDbEntity
  8
1-3_扉仕上
  6
Continuous
 62
     7
370
     9
100
AcDbLine
 10
-3248.999956256176
 20
-572.6353888011812
 30
0.0
 11
-3248.999956256176
 21
-422.6353888011812
 31
0.0
  0
LINE
  5
325
330
1F
100
AcDbEntity
  8
1-3_扉仕上
  6
Continuous
 62
     7
370
     9
100
AcDbLine
 10
-3248.999956256176
 20
-422.6353888011812
 30
0.0
 11
-3263.999956256176
 21
-422.6353888011812
 31
0.0
  0
LINE
  5
326
330
1F
100
AcDbEntity
  8
1-3_扉仕上
  6
Continuous
 62
     7
370
     9
100
AcDbLine
 10
-3263.999956256176
 20
-422.6353888011812
 30
0.0
 11
-3263.999956256176
 21
-572.6353888011812
 31
0.0
  0
LINE
  5
327
330
1F
100
AcDbEntity
  8
1-3_扉仕上
  6
Continuous
 62
     7
370
     9
100
AcDbLine
 10
-3182.999956256174
 20
-572.6353888011812
 30
0.0
 11
-3167.999956256174
 21
-572.6353888011812
 31
0.0
  0
LINE
  5
328
330
1F
100
AcDbEntity
  8
1-3_扉仕上
  6
Continuous
 62
     7
370
     9
100
AcDbLine
 10
-3167.999956256174
 20
-572.6353888011812
 30
0.0
 11
-3167.999956256174
 21
-422.6353888011812
 31
0.0
  0
LINE
  5
329
330
1F
100
AcDbEntity
  8
1-3_扉仕上
  6
Continuous
 62
     7
370
     9
100
AcDbLine
 10
-3167.999956256174
 20
-422.6353888011812
 30
0.0
 11
-3182.999956256174
 21
-422.6353888011812
 31
0.0
  0
LINE
  5
32A
330
1F
100
AcDbEntity
  8
1-3_扉仕上
  6
Continuous
 62
     7
370
     9
100
AcDbLine
 10
-3182.999956256174
 20
-422.6353888011812
 30
0.0
 11
-3182.999956256174
 21
-572.6353888011812
 31
0.0
  0
LINE
  5
32B
330
1F
100
AcDbEntity
  8
1-3_扉仕上
  6
Continuous
 62
     7
370
     9
100
AcDbLine
 10
-2003.999956256175
 20
-572.6353888011812
 30
0.0
 11
-1988.999956256175
 21
-572.6353888011812
 31
0.0
  0
LINE
  5
32C
330
1F
100
AcDbEntity
  8
1-3_扉仕上
  6
Continuous
 62
     7
370
     9
100
AcDbLine
 10
-1988.999956256175
 20
-572.6353888011812
 30
0.0
 11
-1988.999956256175
 21
-422.6353888011812
 31
0.0
  0
LINE
  5
32D
330
1F
100
AcDbEntity
  8
1-3_扉仕上
  6
Continuous
 62
     7
370
     9
100
AcDbLine
 10
-1988.999956256175
 20
-422.6353888011812
 30
0.0
 11
-2003.999956256175
 21
-422.6353888011812
 31
0.0
  0
LINE
  5
32E
330
1F
100
AcDbEntity
  8
1-3_扉仕上
  6
Continuous
 62
     7
370
     9
100
AcDbLine
 10
-2003.999956256175
 20
-422.6353888011812
 30
0.0
 11
-2003.999956256175
 21
-572.6353888011812
 31
0.0
  0
LINE
  5
32F
330
1F
100
AcDbEntity
  8
1-3_扉仕上
  6
Continuous
 62
     7
370
     9
100
AcDbLine
 10
-1922.999956256174
 20
-572.6353888011812
 30
0.0
 11
-1907.999956256174
 21
-572.6353888011812
 31
0.0
  0
LINE
  5
330
330
1F
100
AcDbEntity
  8
1-3_扉仕上
  6
Continuous
 62
     7
370
     9
100
AcDbLine
 10
-1907.999956256174
 20
-572.6353888011812
 30
0.0
 11
-1907.999956256174
 21
-422.6353888011812
 31
0.0
  0
LINE
  5
331
330
1F
100
AcDbEntity
  8
1-3_扉仕上
  6
Continuous
 62
     7
370
     9
100
AcDbLine
 10
-1907.999956256174
 20
-422.6353888011812
 30
0.0
 11
-1922.999956256174
 21
-422.6353888011812
 31
0.0
  0
LINE
  5
332
330
1F
100
AcDbEntity
  8
1-3_扉仕上
  6
Continuous
 62
     7
370
     9
100
AcDbLine
 10
-1922.999956256174
 20
-422.6353888011812
 30
0.0
 11
-1922.999956256174
 21
-572.6353888011812
 31
0.0
  0
TEXT
  5
333
330
1F
100
AcDbEntity
  8
0-B_寸法
  6
Continuous
 62
     7
370
   211
100
AcDbText
 10
-618.6903542808028
 20
-1446.384725043858
 30
0.0
 40
68.58
  1
36
 50
90.0
 41
1.083333333333333
  7
ＭＳ ゴシック
100
AcDbText
  0
LINE
  5
334
330
1F
100
AcDbEntity
  8
0-0_補助線
  6
JWW_HOJO
 62
   120
370
     5
100
AcDbLine
 10
-5181.000375489932
 20
-2195.634725043858
 30
0.0
 11
-5181.000375489932
 21
-1295.635388801182
 31
0.0
  0
LINE
  5
335
330
1F
100
AcDbEntity
  8
0-0_補助線
  6
JWW_HOJO
 62
   120
370
     5
100
AcDbLine
 10
-5181.000375489932
 20
1104.364611198818
 30
0.0
 11
-5181.000375489932
 21
-695.6353888011819
 31
0.0
  0
LINE
  5
336
330
1F
100
AcDbEntity
  8
0-B_寸法
  6
Continuous
 62
   120
370
     5
100
AcDbLine
 10
-5331.000375489932
 20
1029.364611198818
 30
0.0
 11
-5331.000375489932
 21
-620.6353888011819
 31
0.0
  0
LWPOLYLINE
  5
337
330
1F
100
AcDbEntity
  8
0-B_寸法
  6
Continuous
 62
     7
370
     9
100
AcDbPolyline
 90
        4
 70
     1
 43
3.0
 10
-5329.500375489931
 20
1029.364611198818
 42
0.4142135623731
 10
-5331.000375489932
 20
1030.864611198818
 42
0.4142135623731
 10
-5332.500375489932
 20
1029.364611198818
 42
0.4142135623731
 10
-5331.000375489932
 20
1027.864611198818
 42
0.4142135623731
  0
LWPOLYLINE
  5
338
330
1F
100
AcDbEntity
  8
0-B_寸法
  6
Continuous
 62
     7
370
     9
100
AcDbPolyline
 90
        4
 70
     1
 43
3.0
 10
-5329.500375489931
 20
-620.6353888011819
 42
0.4142135623731
 10
-5331.000375489932
 20
-619.1353888011819
 42
0.4142135623731
 10
-5332.500375489932
 20
-620.6353888011819
 42
0.4142135623731
 10
-5331.000375489932
 20
-622.1353888011819
 42
0.4142135623731
  0
LINE
  5
339
330
1F
100
AcDbEntity
  8
0-B_寸法
  6
Continuous
 62
   120
370
     5
100
AcDbLine
 10
-5331.000375489932
 20
1029.364611198818
 30
0.0
 11
-5181.000375489932
 21
1029.364611198818
 31
0.0
  0
LINE
  5
33A
330
1F
100
AcDbEntity
  8
0-B_寸法
  6
Continuous
 62
   120
370
     5
100
AcDbLine
 10
-5331.000375489932
 20
-620.6353888011819
 30
0.0
 11
-5181.000375489932
 21
-620.6353888011819
 31
0.0
  0
TEXT
  5
33B
330
1F
100
AcDbEntity
  8
0-B_寸法
  6
Continuous
 62
     7
370
   211
100
AcDbText
 10
-5358.690375489931
 20
76.86461119881812
 30
0.0
 40
68.58
  1
1,100
 50
90.0
 41
1.133333333333333
  7
ＭＳ ゴシック
100
AcDbText
  0
LINE
  5
33C
330
1F
100
AcDbEntity
  8
0-B_寸法
  6
Continuous
 62
   120
370
     5
100
AcDbLine
 10
-5331.000375489932
 20
-2120.634725043858
 30
0.0
 11
-5331.000375489932
 21
-1424.635388801182
 31
0.0
  0
LWPOLYLINE
  5
33D
330
1F
100
AcDbEntity
  8
0-B_寸法
  6
Continuous
 62
     7
370
     9
100
AcDbPolyline
 90
        4
 70
     1
 43
3.0
 10
-5329.500375489931
 20
-2120.634725043858
 42
0.4142135623731
 10
-5331.000375489932
 20
-2119.134725043858
 42
0.4142135623731
 10
-5332.500375489932
 20
-2120.634725043858
 42
0.4142135623731
 10
-5331.000375489932
 20
-2122.134725043858
 42
0.4142135623731
  0
LWPOLYLINE
  5
33E
330
1F
100
AcDbEntity
  8
0-B_寸法
  6
Continuous
 62
     7
370
     9
100
AcDbPolyline
 90
        4
 70
     1
 43
3.0
 10
-5329.500375489931
 20
-1424.635388801182
 42
0.4142135623731
 10
-5331.000375489932
 20
-1423.135388801182
 42
0.4142135623731
 10
-5332.500375489932
 20
-1424.635388801182
 42
0.4142135623731
 10
-5331.000375489932
 20
-1426.135388801182
 42
0.4142135623731
  0
LINE
  5
33F
330
1F
100
AcDbEntity
  8
0-B_寸法
  6
Continuous
 62
   120
370
     5
100
AcDbLine
 10
-5481.000375489932
 20
-2120.634725043858
 30
0.0
 11
-5181.000375489932
 21
-2120.634725043858
 31
0.0
  0
LINE
  5
340
330
1F
100
AcDbEntity
  8
0-B_寸法
  6
Continuous
 62
   120
370
     5
100
AcDbLine
 10
-5331.000375489932
 20
-1424.635388801182
 30
0.0
 11
-5181.000375489932
 21
-1424.635388801182
 31
0.0
  0
TEXT
  5
341
330
1F
100
AcDbEntity
  8
0-B_寸法
  6
Continuous
 62
     7
370
   211
100
AcDbText
 10
-5358.690375489931
 20
-1847.63505692252
 30
0.0
 40
68.58
  1
464
 50
90.0
 41
1.111111111111111
  7
ＭＳ ゴシック
100
AcDbText
  0
LINE
  5
342
330
1F
100
AcDbEntity
  8
0-6_桟木
  6
Continuous
 62
    92
370
    13
100
AcDbLine
 10
-5106.001105614152
 20
-1424.634725043858
 30
0.0
 11
-5106.001105614152
 21
-1370.634725043858
 31
0.0
  0
LINE
  5
343
330
1F
100
AcDbEntity
  8
0-B_寸法
  6
Continuous
 62
   120
370
     5
100
AcDbLine
 10
-5331.000375489932
 20
-1370.634725043858
 30
0.0
 11
-5331.000375489932
 21
-1424.634725043858
 31
0.0
  0
LWPOLYLINE
  5
344
330
1F
100
AcDbEntity
  8
0-B_寸法
  6
Continuous
 62
     7
370
     9
100
AcDbPolyline
 90
        4
 70
     1
 43
3.0
 10
-5329.500375489931
 20
-1370.634725043858
 42
0.4142135623731
 10
-5331.000375489932
 20
-1369.134725043858
 42
0.4142135623731
 10
-5332.500375489932
 20
-1370.634725043858
 42
0.4142135623731
 10
-5331.000375489932
 20
-1372.134725043858
 42
0.4142135623731
  0
LWPOLYLINE
  5
345
330
1F
100
AcDbEntity
  8
0-B_寸法
  6
Continuous
 62
     7
370
     9
100
AcDbPolyline
 90
        4
 70
     1
 43
3.0
 10
-5329.500375489931
 20
-1424.634725043858
 42
0.4142135623731
 10
-5331.000375489932
 20
-1423.134725043858
 42
0.4142135623731
 10
-5332.500375489932
 20
-1424.634725043858
 42
0.4142135623731
 10
-5331.000375489932
 20
-1426.134725043858
 42
0.4142135623731
  0
LINE
  5
346
330
1F
100
AcDbEntity
  8
0-B_寸法
  6
Continuous
 62
   120
370
     5
100
AcDbLine
 10
-5481.000375489932
 20
-1370.634725043858
 30
0.0
 11
-5181.000375489932
 21
-1370.634725043858
 31
0.0
  0
LINE
  5
347
330
1F
100
AcDbEntity
  8
0-B_寸法
  6
Continuous
 62
   120
370
     5
100
AcDbLine
 10
-5331.000375489932
 20
-1424.634725043858
 30
0.0
 11
-5181.000375489932
 21
-1424.634725043858
 31
0.0
  0
LINE
  5
348
330
1F
100
AcDbEntity
  8
0-B_寸法
  6
Continuous
 62
   120
370
     5
100
AcDbLine
 10
-5481.000375489932
 20
-2120.634725043858
 30
0.0
 11
-5481.000375489932
 21
-1370.634725043858
 31
0.0
  0
LWPOLYLINE
  5
349
330
1F
100
AcDbEntity
  8
0-B_寸法
  6
Continuous
 62
     7
370
     9
100
AcDbPolyline
 90
        4
 70
     1
 43
3.0
 10
-5479.500375489931
 20
-2120.634725043858
 42
0.4142135623731
 10
-5481.000375489932
 20
-2119.134725043858
 42
0.4142135623731
 10
-5482.500375489932
 20
-2120.634725043858
 42
0.4142135623731
 10
-5481.000375489932
 20
-2122.134725043858
 42
0.4142135623731
  0
LWPOLYLINE
  5
34A
330
1F
100
AcDbEntity
  8
0-B_寸法
  6
Continuous
 62
     7
370
     9
100
AcDbPolyline
 90
        4
 70
     1
 43
3.0
 10
-5479.500375489931
 20
-1370.634725043858
 42
0.4142135623731
 10
-5481.000375489932
 20
-1369.134725043858
 42
0.4142135623731
 10
-5482.500375489932
 20
-1370.634725043858
 42
0.4142135623731
 10
-5481.000375489932
 20
-1372.134725043858
 42
0.4142135623731
  0
TEXT
  5
34B
330
1F
100
AcDbEntity
  8
0-B_寸法
  6
Continuous
 62
     7
370
   211
100
AcDbText
 10
-5508.690375489931
 20
-1820.634725043858
 30
0.0
 40
68.58
  1
500
 50
90.0
 41
1.111111111111111
  7
ＭＳ ゴシック
100
AcDbText
  0
LINE
  5
34C
330
1F
100
AcDbEntity
  8
0-0_補助線
  6
JWW_HOJO
 62
   120
370
     5
100
AcDbLine
 10
-441.000354280801
 20
1104.364611198818
 30
0.0
 11
-441.000354280801
 21
-695.6353888011819
 31
0.0
  0
LINE
  5
34D
330
1F
100
AcDbEntity
  8
0-B_寸法
  6
Continuous
 62
   120
370
     5
100
AcDbLine
 10
-591.000354280801
 20
1029.364611198818
 30
0.0
 11
-591.000354280801
 21
-620.6353888011819
 31
0.0
  0
LWPOLYLINE
  5
34E
330
1F
100
AcDbEntity
  8
0-B_寸法
  6
Continuous
 62
     7
370
     9
100
AcDbPolyline
 90
        4
 70
     1
 43
3.0
 10
-589.500354280801
 20
1029.364611198818
 42
0.4142135623731
 10
-591.000354280801
 20
1030.864611198818
 42
0.4142135623731
 10
-592.500354280801
 20
1029.364611198818
 42
0.4142135623731
 10
-591.000354280801
 20
1027.864611198818
 42
0.4142135623731
  0
LWPOLYLINE
  5
34F
330
1F
100
AcDbEntity
  8
0-B_寸法
  6
Continuous
 62
     7
370
     9
100
AcDbPolyline
 90
        4
 70
     1
 43
3.0
 10
-589.500354280801
 20
-620.6353888011819
 42
0.4142135623731
 10
-591.000354280801
 20
-619.1353888011819
 42
0.4142135623731
 10
-592.500354280801
 20
-620.6353888011819
 42
0.4142135623731
 10
-591.000354280801
 20
-622.1353888011819
 42
0.4142135623731
  0
LINE
  5
350
330
1F
100
AcDbEntity
  8
0-B_寸法
  6
Continuous
 62
   120
370
     5
100
AcDbLine
 10
-591.000354280801
 20
1029.364611198818
 30
0.0
 11
-441.000354280801
 21
1029.364611198818
 31
0.0
  0
LINE
  5
351
330
1F
100
AcDbEntity
  8
0-B_寸法
  6
Continuous
 62
   120
370
     5
100
AcDbLine
 10
-591.000354280801
 20
-620.6353888011819
 30
0.0
 11
-441.000354280801
 21
-620.6353888011819
 31
0.0
  0
TEXT
  5
352
330
1F
100
AcDbEntity
  8
0-B_寸法
  6
Continuous
 62
     7
370
   211
100
AcDbText
 10
-618.6903542808011
 20
76.86461119881812
 30
0.0
 40
68.58
  1
1,100
 50
90.0
 41
1.133333333333333
  7
ＭＳ ゴシック
100
AcDbText
  0
LINE
  5
353
330
1F
100
AcDbEntity
  8
0-B_寸法
  6
Continuous
 62
   120
370
     5
100
AcDbLine
 10
-591.0003542808028
 20
-1424.635388801182
 30
0.0
 11
-591.0003542808028
 21
-1970.634347256273
 31
0.0
  0
LWPOLYLINE
  5
354
330
1F
100
AcDbEntity
  8
0-B_寸法
  6
Continuous
 62
     7
370
     9
100
AcDbPolyline
 90
        4
 70
     1
 43
3.0
 10
-589.5003542808028
 20
-1424.635388801182
 42
0.4142135623731
 10
-591.0003542808028
 20
-1423.135388801182
 42
0.4142135623731
 10
-592.5003542808028
 20
-1424.635388801182
 42
0.4142135623731
 10
-591.0003542808028
 20
-1426.135388801182
 42
0.4142135623731
  0
LWPOLYLINE
  5
355
330
1F
100
AcDbEntity
  8
0-B_寸法
  6
Continuous
 62
     7
370
     9
100
AcDbPolyline
 90
        4
 70
     1
 43
3.0
 10
-589.5003542808028
 20
-1970.634347256273
 42
0.4142135623731
 10
-591.0003542808028
 20
-1969.134347256273
 42
0.4142135623731
 10
-592.5003542808028
 20
-1970.634347256273
 42
0.4142135623731
 10
-591.0003542808028
 20
-1972.134347256272
 42
0.4142135623731
  0
LINE
  5
356
330
1F
100
AcDbEntity
  8
0-B_寸法
  6
Continuous
 62
   120
370
     5
100
AcDbLine
 10
-591.0003542808028
 20
-1424.635388801182
 30
0.0
 11
-441.0003542808028
 21
-1424.635388801182
 31
0.0
  0
LINE
  5
357
330
1F
100
AcDbEntity
  8
0-B_寸法
  6
Continuous
 62
   120
370
     5
100
AcDbLine
 10
-591.0003542808028
 20
-1970.634347256273
 30
0.0
 11
-441.0003542808028
 21
-1970.634347256273
 31
0.0
  0
TEXT
  5
358
330
1F
100
AcDbEntity
  8
0-B_寸法
  6
Continuous
 62
     7
370
   211
100
AcDbText
 10
-618.6903542808028
 20
-1772.634868028728
 30
0.0
 40
68.58
  1
364
 50
90.0
 41
1.111111111111111
  7
ＭＳ ゴシック
100
AcDbText
  0
LINE
  5
359
330
1F
100
AcDbEntity
  8
0-B_寸法
  6
Continuous
 62
   120
370
     5
100
AcDbLine
 10
-591.0003542808028
 20
-1970.634347256273
 30
0.0
 11
-591.0003542808028
 21
-2120.634725043858
 31
0.0
  0
LWPOLYLINE
  5
35A
330
1F
100
AcDbEntity
  8
0-B_寸法
  6
Continuous
 62
     7
370
     9
100
AcDbPolyline
 90
        4
 70
     1
 43
3.0
 10
-589.5003542808028
 20
-2120.634725043858
 42
0.4142135623731
 10
-591.0003542808028
 20
-2119.134725043858
 42
0.4142135623731
 10
-592.5003542808028
 20
-2120.634725043858
 42
0.4142135623731
 10
-591.0003542808028
 20
-2122.134725043858
 42
0.4142135623731
  0
LINE
  5
35B
330
1F
100
AcDbEntity
  8
0-B_寸法
  6
Continuous
 62
   120
370
     5
100
AcDbLine
 10
-591.0003542808028
 20
-2120.634725043858
 30
0.0
 11
-441.0003542808028
 21
-2120.634725043858
 31
0.0
  0
TEXT
  5
35C
330
1F
100
AcDbEntity
  8
0-B_寸法
  6
Continuous
 62
     7
370
   211
100
AcDbText
 10
-618.6903542808028
 20
-2120.634536150065
 30
0.0
 40
68.58
  1
100
 50
90.0
 41
1.111111111111111
  7
ＭＳ ゴシック
100
AcDbText
  0
LINE
  5
35D
330
1F
100
AcDbEntity
  8
0-0_補助線
  6
JWW_HOJO
 62
   120
370
     5
100
AcDbLine
 10
-441.0003542808028
 20
-2195.634725043858
 30
0.0
 11
-441.0003542808028
 21
-1295.635388801182
 31
0.0
  0
LINE
  5
35E
330
1F
100
AcDbEntity
  8
0-6_桟木
  6
Continuous
 62
    92
370
    13
100
AcDbLine
 10
-366.0003542808045
 20
-1424.634725043858
 30
0.0
 11
-366.0003542808045
 21
-1370.634725043858
 31
0.0
  0
LINE
  5
35F
330
1F
100
AcDbEntity
  8
0-B_寸法
  6
Continuous
 62
   120
370
     5
100
AcDbLine
 10
-591.0003542808028
 20
-1370.634725043858
 30
0.0
 11
-591.0003542808028
 21
-1424.634725043858
 31
0.0
  0
LWPOLYLINE
  5
360
330
1F
100
AcDbEntity
  8
0-B_寸法
  6
Continuous
 62
     7
370
     9
100
AcDbPolyline
 90
        4
 70
     1
 43
3.0
 10
-589.5003542808028
 20
-1370.634725043858
 42
0.4142135623731
 10
-591.0003542808028
 20
-1369.134725043858
 42
0.4142135623731
 10
-592.5003542808028
 20
-1370.634725043858
 42
0.4142135623731
 10
-591.0003542808028
 20
-1372.134725043858
 42
0.4142135623731
  0
LWPOLYLINE
  5
361
330
1F
100
AcDbEntity
  8
0-B_寸法
  6
Continuous
 62
     7
370
     9
100
AcDbPolyline
 90
        4
 70
     1
 43
3.0
 10
-589.5003542808028
 20
-1424.634725043858
 42
0.4142135623731
 10
-591.0003542808028
 20
-1423.134725043858
 42
0.4142135623731
 10
-592.5003542808028
 20
-1424.634725043858
 42
0.4142135623731
 10
-591.0003542808028
 20
-1426.134725043858
 42
0.4142135623731
  0
LINE
  5
362
330
1F
100
AcDbEntity
  8
0-B_寸法
  6
Continuous
 62
   120
370
     5
100
AcDbLine
 10
-591.0003542808028
 20
-1370.634725043858
 30
0.0
 11
-441.0003542808028
 21
-1370.634725043858
 31
0.0
  0
LINE
  5
363
330
1F
100
AcDbEntity
  8
0-B_寸法
  6
Continuous
 62
   120
370
     5
100
AcDbLine
 10
-591.0003542808028
 20
-1424.634725043858
 30
0.0
 11
-441.0003542808028
 21
-1424.634725043858
 31
0.0
  0
LWPOLYLINE
  5
364
330
1F
100
AcDbEntity
  8
0-B_寸法
  6
Continuous
 62
     7
370
     9
100
AcDbPolyline
 90
        4
 70
     1
 43
3.0
 10
-364.5003542808045
 20
-1145.635388801182
 42
0.4142135623731
 10
-366.0003542808045
 20
-1144.135388801182
 42
0.4142135623731
 10
-367.5003542808045
 20
-1145.635388801182
 42
0.4142135623731
 10
-366.0003542808045
 20
-1147.135388801182
 42
0.4142135623731
  0
LINE
  5
365
330
1F
100
AcDbEntity
  8
0-B_寸法
  6
Continuous
 62
   120
370
     5
100
AcDbLine
 10
-366.0003542808045
 20
-1145.635388801182
 30
0.0
 11
-366.0003542808045
 21
-1295.635388801182
 31
0.0
  0
LINE
  5
366
330
1F
100
AcDbEntity
  8
0-A_文字
  6
JWW_CENTER1
 62
     7
370
     9
100
AcDbLine
 10
-5106.000375489932
 20
1029.364611198818
 30
0.0
 11
4986.000128050109
 21
1029.364611198818
 31
0.0
  0
LINE
  5
367
330
1F
100
AcDbEntity
  8
0-A_文字
  6
JWW_CENTER1
 62
     7
370
     9
100
AcDbLine
 10
4986.000128050109
 20
-2120.634725043858
 30
0.0
 11
-5106.000375489932
 21
-2120.634725043858
 31
0.0
  0
TEXT
  5
368
330
1F
100
AcDbEntity
  8
0-B_寸法
  6
Continuous
 62
     7
370
   211
100
AcDbText
 10
-5358.690375489931
 20
-1359.106672215287
 30
0.0
 40
68.58
  1
36
 50
90.0
 41
1.083333333333333
  7
ＭＳ ゴシック
100
AcDbText
  0
TEXT
  5
369
330
1F
100
AcDbEntity
  8
0-B_寸法
  6
Continuous
 62
     7
370
   211
100
AcDbText
 10
-1128.690375489934
 20
-670.135388801182
 30
0.0
 40
68.58
  1
2
 50
90.0
  7
ＭＳ ゴシック
100
AcDbText
  0
TEXT
  5
36A
330
1F
100
AcDbEntity
  8
0-B_寸法
  6
Continuous
 62
     7
370
   211
100
AcDbText
 10
-1128.690375489931
 20
-80.63538880118188
 30
0.0
 40
68.58
  1
ＤＨ＝1,096
 50
90.0
 41
1.151515151515152
  7
ＭＳ ゴシック
100
AcDbText
  0
TEXT
  5
36B
330
1F
100
AcDbEntity
  8
0-B_寸法
  6
Continuous
 62
     7
370
   211
100
AcDbText
 10
-1128.690375489931
 20
1033.864611198817
 30
0.0
 40
68.58
  1
2
 50
90.0
  7
ＭＳ ゴシック
100
AcDbText
  0
LINE
  5
36C
330
1F
100
AcDbEntity
  8
0-B_寸法
  6
Continuous
 62
   120
370
     5
100
AcDbLine
 10
-1101.000375489934
 20
-620.6353888011819
 30
0.0
 11
-1251.000375489934
 21
-620.6353888011819
 31
0.0
  0
LWPOLYLINE
  5
36D
330
1F
100
AcDbEntity
  8
0-B_寸法
  6
Continuous
 62
     7
370
     9
100
AcDbPolyline
 90
        4
 70
     1
 43
3.0
 10
-1099.500375489934
 20
-620.6353888011819
 42
0.4142135623731
 10
-1101.000375489934
 20
-619.1353888011819
 42
0.4142135623731
 10
-1102.500375489934
 20
-620.6353888011819
 42
0.4142135623731
 10
-1101.000375489934
 20
-622.1353888011819
 42
0.4142135623731
  0
LINE
  5
36E
330
1F
100
AcDbEntity
  8
0-B_寸法
  6
Continuous
 62
   120
370
     5
100
AcDbLine
 10
-1101.000375489934
 20
-617.6353888011812
 30
0.0
 11
-1101.000375489934
 21
-620.6353888011819
 31
0.0
  0
LINE
  5
36F
330
1F
100
AcDbEntity
  8
0-B_寸法
  6
Continuous
 62
   120
370
     5
100
AcDbLine
 10
-1101.000375489934
 20
-617.6353888011812
 30
0.0
 11
-1251.000375489934
 21
-617.6353888011812
 31
0.0
  0
LWPOLYLINE
  5
370
330
1F
100
AcDbEntity
  8
0-B_寸法
  6
Continuous
 62
     7
370
     9
100
AcDbPolyline
 90
        4
 70
     1
 43
3.0
 10
-1099.500375489934
 20
-617.6353888011812
 42
0.4142135623731
 10
-1101.000375489934
 20
-616.1353888011812
 42
0.4142135623731
 10
-1102.500375489934
 20
-617.6353888011812
 42
0.4142135623731
 10
-1101.000375489934
 20
-619.1353888011812
 42
0.4142135623731
  0
LINE
  5
371
330
1F
100
AcDbEntity
  8
0-B_寸法
  6
Continuous
 62
   120
370
     5
100
AcDbLine
 10
-1101.000375489931
 20
1026.364611198817
 30
0.0
 11
-1101.000375489934
 21
-617.6353888011812
 31
0.0
  0
LINE
  5
372
330
1F
100
AcDbEntity
  8
0-B_寸法
  6
Continuous
 62
   120
370
     5
100
AcDbLine
 10
-1101.000375489931
 20
1026.364611198817
 30
0.0
 11
-1251.000375489934
 21
1026.364611198817
 31
0.0
  0
LINE
  5
373
330
1F
100
AcDbEntity
  8
0-B_寸法
  6
Continuous
 62
   120
370
     5
100
AcDbLine
 10
-1101.000375489931
 20
1029.364611198818
 30
0.0
 11
-1251.000375489934
 21
1029.364611198818
 31
0.0
  0
LWPOLYLINE
  5
374
330
1F
100
AcDbEntity
  8
0-B_寸法
  6
Continuous
 62
     7
370
     9
100
AcDbPolyline
 90
        4
 70
     1
 43
3.0
 10
-1099.500375489931
 20
1026.364611198817
 42
0.4142135623731
 10
-1101.000375489931
 20
1027.864611198817
 42
0.4142135623731
 10
-1102.500375489931
 20
1026.364611198817
 42
0.4142135623731
 10
-1101.000375489931
 20
1024.864611198818
 42
0.4142135623731
  0
LWPOLYLINE
  5
375
330
1F
100
AcDbEntity
  8
0-B_寸法
  6
Continuous
 62
     7
370
     9
100
AcDbPolyline
 90
        4
 70
     1
 43
3.0
 10
-1099.500375489931
 20
1029.364611198818
 42
0.4142135623731
 10
-1101.000375489931
 20
1030.864611198818
 42
0.4142135623731
 10
-1102.500375489931
 20
1029.364611198818
 42
0.4142135623731
 10
-1101.000375489931
 20
1027.864611198818
 42
0.4142135623731
  0
LINE
  5
376
330
1F
100
AcDbEntity
  8
0-B_寸法
  6
Continuous
 62
   120
370
     5
100
AcDbLine
 10
-1101.000375489931
 20
1029.364611198818
 30
0.0
 11
-1101.000375489931
 21
1026.364611198817
 31
0.0
  0
LINE
  5
377
330
1F
100
AcDbEntity
  8
0-0_補助線
  6
JWW_HOJO
 62
   120
370
     5
100
AcDbLine
 10
-1251.000375489931
 20
-695.6353888011819
 30
0.0
 11
-1251.000375489931
 21
1104.364611198818
 31
0.0
  0
TEXT
  5
378
330
1F
100
AcDbEntity
  8
0-B_寸法
  6
Continuous
 62
     7
370
   211
100
AcDbText
 10
-1128.690354280804
 20
-1409.357281129894
 30
0.0
 40
68.58
  1
3
 50
90.0
  7
ＭＳ ゴシック
100
AcDbText
  0
TEXT
  5
379
330
1F
100
AcDbEntity
  8
0-B_寸法
  6
Continuous
 62
     7
370
   211
100
AcDbText
 10
-1128.690354280804
 20
-1932.385388801183
 30
0.0
 40
68.58
  1
ＤＨ＝361
 50
90.0
 41
1.148148148148148
  7
ＭＳ ゴシック
100
AcDbText
  0
TEXT
  5
37A
330
1F
100
AcDbEntity
  8
0-B_寸法
  6
Continuous
 62
     7
370
   211
100
AcDbText
 10
-1128.690354280804
 20
-2120.635056922521
 30
0.0
 40
68.58
  1
100
 50
90.0
 41
1.111111111111111
  7
ＭＳ ゴシック
100
AcDbText
  0
LWPOLYLINE
  5
37B
330
1F
100
AcDbEntity
  8
0-B_寸法
  6
Continuous
 62
     7
370
     9
100
AcDbPolyline
 90
        4
 70
     1
 43
3.0
 10
-1099.500354280804
 20
-2120.634725043858
 42
0.4142135623731
 10
-1101.000354280804
 20
-2119.134725043858
 42
0.4142135623731
 10
-1102.500354280804
 20
-2120.634725043858
 42
0.4142135623731
 10
-1101.000354280804
 20
-2122.134725043858
 42
0.4142135623731
  0
LINE
  5
37C
330
1F
100
AcDbEntity
  8
0-B_寸法
  6
Continuous
 62
   120
370
     5
100
AcDbLine
 10
-1101.000354280804
 20
-1970.635388801182
 30
0.0
 11
-1101.000354280804
 21
-2120.634725043858
 31
0.0
  0
LWPOLYLINE
  5
37D
330
1F
100
AcDbEntity
  8
0-B_寸法
  6
Continuous
 62
     7
370
     9
100
AcDbPolyline
 90
        4
 70
     1
 43
3.0
 10
-1099.500354280804
 20
-1970.635388801182
 42
0.4142135623731
 10
-1101.000354280804
 20
-1969.135388801182
 42
0.4142135623731
 10
-1102.500354280804
 20
-1970.635388801182
 42
0.4142135623731
 10
-1101.000354280804
 20
-1972.135388801182
 42
0.4142135623731
  0
LINE
  5
37E
330
1F
100
AcDbEntity
  8
0-B_寸法
  6
Continuous
 62
   120
370
     5
100
AcDbLine
 10
-1101.000354280804
 20
-1429.135388801182
 30
0.0
 11
-1101.000354280804
 21
-1970.635388801182
 31
0.0
  0
LWPOLYLINE
  5
37F
330
1F
100
AcDbEntity
  8
0-B_寸法
  6
Continuous
 62
     7
370
     9
100
AcDbPolyline
 90
        4
 70
     1
 43
3.0
 10
-1099.500354280804
 20
-1429.135388801182
 42
0.4142135623731
 10
-1101.000354280804
 20
-1427.635388801182
 42
0.4142135623731
 10
-1102.500354280804
 20
-1429.135388801182
 42
0.4142135623731
 10
-1101.000354280804
 20
-1430.635388801182
 42
0.4142135623731
  0
LWPOLYLINE
  5
380
330
1F
100
AcDbEntity
  8
0-B_寸法
  6
Continuous
 62
     7
370
     9
100
AcDbPolyline
 90
        4
 70
     1
 43
3.0
 10
-1099.500354280804
 20
-1424.635388801182
 42
0.4142135623731
 10
-1101.000354280804
 20
-1423.135388801182
 42
0.4142135623731
 10
-1102.500354280804
 20
-1424.635388801182
 42
0.4142135623731
 10
-1101.000354280804
 20
-1426.135388801182
 42
0.4142135623731
  0
LINE
  5
381
330
1F
100
AcDbEntity
  8
0-B_寸法
  6
Continuous
 62
   120
370
     5
100
AcDbLine
 10
-1101.000354280804
 20
-1424.635388801182
 30
0.0
 11
-1101.000354280804
 21
-1429.135388801182
 31
0.0
  0
LINE
  5
382
330
1F
100
AcDbEntity
  8
0-B_寸法
  6
Continuous
 62
   120
370
     5
100
AcDbLine
 10
-1101.000354280804
 20
-2120.634725043858
 30
0.0
 11
-1251.000354280804
 21
-2120.634725043858
 31
0.0
  0
LINE
  5
383
330
1F
100
AcDbEntity
  8
0-B_寸法
  6
Continuous
 62
   120
370
     5
100
AcDbLine
 10
-1101.000354280804
 20
-1970.635388801182
 30
0.0
 11
-1251.000354280804
 21
-1970.635388801182
 31
0.0
  0
LINE
  5
384
330
1F
100
AcDbEntity
  8
0-B_寸法
  6
Continuous
 62
   120
370
     5
100
AcDbLine
 10
-1101.000354280804
 20
-1429.135388801182
 30
0.0
 11
-1251.000354280804
 21
-1429.135388801182
 31
0.0
  0
LINE
  5
385
330
1F
100
AcDbEntity
  8
0-B_寸法
  6
Continuous
 62
   120
370
     5
100
AcDbLine
 10
-1101.000354280804
 20
-1424.635388801182
 30
0.0
 11
-1251.000354280804
 21
-1424.635388801182
 31
0.0
  0
LINE
  5
386
330
1F
100
AcDbEntity
  8
0-0_補助線
  6
JWW_HOJO
 62
   120
370
     5
100
AcDbLine
 10
-1251.000354280804
 20
-1295.635388801182
 30
0.0
 11
-1251.000354280804
 21
-2195.634725043858
 31
0.0
  0
LINE
  5
387
330
1F
100
AcDbEntity
  8
0-6_桟木
  6
Continuous
 62
    92
370
    13
100
AcDbLine
 10
-1326.001105614151
 20
-1370.634725043858
 30
0.0
 11
-1326.001105614151
 21
-1424.634725043858
 31
0.0
  0
TEXT
  5
388
330
1F
100
AcDbEntity
  8
0-B_寸法
  6
Continuous
 62
     7
370
   211
100
AcDbText
 10
3611.309645719198
 20
-827.6353888011824
 30
0.0
 40
68.58
  1
15.5
 50
90.0
 41
1.125
  7
ＭＳ ゴシック
100
AcDbText
  0
TEXT
  5
389
330
1F
100
AcDbEntity
  8
0-B_寸法
  6
Continuous
 62
     7
370
   211
100
AcDbText
 10
3611.309645719198
 20
76.86461119881812
 30
0.0
 40
68.58
  1
1,069
 50
90.0
 41
1.133333333333333
  7
ＭＳ ゴシック
100
AcDbText
  0
LINE
  5
38A
330
1F
100
AcDbEntity
  8
0-B_寸法
  6
Continuous
 62
   120
370
     5
100
AcDbLine
 10
3638.999645719198
 20
-620.6353888011819
 30
0.0
 11
3488.999645719198
 21
-620.6353888011819
 31
0.0
  0
LWPOLYLINE
  5
38B
330
1F
100
AcDbEntity
  8
0-B_寸法
  6
Continuous
 62
     7
370
     9
100
AcDbPolyline
 90
        4
 70
     1
 43
3.0
 10
3640.499645719198
 20
-620.6353888011819
 42
0.4142135623731
 10
3638.999645719198
 20
-619.1353888011819
 42
0.4142135623731
 10
3637.499645719198
 20
-620.6353888011819
 42
0.4142135623731
 10
3638.999645719198
 20
-622.1353888011819
 42
0.4142135623731
  0
LINE
  5
38C
330
1F
100
AcDbEntity
  8
0-B_寸法
  6
Continuous
 62
   120
370
     5
100
AcDbLine
 10
3638.999645719198
 20
-597.3853888011826
 30
0.0
 11
3638.999645719198
 21
-620.6353888011819
 31
0.0
  0
LINE
  5
38D
330
1F
100
AcDbEntity
  8
0-B_寸法
  6
Continuous
 62
   120
370
     5
100
AcDbLine
 10
3638.999645719198
 20
-597.3853888011826
 30
0.0
 11
3488.999645719198
 21
-597.3853888011826
 31
0.0
  0
LWPOLYLINE
  5
38E
330
1F
100
AcDbEntity
  8
0-B_寸法
  6
Continuous
 62
     7
370
     9
100
AcDbPolyline
 90
        4
 70
     1
 43
3.0
 10
3640.499645719198
 20
-597.3853888011826
 42
0.4142135623731
 10
3638.999645719198
 20
-595.8853888011826
 42
0.4142135623731
 10
3637.499645719198
 20
-597.3853888011826
 42
0.4142135623731
 10
3638.999645719198
 20
-598.8853888011826
 42
0.4142135623731
  0
LINE
  5
38F
330
1F
100
AcDbEntity
  8
0-B_寸法
  6
Continuous
 62
   120
370
     5
100
AcDbLine
 10
3638.999645719198
 20
1006.114611198819
 30
0.0
 11
3638.999645719198
 21
-597.3853888011826
 31
0.0
  0
LINE
  5
390
330
1F
100
AcDbEntity
  8
0-B_寸法
  6
Continuous
 62
   120
370
     5
100
AcDbLine
 10
3638.999645719198
 20
1006.114611198819
 30
0.0
 11
3488.999645719198
 21
1006.114611198819
 31
0.0
  0
LINE
  5
391
330
1F
100
AcDbEntity
  8
0-B_寸法
  6
Continuous
 62
   120
370
     5
100
AcDbLine
 10
3638.999645719198
 20
1029.364611198818
 30
0.0
 11
3488.999645719198
 21
1029.364611198818
 31
0.0
  0
LWPOLYLINE
  5
392
330
1F
100
AcDbEntity
  8
0-B_寸法
  6
Continuous
 62
     7
370
     9
100
AcDbPolyline
 90
        4
 70
     1
 43
3.0
 10
3640.499645719198
 20
1006.114611198819
 42
0.4142135623731
 10
3638.999645719198
 20
1007.614611198819
 42
0.4142135623731
 10
3637.499645719198
 20
1006.114611198819
 42
0.4142135623731
 10
3638.999645719198
 20
1004.614611198819
 42
0.4142135623731
  0
LWPOLYLINE
  5
393
330
1F
100
AcDbEntity
  8
0-B_寸法
  6
Continuous
 62
     7
370
     9
100
AcDbPolyline
 90
        4
 70
     1
 43
3.0
 10
3640.499645719198
 20
1029.364611198818
 42
0.4142135623731
 10
3638.999645719198
 20
1030.864611198818
 42
0.4142135623731
 10
3637.499645719198
 20
1029.364611198818
 42
0.4142135623731
 10
3638.999645719198
 20
1027.864611198818
 42
0.4142135623731
  0
LINE
  5
394
330
1F
100
AcDbEntity
  8
0-B_寸法
  6
Continuous
 62
   120
370
     5
100
AcDbLine
 10
3638.999645719198
 20
1029.364611198818
 30
0.0
 11
3638.999645719198
 21
1006.114611198819
 31
0.0
  0
TEXT
  5
395
330
1F
100
AcDbEntity
  8
0-B_寸法
  6
Continuous
 62
     7
370
   211
100
AcDbText
 10
3611.309645719198
 20
1033.864611198817
 30
0.0
 40
68.58
  1
15.5
 50
90.0
 41
1.125
  7
ＭＳ ゴシック
100
AcDbText
  0
LINE
  5
396
330
1F
100
AcDbEntity
  8
0-0_補助線
  6
JWW_HOJO
 62
   120
370
     5
100
AcDbLine
 10
3488.999645719198
 20
-695.6353888011819
 30
0.0
 11
3488.999645719198
 21
1104.364611198818
 31
0.0
  0
TEXT
  5
397
330
1F
100
AcDbEntity
  8
0-B_寸法
  6
Continuous
 62
     7
370
   211
100
AcDbText
 10
3731.309666928326
 20
-1537.510388801182
 30
0.0
 40
68.58
  1
15.5
 50
90.0
 41
1.125
  7
ＭＳ ゴシック
100
AcDbText
  0
TEXT
  5
398
330
1F
100
AcDbEntity
  8
0-B_寸法
  6
Continuous
 62
     7
370
   211
100
AcDbText
 10
3731.309666928326
 20
-2060.259725043858
 30
0.0
 40
68.58
  1
15.5
 50
90.0
 41
1.125
  7
ＭＳ ゴシック
100
AcDbText
  0
TEXT
  5
399
330
1F
100
AcDbEntity
  8
0-B_寸法
  6
Continuous
 62
     7
370
   211
100
AcDbText
 10
3611.309666928326
 20
-2120.634725043858
 30
0.0
 40
68.58
  1
100
 50
90.0
 41
1.111111111111111
  7
ＭＳ ゴシック
100
AcDbText
  0
LINE
  5
39A
330
1F
100
AcDbEntity
  8
0-B_寸法
  6
Continuous
 62
   120
370
     5
100
AcDbLine
 10
3638.999666928326
 20
-2120.634725043858
 30
0.0
 11
3488.999666928326
 21
-2120.634725043858
 31
0.0
  0
LWPOLYLINE
  5
39B
330
1F
100
AcDbEntity
  8
0-B_寸法
  6
Continuous
 62
     7
370
     9
100
AcDbPolyline
 90
        4
 70
     1
 43
3.0
 10
3640.499666928325
 20
-2120.634725043858
 42
0.4142135623731
 10
3638.999666928326
 20
-2119.134725043858
 42
0.4142135623731
 10
3637.499666928326
 20
-2120.634725043858
 42
0.4142135623731
 10
3638.999666928326
 20
-2122.134725043858
 42
0.4142135623731
  0
LINE
  5
39C
330
1F
100
AcDbEntity
  8
0-B_寸法
  6
Continuous
 62
   120
370
     5
100
AcDbLine
 10
3638.999666928326
 20
-1970.634725043858
 30
0.0
 11
3638.999666928326
 21
-2120.634725043858
 31
0.0
  0
LINE
  5
39D
330
1F
100
AcDbEntity
  8
0-B_寸法
  6
Continuous
 62
   120
370
     5
100
AcDbLine
 10
3638.999666928326
 20
-1970.634725043858
 30
0.0
 11
3488.999666928326
 21
-1970.634725043858
 31
0.0
  0
LWPOLYLINE
  5
39E
330
1F
100
AcDbEntity
  8
0-B_寸法
  6
Continuous
 62
     7
370
     9
100
AcDbPolyline
 90
        4
 70
     1
 43
3.0
 10
3640.499666928325
 20
-1970.634725043858
 42
0.4142135623731
 10
3638.999666928326
 20
-1969.134725043858
 42
0.4142135623731
 10
3637.499666928326
 20
-1970.634725043858
 42
0.4142135623731
 10
3638.999666928326
 20
-1972.134725043858
 42
0.4142135623731
  0
LINE
  5
39F
330
1F
100
AcDbEntity
  8
0-B_寸法
  6
Continuous
 62
   120
370
     5
100
AcDbLine
 10
3638.999666928326
 20
-1947.384725043859
 30
0.0
 11
3638.999666928326
 21
-1970.634725043858
 31
0.0
  0
TEXT
  5
3A0
330
1F
100
AcDbEntity
  8
0-B_寸法
  6
Continuous
 62
     7
370
   211
100
AcDbText
 10
3611.309666928326
 20
-1772.63505692252
 30
0.0
 40
68.58
  1
333
 50
90.0
 41
1.111111111111111
  7
ＭＳ ゴシック
100
AcDbText
  0
LINE
  5
3A1
330
1F
100
AcDbEntity
  8
0-B_寸法
  6
Continuous
 62
   120
370
     5
100
AcDbLine
 10
3638.999666928326
 20
-1947.384725043859
 30
0.0
 11
3488.999666928326
 21
-1947.384725043859
 31
0.0
  0
LWPOLYLINE
  5
3A2
330
1F
100
AcDbEntity
  8
0-B_寸法
  6
Continuous
 62
     7
370
     9
100
AcDbPolyline
 90
        4
 70
     1
 43
3.0
 10
3640.499666928325
 20
-1947.384725043859
 42
0.4142135623731
 10
3638.999666928326
 20
-1945.884725043859
 42
0.4142135623731
 10
3637.499666928326
 20
-1947.384725043859
 42
0.4142135623731
 10
3638.999666928326
 20
-1948.884725043859
 42
0.4142135623731
  0
LINE
  5
3A3
330
1F
100
AcDbEntity
  8
0-B_寸法
  6
Continuous
 62
   120
370
     5
100
AcDbLine
 10
3638.999666928326
 20
-1447.885388801182
 30
0.0
 11
3638.999666928326
 21
-1947.384725043859
 31
0.0
  0
LINE
  5
3A4
330
1F
100
AcDbEntity
  8
0-B_寸法
  6
Continuous
 62
   120
370
     5
100
AcDbLine
 10
3638.999666928326
 20
-1447.885388801182
 30
0.0
 11
3488.999666928326
 21
-1447.885388801182
 31
0.0
  0
LINE
  5
3A5
330
1F
100
AcDbEntity
  8
0-B_寸法
  6
Continuous
 62
   120
370
     5
100
AcDbLine
 10
3638.999666928326
 20
-1424.635388801182
 30
0.0
 11
3488.999666928326
 21
-1424.635388801182
 31
0.0
  0
LWPOLYLINE
  5
3A6
330
1F
100
AcDbEntity
  8
0-B_寸法
  6
Continuous
 62
     7
370
     9
100
AcDbPolyline
 90
        4
 70
     1
 43
3.0
 10
3640.499666928325
 20
-1447.885388801182
 42
0.4142135623731
 10
3638.999666928326
 20
-1446.385388801182
 42
0.4142135623731
 10
3637.499666928326
 20
-1447.885388801182
 42
0.4142135623731
 10
3638.999666928326
 20
-1449.385388801182
 42
0.4142135623731
  0
LWPOLYLINE
  5
3A7
330
1F
100
AcDbEntity
  8
0-B_寸法
  6
Continuous
 62
     7
370
     9
100
AcDbPolyline
 90
        4
 70
     1
 43
3.0
 10
3640.499666928325
 20
-1424.635388801182
 42
0.4142135623731
 10
3638.999666928326
 20
-1423.135388801182
 42
0.4142135623731
 10
3637.499666928326
 20
-1424.635388801182
 42
0.4142135623731
 10
3638.999666928326
 20
-1426.135388801182
 42
0.4142135623731
  0
LINE
  5
3A8
330
1F
100
AcDbEntity
  8
0-B_寸法
  6
Continuous
 62
   120
370
     5
100
AcDbLine
 10
3638.999666928326
 20
-1424.635388801182
 30
0.0
 11
3638.999666928326
 21
-1447.885388801182
 31
0.0
  0
LINE
  5
3A9
330
1F
100
AcDbEntity
  8
0-0_補助線
  6
JWW_HOJO
 62
   120
370
     5
100
AcDbLine
 10
3488.999666928326
 20
-1295.635388801182
 30
0.0
 11
3488.999666928326
 21
-2195.634725043858
 31
0.0
  0
LINE
  5
3AA
330
1F
100
AcDbEntity
  8
0-6_桟木
  6
Continuous
 62
    92
370
    13
100
AcDbLine
 10
3413.999645719195
 20
-1370.634725043858
 30
0.0
 11
3413.999645719195
 21
-1424.634725043858
 31
0.0
  0
LWPOLYLINE
  5
3AB
330
1F
100
AcDbEntity
  8
0-B_寸法
  6
Continuous
 62
     7
370
     9
100
AcDbPolyline
 90
        4
 70
     1
 43
3.0
 10
3415.499645719195
 20
-1145.635388801182
 42
0.4142135623731
 10
3413.999645719195
 20
-1144.135388801182
 42
0.4142135623731
 10
3412.499645719195
 20
-1145.635388801182
 42
0.4142135623731
 10
3413.999645719195
 20
-1147.135388801182
 42
0.4142135623731
  0
LINE
  5
3AC
330
1F
100
AcDbEntity
  8
0-B_寸法
  6
Continuous
 62
   120
370
     5
100
AcDbLine
 10
3413.999645719195
 20
-1145.635388801182
 30
0.0
 11
3413.999645719195
 21
-1295.635388801182
 31
0.0
  0
LINE
  5
3AD
330
1F
100
AcDbEntity
  8
0-0_補助線
  6
JWW_HOJO
 62
   120
370
     5
100
AcDbLine
 10
-5181.000375489932
 20
-695.6353888011819
 30
0.0
 11
-1251.000375489931
 21
-695.6353888011819
 31
0.0
  0
LINE
  5
3AE
330
1F
100
AcDbEntity
  8
0-0_補助線
  6
JWW_HOJO
 62
   120
370
     5
100
AcDbLine
 10
-1251.000375489931
 20
1104.364611198818
 30
0.0
 11
-5181.000375489932
 21
1104.364611198818
 31
0.0
  0
LINE
  5
3AF
330
1F
100
AcDbEntity
  8
0-0_補助線
  6
JWW_HOJO
 62
   120
370
     5
100
AcDbLine
 10
-1251.000354280804
 20
-2195.634725043858
 30
0.0
 11
-5181.000375489932
 21
-2195.634725043858
 31
0.0
  0
LINE
  5
3B0
330
1F
100
AcDbEntity
  8
0-0_補助線
  6
JWW_HOJO
 62
   120
370
     5
100
AcDbLine
 10
-5181.000375489932
 20
-1295.635388801182
 30
0.0
 11
-1251.000354280804
 21
-1295.635388801182
 31
0.0
  0
LINE
  5
3B1
330
1F
100
AcDbEntity
  8
0-6_桟木
  6
Continuous
 62
    92
370
    13
100
AcDbLine
 10
-1326.001105614151
 20
-1424.634725043858
 30
0.0
 11
-5106.001105614152
 21
-1424.634725043858
 31
0.0
  0
LINE
  5
3B2
330
1F
100
AcDbEntity
  8
0-6_桟木
  6
Continuous
 62
    92
370
    13
100
AcDbLine
 10
-5106.001105614152
 20
-1370.634725043858
 30
0.0
 11
-1326.001105614151
 21
-1370.634725043858
 31
0.0
  0
LINE
  5
3B3
330
1F
100
AcDbEntity
  8
0-0_補助線
  6
JWW_HOJO
 62
   120
370
     5
100
AcDbLine
 10
-441.000354280801
 20
-695.6353888011819
 30
0.0
 11
3488.999645719198
 21
-695.6353888011819
 31
0.0
  0
LINE
  5
3B4
330
1F
100
AcDbEntity
  8
0-0_補助線
  6
JWW_HOJO
 62
   120
370
     5
100
AcDbLine
 10
3488.999645719198
 20
1104.364611198818
 30
0.0
 11
-441.000354280801
 21
1104.364611198818
 31
0.0
  0
LINE
  5
3B5
330
1F
100
AcDbEntity
  8
0-0_補助線
  6
JWW_HOJO
 62
   120
370
     5
100
AcDbLine
 10
3488.999666928326
 20
-2195.634725043858
 30
0.0
 11
-441.0003542808028
 21
-2195.634725043858
 31
0.0
  0
LINE
  5
3B6
330
1F
100
AcDbEntity
  8
0-0_補助線
  6
JWW_HOJO
 62
   120
370
     5
100
AcDbLine
 10
-441.0003542808028
 20
-1295.635388801182
 30
0.0
 11
3488.999666928326
 21
-1295.635388801182
 31
0.0
  0
LINE
  5
3B7
330
1F
100
AcDbEntity
  8
0-6_桟木
  6
Continuous
 62
    92
370
    13
100
AcDbLine
 10
3413.999645719195
 20
-1424.634725043858
 30
0.0
 11
-366.0003542808045
 21
-1424.634725043858
 31
0.0
  0
LINE
  5
3B8
330
1F
100
AcDbEntity
  8
0-6_桟木
  6
Continuous
 62
    92
370
    13
100
AcDbLine
 10
-366.0003542808045
 20
-1370.634725043858
 30
0.0
 11
3413.999645719195
 21
-1370.634725043858
 31
0.0
  0
LINE
  5
3B9
330
1F
100
AcDbEntity
  8
0-B_寸法
  6
Continuous
 62
   120
370
     5
100
AcDbLine
 10
-366.0003542808045
 20
-1145.635388801182
 30
0.0
 11
3413.999645719195
 21
-1145.635388801182
 31
0.0
  0
LINE
  5
3BA
330
1F
100
AcDbEntity
  8
F-1_枠
  6
Continuous
 62
   200
370
    20
100
AcDbLine
 10
5689.998977248734
 20
4174.999769056166
 30
0.0
 11
5689.998977248734
 21
-4195.000217025344
 31
0.0
  0
LINE
  5
3BB
330
1F
100
AcDbEntity
  8
F-0_補助線
  6
JWW_HOJO
 62
   120
370
     5
100
AcDbLine
 10
-6300.0
 20
-4455.0
 30
0.0
 11
-6300.0
 21
4424.999604096284
 31
0.0
  0
LINE
  5
3BC
330
1F
100
AcDbEntity
  8
F-0_補助線
  6
JWW_HOJO
 62
   120
370
     5
100
AcDbLine
 10
-6300.0
 20
4424.999604096284
 30
0.0
 11
5999.999010240709
 21
4424.999604096284
 31
0.0
  0
LINE
  5
3BD
330
1F
100
AcDbEntity
  8
F-0_補助線
  6
JWW_HOJO
 62
   120
370
     5
100
AcDbLine
 10
5999.999010240709
 20
4424.999604096284
 30
0.0
 11
5999.999010240709
 21
-4455.0
 31
0.0
  0
LINE
  5
3BE
330
1F
100
AcDbEntity
  8
F-0_補助線
  6
JWW_HOJO
 62
   120
370
     5
100
AcDbLine
 10
5999.999010240709
 20
-4455.0
 30
0.0
 11
-6300.0
 21
-4455.0
 31
0.0
  0
LINE
  5
3BF
330
1F
100
AcDbEntity
  8
F-1_枠
  6
Continuous
 62
   200
370
    20
100
AcDbLine
 10
-5999.999752560178
 20
4174.999769056166
 30
0.0
 11
5699.998762800888
 21
4174.999769056166
 31
0.0
  0
LINE
  5
3C0
330
1F
100
AcDbEntity
  8
F-1_枠
  6
Continuous
 62
   200
370
    20
100
AcDbLine
 10
-5999.999752560178
 20
4164.999983504013
 30
0.0
 11
5699.998762800888
 21
4164.999983504013
 31
0.0
  0
LINE
  5
3C1
330
1F
100
AcDbEntity
  8
F-1_枠
  6
Continuous
 62
   200
370
    20
100
AcDbLine
 10
-5999.999752560178
 20
4169.999505120355
 30
0.0
 11
5699.998762800888
 21
4169.999505120355
 31
0.0
  0
LINE
  5
3C2
330
1F
100
AcDbEntity
  8
F-1_枠
  6
Continuous
 62
   200
370
    20
100
AcDbLine
 10
5694.998498865077
 20
4174.999769056166
 30
0.0
 11
5694.998498865077
 21
-4195.000217025344
 31
0.0
  0
LINE
  5
3C3
330
1F
100
AcDbEntity
  8
F-1_枠
  6
Continuous
 62
   200
370
    20
100
AcDbLine
 10
5699.998762800888
 20
4174.999769056166
 30
0.0
 11
5699.998762800888
 21
-4195.000217025344
 31
0.0
  0
LINE
  5
3C4
330
1F
100
AcDbEntity
  8
F-1_枠
  6
Continuous
 62
   200
370
    20
100
AcDbLine
 10
-5999.99998453501
 20
4174.999769056166
 30
0.0
 11
-5999.99998453501
 21
-4195.000217025344
 31
0.0
  0
LINE
  5
3C5
330
1F
100
AcDbEntity
  8
F-1_枠
  6
Continuous
 62
   200
370
    20
100
AcDbLine
 10
-5994.999975771518
 20
4174.999769056166
 30
0.0
 11
-5994.999975771518
 21
-4195.000217025344
 31
0.0
  0
LINE
  5
3C6
330
1F
100
AcDbEntity
  8
F-1_枠
  6
Continuous
 62
   200
370
    20
100
AcDbLine
 10
-5989.999990205507
 20
4174.999769056166
 30
0.0
 11
-5989.999990205507
 21
-4195.000217025344
 31
0.0
  0
TEXT
  5
3C7
330
1F
100
AcDbEntity
  8
F-A_文字
  6
Continuous
 62
     7
370
     0
100
AcDbText
 10
-60.0001237199109
 20
-3861.539872937397
 30
0.0
 40
45.72
  1
図面名
  7
ＭＳ ゴシック
100
AcDbText
  0
TEXT
  5
3C8
330
1F
100
AcDbEntity
  8
F-A_文字
  6
Continuous
 62
     7
370
     0
100
AcDbText
 10
2779.998729808911
 20
-3861.542512683236
 30
0.0
 40
45.72
  1
ＳＣＡＬＥ
  7
ＭＳ ゴシック
100
AcDbText
  0
TEXT
  5
3C9
330
1F
100
AcDbEntity
  8
F-A_文字
  6
Continuous
 62
     7
370
     0
100
AcDbText
 10
4279.999224688556
 20
-3861.543906916216
 30
0.0
 40
45.72
  1
ＤＡＴＥ
  7
ＭＳ ゴシック
100
AcDbText
  0
TEXT
  5
3CA
330
1F
100
AcDbEntity
  8
F-A_文字
  6
Continuous
 62
     7
370
     0
100
AcDbText
 10
4778.749126529666
 20
-3909.814562205428
 30
0.0
 40
68.58
  1
07.06.01
 41
1.145833333333333
  7
ＭＳ ゴシック
100
AcDbText
  0
TEXT
  5
3CB
330
1F
100
AcDbEntity
  8
F-A_文字
  6
Continuous
 62
     7
370
     0
100
AcDbText
 10
1180.417701903719
 20
-3917.310213665301
 30
0.0
 40
68.58
  1
造り付け家具
 41
1.138888888888889
  7
ＭＳ ゴシック
100
AcDbText
  0
TEXT
  5
3CC
330
1F
100
AcDbEntity
  8
F-A_文字
  6
Continuous
 62
     7
370
     0
100
AcDbText
 10
3383.748977248734
 20
-3917.31316797277
 30
0.0
 40
68.58
  1
1/20
 41
1.125
  7
ＭＳ ゴシック
100
AcDbText
  0
TEXT
  5
3CD
330
1F
100
AcDbEntity
  8
F-A_文字
  6
Continuous
 62
     7
370
     0
100
AcDbText
 10
349.9999175200594
 20
-3918.097343937965
 30
0.0
 40
66.06
  1
ＳＯＦＴＡＲＴ
 41
0.8333333333333334
  7
HG明朝B
100
AcDbText
  0
LINE
  5
3CE
330
1F
100
AcDbEntity
  8
F-0_補助線
  6
JWW_HOJO
 62
     7
370
     9
100
AcDbLine
 10
849.9995876002961
 20
-3785.00005515846
 30
0.0
 11
849.9995876002961
 21
-4185.000060313456
 31
0.0
  0
LINE
  5
3CF
330
1F
100
AcDbEntity
  8
F-0_補助線
  6
JWW_HOJO
 62
     7
370
     9
100
AcDbLine
 10
349.9999175200594
 20
-3785.00005515846
 30
0.0
 11
349.9999175200594
 21
-4185.000060313456
 31
0.0
  0
LINE
  5
3D0
330
1F
100
AcDbEntity
  8
F-1_枠
  6
Continuous
 62
   200
370
    20
100
AcDbLine
 10
5699.998762800888
 20
-4195.00005464296
 30
0.0
 11
-5999.999752560178
 21
-4195.00005464296
 31
0.0
  0
LINE
  5
3D1
330
1F
100
AcDbEntity
  8
F-1_枠
  6
Continuous
 62
   200
370
    20
100
AcDbLine
 10
5699.998762800888
 20
-4190.000045879467
 30
0.0
 11
-5999.999752560178
 21
-4190.000045879467
 31
0.0
  0
LINE
  5
3D2
330
1F
100
AcDbEntity
  8
F-1_枠
  6
Continuous
 62
   200
370
    20
100
AcDbLine
 10
5699.998762800888
 20
-4185.000060313456
 30
0.0
 11
-5999.999752560178
 21
-4185.000060313456
 31
0.0
  0
LINE
  5
3D3
330
1F
100
AcDbEntity
  8
F-1_枠
  6
Continuous
 62
   200
370
    20
100
AcDbLine
 10
4189.999224688556
 20
-3785.00005515846
 30
0.0
 11
4189.999224688556
 21
-4185.000060313456
 31
0.0
  0
LINE
  5
3D4
330
1F
100
AcDbEntity
  8
F-1_枠
  6
Continuous
 62
   200
370
    20
100
AcDbLine
 10
2689.998729808911
 20
-3785.00005515846
 30
0.0
 11
2689.998729808911
 21
-4185.000060313456
 31
0.0
  0
LINE
  5
3D5
330
1F
100
AcDbEntity
  8
F-1_枠
  6
Continuous
 62
   200
370
    20
100
AcDbLine
 10
-150.0001237199109
 20
-3785.00005515846
 30
0.0
 11
-150.0001237199109
 21
-4185.000060313456
 31
0.0
  0
LINE
  5
3D6
330
1F
100
AcDbEntity
  8
F-1_枠
  6
Continuous
 62
   200
370
    20
100
AcDbLine
 10
-150.0001237199109
 20
-3984.999988143508
 30
0.0
 11
5689.998977248734
 21
-3985.005416354617
 31
0.0
  0
LINE
  5
3D7
330
1F
100
AcDbEntity
  8
F-0_補助線
  6
JWW_HOJO
 62
     7
370
     9
100
AcDbLine
 10
-5989.999990205507
 20
-3984.999988143853
 30
0.0
 11
-150.0001237199109
 21
-3984.999988143853
 31
0.0
  0
LINE
  5
3D8
330
1F
100
AcDbEntity
  8
F-0_補助線
  6
JWW_HOJO
 62
     7
370
     9
100
AcDbLine
 10
-5989.999990205507
 20
-3894.999988143853
 30
0.0
 11
-150.0001237199109
 21
-3894.999988143853
 31
0.0
  0
LINE
  5
3D9
330
1F
100
AcDbEntity
  8
F-0_補助線
  6
JWW_HOJO
 62
     7
370
     9
100
AcDbLine
 10
-5989.999990205507
 20
-4074.999988143853
 30
0.0
 11
-150.0001237199109
 21
-4074.999988143853
 31
0.0
  0
LINE
  5
3DA
330
1F
100
AcDbEntity
  8
F-0_補助線
  6
JWW_HOJO
 62
     7
370
     9
100
AcDbLine
 10
-150.0002584955388
 20
-4129.999791843446
 30
0.0
 11
5689.998842473105
 21
-4130.005220054553
 31
0.0
  0
LINE
  5
3DB
330
1F
100
AcDbEntity
  8
F-0_補助線
  6
JWW_HOJO
 62
     7
370
     9
100
AcDbLine
 10
-150.0001748415872
 20
-4039.999791843484
 30
0.0
 11
5689.998926127057
 21
-4040.005220054593
 31
0.0
  0
LINE
  5
3DC
330
1F
100
AcDbEntity
  8
F-0_補助線
  6
JWW_HOJO
 62
     7
370
     9
100
AcDbLine
 10
-150.0000725978671
 20
-3929.999789283532
 30
0.0
 11
5689.999028370777
 21
-3930.005217494641
 31
0.0
  0
LINE
  5
3DD
330
1F
100
AcDbEntity
  8
F-0_補助線
  6
JWW_HOJO
 62
     7
370
     9
100
AcDbLine
 10
-149.9999889439155
 20
-3839.999789283571
 30
0.0
 11
5689.999112024728
 21
-3840.00521749468
 31
0.0
  0
LINE
  5
3DE
330
1F
100
AcDbEntity
  8
F-0_補助線
  6
JWW_HOJO
 62
     7
370
     9
100
AcDbLine
 10
2779.998729808911
 20
-3785.00005515846
 30
0.0
 11
2779.998729808911
 21
-4185.000060313456
 31
0.0
  0
LINE
  5
3DF
330
1F
100
AcDbEntity
  8
F-0_補助線
  6
JWW_HOJO
 62
     7
370
     9
100
AcDbLine
 10
-60.0001237199109
 20
-3785.00005515846
 30
0.0
 11
-60.0001237199109
 21
-4185.000060313456
 31
0.0
  0
LINE
  5
3E0
330
1F
100
AcDbEntity
  8
F-0_補助線
  6
JWW_HOJO
 62
     7
370
     9
100
AcDbLine
 10
4279.999224688556
 20
-3785.00005515846
 30
0.0
 11
4279.999224688556
 21
-4185.000060313456
 31
0.0
  0
TEXT
  5
3E1
330
1F
100
AcDbEntity
  8
F-A_文字
  6
Continuous
 62
     7
370
     0
100
AcDbText
 10
2779.998729808911
 20
-4061.542515243322
 30
0.0
 40
45.72
  1
ＦＩＬＥ
  7
ＭＳ ゴシック
100
AcDbText
  0
TEXT
  5
3E2
330
1F
100
AcDbEntity
  8
F-A_文字
  6
Continuous
 62
     7
370
     0
100
AcDbText
 10
4279.999224688556
 20
-4061.543909476301
 30
0.0
 40
45.72
  1
ＮＯ．
  7
ＭＳ ゴシック
100
AcDbText
  0
TEXT
  5
3E3
330
1F
100
AcDbEntity
  8
F-A_文字
  6
Continuous
 62
     7
370
     0
100
AcDbText
 10
1234.998729808911
 20
-4070.54072133161
 30
0.0
 40
45.72
  1
株式
  7
ＭＳ ゴシック
100
AcDbText
  0
TEXT
  5
3E4
330
1F
100
AcDbEntity
  8
F-A_文字
  6
Continuous
 62
     7
370
     9
100
AcDbText
 10
4936.249033580831
 20
-4117.314564765447
 30
0.0
 40
68.58
  1
01
 41
1.083333333333333
  7
ＭＳ ゴシック
100
AcDbText
  0
TEXT
  5
3E5
330
1F
100
AcDbEntity
  8
F-A_文字
  6
Continuous
 62
     7
370
     0
100
AcDbText
 10
1444.998729808911
 20
-4128.08243158939
 30
0.0
 40
91.44
  1
ウッドワン・・・
 41
1.109375
  7
ＭＳ ゴシック
100
AcDbText
  0
TEXT
  5
3E6
330
1F
100
AcDbEntity
  8
F-A_文字
  6
Continuous
 62
     7
370
     0
100
AcDbText
 10
1234.998729808911
 20
-4142.540721331648
 30
0.0
 40
45.72
  1
会社
  7
ＭＳ ゴシック
100
AcDbText
  0
TEXT
  5
3E7
330
1F
100
AcDbEntity
  8
F-A_文字
  6
Continuous
 62
     7
370
     0
100
AcDbText
 10
5608.403311109712
 20
-4281.441308703997
 30
0.0
 40
68.58
  1
）
  7
ＭＳ ゴシック
100
AcDbText
  0
LINE
  5
3E8
330
1F
100
AcDbEntity
  8
F-1_枠
  6
Continuous
 62
   200
370
    20
100
AcDbLine
 10
5699.998762800888
 20
-3785.00005515846
 30
0.0
 11
-5999.999752560178
 21
-3785.00005515846
 31
0.0
  0
LINE
  5
3E9
330
1F
100
AcDbEntity
  8
F-1_枠
  6
Continuous
 62
   200
370
    20
100
AcDbLine
 10
5699.998762800888
 20
-3780.00006959245
 30
0.0
 11
-5999.999752560178
 21
-3780.00006959245
 31
0.0
  0
LINE
  5
3EA
330
1F
100
AcDbEntity
  8
F-0_補助線
  6
JWW_HOJO
 62
     7
370
     9
100
AcDbLine
 10
-5247.547376752838
 20
-3785.000055158461
 30
0.0
 11
-5247.547376752838
 21
-4195.000217025344
 31
0.0
  0
LINE
  5
3EB
330
1F
100
AcDbEntity
  8
F-0_補助線
  6
JWW_HOJO
 62
     7
370
     9
100
AcDbLine
 10
-210.0001237199109
 20
-3785.00005515846
 30
0.0
 11
-210.0001237199109
 21
-4185.000060313456
 31
0.0
  0
TEXT
  5
3EC
330
1F
100
AcDbEntity
  8
F-A_文字
  6
Continuous
 62
     7
370
     0
100
AcDbText
 10
5190.195950842071
 20
-4282.835333552935
 30
0.0
 40
68.58
  1
,
  7
ＭＳ ゴシック
100
AcDbText
  0
TEXT
  5
3ED
330
1F
100
AcDbEntity
  8
F-A_文字
  6
Continuous
 62
     7
370
     0
100
AcDbText
 10
4923.937261915373
 20
-4284.22935697136
 30
0.0
 40
68.58
  1
$y
 41
1.083333333333333
  7
ＭＳ ゴシック
100
AcDbText
  0
TEXT
  5
3EE
330
1F
100
AcDbEntity
  8
F-A_文字
  6
Continuous
 62
     7
370
     0
100
AcDbText
 10
5078.673982954195
 20
-4284.22935697136
 30
0.0
 40
68.58
  1
$m
 41
1.083333333333333
  7
ＭＳ ゴシック
100
AcDbText
  0
TEXT
  5
3EF
330
1F
100
AcDbEntity
  8
F-A_文字
  6
Continuous
 62
     7
370
     0
100
AcDbText
 10
5233.410715437103
 20
-4284.22935697136
 30
0.0
 40
68.58
  1
$d
 41
1.083333333333333
  7
ＭＳ ゴシック
100
AcDbText
  0
TEXT
  5
3F0
330
1F
100
AcDbEntity
  8
F-A_文字
  6
Continuous
 62
     7
370
     0
100
AcDbText
 10
5388.147447920011
 20
-4284.22935697136
 30
0.0
 40
68.58
  1
印刷
 41
1.083333333333333
  7
ＭＳ ゴシック
100
AcDbText
  0
TEXT
  5
3F1
330
1F
100
AcDbEntity
  8
F-A_文字
  6
Continuous
 62
     7
370
     0
100
AcDbText
 10
4784.033374252999
 20
-4285.62338325081
 30
0.0
 40
68.58
  1
（
  7
ＭＳ ゴシック
100
AcDbText
  0
TEXT
  5
3F2
330
1F
100
AcDbEntity
  8
F-A_文字
  6
Continuous
 62
     7
370
     0
100
AcDbText
 10
5031.277143812345
 20
-4285.62338325081
 30
0.0
 40
68.58
  1
,
  7
ＭＳ ゴシック
100
AcDbText
  0
TEXT
  5
3F3
330
1F
100
AcDbEntity
  8
F-A_文字
  6
Continuous
 62
     7
370
     9
100
AcDbText
 10
3226.248977248734
 20
-4117.313170532875
 30
0.0
 40
68.58
  1
MQP01A_C02
 41
1.15
  7
ＭＳ ゴシック
100
AcDbText
  0
LINE
  5
3F4
330
1F
100
AcDbEntity
  8
0-6_桟木
  6
Continuous
 62
    40
370
    15
100
AcDbLine
 10
4327.50012805011
 20
-1370.635388801182
 30
0.0
 11
4986.000128050109
 21
-1370.635388801182
 31
0.0
  0
ARC
  5
3F5
330
1F
100
AcDbEntity
  8
0-6_桟木
  6
Continuous
 62
    40
370
    15
100
AcDbCircle
 10
4327.50012805011
 20
-1378.135388801182
 30
0.0
 40
7.5
100
AcDbArc
 50
90.0
 51
180.0
  0
LINE
  5
3F6
330
1F
100
AcDbEntity
  8
0-6_桟木
  6
Continuous
 62
    40
370
    15
100
AcDbLine
 10
4320.00012805011
 20
-1423.135388801182
 30
0.0
 11
4320.00012805011
 21
-1378.135388801182
 31
0.0
  0
LINE
  5
3F7
330
1F
100
AcDbEntity
  8
0-6_桟木
  6
Continuous
 62
    40
370
    15
100
AcDbLine
 10
4321.500128050112
 20
-1424.635388801182
 30
0.0
 11
4986.000128050109
 21
-1424.635388801182
 31
0.0
  0
LINE
  5
3F8
330
1F
100
AcDbEntity
  8
0-6_桟木
  6
Continuous
 62
    40
370
    15
100
AcDbLine
 10
4320.00012805011
 20
-1423.135388801182
 30
0.0
 11
4321.500128050112
 21
-1424.635388801182
 31
0.0
  0
LINE
  5
3F9
330
1F
100
AcDbEntity
  8
0-B_寸法
  6
Continuous
 62
   120
370
     5
100
AcDbLine
 10
4986.000128050109
 20
-1145.635388801182
 30
0.0
 11
4320.00012805011
 21
-1145.635388801182
 31
0.0
  0
LWPOLYLINE
  5
3FA
330
1F
100
AcDbEntity
  8
0-B_寸法
  6
Continuous
 62
     7
370
     9
100
AcDbPolyline
 90
        4
 70
     1
 43
3.0
 10
4321.50012805011
 20
-1145.635388801182
 42
0.4142135623731
 10
4320.00012805011
 20
-1144.135388801182
 42
0.4142135623731
 10
4318.500128050109
 20
-1145.635388801182
 42
0.4142135623731
 10
4320.00012805011
 20
-1147.135388801182
 42
0.4142135623731
  0
LINE
  5
3FB
330
1F
100
AcDbEntity
  8
0-B_寸法
  6
Continuous
 62
   120
370
     5
100
AcDbLine
 10
4320.00012805011
 20
-1145.635388801182
 30
0.0
 11
4320.00012805011
 21
-1295.635388801182
 31
0.0
  0
TEXT
  5
3FC
330
1F
100
AcDbEntity
  8
0-B_寸法
  6
Continuous
 62
     7
370
   211
100
AcDbText
 10
4389.750128050109
 20
-1117.945388801182
 30
0.0
 40
68.58
  1
ｶｳﾝﾀｰ＝444
 41
1.15
  7
ＭＳ ゴシック
100
AcDbText
  0
LINE
  5
3FD
330
1F
100
AcDbEntity
  8
0-1_本体
  6
Continuous
 62
     7
370
     9
100
AcDbLine
 10
4986.000128050109
 20
-1970.634725043858
 30
0.0
 11
4986.000128050109
 21
-2120.634725043858
 31
0.0
  0
LINE
  5
3FE
330
1F
100
AcDbEntity
  8
0-1_本体
  6
Continuous
 62
    40
370
    15
100
AcDbLine
 10
4986.000128050109
 20
-1424.635388801182
 30
0.0
 11
4986.000128050109
 21
-1432.135388801182
 31
0.0
  0
LINE
  5
3FF
330
1F
100
AcDbEntity
  8
0-1_本体
  6
Continuous
 62
    40
370
    15
100
AcDbLine
 10
4986.000128050109
 20
-1963.134725043858
 30
0.0
 11
4986.000128050109
 21
-1970.634725043858
 31
0.0
  0
LINE
  5
400
330
1F
100
AcDbEntity
  8
0-1_本体
  6
Continuous
 62
    40
370
    15
100
AcDbLine
 10
4374.00012805011
 20
-1424.635388801182
 30
0.0
 11
4986.000128050109
 21
-1424.635388801182
 31
0.0
  0
LINE
  5
401
330
1F
100
AcDbEntity
  8
0-1_本体
  6
Continuous
 62
    40
370
    15
100
AcDbLine
 10
4986.000128050109
 20
-1970.634725043858
 30
0.0
 11
4374.00012805011
 21
-1970.634725043858
 31
0.0
  0
LINE
  5
402
330
1F
100
AcDbEntity
  8
0-1_本体
  6
Continuous
 62
     7
370
     9
100
AcDbLine
 10
4374.00012805011
 20
-1970.634725043858
 30
0.0
 11
4374.00012805011
 21
-2120.634725043858
 31
0.0
  0
LINE
  5
403
330
1F
100
AcDbEntity
  8
0-B_寸法
  6
Continuous
 62
   120
370
     5
100
AcDbLine
 10
4515.750285881368
 20
-1664.635388801182
 30
0.0
 11
4515.750285881368
 21
-1709.635388801182
 31
0.0
  0
LWPOLYLINE
  5
404
330
1F
100
AcDbEntity
  8
0-B_寸法
  6
Continuous
 62
     7
370
     9
100
AcDbPolyline
 90
        4
 70
     1
 43
3.0
 10
4517.250285881369
 20
-1664.635388801182
 42
0.4142135623731
 10
4515.750285881368
 20
-1663.135388801182
 42
0.4142135623731
 10
4514.250285881368
 20
-1664.635388801182
 42
0.4142135623731
 10
4515.750285881368
 20
-1666.135388801182
 42
0.4142135623731
  0
LWPOLYLINE
  5
405
330
1F
100
AcDbEntity
  8
0-B_寸法
  6
Continuous
 62
     7
370
     9
100
AcDbPolyline
 90
        4
 70
     1
 43
3.0
 10
4517.250285881369
 20
-1709.635388801182
 42
0.4142135623731
 10
4515.750285881368
 20
-1708.135388801182
 42
0.4142135623731
 10
4514.250285881368
 20
-1709.635388801182
 42
0.4142135623731
 10
4515.750285881368
 20
-1711.135388801182
 42
0.4142135623731
  0
LINE
  5
406
330
1F
100
AcDbEntity
  8
0-B_寸法
  6
Continuous
 62
   120
370
     5
100
AcDbLine
 10
4530.343216522805
 20
-1658.782841247072
 30
0.0
 11
4680.343216522805
 21
-1658.782841247072
 31
0.0
  0
LINE
  5
407
330
1F
100
AcDbEntity
  8
0-B_寸法
  6
Continuous
 62
   120
370
     5
100
AcDbLine
 10
4530.343216522805
 20
-1658.782841247072
 30
0.0
 11
4515.750285881368
 21
-1684.058538549369
 31
0.0
  0
LINE
  5
408
330
1F
100
AcDbEntity
  8
0-B_寸法
  6
Continuous
 62
   120
370
     5
100
AcDbLine
 10
4515.750285881368
 20
-1664.635388801182
 30
0.0
 11
4455.750285881368
 21
-1664.635388801182
 31
0.0
  0
LINE
  5
409
330
1F
100
AcDbEntity
  8
0-B_寸法
  6
Continuous
 62
   120
370
     5
100
AcDbLine
 10
4515.750285881368
 20
-1709.635388801182
 30
0.0
 11
4455.750285881368
 21
-1709.635388801182
 31
0.0
  0
LINE
  5
40A
330
1F
100
AcDbEntity
  8
0-1_本体
  6
Continuous
 62
    40
370
    15
100
AcDbLine
 10
4374.00012805011
 20
-1447.885388801185
 30
0.0
 11
4374.00012805011
 21
-1424.635388801182
 31
0.0
  0
LINE
  5
40B
330
1F
100
AcDbEntity
  8
0-1_本体
  6
Continuous
 62
    40
370
    15
100
AcDbLine
 10
4374.00012805011
 20
-1970.634725043858
 30
0.0
 11
4374.00012805011
 21
-1947.38472504386
 31
0.0
  0
LWPOLYLINE
  5
40C
330
1F
100
AcDbEntity
  8
0-B_寸法
  6
Continuous
 62
     7
370
     9
100
AcDbPolyline
 90
        4
 70
     1
 43
3.0
 10
4987.50012805011
 20
-2345.634725043858
 42
0.4142135623731
 10
4986.000128050109
 20
-2344.134725043858
 42
0.4142135623731
 10
4984.500128050109
 20
-2345.634725043858
 42
0.4142135623731
 10
4986.000128050109
 20
-2347.134725043858
 42
0.4142135623731
  0
LINE
  5
40D
330
1F
100
AcDbEntity
  8
0-B_寸法
  6
Continuous
 62
   120
370
     5
100
AcDbLine
 10
4986.000128050109
 20
-2495.634725043858
 30
0.0
 11
4986.000128050109
 21
-2195.634725043858
 31
0.0
  0
LWPOLYLINE
  5
40E
330
1F
100
AcDbEntity
  8
0-B_寸法
  6
Continuous
 62
     7
370
     9
100
AcDbPolyline
 90
        4
 70
     1
 43
3.0
 10
4375.50012805011
 20
-2345.634725043858
 42
0.4142135623731
 10
4374.00012805011
 20
-2344.134725043858
 42
0.4142135623731
 10
4372.50012805011
 20
-2345.634725043858
 42
0.4142135623731
 10
4374.00012805011
 20
-2347.134725043858
 42
0.4142135623731
  0
LINE
  5
40F
330
1F
100
AcDbEntity
  8
0-B_寸法
  6
Continuous
 62
   120
370
     5
100
AcDbLine
 10
4374.00012805011
 20
-2495.634725043858
 30
0.0
 11
4374.00012805011
 21
-2195.634725043858
 31
0.0
  0
CIRCLE
  5
410
330
1F
100
AcDbEntity
  8
0-5_ダボ
  6
Continuous
 62
     7
370
     9
100
AcDbCircle
 10
4932.000128050111
 20
-1754.635388801182
 30
0.0
 40
3.675
  0
CIRCLE
  5
411
330
1F
100
AcDbEntity
  8
0-5_ダボ
  6
Continuous
 62
     7
370
     9
100
AcDbCircle
 10
4932.000128050111
 20
-1709.635388801182
 30
0.0
 40
3.675
  0
CIRCLE
  5
412
330
1F
100
AcDbEntity
  8
0-5_ダボ
  6
Continuous
 62
     7
370
     9
100
AcDbCircle
 10
4932.000128050111
 20
-1664.635388801182
 30
0.0
 40
3.675
  0
LINE
  5
413
330
1F
100
AcDbEntity
  8
0-0_補助線
  6
JWW_HOJO
 62
     7
370
     9
100
AcDbLine
 10
4932.000128050111
 20
-1447.885388801185
 30
0.0
 11
4932.000128050111
 21
-1947.38472504386
 31
0.0
  0
LINE
  5
414
330
1F
100
AcDbEntity
  8
0-0_補助線
  6
JWW_HOJO
 62
     7
370
     9
100
AcDbLine
 10
4437.000128050111
 20
-1447.885388801185
 30
0.0
 11
4437.000128050111
 21
-1947.38472504386
 31
0.0
  0
CIRCLE
  5
415
330
1F
100
AcDbEntity
  8
0-5_ダボ
  6
Continuous
 62
     7
370
     9
100
AcDbCircle
 10
4437.000128050111
 20
-1664.635388801182
 30
0.0
 40
3.675
  0
CIRCLE
  5
416
330
1F
100
AcDbEntity
  8
0-5_ダボ
  6
Continuous
 62
     7
370
     9
100
AcDbCircle
 10
4437.000128050111
 20
-1709.635388801182
 30
0.0
 40
3.675
  0
CIRCLE
  5
417
330
1F
100
AcDbEntity
  8
0-5_ダボ
  6
Continuous
 62
     7
370
     9
100
AcDbCircle
 10
4437.000128050111
 20
-1754.635388801182
 30
0.0
 40
3.675
  0
LINE
  5
418
330
1F
100
AcDbEntity
  8
0-B_寸法
  6
Continuous
 62
   120
370
     5
100
AcDbLine
 10
4374.00012805011
 20
-2495.634725043858
 30
0.0
 11
4986.000128050109
 21
-2495.634725043858
 31
0.0
  0
LWPOLYLINE
  5
419
330
1F
100
AcDbEntity
  8
0-B_寸法
  6
Continuous
 62
     7
370
     9
100
AcDbPolyline
 90
        4
 70
     1
 43
3.0
 10
4375.50012805011
 20
-2495.634725043858
 42
0.4142135623731
 10
4374.00012805011
 20
-2494.134725043858
 42
0.4142135623731
 10
4372.50012805011
 20
-2495.634725043858
 42
0.4142135623731
 10
4374.00012805011
 20
-2497.134725043858
 42
0.4142135623731
  0
LWPOLYLINE
  5
41A
330
1F
100
AcDbEntity
  8
0-B_寸法
  6
Continuous
 62
     7
370
     9
100
AcDbPolyline
 90
        4
 70
     1
 43
3.0
 10
4987.50012805011
 20
-2495.634725043858
 42
0.4142135623731
 10
4986.000128050109
 20
-2494.134725043858
 42
0.4142135623731
 10
4984.500128050109
 20
-2495.634725043858
 42
0.4142135623731
 10
4986.000128050109
 20
-2497.134725043858
 42
0.4142135623731
  0
LINE
  5
41B
330
1F
100
AcDbEntity
  8
0-4_棚
  6
Continuous
 62
    40
370
    15
100
AcDbLine
 10
4981.50012805011
 20
-1682.710388801185
 30
0.0
 11
4981.50012805011
 21
-1705.960388801184
 31
0.0
  0
LINE
  5
41C
330
1F
100
AcDbEntity
  8
0-4_棚
  6
Continuous
 62
    40
370
    15
100
AcDbLine
 10
4399.500128050111
 20
-1682.710388801185
 30
0.0
 11
4981.50012805011
 21
-1682.710388801185
 31
0.0
  0
LINE
  5
41D
330
1F
100
AcDbEntity
  8
0-4_棚
  6
Continuous
 62
    40
370
    15
100
AcDbLine
 10
4399.500128050111
 20
-1705.960388801184
 30
0.0
 11
4399.500128050111
 21
-1682.710388801185
 31
0.0
  0
LINE
  5
41E
330
1F
100
AcDbEntity
  8
0-4_棚
  6
Continuous
 62
    40
370
    15
100
AcDbLine
 10
4981.50012805011
 20
-1705.960388801184
 30
0.0
 11
4399.500128050111
 21
-1705.960388801184
 31
0.0
  0
LWPOLYLINE
  5
41F
330
1F
100
AcDbEntity
  8
0-B_寸法
  6
Continuous
 62
     7
370
     9
100
AcDbPolyline
 90
        4
 70
     1
 43
3.0
 10
4983.00012805011
 20
-1629.620214260124
 42
0.4142135623731
 10
4981.50012805011
 20
-1628.120214260124
 42
0.4142135623731
 10
4980.00012805011
 20
-1629.620214260124
 42
0.4142135623731
 10
4981.50012805011
 20
-1631.120214260124
 42
0.4142135623731
  0
LINE
  5
420
330
1F
100
AcDbEntity
  8
0-B_寸法
  6
Continuous
 62
   120
370
     5
100
AcDbLine
 10
4981.50012805011
 20
-1629.620214260124
 30
0.0
 11
4981.50012805011
 21
-1479.620214260124
 31
0.0
  0
LINE
  5
421
330
1F
100
AcDbEntity
  8
0-1_本体
  6
Continuous
 62
    40
370
    15
100
AcDbLine
 10
4981.50012805011
 20
-1432.135388801182
 30
0.0
 11
4981.50012805011
 21
-1963.134725043858
 31
0.0
  0
LINE
  5
422
330
1F
100
AcDbEntity
  8
0-1_本体
  6
Continuous
 62
    40
370
    15
100
AcDbLine
 10
4981.50012805011
 20
-1432.135388801182
 30
0.0
 11
4986.000128050109
 21
-1432.135388801182
 31
0.0
  0
LINE
  5
423
330
1F
100
AcDbEntity
  8
0-1_本体
  6
Continuous
 62
    40
370
    15
100
AcDbLine
 10
4986.000128050109
 20
-1963.134725043858
 30
0.0
 11
4981.500653329504
 21
-1963.134725043858
 31
0.0
  0
LINE
  5
424
330
1F
100
AcDbEntity
  8
0-1_本体
  6
Continuous
 62
    40
370
    15
100
AcDbLine
 10
4374.00012805011
 20
-1447.885388801185
 30
0.0
 11
4981.50012805011
 21
-1447.885388801185
 31
0.0
  0
LINE
  5
425
330
1F
100
AcDbEntity
  8
0-1_本体
  6
Continuous
 62
    40
370
    15
100
AcDbLine
 10
4981.50012805011
 20
-1947.38472504386
 30
0.0
 11
4374.00012805011
 21
-1947.38472504386
 31
0.0
  0
LINE
  5
426
330
1F
100
AcDbEntity
  8
0-1_本体
  6
Continuous
 62
    40
370
    15
100
AcDbLine
 10
4986.000128050109
 20
-1432.885388801185
 30
0.0
 11
4986.000128050109
 21
-1962.38472504386
 31
0.0
  0
LINE
  5
427
330
1F
100
AcDbEntity
  8
0-1_本体
  6
Continuous
 62
    40
370
    15
100
AcDbLine
 10
4986.000128050109
 20
-1962.38472504386
 30
0.0
 11
4981.500653329504
 21
-1962.38472504386
 31
0.0
  0
LINE
  5
428
330
1F
100
AcDbEntity
  8
0-1_本体
  6
Continuous
 62
    40
370
    15
100
AcDbLine
 10
4981.50012805011
 20
-1432.885388801185
 30
0.0
 11
4986.000128050109
 21
-1432.885388801185
 31
0.0
  0
LWPOLYLINE
  5
429
330
1F
100
AcDbEntity
  8
0-B_寸法
  6
Continuous
 62
     7
370
     9
100
AcDbPolyline
 90
        4
 70
     1
 43
3.0
 10
4987.50012805011
 20
-1629.620214260124
 42
0.4142135623731
 10
4986.000128050109
 20
-1628.120214260124
 42
0.4142135623731
 10
4984.500128050109
 20
-1629.620214260124
 42
0.4142135623731
 10
4986.000128050109
 20
-1631.120214260124
 42
0.4142135623731
  0
LINE
  5
42A
330
1F
100
AcDbEntity
  8
0-B_寸法
  6
Continuous
 62
   120
370
     5
100
AcDbLine
 10
4986.000128050109
 20
-1629.620214260124
 30
0.0
 11
4986.000128050109
 21
-1479.620214260124
 31
0.0
  0
LINE
  5
42B
330
1F
100
AcDbEntity
  8
0-B_寸法
  6
Continuous
 62
   120
370
     5
100
AcDbLine
 10
4981.50012805011
 20
-1629.620214260124
 30
0.0
 11
4986.000128050109
 21
-1629.620214260124
 31
0.0
  0
LINE
  5
42C
330
1F
100
AcDbEntity
  8
0-B_寸法
  6
Continuous
 62
   120
370
     5
100
AcDbLine
 10
4399.500128050111
 20
-1904.635388801182
 30
0.0
 11
4981.50012805011
 21
-1904.635388801182
 31
0.0
  0
LWPOLYLINE
  5
42D
330
1F
100
AcDbEntity
  8
0-B_寸法
  6
Continuous
 62
     7
370
     9
100
AcDbPolyline
 90
        4
 70
     1
 43
3.0
 10
4401.000128050111
 20
-1904.635388801182
 42
0.4142135623731
 10
4399.500128050111
 20
-1903.135388801182
 42
0.4142135623731
 10
4398.00012805011
 20
-1904.635388801182
 42
0.4142135623731
 10
4399.500128050111
 20
-1906.135388801182
 42
0.4142135623731
  0
LWPOLYLINE
  5
42E
330
1F
100
AcDbEntity
  8
0-B_寸法
  6
Continuous
 62
     7
370
     9
100
AcDbPolyline
 90
        4
 70
     1
 43
3.0
 10
4983.00012805011
 20
-1904.635388801182
 42
0.4142135623731
 10
4981.50012805011
 20
-1903.135388801182
 42
0.4142135623731
 10
4980.00012805011
 20
-1904.635388801182
 42
0.4142135623731
 10
4981.50012805011
 20
-1906.135388801182
 42
0.4142135623731
  0
LINE
  5
42F
330
1F
100
AcDbEntity
  8
0-B_寸法
  6
Continuous
 62
   120
370
     5
100
AcDbLine
 10
4399.500128050111
 20
-1904.635388801182
 30
0.0
 11
4399.500128050111
 21
-1754.635388801182
 31
0.0
  0
LINE
  5
430
330
1F
100
AcDbEntity
  8
0-B_寸法
  6
Continuous
 62
   120
370
     5
100
AcDbLine
 10
4981.50012805011
 20
-1904.635388801182
 30
0.0
 11
4981.50012805011
 21
-1754.635388801182
 31
0.0
  0
LINE
  5
431
330
1F
100
AcDbEntity
  8
0-0_補助線
  6
JWW_HOJO
 62
     7
370
     9
100
AcDbLine
 10
4374.00012805011
 20
-1664.635388801182
 30
0.0
 11
4981.50012805011
 21
-1664.635388801182
 31
0.0
  0
LINE
  5
432
330
1F
100
AcDbEntity
  8
0-0_補助線
  6
JWW_HOJO
 62
     7
370
     9
100
AcDbLine
 10
4374.00012805011
 20
-1754.635388801182
 30
0.0
 11
4981.50012805011
 21
-1754.635388801182
 31
0.0
  0
LINE
  5
433
330
1F
100
AcDbEntity
  8
0-0_補助線
  6
JWW_HOJO
 62
     7
370
     9
100
AcDbLine
 10
4374.00012805011
 20
-1709.635388801182
 30
0.0
 11
4981.50012805011
 21
-1709.635388801182
 31
0.0
  0
TEXT
  5
434
330
1F
100
AcDbEntity
  8
0-B_寸法
  6
Continuous
 62
     7
370
   211
100
AcDbText
 10
4993.328938917889
 20
-1601.930214260124
 30
0.0
 40
68.58
  1
3
  7
ＭＳ ゴシック
100
AcDbText
  0
TEXT
  5
435
330
1F
100
AcDbEntity
  8
0-B_寸法
  6
Continuous
 62
     7
370
   211
100
AcDbText
 10
4530.343216522805
 20
-1646.092841247072
 30
0.0
 40
68.58
  1
P30
 41
1.111111111111111
  7
ＭＳ ゴシック
100
AcDbText
  0
TEXT
  5
436
330
1F
100
AcDbEntity
  8
0-B_寸法
  6
Continuous
 62
     7
370
   211
100
AcDbText
 10
4484.25012805011
 20
-1879.060388801182
 30
0.0
 40
57.15000000000001
  1
可動棚＝388
 41
0.9999999999999999
  7
ＭＳ ゴシック
100
AcDbText
  0
TEXT
  5
437
330
1F
100
AcDbEntity
  8
0-B_寸法
  6
Continuous
 62
     7
370
   211
100
AcDbText
 10
4168.500128050109
 20
-2437.944725043858
 30
0.0
 40
68.58
  1
15.5
 41
1.125
  7
ＭＳ ゴシック
100
AcDbText
  0
TEXT
  5
438
330
1F
100
AcDbEntity
  8
0-B_寸法
  6
Continuous
 62
     7
370
   211
100
AcDbText
 10
4605.000128050112
 20
-2467.944725043858
 30
0.0
 40
68.58
  1
408
 41
1.111111111111111
  7
ＭＳ ゴシック
100
AcDbText
  0
LINE
  5
439
330
1F
100
AcDbEntity
  8
1-2_扉
  6
Continuous
 62
    40
370
    15
100
AcDbLine
 10
4374.00012805011
 20
-1970.634347256274
 30
0.0
 11
4374.00012805011
 21
-1429.135689087082
 31
0.0
  0
LINE
  5
43A
330
1F
100
AcDbEntity
  8
1-2_扉
  6
Continuous
 62
    40
370
    15
100
AcDbLine
 10
4347.000128050111
 20
-1970.634347256274
 30
0.0
 11
4374.00012805011
 21
-1970.634347256274
 31
0.0
  0
LINE
  5
43B
330
1F
100
AcDbEntity
  8
1-2_扉
  6
Continuous
 62
    40
370
    15
100
AcDbLine
 10
4347.000128050111
 20
-1429.135689087082
 30
0.0
 11
4374.00012805011
 21
-1429.135689087082
 31
0.0
  0
LINE
  5
43C
330
1F
100
AcDbEntity
  8
1-2_扉
  6
Continuous
 62
    40
370
    15
100
AcDbLine
 10
4347.000128050111
 20
-1970.634347256274
 30
0.0
 11
4347.000128050111
 21
-1429.135689087082
 31
0.0
  0
LINE
  5
43D
330
1F
100
AcDbEntity
  8
0-1_本体
  6
Continuous
 62
    40
370
    15
100
AcDbLine
 10
4377.75012805011
 20
-2120.634725043858
 30
0.0
 11
4377.75012805011
 21
-1970.634725043858
 31
0.0
  0
LINE
  5
43E
330
1F
100
AcDbEntity
  8
0-1_本体
  6
Continuous
 62
     7
370
     9
100
AcDbLine
 10
4377.75012805011
 20
-2120.634725043858
 30
0.0
 11
4374.00012805011
 21
-2120.634725043858
 31
0.0
  0
LINE
  5
43F
330
1F
100
AcDbEntity
  8
0-1_本体
  6
Continuous
 62
    40
370
    15
100
AcDbLine
 10
4401.000128050109
 20
-2120.634725043858
 30
0.0
 11
4401.000128050109
 21
-1970.634725043858
 31
0.0
  0
LINE
  5
440
330
1F
100
AcDbEntity
  8
0-1_本体
  6
Continuous
 62
    40
370
    15
100
AcDbLine
 10
4401.000128050109
 20
-2120.634725043858
 30
0.0
 11
4377.75012805011
 21
-2120.634725043858
 31
0.0
  0
LINE
  5
441
330
1F
100
AcDbEntity
  8
0-1_本体
  6
Continuous
 62
     7
370
     9
100
AcDbLine
 10
4401.000128050109
 20
-2120.634725043858
 30
0.0
 11
4986.000128050109
 21
-2120.634725043858
 31
0.0
  0
LINE
  5
442
330
1F
100
AcDbEntity
  8
0-B_寸法
  6
Continuous
 62
   120
370
     5
100
AcDbLine
 10
4986.000128050109
 20
-2345.634725043858
 30
0.0
 11
4401.000128050109
 21
-2345.634725043858
 31
0.0
  0
LWPOLYLINE
  5
443
330
1F
100
AcDbEntity
  8
0-B_寸法
  6
Continuous
 62
     7
370
     9
100
AcDbPolyline
 90
        4
 70
     1
 43
3.0
 10
4402.50012805011
 20
-2345.634725043858
 42
0.4142135623731
 10
4401.000128050109
 20
-2344.134725043858
 42
0.4142135623731
 10
4399.500128050109
 20
-2345.634725043858
 42
0.4142135623731
 10
4401.000128050109
 20
-2347.134725043858
 42
0.4142135623731
  0
LINE
  5
444
330
1F
100
AcDbEntity
  8
0-B_寸法
  6
Continuous
 62
   120
370
     5
100
AcDbLine
 10
4401.000128050109
 20
-2345.634725043858
 30
0.0
 11
4401.000128050109
 21
-2195.634725043858
 31
0.0
  0
LINE
  5
445
330
1F
100
AcDbEntity
  8
0-B_寸法
  6
Continuous
 62
   120
370
     5
100
AcDbLine
 10
4401.000128050109
 20
-2345.634725043858
 30
0.0
 11
4377.75012805011
 21
-2345.634725043858
 31
0.0
  0
LWPOLYLINE
  5
446
330
1F
100
AcDbEntity
  8
0-B_寸法
  6
Continuous
 62
     7
370
     9
100
AcDbPolyline
 90
        4
 70
     1
 43
3.0
 10
4379.25012805011
 20
-2345.634725043858
 42
0.4142135623731
 10
4377.75012805011
 20
-2344.134725043858
 42
0.4142135623731
 10
4376.25012805011
 20
-2345.634725043858
 42
0.4142135623731
 10
4377.75012805011
 20
-2347.134725043858
 42
0.4142135623731
  0
LINE
  5
447
330
1F
100
AcDbEntity
  8
0-B_寸法
  6
Continuous
 62
   120
370
     5
100
AcDbLine
 10
4377.75012805011
 20
-2345.634725043858
 30
0.0
 11
4377.75012805011
 21
-2195.634725043858
 31
0.0
  0
LINE
  5
448
330
1F
100
AcDbEntity
  8
0-B_寸法
  6
Continuous
 62
   120
370
     5
100
AcDbLine
 10
4377.75012805011
 20
-2345.634725043858
 30
0.0
 11
4374.00012805011
 21
-2345.634725043858
 31
0.0
  0
TEXT
  5
449
330
1F
100
AcDbEntity
  8
0-B_寸法
  6
Continuous
 62
     7
370
   211
100
AcDbText
 10
4618.500128050109
 20
-2317.944725043858
 30
0.0
 40
68.58
  1
390
 41
1.111111111111111
  7
ＭＳ ゴシック
100
AcDbText
  0
TEXT
  5
44A
330
1F
100
AcDbEntity
  8
0-B_寸法
  6
Continuous
 62
     7
370
   211
100
AcDbText
 10
4221.000128050109
 20
-2317.944725043858
 30
0.0
 40
68.58
  1
2.5
 41
1.111111111111111
  7
ＭＳ ゴシック
100
AcDbText
  0
ENDSEC
  0
SECTION
  2
OBJECTS
  0
DICTIONARY
  5
C
330
0
100
AcDbDictionary
281
     1
  3
ACAD_GROUP
350
D
  3
ACAD_LAYOUT
350
1A
  3
ACAD_MATERIAL
350
3B
  3
ACAD_MLEADERSTYLE
350
44C
  3
ACAD_MLINESTYLE
350
17
  3
ACAD_PLOTSETTINGS
350
19
  3
ACAD_PLOTSTYLENAME
350
E
  3
ACAD_TABLESTYLE
350
44B
  3
ACAD_VISUALSTYLE
350
2A
  0
DICTIONARY
  5
D
102
{ACAD_REACTORS
330
C
102
}
330
C
100
AcDbDictionary
281
     1
  0
DICTIONARY
  5
1A
102
{ACAD_REACTORS
330
C
102
}
330
C
100
AcDbDictionary
281
     1
  3
Layout1
350
1E
  3
Layout2
350
26
  3
Model
350
22
  0
DICTIONARY
  5
3B
102
{ACAD_REACTORS
330
C
102
}
330
C
100
AcDbDictionary
281
     1
  3
ByBlock
350
3D
  3
ByLayer
350
3C
  3
Global
350
3E
  0
DICTIONARY
  5
44C
102
{ACAD_REACTORS
330
C
102
}
330
C
100
AcDbDictionary
281
     1
  0
DICTIONARY
  5
17
102
{ACAD_REACTORS
330
C
102
}
330
C
100
AcDbDictionary
281
     1
  3
Standard
350
18
  0
DICTIONARY
  5
19
102
{ACAD_REACTORS
330
C
102
}
330
C
100
AcDbDictionary
281
     1
  0
ACDBDICTIONARYWDFLT
  5
E
102
{ACAD_REACTORS
330
C
102
}
330
C
100
AcDbDictionary
281
     1
  3
Normal
350
F
100
AcDbDictionaryWithDefault
340
F
  0
DICTIONARY
  5
44B
102
{ACAD_REACTORS
330
C
102
}
330
C
100
AcDbDictionary
281
     1
  0
DICTIONARY
  5
2A
102
{ACAD_REACTORS
330
C
102
}
330
C
100
AcDbDictionary
281
     1
  3
2dWireframe
350
2F
  3
3D Hidden
350
31
  3
3dWireframe
350
30
  3
Basic
350
32
  3
Brighten
350
36
  3
ColorChange
350
3A
  3
Conceptual
350
34
  3
Dim
350
35
  3
Facepattern
350
39
  3
Flat
350
2B
  3
FlatWithEdges
350
2C
  3
Gouraud
350
2D
  3
GouraudWithEdges
350
2E
  3
Linepattern
350
38
  3
Realistic
350
33
  3
Thicken
350
37
  0
LAYOUT
  5
1E
102
{ACAD_REACTORS
330
1A
102
}
330
1A
100
AcDbPlotSettings
  1

  2
none_device
  4

  6

 40
0.0
 41
0.0
 42
0.0
 43
0.0
 44
0.0
 45
0.0
 46
0.0
 47
0.0
 48
0.0
 49
0.0
140
0.0
141
0.0
142
1.0
143
1.0
 70
   688
 72
     0
 73
     0
 74
     5
  7

 75
    16
 76
     0
 77
     5
 78
   300
147
1.0
148
0.0
149
0.0
100
AcDbLayout
  1
Layout1
 70
     1
 71
     1
 10
0.0
 20
0.0
 11
420.0
 21
297.0
 12
0.0
 22
0.0
 32
0.0
 14
1.000000000000000E+20
 24
1.000000000000000E+20
 34
1.000000000000000E+20
 15
-1.000000000000000E+20
 25
-1.000000000000000E+20
 35
-1.000000000000000E+20
146
0.0
 13
0.0
 23
0.0
 33
0.0
 16
1.0
 26
0.0
 36
0.0
 17
0.0
 27
1.0
 37
0.0
 76
     0
330
1B
  0
LAYOUT
  5
26
102
{ACAD_REACTORS
330
1A
102
}
330
1A
100
AcDbPlotSettings
  1

  2
none_device
  4

  6

 40
0.0
 41
0.0
 42
0.0
 43
0.0
 44
0.0
 45
0.0
 46
0.0
 47
0.0
 48
0.0
 49
0.0
140
0.0
141
0.0
142
1.0
143
1.0
 70
   688
 72
     0
 73
     0
 74
     5
  7

 75
    16
 76
     0
 77
     5
 78
   300
147
1.0
148
0.0
149
0.0
100
AcDbLayout
  1
Layout2
 70
     1
 71
     2
 10
0.0
 20
0.0
 11
0.0
 21
0.0
 12
0.0
 22
0.0
 32
0.0
 14
0.0
 24
0.0
 34
0.0
 15
0.0
 25
0.0
 35
0.0
146
0.0
 13
0.0
 23
0.0
 33
0.0
 16
1.0
 26
0.0
 36
0.0
 17
0.0
 27
1.0
 37
0.0
 76
     0
330
23
  0
LAYOUT
  5
22
102
{ACAD_REACTORS
330
1A
102
}
330
1A
100
AcDbPlotSettings
  1

  2
none_device
  4

  6

 40
0.0
 41
0.0
 42
0.0
 43
0.0
 44
0.0
 45
0.0
 46
0.0
 47
0.0
 48
0.0
 49
0.0
140
0.0
141
0.0
142
1.0
143
1.0
 70
  1712
 72
     0
 73
     0
 74
     0
  7

 75
     0
 76
     0
 77
     5
 78
   300
147
1.0
148
0.0
149
0.0
100
AcDbLayout
  1
Model
 70
     1
 71
     0
 10
-6300.0
 20
-4455.0
 11
6300.0
 21
4455.0
 12
0.0
 22
0.0
 32
0.0
 14
-6300.0
 24
-4455.0
 34
0.0
 15
6300.0
 25
4455.0
 35
0.0
146
0.0
 13
0.0
 23
0.0
 33
0.0
 16
1.0
 26
0.0
 36
0.0
 17
0.0
 27
1.0
 37
0.0
 76
     0
330
1F
331
29
  0
MATERIAL
  5
3D
102
{ACAD_REACTORS
330
3B
102
}
330
3B
100
AcDbMaterial
  1
ByBlock
 72
     1
 94
      127
  0
MATERIAL
  5
3C
102
{ACAD_REACTORS
330
3B
102
}
330
3B
100
AcDbMaterial
  1
ByLayer
 72
     1
 94
      127
  0
MATERIAL
  5
3E
102
{ACAD_REACTORS
330
3B
102
}
330
3B
100
AcDbMaterial
  1
Global
 72
     1
 94
      127
  0
MLINESTYLE
  5
18
102
{ACAD_REACTORS
330
17
102
}
330
17
100
AcDbMlineStyle
  2
Standard
 70
     0
  3

 62
   256
 51
90.0
 52
90.0
 71
     2
 49
0.5
 62
   256
  6
BYLAYER
 49
-0.5
 62
   256
  6
BYLAYER
  0
ACDBPLACEHOLDER
  5
F
102
{ACAD_REACTORS
330
E
102
}
330
E
  0
VISUALSTYLE
  5
2F
102
{ACAD_REACTORS
330
2A
102
}
330
2A
100
AcDbVisualStyle
  2
2dWireframe
 70
     4
177
     2
291
     0
 71
     0
176
     1
 72
     2
176
     1
 73
     0
176
     1
 90
        0
176
     1
 40
-0.6
176
     1
 41
-30.0
176
     1
 62
     5
 63
     7
421
 16777215
176
     1
 74
     1
176
     1
 91
        4
176
     1
 64
     7
176
     1
 65
   257
176
     1
 75
     1
176
     1
175
     1
176
     1
 42
1.0
176
     1
 92
        0
176
     1
 66
   257
176
     1
 43
1.0
176
     1
 76
     1
176
     1
 77
     6
176
     1
 78
     2
176
     1
 67
     7
176
     1
 79
     5
176
     1
170
     0
176
     1
171
     0
176
     1
290
     0
176
     1
 93
        1
176
     1
 44
0.0
176
     1
173
     0
176
     1
  0
VISUALSTYLE
  5
31
102
{ACAD_REACTORS
330
2A
102
}
330
2A
100
AcDbVisualStyle
  2
3D Hidden
 70
     6
177
     2
291
     0
 71
     1
176
     1
 72
     2
176
     1
 73
     2
176
     1
 90
        0
176
     1
 40
-0.6
176
     1
 41
-30.0
176
     1
 62
     5
 63
     7
421
 16777215
176
     1
 74
     2
176
     1
 91
        2
176
     1
 64
     7
176
     1
 65
   257
176
     1
 75
     2
176
     1
175
     1
176
     1
 42
40.0
176
     1
 92
        0
176
     1
 66
   257
176
     1
 43
1.0
176
     1
 76
     1
176
     1
 77
     6
176
     1
 78
     2
176
     1
 67
     7
176
     1
 79
     3
176
     1
170
     0
176
     1
171
     0
176
     1
290
     0
176
     1
 93
        1
176
     1
 44
0.0
176
     1
173
     0
176
     1
  0
VISUALSTYLE
  5
30
102
{ACAD_REACTORS
330
2A
102
}
330
2A
100
AcDbVisualStyle
  2
3dWireframe
 70
     5
177
     2
291
     0
 71
     0
176
     1
 72
     2
176
     1
 73
     0
176
     1
 90
        0
176
     1
 40
-0.6
176
     1
 41
-30.0
176
     1
 62
     5
 63
     7
421
 16777215
176
     1
 74
     1
176
     1
 91
        4
176
     1
 64
     7
176
     1
 65
   257
176
     1
 75
     1
176
     1
175
     1
176
     1
 42
1.0
176
     1
 92
        0
176
     1
 66
   257
176
     1
 43
1.0
176
     1
 76
     1
176
     1
 77
     6
176
     1
 78
     2
176
     1
 67
     7
176
     1
 79
     5
176
     1
170
     0
176
     1
171
     0
176
     1
290
     0
176
     1
 93
        1
176
     1
 44
0.0
176
     1
173
     0
176
     1
  0
VISUALSTYLE
  5
32
102
{ACAD_REACTORS
330
2A
102
}
330
2A
100
AcDbVisualStyle
  2
Basic
 70
     7
177
     2
291
     1
 71
     1
176
     1
 72
     0
176
     1
 73
     1
176
     1
 90
        0
176
     1
 40
-0.6
176
     1
 41
-30.0
176
     1
 62
     5
 63
     7
421
 16777215
176
     1
 74
     0
176
     1
 91
        4
176
     1
 64
     7
176
     1
 65
   257
176
     1
 75
     1
176
     1
175
     1
176
     1
 42
1.0
176
     1
 92
        8
176
     1
 66
     7
176
     1
 43
1.0
176
     1
 76
     1
176
     1
 77
     6
176
     1
 78
     2
176
     1
 67
     7
176
     1
 79
     5
176
     1
170
     0
176
     1
171
     0
176
     1
290
     0
176
     1
 93
        1
176
     1
 44
0.0
176
     1
173
     0
176
     1
  0
VISUALSTYLE
  5
36
102
{ACAD_REACTORS
330
2A
102
}
330
2A
100
AcDbVisualStyle
  2
Brighten
 70
    12
177
     2
291
     1
 71
     2
176
     1
 72
     2
176
     1
 73
     0
176
     1
 90
        0
176
     1
 40
-0.6
176
     1
 41
-30.0
176
     1
 62
     5
 63
     7
421
 16777215
176
     1
 74
     1
176
     1
 91
        4
176
     1
 64
     7
176
     1
 65
   257
176
     1
 75
     1
176
     1
175
     1
176
     1
 42
1.0
176
     1
 92
        8
176
     1
 66
     7
176
     1
 43
1.0
176
     1
 76
     1
176
     1
 77
     6
176
     1
 78
     2
176
     1
 67
     7
176
     1
 79
     5
176
     1
170
     0
176
     1
171
     0
176
     1
290
     0
176
     1
 93
        1
176
     1
 44
50.0
176
     1
173
     0
176
     1
  0
VISUALSTYLE
  5
3A
102
{ACAD_REACTORS
330
2A
102
}
330
2A
100
AcDbVisualStyle
  2
ColorChange
 70
    16
177
     2
291
     1
 71
     2
176
     1
 72
     2
176
     1
 73
     3
176
     1
 90
        0
176
     1
 40
-0.6
176
     1
 41
-30.0
176
     1
 62
     5
 63
     8
421
  8421504
176
     1
 74
     1
176
     1
 91
        4
176
     1
 64
     7
176
     1
 65
   257
176
     1
 75
     1
176
     1
175
     1
176
     1
 42
1.0
176
     1
 92
        8
176
     1
 66
     8
424
  8421504
176
     1
 43
1.0
176
     1
 76
     1
176
     1
 77
     6
176
     1
 78
     2
176
     1
 67
     7
176
     1
 79
     5
176
     1
170
     0
176
     1
171
     0
176
     1
290
     0
176
     1
 93
        1
176
     1
 44
0.0
176
     1
173
     0
176
     1
  0
VISUALSTYLE
  5
34
102
{ACAD_REACTORS
330
2A
102
}
330
2A
100
AcDbVisualStyle
  2
Conceptual
 70
     9
177
     2
291
     0
 71
     3
176
     1
 72
     2
176
     1
 73
     0
176
     1
 90
        0
176
     1
 40
-0.6
176
     1
 41
-30.0
176
     1
 62
     5
 63
     7
421
 16777215
176
     1
 74
     2
176
     1
 91
        2
176
     1
 64
     7
176
     1
 65
   257
176
     1
 75
     1
176
     1
175
     1
176
     1
 42
40.0
176
     1
 92
        8
176
     1
 66
     7
176
     1
 43
1.0
176
     1
 76
     1
176
     1
 77
     6
176
     1
 78
     2
176
     1
 67
     7
176
     1
 79
     3
176
     1
170
     0
176
     1
171
     0
176
     1
290
     0
176
     1
 93
        1
176
     1
 44
0.0
176
     1
173
     0
176
     1
  0
VISUALSTYLE
  5
35
102
{ACAD_REACTORS
330
2A
102
}
330
2A
100
AcDbVisualStyle
  2
Dim
 70
    11
177
     2
291
     1
 71
     2
176
     1
 72
     2
176
     1
 73
     0
176
     1
 90
        0
176
     1
 40
-0.6
176
     1
 41
-30.0
176
     1
 62
     5
 63
     7
421
 16777215
176
     1
 74
     1
176
     1
 91
        4
176
     1
 64
     7
176
     1
 65
   257
176
     1
 75
     1
176
     1
175
     1
176
     1
 42
1.0
176
     1
 92
        8
176
     1
 66
     7
176
     1
 43
1.0
176
     1
 76
     1
176
     1
 77
     6
176
     1
 78
     2
176
     1
 67
     7
176
     1
 79
     5
176
     1
170
     0
176
     1
171
     0
176
     1
290
     0
176
     1
 93
        1
176
     1
 44
-50.0
176
     1
173
     0
176
     1
  0
VISUALSTYLE
  5
39
102
{ACAD_REACTORS
330
2A
102
}
330
2A
100
AcDbVisualStyle
  2
Facepattern
 70
    15
177
     2
291
     1
 71
     2
176
     1
 72
     2
176
     1
 73
     0
176
     1
 90
        0
176
     1
 40
-0.6
176
     1
 41
-30.0
176
     1
 62
     5
 63
     7
421
 16777215
176
     1
 74
     1
176
     1
 91
        4
176
     1
 64
     7
176
     1
 65
   257
176
     1
 75
     1
176
     1
175
     1
176
     1
 42
1.0
176
     1
 92
        8
176
     1
 66
     7
176
     1
 43
1.0
176
     1
 76
     1
176
     1
 77
     6
176
     1
 78
     2
176
     1
 67
     7
176
     1
 79
     5
176
     1
170
     0
176
     1
171
     0
176
     1
290
     0
176
     1
 93
        1
176
     1
 44
0.0
176
     1
173
     0
176
     1
  0
VISUALSTYLE
  5
2B
102
{ACAD_REACTORS
330
2A
102
}
330
2A
100
AcDbVisualStyle
  2
Flat
 70
     0
177
     2
291
     1
 71
     2
176
     1
 72
     1
176
     1
 73
     1
176
     1
 90
        2
176
     1
 40
-0.6
176
     1
 41
30.0
176
     1
 62
     5
 63
     7
421
 16777215
176
     1
 74
     0
176
     1
 91
        4
176
     1
 64
     7
176
     1
 65
   257
176
     1
 75
     1
176
     1
175
     1
176
     1
 42
1.0
176
     1
 92
        8
176
     1
 66
     7
176
     1
 43
1.0
176
     1
 76
     1
176
     1
 77
     6
176
     1
 78
     2
176
     1
 67
     7
176
     1
 79
     5
176
     1
170
     0
176
     1
171
     0
176
     1
290
     0
176
     1
 93
       13
176
     1
 44
0.0
176
     1
173
     0
176
     1
  0
VISUALSTYLE
  5
2C
102
{ACAD_REACTORS
330
2A
102
}
330
2A
100
AcDbVisualStyle
  2
FlatWithEdges
 70
     1
177
     2
291
     1
 71
     2
176
     1
 72
     1
176
     1
 73
     1
176
     1
 90
        2
176
     1
 40
-0.6
176
     1
 41
30.0
176
     1
 62
     5
 63
     7
421
 16777215
176
     1
 74
     1
176
     1
 91
        4
176
     1
 64
     7
176
     1
 65
   257
176
     1
 75
     1
176
     1
175
     1
176
     1
 42
1.0
176
     1
 92
        0
176
     1
 66
   257
176
     1
 43
1.0
176
     1
 76
     1
176
     1
 77
     6
176
     1
 78
     2
176
     1
 67
     7
176
     1
 79
     5
176
     1
170
     0
176
     1
171
     0
176
     1
290
     0
176
     1
 93
       13
176
     1
 44
0.0
176
     1
173
     0
176
     1
  0
VISUALSTYLE
  5
2D
102
{ACAD_REACTORS
330
2A
102
}
330
2A
100
AcDbVisualStyle
  2
Gouraud
 70
     2
177
     2
291
     1
 71
     2
176
     1
 72
     2
176
     1
 73
     1
176
     1
 90
        2
176
     1
 40
-0.6
176
     1
 41
30.0
176
     1
 62
     5
 63
     7
421
 16777215
176
     1
 74
     0
176
     1
 91
        4
176
     1
 64
     7
176
     1
 65
   257
176
     1
 75
     1
176
     1
175
     1
176
     1
 42
1.0
176
     1
 92
        0
176
     1
 66
     7
176
     1
 43
1.0
176
     1
 76
     1
176
     1
 77
     6
176
     1
 78
     2
176
     1
 67
     7
176
     1
 79
     5
176
     1
170
     0
176
     1
171
     0
176
     1
290
     0
176
     1
 93
       13
176
     1
 44
0.0
176
     1
173
     0
176
     1
  0
VISUALSTYLE
  5
2E
102
{ACAD_REACTORS
330
2A
102
}
330
2A
100
AcDbVisualStyle
  2
GouraudWithEdges
 70
     3
177
     2
291
     1
 71
     2
176
     1
 72
     2
176
     1
 73
     1
176
     1
 90
        2
176
     1
 40
-0.6
176
     1
 41
30.0
176
     1
 62
     5
 63
     7
421
 16777215
176
     1
 74
     1
176
     1
 91
        4
176
     1
 64
     7
176
     1
 65
   257
176
     1
 75
     1
176
     1
175
     1
176
     1
 42
1.0
176
     1
 92
        0
176
     1
 66
   257
176
     1
 43
1.0
176
     1
 76
     1
176
     1
 77
     6
176
     1
 78
     2
176
     1
 67
     7
176
     1
 79
     5
176
     1
170
     0
176
     1
171
     0
176
     1
290
     0
176
     1
 93
       13
176
     1
 44
0.0
176
     1
173
     0
176
     1
  0
VISUALSTYLE
  5
38
102
{ACAD_REACTORS
330
2A
102
}
330
2A
100
AcDbVisualStyle
  2
Linepattern
 70
    14
177
     2
291
     1
 71
     2
176
     1
 72
     2
176
     1
 73
     0
176
     1
 90
        0
176
     1
 40
-0.6
176
     1
 41
-30.0
176
     1
 62
     5
 63
     7
421
 16777215
176
     1
 74
     1
176
     1
 91
        4
176
     1
 64
     7
176
     1
 65
   257
176
     1
 75
     7
176
     1
175
     7
176
     1
 42
1.0
176
     1
 92
        8
176
     1
 66
     7
176
     1
 43
1.0
176
     1
 76
     1
176
     1
 77
     6
176
     1
 78
     2
176
     1
 67
     7
176
     1
 79
     5
176
     1
170
     0
176
     1
171
     0
176
     1
290
     0
176
     1
 93
        1
176
     1
 44
0.0
176
     1
173
     0
176
     1
  0
VISUALSTYLE
  5
33
102
{ACAD_REACTORS
330
2A
102
}
330
2A
100
AcDbVisualStyle
  2
Realistic
 70
     8
177
     2
291
     0
 71
     2
176
     1
 72
     2
176
     1
 73
     0
176
     1
 90
        0
176
     1
 40
-0.6
176
     1
 41
-30.0
176
     1
 62
     5
 63
     7
421
 16777215
176
     1
 74
     1
176
     1
 91
        0
176
     1
 64
     7
176
     1
 65
   257
176
     1
 75
     1
176
     1
175
     1
176
     1
 42
1.0
176
     1
 92
        8
176
     1
 66
     8
424
  7895160
176
     1
 43
1.0
176
     1
 76
     1
176
     1
 77
     6
176
     1
 78
     2
176
     1
 67
     7
176
     1
 79
     5
176
     1
170
     0
176
     1
171
     0
176
     1
290
     0
176
     1
 93
       13
176
     1
 44
0.0
176
     1
173
     0
176
     1
  0
VISUALSTYLE
  5
37
102
{ACAD_REACTORS
330
2A
102
}
330
2A
100
AcDbVisualStyle
  2
Thicken
 70
    13
177
     2
291
     1
 71
     2
176
     1
 72
     2
176
     1
 73
     0
176
     1
 90
        0
176
     1
 40
-0.6
176
     1
 41
-30.0
176
     1
 62
     5
 63
     7
421
 16777215
176
     1
 74
     1
176
     1
 91
        4
176
     1
 64
     7
176
     1
 65
   257
176
     1
 75
     1
176
     1
175
     1
176
     1
 42
1.0
176
     1
 92
       12
176
     1
 66
     7
176
     1
 43
1.0
176
     1
 76
     1
176
     1
 77
     6
176
     1
 78
     2
176
     1
 67
     7
176
     1
 79
     5
176
     1
170
     0
176
     1
171
     0
176
     1
290
     0
176
     1
 93
        1
176
     1
 44
0.0
176
     1
173
     0
176
     1
  0
ENDSEC
  0
EOF
