  0
SECTION
  2
HEADER
  9
$ACADVER
  1
AC1024
  9
$ACADMAINTVER
 70
     6
  9
$DWGCODEPAGE
  3
ANSI_932
  9
$INSBASE
 10
0.0
 20
0.0
 30
0.0
  9
$EXTMIN
 10
-6300.0
 20
-4455.0
 30
0.0
  9
$EXTMAX
 10
6300.0
 20
4455.0
 30
0.0
  9
$LIMMIN
 10
-6300.0
 20
-4455.0
  9
$LIMMAX
 10
6300.0
 20
4455.0
  9
$ORTHOMODE
 70
     0
  9
$REGENMODE
 70
     1
  9
$FILLMODE
 70
     1
  9
$QTEXTMODE
 70
     0
  9
$MIRRTEXT
 70
     1
  9
$LTSCALE
 40
30.0
  9
$ATTMODE
 70
     1
  9
$TEXTSIZE
 40
2.5
  9
$TRACEWID
 40
1.0
  9
$TEXTSTYLE
  7
Standard
  9
$CLAYER
  8
0
  9
$CELTYPE
  6
ByLayer
  9
$CECOLOR
 62
   256
  9
$CELTSCALE
 40
1.0
  9
$DISPSILH
 70
     0
  9
$DIMSCALE
 40
1.0
  9
$DIMASZ
 40
2.5
  9
$DIMEXO
 40
0.625
  9
$DIMDLI
 40
3.75
  9
$DIMRND
 40
0.0
  9
$DIMDLE
 40
0.0
  9
$DIMEXE
 40
1.25
  9
$DIMTP
 40
0.0
  9
$DIMTM
 40
0.0
  9
$DIMTXT
 40
2.5
  9
$DIMCEN
 40
2.5
  9
$DIMTSZ
 40
0.0
  9
$DIMTOL
 70
     0
  9
$DIMLIM
 70
     0
  9
$DIMTIH
 70
     0
  9
$DIMTOH
 70
     0
  9
$DIMSE1
 70
     0
  9
$DIMSE2
 70
     0
  9
$DIMTAD
 70
     1
  9
$DIMZIN
 70
     8
  9
$DIMBLK
  1

  9
$DIMASO
 70
     1
  9
$DIMSHO
 70
     1
  9
$DIMPOST
  1

  9
$DIMAPOST
  1

  9
$DIMALT
 70
     0
  9
$DIMALTD
 70
     3
  9
$DIMALTF
 40
0.03937007874016
  9
$DIMLFAC
 40
1.0
  9
$DIMTOFL
 70
     1
  9
$DIMTVP
 40
0.0
  9
$DIMTIX
 70
     0
  9
$DIMSOXD
 70
     0
  9
$DIMSAH
 70
     0
  9
$DIMBLK1
  1

  9
$DIMBLK2
  1

  9
$DIMSTYLE
  2
ISO-25
  9
$DIMCLRD
 70
     0
  9
$DIMCLRE
 70
     0
  9
$DIMCLRT
 70
     0
  9
$DIMTFAC
 40
1.0
  9
$DIMGAP
 40
0.625
  9
$DIMJUST
 70
     0
  9
$DIMSD1
 70
     0
  9
$DIMSD2
 70
     0
  9
$DIMTOLJ
 70
     0
  9
$DIMTZIN
 70
     8
  9
$DIMALTZ
 70
     0
  9
$DIMALTTZ
 70
     0
  9
$DIMUPT
 70
     0
  9
$DIMDEC
 70
     2
  9
$DIMTDEC
 70
     2
  9
$DIMALTU
 70
     2
  9
$DIMALTTD
 70
     3
  9
$DIMTXSTY
  7
Standard
  9
$DIMAUNIT
 70
     0
  9
$DIMADEC
 70
     0
  9
$DIMALTRND
 40
0.0
  9
$DIMAZIN
 70
     0
  9
$DIMDSEP
 70
    44
  9
$DIMATFIT
 70
     3
  9
$DIMFRAC
 70
     0
  9
$DIMLDRBLK
  1

  9
$DIMLUNIT
 70
     2
  9
$DIMLWD
 70
    -2
  9
$DIMLWE
 70
    -2
  9
$DIMTMOVE
 70
     0
  9
$DIMFXL
 40
1.0
  9
$DIMFXLON
 70
     0
  9
$DIMJOGANG
 40
0.7853981633974483
  9
$DIMTFILL
 70
     0
  9
$DIMTFILLCLR
 70
     0
  9
$DIMARCSYM
 70
     0
  9
$DIMLTYPE
  6

  9
$DIMLTEX1
  6

  9
$DIMLTEX2
  6

  9
$DIMTXTDIRECTION
 70
     0
  9
$LUNITS
 70
     2
  9
$LUPREC
 70
     4
  9
$SKETCHINC
 40
1.0
  9
$FILLETRAD
 40
10.0
  9
$AUNITS
 70
     0
  9
$AUPREC
 70
     0
  9
$MENU
  1
.
  9
$ELEVATION
 40
0.0
  9
$PELEVATION
 40
0.0
  9
$THICKNESS
 40
0.0
  9
$LIMCHECK
 70
     0
  9
$CHAMFERA
 40
10.0
  9
$CHAMFERB
 40
10.0
  9
$CHAMFERC
 40
20.0
  9
$CHAMFERD
 40
0.0
  9
$SKPOLY
 70
     0
  9
$TDCREATE
 40
2456763.390816655
  9
$TDUCREATE
 40
2456763.015816655
  9
$TDUPDATE
 40
2456763.390816667
  9
$TDUUPDATE
 40
2456763.015816667
  9
$TDINDWG
 40
0.0000000116
  9
$TDUSRTIMER
 40
0.0000000116
  9
$USRTIMER
 70
     1
  9
$ANGBASE
 50
0.0
  9
$ANGDIR
 70
     0
  9
$PDMODE
 70
     0
  9
$PDSIZE
 40
0.0
  9
$PLINEWID
 40
0.0
  9
$SPLFRAME
 70
     0
  9
$SPLINETYPE
 70
     6
  9
$SPLINESEGS
 70
     8
  9
$HANDSEED
  5
457
  9
$SURFTAB1
 70
     6
  9
$SURFTAB2
 70
     6
  9
$SURFTYPE
 70
     6
  9
$SURFU
 70
     6
  9
$SURFV
 70
     6
  9
$UCSBASE
  2

  9
$UCSNAME
  2

  9
$UCSORG
 10
0.0
 20
0.0
 30
0.0
  9
$UCSXDIR
 10
1.0
 20
0.0
 30
0.0
  9
$UCSYDIR
 10
0.0
 20
1.0
 30
0.0
  9
$UCSORTHOREF
  2

  9
$UCSORTHOVIEW
 70
     0
  9
$UCSORGTOP
 10
0.0
 20
0.0
 30
0.0
  9
$UCSORGBOTTOM
 10
0.0
 20
0.0
 30
0.0
  9
$UCSORGLEFT
 10
0.0
 20
0.0
 30
0.0
  9
$UCSORGRIGHT
 10
0.0
 20
0.0
 30
0.0
  9
$UCSORGFRONT
 10
0.0
 20
0.0
 30
0.0
  9
$UCSORGBACK
 10
0.0
 20
0.0
 30
0.0
  9
$PUCSBASE
  2

  9
$PUCSNAME
  2

  9
$PUCSORG
 10
0.0
 20
0.0
 30
0.0
  9
$PUCSXDIR
 10
1.0
 20
0.0
 30
0.0
  9
$PUCSYDIR
 10
0.0
 20
1.0
 30
0.0
  9
$PUCSORTHOREF
  2

  9
$PUCSORTHOVIEW
 70
     0
  9
$PUCSORGTOP
 10
0.0
 20
0.0
 30
0.0
  9
$PUCSORGBOTTOM
 10
0.0
 20
0.0
 30
0.0
  9
$PUCSORGLEFT
 10
0.0
 20
0.0
 30
0.0
  9
$PUCSORGRIGHT
 10
0.0
 20
0.0
 30
0.0
  9
$PUCSORGFRONT
 10
0.0
 20
0.0
 30
0.0
  9
$PUCSORGBACK
 10
0.0
 20
0.0
 30
0.0
  9
$USERI1
 70
     0
  9
$USERI2
 70
     0
  9
$USERI3
 70
     0
  9
$USERI4
 70
     0
  9
$USERI5
 70
     0
  9
$USERR1
 40
0.0
  9
$USERR2
 40
0.0
  9
$USERR3
 40
0.0
  9
$USERR4
 40
0.0
  9
$USERR5
 40
0.0
  9
$WORLDVIEW
 70
     1
  9
$SHADEDGE
 70
     3
  9
$SHADEDIF
 70
    70
  9
$TILEMODE
 70
     1
  9
$MAXACTVP
 70
    64
  9
$PINSBASE
 10
0.0
 20
0.0
 30
0.0
  9
$PLIMCHECK
 70
     0
  9
$PEXTMIN
 10
1.000000000000000E+20
 20
1.000000000000000E+20
 30
1.000000000000000E+20
  9
$PEXTMAX
 10
-1.000000000000000E+20
 20
-1.000000000000000E+20
 30
-1.000000000000000E+20
  9
$PLIMMIN
 10
0.0
 20
0.0
  9
$PLIMMAX
 10
420.0
 20
297.0
  9
$UNITMODE
 70
     0
  9
$VISRETAIN
 70
     1
  9
$PLINEGEN
 70
     0
  9
$PSLTSCALE
 70
     1
  9
$TREEDEPTH
 70
  3020
  9
$CMLSTYLE
  2
Standard
  9
$CMLJUST
 70
     0
  9
$CMLSCALE
 40
20.0
  9
$PROXYGRAPHICS
 70
     1
  9
$MEASUREMENT
 70
     1
  9
$CELWEIGHT
370
    -1
  9
$ENDCAPS
280
     0
  9
$JOINSTYLE
280
     0
  9
$LWDISPLAY
290
     0
  9
$INSUNITS
 70
     4
  9
$HYPERLINKBASE
  1

  9
$STYLESHEET
  1

  9
$XEDIT
290
     1
  9
$CEPSNTYPE
380
     0
  9
$PSTYLEMODE
290
     1
  9
$FINGERPRINTGUID
  2
{43240077-018A-4769-8B3D-0EC06C394A60}
  9
$VERSIONGUID
  2
{FAEB1C32-E019-11D5-929B-00C0DF256EC4}
  9
$EXTNAMES
290
     1
  9
$PSVPSCALE
 40
0.0
  9
$OLESTARTUP
290
     0
  9
$SORTENTS
280
   127
  9
$INDEXCTL
280
     0
  9
$HIDETEXT
280
     1
  9
$XCLIPFRAME
280
     2
  9
$HALOGAP
280
     0
  9
$OBSCOLOR
 70
   257
  9
$OBSLTYPE
280
     0
  9
$INTERSECTIONDISPLAY
280
     0
  9
$INTERSECTIONCOLOR
 70
   257
  9
$DIMASSOC
280
     2
  9
$PROJECTNAME
  1

  9
$CAMERADISPLAY
290
     0
  9
$LENSLENGTH
 40
50.0
  9
$CAMERAHEIGHT
 40
0.0
  9
$STEPSPERSEC
 40
2.0
  9
$STEPSIZE
 40
6.0
  9
$3DDWFPREC
 40
2.0
  9
$PSOLWIDTH
 40
5.0
  9
$PSOLHEIGHT
 40
80.0
  9
$LOFTANG1
 40
1.570796326794897
  9
$LOFTANG2
 40
1.570796326794897
  9
$LOFTMAG1
 40
0.0
  9
$LOFTMAG2
 40
0.0
  9
$LOFTPARAM
 70
     7
  9
$LOFTNORMALS
280
     1
  9
$LATITUDE
 40
37.795
  9
$LONGITUDE
 40
-122.394
  9
$NORTHDIRECTION
 40
0.0
  9
$TIMEZONE
 70
 -8000
  9
$LIGHTGLYPHDISPLAY
280
     1
  9
$TILEMODELIGHTSYNCH
280
     1
  9
$SOLIDHIST
280
     1
  9
$SHOWHIST
280
     1
  9
$DWFFRAME
280
     2
  9
$DGNFRAME
280
     2
  9
$REALWORLDSCALE
290
     1
  9
$INTERFERECOLOR
 62
   256
  9
$CSHADOW
280
     0
  9
$SHADOWPLANELOCATION
 40
0.0
  0
ENDSEC
  0
SECTION
  2
CLASSES
  0
CLASS
  1
ACDBDICTIONARYWDFLT
  2
AcDbDictionaryWithDefault
  3
ObjectDBX Classes
 90
        0
 91
        4
280
     0
281
     0
  0
CLASS
  1
VISUALSTYLE
  2
AcDbVisualStyle
  3
ObjectDBX Classes
 90
     4095
 91
        4
280
     0
281
     0
  0
CLASS
  1
MATERIAL
  2
AcDbMaterial
  3
ObjectDBX Classes
 90
     1153
 91
        4
280
     0
281
     0
  0
ENDSEC
  0
SECTION
  2
TABLES
  0
TABLE
  2
VPORT
  5
8
330
0
100
AcDbSymbolTable
 70
     1
  0
VPORT
  5
29
330
8
100
AcDbSymbolTableRecord
100
AcDbViewportTableRecord
  2
*Active
 70
     0
 10
0.0
 20
0.0
 11
1.0
 21
1.0
 12
0.0
 22
0.0
 13
0.0
 23
0.0
 14
10.0
 24
10.0
 15
10.0
 25
10.0
 16
0.0
 26
0.0
 36
1.0
 17
0.0
 27
0.0
 37
0.0
 40
9801.0
 41
1.414141414141414
 42
50.0
 43
0.0
 44
0.0
 50
0.0
 51
0.0
 71
     0
 72
 10000
 73
     1
 74
     3
 75
     0
 76
     0
 77
     0
 78
     0
281
     0
 65
     1
110
0.0
120
0.0
130
0.0
111
1.0
121
0.0
131
0.0
112
0.0
122
1.0
132
0.0
 79
     0
146
0.0
 60
     3
 61
     5
292
     1
282
     1
141
0.0
142
0.0
 63
   250
  0
ENDTAB
  0
TABLE
  2
LTYPE
  5
5
330
0
100
AcDbSymbolTable
 70
     4
  0
LTYPE
  5
14
330
5
100
AcDbSymbolTableRecord
100
AcDbLinetypeTableRecord
  2
ByBlock
 70
     0
  3

 72
    65
 73
     0
 40
0.0
  0
LTYPE
  5
15
330
5
100
AcDbSymbolTableRecord
100
AcDbLinetypeTableRecord
  2
ByLayer
 70
     0
  3

 72
    65
 73
     0
 40
0.0
  0
LTYPE
  5
16
330
5
100
AcDbSymbolTableRecord
100
AcDbLinetypeTableRecord
  2
Continuous
 70
     0
  3
Solid line
 72
    65
 73
     0
 40
0.0
  0
LTYPE
  5
41
330
5
100
AcDbSymbolTableRecord
100
AcDbLinetypeTableRecord
  2
JWW_HOJO
 70
     0
  3
  -   -   -   -   -   -   -   - 
 72
    65
 73
     2
 40
1.693333333333333
 49
-1.27
 74
     0
 49
0.4233333333333333
 74
     0
  0
LTYPE
  5
42
330
5
100
AcDbSymbolTableRecord
100
AcDbLinetypeTableRecord
  2
JWW_CENTER1
 70
     0
  3
-----  --  ----------  --  -----
 72
    65
 73
     4
 40
3.386666666666667
 49
2.116666666666667
 74
     0
 49
-0.4233333333333333
 74
     0
 49
0.4233333333333333
 74
     0
 49
-0.4233333333333333
 74
     0
  0
LTYPE
  5
43
330
5
100
AcDbSymbolTableRecord
100
AcDbLinetypeTableRecord
  2
JWW_DASHED1
 70
     0
  3
-  --  --  --  --  --  --  --  -
 72
    65
 73
     2
 40
0.3386666666666667
 49
0.1693333333333333
 74
     0
 49
-0.1693333333333333
 74
     0
  0
ENDTAB
  0
TABLE
  2
LAYER
  5
2
330
0
100
AcDbSymbolTable
 70
    11
  0
LAYER
  5
10
330
2
100
AcDbSymbolTableRecord
100
AcDbLayerTableRecord
  2
0
 70
     0
 62
     7
  6
Continuous
370
    -3
390
F
347
3E
  0
LAYER
  5
44
330
2
100
AcDbSymbolTableRecord
100
AcDbLayerTableRecord
  2
0-B_寸法
 70
     0
 62
     7
  6
Continuous
370
    -3
390
F
347
3E
  0
LAYER
  5
45
330
2
100
AcDbSymbolTableRecord
100
AcDbLayerTableRecord
  2
0-1_本体
 70
     0
 62
     7
  6
Continuous
370
    -3
390
F
347
3E
  0
LAYER
  5
46
330
2
100
AcDbSymbolTableRecord
100
AcDbLayerTableRecord
  2
F-A_文字
 70
     0
 62
     7
  6
Continuous
370
    -3
390
F
347
3E
  0
LAYER
  5
47
330
2
100
AcDbSymbolTableRecord
100
AcDbLayerTableRecord
  2
F-0_補助線
 70
     0
 62
     7
  6
Continuous
370
    -3
390
F
347
3E
  0
LAYER
  5
48
330
2
100
AcDbSymbolTableRecord
100
AcDbLayerTableRecord
  2
F-1_枠
 70
     0
 62
     7
  6
Continuous
370
    -3
390
F
347
3E
  0
LAYER
  5
49
330
2
100
AcDbSymbolTableRecord
100
AcDbLayerTableRecord
  2
0-0_補助線
 70
     0
 62
     7
  6
Continuous
370
    -3
390
F
347
3E
  0
LAYER
  5
4A
330
2
100
AcDbSymbolTableRecord
100
AcDbLayerTableRecord
  2
0-A_文字
 70
     0
 62
     7
  6
Continuous
370
    -3
390
F
347
3E
  0
LAYER
  5
4B
330
2
100
AcDbSymbolTableRecord
100
AcDbLayerTableRecord
  2
0-2_扉
 70
     0
 62
     7
  6
Continuous
370
    -3
390
F
347
3E
  0
LAYER
  5
4C
330
2
100
AcDbSymbolTableRecord
100
AcDbLayerTableRecord
  2
0-4_棚
 70
     0
 62
     7
  6
Continuous
370
    -3
390
F
347
3E
  0
LAYER
  5
4D
330
2
100
AcDbSymbolTableRecord
100
AcDbLayerTableRecord
  2
0-7__
 70
     0
 62
     7
  6
Continuous
370
    -3
390
F
347
3E
  0
ENDTAB
  0
TABLE
  2
STYLE
  5
3
330
0
100
AcDbSymbolTable
 70
     3
  0
STYLE
  5
11
330
3
100
AcDbSymbolTableRecord
100
AcDbTextStyleTableRecord
  2
Standard
 70
     0
 40
0.0
 41
1.0
 50
0.0
 71
     0
 42
2.5
  3
txt
  4

  0
STYLE
  5
3F
330
3
100
AcDbSymbolTableRecord
100
AcDbTextStyleTableRecord
  2
ＭＳ ゴシック
 70
     0
 40
1.0
 41
1.0
 50
0.0
 71
     0
 42
10.0
  3

  4

1001
ACAD
1000
MS Gothic
1071
    32817
  0
STYLE
  5
40
330
3
100
AcDbSymbolTableRecord
100
AcDbTextStyleTableRecord
  2
HG明朝B
 70
     0
 40
1.0
 41
1.0
 50
0.0
 71
     0
 42
10.0
  3

  4

1001
ACAD
1000
HGMinchoB
1071
    32785
  0
ENDTAB
  0
TABLE
  2
VIEW
  5
6
330
0
100
AcDbSymbolTable
 70
     0
  0
ENDTAB
  0
TABLE
  2
UCS
  5
7
330
0
100
AcDbSymbolTable
 70
     0
  0
ENDTAB
  0
TABLE
  2
APPID
  5
9
330
0
100
AcDbSymbolTable
 70
     1
  0
APPID
  5
12
330
9
100
AcDbSymbolTableRecord
100
AcDbRegAppTableRecord
  2
ACAD
 70
     0
  0
ENDTAB
  0
TABLE
  2
DIMSTYLE
  5
A
330
0
100
AcDbSymbolTable
 70
     1
100
AcDbDimStyleTable
  0
DIMSTYLE
105
27
330
A
100
AcDbSymbolTableRecord
100
AcDbDimStyleTableRecord
  2
ISO-25
 70
     0
 41
2.5
 42
0.625
 43
3.75
 44
1.25
 73
     0
 74
     0
 77
     1
 78
     8
140
2.5
141
2.5
143
0.03937007874016
147
0.625
171
     3
172
     1
178
     0
271
     2
272
     2
274
     3
278
    44
283
     0
284
     8
340
11
  0
ENDTAB
  0
TABLE
  2
BLOCK_RECORD
  5
1
330
0
100
AcDbSymbolTable
 70
     1
  0
BLOCK_RECORD
  5
1F
330
1
100
AcDbSymbolTableRecord
100
AcDbBlockTableRecord
  2
*Model_Space
340
22
 70
     0
280
     1
281
     0
  0
BLOCK_RECORD
  5
1B
330
1
100
AcDbSymbolTableRecord
100
AcDbBlockTableRecord
  2
*Paper_Space
340
1E
 70
     0
280
     1
281
     0
  0
BLOCK_RECORD
  5
23
330
1
100
AcDbSymbolTableRecord
100
AcDbBlockTableRecord
  2
*Paper_Space0
340
26
 70
     0
280
     1
281
     0
  0
ENDTAB
  0
ENDSEC
  0
SECTION
  2
BLOCKS
  0
BLOCK
  5
20
330
1F
100
AcDbEntity
  8
0
100
AcDbBlockBegin
  2
*Model_Space
 70
     0
 10
0.0
 20
0.0
 30
0.0
  3
*Model_Space
  1

  0
ENDBLK
  5
21
330
1F
100
AcDbEntity
  8
0
100
AcDbBlockEnd
  0
BLOCK
  5
1C
330
1B
100
AcDbEntity
 67
     1
  8
0
100
AcDbBlockBegin
  2
*Paper_Space
 70
     0
 10
0.0
 20
0.0
 30
0.0
  3
*Paper_Space
  1

  0
ENDBLK
  5
1D
330
1B
100
AcDbEntity
 67
     1
  8
0
100
AcDbBlockEnd
  0
BLOCK
  5
24
330
23
100
AcDbEntity
  8
0
100
AcDbBlockBegin
  2
*Paper_Space0
 70
     0
 10
0.0
 20
0.0
 30
0.0
  3
*Paper_Space0
  1

  0
ENDBLK
  5
25
330
23
100
AcDbEntity
  8
0
100
AcDbBlockEnd
  0
ENDSEC
  0
SECTION
  2
ENTITIES
  0
TEXT
  5
4E
330
1F
100
AcDbEntity
  8
0-B_寸法
  6
Continuous
 62
     7
370
   211
100
AcDbText
 10
970.0713052292474
 20
770.7242883034183
 30
0.0
 40
68.58
  1
288
 41
1.111111111111111
  7
ＭＳ ゴシック
100
AcDbText
  0
LINE
  5
4F
330
1F
100
AcDbEntity
  8
0-B_寸法
  6
Continuous
 62
   120
370
     5
100
AcDbLine
 10
829.0713052292477
 20
-2185.500118749018
 30
0.0
 11
1261.071305229249
 21
-2185.500118749018
 31
0.0
  0
LINE
  5
50
330
1F
100
AcDbEntity
  8
0-B_寸法
  6
Continuous
 62
   120
370
     5
100
AcDbLine
 10
829.0713052292477
 20
-2185.500118749018
 30
0.0
 11
829.0713052292477
 21
-2035.500118749018
 31
0.0
  0
LWPOLYLINE
  5
51
330
1F
100
AcDbEntity
  8
0-B_寸法
  6
Continuous
 62
     7
370
     9
100
AcDbPolyline
 90
        4
 70
     1
 43
3.0
 10
830.5713052292477
 20
-2185.500118749018
 42
0.4142135623731
 10
829.0713052292477
 20
-2184.000118749018
 42
0.4142135623731
 10
827.5713052292477
 20
-2185.500118749018
 42
0.4142135623731
 10
829.0713052292477
 20
-2187.000118749017
 42
0.4142135623731
  0
LINE
  5
52
330
1F
100
AcDbEntity
  8
0-1_本体
  6
Continuous
 62
     7
370
     9
100
AcDbLine
 10
829.0713052292494
 20
-1960.500118749018
 30
0.0
 11
1261.071305229249
 21
-1960.500118749018
 31
0.0
  0
LINE
  5
53
330
1F
100
AcDbEntity
  8
0-1_本体
  6
Continuous
 62
    40
370
    15
100
AcDbLine
 10
829.0713052292494
 20
-1810.500118749018
 30
0.0
 11
829.0713052292494
 21
-1960.500118749018
 31
0.0
  0
LINE
  5
54
330
1F
100
AcDbEntity
  8
0-B_寸法
  6
Continuous
 62
   120
370
     5
100
AcDbLine
 10
829.0713052292477
 20
743.0342883034183
 30
0.0
 11
1261.071305229249
 21
743.0342883034183
 31
0.0
  0
LINE
  5
55
330
1F
100
AcDbEntity
  8
0-B_寸法
  6
Continuous
 62
   120
370
     5
100
AcDbLine
 10
829.0713052292477
 20
743.0342883034183
 30
0.0
 11
829.0713052292477
 21
893.0342883034183
 31
0.0
  0
LWPOLYLINE
  5
56
330
1F
100
AcDbEntity
  8
0-B_寸法
  6
Continuous
 62
     7
370
     9
100
AcDbPolyline
 90
        4
 70
     1
 43
3.0
 10
830.5713052292477
 20
743.0342883034183
 42
0.4142135623731
 10
829.0713052292477
 20
744.5342883034183
 42
0.4142135623731
 10
827.5713052292477
 20
743.0342883034183
 42
0.4142135623731
 10
829.0713052292477
 20
741.5342883034183
 42
0.4142135623731
  0
LINE
  5
57
330
1F
100
AcDbEntity
  8
0-1_本体
  6
Continuous
 62
     7
370
     9
100
AcDbLine
 10
829.0713052292477
 20
968.0342883034183
 30
0.0
 11
1261.071305229249
 21
968.0342883034183
 31
0.0
  0
LINE
  5
58
330
1F
100
AcDbEntity
  8
0-1_本体
  6
Continuous
 62
    40
370
    15
100
AcDbLine
 10
829.0713052292477
 20
1118.034288303417
 30
0.0
 11
829.0713052292477
 21
968.0342883034183
 31
0.0
  0
LINE
  5
59
330
1F
100
AcDbEntity
  8
0-B_寸法
  6
Continuous
 62
   120
370
     5
100
AcDbLine
 10
2883.214163127568
 20
-2185.500118749018
 30
0.0
 11
3468.214163127568
 21
-2185.500118749018
 31
0.0
  0
LINE
  5
5A
330
1F
100
AcDbEntity
  8
0-B_寸法
  6
Continuous
 62
   120
370
     5
100
AcDbLine
 10
2883.214163127568
 20
-2185.500118749018
 30
0.0
 11
2883.214163127568
 21
-2035.500118749018
 31
0.0
  0
LWPOLYLINE
  5
5B
330
1F
100
AcDbEntity
  8
0-B_寸法
  6
Continuous
 62
     7
370
     9
100
AcDbPolyline
 90
        4
 70
     1
 43
3.0
 10
2884.714163127568
 20
-2185.500118749018
 42
0.4142135623731
 10
2883.214163127568
 20
-2184.000118749018
 42
0.4142135623731
 10
2881.714163127568
 20
-2185.500118749018
 42
0.4142135623731
 10
2883.214163127568
 20
-2187.000118749017
 42
0.4142135623731
  0
LINE
  5
5C
330
1F
100
AcDbEntity
  8
0-1_本体
  6
Continuous
 62
     7
370
     9
100
AcDbLine
 10
2883.214163127573
 20
-1960.500118749018
 30
0.0
 11
3468.214163127573
 21
-1960.500118749018
 31
0.0
  0
LINE
  5
5D
330
1F
100
AcDbEntity
  8
0-1_本体
  6
Continuous
 62
    40
370
    15
100
AcDbLine
 10
2883.214163127573
 20
-1810.500118749018
 30
0.0
 11
2883.214163127573
 21
-1960.500118749018
 31
0.0
  0
LINE
  5
5E
330
1F
100
AcDbEntity
  8
0-B_寸法
  6
Continuous
 62
   120
370
     5
100
AcDbLine
 10
2883.214163127568
 20
743.0342883034183
 30
0.0
 11
3468.214163127568
 21
743.0342883034183
 31
0.0
  0
LINE
  5
5F
330
1F
100
AcDbEntity
  8
0-B_寸法
  6
Continuous
 62
   120
370
     5
100
AcDbLine
 10
2883.214163127568
 20
743.0342883034183
 30
0.0
 11
2883.214163127568
 21
893.0342883034183
 31
0.0
  0
LWPOLYLINE
  5
60
330
1F
100
AcDbEntity
  8
0-B_寸法
  6
Continuous
 62
     7
370
     9
100
AcDbPolyline
 90
        4
 70
     1
 43
3.0
 10
2884.714163127568
 20
743.0342883034183
 42
0.4142135623731
 10
2883.214163127568
 20
744.5342883034183
 42
0.4142135623731
 10
2881.714163127568
 20
743.0342883034183
 42
0.4142135623731
 10
2883.214163127568
 20
741.5342883034183
 42
0.4142135623731
  0
LINE
  5
61
330
1F
100
AcDbEntity
  8
0-1_本体
  6
Continuous
 62
     7
370
     9
100
AcDbLine
 10
2883.214163127568
 20
968.0342883034183
 30
0.0
 11
3468.214163127568
 21
968.0342883034183
 31
0.0
  0
LINE
  5
62
330
1F
100
AcDbEntity
  8
0-1_本体
  6
Continuous
 62
    40
370
    15
100
AcDbLine
 10
2883.214163127568
 20
1118.034288303417
 30
0.0
 11
2883.214163127568
 21
968.0342883034183
 31
0.0
  0
TEXT
  5
63
330
1F
100
AcDbEntity
  8
F-A_文字
  6
Continuous
 62
     7
370
     9
100
AcDbText
 10
3304.998977248734
 20
-4117.313170532875
 30
0.0
 40
68.58
  1
MQD_C02
 41
1.142857142857143
  7
ＭＳ ゴシック
100
AcDbText
  0
TEXT
  5
64
330
1F
100
AcDbEntity
  8
F-A_文字
  6
Continuous
 62
     7
370
     0
100
AcDbText
 10
349.9999175200594
 20
-3918.097343937965
 30
0.0
 40
66.06
  1
ＳＯＦＴＡＲＴ
 41
0.8333333333333334
  7
HG明朝B
100
AcDbText
  0
TEXT
  5
65
330
1F
100
AcDbEntity
  8
F-A_文字
  6
Continuous
 62
     7
370
     0
100
AcDbText
 10
1180.417701903719
 20
-3917.310213665301
 30
0.0
 40
68.58
  1
造り付け家具
 41
1.138888888888889
  7
ＭＳ ゴシック
100
AcDbText
  0
TEXT
  5
66
330
1F
100
AcDbEntity
  8
F-A_文字
  6
Continuous
 62
     7
370
     0
100
AcDbText
 10
3383.748977248734
 20
-3917.31316797277
 30
0.0
 40
68.58
  1
1/20
 41
1.125
  7
ＭＳ ゴシック
100
AcDbText
  0
TEXT
  5
67
330
1F
100
AcDbEntity
  8
F-A_文字
  6
Continuous
 62
     7
370
     0
100
AcDbText
 10
4778.749126529666
 20
-3909.814562205428
 30
0.0
 40
68.58
  1
07.06.01
 41
1.145833333333333
  7
ＭＳ ゴシック
100
AcDbText
  0
LINE
  5
68
330
1F
100
AcDbEntity
  8
F-0_補助線
  6
JWW_HOJO
 62
     7
370
     9
100
AcDbLine
 10
-210.0001237199109
 20
-3785.00005515846
 30
0.0
 11
-210.0001237199109
 21
-4185.000060313456
 31
0.0
  0
LINE
  5
69
330
1F
100
AcDbEntity
  8
F-0_補助線
  6
JWW_HOJO
 62
     7
370
     9
100
AcDbLine
 10
-5247.547376752838
 20
-3785.000055158461
 30
0.0
 11
-5247.547376752838
 21
-4195.000217025344
 31
0.0
  0
LINE
  5
6A
330
1F
100
AcDbEntity
  8
F-1_枠
  6
Continuous
 62
   200
370
    20
100
AcDbLine
 10
5699.998762800888
 20
-3780.00006959245
 30
0.0
 11
-5999.999752560178
 21
-3780.00006959245
 31
0.0
  0
LINE
  5
6B
330
1F
100
AcDbEntity
  8
F-1_枠
  6
Continuous
 62
   200
370
    20
100
AcDbLine
 10
5699.998762800888
 20
-3785.00005515846
 30
0.0
 11
-5999.999752560178
 21
-3785.00005515846
 31
0.0
  0
TEXT
  5
6C
330
1F
100
AcDbEntity
  8
F-A_文字
  6
Continuous
 62
     7
370
     0
100
AcDbText
 10
1234.998729808911
 20
-4142.540721331648
 30
0.0
 40
45.72
  1
会社
  7
ＭＳ ゴシック
100
AcDbText
  0
TEXT
  5
6D
330
1F
100
AcDbEntity
  8
F-A_文字
  6
Continuous
 62
     7
370
     0
100
AcDbText
 10
1234.998729808911
 20
-4070.54072133161
 30
0.0
 40
45.72
  1
株式
  7
ＭＳ ゴシック
100
AcDbText
  0
TEXT
  5
6E
330
1F
100
AcDbEntity
  8
F-A_文字
  6
Continuous
 62
     7
370
     0
100
AcDbText
 10
1444.998729808911
 20
-4128.08243158939
 30
0.0
 40
91.44
  1
ウッドワン・・・
 41
1.109375
  7
ＭＳ ゴシック
100
AcDbText
  0
TEXT
  5
6F
330
1F
100
AcDbEntity
  8
F-A_文字
  6
Continuous
 62
     7
370
     0
100
AcDbText
 10
-60.0001237199109
 20
-3861.539872937397
 30
0.0
 40
45.72
  1
図面名
  7
ＭＳ ゴシック
100
AcDbText
  0
TEXT
  5
70
330
1F
100
AcDbEntity
  8
F-A_文字
  6
Continuous
 62
     7
370
     0
100
AcDbText
 10
2779.998729808911
 20
-4061.542515243322
 30
0.0
 40
45.72
  1
ＦＩＬＥ
  7
ＭＳ ゴシック
100
AcDbText
  0
TEXT
  5
71
330
1F
100
AcDbEntity
  8
F-A_文字
  6
Continuous
 62
     7
370
     0
100
AcDbText
 10
2779.998729808911
 20
-3861.542512683236
 30
0.0
 40
45.72
  1
ＳＣＡＬＥ
  7
ＭＳ ゴシック
100
AcDbText
  0
TEXT
  5
72
330
1F
100
AcDbEntity
  8
F-A_文字
  6
Continuous
 62
     7
370
     0
100
AcDbText
 10
4279.999224688556
 20
-4061.543909476301
 30
0.0
 40
45.72
  1
ＮＯ．
  7
ＭＳ ゴシック
100
AcDbText
  0
TEXT
  5
73
330
1F
100
AcDbEntity
  8
F-A_文字
  6
Continuous
 62
     7
370
     0
100
AcDbText
 10
4279.999224688556
 20
-3861.543906916216
 30
0.0
 40
45.72
  1
ＤＡＴＥ
  7
ＭＳ ゴシック
100
AcDbText
  0
LINE
  5
74
330
1F
100
AcDbEntity
  8
F-0_補助線
  6
JWW_HOJO
 62
     7
370
     9
100
AcDbLine
 10
4279.999224688556
 20
-3785.00005515846
 30
0.0
 11
4279.999224688556
 21
-4185.000060313456
 31
0.0
  0
LINE
  5
75
330
1F
100
AcDbEntity
  8
F-0_補助線
  6
JWW_HOJO
 62
     7
370
     9
100
AcDbLine
 10
-60.0001237199109
 20
-3785.00005515846
 30
0.0
 11
-60.0001237199109
 21
-4185.000060313456
 31
0.0
  0
LINE
  5
76
330
1F
100
AcDbEntity
  8
F-0_補助線
  6
JWW_HOJO
 62
     7
370
     9
100
AcDbLine
 10
2779.998729808911
 20
-3785.00005515846
 30
0.0
 11
2779.998729808911
 21
-4185.000060313456
 31
0.0
  0
LINE
  5
77
330
1F
100
AcDbEntity
  8
F-0_補助線
  6
JWW_HOJO
 62
     7
370
     9
100
AcDbLine
 10
-149.9999889439155
 20
-3839.999789283571
 30
0.0
 11
5689.999112024728
 21
-3840.00521749468
 31
0.0
  0
LINE
  5
78
330
1F
100
AcDbEntity
  8
F-0_補助線
  6
JWW_HOJO
 62
     7
370
     9
100
AcDbLine
 10
-150.0000725978671
 20
-3929.999789283532
 30
0.0
 11
5689.999028370777
 21
-3930.005217494641
 31
0.0
  0
LINE
  5
79
330
1F
100
AcDbEntity
  8
F-0_補助線
  6
JWW_HOJO
 62
     7
370
     9
100
AcDbLine
 10
-150.0001748415872
 20
-4039.999791843484
 30
0.0
 11
5689.998926127057
 21
-4040.005220054593
 31
0.0
  0
LINE
  5
7A
330
1F
100
AcDbEntity
  8
F-0_補助線
  6
JWW_HOJO
 62
     7
370
     9
100
AcDbLine
 10
-150.0002584955388
 20
-4129.999791843446
 30
0.0
 11
5689.998842473105
 21
-4130.005220054553
 31
0.0
  0
LINE
  5
7B
330
1F
100
AcDbEntity
  8
F-0_補助線
  6
JWW_HOJO
 62
     7
370
     9
100
AcDbLine
 10
-5989.999990205507
 20
-4074.999988143853
 30
0.0
 11
-150.0001237199109
 21
-4074.999988143853
 31
0.0
  0
LINE
  5
7C
330
1F
100
AcDbEntity
  8
F-0_補助線
  6
JWW_HOJO
 62
     7
370
     9
100
AcDbLine
 10
-5989.999990205507
 20
-3894.999988143853
 30
0.0
 11
-150.0001237199109
 21
-3894.999988143853
 31
0.0
  0
LINE
  5
7D
330
1F
100
AcDbEntity
  8
F-0_補助線
  6
JWW_HOJO
 62
     7
370
     9
100
AcDbLine
 10
-5989.999990205507
 20
-3984.999988143853
 30
0.0
 11
-150.0001237199109
 21
-3984.999988143853
 31
0.0
  0
LINE
  5
7E
330
1F
100
AcDbEntity
  8
F-1_枠
  6
Continuous
 62
   200
370
    20
100
AcDbLine
 10
-150.0001237199109
 20
-3984.999988143508
 30
0.0
 11
5689.998977248734
 21
-3985.005416354617
 31
0.0
  0
LINE
  5
7F
330
1F
100
AcDbEntity
  8
F-1_枠
  6
Continuous
 62
   200
370
    20
100
AcDbLine
 10
-150.0001237199109
 20
-3785.00005515846
 30
0.0
 11
-150.0001237199109
 21
-4185.000060313456
 31
0.0
  0
LINE
  5
80
330
1F
100
AcDbEntity
  8
F-1_枠
  6
Continuous
 62
   200
370
    20
100
AcDbLine
 10
2689.998729808911
 20
-3785.00005515846
 30
0.0
 11
2689.998729808911
 21
-4185.000060313456
 31
0.0
  0
LINE
  5
81
330
1F
100
AcDbEntity
  8
F-1_枠
  6
Continuous
 62
   200
370
    20
100
AcDbLine
 10
4189.999224688556
 20
-3785.00005515846
 30
0.0
 11
4189.999224688556
 21
-4185.000060313456
 31
0.0
  0
LINE
  5
82
330
1F
100
AcDbEntity
  8
F-1_枠
  6
Continuous
 62
   200
370
    20
100
AcDbLine
 10
5699.998762800888
 20
-4185.000060313456
 30
0.0
 11
-5999.999752560178
 21
-4185.000060313456
 31
0.0
  0
LINE
  5
83
330
1F
100
AcDbEntity
  8
F-1_枠
  6
Continuous
 62
   200
370
    20
100
AcDbLine
 10
5699.998762800888
 20
-4190.000045879467
 30
0.0
 11
-5999.999752560178
 21
-4190.000045879467
 31
0.0
  0
LINE
  5
84
330
1F
100
AcDbEntity
  8
F-1_枠
  6
Continuous
 62
   200
370
    20
100
AcDbLine
 10
5699.998762800888
 20
-4195.00005464296
 30
0.0
 11
-5999.999752560178
 21
-4195.00005464296
 31
0.0
  0
LINE
  5
85
330
1F
100
AcDbEntity
  8
F-0_補助線
  6
JWW_HOJO
 62
     7
370
     9
100
AcDbLine
 10
349.9999175200594
 20
-3785.00005515846
 30
0.0
 11
349.9999175200594
 21
-4185.000060313456
 31
0.0
  0
LINE
  5
86
330
1F
100
AcDbEntity
  8
F-0_補助線
  6
JWW_HOJO
 62
     7
370
     9
100
AcDbLine
 10
849.9995876002961
 20
-3785.00005515846
 30
0.0
 11
849.9995876002961
 21
-4185.000060313456
 31
0.0
  0
TEXT
  5
87
330
1F
100
AcDbEntity
  8
F-A_文字
  6
Continuous
 62
     7
370
     0
100
AcDbText
 10
4784.033374252999
 20
-4285.62338325081
 30
0.0
 40
68.58
  1
（
  7
ＭＳ ゴシック
100
AcDbText
  0
TEXT
  5
88
330
1F
100
AcDbEntity
  8
F-A_文字
  6
Continuous
 62
     7
370
     0
100
AcDbText
 10
5608.403311109712
 20
-4281.441308703997
 30
0.0
 40
68.58
  1
）
  7
ＭＳ ゴシック
100
AcDbText
  0
TEXT
  5
89
330
1F
100
AcDbEntity
  8
F-A_文字
  6
Continuous
 62
     7
370
     0
100
AcDbText
 10
5031.277143812345
 20
-4285.62338325081
 30
0.0
 40
68.58
  1
,
  7
ＭＳ ゴシック
100
AcDbText
  0
TEXT
  5
8A
330
1F
100
AcDbEntity
  8
F-A_文字
  6
Continuous
 62
     7
370
     0
100
AcDbText
 10
5388.147447920011
 20
-4284.22935697136
 30
0.0
 40
68.58
  1
印刷
 41
1.083333333333333
  7
ＭＳ ゴシック
100
AcDbText
  0
TEXT
  5
8B
330
1F
100
AcDbEntity
  8
F-A_文字
  6
Continuous
 62
     7
370
     0
100
AcDbText
 10
5233.410715437103
 20
-4284.22935697136
 30
0.0
 40
68.58
  1
$d
 41
1.083333333333333
  7
ＭＳ ゴシック
100
AcDbText
  0
TEXT
  5
8C
330
1F
100
AcDbEntity
  8
F-A_文字
  6
Continuous
 62
     7
370
     0
100
AcDbText
 10
5078.673982954195
 20
-4284.22935697136
 30
0.0
 40
68.58
  1
$m
 41
1.083333333333333
  7
ＭＳ ゴシック
100
AcDbText
  0
TEXT
  5
8D
330
1F
100
AcDbEntity
  8
F-A_文字
  6
Continuous
 62
     7
370
     0
100
AcDbText
 10
4923.937261915373
 20
-4284.22935697136
 30
0.0
 40
68.58
  1
$y
 41
1.083333333333333
  7
ＭＳ ゴシック
100
AcDbText
  0
TEXT
  5
8E
330
1F
100
AcDbEntity
  8
F-A_文字
  6
Continuous
 62
     7
370
     0
100
AcDbText
 10
5190.195950842071
 20
-4282.835333552935
 30
0.0
 40
68.58
  1
,
  7
ＭＳ ゴシック
100
AcDbText
  0
LINE
  5
8F
330
1F
100
AcDbEntity
  8
F-1_枠
  6
Continuous
 62
   200
370
    20
100
AcDbLine
 10
-5989.999990205507
 20
4174.999769056166
 30
0.0
 11
-5989.999990205507
 21
-4195.000217025344
 31
0.0
  0
LINE
  5
90
330
1F
100
AcDbEntity
  8
F-1_枠
  6
Continuous
 62
   200
370
    20
100
AcDbLine
 10
-5994.999975771518
 20
4174.999769056166
 30
0.0
 11
-5994.999975771518
 21
-4195.000217025344
 31
0.0
  0
LINE
  5
91
330
1F
100
AcDbEntity
  8
F-1_枠
  6
Continuous
 62
   200
370
    20
100
AcDbLine
 10
-5999.99998453501
 20
4174.999769056166
 30
0.0
 11
-5999.99998453501
 21
-4195.000217025344
 31
0.0
  0
LINE
  5
92
330
1F
100
AcDbEntity
  8
F-1_枠
  6
Continuous
 62
   200
370
    20
100
AcDbLine
 10
5699.998762800888
 20
4174.999769056166
 30
0.0
 11
5699.998762800888
 21
-4195.000217025344
 31
0.0
  0
LINE
  5
93
330
1F
100
AcDbEntity
  8
F-1_枠
  6
Continuous
 62
   200
370
    20
100
AcDbLine
 10
5694.998498865077
 20
4174.999769056166
 30
0.0
 11
5694.998498865077
 21
-4195.000217025344
 31
0.0
  0
LINE
  5
94
330
1F
100
AcDbEntity
  8
F-1_枠
  6
Continuous
 62
   200
370
    20
100
AcDbLine
 10
-5999.999752560178
 20
4169.999505120355
 30
0.0
 11
5699.998762800888
 21
4169.999505120355
 31
0.0
  0
LINE
  5
95
330
1F
100
AcDbEntity
  8
F-1_枠
  6
Continuous
 62
   200
370
    20
100
AcDbLine
 10
-5999.999752560178
 20
4164.999983504013
 30
0.0
 11
5699.998762800888
 21
4164.999983504013
 31
0.0
  0
LINE
  5
96
330
1F
100
AcDbEntity
  8
F-1_枠
  6
Continuous
 62
   200
370
    20
100
AcDbLine
 10
-5999.999752560178
 20
4174.999769056166
 30
0.0
 11
5699.998762800888
 21
4174.999769056166
 31
0.0
  0
LINE
  5
97
330
1F
100
AcDbEntity
  8
F-0_補助線
  6
JWW_HOJO
 62
   120
370
     5
100
AcDbLine
 10
5999.999010240709
 20
-4455.0
 30
0.0
 11
-6300.0
 21
-4455.0
 31
0.0
  0
LINE
  5
98
330
1F
100
AcDbEntity
  8
F-0_補助線
  6
JWW_HOJO
 62
   120
370
     5
100
AcDbLine
 10
5999.999010240709
 20
4424.999604096284
 30
0.0
 11
5999.999010240709
 21
-4455.0
 31
0.0
  0
LINE
  5
99
330
1F
100
AcDbEntity
  8
F-0_補助線
  6
JWW_HOJO
 62
   120
370
     5
100
AcDbLine
 10
-6300.0
 20
4424.999604096284
 30
0.0
 11
5999.999010240709
 21
4424.999604096284
 31
0.0
  0
LINE
  5
9A
330
1F
100
AcDbEntity
  8
F-0_補助線
  6
JWW_HOJO
 62
   120
370
     5
100
AcDbLine
 10
-6300.0
 20
-4455.0
 30
0.0
 11
-6300.0
 21
4424.999604096284
 31
0.0
  0
LINE
  5
9B
330
1F
100
AcDbEntity
  8
F-1_枠
  6
Continuous
 62
   200
370
    20
100
AcDbLine
 10
5689.998977248734
 20
4174.999769056166
 30
0.0
 11
5689.998977248734
 21
-4195.000217025344
 31
0.0
  0
TEXT
  5
9C
330
1F
100
AcDbEntity
  8
F-A_文字
  6
Continuous
 62
     7
370
     9
100
AcDbText
 10
4936.249033580831
 20
-4117.314564765447
 30
0.0
 40
68.58
  1
03
 41
1.083333333333333
  7
ＭＳ ゴシック
100
AcDbText
  0
TEXT
  5
9D
330
1F
100
AcDbEntity
  8
0-B_寸法
  6
Continuous
 62
     7
370
   211
100
AcDbText
 10
-769.1837847242505
 20
-2157.810118749018
 30
0.0
 40
68.58
  1
15.5
 41
1.125
  7
ＭＳ ゴシック
100
AcDbText
  0
TEXT
  5
9E
330
1F
100
AcDbEntity
  8
0-B_寸法
  6
Continuous
 62
     7
370
   211
100
AcDbText
 10
-1655.179839951077
 20
-2157.810118749018
 30
0.0
 40
68.58
  1
15.5
 41
1.125
  7
ＭＳ ゴシック
100
AcDbText
  0
TEXT
  5
9F
330
1F
100
AcDbEntity
  8
0-B_寸法
  6
Continuous
 62
     7
370
   211
100
AcDbText
 10
-595.7615526690734
 20
-1967.775106854229
 30
0.0
 40
68.58
  1
100
 50
90.0
 41
1.111111111111111
  7
ＭＳ ゴシック
100
AcDbText
  0
TEXT
  5
A0
330
1F
100
AcDbEntity
  8
0-B_寸法
  6
Continuous
 62
     7
370
   211
100
AcDbText
 10
-475.7615526690733
 20
-1900.430870606148
 30
0.0
 40
68.58
  1
15.5
 50
90.0
 41
1.125
  7
ＭＳ ゴシック
100
AcDbText
  0
TEXT
  5
A1
330
1F
100
AcDbEntity
  8
0-B_寸法
  6
Continuous
 62
     7
370
   211
100
AcDbText
 10
-475.7615526690733
 20
-905.1808706061473
 30
0.0
 40
68.58
  1
15.5
 50
90.0
 41
1.125
  7
ＭＳ ゴシック
100
AcDbText
  0
TEXT
  5
A2
330
1F
100
AcDbEntity
  8
0-B_寸法
  6
Continuous
 62
     7
370
   211
100
AcDbText
 10
-1183.071552669073
 20
-2307.810118749018
 30
0.0
 40
68.58
  1
420
 41
1.111111111111111
  7
ＭＳ ゴシック
100
AcDbText
  0
LINE
  5
A3
330
1F
100
AcDbEntity
  8
0-B_寸法
  6
Continuous
 62
   120
370
     5
100
AcDbLine
 10
-793.0715526690733
 20
-2335.500118749018
 30
0.0
 11
-793.0715526690733
 21
-2185.500118749018
 31
0.0
  0
LINE
  5
A4
330
1F
100
AcDbEntity
  8
0-B_寸法
  6
Continuous
 62
   120
370
     5
100
AcDbLine
 10
-1423.071552669073
 20
-2335.500118749018
 30
0.0
 11
-1423.071552669073
 21
-2185.500118749018
 31
0.0
  0
LWPOLYLINE
  5
A5
330
1F
100
AcDbEntity
  8
0-B_寸法
  6
Continuous
 62
     7
370
     9
100
AcDbPolyline
 90
        4
 70
     1
 43
3.0
 10
-791.5715526690733
 20
-2335.500118749018
 42
0.4142135623731
 10
-793.0715526690733
 20
-2334.000118749018
 42
0.4142135623731
 10
-794.5715526690733
 20
-2335.500118749018
 42
0.4142135623731
 10
-793.0715526690733
 20
-2337.000118749017
 42
0.4142135623731
  0
LWPOLYLINE
  5
A6
330
1F
100
AcDbEntity
  8
0-B_寸法
  6
Continuous
 62
     7
370
     9
100
AcDbPolyline
 90
        4
 70
     1
 43
3.0
 10
-1421.571552669073
 20
-2335.500118749018
 42
0.4142135623731
 10
-1423.071552669073
 20
-2334.000118749018
 42
0.4142135623731
 10
-1424.571552669073
 20
-2335.500118749018
 42
0.4142135623731
 10
-1423.071552669073
 20
-2337.000118749017
 42
0.4142135623731
  0
LINE
  5
A7
330
1F
100
AcDbEntity
  8
0-B_寸法
  6
Continuous
 62
   120
370
     5
100
AcDbLine
 10
-1423.071552669073
 20
-2335.500118749018
 30
0.0
 11
-793.0715526690733
 21
-2335.500118749018
 31
0.0
  0
LINE
  5
A8
330
1F
100
AcDbEntity
  8
0-B_寸法
  6
Continuous
 62
   120
370
     5
100
AcDbLine
 10
-793.0715526690733
 20
-2185.500118749018
 30
0.0
 11
-793.0715526690733
 21
-2035.500118749018
 31
0.0
  0
LWPOLYLINE
  5
A9
330
1F
100
AcDbEntity
  8
0-B_寸法
  6
Continuous
 62
     7
370
     9
100
AcDbPolyline
 90
        4
 70
     1
 43
3.0
 10
-791.5715526690733
 20
-2185.500118749018
 42
0.4142135623731
 10
-793.0715526690733
 20
-2184.000118749018
 42
0.4142135623731
 10
-794.5715526690733
 20
-2185.500118749018
 42
0.4142135623731
 10
-793.0715526690733
 20
-2187.000118749017
 42
0.4142135623731
  0
LINE
  5
AA
330
1F
100
AcDbEntity
  8
0-B_寸法
  6
Continuous
 62
   120
370
     5
100
AcDbLine
 10
-816.3215526690726
 20
-2185.500118749018
 30
0.0
 11
-793.0715526690733
 21
-2185.500118749018
 31
0.0
  0
TEXT
  5
AB
330
1F
100
AcDbEntity
  8
0-B_寸法
  6
Continuous
 62
     7
370
   211
100
AcDbText
 10
-1183.071552669073
 20
-2157.810118749018
 30
0.0
 40
68.58
  1
389
 41
1.111111111111111
  7
ＭＳ ゴシック
100
AcDbText
  0
LINE
  5
AC
330
1F
100
AcDbEntity
  8
0-B_寸法
  6
Continuous
 62
   120
370
     5
100
AcDbLine
 10
-816.3215526690726
 20
-2185.500118749018
 30
0.0
 11
-816.3215526690726
 21
-2035.500118749018
 31
0.0
  0
LWPOLYLINE
  5
AD
330
1F
100
AcDbEntity
  8
0-B_寸法
  6
Continuous
 62
     7
370
     9
100
AcDbPolyline
 90
        4
 70
     1
 43
3.0
 10
-814.8215526690726
 20
-2185.500118749018
 42
0.4142135623731
 10
-816.3215526690726
 20
-2184.000118749018
 42
0.4142135623731
 10
-817.8215526690726
 20
-2185.500118749018
 42
0.4142135623731
 10
-816.3215526690726
 20
-2187.000118749017
 42
0.4142135623731
  0
LINE
  5
AE
330
1F
100
AcDbEntity
  8
0-B_寸法
  6
Continuous
 62
   120
370
     5
100
AcDbLine
 10
-1399.821552669072
 20
-2185.500118749018
 30
0.0
 11
-816.3215526690726
 21
-2185.500118749018
 31
0.0
  0
LINE
  5
AF
330
1F
100
AcDbEntity
  8
0-B_寸法
  6
Continuous
 62
   120
370
     5
100
AcDbLine
 10
-1399.821552669072
 20
-2185.500118749018
 30
0.0
 11
-1399.821552669072
 21
-2035.500118749018
 31
0.0
  0
LINE
  5
B0
330
1F
100
AcDbEntity
  8
0-B_寸法
  6
Continuous
 62
   120
370
     5
100
AcDbLine
 10
-1423.071552669073
 20
-2185.500118749018
 30
0.0
 11
-1423.071552669073
 21
-2035.500118749018
 31
0.0
  0
LWPOLYLINE
  5
B1
330
1F
100
AcDbEntity
  8
0-B_寸法
  6
Continuous
 62
     7
370
     9
100
AcDbPolyline
 90
        4
 70
     1
 43
3.0
 10
-1398.321552669072
 20
-2185.500118749018
 42
0.4142135623731
 10
-1399.821552669072
 20
-2184.000118749018
 42
0.4142135623731
 10
-1401.321552669072
 20
-2185.500118749018
 42
0.4142135623731
 10
-1399.821552669072
 20
-2187.000118749017
 42
0.4142135623731
  0
LWPOLYLINE
  5
B2
330
1F
100
AcDbEntity
  8
0-B_寸法
  6
Continuous
 62
     7
370
     9
100
AcDbPolyline
 90
        4
 70
     1
 43
3.0
 10
-1421.571552669073
 20
-2185.500118749018
 42
0.4142135623731
 10
-1423.071552669073
 20
-2184.000118749018
 42
0.4142135623731
 10
-1424.571552669073
 20
-2185.500118749018
 42
0.4142135623731
 10
-1423.071552669073
 20
-2187.000118749017
 42
0.4142135623731
  0
LINE
  5
B3
330
1F
100
AcDbEntity
  8
0-B_寸法
  6
Continuous
 62
   120
370
     5
100
AcDbLine
 10
-1423.071552669073
 20
-2185.500118749018
 30
0.0
 11
-1399.821552669072
 21
-2185.500118749018
 31
0.0
  0
LINE
  5
B4
330
1F
100
AcDbEntity
  8
0-B_寸法
  6
Continuous
 62
   120
370
     5
100
AcDbLine
 10
-568.0715526690733
 20
-1960.500118749018
 30
0.0
 11
-718.0715526690733
 21
-1960.500118749018
 31
0.0
  0
LWPOLYLINE
  5
B5
330
1F
100
AcDbEntity
  8
0-B_寸法
  6
Continuous
 62
     7
370
     9
100
AcDbPolyline
 90
        4
 70
     1
 43
3.0
 10
-566.5715526690733
 20
-1960.500118749018
 42
0.4142135623731
 10
-568.0715526690733
 20
-1959.000118749018
 42
0.4142135623731
 10
-569.5715526690733
 20
-1960.500118749018
 42
0.4142135623731
 10
-568.0715526690733
 20
-1962.000118749018
 42
0.4142135623731
  0
LINE
  5
B6
330
1F
100
AcDbEntity
  8
0-B_寸法
  6
Continuous
 62
   120
370
     5
100
AcDbLine
 10
-568.0715526690733
 20
-1810.500118749018
 30
0.0
 11
-568.0715526690733
 21
-1960.500118749018
 31
0.0
  0
LINE
  5
B7
330
1F
100
AcDbEntity
  8
0-B_寸法
  6
Continuous
 62
   120
370
     5
100
AcDbLine
 10
-568.0715526690733
 20
-1810.500118749018
 30
0.0
 11
-718.0715526690733
 21
-1810.500118749018
 31
0.0
  0
LWPOLYLINE
  5
B8
330
1F
100
AcDbEntity
  8
0-B_寸法
  6
Continuous
 62
     7
370
     9
100
AcDbPolyline
 90
        4
 70
     1
 43
3.0
 10
-566.5715526690733
 20
-1810.500118749018
 42
0.4142135623731
 10
-568.0715526690733
 20
-1809.000118749018
 42
0.4142135623731
 10
-569.5715526690733
 20
-1810.500118749018
 42
0.4142135623731
 10
-568.0715526690733
 20
-1812.000118749018
 42
0.4142135623731
  0
LINE
  5
B9
330
1F
100
AcDbEntity
  8
0-B_寸法
  6
Continuous
 62
   120
370
     5
100
AcDbLine
 10
-568.0715526690733
 20
-1787.250118749018
 30
0.0
 11
-568.0715526690733
 21
-1810.500118749018
 31
0.0
  0
TEXT
  5
BA
330
1F
100
AcDbEntity
  8
0-B_寸法
  6
Continuous
 62
     7
370
   211
100
AcDbText
 10
-595.7615526690734
 20
-1376.250118749018
 30
0.0
 40
68.58
  1
648
 50
90.0
 41
1.111111111111111
  7
ＭＳ ゴシック
100
AcDbText
  0
LINE
  5
BB
330
1F
100
AcDbEntity
  8
0-B_寸法
  6
Continuous
 62
   120
370
     5
100
AcDbLine
 10
-568.0715526690733
 20
-1787.250118749018
 30
0.0
 11
-718.0715526690733
 21
-1787.250118749018
 31
0.0
  0
LWPOLYLINE
  5
BC
330
1F
100
AcDbEntity
  8
0-B_寸法
  6
Continuous
 62
     7
370
     9
100
AcDbPolyline
 90
        4
 70
     1
 43
3.0
 10
-566.5715526690733
 20
-1787.250118749018
 42
0.4142135623731
 10
-568.0715526690733
 20
-1785.750118749018
 42
0.4142135623731
 10
-569.5715526690733
 20
-1787.250118749018
 42
0.4142135623731
 10
-568.0715526690733
 20
-1788.750118749018
 42
0.4142135623731
  0
LINE
  5
BD
330
1F
100
AcDbEntity
  8
0-B_寸法
  6
Continuous
 62
   120
370
     5
100
AcDbLine
 10
-568.0715526690733
 20
-815.2501187490188
 30
0.0
 11
-568.0715526690733
 21
-1787.250118749018
 31
0.0
  0
LINE
  5
BE
330
1F
100
AcDbEntity
  8
0-B_寸法
  6
Continuous
 62
   120
370
     5
100
AcDbLine
 10
-568.0715526690733
 20
-815.2501187490188
 30
0.0
 11
-718.0715526690733
 21
-815.2501187490188
 31
0.0
  0
LINE
  5
BF
330
1F
100
AcDbEntity
  8
0-B_寸法
  6
Continuous
 62
   120
370
     5
100
AcDbLine
 10
-568.0715526690733
 20
-792.0001187490178
 30
0.0
 11
-718.0715526690733
 21
-792.0001187490178
 31
0.0
  0
LWPOLYLINE
  5
C0
330
1F
100
AcDbEntity
  8
0-B_寸法
  6
Continuous
 62
     7
370
     9
100
AcDbPolyline
 90
        4
 70
     1
 43
3.0
 10
-566.5715526690733
 20
-815.2501187490188
 42
0.4142135623731
 10
-568.0715526690733
 20
-813.7501187490188
 42
0.4142135623731
 10
-569.5715526690733
 20
-815.2501187490188
 42
0.4142135623731
 10
-568.0715526690733
 20
-816.7501187490188
 42
0.4142135623731
  0
LWPOLYLINE
  5
C1
330
1F
100
AcDbEntity
  8
0-B_寸法
  6
Continuous
 62
     7
370
     9
100
AcDbPolyline
 90
        4
 70
     1
 43
3.0
 10
-566.5715526690733
 20
-792.0001187490178
 42
0.4142135623731
 10
-568.0715526690733
 20
-790.5001187490178
 42
0.4142135623731
 10
-569.5715526690733
 20
-792.0001187490178
 42
0.4142135623731
 10
-568.0715526690733
 20
-793.5001187490178
 42
0.4142135623731
  0
LINE
  5
C2
330
1F
100
AcDbEntity
  8
0-B_寸法
  6
Continuous
 62
   120
370
     5
100
AcDbLine
 10
-568.0715526690733
 20
-792.0001187490178
 30
0.0
 11
-568.0715526690733
 21
-815.2501187490188
 31
0.0
  0
LINE
  5
C3
330
1F
100
AcDbEntity
  8
0-0_補助線
  6
JWW_HOJO
 62
   120
370
     5
100
AcDbLine
 10
-1498.071552669073
 20
-2035.500118749018
 30
0.0
 11
-718.0715526690733
 21
-2035.500118749018
 31
0.0
  0
LINE
  5
C4
330
1F
100
AcDbEntity
  8
0-0_補助線
  6
JWW_HOJO
 62
   120
370
     5
100
AcDbLine
 10
-718.0715526690733
 20
-2035.500118749018
 30
0.0
 11
-718.0715526690733
 21
-717.0001187490176
 31
0.0
  0
LINE
  5
C5
330
1F
100
AcDbEntity
  8
0-0_補助線
  6
JWW_HOJO
 62
   120
370
     5
100
AcDbLine
 10
-1498.071552669073
 20
-717.0001187490176
 30
0.0
 11
-1498.071552669073
 21
-2035.500118749018
 31
0.0
  0
LINE
  5
C6
330
1F
100
AcDbEntity
  8
0-0_補助線
  6
JWW_HOJO
 62
   120
370
     5
100
AcDbLine
 10
-718.0715526690733
 20
-717.0001187490176
 30
0.0
 11
-1498.071552669073
 21
-717.0001187490176
 31
0.0
  0
LINE
  5
C7
330
1F
100
AcDbEntity
  8
0-1_本体
  6
Continuous
 62
     7
370
     9
100
AcDbLine
 10
-1423.071552669073
 20
-1960.500118749018
 30
0.0
 11
-793.0715526690682
 21
-1960.500118749018
 31
0.0
  0
LINE
  5
C8
330
1F
100
AcDbEntity
  8
0-1_本体
  6
Continuous
 62
     7
370
     9
100
AcDbLine
 10
-793.0715526690682
 20
-1960.500118749018
 30
0.0
 11
-793.0715526690682
 21
-792.0001187490176
 31
0.0
  0
LINE
  5
C9
330
1F
100
AcDbEntity
  8
0-1_本体
  6
Continuous
 62
     7
370
     9
100
AcDbLine
 10
-1423.071552669073
 20
-792.0001187490176
 30
0.0
 11
-1423.071552669073
 21
-1960.500118749018
 31
0.0
  0
LINE
  5
CA
330
1F
100
AcDbEntity
  8
0-1_本体
  6
Continuous
 62
     7
370
     9
100
AcDbLine
 10
-1399.821552669072
 20
-1810.500118749018
 30
0.0
 11
-1399.821552669072
 21
-1960.500118749018
 31
0.0
  0
LINE
  5
CB
330
1F
100
AcDbEntity
  8
0-1_本体
  6
Continuous
 62
     7
370
     9
100
AcDbLine
 10
-816.3215526690709
 20
-1810.500118749018
 30
0.0
 11
-816.3215526690709
 21
-1960.500118749018
 31
0.0
  0
LINE
  5
CC
330
1F
100
AcDbEntity
  8
0-1_本体
  6
Continuous
 62
     7
370
     9
100
AcDbLine
 10
-1399.821552669072
 20
-792.0001187490176
 30
0.0
 11
-1399.821552669072
 21
-1810.500118749018
 31
0.0
  0
LINE
  5
CD
330
1F
100
AcDbEntity
  8
0-1_本体
  6
Continuous
 62
     7
370
     9
100
AcDbLine
 10
-816.3215526690709
 20
-1810.500118749018
 30
0.0
 11
-816.3215526690709
 21
-792.0001187490176
 31
0.0
  0
LINE
  5
CE
330
1F
100
AcDbEntity
  8
0-1_本体
  6
Continuous
 62
     7
370
     9
100
AcDbLine
 10
-1399.821552669072
 20
-1787.250118749018
 30
0.0
 11
-816.3215526690709
 21
-1787.250118749018
 31
0.0
  0
LINE
  5
CF
330
1F
100
AcDbEntity
  8
0-1_本体
  6
Continuous
 62
     7
370
     9
100
AcDbLine
 10
-793.0715526690682
 20
-792.0001187490176
 30
0.0
 11
-1423.071552669073
 21
-792.0001187490176
 31
0.0
  0
LINE
  5
D0
330
1F
100
AcDbEntity
  8
0-1_本体
  6
Continuous
 62
     7
370
     9
100
AcDbLine
 10
-816.3215526690709
 20
-815.2501187490191
 30
0.0
 11
-1399.821552669072
 21
-815.2501187490191
 31
0.0
  0
LINE
  5
D1
330
1F
100
AcDbEntity
  8
0-B_寸法
  6
Continuous
 62
   120
370
     5
100
AcDbLine
 10
-1648.071552669073
 20
-1960.500118749018
 30
0.0
 11
-1648.071552669073
 21
-792.0001187490176
 31
0.0
  0
LWPOLYLINE
  5
D2
330
1F
100
AcDbEntity
  8
0-B_寸法
  6
Continuous
 62
     7
370
     9
100
AcDbPolyline
 90
        4
 70
     1
 43
3.0
 10
-1646.571552669073
 20
-1960.500118749018
 42
0.4142135623731
 10
-1648.071552669073
 20
-1959.000118749018
 42
0.4142135623731
 10
-1649.571552669073
 20
-1960.500118749018
 42
0.4142135623731
 10
-1648.071552669073
 20
-1962.000118749018
 42
0.4142135623731
  0
LWPOLYLINE
  5
D3
330
1F
100
AcDbEntity
  8
0-B_寸法
  6
Continuous
 62
     7
370
     9
100
AcDbPolyline
 90
        4
 70
     1
 43
3.0
 10
-1646.571552669073
 20
-792.0001187490176
 42
0.4142135623731
 10
-1648.071552669073
 20
-790.5001187490176
 42
0.4142135623731
 10
-1649.571552669073
 20
-792.0001187490176
 42
0.4142135623731
 10
-1648.071552669073
 20
-793.5001187490176
 42
0.4142135623731
  0
LINE
  5
D4
330
1F
100
AcDbEntity
  8
0-B_寸法
  6
Continuous
 62
   120
370
     5
100
AcDbLine
 10
-1648.071552669073
 20
-1960.500118749018
 30
0.0
 11
-1498.071552669073
 21
-1960.500118749018
 31
0.0
  0
LINE
  5
D5
330
1F
100
AcDbEntity
  8
0-B_寸法
  6
Continuous
 62
   120
370
     5
100
AcDbLine
 10
-1648.071552669073
 20
-792.0001187490176
 30
0.0
 11
-1498.071552669073
 21
-792.0001187490176
 31
0.0
  0
TEXT
  5
D6
330
1F
100
AcDbEntity
  8
0-B_寸法
  6
Continuous
 62
     7
370
   211
100
AcDbText
 10
-1675.761552669073
 20
-1451.250118749018
 30
0.0
 40
68.58
  1
779
 50
90.0
 41
1.111111111111111
  7
ＭＳ ゴシック
100
AcDbText
  0
TEXT
  5
D7
330
1F
100
AcDbEntity
  8
0-A_文字
  6
Continuous
 62
     7
370
     9
100
AcDbText
 10
-1565.571552669071
 20
-2737.620069592448
 30
0.0
 40
137.16
  1
ｷｬﾋﾞﾈｯﾄ図
 41
1.12962962962963
  7
ＭＳ ゴシック
100
AcDbText
  0
LINE
  5
D8
330
1F
100
AcDbEntity
  8
0-A_文字
  6
Continuous
 62
     7
370
     9
100
AcDbLine
 10
-1745.571552669075
 20
-2560.500069592448
 30
0.0
 11
-470.5715526690733
 21
-2560.500069592448
 31
0.0
  0
LINE
  5
D9
330
1F
100
AcDbEntity
  8
0-A_文字
  6
Continuous
 62
     7
370
     9
100
AcDbLine
 10
-470.5715526690733
 20
-2560.500069592448
 30
0.0
 11
-470.5715526690733
 21
-2785.50006959245
 31
0.0
  0
LINE
  5
DA
330
1F
100
AcDbEntity
  8
0-A_文字
  6
Continuous
 62
     7
370
     9
100
AcDbLine
 10
-470.5715526690733
 20
-2785.50006959245
 30
0.0
 11
-1745.571552669075
 21
-2785.50006959245
 31
0.0
  0
LINE
  5
DB
330
1F
100
AcDbEntity
  8
0-A_文字
  6
Continuous
 62
     7
370
     9
100
AcDbLine
 10
-1745.571552669075
 20
-2785.50006959245
 30
0.0
 11
-1745.571552669075
 21
-2560.500069592448
 31
0.0
  0
TEXT
  5
DC
330
1F
100
AcDbEntity
  8
0-B_寸法
  6
Continuous
 62
     7
370
   211
100
AcDbText
 10
664.8530530384875
 20
-2307.810118749018
 30
0.0
 40
68.58
  1
18
 41
1.083333333333333
  7
ＭＳ ゴシック
100
AcDbText
  0
LINE
  5
DD
330
1F
100
AcDbEntity
  8
0-2_扉
  6
Continuous
 62
    40
370
    15
100
AcDbLine
 10
775.0713052292474
 20
-796.5001187490191
 30
0.0
 11
802.0713052292467
 21
-796.5001187490191
 31
0.0
  0
LINE
  5
DE
330
1F
100
AcDbEntity
  8
0-2_扉
  6
Continuous
 62
    40
370
    15
100
AcDbLine
 10
775.0713052292474
 20
-1003.500118749018
 30
0.0
 11
775.0713052292474
 21
-796.5001187490191
 31
0.0
  0
LINE
  5
DF
330
1F
100
AcDbEntity
  8
0-2_扉
  6
Continuous
 62
    40
370
    15
100
AcDbLine
 10
775.0713052292474
 20
-1008.000118749019
 30
0.0
 11
802.0713052292467
 21
-1008.000118749019
 31
0.0
  0
LINE
  5
E0
330
1F
100
AcDbEntity
  8
0-2_扉
  6
Continuous
 62
    40
370
    15
100
AcDbLine
 10
775.0713052292474
 20
-1215.000118749019
 30
0.0
 11
775.0713052292474
 21
-1008.000118749019
 31
0.0
  0
LINE
  5
E1
330
1F
100
AcDbEntity
  8
0-2_扉
  6
Continuous
 62
    40
370
    15
100
AcDbLine
 10
775.0713052292474
 20
-1219.500118749018
 30
0.0
 11
802.0713052292467
 21
-1219.500118749018
 31
0.0
  0
LINE
  5
E2
330
1F
100
AcDbEntity
  8
0-2_扉
  6
Continuous
 62
    40
370
    15
100
AcDbLine
 10
775.0713052292474
 20
-1512.750118749019
 30
0.0
 11
775.0713052292474
 21
-1219.500118749018
 31
0.0
  0
LINE
  5
E3
330
1F
100
AcDbEntity
  8
0-2_扉
  6
Continuous
 62
    40
370
    15
100
AcDbLine
 10
775.0713052292474
 20
-1517.250118749018
 30
0.0
 11
802.0713052292467
 21
-1517.250118749018
 31
0.0
  0
LINE
  5
E4
330
1F
100
AcDbEntity
  8
0-2_扉
  6
Continuous
 62
    40
370
    15
100
AcDbLine
 10
775.0713052292474
 20
-1810.500118749018
 30
0.0
 11
775.0713052292474
 21
-1517.250118749018
 31
0.0
  0
LINE
  5
E5
330
1F
100
AcDbEntity
  8
0-2_扉
  6
Continuous
 62
    40
370
    15
100
AcDbLine
 10
775.0713052292474
 20
-1810.500118749018
 30
0.0
 11
802.0713052292467
 21
-1810.500118749018
 31
0.0
  0
LINE
  5
E6
330
1F
100
AcDbEntity
  8
0-2_扉
  6
Continuous
 62
    40
370
    15
100
AcDbLine
 10
775.0713052292474
 20
-1003.500118749018
 30
0.0
 11
802.0713052292467
 21
-1003.500118749018
 31
0.0
  0
LINE
  5
E7
330
1F
100
AcDbEntity
  8
0-2_扉
  6
Continuous
 62
    40
370
    15
100
AcDbLine
 10
775.0713052292474
 20
-1512.750118749019
 30
0.0
 11
802.0713052292467
 21
-1512.750118749019
 31
0.0
  0
LINE
  5
E8
330
1F
100
AcDbEntity
  8
0-2_扉
  6
Continuous
 62
    40
370
    15
100
AcDbLine
 10
775.0713052292474
 20
-1215.000118749019
 30
0.0
 11
802.0713052292467
 21
-1215.000118749019
 31
0.0
  0
LINE
  5
E9
330
1F
100
AcDbEntity
  8
0-B_寸法
  6
Continuous
 62
   120
370
     5
100
AcDbLine
 10
775.0713052292474
 20
-2335.500118749018
 30
0.0
 11
775.0713052292474
 21
-2035.500118749018
 31
0.0
  0
LWPOLYLINE
  5
EA
330
1F
100
AcDbEntity
  8
0-B_寸法
  6
Continuous
 62
     7
370
     9
100
AcDbPolyline
 90
        4
 70
     1
 43
3.0
 10
776.5713052292474
 20
-2335.500118749018
 42
0.4142135623731
 10
775.0713052292474
 20
-2334.000118749018
 42
0.4142135623731
 10
773.5713052292474
 20
-2335.500118749018
 42
0.4142135623731
 10
775.0713052292474
 20
-2337.000118749017
 42
0.4142135623731
  0
LINE
  5
EB
330
1F
100
AcDbEntity
  8
0-B_寸法
  6
Continuous
 62
   120
370
     5
100
AcDbLine
 10
775.0713052292474
 20
-2335.500118749018
 30
0.0
 11
802.0713052292484
 21
-2335.500118749018
 31
0.0
  0
TEXT
  5
EC
330
1F
100
AcDbEntity
  8
0-B_寸法
  6
Continuous
 62
     7
370
   211
100
AcDbText
 10
956.5713052292494
 20
-2307.810118749018
 30
0.0
 40
68.58
  1
306
 41
1.111111111111111
  7
ＭＳ ゴシック
100
AcDbText
  0
LINE
  5
ED
330
1F
100
AcDbEntity
  8
0-2_扉
  6
Continuous
 62
    40
370
    15
100
AcDbLine
 10
802.0713052292467
 20
-1003.500118749018
 30
0.0
 11
802.0713052292467
 21
-796.5001187490191
 31
0.0
  0
LINE
  5
EE
330
1F
100
AcDbEntity
  8
0-2_扉
  6
Continuous
 62
    40
370
    15
100
AcDbLine
 10
802.0713052292467
 20
-1215.000118749019
 30
0.0
 11
802.0713052292467
 21
-1008.000118749019
 31
0.0
  0
LINE
  5
EF
330
1F
100
AcDbEntity
  8
0-2_扉
  6
Continuous
 62
    40
370
    15
100
AcDbLine
 10
802.0713052292467
 20
-1512.750118749019
 30
0.0
 11
802.0713052292467
 21
-1219.500118749018
 31
0.0
  0
LINE
  5
F0
330
1F
100
AcDbEntity
  8
0-2_扉
  6
Continuous
 62
    40
370
    15
100
AcDbLine
 10
802.0713052292467
 20
-1810.500118749018
 30
0.0
 11
802.0713052292467
 21
-1517.250118749018
 31
0.0
  0
TEXT
  5
F1
330
1F
100
AcDbEntity
  8
0-B_寸法
  6
Continuous
 62
     7
370
   211
100
AcDbText
 10
1578.381305229249
 20
-905.1808706061473
 30
0.0
 40
68.58
  1
15.5
 50
90.0
 41
1.125
  7
ＭＳ ゴシック
100
AcDbText
  0
TEXT
  5
F2
330
1F
100
AcDbEntity
  8
0-B_寸法
  6
Continuous
 62
     7
370
   211
100
AcDbText
 10
1578.381305229249
 20
-1900.430870606148
 30
0.0
 40
68.58
  1
15.5
 50
90.0
 41
1.125
  7
ＭＳ ゴシック
100
AcDbText
  0
TEXT
  5
F3
330
1F
100
AcDbEntity
  8
0-B_寸法
  6
Continuous
 62
     7
370
   211
100
AcDbText
 10
1458.381305229249
 20
-1967.775106854229
 30
0.0
 40
68.58
  1
100
 50
90.0
 41
1.111111111111111
  7
ＭＳ ゴシック
100
AcDbText
  0
LINE
  5
F4
330
1F
100
AcDbEntity
  8
0-B_寸法
  6
Continuous
 62
   120
370
     5
100
AcDbLine
 10
1261.071305229249
 20
-2335.500118749018
 30
0.0
 11
1261.071305229249
 21
-2185.500118749018
 31
0.0
  0
LWPOLYLINE
  5
F5
330
1F
100
AcDbEntity
  8
0-B_寸法
  6
Continuous
 62
     7
370
     9
100
AcDbPolyline
 90
        4
 70
     1
 43
3.0
 10
1262.571305229249
 20
-2335.500118749018
 42
0.4142135623731
 10
1261.071305229249
 20
-2334.000118749018
 42
0.4142135623731
 10
1259.571305229249
 20
-2335.500118749018
 42
0.4142135623731
 10
1261.071305229249
 20
-2337.000118749017
 42
0.4142135623731
  0
LINE
  5
F6
330
1F
100
AcDbEntity
  8
0-B_寸法
  6
Continuous
 62
   120
370
     5
100
AcDbLine
 10
802.0713052292484
 20
-2335.500118749018
 30
0.0
 11
1261.071305229249
 21
-2335.500118749018
 31
0.0
  0
LINE
  5
F7
330
1F
100
AcDbEntity
  8
0-B_寸法
  6
Continuous
 62
   120
370
     5
100
AcDbLine
 10
802.0713052292484
 20
-2335.500118749018
 30
0.0
 11
802.0713052292484
 21
-2185.500118749018
 31
0.0
  0
LWPOLYLINE
  5
F8
330
1F
100
AcDbEntity
  8
0-B_寸法
  6
Continuous
 62
     7
370
     9
100
AcDbPolyline
 90
        4
 70
     1
 43
3.0
 10
803.5713052292484
 20
-2335.500118749018
 42
0.4142135623731
 10
802.0713052292484
 20
-2334.000118749018
 42
0.4142135623731
 10
800.5713052292484
 20
-2335.500118749018
 42
0.4142135623731
 10
802.0713052292484
 20
-2337.000118749017
 42
0.4142135623731
  0
TEXT
  5
F9
330
1F
100
AcDbEntity
  8
0-B_寸法
  6
Continuous
 62
     7
370
   211
100
AcDbText
 10
970.0713052292474
 20
-2157.810118749018
 30
0.0
 40
68.58
  1
288
 41
1.111111111111111
  7
ＭＳ ゴシック
100
AcDbText
  0
LINE
  5
FA
330
1F
100
AcDbEntity
  8
0-B_寸法
  6
Continuous
 62
   120
370
     5
100
AcDbLine
 10
1261.071305229249
 20
-2185.500118749018
 30
0.0
 11
1261.071305229249
 21
-2035.500118749018
 31
0.0
  0
LWPOLYLINE
  5
FB
330
1F
100
AcDbEntity
  8
0-B_寸法
  6
Continuous
 62
     7
370
     9
100
AcDbPolyline
 90
        4
 70
     1
 43
3.0
 10
1262.571305229249
 20
-2185.500118749018
 42
0.4142135623731
 10
1261.071305229249
 20
-2184.000118749018
 42
0.4142135623731
 10
1259.571305229249
 20
-2185.500118749018
 42
0.4142135623731
 10
1261.071305229249
 20
-2187.000118749017
 42
0.4142135623731
  0
LINE
  5
FC
330
1F
100
AcDbEntity
  8
0-B_寸法
  6
Continuous
 62
   120
370
     5
100
AcDbLine
 10
802.0713052292484
 20
-2185.500118749018
 30
0.0
 11
802.0713052292484
 21
-2035.500118749018
 31
0.0
  0
LWPOLYLINE
  5
FD
330
1F
100
AcDbEntity
  8
0-B_寸法
  6
Continuous
 62
     7
370
     9
100
AcDbPolyline
 90
        4
 70
     1
 43
3.0
 10
803.5713052292484
 20
-2185.500118749018
 42
0.4142135623731
 10
802.0713052292484
 20
-2184.000118749018
 42
0.4142135623731
 10
800.5713052292484
 20
-2185.500118749018
 42
0.4142135623731
 10
802.0713052292484
 20
-2187.000118749017
 42
0.4142135623731
  0
LINE
  5
FE
330
1F
100
AcDbEntity
  8
0-B_寸法
  6
Continuous
 62
   120
370
     5
100
AcDbLine
 10
1486.071305229249
 20
-1960.500118749018
 30
0.0
 11
1336.071305229249
 21
-1960.500118749018
 31
0.0
  0
LWPOLYLINE
  5
FF
330
1F
100
AcDbEntity
  8
0-B_寸法
  6
Continuous
 62
     7
370
     9
100
AcDbPolyline
 90
        4
 70
     1
 43
3.0
 10
1487.571305229249
 20
-1960.500118749018
 42
0.4142135623731
 10
1486.071305229249
 20
-1959.000118749018
 42
0.4142135623731
 10
1484.571305229249
 20
-1960.500118749018
 42
0.4142135623731
 10
1486.071305229249
 20
-1962.000118749018
 42
0.4142135623731
  0
LINE
  5
100
330
1F
100
AcDbEntity
  8
0-B_寸法
  6
Continuous
 62
   120
370
     5
100
AcDbLine
 10
1486.071305229249
 20
-1810.500118749018
 30
0.0
 11
1486.071305229249
 21
-1960.500118749018
 31
0.0
  0
LINE
  5
101
330
1F
100
AcDbEntity
  8
0-B_寸法
  6
Continuous
 62
   120
370
     5
100
AcDbLine
 10
1486.071305229249
 20
-1810.500118749018
 30
0.0
 11
1336.071305229249
 21
-1810.500118749018
 31
0.0
  0
LWPOLYLINE
  5
102
330
1F
100
AcDbEntity
  8
0-B_寸法
  6
Continuous
 62
     7
370
     9
100
AcDbPolyline
 90
        4
 70
     1
 43
3.0
 10
1487.571305229249
 20
-1810.500118749018
 42
0.4142135623731
 10
1486.071305229249
 20
-1809.000118749018
 42
0.4142135623731
 10
1484.571305229249
 20
-1810.500118749018
 42
0.4142135623731
 10
1486.071305229249
 20
-1812.000118749018
 42
0.4142135623731
  0
LINE
  5
103
330
1F
100
AcDbEntity
  8
0-B_寸法
  6
Continuous
 62
   120
370
     5
100
AcDbLine
 10
1486.071305229249
 20
-1787.250118749018
 30
0.0
 11
1486.071305229249
 21
-1810.500118749018
 31
0.0
  0
TEXT
  5
104
330
1F
100
AcDbEntity
  8
0-B_寸法
  6
Continuous
 62
     7
370
   211
100
AcDbText
 10
1458.381305229249
 20
-1376.250118749018
 30
0.0
 40
68.58
  1
648
 50
90.0
 41
1.111111111111111
  7
ＭＳ ゴシック
100
AcDbText
  0
LINE
  5
105
330
1F
100
AcDbEntity
  8
0-B_寸法
  6
Continuous
 62
   120
370
     5
100
AcDbLine
 10
1486.071305229249
 20
-1787.250118749018
 30
0.0
 11
1336.071305229249
 21
-1787.250118749018
 31
0.0
  0
LWPOLYLINE
  5
106
330
1F
100
AcDbEntity
  8
0-B_寸法
  6
Continuous
 62
     7
370
     9
100
AcDbPolyline
 90
        4
 70
     1
 43
3.0
 10
1487.571305229249
 20
-1787.250118749018
 42
0.4142135623731
 10
1486.071305229249
 20
-1785.750118749018
 42
0.4142135623731
 10
1484.571305229249
 20
-1787.250118749018
 42
0.4142135623731
 10
1486.071305229249
 20
-1788.750118749018
 42
0.4142135623731
  0
LINE
  5
107
330
1F
100
AcDbEntity
  8
0-B_寸法
  6
Continuous
 62
   120
370
     5
100
AcDbLine
 10
1486.071305229249
 20
-815.2501187490188
 30
0.0
 11
1486.071305229249
 21
-1787.250118749018
 31
0.0
  0
LINE
  5
108
330
1F
100
AcDbEntity
  8
0-B_寸法
  6
Continuous
 62
   120
370
     5
100
AcDbLine
 10
1486.071305229249
 20
-815.2501187490188
 30
0.0
 11
1336.071305229249
 21
-815.2501187490188
 31
0.0
  0
LINE
  5
109
330
1F
100
AcDbEntity
  8
0-B_寸法
  6
Continuous
 62
   120
370
     5
100
AcDbLine
 10
1486.071305229249
 20
-792.0001187490178
 30
0.0
 11
1336.071305229249
 21
-792.0001187490178
 31
0.0
  0
LWPOLYLINE
  5
10A
330
1F
100
AcDbEntity
  8
0-B_寸法
  6
Continuous
 62
     7
370
     9
100
AcDbPolyline
 90
        4
 70
     1
 43
3.0
 10
1487.571305229249
 20
-815.2501187490188
 42
0.4142135623731
 10
1486.071305229249
 20
-813.7501187490188
 42
0.4142135623731
 10
1484.571305229249
 20
-815.2501187490188
 42
0.4142135623731
 10
1486.071305229249
 20
-816.7501187490188
 42
0.4142135623731
  0
LWPOLYLINE
  5
10B
330
1F
100
AcDbEntity
  8
0-B_寸法
  6
Continuous
 62
     7
370
     9
100
AcDbPolyline
 90
        4
 70
     1
 43
3.0
 10
1487.571305229249
 20
-792.0001187490178
 42
0.4142135623731
 10
1486.071305229249
 20
-790.5001187490178
 42
0.4142135623731
 10
1484.571305229249
 20
-792.0001187490178
 42
0.4142135623731
 10
1486.071305229249
 20
-793.5001187490178
 42
0.4142135623731
  0
LINE
  5
10C
330
1F
100
AcDbEntity
  8
0-B_寸法
  6
Continuous
 62
   120
370
     5
100
AcDbLine
 10
1486.071305229249
 20
-792.0001187490178
 30
0.0
 11
1486.071305229249
 21
-815.2501187490188
 31
0.0
  0
LINE
  5
10D
330
1F
100
AcDbEntity
  8
0-1_本体
  6
Continuous
 62
    40
370
    15
100
AcDbLine
 10
802.0713052292467
 20
-1787.250118749018
 30
0.0
 11
1257.321305229245
 21
-1787.250118749018
 31
0.0
  0
LINE
  5
10E
330
1F
100
AcDbEntity
  8
0-1_本体
  6
Continuous
 62
    40
370
    15
100
AcDbLine
 10
1257.321305229245
 20
-815.2501187490191
 30
0.0
 11
802.0713052292467
 21
-815.2501187490191
 31
0.0
  0
LINE
  5
10F
330
1F
100
AcDbEntity
  8
0-1_本体
  6
Continuous
 62
    40
370
    15
100
AcDbLine
 10
1261.071305229249
 20
-800.2501187490191
 30
0.0
 11
1257.321305229245
 21
-800.2501187490191
 31
0.0
  0
LINE
  5
110
330
1F
100
AcDbEntity
  8
0-1_本体
  6
Continuous
 62
    40
370
    15
100
AcDbLine
 10
1257.321305229245
 20
-1802.250118749018
 30
0.0
 11
1261.071305229249
 21
-1802.250118749018
 31
0.0
  0
LINE
  5
111
330
1F
100
AcDbEntity
  8
0-1_本体
  6
Continuous
 62
    40
370
    15
100
AcDbLine
 10
1257.321305229245
 20
-1802.250118749018
 30
0.0
 11
1257.321305229245
 21
-800.2501187490191
 31
0.0
  0
TEXT
  5
112
330
1F
100
AcDbEntity
  8
0-B_寸法
  6
Continuous
 62
     7
370
   211
100
AcDbText
 10
649.4818502300529
 20
-1509.750118749019
 30
0.0
 40
68.58
  1
3
 50
90.0
  7
ＭＳ ゴシック
100
AcDbText
  0
TEXT
  5
113
330
1F
100
AcDbEntity
  8
0-B_寸法
  6
Continuous
 62
     7
370
   211
100
AcDbText
 10
649.4818502300529
 20
-1212.000118749015
 30
0.0
 40
68.58
  1
3
 50
90.0
 41
0.9999999999998437
  7
ＭＳ ゴシック
100
AcDbText
  0
TEXT
  5
114
330
1F
100
AcDbEntity
  8
0-B_寸法
  6
Continuous
 62
     7
370
   211
100
AcDbText
 10
649.4818502300529
 20
-1000.500118749019
 30
0.0
 40
68.58
  1
3
 50
90.0
  7
ＭＳ ゴシック
100
AcDbText
  0
TEXT
  5
115
330
1F
100
AcDbEntity
  8
0-B_寸法
  6
Continuous
 62
     7
370
   211
100
AcDbText
 10
649.4818502300529
 20
-789.0001187490191
 30
0.0
 40
68.58
  1
3
 50
90.0
  7
ＭＳ ゴシック
100
AcDbText
  0
TEXT
  5
116
330
1F
100
AcDbEntity
  8
0-B_寸法
  6
Continuous
 62
     7
370
   211
100
AcDbText
 10
519.3813052292467
 20
-1791.375118749018
 30
0.0
 40
68.58
  1
195.5
 50
90.0
 41
1.133333333333333
  7
ＭＳ ゴシック
100
AcDbText
  0
LINE
  5
117
330
1F
100
AcDbEntity
  8
0-B_寸法
  6
Continuous
 62
   120
370
     5
100
AcDbLine
 10
547.0713052292467
 20
-1810.500118749018
 30
0.0
 11
697.0713052292467
 21
-1810.500118749018
 31
0.0
  0
LWPOLYLINE
  5
118
330
1F
100
AcDbEntity
  8
0-B_寸法
  6
Continuous
 62
     7
370
     9
100
AcDbPolyline
 90
        4
 70
     1
 43
3.0
 10
548.5713052292467
 20
-1810.500118749018
 42
0.4142135623731
 10
547.0713052292467
 20
-1809.000118749018
 42
0.4142135623731
 10
545.5713052292467
 20
-1810.500118749018
 42
0.4142135623731
 10
547.0713052292467
 20
-1812.000118749018
 42
0.4142135623731
  0
LINE
  5
119
330
1F
100
AcDbEntity
  8
0-B_寸法
  6
Continuous
 62
   120
370
     5
100
AcDbLine
 10
547.0713052292467
 20
-1517.250118749018
 30
0.0
 11
547.0713052292467
 21
-1810.500118749018
 31
0.0
  0
LINE
  5
11A
330
1F
100
AcDbEntity
  8
0-B_寸法
  6
Continuous
 62
   120
370
     5
100
AcDbLine
 10
547.0713052292467
 20
-1517.250118749018
 30
0.0
 11
697.0713052292467
 21
-1517.250118749018
 31
0.0
  0
LWPOLYLINE
  5
11B
330
1F
100
AcDbEntity
  8
0-B_寸法
  6
Continuous
 62
     7
370
     9
100
AcDbPolyline
 90
        4
 70
     1
 43
3.0
 10
548.5713052292467
 20
-1517.250118749018
 42
0.4142135623731
 10
547.0713052292467
 20
-1515.750118749018
 42
0.4142135623731
 10
545.5713052292467
 20
-1517.250118749018
 42
0.4142135623731
 10
547.0713052292467
 20
-1518.750118749018
 42
0.4142135623731
  0
LINE
  5
11C
330
1F
100
AcDbEntity
  8
0-B_寸法
  6
Continuous
 62
   120
370
     5
100
AcDbLine
 10
547.0713052292467
 20
-1512.750118749019
 30
0.0
 11
547.0713052292467
 21
-1517.250118749018
 31
0.0
  0
TEXT
  5
11D
330
1F
100
AcDbEntity
  8
0-B_寸法
  6
Continuous
 62
     7
370
   211
100
AcDbText
 10
519.3813052292467
 20
-1493.625118749019
 30
0.0
 40
68.58
  1
195.5
 50
90.0
 41
1.133333333333333
  7
ＭＳ ゴシック
100
AcDbText
  0
LINE
  5
11E
330
1F
100
AcDbEntity
  8
0-B_寸法
  6
Continuous
 62
   120
370
     5
100
AcDbLine
 10
547.0713052292467
 20
-1512.750118749019
 30
0.0
 11
697.0713052292467
 21
-1512.750118749019
 31
0.0
  0
LWPOLYLINE
  5
11F
330
1F
100
AcDbEntity
  8
0-B_寸法
  6
Continuous
 62
     7
370
     9
100
AcDbPolyline
 90
        4
 70
     1
 43
3.0
 10
548.5713052292467
 20
-1512.750118749019
 42
0.4142135623731
 10
547.0713052292467
 20
-1511.250118749019
 42
0.4142135623731
 10
545.5713052292467
 20
-1512.750118749019
 42
0.4142135623731
 10
547.0713052292467
 20
-1514.250118749019
 42
0.4142135623731
  0
LINE
  5
120
330
1F
100
AcDbEntity
  8
0-B_寸法
  6
Continuous
 62
   120
370
     5
100
AcDbLine
 10
547.0713052292467
 20
-1219.500118749018
 30
0.0
 11
547.0713052292467
 21
-1512.750118749019
 31
0.0
  0
LINE
  5
121
330
1F
100
AcDbEntity
  8
0-B_寸法
  6
Continuous
 62
   120
370
     5
100
AcDbLine
 10
547.0713052292467
 20
-1219.500118749018
 30
0.0
 11
697.0713052292467
 21
-1219.500118749018
 31
0.0
  0
LWPOLYLINE
  5
122
330
1F
100
AcDbEntity
  8
0-B_寸法
  6
Continuous
 62
     7
370
     9
100
AcDbPolyline
 90
        4
 70
     1
 43
3.0
 10
548.5713052292467
 20
-1219.500118749018
 42
0.4142135623731
 10
547.0713052292467
 20
-1218.000118749018
 42
0.4142135623731
 10
545.5713052292467
 20
-1219.500118749018
 42
0.4142135623731
 10
547.0713052292467
 20
-1221.000118749018
 42
0.4142135623731
  0
LINE
  5
123
330
1F
100
AcDbEntity
  8
0-B_寸法
  6
Continuous
 62
   120
370
     5
100
AcDbLine
 10
547.0713052292467
 20
-1215.000118749019
 30
0.0
 11
547.0713052292467
 21
-1219.500118749018
 31
0.0
  0
TEXT
  5
124
330
1F
100
AcDbEntity
  8
0-B_寸法
  6
Continuous
 62
     7
370
   211
100
AcDbText
 10
519.3813052292467
 20
-1186.500118749019
 30
0.0
 40
68.58
  1
138
 50
90.0
 41
1.111111111111111
  7
ＭＳ ゴシック
100
AcDbText
  0
LINE
  5
125
330
1F
100
AcDbEntity
  8
0-B_寸法
  6
Continuous
 62
   120
370
     5
100
AcDbLine
 10
547.0713052292467
 20
-1215.000118749019
 30
0.0
 11
697.0713052292467
 21
-1215.000118749019
 31
0.0
  0
LWPOLYLINE
  5
126
330
1F
100
AcDbEntity
  8
0-B_寸法
  6
Continuous
 62
     7
370
     9
100
AcDbPolyline
 90
        4
 70
     1
 43
3.0
 10
548.5713052292467
 20
-1215.000118749019
 42
0.4142135623731
 10
547.0713052292467
 20
-1213.500118749019
 42
0.4142135623731
 10
545.5713052292467
 20
-1215.000118749019
 42
0.4142135623731
 10
547.0713052292467
 20
-1216.500118749018
 42
0.4142135623731
  0
LINE
  5
127
330
1F
100
AcDbEntity
  8
0-B_寸法
  6
Continuous
 62
   120
370
     5
100
AcDbLine
 10
547.0713052292467
 20
-1008.000118749019
 30
0.0
 11
547.0713052292467
 21
-1215.000118749019
 31
0.0
  0
LINE
  5
128
330
1F
100
AcDbEntity
  8
0-B_寸法
  6
Continuous
 62
   120
370
     5
100
AcDbLine
 10
547.0713052292467
 20
-1008.000118749019
 30
0.0
 11
697.0713052292467
 21
-1008.000118749019
 31
0.0
  0
LWPOLYLINE
  5
129
330
1F
100
AcDbEntity
  8
0-B_寸法
  6
Continuous
 62
     7
370
     9
100
AcDbPolyline
 90
        4
 70
     1
 43
3.0
 10
548.5713052292467
 20
-1008.000118749019
 42
0.4142135623731
 10
547.0713052292467
 20
-1006.500118749019
 42
0.4142135623731
 10
545.5713052292467
 20
-1008.000118749019
 42
0.4142135623731
 10
547.0713052292467
 20
-1009.500118749019
 42
0.4142135623731
  0
LINE
  5
12A
330
1F
100
AcDbEntity
  8
0-B_寸法
  6
Continuous
 62
   120
370
     5
100
AcDbLine
 10
547.0713052292467
 20
-1003.500118749018
 30
0.0
 11
547.0713052292467
 21
-1008.000118749019
 31
0.0
  0
TEXT
  5
12B
330
1F
100
AcDbEntity
  8
0-B_寸法
  6
Continuous
 62
     7
370
   211
100
AcDbText
 10
519.3813052292467
 20
-975.0001187490183
 30
0.0
 40
68.58
  1
138
 50
90.0
 41
1.111111111111111
  7
ＭＳ ゴシック
100
AcDbText
  0
LINE
  5
12C
330
1F
100
AcDbEntity
  8
0-B_寸法
  6
Continuous
 62
   120
370
     5
100
AcDbLine
 10
547.0713052292467
 20
-1003.500118749018
 30
0.0
 11
697.0713052292467
 21
-1003.500118749018
 31
0.0
  0
LWPOLYLINE
  5
12D
330
1F
100
AcDbEntity
  8
0-B_寸法
  6
Continuous
 62
     7
370
     9
100
AcDbPolyline
 90
        4
 70
     1
 43
3.0
 10
548.5713052292467
 20
-1003.500118749018
 42
0.4142135623731
 10
547.0713052292467
 20
-1002.000118749018
 42
0.4142135623731
 10
545.5713052292467
 20
-1003.500118749018
 42
0.4142135623731
 10
547.0713052292467
 20
-1005.000118749018
 42
0.4142135623731
  0
LINE
  5
12E
330
1F
100
AcDbEntity
  8
0-B_寸法
  6
Continuous
 62
   120
370
     5
100
AcDbLine
 10
547.0713052292467
 20
-796.5001187490191
 30
0.0
 11
547.0713052292467
 21
-1003.500118749018
 31
0.0
  0
LINE
  5
12F
330
1F
100
AcDbEntity
  8
0-B_寸法
  6
Continuous
 62
   120
370
     5
100
AcDbLine
 10
547.0713052292467
 20
-796.5001187490191
 30
0.0
 11
697.0713052292467
 21
-796.5001187490191
 31
0.0
  0
LINE
  5
130
330
1F
100
AcDbEntity
  8
0-B_寸法
  6
Continuous
 62
   120
370
     5
100
AcDbLine
 10
547.0713052292467
 20
-792.0001187490176
 30
0.0
 11
697.0713052292467
 21
-792.0001187490176
 31
0.0
  0
LWPOLYLINE
  5
131
330
1F
100
AcDbEntity
  8
0-B_寸法
  6
Continuous
 62
     7
370
     9
100
AcDbPolyline
 90
        4
 70
     1
 43
3.0
 10
548.5713052292467
 20
-796.5001187490191
 42
0.4142135623731
 10
547.0713052292467
 20
-795.0001187490191
 42
0.4142135623731
 10
545.5713052292467
 20
-796.5001187490191
 42
0.4142135623731
 10
547.0713052292467
 20
-798.0001187490191
 42
0.4142135623731
  0
LWPOLYLINE
  5
132
330
1F
100
AcDbEntity
  8
0-B_寸法
  6
Continuous
 62
     7
370
     9
100
AcDbPolyline
 90
        4
 70
     1
 43
3.0
 10
548.5713052292467
 20
-792.0001187490176
 42
0.4142135623731
 10
547.0713052292467
 20
-790.5001187490176
 42
0.4142135623731
 10
545.5713052292467
 20
-792.0001187490176
 42
0.4142135623731
 10
547.0713052292467
 20
-793.5001187490176
 42
0.4142135623731
  0
LINE
  5
133
330
1F
100
AcDbEntity
  8
0-B_寸法
  6
Continuous
 62
   120
370
     5
100
AcDbLine
 10
547.0713052292467
 20
-792.0001187490176
 30
0.0
 11
547.0713052292467
 21
-796.5001187490191
 31
0.0
  0
LINE
  5
134
330
1F
100
AcDbEntity
  8
0-1_本体
  6
Continuous
 62
     7
370
     9
100
AcDbLine
 10
1261.071305229249
 20
-1810.500118749018
 30
0.0
 11
1261.071305229249
 21
-1960.500118749018
 31
0.0
  0
LINE
  5
135
330
1F
100
AcDbEntity
  8
0-1_本体
  6
Continuous
 62
     7
370
     9
100
AcDbLine
 10
802.0713052292467
 20
-1810.500118749018
 30
0.0
 11
802.0713052292467
 21
-1960.500118749018
 31
0.0
  0
LINE
  5
136
330
1F
100
AcDbEntity
  8
0-1_本体
  6
Continuous
 62
    40
370
    15
100
AcDbLine
 10
1261.071305229249
 20
-1810.500118749018
 30
0.0
 11
1261.071305229249
 21
-792.0001187490176
 31
0.0
  0
LINE
  5
137
330
1F
100
AcDbEntity
  8
0-1_本体
  6
Continuous
 62
    40
370
    15
100
AcDbLine
 10
802.0713052292467
 20
-1787.250118749018
 30
0.0
 11
802.0713052292467
 21
-1810.500118749018
 31
0.0
  0
LINE
  5
138
330
1F
100
AcDbEntity
  8
0-1_本体
  6
Continuous
 62
    40
370
    15
100
AcDbLine
 10
802.0713052292467
 20
-792.0001187490176
 30
0.0
 11
802.0713052292467
 21
-815.2501187490191
 31
0.0
  0
LINE
  5
139
330
1F
100
AcDbEntity
  8
0-1_本体
  6
Continuous
 62
    40
370
    15
100
AcDbLine
 10
802.0713052292467
 20
-1810.500118749018
 30
0.0
 11
1261.071305229249
 21
-1810.500118749018
 31
0.0
  0
LINE
  5
13A
330
1F
100
AcDbEntity
  8
0-1_本体
  6
Continuous
 62
    40
370
    15
100
AcDbLine
 10
1261.071305229249
 20
-792.0001187490176
 30
0.0
 11
802.0713052292467
 21
-792.0001187490176
 31
0.0
  0
LINE
  5
13B
330
1F
100
AcDbEntity
  8
0-0_補助線
  6
JWW_HOJO
 62
   120
370
     5
100
AcDbLine
 10
1336.071305229249
 20
-2035.500118749018
 30
0.0
 11
1336.071305229249
 21
-717.0001187490176
 31
0.0
  0
LINE
  5
13C
330
1F
100
AcDbEntity
  8
0-0_補助線
  6
JWW_HOJO
 62
   120
370
     5
100
AcDbLine
 10
697.0713052292467
 20
-2035.500118749018
 30
0.0
 11
1336.071305229249
 21
-2035.500118749018
 31
0.0
  0
LINE
  5
13D
330
1F
100
AcDbEntity
  8
0-0_補助線
  6
JWW_HOJO
 62
   120
370
     5
100
AcDbLine
 10
697.0713052292467
 20
-717.0001187490176
 30
0.0
 11
697.0713052292467
 21
-2035.500118749018
 31
0.0
  0
LINE
  5
13E
330
1F
100
AcDbEntity
  8
0-4_棚
  6
JWW_CENTER1
 62
   120
370
     5
100
AcDbLine
 10
802.0713052292467
 20
-1778.250118749018
 30
0.0
 11
1252.071305229247
 21
-1778.250118749018
 31
0.0
  0
LINE
  5
13F
330
1F
100
AcDbEntity
  8
0-4_棚
  6
JWW_CENTER1
 62
   120
370
     5
100
AcDbLine
 10
802.0713052292467
 20
-1503.750118749019
 30
0.0
 11
1252.071305229247
 21
-1503.750118749019
 31
0.0
  0
LINE
  5
140
330
1F
100
AcDbEntity
  8
0-0_補助線
  6
JWW_HOJO
 62
   120
370
     5
100
AcDbLine
 10
1336.071305229249
 20
-717.0001187490176
 30
0.0
 11
697.0713052292467
 21
-717.0001187490176
 31
0.0
  0
LINE
  5
141
330
1F
100
AcDbEntity
  8
0-4_棚
  6
JWW_CENTER1
 62
   120
370
     5
100
AcDbLine
 10
802.0713052292467
 20
-1206.000118749018
 30
0.0
 11
1252.071305229247
 21
-1206.000118749018
 31
0.0
  0
LINE
  5
142
330
1F
100
AcDbEntity
  8
0-4_棚
  6
JWW_CENTER1
 62
   120
370
     5
100
AcDbLine
 10
802.0713052292467
 20
-994.5001187490176
 30
0.0
 11
1252.071305229247
 21
-994.5001187490176
 31
0.0
  0
LINE
  5
143
330
1F
100
AcDbEntity
  8
0-A_文字
  6
Continuous
 62
     7
370
     9
100
AcDbLine
 10
1948.071305229246
 20
-2785.500089056221
 30
0.0
 11
88.07130522924808
 21
-2785.500089056221
 31
0.0
  0
LINE
  5
144
330
1F
100
AcDbEntity
  8
0-A_文字
  6
Continuous
 62
     7
370
     9
100
AcDbLine
 10
88.07130522924808
 20
-2560.500089056219
 30
0.0
 11
1948.071305229246
 21
-2560.500089056219
 31
0.0
  0
LINE
  5
145
330
1F
100
AcDbEntity
  8
0-A_文字
  6
Continuous
 62
     7
370
     9
100
AcDbLine
 10
1948.071305229246
 20
-2560.500089056219
 30
0.0
 11
1948.071305229246
 21
-2785.500089056221
 31
0.0
  0
TEXT
  5
146
330
1F
100
AcDbEntity
  8
0-A_文字
  6
Continuous
 62
     7
370
     9
100
AcDbText
 10
193.0713052292481
 20
-2737.620089056219
 30
0.0
 40
137.16
  1
断面図(奥行306mm)
 41
1.07843137254902
  7
ＭＳ ゴシック
100
AcDbText
  0
LINE
  5
147
330
1F
100
AcDbEntity
  8
0-A_文字
  6
Continuous
 62
     7
370
     9
100
AcDbLine
 10
88.07130522924808
 20
-2560.500089056219
 30
0.0
 11
88.07130522924808
 21
-2785.500089056221
 31
0.0
  0
TEXT
  5
148
330
1F
100
AcDbEntity
  8
0-B_寸法
  6
Continuous
 62
     7
370
   211
100
AcDbText
 10
-769.1837847242505
 20
770.7242883034183
 30
0.0
 40
68.58
  1
15.5
 41
1.125
  7
ＭＳ ゴシック
100
AcDbText
  0
TEXT
  5
149
330
1F
100
AcDbEntity
  8
0-B_寸法
  6
Continuous
 62
     7
370
   211
100
AcDbText
 10
-1655.179839951077
 20
770.7242883034183
 30
0.0
 40
68.58
  1
15.5
 41
1.125
  7
ＭＳ ゴシック
100
AcDbText
  0
TEXT
  5
14A
330
1F
100
AcDbEntity
  8
0-B_寸法
  6
Continuous
 62
     7
370
   211
100
AcDbText
 10
-595.7615526690734
 20
960.7593001982066
 30
0.0
 40
68.58
  1
100
 50
90.0
 41
1.111111111111111
  7
ＭＳ ゴシック
100
AcDbText
  0
TEXT
  5
14B
330
1F
100
AcDbEntity
  8
0-B_寸法
  6
Continuous
 62
     7
370
   211
100
AcDbText
 10
-475.7615526690733
 20
1850.853536446289
 30
0.0
 40
68.58
  1
15.5
 50
90.0
 41
1.125
  7
ＭＳ ゴシック
100
AcDbText
  0
TEXT
  5
14C
330
1F
100
AcDbEntity
  8
0-B_寸法
  6
Continuous
 62
     7
370
   211
100
AcDbText
 10
-475.7615526690733
 20
1028.103536446289
 30
0.0
 40
68.58
  1
15.5
 50
90.0
 41
1.125
  7
ＭＳ ゴシック
100
AcDbText
  0
LINE
  5
14D
330
1F
100
AcDbEntity
  8
0-B_寸法
  6
Continuous
 62
   120
370
     5
100
AcDbLine
 10
-568.0715526690733
 20
968.0342883034183
 30
0.0
 11
-718.0715526690733
 21
968.0342883034183
 31
0.0
  0
LWPOLYLINE
  5
14E
330
1F
100
AcDbEntity
  8
0-B_寸法
  6
Continuous
 62
     7
370
     9
100
AcDbPolyline
 90
        4
 70
     1
 43
3.0
 10
-566.5715526690733
 20
968.0342883034183
 42
0.4142135623731
 10
-568.0715526690733
 20
969.5342883034182
 42
0.4142135623731
 10
-569.5715526690733
 20
968.0342883034183
 42
0.4142135623731
 10
-568.0715526690733
 20
966.5342883034184
 42
0.4142135623731
  0
LINE
  5
14F
330
1F
100
AcDbEntity
  8
0-B_寸法
  6
Continuous
 62
   120
370
     5
100
AcDbLine
 10
-568.0715526690733
 20
1118.034288303418
 30
0.0
 11
-568.0715526690733
 21
968.0342883034183
 31
0.0
  0
LINE
  5
150
330
1F
100
AcDbEntity
  8
0-B_寸法
  6
Continuous
 62
   120
370
     5
100
AcDbLine
 10
-568.0715526690733
 20
1118.034288303418
 30
0.0
 11
-718.0715526690733
 21
1118.034288303418
 31
0.0
  0
LWPOLYLINE
  5
151
330
1F
100
AcDbEntity
  8
0-B_寸法
  6
Continuous
 62
     7
370
     9
100
AcDbPolyline
 90
        4
 70
     1
 43
3.0
 10
-566.5715526690733
 20
1118.034288303418
 42
0.4142135623731
 10
-568.0715526690733
 20
1119.534288303418
 42
0.4142135623731
 10
-569.5715526690733
 20
1118.034288303418
 42
0.4142135623731
 10
-568.0715526690733
 20
1116.534288303418
 42
0.4142135623731
  0
LINE
  5
152
330
1F
100
AcDbEntity
  8
0-B_寸法
  6
Continuous
 62
   120
370
     5
100
AcDbLine
 10
-568.0715526690733
 20
1141.284288303418
 30
0.0
 11
-568.0715526690733
 21
1118.034288303418
 31
0.0
  0
TEXT
  5
153
330
1F
100
AcDbEntity
  8
0-B_寸法
  6
Continuous
 62
     7
370
   211
100
AcDbText
 10
-595.7615526690734
 20
1466.034288303418
 30
0.0
 40
68.58
  1
533
 50
90.0
 41
1.111111111111111
  7
ＭＳ ゴシック
100
AcDbText
  0
LINE
  5
154
330
1F
100
AcDbEntity
  8
0-B_寸法
  6
Continuous
 62
   120
370
     5
100
AcDbLine
 10
-568.0715526690733
 20
1141.284288303418
 30
0.0
 11
-718.0715526690733
 21
1141.284288303418
 31
0.0
  0
LWPOLYLINE
  5
155
330
1F
100
AcDbEntity
  8
0-B_寸法
  6
Continuous
 62
     7
370
     9
100
AcDbPolyline
 90
        4
 70
     1
 43
3.0
 10
-566.5715526690733
 20
1141.284288303418
 42
0.4142135623731
 10
-568.0715526690733
 20
1142.784288303417
 42
0.4142135623731
 10
-569.5715526690733
 20
1141.284288303418
 42
0.4142135623731
 10
-568.0715526690733
 20
1139.784288303418
 42
0.4142135623731
  0
LINE
  5
156
330
1F
100
AcDbEntity
  8
0-B_寸法
  6
Continuous
 62
   120
370
     5
100
AcDbLine
 10
-568.0715526690733
 20
1940.784288303419
 30
0.0
 11
-568.0715526690733
 21
1141.284288303418
 31
0.0
  0
LINE
  5
157
330
1F
100
AcDbEntity
  8
0-B_寸法
  6
Continuous
 62
   120
370
     5
100
AcDbLine
 10
-568.0715526690733
 20
1940.784288303419
 30
0.0
 11
-718.0715526690733
 21
1940.784288303419
 31
0.0
  0
LINE
  5
158
330
1F
100
AcDbEntity
  8
0-B_寸法
  6
Continuous
 62
   120
370
     5
100
AcDbLine
 10
-568.0715526690733
 20
1964.034288303418
 30
0.0
 11
-718.0715526690733
 21
1964.034288303418
 31
0.0
  0
LWPOLYLINE
  5
159
330
1F
100
AcDbEntity
  8
0-B_寸法
  6
Continuous
 62
     7
370
     9
100
AcDbPolyline
 90
        4
 70
     1
 43
3.0
 10
-566.5715526690733
 20
1940.784288303419
 42
0.4142135623731
 10
-568.0715526690733
 20
1942.284288303419
 42
0.4142135623731
 10
-569.5715526690733
 20
1940.784288303419
 42
0.4142135623731
 10
-568.0715526690733
 20
1939.284288303419
 42
0.4142135623731
  0
LWPOLYLINE
  5
15A
330
1F
100
AcDbEntity
  8
0-B_寸法
  6
Continuous
 62
     7
370
     9
100
AcDbPolyline
 90
        4
 70
     1
 43
3.0
 10
-566.5715526690733
 20
1964.034288303418
 42
0.4142135623731
 10
-568.0715526690733
 20
1965.534288303418
 42
0.4142135623731
 10
-569.5715526690733
 20
1964.034288303418
 42
0.4142135623731
 10
-568.0715526690733
 20
1962.534288303418
 42
0.4142135623731
  0
LINE
  5
15B
330
1F
100
AcDbEntity
  8
0-B_寸法
  6
Continuous
 62
   120
370
     5
100
AcDbLine
 10
-568.0715526690733
 20
1964.034288303418
 30
0.0
 11
-568.0715526690733
 21
1940.784288303419
 31
0.0
  0
TEXT
  5
15C
330
1F
100
AcDbEntity
  8
0-B_寸法
  6
Continuous
 62
     7
370
   211
100
AcDbText
 10
-1183.071552669073
 20
620.7242883034183
 30
0.0
 40
68.58
  1
420
 41
1.111111111111111
  7
ＭＳ ゴシック
100
AcDbText
  0
LINE
  5
15D
330
1F
100
AcDbEntity
  8
0-B_寸法
  6
Continuous
 62
   120
370
     5
100
AcDbLine
 10
-793.0715526690733
 20
593.0342883034183
 30
0.0
 11
-793.0715526690733
 21
743.0342883034183
 31
0.0
  0
LINE
  5
15E
330
1F
100
AcDbEntity
  8
0-B_寸法
  6
Continuous
 62
   120
370
     5
100
AcDbLine
 10
-1423.071552669073
 20
593.0342883034183
 30
0.0
 11
-1423.071552669073
 21
743.0342883034183
 31
0.0
  0
LWPOLYLINE
  5
15F
330
1F
100
AcDbEntity
  8
0-B_寸法
  6
Continuous
 62
     7
370
     9
100
AcDbPolyline
 90
        4
 70
     1
 43
3.0
 10
-791.5715526690733
 20
593.0342883034183
 42
0.4142135623731
 10
-793.0715526690733
 20
594.5342883034183
 42
0.4142135623731
 10
-794.5715526690733
 20
593.0342883034183
 42
0.4142135623731
 10
-793.0715526690733
 20
591.5342883034183
 42
0.4142135623731
  0
LWPOLYLINE
  5
160
330
1F
100
AcDbEntity
  8
0-B_寸法
  6
Continuous
 62
     7
370
     9
100
AcDbPolyline
 90
        4
 70
     1
 43
3.0
 10
-1421.571552669073
 20
593.0342883034183
 42
0.4142135623731
 10
-1423.071552669073
 20
594.5342883034183
 42
0.4142135623731
 10
-1424.571552669073
 20
593.0342883034183
 42
0.4142135623731
 10
-1423.071552669073
 20
591.5342883034183
 42
0.4142135623731
  0
LINE
  5
161
330
1F
100
AcDbEntity
  8
0-B_寸法
  6
Continuous
 62
   120
370
     5
100
AcDbLine
 10
-1423.071552669073
 20
593.0342883034183
 30
0.0
 11
-793.0715526690733
 21
593.0342883034183
 31
0.0
  0
LINE
  5
162
330
1F
100
AcDbEntity
  8
0-B_寸法
  6
Continuous
 62
   120
370
     5
100
AcDbLine
 10
-793.0715526690733
 20
743.0342883034183
 30
0.0
 11
-793.0715526690733
 21
893.0342883034183
 31
0.0
  0
LWPOLYLINE
  5
163
330
1F
100
AcDbEntity
  8
0-B_寸法
  6
Continuous
 62
     7
370
     9
100
AcDbPolyline
 90
        4
 70
     1
 43
3.0
 10
-791.5715526690733
 20
743.0342883034183
 42
0.4142135623731
 10
-793.0715526690733
 20
744.5342883034183
 42
0.4142135623731
 10
-794.5715526690733
 20
743.0342883034183
 42
0.4142135623731
 10
-793.0715526690733
 20
741.5342883034183
 42
0.4142135623731
  0
LINE
  5
164
330
1F
100
AcDbEntity
  8
0-B_寸法
  6
Continuous
 62
   120
370
     5
100
AcDbLine
 10
-816.3215526690726
 20
743.0342883034183
 30
0.0
 11
-793.0715526690733
 21
743.0342883034183
 31
0.0
  0
TEXT
  5
165
330
1F
100
AcDbEntity
  8
0-B_寸法
  6
Continuous
 62
     7
370
   211
100
AcDbText
 10
-1183.071552669073
 20
770.7242883034183
 30
0.0
 40
68.58
  1
389
 41
1.111111111111111
  7
ＭＳ ゴシック
100
AcDbText
  0
LINE
  5
166
330
1F
100
AcDbEntity
  8
0-B_寸法
  6
Continuous
 62
   120
370
     5
100
AcDbLine
 10
-816.3215526690726
 20
743.0342883034183
 30
0.0
 11
-816.3215526690726
 21
893.0342883034183
 31
0.0
  0
LWPOLYLINE
  5
167
330
1F
100
AcDbEntity
  8
0-B_寸法
  6
Continuous
 62
     7
370
     9
100
AcDbPolyline
 90
        4
 70
     1
 43
3.0
 10
-814.8215526690726
 20
743.0342883034183
 42
0.4142135623731
 10
-816.3215526690726
 20
744.5342883034183
 42
0.4142135623731
 10
-817.8215526690726
 20
743.0342883034183
 42
0.4142135623731
 10
-816.3215526690726
 20
741.5342883034183
 42
0.4142135623731
  0
LINE
  5
168
330
1F
100
AcDbEntity
  8
0-B_寸法
  6
Continuous
 62
   120
370
     5
100
AcDbLine
 10
-1399.821552669072
 20
743.0342883034183
 30
0.0
 11
-816.3215526690726
 21
743.0342883034183
 31
0.0
  0
LINE
  5
169
330
1F
100
AcDbEntity
  8
0-B_寸法
  6
Continuous
 62
   120
370
     5
100
AcDbLine
 10
-1399.821552669072
 20
743.0342883034183
 30
0.0
 11
-1399.821552669072
 21
893.0342883034183
 31
0.0
  0
LINE
  5
16A
330
1F
100
AcDbEntity
  8
0-B_寸法
  6
Continuous
 62
   120
370
     5
100
AcDbLine
 10
-1423.071552669073
 20
743.0342883034183
 30
0.0
 11
-1423.071552669073
 21
893.0342883034183
 31
0.0
  0
LWPOLYLINE
  5
16B
330
1F
100
AcDbEntity
  8
0-B_寸法
  6
Continuous
 62
     7
370
     9
100
AcDbPolyline
 90
        4
 70
     1
 43
3.0
 10
-1398.321552669072
 20
743.0342883034183
 42
0.4142135623731
 10
-1399.821552669072
 20
744.5342883034183
 42
0.4142135623731
 10
-1401.321552669072
 20
743.0342883034183
 42
0.4142135623731
 10
-1399.821552669072
 20
741.5342883034183
 42
0.4142135623731
  0
LWPOLYLINE
  5
16C
330
1F
100
AcDbEntity
  8
0-B_寸法
  6
Continuous
 62
     7
370
     9
100
AcDbPolyline
 90
        4
 70
     1
 43
3.0
 10
-1421.571552669073
 20
743.0342883034183
 42
0.4142135623731
 10
-1423.071552669073
 20
744.5342883034183
 42
0.4142135623731
 10
-1424.571552669073
 20
743.0342883034183
 42
0.4142135623731
 10
-1423.071552669073
 20
741.5342883034183
 42
0.4142135623731
  0
LINE
  5
16D
330
1F
100
AcDbEntity
  8
0-B_寸法
  6
Continuous
 62
   120
370
     5
100
AcDbLine
 10
-1423.071552669073
 20
743.0342883034183
 30
0.0
 11
-1399.821552669072
 21
743.0342883034183
 31
0.0
  0
LINE
  5
16E
330
1F
100
AcDbEntity
  8
0-0_補助線
  6
JWW_HOJO
 62
   120
370
     5
100
AcDbLine
 10
-718.0715526690733
 20
2039.034288303417
 30
0.0
 11
-1498.071552669073
 21
2039.034288303417
 31
0.0
  0
LINE
  5
16F
330
1F
100
AcDbEntity
  8
0-0_補助線
  6
JWW_HOJO
 62
   120
370
     5
100
AcDbLine
 10
-718.0715526690733
 20
893.0342883034183
 30
0.0
 11
-718.0715526690733
 21
2039.034288303417
 31
0.0
  0
LINE
  5
170
330
1F
100
AcDbEntity
  8
0-0_補助線
  6
JWW_HOJO
 62
   120
370
     5
100
AcDbLine
 10
-1498.071552669073
 20
893.0342883034183
 30
0.0
 11
-718.0715526690733
 21
893.0342883034183
 31
0.0
  0
LINE
  5
171
330
1F
100
AcDbEntity
  8
0-0_補助線
  6
JWW_HOJO
 62
   120
370
     5
100
AcDbLine
 10
-1498.071552669073
 20
2039.034288303417
 30
0.0
 11
-1498.071552669073
 21
893.0342883034183
 31
0.0
  0
LINE
  5
172
330
1F
100
AcDbEntity
  8
0-1_本体
  6
Continuous
 62
     7
370
     9
100
AcDbLine
 10
-1423.071552669073
 20
968.0342883034183
 30
0.0
 11
-793.0715526690733
 21
968.0342883034183
 31
0.0
  0
LINE
  5
173
330
1F
100
AcDbEntity
  8
0-1_本体
  6
Continuous
 62
     7
370
     9
100
AcDbLine
 10
-793.0715526690733
 20
968.0342883034183
 30
0.0
 11
-793.0715526690733
 21
1964.034288303417
 31
0.0
  0
LINE
  5
174
330
1F
100
AcDbEntity
  8
0-1_本体
  6
Continuous
 62
     7
370
     9
100
AcDbLine
 10
-1423.071552669073
 20
1964.034288303417
 30
0.0
 11
-1423.071552669073
 21
968.0342883034183
 31
0.0
  0
LINE
  5
175
330
1F
100
AcDbEntity
  8
0-1_本体
  6
Continuous
 62
     7
370
     9
100
AcDbLine
 10
-1399.821552669072
 20
1118.034288303417
 30
0.0
 11
-1399.821552669072
 21
968.0342883034183
 31
0.0
  0
LINE
  5
176
330
1F
100
AcDbEntity
  8
0-1_本体
  6
Continuous
 62
     7
370
     9
100
AcDbLine
 10
-816.3215526690726
 20
1118.034288303417
 30
0.0
 11
-816.3215526690726
 21
968.0342883034183
 31
0.0
  0
LINE
  5
177
330
1F
100
AcDbEntity
  8
0-1_本体
  6
Continuous
 62
     7
370
     9
100
AcDbLine
 10
-793.0715526690733
 20
1964.034288303417
 30
0.0
 11
-1423.071552669073
 21
1964.034288303417
 31
0.0
  0
LINE
  5
178
330
1F
100
AcDbEntity
  8
0-1_本体
  6
Continuous
 62
     7
370
     9
100
AcDbLine
 10
-1399.821552669072
 20
1964.034288303417
 30
0.0
 11
-1399.821552669072
 21
1118.034288303417
 31
0.0
  0
LINE
  5
179
330
1F
100
AcDbEntity
  8
0-1_本体
  6
Continuous
 62
     7
370
     9
100
AcDbLine
 10
-816.3215526690726
 20
1118.034288303417
 30
0.0
 11
-816.3215526690726
 21
1964.034288303417
 31
0.0
  0
LINE
  5
17A
330
1F
100
AcDbEntity
  8
0-1_本体
  6
Continuous
 62
     7
370
     9
100
AcDbLine
 10
-1399.821552669072
 20
1141.284288303417
 30
0.0
 11
-816.3215526690726
 21
1141.284288303417
 31
0.0
  0
LINE
  5
17B
330
1F
100
AcDbEntity
  8
0-1_本体
  6
Continuous
 62
     7
370
     9
100
AcDbLine
 10
-816.3215526690726
 20
1940.784288303419
 30
0.0
 11
-1399.821552669072
 21
1940.784288303419
 31
0.0
  0
LINE
  5
17C
330
1F
100
AcDbEntity
  8
0-B_寸法
  6
Continuous
 62
   120
370
     5
100
AcDbLine
 10
-1648.071552669073
 20
968.0342883034183
 30
0.0
 11
-1648.071552669073
 21
1964.034288303417
 31
0.0
  0
LWPOLYLINE
  5
17D
330
1F
100
AcDbEntity
  8
0-B_寸法
  6
Continuous
 62
     7
370
     9
100
AcDbPolyline
 90
        4
 70
     1
 43
3.0
 10
-1646.571552669073
 20
968.0342883034183
 42
0.4142135623731
 10
-1648.071552669073
 20
969.5342883034182
 42
0.4142135623731
 10
-1649.571552669073
 20
968.0342883034183
 42
0.4142135623731
 10
-1648.071552669073
 20
966.5342883034184
 42
0.4142135623731
  0
LWPOLYLINE
  5
17E
330
1F
100
AcDbEntity
  8
0-B_寸法
  6
Continuous
 62
     7
370
     9
100
AcDbPolyline
 90
        4
 70
     1
 43
3.0
 10
-1646.571552669073
 20
1964.034288303417
 42
0.4142135623731
 10
-1648.071552669073
 20
1965.534288303417
 42
0.4142135623731
 10
-1649.571552669073
 20
1964.034288303417
 42
0.4142135623731
 10
-1648.071552669073
 20
1962.534288303417
 42
0.4142135623731
  0
LINE
  5
17F
330
1F
100
AcDbEntity
  8
0-B_寸法
  6
Continuous
 62
   120
370
     5
100
AcDbLine
 10
-1648.071552669073
 20
968.0342883034183
 30
0.0
 11
-1498.071552669073
 21
968.0342883034183
 31
0.0
  0
LINE
  5
180
330
1F
100
AcDbEntity
  8
0-B_寸法
  6
Continuous
 62
   120
370
     5
100
AcDbLine
 10
-1648.071552669073
 20
1964.034288303417
 30
0.0
 11
-1498.071552669073
 21
1964.034288303417
 31
0.0
  0
TEXT
  5
181
330
1F
100
AcDbEntity
  8
0-B_寸法
  6
Continuous
 62
     7
370
   211
100
AcDbText
 10
-1675.761552669073
 20
1391.034288303418
 30
0.0
 40
68.58
  1
664
 50
90.0
 41
1.111111111111111
  7
ＭＳ ゴシック
100
AcDbText
  0
TEXT
  5
182
330
1F
100
AcDbEntity
  8
0-B_寸法
  6
Continuous
 62
     7
370
   211
100
AcDbText
 10
664.8530530384875
 20
620.7242883034183
 30
0.0
 40
68.58
  1
18
 41
1.083333333333333
  7
ＭＳ ゴシック
100
AcDbText
  0
LINE
  5
183
330
1F
100
AcDbEntity
  8
0-2_扉
  6
Continuous
 62
    40
370
    15
100
AcDbLine
 10
775.0713052292474
 20
1959.534288303419
 30
0.0
 11
802.0713052292467
 21
1959.534288303419
 31
0.0
  0
LINE
  5
184
330
1F
100
AcDbEntity
  8
0-2_扉
  6
Continuous
 62
    40
370
    15
100
AcDbLine
 10
775.0713052292474
 20
1752.534288303417
 30
0.0
 11
775.0713052292474
 21
1959.534288303419
 31
0.0
  0
LINE
  5
185
330
1F
100
AcDbEntity
  8
0-2_扉
  6
Continuous
 62
    40
370
    15
100
AcDbLine
 10
775.0713052292474
 20
1748.034288303417
 30
0.0
 11
802.0713052292467
 21
1748.034288303417
 31
0.0
  0
LINE
  5
186
330
1F
100
AcDbEntity
  8
0-2_扉
  6
Continuous
 62
    40
370
    15
100
AcDbLine
 10
775.0713052292474
 20
1541.034288303418
 30
0.0
 11
775.0713052292474
 21
1748.034288303417
 31
0.0
  0
LINE
  5
187
330
1F
100
AcDbEntity
  8
0-2_扉
  6
Continuous
 62
    40
370
    15
100
AcDbLine
 10
775.0713052292474
 20
1536.534288303417
 30
0.0
 11
802.0713052292467
 21
1536.534288303417
 31
0.0
  0
LINE
  5
188
330
1F
100
AcDbEntity
  8
0-2_扉
  6
Continuous
 62
    40
370
    15
100
AcDbLine
 10
775.0713052292474
 20
1329.534288303419
 30
0.0
 11
775.0713052292474
 21
1536.534288303417
 31
0.0
  0
LINE
  5
189
330
1F
100
AcDbEntity
  8
0-2_扉
  6
Continuous
 62
    40
370
    15
100
AcDbLine
 10
775.0713052292474
 20
1325.034288303417
 30
0.0
 11
802.0713052292467
 21
1325.034288303417
 31
0.0
  0
LINE
  5
18A
330
1F
100
AcDbEntity
  8
0-2_扉
  6
Continuous
 62
    40
370
    15
100
AcDbLine
 10
775.0713052292474
 20
1118.034288303417
 30
0.0
 11
775.0713052292474
 21
1325.034288303417
 31
0.0
  0
LINE
  5
18B
330
1F
100
AcDbEntity
  8
0-2_扉
  6
Continuous
 62
    40
370
    15
100
AcDbLine
 10
775.0713052292474
 20
1118.034288303417
 30
0.0
 11
802.0713052292467
 21
1118.034288303417
 31
0.0
  0
LINE
  5
18C
330
1F
100
AcDbEntity
  8
0-2_扉
  6
Continuous
 62
    40
370
    15
100
AcDbLine
 10
775.0713052292474
 20
1329.534288303419
 30
0.0
 11
802.0713052292467
 21
1329.534288303419
 31
0.0
  0
LINE
  5
18D
330
1F
100
AcDbEntity
  8
0-2_扉
  6
Continuous
 62
    40
370
    15
100
AcDbLine
 10
775.0713052292474
 20
1541.034288303418
 30
0.0
 11
802.0713052292467
 21
1541.034288303418
 31
0.0
  0
LINE
  5
18E
330
1F
100
AcDbEntity
  8
0-2_扉
  6
Continuous
 62
    40
370
    15
100
AcDbLine
 10
775.0713052292474
 20
1752.534288303417
 30
0.0
 11
802.0713052292467
 21
1752.534288303417
 31
0.0
  0
LINE
  5
18F
330
1F
100
AcDbEntity
  8
0-B_寸法
  6
Continuous
 62
   120
370
     5
100
AcDbLine
 10
775.0713052292474
 20
593.0342883034183
 30
0.0
 11
775.0713052292474
 21
893.0342883034183
 31
0.0
  0
LWPOLYLINE
  5
190
330
1F
100
AcDbEntity
  8
0-B_寸法
  6
Continuous
 62
     7
370
     9
100
AcDbPolyline
 90
        4
 70
     1
 43
3.0
 10
776.5713052292474
 20
593.0342883034183
 42
0.4142135623731
 10
775.0713052292474
 20
594.5342883034183
 42
0.4142135623731
 10
773.5713052292474
 20
593.0342883034183
 42
0.4142135623731
 10
775.0713052292474
 20
591.5342883034183
 42
0.4142135623731
  0
LINE
  5
191
330
1F
100
AcDbEntity
  8
0-B_寸法
  6
Continuous
 62
   120
370
     5
100
AcDbLine
 10
775.0713052292474
 20
593.0342883034183
 30
0.0
 11
802.0713052292484
 21
593.0342883034183
 31
0.0
  0
TEXT
  5
192
330
1F
100
AcDbEntity
  8
0-B_寸法
  6
Continuous
 62
     7
370
   211
100
AcDbText
 10
956.5713052292494
 20
620.7242883034183
 30
0.0
 40
68.58
  1
306
 41
1.111111111111111
  7
ＭＳ ゴシック
100
AcDbText
  0
LINE
  5
193
330
1F
100
AcDbEntity
  8
0-2_扉
  6
Continuous
 62
    40
370
    15
100
AcDbLine
 10
802.0713052292467
 20
1752.534288303417
 30
0.0
 11
802.0713052292467
 21
1959.534288303419
 31
0.0
  0
LINE
  5
194
330
1F
100
AcDbEntity
  8
0-2_扉
  6
Continuous
 62
    40
370
    15
100
AcDbLine
 10
802.0713052292467
 20
1541.034288303418
 30
0.0
 11
802.0713052292467
 21
1748.034288303417
 31
0.0
  0
LINE
  5
195
330
1F
100
AcDbEntity
  8
0-2_扉
  6
Continuous
 62
    40
370
    15
100
AcDbLine
 10
802.0713052292467
 20
1329.534288303419
 30
0.0
 11
802.0713052292467
 21
1536.534288303417
 31
0.0
  0
LINE
  5
196
330
1F
100
AcDbEntity
  8
0-2_扉
  6
Continuous
 62
    40
370
    15
100
AcDbLine
 10
802.0713052292467
 20
1118.034288303417
 30
0.0
 11
802.0713052292467
 21
1325.034288303417
 31
0.0
  0
TEXT
  5
197
330
1F
100
AcDbEntity
  8
0-B_寸法
  6
Continuous
 62
     7
370
   211
100
AcDbText
 10
1458.381305229249
 20
960.7593001982066
 30
0.0
 40
68.58
  1
100
 50
90.0
 41
1.111111111111111
  7
ＭＳ ゴシック
100
AcDbText
  0
TEXT
  5
198
330
1F
100
AcDbEntity
  8
0-B_寸法
  6
Continuous
 62
     7
370
   211
100
AcDbText
 10
1578.381305229249
 20
1850.853536446289
 30
0.0
 40
68.58
  1
15.5
 50
90.0
 41
1.125
  7
ＭＳ ゴシック
100
AcDbText
  0
TEXT
  5
199
330
1F
100
AcDbEntity
  8
0-B_寸法
  6
Continuous
 62
     7
370
   211
100
AcDbText
 10
1578.381305229249
 20
1028.103536446289
 30
0.0
 40
68.58
  1
15.5
 50
90.0
 41
1.125
  7
ＭＳ ゴシック
100
AcDbText
  0
LINE
  5
19A
330
1F
100
AcDbEntity
  8
0-B_寸法
  6
Continuous
 62
   120
370
     5
100
AcDbLine
 10
1486.071305229249
 20
968.0342883034183
 30
0.0
 11
1336.071305229249
 21
968.0342883034183
 31
0.0
  0
LWPOLYLINE
  5
19B
330
1F
100
AcDbEntity
  8
0-B_寸法
  6
Continuous
 62
     7
370
     9
100
AcDbPolyline
 90
        4
 70
     1
 43
3.0
 10
1487.571305229249
 20
968.0342883034183
 42
0.4142135623731
 10
1486.071305229249
 20
969.5342883034182
 42
0.4142135623731
 10
1484.571305229249
 20
968.0342883034183
 42
0.4142135623731
 10
1486.071305229249
 20
966.5342883034184
 42
0.4142135623731
  0
LINE
  5
19C
330
1F
100
AcDbEntity
  8
0-B_寸法
  6
Continuous
 62
   120
370
     5
100
AcDbLine
 10
1486.071305229249
 20
1118.034288303418
 30
0.0
 11
1486.071305229249
 21
968.0342883034183
 31
0.0
  0
LINE
  5
19D
330
1F
100
AcDbEntity
  8
0-B_寸法
  6
Continuous
 62
   120
370
     5
100
AcDbLine
 10
1486.071305229249
 20
1118.034288303418
 30
0.0
 11
1336.071305229249
 21
1118.034288303418
 31
0.0
  0
LWPOLYLINE
  5
19E
330
1F
100
AcDbEntity
  8
0-B_寸法
  6
Continuous
 62
     7
370
     9
100
AcDbPolyline
 90
        4
 70
     1
 43
3.0
 10
1487.571305229249
 20
1118.034288303418
 42
0.4142135623731
 10
1486.071305229249
 20
1119.534288303418
 42
0.4142135623731
 10
1484.571305229249
 20
1118.034288303418
 42
0.4142135623731
 10
1486.071305229249
 20
1116.534288303418
 42
0.4142135623731
  0
LINE
  5
19F
330
1F
100
AcDbEntity
  8
0-B_寸法
  6
Continuous
 62
   120
370
     5
100
AcDbLine
 10
1486.071305229249
 20
1141.284288303418
 30
0.0
 11
1486.071305229249
 21
1118.034288303418
 31
0.0
  0
TEXT
  5
1A0
330
1F
100
AcDbEntity
  8
0-B_寸法
  6
Continuous
 62
     7
370
   211
100
AcDbText
 10
1458.381305229249
 20
1466.034288303418
 30
0.0
 40
68.58
  1
533
 50
90.0
 41
1.111111111111111
  7
ＭＳ ゴシック
100
AcDbText
  0
LINE
  5
1A1
330
1F
100
AcDbEntity
  8
0-B_寸法
  6
Continuous
 62
   120
370
     5
100
AcDbLine
 10
1486.071305229249
 20
1141.284288303418
 30
0.0
 11
1336.071305229249
 21
1141.284288303418
 31
0.0
  0
LWPOLYLINE
  5
1A2
330
1F
100
AcDbEntity
  8
0-B_寸法
  6
Continuous
 62
     7
370
     9
100
AcDbPolyline
 90
        4
 70
     1
 43
3.0
 10
1487.571305229249
 20
1141.284288303418
 42
0.4142135623731
 10
1486.071305229249
 20
1142.784288303417
 42
0.4142135623731
 10
1484.571305229249
 20
1141.284288303418
 42
0.4142135623731
 10
1486.071305229249
 20
1139.784288303418
 42
0.4142135623731
  0
LINE
  5
1A3
330
1F
100
AcDbEntity
  8
0-B_寸法
  6
Continuous
 62
   120
370
     5
100
AcDbLine
 10
1486.071305229249
 20
1940.784288303419
 30
0.0
 11
1486.071305229249
 21
1141.284288303418
 31
0.0
  0
LINE
  5
1A4
330
1F
100
AcDbEntity
  8
0-B_寸法
  6
Continuous
 62
   120
370
     5
100
AcDbLine
 10
1486.071305229249
 20
1940.784288303419
 30
0.0
 11
1336.071305229249
 21
1940.784288303419
 31
0.0
  0
LINE
  5
1A5
330
1F
100
AcDbEntity
  8
0-B_寸法
  6
Continuous
 62
   120
370
     5
100
AcDbLine
 10
1486.071305229249
 20
1964.034288303418
 30
0.0
 11
1336.071305229249
 21
1964.034288303418
 31
0.0
  0
LWPOLYLINE
  5
1A6
330
1F
100
AcDbEntity
  8
0-B_寸法
  6
Continuous
 62
     7
370
     9
100
AcDbPolyline
 90
        4
 70
     1
 43
3.0
 10
1487.571305229249
 20
1940.784288303419
 42
0.4142135623731
 10
1486.071305229249
 20
1942.284288303419
 42
0.4142135623731
 10
1484.571305229249
 20
1940.784288303419
 42
0.4142135623731
 10
1486.071305229249
 20
1939.284288303419
 42
0.4142135623731
  0
LWPOLYLINE
  5
1A7
330
1F
100
AcDbEntity
  8
0-B_寸法
  6
Continuous
 62
     7
370
     9
100
AcDbPolyline
 90
        4
 70
     1
 43
3.0
 10
1487.571305229249
 20
1964.034288303418
 42
0.4142135623731
 10
1486.071305229249
 20
1965.534288303418
 42
0.4142135623731
 10
1484.571305229249
 20
1964.034288303418
 42
0.4142135623731
 10
1486.071305229249
 20
1962.534288303418
 42
0.4142135623731
  0
LINE
  5
1A8
330
1F
100
AcDbEntity
  8
0-B_寸法
  6
Continuous
 62
   120
370
     5
100
AcDbLine
 10
1486.071305229249
 20
1964.034288303418
 30
0.0
 11
1486.071305229249
 21
1940.784288303419
 31
0.0
  0
LINE
  5
1A9
330
1F
100
AcDbEntity
  8
0-B_寸法
  6
Continuous
 62
   120
370
     5
100
AcDbLine
 10
1261.071305229249
 20
593.0342883034183
 30
0.0
 11
1261.071305229249
 21
743.0342883034183
 31
0.0
  0
LWPOLYLINE
  5
1AA
330
1F
100
AcDbEntity
  8
0-B_寸法
  6
Continuous
 62
     7
370
     9
100
AcDbPolyline
 90
        4
 70
     1
 43
3.0
 10
1262.571305229249
 20
593.0342883034183
 42
0.4142135623731
 10
1261.071305229249
 20
594.5342883034183
 42
0.4142135623731
 10
1259.571305229249
 20
593.0342883034183
 42
0.4142135623731
 10
1261.071305229249
 20
591.5342883034183
 42
0.4142135623731
  0
LINE
  5
1AB
330
1F
100
AcDbEntity
  8
0-B_寸法
  6
Continuous
 62
   120
370
     5
100
AcDbLine
 10
802.0713052292484
 20
593.0342883034183
 30
0.0
 11
1261.071305229249
 21
593.0342883034183
 31
0.0
  0
LINE
  5
1AC
330
1F
100
AcDbEntity
  8
0-B_寸法
  6
Continuous
 62
   120
370
     5
100
AcDbLine
 10
802.0713052292484
 20
593.0342883034183
 30
0.0
 11
802.0713052292484
 21
743.0342883034183
 31
0.0
  0
LWPOLYLINE
  5
1AD
330
1F
100
AcDbEntity
  8
0-B_寸法
  6
Continuous
 62
     7
370
     9
100
AcDbPolyline
 90
        4
 70
     1
 43
3.0
 10
803.5713052292484
 20
593.0342883034183
 42
0.4142135623731
 10
802.0713052292484
 20
594.5342883034183
 42
0.4142135623731
 10
800.5713052292484
 20
593.0342883034183
 42
0.4142135623731
 10
802.0713052292484
 20
591.5342883034183
 42
0.4142135623731
  0
LINE
  5
1AE
330
1F
100
AcDbEntity
  8
0-B_寸法
  6
Continuous
 62
   120
370
     5
100
AcDbLine
 10
1261.071305229249
 20
743.0342883034183
 30
0.0
 11
1261.071305229249
 21
893.0342883034183
 31
0.0
  0
LWPOLYLINE
  5
1AF
330
1F
100
AcDbEntity
  8
0-B_寸法
  6
Continuous
 62
     7
370
     9
100
AcDbPolyline
 90
        4
 70
     1
 43
3.0
 10
1262.571305229249
 20
743.0342883034183
 42
0.4142135623731
 10
1261.071305229249
 20
744.5342883034183
 42
0.4142135623731
 10
1259.571305229249
 20
743.0342883034183
 42
0.4142135623731
 10
1261.071305229249
 20
741.5342883034183
 42
0.4142135623731
  0
LINE
  5
1B0
330
1F
100
AcDbEntity
  8
0-B_寸法
  6
Continuous
 62
   120
370
     5
100
AcDbLine
 10
802.0713052292484
 20
743.0342883034183
 30
0.0
 11
802.0713052292484
 21
893.0342883034183
 31
0.0
  0
LWPOLYLINE
  5
1B1
330
1F
100
AcDbEntity
  8
0-B_寸法
  6
Continuous
 62
     7
370
     9
100
AcDbPolyline
 90
        4
 70
     1
 43
3.0
 10
803.5713052292484
 20
743.0342883034183
 42
0.4142135623731
 10
802.0713052292484
 20
744.5342883034183
 42
0.4142135623731
 10
800.5713052292484
 20
743.0342883034183
 42
0.4142135623731
 10
802.0713052292484
 20
741.5342883034183
 42
0.4142135623731
  0
LINE
  5
1B2
330
1F
100
AcDbEntity
  8
0-1_本体
  6
Continuous
 62
    40
370
    15
100
AcDbLine
 10
1257.321305229245
 20
1940.784288303419
 30
0.0
 11
802.0713052292467
 21
1940.784288303419
 31
0.0
  0
LINE
  5
1B3
330
1F
100
AcDbEntity
  8
0-1_本体
  6
Continuous
 62
    40
370
    15
100
AcDbLine
 10
802.0713052292467
 20
1141.284288303417
 30
0.0
 11
1257.321305229245
 21
1141.284288303417
 31
0.0
  0
LINE
  5
1B4
330
1F
100
AcDbEntity
  8
0-1_本体
  6
Continuous
 62
    40
370
    15
100
AcDbLine
 10
1261.071305229249
 20
1955.784288303419
 30
0.0
 11
1257.321305229245
 21
1955.784288303419
 31
0.0
  0
LINE
  5
1B5
330
1F
100
AcDbEntity
  8
0-1_本体
  6
Continuous
 62
    40
370
    15
100
AcDbLine
 10
1257.321305229245
 20
1126.284288303417
 30
0.0
 11
1261.071305229249
 21
1126.284288303417
 31
0.0
  0
LINE
  5
1B6
330
1F
100
AcDbEntity
  8
0-1_本体
  6
Continuous
 62
    40
370
    15
100
AcDbLine
 10
1257.321305229245
 20
1126.284288303417
 30
0.0
 11
1257.321305229245
 21
1955.784288303419
 31
0.0
  0
TEXT
  5
1B7
330
1F
100
AcDbEntity
  8
0-B_寸法
  6
Continuous
 62
     7
370
   211
100
AcDbText
 10
649.4818502300529
 20
1332.534288303418
 30
0.0
 40
68.58
  1
3
 50
90.0
  7
ＭＳ ゴシック
100
AcDbText
  0
TEXT
  5
1B8
330
1F
100
AcDbEntity
  8
0-B_寸法
  6
Continuous
 62
     7
370
   211
100
AcDbText
 10
649.4818502300529
 20
1544.034288303419
 30
0.0
 40
68.58
  1
3
 50
90.0
  7
ＭＳ ゴシック
100
AcDbText
  0
TEXT
  5
1B9
330
1F
100
AcDbEntity
  8
0-B_寸法
  6
Continuous
 62
     7
370
   211
100
AcDbText
 10
649.4818502300529
 20
1755.534288303417
 30
0.0
 40
68.58
  1
3
 50
90.0
  7
ＭＳ ゴシック
100
AcDbText
  0
TEXT
  5
1BA
330
1F
100
AcDbEntity
  8
0-B_寸法
  6
Continuous
 62
     7
370
   211
100
AcDbText
 10
649.4818502300529
 20
1967.034288303419
 30
0.0
 40
68.58
  1
3
 50
90.0
  7
ＭＳ ゴシック
100
AcDbText
  0
TEXT
  5
1BB
330
1F
100
AcDbEntity
  8
0-B_寸法
  6
Continuous
 62
     7
370
   211
100
AcDbText
 10
519.3813052292467
 20
1146.534288303417
 30
0.0
 40
68.58
  1
138
 50
90.0
 41
1.111111111111111
  7
ＭＳ ゴシック
100
AcDbText
  0
LINE
  5
1BC
330
1F
100
AcDbEntity
  8
0-B_寸法
  6
Continuous
 62
   120
370
     5
100
AcDbLine
 10
547.0713052292467
 20
1118.034288303418
 30
0.0
 11
697.0713052292467
 21
1118.034288303418
 31
0.0
  0
LWPOLYLINE
  5
1BD
330
1F
100
AcDbEntity
  8
0-B_寸法
  6
Continuous
 62
     7
370
     9
100
AcDbPolyline
 90
        4
 70
     1
 43
3.0
 10
548.5713052292467
 20
1118.034288303418
 42
0.4142135623731
 10
547.0713052292467
 20
1119.534288303418
 42
0.4142135623731
 10
545.5713052292467
 20
1118.034288303418
 42
0.4142135623731
 10
547.0713052292467
 20
1116.534288303418
 42
0.4142135623731
  0
LINE
  5
1BE
330
1F
100
AcDbEntity
  8
0-B_寸法
  6
Continuous
 62
   120
370
     5
100
AcDbLine
 10
547.0713052292467
 20
1325.034288303417
 30
0.0
 11
547.0713052292467
 21
1118.034288303418
 31
0.0
  0
LINE
  5
1BF
330
1F
100
AcDbEntity
  8
0-B_寸法
  6
Continuous
 62
   120
370
     5
100
AcDbLine
 10
547.0713052292467
 20
1325.034288303417
 30
0.0
 11
697.0713052292467
 21
1325.034288303417
 31
0.0
  0
LWPOLYLINE
  5
1C0
330
1F
100
AcDbEntity
  8
0-B_寸法
  6
Continuous
 62
     7
370
     9
100
AcDbPolyline
 90
        4
 70
     1
 43
3.0
 10
548.5713052292467
 20
1325.034288303417
 42
0.4142135623731
 10
547.0713052292467
 20
1326.534288303417
 42
0.4142135623731
 10
545.5713052292467
 20
1325.034288303417
 42
0.4142135623731
 10
547.0713052292467
 20
1323.534288303417
 42
0.4142135623731
  0
LINE
  5
1C1
330
1F
100
AcDbEntity
  8
0-B_寸法
  6
Continuous
 62
   120
370
     5
100
AcDbLine
 10
547.0713052292467
 20
1329.534288303419
 30
0.0
 11
547.0713052292467
 21
1325.034288303417
 31
0.0
  0
TEXT
  5
1C2
330
1F
100
AcDbEntity
  8
0-B_寸法
  6
Continuous
 62
     7
370
   211
100
AcDbText
 10
519.3813052292467
 20
1358.034288303417
 30
0.0
 40
68.58
  1
138
 50
90.0
 41
1.111111111111111
  7
ＭＳ ゴシック
100
AcDbText
  0
LINE
  5
1C3
330
1F
100
AcDbEntity
  8
0-B_寸法
  6
Continuous
 62
   120
370
     5
100
AcDbLine
 10
547.0713052292467
 20
1329.534288303419
 30
0.0
 11
697.0713052292467
 21
1329.534288303419
 31
0.0
  0
LWPOLYLINE
  5
1C4
330
1F
100
AcDbEntity
  8
0-B_寸法
  6
Continuous
 62
     7
370
     9
100
AcDbPolyline
 90
        4
 70
     1
 43
3.0
 10
548.5713052292467
 20
1329.534288303419
 42
0.4142135623731
 10
547.0713052292467
 20
1331.034288303419
 42
0.4142135623731
 10
545.5713052292467
 20
1329.534288303419
 42
0.4142135623731
 10
547.0713052292467
 20
1328.034288303419
 42
0.4142135623731
  0
LINE
  5
1C5
330
1F
100
AcDbEntity
  8
0-B_寸法
  6
Continuous
 62
   120
370
     5
100
AcDbLine
 10
547.0713052292467
 20
1536.534288303417
 30
0.0
 11
547.0713052292467
 21
1329.534288303419
 31
0.0
  0
LINE
  5
1C6
330
1F
100
AcDbEntity
  8
0-B_寸法
  6
Continuous
 62
   120
370
     5
100
AcDbLine
 10
547.0713052292467
 20
1536.534288303417
 30
0.0
 11
697.0713052292467
 21
1536.534288303417
 31
0.0
  0
LWPOLYLINE
  5
1C7
330
1F
100
AcDbEntity
  8
0-B_寸法
  6
Continuous
 62
     7
370
     9
100
AcDbPolyline
 90
        4
 70
     1
 43
3.0
 10
548.5713052292467
 20
1536.534288303417
 42
0.4142135623731
 10
547.0713052292467
 20
1538.034288303417
 42
0.4142135623731
 10
545.5713052292467
 20
1536.534288303417
 42
0.4142135623731
 10
547.0713052292467
 20
1535.034288303417
 42
0.4142135623731
  0
LINE
  5
1C8
330
1F
100
AcDbEntity
  8
0-B_寸法
  6
Continuous
 62
   120
370
     5
100
AcDbLine
 10
547.0713052292467
 20
1541.034288303418
 30
0.0
 11
547.0713052292467
 21
1536.534288303417
 31
0.0
  0
TEXT
  5
1C9
330
1F
100
AcDbEntity
  8
0-B_寸法
  6
Continuous
 62
     7
370
   211
100
AcDbText
 10
519.3813052292467
 20
1569.534288303419
 30
0.0
 40
68.58
  1
138
 50
90.0
 41
1.111111111111111
  7
ＭＳ ゴシック
100
AcDbText
  0
LINE
  5
1CA
330
1F
100
AcDbEntity
  8
0-B_寸法
  6
Continuous
 62
   120
370
     5
100
AcDbLine
 10
547.0713052292467
 20
1541.034288303418
 30
0.0
 11
697.0713052292467
 21
1541.034288303418
 31
0.0
  0
LWPOLYLINE
  5
1CB
330
1F
100
AcDbEntity
  8
0-B_寸法
  6
Continuous
 62
     7
370
     9
100
AcDbPolyline
 90
        4
 70
     1
 43
3.0
 10
548.5713052292467
 20
1541.034288303418
 42
0.4142135623731
 10
547.0713052292467
 20
1542.534288303418
 42
0.4142135623731
 10
545.5713052292467
 20
1541.034288303418
 42
0.4142135623731
 10
547.0713052292467
 20
1539.534288303418
 42
0.4142135623731
  0
LINE
  5
1CC
330
1F
100
AcDbEntity
  8
0-B_寸法
  6
Continuous
 62
   120
370
     5
100
AcDbLine
 10
547.0713052292467
 20
1748.034288303417
 30
0.0
 11
547.0713052292467
 21
1541.034288303418
 31
0.0
  0
LINE
  5
1CD
330
1F
100
AcDbEntity
  8
0-B_寸法
  6
Continuous
 62
   120
370
     5
100
AcDbLine
 10
547.0713052292467
 20
1748.034288303417
 30
0.0
 11
697.0713052292467
 21
1748.034288303417
 31
0.0
  0
LWPOLYLINE
  5
1CE
330
1F
100
AcDbEntity
  8
0-B_寸法
  6
Continuous
 62
     7
370
     9
100
AcDbPolyline
 90
        4
 70
     1
 43
3.0
 10
548.5713052292467
 20
1748.034288303417
 42
0.4142135623731
 10
547.0713052292467
 20
1749.534288303417
 42
0.4142135623731
 10
545.5713052292467
 20
1748.034288303417
 42
0.4142135623731
 10
547.0713052292467
 20
1746.534288303417
 42
0.4142135623731
  0
LINE
  5
1CF
330
1F
100
AcDbEntity
  8
0-B_寸法
  6
Continuous
 62
   120
370
     5
100
AcDbLine
 10
547.0713052292467
 20
1752.534288303417
 30
0.0
 11
547.0713052292467
 21
1748.034288303417
 31
0.0
  0
TEXT
  5
1D0
330
1F
100
AcDbEntity
  8
0-B_寸法
  6
Continuous
 62
     7
370
   211
100
AcDbText
 10
519.3813052292467
 20
1781.034288303418
 30
0.0
 40
68.58
  1
138
 50
90.0
 41
1.111111111111111
  7
ＭＳ ゴシック
100
AcDbText
  0
LINE
  5
1D1
330
1F
100
AcDbEntity
  8
0-B_寸法
  6
Continuous
 62
   120
370
     5
100
AcDbLine
 10
547.0713052292467
 20
1752.534288303417
 30
0.0
 11
697.0713052292467
 21
1752.534288303417
 31
0.0
  0
LWPOLYLINE
  5
1D2
330
1F
100
AcDbEntity
  8
0-B_寸法
  6
Continuous
 62
     7
370
     9
100
AcDbPolyline
 90
        4
 70
     1
 43
3.0
 10
548.5713052292467
 20
1752.534288303417
 42
0.4142135623731
 10
547.0713052292467
 20
1754.034288303417
 42
0.4142135623731
 10
545.5713052292467
 20
1752.534288303417
 42
0.4142135623731
 10
547.0713052292467
 20
1751.034288303417
 42
0.4142135623731
  0
LINE
  5
1D3
330
1F
100
AcDbEntity
  8
0-B_寸法
  6
Continuous
 62
   120
370
     5
100
AcDbLine
 10
547.0713052292467
 20
1959.534288303419
 30
0.0
 11
547.0713052292467
 21
1752.534288303417
 31
0.0
  0
LINE
  5
1D4
330
1F
100
AcDbEntity
  8
0-B_寸法
  6
Continuous
 62
   120
370
     5
100
AcDbLine
 10
547.0713052292467
 20
1959.534288303419
 30
0.0
 11
697.0713052292467
 21
1959.534288303419
 31
0.0
  0
LINE
  5
1D5
330
1F
100
AcDbEntity
  8
0-B_寸法
  6
Continuous
 62
   120
370
     5
100
AcDbLine
 10
547.0713052292467
 20
1964.034288303417
 30
0.0
 11
697.0713052292467
 21
1964.034288303417
 31
0.0
  0
LWPOLYLINE
  5
1D6
330
1F
100
AcDbEntity
  8
0-B_寸法
  6
Continuous
 62
     7
370
     9
100
AcDbPolyline
 90
        4
 70
     1
 43
3.0
 10
548.5713052292467
 20
1959.534288303419
 42
0.4142135623731
 10
547.0713052292467
 20
1961.034288303419
 42
0.4142135623731
 10
545.5713052292467
 20
1959.534288303419
 42
0.4142135623731
 10
547.0713052292467
 20
1958.034288303419
 42
0.4142135623731
  0
LWPOLYLINE
  5
1D7
330
1F
100
AcDbEntity
  8
0-B_寸法
  6
Continuous
 62
     7
370
     9
100
AcDbPolyline
 90
        4
 70
     1
 43
3.0
 10
548.5713052292467
 20
1964.034288303417
 42
0.4142135623731
 10
547.0713052292467
 20
1965.534288303417
 42
0.4142135623731
 10
545.5713052292467
 20
1964.034288303417
 42
0.4142135623731
 10
547.0713052292467
 20
1962.534288303417
 42
0.4142135623731
  0
LINE
  5
1D8
330
1F
100
AcDbEntity
  8
0-B_寸法
  6
Continuous
 62
   120
370
     5
100
AcDbLine
 10
547.0713052292467
 20
1964.034288303417
 30
0.0
 11
547.0713052292467
 21
1959.534288303419
 31
0.0
  0
LINE
  5
1D9
330
1F
100
AcDbEntity
  8
0-1_本体
  6
Continuous
 62
     7
370
     9
100
AcDbLine
 10
1261.071305229249
 20
1118.034288303417
 30
0.0
 11
1261.071305229249
 21
968.0342883034183
 31
0.0
  0
LINE
  5
1DA
330
1F
100
AcDbEntity
  8
0-1_本体
  6
Continuous
 62
     7
370
     9
100
AcDbLine
 10
802.0713052292467
 20
1118.034288303417
 30
0.0
 11
802.0713052292467
 21
968.0342883034183
 31
0.0
  0
LINE
  5
1DB
330
1F
100
AcDbEntity
  8
0-1_本体
  6
Continuous
 62
    40
370
    15
100
AcDbLine
 10
1261.071305229249
 20
1118.034288303417
 30
0.0
 11
1261.071305229249
 21
1964.034288303417
 31
0.0
  0
LINE
  5
1DC
330
1F
100
AcDbEntity
  8
0-1_本体
  6
Continuous
 62
    40
370
    15
100
AcDbLine
 10
802.0713052292467
 20
1141.284288303417
 30
0.0
 11
802.0713052292467
 21
1118.034288303417
 31
0.0
  0
LINE
  5
1DD
330
1F
100
AcDbEntity
  8
0-1_本体
  6
Continuous
 62
    40
370
    15
100
AcDbLine
 10
802.0713052292467
 20
1964.034288303417
 30
0.0
 11
802.0713052292467
 21
1940.784288303419
 31
0.0
  0
LINE
  5
1DE
330
1F
100
AcDbEntity
  8
0-1_本体
  6
Continuous
 62
    40
370
    15
100
AcDbLine
 10
802.0713052292467
 20
1118.034288303417
 30
0.0
 11
1261.071305229249
 21
1118.034288303417
 31
0.0
  0
LINE
  5
1DF
330
1F
100
AcDbEntity
  8
0-1_本体
  6
Continuous
 62
    40
370
    15
100
AcDbLine
 10
1261.071305229249
 20
1964.034288303417
 30
0.0
 11
802.0713052292467
 21
1964.034288303417
 31
0.0
  0
LINE
  5
1E0
330
1F
100
AcDbEntity
  8
0-0_補助線
  6
JWW_HOJO
 62
   120
370
     5
100
AcDbLine
 10
1336.071305229249
 20
2039.034288303417
 30
0.0
 11
697.0713052292467
 21
2039.034288303417
 31
0.0
  0
LINE
  5
1E1
330
1F
100
AcDbEntity
  8
0-0_補助線
  6
JWW_HOJO
 62
   120
370
     5
100
AcDbLine
 10
1336.071305229249
 20
893.0342883034183
 30
0.0
 11
1336.071305229249
 21
2039.034288303417
 31
0.0
  0
LINE
  5
1E2
330
1F
100
AcDbEntity
  8
0-0_補助線
  6
JWW_HOJO
 62
   120
370
     5
100
AcDbLine
 10
697.0713052292467
 20
893.0342883034183
 30
0.0
 11
1336.071305229249
 21
893.0342883034183
 31
0.0
  0
LINE
  5
1E3
330
1F
100
AcDbEntity
  8
0-0_補助線
  6
JWW_HOJO
 62
   120
370
     5
100
AcDbLine
 10
697.0713052292467
 20
2039.034288303417
 30
0.0
 11
697.0713052292467
 21
893.0342883034183
 31
0.0
  0
LINE
  5
1E4
330
1F
100
AcDbEntity
  8
0-4_棚
  6
JWW_CENTER1
 62
   120
370
     5
100
AcDbLine
 10
802.0713052292467
 20
1150.284288303417
 30
0.0
 11
1252.071305229247
 21
1150.284288303417
 31
0.0
  0
LINE
  5
1E5
330
1F
100
AcDbEntity
  8
0-4_棚
  6
JWW_CENTER1
 62
   120
370
     5
100
AcDbLine
 10
802.0713052292467
 20
1338.534288303418
 30
0.0
 11
1252.071305229247
 21
1338.534288303418
 31
0.0
  0
LINE
  5
1E6
330
1F
100
AcDbEntity
  8
0-4_棚
  6
JWW_CENTER1
 62
   120
370
     5
100
AcDbLine
 10
802.0713052292467
 20
1550.034288303417
 30
0.0
 11
1252.071305229247
 21
1550.034288303417
 31
0.0
  0
LINE
  5
1E7
330
1F
100
AcDbEntity
  8
0-4_棚
  6
JWW_CENTER1
 62
   120
370
     5
100
AcDbLine
 10
802.0713052292467
 20
1761.534288303417
 30
0.0
 11
1252.071305229247
 21
1761.534288303417
 31
0.0
  0
TEXT
  5
1E8
330
1F
100
AcDbEntity
  8
0-B_寸法
  6
Continuous
 62
     7
370
   211
100
AcDbText
 10
-2964.32664262257
 20
-2157.810118749018
 30
0.0
 40
68.58
  1
15.5
 41
1.125
  7
ＭＳ ゴシック
100
AcDbText
  0
TEXT
  5
1E9
330
1F
100
AcDbEntity
  8
0-B_寸法
  6
Continuous
 62
     7
370
   211
100
AcDbText
 10
-3850.322697849397
 20
-2157.810118749018
 30
0.0
 40
68.58
  1
15.5
 41
1.125
  7
ＭＳ ゴシック
100
AcDbText
  0
TEXT
  5
1EA
330
1F
100
AcDbEntity
  8
0-B_寸法
  6
Continuous
 62
     7
370
   211
100
AcDbText
 10
-2790.904410567393
 20
-1967.775106854229
 30
0.0
 40
68.58
  1
100
 50
90.0
 41
1.111111111111111
  7
ＭＳ ゴシック
100
AcDbText
  0
TEXT
  5
1EB
330
1F
100
AcDbEntity
  8
0-B_寸法
  6
Continuous
 62
     7
370
   211
100
AcDbText
 10
-2670.904410567393
 20
-1900.430870606148
 30
0.0
 40
68.58
  1
15.5
 50
90.0
 41
1.125
  7
ＭＳ ゴシック
100
AcDbText
  0
TEXT
  5
1EC
330
1F
100
AcDbEntity
  8
0-B_寸法
  6
Continuous
 62
     7
370
   211
100
AcDbText
 10
-2670.904410567393
 20
-905.1808706061473
 30
0.0
 40
68.58
  1
15.5
 50
90.0
 41
1.125
  7
ＭＳ ゴシック
100
AcDbText
  0
TEXT
  5
1ED
330
1F
100
AcDbEntity
  8
0-B_寸法
  6
Continuous
 62
     7
370
   211
100
AcDbText
 10
-3378.214410567393
 20
-2307.810118749018
 30
0.0
 40
68.58
  1
420
 41
1.111111111111111
  7
ＭＳ ゴシック
100
AcDbText
  0
LINE
  5
1EE
330
1F
100
AcDbEntity
  8
0-B_寸法
  6
Continuous
 62
   120
370
     5
100
AcDbLine
 10
-2988.214410567393
 20
-2335.500118749018
 30
0.0
 11
-2988.214410567393
 21
-2185.500118749018
 31
0.0
  0
LINE
  5
1EF
330
1F
100
AcDbEntity
  8
0-B_寸法
  6
Continuous
 62
   120
370
     5
100
AcDbLine
 10
-3618.214410567393
 20
-2335.500118749018
 30
0.0
 11
-3618.214410567393
 21
-2185.500118749018
 31
0.0
  0
LWPOLYLINE
  5
1F0
330
1F
100
AcDbEntity
  8
0-B_寸法
  6
Continuous
 62
     7
370
     9
100
AcDbPolyline
 90
        4
 70
     1
 43
3.0
 10
-2986.714410567393
 20
-2335.500118749018
 42
0.4142135623731
 10
-2988.214410567393
 20
-2334.000118749018
 42
0.4142135623731
 10
-2989.714410567393
 20
-2335.500118749018
 42
0.4142135623731
 10
-2988.214410567393
 20
-2337.000118749017
 42
0.4142135623731
  0
LWPOLYLINE
  5
1F1
330
1F
100
AcDbEntity
  8
0-B_寸法
  6
Continuous
 62
     7
370
     9
100
AcDbPolyline
 90
        4
 70
     1
 43
3.0
 10
-3616.714410567393
 20
-2335.500118749018
 42
0.4142135623731
 10
-3618.214410567393
 20
-2334.000118749018
 42
0.4142135623731
 10
-3619.714410567393
 20
-2335.500118749018
 42
0.4142135623731
 10
-3618.214410567393
 20
-2337.000118749017
 42
0.4142135623731
  0
LINE
  5
1F2
330
1F
100
AcDbEntity
  8
0-B_寸法
  6
Continuous
 62
   120
370
     5
100
AcDbLine
 10
-3618.214410567393
 20
-2335.500118749018
 30
0.0
 11
-2988.214410567393
 21
-2335.500118749018
 31
0.0
  0
LINE
  5
1F3
330
1F
100
AcDbEntity
  8
0-B_寸法
  6
Continuous
 62
   120
370
     5
100
AcDbLine
 10
-2988.214410567393
 20
-2185.500118749018
 30
0.0
 11
-2988.214410567393
 21
-2035.500118749018
 31
0.0
  0
LWPOLYLINE
  5
1F4
330
1F
100
AcDbEntity
  8
0-B_寸法
  6
Continuous
 62
     7
370
     9
100
AcDbPolyline
 90
        4
 70
     1
 43
3.0
 10
-2986.714410567393
 20
-2185.500118749018
 42
0.4142135623731
 10
-2988.214410567393
 20
-2184.000118749018
 42
0.4142135623731
 10
-2989.714410567393
 20
-2185.500118749018
 42
0.4142135623731
 10
-2988.214410567393
 20
-2187.000118749017
 42
0.4142135623731
  0
LINE
  5
1F5
330
1F
100
AcDbEntity
  8
0-B_寸法
  6
Continuous
 62
   120
370
     5
100
AcDbLine
 10
-3011.464410567392
 20
-2185.500118749018
 30
0.0
 11
-2988.214410567393
 21
-2185.500118749018
 31
0.0
  0
TEXT
  5
1F6
330
1F
100
AcDbEntity
  8
0-B_寸法
  6
Continuous
 62
     7
370
   211
100
AcDbText
 10
-3378.214410567393
 20
-2157.810118749018
 30
0.0
 40
68.58
  1
389
 41
1.111111111111111
  7
ＭＳ ゴシック
100
AcDbText
  0
LINE
  5
1F7
330
1F
100
AcDbEntity
  8
0-B_寸法
  6
Continuous
 62
   120
370
     5
100
AcDbLine
 10
-3011.464410567392
 20
-2185.500118749018
 30
0.0
 11
-3011.464410567392
 21
-2035.500118749018
 31
0.0
  0
LWPOLYLINE
  5
1F8
330
1F
100
AcDbEntity
  8
0-B_寸法
  6
Continuous
 62
     7
370
     9
100
AcDbPolyline
 90
        4
 70
     1
 43
3.0
 10
-3009.964410567393
 20
-2185.500118749018
 42
0.4142135623731
 10
-3011.464410567392
 20
-2184.000118749018
 42
0.4142135623731
 10
-3012.964410567392
 20
-2185.500118749018
 42
0.4142135623731
 10
-3011.464410567392
 20
-2187.000118749017
 42
0.4142135623731
  0
LINE
  5
1F9
330
1F
100
AcDbEntity
  8
0-B_寸法
  6
Continuous
 62
   120
370
     5
100
AcDbLine
 10
-3594.964410567392
 20
-2185.500118749018
 30
0.0
 11
-3011.464410567392
 21
-2185.500118749018
 31
0.0
  0
LINE
  5
1FA
330
1F
100
AcDbEntity
  8
0-B_寸法
  6
Continuous
 62
   120
370
     5
100
AcDbLine
 10
-3594.964410567392
 20
-2185.500118749018
 30
0.0
 11
-3594.964410567392
 21
-2035.500118749018
 31
0.0
  0
LINE
  5
1FB
330
1F
100
AcDbEntity
  8
0-B_寸法
  6
Continuous
 62
   120
370
     5
100
AcDbLine
 10
-3618.214410567393
 20
-2185.500118749018
 30
0.0
 11
-3618.214410567393
 21
-2035.500118749018
 31
0.0
  0
LWPOLYLINE
  5
1FC
330
1F
100
AcDbEntity
  8
0-B_寸法
  6
Continuous
 62
     7
370
     9
100
AcDbPolyline
 90
        4
 70
     1
 43
3.0
 10
-3593.464410567392
 20
-2185.500118749018
 42
0.4142135623731
 10
-3594.964410567392
 20
-2184.000118749018
 42
0.4142135623731
 10
-3596.464410567392
 20
-2185.500118749018
 42
0.4142135623731
 10
-3594.964410567392
 20
-2187.000118749017
 42
0.4142135623731
  0
LWPOLYLINE
  5
1FD
330
1F
100
AcDbEntity
  8
0-B_寸法
  6
Continuous
 62
     7
370
     9
100
AcDbPolyline
 90
        4
 70
     1
 43
3.0
 10
-3616.714410567393
 20
-2185.500118749018
 42
0.4142135623731
 10
-3618.214410567393
 20
-2184.000118749018
 42
0.4142135623731
 10
-3619.714410567393
 20
-2185.500118749018
 42
0.4142135623731
 10
-3618.214410567393
 20
-2187.000118749017
 42
0.4142135623731
  0
LINE
  5
1FE
330
1F
100
AcDbEntity
  8
0-B_寸法
  6
Continuous
 62
   120
370
     5
100
AcDbLine
 10
-3618.214410567393
 20
-2185.500118749018
 30
0.0
 11
-3594.964410567392
 21
-2185.500118749018
 31
0.0
  0
LINE
  5
1FF
330
1F
100
AcDbEntity
  8
0-B_寸法
  6
Continuous
 62
   120
370
     5
100
AcDbLine
 10
-2763.214410567393
 20
-1960.500118749018
 30
0.0
 11
-2913.214410567393
 21
-1960.500118749018
 31
0.0
  0
LWPOLYLINE
  5
200
330
1F
100
AcDbEntity
  8
0-B_寸法
  6
Continuous
 62
     7
370
     9
100
AcDbPolyline
 90
        4
 70
     1
 43
3.0
 10
-2761.714410567393
 20
-1960.500118749018
 42
0.4142135623731
 10
-2763.214410567393
 20
-1959.000118749018
 42
0.4142135623731
 10
-2764.714410567393
 20
-1960.500118749018
 42
0.4142135623731
 10
-2763.214410567393
 20
-1962.000118749018
 42
0.4142135623731
  0
LINE
  5
201
330
1F
100
AcDbEntity
  8
0-B_寸法
  6
Continuous
 62
   120
370
     5
100
AcDbLine
 10
-2763.214410567393
 20
-1810.500118749018
 30
0.0
 11
-2763.214410567393
 21
-1960.500118749018
 31
0.0
  0
LINE
  5
202
330
1F
100
AcDbEntity
  8
0-B_寸法
  6
Continuous
 62
   120
370
     5
100
AcDbLine
 10
-2763.214410567393
 20
-1810.500118749018
 30
0.0
 11
-2913.214410567393
 21
-1810.500118749018
 31
0.0
  0
LWPOLYLINE
  5
203
330
1F
100
AcDbEntity
  8
0-B_寸法
  6
Continuous
 62
     7
370
     9
100
AcDbPolyline
 90
        4
 70
     1
 43
3.0
 10
-2761.714410567393
 20
-1810.500118749018
 42
0.4142135623731
 10
-2763.214410567393
 20
-1809.000118749018
 42
0.4142135623731
 10
-2764.714410567393
 20
-1810.500118749018
 42
0.4142135623731
 10
-2763.214410567393
 20
-1812.000118749018
 42
0.4142135623731
  0
LINE
  5
204
330
1F
100
AcDbEntity
  8
0-B_寸法
  6
Continuous
 62
   120
370
     5
100
AcDbLine
 10
-2763.214410567393
 20
-1787.250118749018
 30
0.0
 11
-2763.214410567393
 21
-1810.500118749018
 31
0.0
  0
TEXT
  5
205
330
1F
100
AcDbEntity
  8
0-B_寸法
  6
Continuous
 62
     7
370
   211
100
AcDbText
 10
-2790.904410567393
 20
-1376.250118749018
 30
0.0
 40
68.58
  1
648
 50
90.0
 41
1.111111111111111
  7
ＭＳ ゴシック
100
AcDbText
  0
LINE
  5
206
330
1F
100
AcDbEntity
  8
0-B_寸法
  6
Continuous
 62
   120
370
     5
100
AcDbLine
 10
-2763.214410567393
 20
-1787.250118749018
 30
0.0
 11
-2913.214410567393
 21
-1787.250118749018
 31
0.0
  0
LWPOLYLINE
  5
207
330
1F
100
AcDbEntity
  8
0-B_寸法
  6
Continuous
 62
     7
370
     9
100
AcDbPolyline
 90
        4
 70
     1
 43
3.0
 10
-2761.714410567393
 20
-1787.250118749018
 42
0.4142135623731
 10
-2763.214410567393
 20
-1785.750118749018
 42
0.4142135623731
 10
-2764.714410567393
 20
-1787.250118749018
 42
0.4142135623731
 10
-2763.214410567393
 20
-1788.750118749018
 42
0.4142135623731
  0
LINE
  5
208
330
1F
100
AcDbEntity
  8
0-B_寸法
  6
Continuous
 62
   120
370
     5
100
AcDbLine
 10
-2763.214410567393
 20
-815.2501187490188
 30
0.0
 11
-2763.214410567393
 21
-1787.250118749018
 31
0.0
  0
LINE
  5
209
330
1F
100
AcDbEntity
  8
0-B_寸法
  6
Continuous
 62
   120
370
     5
100
AcDbLine
 10
-2763.214410567393
 20
-815.2501187490188
 30
0.0
 11
-2913.214410567393
 21
-815.2501187490188
 31
0.0
  0
LINE
  5
20A
330
1F
100
AcDbEntity
  8
0-B_寸法
  6
Continuous
 62
   120
370
     5
100
AcDbLine
 10
-2763.214410567393
 20
-792.0001187490178
 30
0.0
 11
-2913.214410567393
 21
-792.0001187490178
 31
0.0
  0
LWPOLYLINE
  5
20B
330
1F
100
AcDbEntity
  8
0-B_寸法
  6
Continuous
 62
     7
370
     9
100
AcDbPolyline
 90
        4
 70
     1
 43
3.0
 10
-2761.714410567393
 20
-815.2501187490188
 42
0.4142135623731
 10
-2763.214410567393
 20
-813.7501187490188
 42
0.4142135623731
 10
-2764.714410567393
 20
-815.2501187490188
 42
0.4142135623731
 10
-2763.214410567393
 20
-816.7501187490188
 42
0.4142135623731
  0
LWPOLYLINE
  5
20C
330
1F
100
AcDbEntity
  8
0-B_寸法
  6
Continuous
 62
     7
370
     9
100
AcDbPolyline
 90
        4
 70
     1
 43
3.0
 10
-2761.714410567393
 20
-792.0001187490178
 42
0.4142135623731
 10
-2763.214410567393
 20
-790.5001187490178
 42
0.4142135623731
 10
-2764.714410567393
 20
-792.0001187490178
 42
0.4142135623731
 10
-2763.214410567393
 20
-793.5001187490178
 42
0.4142135623731
  0
LINE
  5
20D
330
1F
100
AcDbEntity
  8
0-B_寸法
  6
Continuous
 62
   120
370
     5
100
AcDbLine
 10
-2763.214410567393
 20
-792.0001187490178
 30
0.0
 11
-2763.214410567393
 21
-815.2501187490188
 31
0.0
  0
LINE
  5
20E
330
1F
100
AcDbEntity
  8
0-7__
  6
Continuous
 62
     7
370
     9
100
AcDbLine
 10
-3378.214410567391
 20
-1656.375118749018
 30
0.0
 11
-3378.214410567391
 21
-1671.375118749018
 31
0.0
  0
LINE
  5
20F
330
1F
100
AcDbEntity
  8
0-7__
  6
Continuous
 62
     7
370
     9
100
AcDbLine
 10
-3228.214410567391
 20
-1656.375118749018
 30
0.0
 11
-3378.214410567391
 21
-1656.375118749018
 31
0.0
  0
LINE
  5
210
330
1F
100
AcDbEntity
  8
0-7__
  6
Continuous
 62
     7
370
     9
100
AcDbLine
 10
-3228.214410567391
 20
-1671.375118749018
 30
0.0
 11
-3228.214410567391
 21
-1656.375118749018
 31
0.0
  0
LINE
  5
211
330
1F
100
AcDbEntity
  8
0-7__
  6
Continuous
 62
     7
370
     9
100
AcDbLine
 10
-3378.214410567391
 20
-1671.375118749018
 30
0.0
 11
-3228.214410567391
 21
-1671.375118749018
 31
0.0
  0
LINE
  5
212
330
1F
100
AcDbEntity
  8
0-7__
  6
Continuous
 62
     7
370
     9
100
AcDbLine
 10
-3378.214410567391
 20
-1104.000118749017
 30
0.0
 11
-3378.214410567391
 21
-1119.000118749017
 31
0.0
  0
LINE
  5
213
330
1F
100
AcDbEntity
  8
0-7__
  6
Continuous
 62
     7
370
     9
100
AcDbLine
 10
-3228.214410567391
 20
-1104.000118749017
 30
0.0
 11
-3378.214410567391
 21
-1104.000118749017
 31
0.0
  0
LINE
  5
214
330
1F
100
AcDbEntity
  8
0-7__
  6
Continuous
 62
     7
370
     9
100
AcDbLine
 10
-3228.214410567391
 20
-1119.000118749017
 30
0.0
 11
-3228.214410567391
 21
-1104.000118749017
 31
0.0
  0
LINE
  5
215
330
1F
100
AcDbEntity
  8
0-7__
  6
Continuous
 62
     7
370
     9
100
AcDbLine
 10
-3378.214410567391
 20
-1119.000118749017
 30
0.0
 11
-3228.214410567391
 21
-1119.000118749017
 31
0.0
  0
LINE
  5
216
330
1F
100
AcDbEntity
  8
0-7__
  6
Continuous
 62
     7
370
     9
100
AcDbLine
 10
-3378.214410567391
 20
-892.5001187490175
 30
0.0
 11
-3378.214410567391
 21
-907.5001187490175
 31
0.0
  0
LINE
  5
217
330
1F
100
AcDbEntity
  8
0-7__
  6
Continuous
 62
     7
370
     9
100
AcDbLine
 10
-3228.214410567391
 20
-892.5001187490175
 30
0.0
 11
-3378.214410567391
 21
-892.5001187490175
 31
0.0
  0
LINE
  5
218
330
1F
100
AcDbEntity
  8
0-7__
  6
Continuous
 62
     7
370
     9
100
AcDbLine
 10
-3228.214410567391
 20
-907.5001187490175
 30
0.0
 11
-3228.214410567391
 21
-892.5001187490175
 31
0.0
  0
LINE
  5
219
330
1F
100
AcDbEntity
  8
0-7__
  6
Continuous
 62
     7
370
     9
100
AcDbLine
 10
-3378.214410567391
 20
-907.5001187490175
 30
0.0
 11
-3228.214410567391
 21
-907.5001187490175
 31
0.0
  0
LINE
  5
21A
330
1F
100
AcDbEntity
  8
0-7__
  6
Continuous
 62
     7
370
     9
100
AcDbLine
 10
-3378.214410567391
 20
-1358.625118749018
 30
0.0
 11
-3378.214410567391
 21
-1373.625118749018
 31
0.0
  0
LINE
  5
21B
330
1F
100
AcDbEntity
  8
0-7__
  6
Continuous
 62
     7
370
     9
100
AcDbLine
 10
-3228.214410567391
 20
-1358.625118749018
 30
0.0
 11
-3378.214410567391
 21
-1358.625118749018
 31
0.0
  0
LINE
  5
21C
330
1F
100
AcDbEntity
  8
0-7__
  6
Continuous
 62
     7
370
     9
100
AcDbLine
 10
-3228.214410567391
 20
-1373.625118749018
 30
0.0
 11
-3228.214410567391
 21
-1358.625118749018
 31
0.0
  0
LINE
  5
21D
330
1F
100
AcDbEntity
  8
0-7__
  6
Continuous
 62
     7
370
     9
100
AcDbLine
 10
-3378.214410567391
 20
-1373.625118749018
 30
0.0
 11
-3228.214410567391
 21
-1373.625118749018
 31
0.0
  0
TEXT
  5
21E
330
1F
100
AcDbEntity
  8
0-B_寸法
  6
Continuous
 62
     7
370
   211
100
AcDbText
 10
-3767.759472090368
 20
-1509.750118749019
 30
0.0
 40
68.58
  1
3
 50
90.0
  7
ＭＳ ゴシック
100
AcDbText
  0
TEXT
  5
21F
330
1F
100
AcDbEntity
  8
0-B_寸法
  6
Continuous
 62
     7
370
   211
100
AcDbText
 10
-3767.759472090368
 20
-1212.000118749015
 30
0.0
 40
68.58
  1
3
 50
90.0
 41
0.9999999999998437
  7
ＭＳ ゴシック
100
AcDbText
  0
TEXT
  5
220
330
1F
100
AcDbEntity
  8
0-B_寸法
  6
Continuous
 62
     7
370
   211
100
AcDbText
 10
-3767.759472090368
 20
-1000.500118749019
 30
0.0
 40
68.58
  1
3
 50
90.0
  7
ＭＳ ゴシック
100
AcDbText
  0
TEXT
  5
221
330
1F
100
AcDbEntity
  8
0-B_寸法
  6
Continuous
 62
     7
370
   211
100
AcDbText
 10
-3767.759472090368
 20
-789.0001187490191
 30
0.0
 40
68.58
  1
3
 50
90.0
  7
ＭＳ ゴシック
100
AcDbText
  0
LINE
  5
222
330
1F
100
AcDbEntity
  8
0-B_寸法
  6
Continuous
 62
   120
370
     5
100
AcDbLine
 10
-3615.214410567394
 20
-567.0001187490176
 30
0.0
 11
-2991.214410567394
 21
-567.0001187490176
 31
0.0
  0
LINE
  5
223
330
1F
100
AcDbEntity
  8
0-2_扉
  6
Continuous
 62
    92
370
    13
100
AcDbLine
 10
-2991.214410567391
 20
-1810.500118749018
 30
0.0
 11
-3615.214410567394
 21
-1810.500118749018
 31
0.0
  0
LINE
  5
224
330
1F
100
AcDbEntity
  8
0-2_扉
  6
Continuous
 62
    92
370
    13
100
AcDbLine
 10
-3615.214410567394
 20
-1512.750118749019
 30
0.0
 11
-2991.214410567391
 21
-1512.750118749019
 31
0.0
  0
LINE
  5
225
330
1F
100
AcDbEntity
  8
0-2_扉
  6
Continuous
 62
    92
370
    13
100
AcDbLine
 10
-3615.214410567394
 20
-1517.250118749018
 30
0.0
 11
-2991.214410567391
 21
-1517.250118749018
 31
0.0
  0
LINE
  5
226
330
1F
100
AcDbEntity
  8
0-2_扉
  6
Continuous
 62
    92
370
    13
100
AcDbLine
 10
-3615.214410567394
 20
-796.5001187490191
 30
0.0
 11
-2991.214410567391
 21
-796.5001187490191
 31
0.0
  0
LINE
  5
227
330
1F
100
AcDbEntity
  8
0-2_扉
  6
Continuous
 62
    92
370
    13
100
AcDbLine
 10
-2991.214410567391
 20
-1215.000118749019
 30
0.0
 11
-3615.214410567394
 21
-1215.000118749019
 31
0.0
  0
LINE
  5
228
330
1F
100
AcDbEntity
  8
0-2_扉
  6
Continuous
 62
    92
370
    13
100
AcDbLine
 10
-2991.214410567391
 20
-1219.500118749018
 30
0.0
 11
-3615.214410567394
 21
-1219.500118749018
 31
0.0
  0
LINE
  5
229
330
1F
100
AcDbEntity
  8
0-2_扉
  6
Continuous
 62
    92
370
    13
100
AcDbLine
 10
-3615.214410567394
 20
-1003.500118749018
 30
0.0
 11
-2991.214410567391
 21
-1003.500118749018
 31
0.0
  0
LINE
  5
22A
330
1F
100
AcDbEntity
  8
0-2_扉
  6
Continuous
 62
    92
370
    13
100
AcDbLine
 10
-3615.214410567394
 20
-1008.000118749018
 30
0.0
 11
-2991.214410567391
 21
-1008.000118749018
 31
0.0
  0
LINE
  5
22B
330
1F
100
AcDbEntity
  8
0-B_寸法
  6
Continuous
 62
   120
370
     5
100
AcDbLine
 10
-2991.214410567394
 20
-567.0001187490176
 30
0.0
 11
-2988.214410567393
 21
-567.0001187490176
 31
0.0
  0
LINE
  5
22C
330
1F
100
AcDbEntity
  8
0-B_寸法
  6
Continuous
 62
   120
370
     5
100
AcDbLine
 10
-2991.214410567394
 20
-567.0001187490176
 30
0.0
 11
-2991.214410567394
 21
-717.0001187490176
 31
0.0
  0
LWPOLYLINE
  5
22D
330
1F
100
AcDbEntity
  8
0-B_寸法
  6
Continuous
 62
     7
370
     9
100
AcDbPolyline
 90
        4
 70
     1
 43
3.0
 10
-2989.714410567394
 20
-567.0001187490176
 42
0.4142135623731
 10
-2991.214410567394
 20
-565.5001187490176
 42
0.4142135623731
 10
-2992.714410567394
 20
-567.0001187490176
 42
0.4142135623731
 10
-2991.214410567394
 20
-568.5001187490176
 42
0.4142135623731
  0
LINE
  5
22E
330
1F
100
AcDbEntity
  8
0-2_扉
  6
Continuous
 62
    92
370
    13
100
AcDbLine
 10
-2991.214410567391
 20
-1517.250118749018
 30
0.0
 11
-2991.214410567391
 21
-1810.500118749018
 31
0.0
  0
LINE
  5
22F
330
1F
100
AcDbEntity
  8
0-2_扉
  6
Continuous
 62
    92
370
    13
100
AcDbLine
 10
-2991.214410567391
 20
-1219.500118749018
 30
0.0
 11
-2991.214410567391
 21
-1512.750118749019
 31
0.0
  0
LINE
  5
230
330
1F
100
AcDbEntity
  8
0-2_扉
  6
Continuous
 62
    92
370
    13
100
AcDbLine
 10
-2991.214410567391
 20
-796.5001187490191
 30
0.0
 11
-2991.214410567391
 21
-1003.500118749018
 31
0.0
  0
LINE
  5
231
330
1F
100
AcDbEntity
  8
0-2_扉
  6
Continuous
 62
    92
370
    13
100
AcDbLine
 10
-2991.214410567391
 20
-1008.000118749018
 30
0.0
 11
-2991.214410567391
 21
-1215.000118749019
 31
0.0
  0
LINE
  5
232
330
1F
100
AcDbEntity
  8
0-B_寸法
  6
Continuous
 62
   120
370
     5
100
AcDbLine
 10
-3615.214410567394
 20
-567.0001187490176
 30
0.0
 11
-3615.214410567394
 21
-717.0001187490176
 31
0.0
  0
LWPOLYLINE
  5
233
330
1F
100
AcDbEntity
  8
0-B_寸法
  6
Continuous
 62
     7
370
     9
100
AcDbPolyline
 90
        4
 70
     1
 43
3.0
 10
-3613.714410567394
 20
-567.0001187490176
 42
0.4142135623731
 10
-3615.214410567394
 20
-565.5001187490176
 42
0.4142135623731
 10
-3616.714410567394
 20
-567.0001187490176
 42
0.4142135623731
 10
-3615.214410567394
 20
-568.5001187490176
 42
0.4142135623731
  0
LINE
  5
234
330
1F
100
AcDbEntity
  8
0-B_寸法
  6
Continuous
 62
   120
370
     5
100
AcDbLine
 10
-3618.214410567393
 20
-567.0001187490176
 30
0.0
 11
-3615.214410567394
 21
-567.0001187490176
 31
0.0
  0
LINE
  5
235
330
1F
100
AcDbEntity
  8
0-2_扉
  6
Continuous
 62
    92
370
    13
100
AcDbLine
 10
-3615.214410567394
 20
-1517.250118749018
 30
0.0
 11
-3615.214410567394
 21
-1810.500118749018
 31
0.0
  0
LINE
  5
236
330
1F
100
AcDbEntity
  8
0-2_扉
  6
Continuous
 62
    92
370
    13
100
AcDbLine
 10
-3615.214410567394
 20
-1219.500118749018
 30
0.0
 11
-3615.214410567394
 21
-1512.750118749019
 31
0.0
  0
LINE
  5
237
330
1F
100
AcDbEntity
  8
0-2_扉
  6
Continuous
 62
    92
370
    13
100
AcDbLine
 10
-3615.214410567394
 20
-796.5001187490191
 30
0.0
 11
-3615.214410567394
 21
-1003.500118749018
 31
0.0
  0
LINE
  5
238
330
1F
100
AcDbEntity
  8
0-2_扉
  6
Continuous
 62
    92
370
    13
100
AcDbLine
 10
-3615.214410567394
 20
-1008.000118749018
 30
0.0
 11
-3615.214410567394
 21
-1215.000118749019
 31
0.0
  0
LINE
  5
239
330
1F
100
AcDbEntity
  8
0-B_寸法
  6
Continuous
 62
   120
370
     5
100
AcDbLine
 10
-2988.214410567393
 20
-567.0001187490176
 30
0.0
 11
-2988.214410567393
 21
-717.0001187490176
 31
0.0
  0
LWPOLYLINE
  5
23A
330
1F
100
AcDbEntity
  8
0-B_寸法
  6
Continuous
 62
     7
370
     9
100
AcDbPolyline
 90
        4
 70
     1
 43
3.0
 10
-2986.714410567393
 20
-567.0001187490176
 42
0.4142135623731
 10
-2988.214410567393
 20
-565.5001187490176
 42
0.4142135623731
 10
-2989.714410567393
 20
-567.0001187490176
 42
0.4142135623731
 10
-2988.214410567393
 20
-568.5001187490176
 42
0.4142135623731
  0
LINE
  5
23B
330
1F
100
AcDbEntity
  8
0-B_寸法
  6
Continuous
 62
   120
370
     5
100
AcDbLine
 10
-3618.214410567393
 20
-567.0001187490176
 30
0.0
 11
-3618.214410567393
 21
-717.0001187490176
 31
0.0
  0
LWPOLYLINE
  5
23C
330
1F
100
AcDbEntity
  8
0-B_寸法
  6
Continuous
 62
     7
370
     9
100
AcDbPolyline
 90
        4
 70
     1
 43
3.0
 10
-3616.714410567393
 20
-567.0001187490176
 42
0.4142135623731
 10
-3618.214410567393
 20
-565.5001187490176
 42
0.4142135623731
 10
-3619.714410567393
 20
-567.0001187490176
 42
0.4142135623731
 10
-3618.214410567393
 20
-568.5001187490176
 42
0.4142135623731
  0
TEXT
  5
23D
330
1F
100
AcDbEntity
  8
0-B_寸法
  6
Continuous
 62
     7
370
   211
100
AcDbText
 10
-3870.904410567393
 20
-1960.500118749018
 30
0.0
 40
68.58
  1
100
 50
90.0
 41
1.111111111111111
  7
ＭＳ ゴシック
100
AcDbText
  0
LINE
  5
23E
330
1F
100
AcDbEntity
  8
0-B_寸法
  6
Continuous
 62
   120
370
     5
100
AcDbLine
 10
-3843.214410567393
 20
-1960.500118749018
 30
0.0
 11
-3693.214410567393
 21
-1960.500118749018
 31
0.0
  0
LWPOLYLINE
  5
23F
330
1F
100
AcDbEntity
  8
0-B_寸法
  6
Continuous
 62
     7
370
     9
100
AcDbPolyline
 90
        4
 70
     1
 43
3.0
 10
-3841.714410567393
 20
-1960.500118749018
 42
0.4142135623731
 10
-3843.214410567393
 20
-1959.000118749018
 42
0.4142135623731
 10
-3844.714410567394
 20
-1960.500118749018
 42
0.4142135623731
 10
-3843.214410567393
 20
-1962.000118749018
 42
0.4142135623731
  0
LINE
  5
240
330
1F
100
AcDbEntity
  8
0-B_寸法
  6
Continuous
 62
   120
370
     5
100
AcDbLine
 10
-3843.214410567393
 20
-1810.500118749018
 30
0.0
 11
-3843.214410567393
 21
-1960.500118749018
 31
0.0
  0
TEXT
  5
241
330
1F
100
AcDbEntity
  8
0-B_寸法
  6
Continuous
 62
     7
370
   211
100
AcDbText
 10
-3870.904410567393
 20
-1791.375118749018
 30
0.0
 40
68.58
  1
195.5
 50
90.0
 41
1.133333333333333
  7
ＭＳ ゴシック
100
AcDbText
  0
LINE
  5
242
330
1F
100
AcDbEntity
  8
0-B_寸法
  6
Continuous
 62
   120
370
     5
100
AcDbLine
 10
-3843.214410567393
 20
-1810.500118749018
 30
0.0
 11
-3693.214410567393
 21
-1810.500118749018
 31
0.0
  0
LWPOLYLINE
  5
243
330
1F
100
AcDbEntity
  8
0-B_寸法
  6
Continuous
 62
     7
370
     9
100
AcDbPolyline
 90
        4
 70
     1
 43
3.0
 10
-3841.714410567393
 20
-1810.500118749018
 42
0.4142135623731
 10
-3843.214410567393
 20
-1809.000118749018
 42
0.4142135623731
 10
-3844.714410567394
 20
-1810.500118749018
 42
0.4142135623731
 10
-3843.214410567393
 20
-1812.000118749018
 42
0.4142135623731
  0
LINE
  5
244
330
1F
100
AcDbEntity
  8
0-B_寸法
  6
Continuous
 62
   120
370
     5
100
AcDbLine
 10
-3843.214410567393
 20
-1517.250118749018
 30
0.0
 11
-3843.214410567393
 21
-1810.500118749018
 31
0.0
  0
LINE
  5
245
330
1F
100
AcDbEntity
  8
0-B_寸法
  6
Continuous
 62
   120
370
     5
100
AcDbLine
 10
-3843.214410567393
 20
-1517.250118749018
 30
0.0
 11
-3693.214410567393
 21
-1517.250118749018
 31
0.0
  0
LWPOLYLINE
  5
246
330
1F
100
AcDbEntity
  8
0-B_寸法
  6
Continuous
 62
     7
370
     9
100
AcDbPolyline
 90
        4
 70
     1
 43
3.0
 10
-3841.714410567393
 20
-1517.250118749018
 42
0.4142135623731
 10
-3843.214410567393
 20
-1515.750118749018
 42
0.4142135623731
 10
-3844.714410567394
 20
-1517.250118749018
 42
0.4142135623731
 10
-3843.214410567393
 20
-1518.750118749018
 42
0.4142135623731
  0
LINE
  5
247
330
1F
100
AcDbEntity
  8
0-B_寸法
  6
Continuous
 62
   120
370
     5
100
AcDbLine
 10
-3843.214410567393
 20
-1512.750118749019
 30
0.0
 11
-3843.214410567393
 21
-1517.250118749018
 31
0.0
  0
TEXT
  5
248
330
1F
100
AcDbEntity
  8
0-B_寸法
  6
Continuous
 62
     7
370
   211
100
AcDbText
 10
-3870.904410567393
 20
-1493.625118749019
 30
0.0
 40
68.58
  1
195.5
 50
90.0
 41
1.133333333333333
  7
ＭＳ ゴシック
100
AcDbText
  0
LINE
  5
249
330
1F
100
AcDbEntity
  8
0-B_寸法
  6
Continuous
 62
   120
370
     5
100
AcDbLine
 10
-3843.214410567393
 20
-1512.750118749019
 30
0.0
 11
-3693.214410567393
 21
-1512.750118749019
 31
0.0
  0
LWPOLYLINE
  5
24A
330
1F
100
AcDbEntity
  8
0-B_寸法
  6
Continuous
 62
     7
370
     9
100
AcDbPolyline
 90
        4
 70
     1
 43
3.0
 10
-3841.714410567393
 20
-1512.750118749019
 42
0.4142135623731
 10
-3843.214410567393
 20
-1511.250118749019
 42
0.4142135623731
 10
-3844.714410567394
 20
-1512.750118749019
 42
0.4142135623731
 10
-3843.214410567393
 20
-1514.250118749019
 42
0.4142135623731
  0
LINE
  5
24B
330
1F
100
AcDbEntity
  8
0-B_寸法
  6
Continuous
 62
   120
370
     5
100
AcDbLine
 10
-3843.214410567393
 20
-1219.500118749018
 30
0.0
 11
-3843.214410567393
 21
-1512.750118749019
 31
0.0
  0
LINE
  5
24C
330
1F
100
AcDbEntity
  8
0-B_寸法
  6
Continuous
 62
   120
370
     5
100
AcDbLine
 10
-3843.214410567393
 20
-1219.500118749018
 30
0.0
 11
-3693.214410567393
 21
-1219.500118749018
 31
0.0
  0
LWPOLYLINE
  5
24D
330
1F
100
AcDbEntity
  8
0-B_寸法
  6
Continuous
 62
     7
370
     9
100
AcDbPolyline
 90
        4
 70
     1
 43
3.0
 10
-3841.714410567393
 20
-1219.500118749018
 42
0.4142135623731
 10
-3843.214410567393
 20
-1218.000118749018
 42
0.4142135623731
 10
-3844.714410567394
 20
-1219.500118749018
 42
0.4142135623731
 10
-3843.214410567393
 20
-1221.000118749018
 42
0.4142135623731
  0
LINE
  5
24E
330
1F
100
AcDbEntity
  8
0-B_寸法
  6
Continuous
 62
   120
370
     5
100
AcDbLine
 10
-3843.214410567393
 20
-1215.000118749019
 30
0.0
 11
-3843.214410567393
 21
-1219.500118749018
 31
0.0
  0
TEXT
  5
24F
330
1F
100
AcDbEntity
  8
0-B_寸法
  6
Continuous
 62
     7
370
   211
100
AcDbText
 10
-3870.904410567393
 20
-1186.500118749018
 30
0.0
 40
68.58
  1
138
 50
90.0
 41
1.111111111111111
  7
ＭＳ ゴシック
100
AcDbText
  0
LINE
  5
250
330
1F
100
AcDbEntity
  8
0-B_寸法
  6
Continuous
 62
   120
370
     5
100
AcDbLine
 10
-3843.214410567393
 20
-1215.000118749019
 30
0.0
 11
-3693.214410567393
 21
-1215.000118749019
 31
0.0
  0
LWPOLYLINE
  5
251
330
1F
100
AcDbEntity
  8
0-B_寸法
  6
Continuous
 62
     7
370
     9
100
AcDbPolyline
 90
        4
 70
     1
 43
3.0
 10
-3841.714410567393
 20
-1215.000118749019
 42
0.4142135623731
 10
-3843.214410567393
 20
-1213.500118749019
 42
0.4142135623731
 10
-3844.714410567394
 20
-1215.000118749019
 42
0.4142135623731
 10
-3843.214410567393
 20
-1216.500118749018
 42
0.4142135623731
  0
LINE
  5
252
330
1F
100
AcDbEntity
  8
0-B_寸法
  6
Continuous
 62
   120
370
     5
100
AcDbLine
 10
-3843.214410567393
 20
-1008.000118749018
 30
0.0
 11
-3843.214410567393
 21
-1215.000118749019
 31
0.0
  0
LINE
  5
253
330
1F
100
AcDbEntity
  8
0-B_寸法
  6
Continuous
 62
   120
370
     5
100
AcDbLine
 10
-3843.214410567393
 20
-1008.000118749018
 30
0.0
 11
-3693.214410567393
 21
-1008.000118749018
 31
0.0
  0
LWPOLYLINE
  5
254
330
1F
100
AcDbEntity
  8
0-B_寸法
  6
Continuous
 62
     7
370
     9
100
AcDbPolyline
 90
        4
 70
     1
 43
3.0
 10
-3841.714410567393
 20
-1008.000118749018
 42
0.4142135623731
 10
-3843.214410567393
 20
-1006.500118749018
 42
0.4142135623731
 10
-3844.714410567394
 20
-1008.000118749018
 42
0.4142135623731
 10
-3843.214410567393
 20
-1009.500118749018
 42
0.4142135623731
  0
LINE
  5
255
330
1F
100
AcDbEntity
  8
0-B_寸法
  6
Continuous
 62
   120
370
     5
100
AcDbLine
 10
-3843.214410567393
 20
-1003.500118749018
 30
0.0
 11
-3843.214410567393
 21
-1008.000118749018
 31
0.0
  0
TEXT
  5
256
330
1F
100
AcDbEntity
  8
0-B_寸法
  6
Continuous
 62
     7
370
   211
100
AcDbText
 10
-3870.904410567393
 20
-975.0001187490183
 30
0.0
 40
68.58
  1
138
 50
90.0
 41
1.111111111111111
  7
ＭＳ ゴシック
100
AcDbText
  0
LINE
  5
257
330
1F
100
AcDbEntity
  8
0-B_寸法
  6
Continuous
 62
   120
370
     5
100
AcDbLine
 10
-3843.214410567393
 20
-1003.500118749018
 30
0.0
 11
-3693.214410567393
 21
-1003.500118749018
 31
0.0
  0
LWPOLYLINE
  5
258
330
1F
100
AcDbEntity
  8
0-B_寸法
  6
Continuous
 62
     7
370
     9
100
AcDbPolyline
 90
        4
 70
     1
 43
3.0
 10
-3841.714410567393
 20
-1003.500118749018
 42
0.4142135623731
 10
-3843.214410567393
 20
-1002.000118749018
 42
0.4142135623731
 10
-3844.714410567394
 20
-1003.500118749018
 42
0.4142135623731
 10
-3843.214410567393
 20
-1005.000118749018
 42
0.4142135623731
  0
LINE
  5
259
330
1F
100
AcDbEntity
  8
0-B_寸法
  6
Continuous
 62
   120
370
     5
100
AcDbLine
 10
-3843.214410567393
 20
-796.5001187490191
 30
0.0
 11
-3843.214410567393
 21
-1003.500118749018
 31
0.0
  0
LINE
  5
25A
330
1F
100
AcDbEntity
  8
0-B_寸法
  6
Continuous
 62
   120
370
     5
100
AcDbLine
 10
-3843.214410567393
 20
-796.5001187490191
 30
0.0
 11
-3693.214410567393
 21
-796.5001187490191
 31
0.0
  0
LINE
  5
25B
330
1F
100
AcDbEntity
  8
0-B_寸法
  6
Continuous
 62
   120
370
     5
100
AcDbLine
 10
-3843.214410567393
 20
-792.0001187490176
 30
0.0
 11
-3693.214410567393
 21
-792.0001187490176
 31
0.0
  0
LWPOLYLINE
  5
25C
330
1F
100
AcDbEntity
  8
0-B_寸法
  6
Continuous
 62
     7
370
     9
100
AcDbPolyline
 90
        4
 70
     1
 43
3.0
 10
-3841.714410567393
 20
-796.5001187490191
 42
0.4142135623731
 10
-3843.214410567393
 20
-795.0001187490191
 42
0.4142135623731
 10
-3844.714410567394
 20
-796.5001187490191
 42
0.4142135623731
 10
-3843.214410567393
 20
-798.0001187490191
 42
0.4142135623731
  0
LWPOLYLINE
  5
25D
330
1F
100
AcDbEntity
  8
0-B_寸法
  6
Continuous
 62
     7
370
     9
100
AcDbPolyline
 90
        4
 70
     1
 43
3.0
 10
-3841.714410567393
 20
-792.0001187490176
 42
0.4142135623731
 10
-3843.214410567393
 20
-790.5001187490176
 42
0.4142135623731
 10
-3844.714410567394
 20
-792.0001187490176
 42
0.4142135623731
 10
-3843.214410567393
 20
-793.5001187490176
 42
0.4142135623731
  0
LINE
  5
25E
330
1F
100
AcDbEntity
  8
0-B_寸法
  6
Continuous
 62
   120
370
     5
100
AcDbLine
 10
-3843.214410567393
 20
-792.0001187490176
 30
0.0
 11
-3843.214410567393
 21
-796.5001187490191
 31
0.0
  0
TEXT
  5
25F
330
1F
100
AcDbEntity
  8
0-B_寸法
  6
Continuous
 62
     7
370
   211
100
AcDbText
 10
-4020.904410567393
 20
-1451.250118749018
 30
0.0
 40
68.58
  1
779
 50
90.0
 41
1.111111111111111
  7
ＭＳ ゴシック
100
AcDbText
  0
LINE
  5
260
330
1F
100
AcDbEntity
  8
0-B_寸法
  6
Continuous
 62
   120
370
     5
100
AcDbLine
 10
-3993.214410567393
 20
-1960.500118749018
 30
0.0
 11
-3843.214410567393
 21
-1960.500118749018
 31
0.0
  0
LINE
  5
261
330
1F
100
AcDbEntity
  8
0-B_寸法
  6
Continuous
 62
   120
370
     5
100
AcDbLine
 10
-3993.214410567393
 20
-792.0001187490176
 30
0.0
 11
-3843.214410567393
 21
-792.0001187490176
 31
0.0
  0
LWPOLYLINE
  5
262
330
1F
100
AcDbEntity
  8
0-B_寸法
  6
Continuous
 62
     7
370
     9
100
AcDbPolyline
 90
        4
 70
     1
 43
3.0
 10
-3991.714410567393
 20
-1960.500118749018
 42
0.4142135623731
 10
-3993.214410567393
 20
-1959.000118749018
 42
0.4142135623731
 10
-3994.714410567394
 20
-1960.500118749018
 42
0.4142135623731
 10
-3993.214410567393
 20
-1962.000118749018
 42
0.4142135623731
  0
LWPOLYLINE
  5
263
330
1F
100
AcDbEntity
  8
0-B_寸法
  6
Continuous
 62
     7
370
     9
100
AcDbPolyline
 90
        4
 70
     1
 43
3.0
 10
-3991.714410567393
 20
-792.0001187490176
 42
0.4142135623731
 10
-3993.214410567393
 20
-790.5001187490176
 42
0.4142135623731
 10
-3994.714410567394
 20
-792.0001187490176
 42
0.4142135623731
 10
-3993.214410567393
 20
-793.5001187490176
 42
0.4142135623731
  0
LINE
  5
264
330
1F
100
AcDbEntity
  8
0-B_寸法
  6
Continuous
 62
   120
370
     5
100
AcDbLine
 10
-3993.214410567393
 20
-792.0001187490176
 30
0.0
 11
-3993.214410567393
 21
-1960.500118749018
 31
0.0
  0
LINE
  5
265
330
1F
100
AcDbEntity
  8
0-0_補助線
  6
JWW_HOJO
 62
   120
370
     5
100
AcDbLine
 10
-3693.214410567393
 20
-2035.500118749018
 30
0.0
 11
-2913.214410567393
 21
-2035.500118749018
 31
0.0
  0
LINE
  5
266
330
1F
100
AcDbEntity
  8
0-0_補助線
  6
JWW_HOJO
 62
   120
370
     5
100
AcDbLine
 10
-2913.214410567393
 20
-2035.500118749018
 30
0.0
 11
-2913.214410567393
 21
-717.0001187490176
 31
0.0
  0
LINE
  5
267
330
1F
100
AcDbEntity
  8
0-0_補助線
  6
JWW_HOJO
 62
   120
370
     5
100
AcDbLine
 10
-3693.214410567393
 20
-717.0001187490176
 30
0.0
 11
-3693.214410567393
 21
-2035.500118749018
 31
0.0
  0
LINE
  5
268
330
1F
100
AcDbEntity
  8
0-0_補助線
  6
JWW_HOJO
 62
   120
370
     5
100
AcDbLine
 10
-2913.214410567393
 20
-717.0001187490176
 30
0.0
 11
-3693.214410567393
 21
-717.0001187490176
 31
0.0
  0
LINE
  5
269
330
1F
100
AcDbEntity
  8
0-1_本体
  6
Continuous
 62
     7
370
     9
100
AcDbLine
 10
-3618.214410567393
 20
-1960.500118749018
 30
0.0
 11
-2988.214410567388
 21
-1960.500118749018
 31
0.0
  0
LINE
  5
26A
330
1F
100
AcDbEntity
  8
0-1_本体
  6
Continuous
 62
     7
370
     9
100
AcDbLine
 10
-2988.214410567388
 20
-1960.500118749018
 30
0.0
 11
-2988.214410567388
 21
-792.0001187490176
 31
0.0
  0
LINE
  5
26B
330
1F
100
AcDbEntity
  8
0-1_本体
  6
Continuous
 62
     7
370
     9
100
AcDbLine
 10
-3618.214410567393
 20
-792.0001187490176
 30
0.0
 11
-3618.214410567393
 21
-1960.500118749018
 31
0.0
  0
LINE
  5
26C
330
1F
100
AcDbEntity
  8
0-1_本体
  6
JWW_DASHED1
 62
     7
370
     9
100
AcDbLine
 10
-3594.964410567392
 20
-792.0001187490176
 30
0.0
 11
-3594.964410567392
 21
-1810.500118749018
 31
0.0
  0
LINE
  5
26D
330
1F
100
AcDbEntity
  8
0-1_本体
  6
JWW_DASHED1
 62
     7
370
     9
100
AcDbLine
 10
-3011.464410567391
 20
-1810.500118749018
 30
0.0
 11
-3011.464410567391
 21
-792.0001187490176
 31
0.0
  0
LINE
  5
26E
330
1F
100
AcDbEntity
  8
0-1_本体
  6
Continuous
 62
     7
370
     9
100
AcDbLine
 10
-3594.964410567392
 20
-1810.500118749018
 30
0.0
 11
-3594.964410567392
 21
-1960.500118749018
 31
0.0
  0
LINE
  5
26F
330
1F
100
AcDbEntity
  8
0-1_本体
  6
Continuous
 62
     7
370
     9
100
AcDbLine
 10
-3011.464410567391
 20
-1810.500118749018
 30
0.0
 11
-3011.464410567391
 21
-1960.500118749018
 31
0.0
  0
LINE
  5
270
330
1F
100
AcDbEntity
  8
0-1_本体
  6
JWW_DASHED1
 62
     7
370
     9
100
AcDbLine
 10
-3594.964410567392
 20
-1787.250118749018
 30
0.0
 11
-3011.464410567391
 21
-1787.250118749018
 31
0.0
  0
LINE
  5
271
330
1F
100
AcDbEntity
  8
0-1_本体
  6
Continuous
 62
     7
370
     9
100
AcDbLine
 10
-2988.214410567388
 20
-792.0001187490176
 30
0.0
 11
-3618.214410567393
 21
-792.0001187490176
 31
0.0
  0
LINE
  5
272
330
1F
100
AcDbEntity
  8
0-1_本体
  6
JWW_DASHED1
 62
     7
370
     9
100
AcDbLine
 10
-3011.464410567391
 20
-815.2501187490191
 30
0.0
 11
-3594.964410567392
 21
-815.2501187490191
 31
0.0
  0
TEXT
  5
273
330
1F
100
AcDbEntity
  8
0-B_寸法
  6
Continuous
 62
     7
370
   211
100
AcDbText
 10
-3378.214410567393
 20
-539.3101187490175
 30
0.0
 40
68.58
  1
416
 41
1.111111111111111
  7
ＭＳ ゴシック
100
AcDbText
  0
TEXT
  5
274
330
1F
100
AcDbEntity
  8
0-B_寸法
  6
Continuous
 62
     7
370
   211
100
AcDbText
 10
-3639.214410567395
 20
-539.3101187490175
 30
0.0
 40
68.58
  1
2
  7
ＭＳ ゴシック
100
AcDbText
  0
TEXT
  5
275
330
1F
100
AcDbEntity
  8
0-B_寸法
  6
Continuous
 62
     7
370
   211
100
AcDbText
 10
-3012.214410567394
 20
-539.3101187490175
 30
0.0
 40
68.58
  1
2
  7
ＭＳ ゴシック
100
AcDbText
  0
LINE
  5
276
330
1F
100
AcDbEntity
  8
0-A_文字
  6
Continuous
 62
     7
370
     9
100
AcDbLine
 10
-3940.714410567395
 20
-2785.500118749024
 30
0.0
 11
-3940.714410567395
 21
-2560.500118749022
 31
0.0
  0
TEXT
  5
277
330
1F
100
AcDbEntity
  8
0-A_文字
  6
Continuous
 62
     7
370
     9
100
AcDbText
 10
-3708.21441056739
 20
-2737.620118749022
 30
0.0
 40
137.16
  1
正面図・
 41
1.125
  7
ＭＳ ゴシック
100
AcDbText
  0
LINE
  5
278
330
1F
100
AcDbEntity
  8
0-A_文字
  6
Continuous
 62
     7
370
     9
100
AcDbLine
 10
-2665.71441056739
 20
-2785.500118749024
 30
0.0
 11
-3940.714410567395
 21
-2785.500118749024
 31
0.0
  0
LINE
  5
279
330
1F
100
AcDbEntity
  8
0-A_文字
  6
Continuous
 62
     7
370
     9
100
AcDbLine
 10
-3940.714410567395
 20
-2560.500118749022
 30
0.0
 11
-2665.71441056739
 21
-2560.500118749022
 31
0.0
  0
LINE
  5
27A
330
1F
100
AcDbEntity
  8
0-A_文字
  6
Continuous
 62
     7
370
     9
100
AcDbLine
 10
-2665.71441056739
 20
-2560.500118749022
 30
0.0
 11
-2665.71441056739
 21
-2785.500118749024
 31
0.0
  0
TEXT
  5
27B
330
1F
100
AcDbEntity
  8
0-B_寸法
  6
Continuous
 62
     7
370
   211
100
AcDbText
 10
-2964.32664262257
 20
770.7242883034183
 30
0.0
 40
68.58
  1
15.5
 41
1.125
  7
ＭＳ ゴシック
100
AcDbText
  0
TEXT
  5
27C
330
1F
100
AcDbEntity
  8
0-B_寸法
  6
Continuous
 62
     7
370
   211
100
AcDbText
 10
-3850.322697849397
 20
770.7242883034183
 30
0.0
 40
68.58
  1
15.5
 41
1.125
  7
ＭＳ ゴシック
100
AcDbText
  0
TEXT
  5
27D
330
1F
100
AcDbEntity
  8
0-B_寸法
  6
Continuous
 62
     7
370
   211
100
AcDbText
 10
-2790.904410567393
 20
960.7593001982066
 30
0.0
 40
68.58
  1
100
 50
90.0
 41
1.111111111111111
  7
ＭＳ ゴシック
100
AcDbText
  0
TEXT
  5
27E
330
1F
100
AcDbEntity
  8
0-B_寸法
  6
Continuous
 62
     7
370
   211
100
AcDbText
 10
-2670.904410567393
 20
1850.853536446289
 30
0.0
 40
68.58
  1
15.5
 50
90.0
 41
1.125
  7
ＭＳ ゴシック
100
AcDbText
  0
TEXT
  5
27F
330
1F
100
AcDbEntity
  8
0-B_寸法
  6
Continuous
 62
     7
370
   211
100
AcDbText
 10
-2670.904410567393
 20
1028.103536446289
 30
0.0
 40
68.58
  1
15.5
 50
90.0
 41
1.125
  7
ＭＳ ゴシック
100
AcDbText
  0
LINE
  5
280
330
1F
100
AcDbEntity
  8
0-B_寸法
  6
Continuous
 62
   120
370
     5
100
AcDbLine
 10
-2763.214410567393
 20
968.0342883034183
 30
0.0
 11
-2913.214410567393
 21
968.0342883034183
 31
0.0
  0
LWPOLYLINE
  5
281
330
1F
100
AcDbEntity
  8
0-B_寸法
  6
Continuous
 62
     7
370
     9
100
AcDbPolyline
 90
        4
 70
     1
 43
3.0
 10
-2761.714410567393
 20
968.0342883034183
 42
0.4142135623731
 10
-2763.214410567393
 20
969.5342883034182
 42
0.4142135623731
 10
-2764.714410567393
 20
968.0342883034183
 42
0.4142135623731
 10
-2763.214410567393
 20
966.5342883034184
 42
0.4142135623731
  0
LINE
  5
282
330
1F
100
AcDbEntity
  8
0-B_寸法
  6
Continuous
 62
   120
370
     5
100
AcDbLine
 10
-2763.214410567393
 20
1118.034288303418
 30
0.0
 11
-2763.214410567393
 21
968.0342883034183
 31
0.0
  0
LINE
  5
283
330
1F
100
AcDbEntity
  8
0-B_寸法
  6
Continuous
 62
   120
370
     5
100
AcDbLine
 10
-2763.214410567393
 20
1118.034288303418
 30
0.0
 11
-2913.214410567393
 21
1118.034288303418
 31
0.0
  0
LWPOLYLINE
  5
284
330
1F
100
AcDbEntity
  8
0-B_寸法
  6
Continuous
 62
     7
370
     9
100
AcDbPolyline
 90
        4
 70
     1
 43
3.0
 10
-2761.714410567393
 20
1118.034288303418
 42
0.4142135623731
 10
-2763.214410567393
 20
1119.534288303418
 42
0.4142135623731
 10
-2764.714410567393
 20
1118.034288303418
 42
0.4142135623731
 10
-2763.214410567393
 20
1116.534288303418
 42
0.4142135623731
  0
LINE
  5
285
330
1F
100
AcDbEntity
  8
0-B_寸法
  6
Continuous
 62
   120
370
     5
100
AcDbLine
 10
-2763.214410567393
 20
1141.284288303418
 30
0.0
 11
-2763.214410567393
 21
1118.034288303418
 31
0.0
  0
TEXT
  5
286
330
1F
100
AcDbEntity
  8
0-B_寸法
  6
Continuous
 62
     7
370
   211
100
AcDbText
 10
-2790.904410567393
 20
1466.034288303418
 30
0.0
 40
68.58
  1
533
 50
90.0
 41
1.111111111111111
  7
ＭＳ ゴシック
100
AcDbText
  0
LINE
  5
287
330
1F
100
AcDbEntity
  8
0-B_寸法
  6
Continuous
 62
   120
370
     5
100
AcDbLine
 10
-2763.214410567393
 20
1141.284288303418
 30
0.0
 11
-2913.214410567393
 21
1141.284288303418
 31
0.0
  0
LWPOLYLINE
  5
288
330
1F
100
AcDbEntity
  8
0-B_寸法
  6
Continuous
 62
     7
370
     9
100
AcDbPolyline
 90
        4
 70
     1
 43
3.0
 10
-2761.714410567393
 20
1141.284288303418
 42
0.4142135623731
 10
-2763.214410567393
 20
1142.784288303417
 42
0.4142135623731
 10
-2764.714410567393
 20
1141.284288303418
 42
0.4142135623731
 10
-2763.214410567393
 20
1139.784288303418
 42
0.4142135623731
  0
LINE
  5
289
330
1F
100
AcDbEntity
  8
0-B_寸法
  6
Continuous
 62
   120
370
     5
100
AcDbLine
 10
-2763.214410567393
 20
1940.784288303419
 30
0.0
 11
-2763.214410567393
 21
1141.284288303418
 31
0.0
  0
LINE
  5
28A
330
1F
100
AcDbEntity
  8
0-B_寸法
  6
Continuous
 62
   120
370
     5
100
AcDbLine
 10
-2763.214410567393
 20
1940.784288303419
 30
0.0
 11
-2913.214410567393
 21
1940.784288303419
 31
0.0
  0
LINE
  5
28B
330
1F
100
AcDbEntity
  8
0-B_寸法
  6
Continuous
 62
   120
370
     5
100
AcDbLine
 10
-2763.214410567393
 20
1964.034288303418
 30
0.0
 11
-2913.214410567393
 21
1964.034288303418
 31
0.0
  0
LWPOLYLINE
  5
28C
330
1F
100
AcDbEntity
  8
0-B_寸法
  6
Continuous
 62
     7
370
     9
100
AcDbPolyline
 90
        4
 70
     1
 43
3.0
 10
-2761.714410567393
 20
1940.784288303419
 42
0.4142135623731
 10
-2763.214410567393
 20
1942.284288303419
 42
0.4142135623731
 10
-2764.714410567393
 20
1940.784288303419
 42
0.4142135623731
 10
-2763.214410567393
 20
1939.284288303419
 42
0.4142135623731
  0
LWPOLYLINE
  5
28D
330
1F
100
AcDbEntity
  8
0-B_寸法
  6
Continuous
 62
     7
370
     9
100
AcDbPolyline
 90
        4
 70
     1
 43
3.0
 10
-2761.714410567393
 20
1964.034288303418
 42
0.4142135623731
 10
-2763.214410567393
 20
1965.534288303418
 42
0.4142135623731
 10
-2764.714410567393
 20
1964.034288303418
 42
0.4142135623731
 10
-2763.214410567393
 20
1962.534288303418
 42
0.4142135623731
  0
LINE
  5
28E
330
1F
100
AcDbEntity
  8
0-B_寸法
  6
Continuous
 62
   120
370
     5
100
AcDbLine
 10
-2763.214410567393
 20
1964.034288303418
 30
0.0
 11
-2763.214410567393
 21
1940.784288303419
 31
0.0
  0
TEXT
  5
28F
330
1F
100
AcDbEntity
  8
0-B_寸法
  6
Continuous
 62
     7
370
   211
100
AcDbText
 10
-3378.214410567393
 20
620.7242883034183
 30
0.0
 40
68.58
  1
420
 41
1.111111111111111
  7
ＭＳ ゴシック
100
AcDbText
  0
LINE
  5
290
330
1F
100
AcDbEntity
  8
0-B_寸法
  6
Continuous
 62
   120
370
     5
100
AcDbLine
 10
-2988.214410567393
 20
593.0342883034183
 30
0.0
 11
-2988.214410567393
 21
743.0342883034183
 31
0.0
  0
LINE
  5
291
330
1F
100
AcDbEntity
  8
0-B_寸法
  6
Continuous
 62
   120
370
     5
100
AcDbLine
 10
-3618.214410567393
 20
593.0342883034183
 30
0.0
 11
-3618.214410567393
 21
743.0342883034183
 31
0.0
  0
LWPOLYLINE
  5
292
330
1F
100
AcDbEntity
  8
0-B_寸法
  6
Continuous
 62
     7
370
     9
100
AcDbPolyline
 90
        4
 70
     1
 43
3.0
 10
-2986.714410567393
 20
593.0342883034183
 42
0.4142135623731
 10
-2988.214410567393
 20
594.5342883034183
 42
0.4142135623731
 10
-2989.714410567393
 20
593.0342883034183
 42
0.4142135623731
 10
-2988.214410567393
 20
591.5342883034183
 42
0.4142135623731
  0
LWPOLYLINE
  5
293
330
1F
100
AcDbEntity
  8
0-B_寸法
  6
Continuous
 62
     7
370
     9
100
AcDbPolyline
 90
        4
 70
     1
 43
3.0
 10
-3616.714410567393
 20
593.0342883034183
 42
0.4142135623731
 10
-3618.214410567393
 20
594.5342883034183
 42
0.4142135623731
 10
-3619.714410567393
 20
593.0342883034183
 42
0.4142135623731
 10
-3618.214410567393
 20
591.5342883034183
 42
0.4142135623731
  0
LINE
  5
294
330
1F
100
AcDbEntity
  8
0-B_寸法
  6
Continuous
 62
   120
370
     5
100
AcDbLine
 10
-3618.214410567393
 20
593.0342883034183
 30
0.0
 11
-2988.214410567393
 21
593.0342883034183
 31
0.0
  0
LINE
  5
295
330
1F
100
AcDbEntity
  8
0-B_寸法
  6
Continuous
 62
   120
370
     5
100
AcDbLine
 10
-2988.214410567393
 20
743.0342883034183
 30
0.0
 11
-2988.214410567393
 21
893.0342883034183
 31
0.0
  0
LWPOLYLINE
  5
296
330
1F
100
AcDbEntity
  8
0-B_寸法
  6
Continuous
 62
     7
370
     9
100
AcDbPolyline
 90
        4
 70
     1
 43
3.0
 10
-2986.714410567393
 20
743.0342883034183
 42
0.4142135623731
 10
-2988.214410567393
 20
744.5342883034183
 42
0.4142135623731
 10
-2989.714410567393
 20
743.0342883034183
 42
0.4142135623731
 10
-2988.214410567393
 20
741.5342883034183
 42
0.4142135623731
  0
LINE
  5
297
330
1F
100
AcDbEntity
  8
0-B_寸法
  6
Continuous
 62
   120
370
     5
100
AcDbLine
 10
-3011.464410567392
 20
743.0342883034183
 30
0.0
 11
-2988.214410567393
 21
743.0342883034183
 31
0.0
  0
TEXT
  5
298
330
1F
100
AcDbEntity
  8
0-B_寸法
  6
Continuous
 62
     7
370
   211
100
AcDbText
 10
-3378.214410567393
 20
770.7242883034183
 30
0.0
 40
68.58
  1
389
 41
1.111111111111111
  7
ＭＳ ゴシック
100
AcDbText
  0
LINE
  5
299
330
1F
100
AcDbEntity
  8
0-B_寸法
  6
Continuous
 62
   120
370
     5
100
AcDbLine
 10
-3011.464410567392
 20
743.0342883034183
 30
0.0
 11
-3011.464410567392
 21
893.0342883034183
 31
0.0
  0
LWPOLYLINE
  5
29A
330
1F
100
AcDbEntity
  8
0-B_寸法
  6
Continuous
 62
     7
370
     9
100
AcDbPolyline
 90
        4
 70
     1
 43
3.0
 10
-3009.964410567393
 20
743.0342883034183
 42
0.4142135623731
 10
-3011.464410567392
 20
744.5342883034183
 42
0.4142135623731
 10
-3012.964410567392
 20
743.0342883034183
 42
0.4142135623731
 10
-3011.464410567392
 20
741.5342883034183
 42
0.4142135623731
  0
LINE
  5
29B
330
1F
100
AcDbEntity
  8
0-B_寸法
  6
Continuous
 62
   120
370
     5
100
AcDbLine
 10
-3594.964410567392
 20
743.0342883034183
 30
0.0
 11
-3011.464410567392
 21
743.0342883034183
 31
0.0
  0
LINE
  5
29C
330
1F
100
AcDbEntity
  8
0-B_寸法
  6
Continuous
 62
   120
370
     5
100
AcDbLine
 10
-3594.964410567392
 20
743.0342883034183
 30
0.0
 11
-3594.964410567392
 21
893.0342883034183
 31
0.0
  0
LINE
  5
29D
330
1F
100
AcDbEntity
  8
0-B_寸法
  6
Continuous
 62
   120
370
     5
100
AcDbLine
 10
-3618.214410567393
 20
743.0342883034183
 30
0.0
 11
-3618.214410567393
 21
893.0342883034183
 31
0.0
  0
LWPOLYLINE
  5
29E
330
1F
100
AcDbEntity
  8
0-B_寸法
  6
Continuous
 62
     7
370
     9
100
AcDbPolyline
 90
        4
 70
     1
 43
3.0
 10
-3593.464410567392
 20
743.0342883034183
 42
0.4142135623731
 10
-3594.964410567392
 20
744.5342883034183
 42
0.4142135623731
 10
-3596.464410567392
 20
743.0342883034183
 42
0.4142135623731
 10
-3594.964410567392
 20
741.5342883034183
 42
0.4142135623731
  0
LWPOLYLINE
  5
29F
330
1F
100
AcDbEntity
  8
0-B_寸法
  6
Continuous
 62
     7
370
     9
100
AcDbPolyline
 90
        4
 70
     1
 43
3.0
 10
-3616.714410567393
 20
743.0342883034183
 42
0.4142135623731
 10
-3618.214410567393
 20
744.5342883034183
 42
0.4142135623731
 10
-3619.714410567393
 20
743.0342883034183
 42
0.4142135623731
 10
-3618.214410567393
 20
741.5342883034183
 42
0.4142135623731
  0
LINE
  5
2A0
330
1F
100
AcDbEntity
  8
0-B_寸法
  6
Continuous
 62
   120
370
     5
100
AcDbLine
 10
-3618.214410567393
 20
743.0342883034183
 30
0.0
 11
-3594.964410567392
 21
743.0342883034183
 31
0.0
  0
LINE
  5
2A1
330
1F
100
AcDbEntity
  8
0-7__
  6
Continuous
 62
     7
370
     9
100
AcDbLine
 10
-3378.214410567391
 20
1229.034288303417
 30
0.0
 11
-3378.214410567391
 21
1214.034288303417
 31
0.0
  0
LINE
  5
2A2
330
1F
100
AcDbEntity
  8
0-7__
  6
Continuous
 62
     7
370
     9
100
AcDbLine
 10
-3228.214410567391
 20
1229.034288303417
 30
0.0
 11
-3378.214410567391
 21
1229.034288303417
 31
0.0
  0
LINE
  5
2A3
330
1F
100
AcDbEntity
  8
0-7__
  6
Continuous
 62
     7
370
     9
100
AcDbLine
 10
-3228.214410567391
 20
1214.034288303417
 30
0.0
 11
-3228.214410567391
 21
1229.034288303417
 31
0.0
  0
LINE
  5
2A4
330
1F
100
AcDbEntity
  8
0-7__
  6
Continuous
 62
     7
370
     9
100
AcDbLine
 10
-3378.214410567391
 20
1214.034288303417
 30
0.0
 11
-3228.214410567391
 21
1214.034288303417
 31
0.0
  0
LINE
  5
2A5
330
1F
100
AcDbEntity
  8
0-7__
  6
Continuous
 62
     7
370
     9
100
AcDbLine
 10
-3378.214410567391
 20
1440.534288303417
 30
0.0
 11
-3378.214410567391
 21
1425.534288303417
 31
0.0
  0
LINE
  5
2A6
330
1F
100
AcDbEntity
  8
0-7__
  6
Continuous
 62
     7
370
     9
100
AcDbLine
 10
-3228.214410567391
 20
1440.534288303417
 30
0.0
 11
-3378.214410567391
 21
1440.534288303417
 31
0.0
  0
LINE
  5
2A7
330
1F
100
AcDbEntity
  8
0-7__
  6
Continuous
 62
     7
370
     9
100
AcDbLine
 10
-3228.214410567391
 20
1425.534288303417
 30
0.0
 11
-3228.214410567391
 21
1440.534288303417
 31
0.0
  0
LINE
  5
2A8
330
1F
100
AcDbEntity
  8
0-7__
  6
Continuous
 62
     7
370
     9
100
AcDbLine
 10
-3378.214410567391
 20
1425.534288303417
 30
0.0
 11
-3228.214410567391
 21
1425.534288303417
 31
0.0
  0
LINE
  5
2A9
330
1F
100
AcDbEntity
  8
0-7__
  6
Continuous
 62
     7
370
     9
100
AcDbLine
 10
-3378.214410567391
 20
1652.034288303417
 30
0.0
 11
-3378.214410567391
 21
1637.034288303417
 31
0.0
  0
LINE
  5
2AA
330
1F
100
AcDbEntity
  8
0-7__
  6
Continuous
 62
     7
370
     9
100
AcDbLine
 10
-3228.214410567391
 20
1652.034288303417
 30
0.0
 11
-3378.214410567391
 21
1652.034288303417
 31
0.0
  0
LINE
  5
2AB
330
1F
100
AcDbEntity
  8
0-7__
  6
Continuous
 62
     7
370
     9
100
AcDbLine
 10
-3228.214410567391
 20
1637.034288303417
 30
0.0
 11
-3228.214410567391
 21
1652.034288303417
 31
0.0
  0
LINE
  5
2AC
330
1F
100
AcDbEntity
  8
0-7__
  6
Continuous
 62
     7
370
     9
100
AcDbLine
 10
-3378.214410567391
 20
1637.034288303417
 30
0.0
 11
-3228.214410567391
 21
1637.034288303417
 31
0.0
  0
LINE
  5
2AD
330
1F
100
AcDbEntity
  8
0-7__
  6
Continuous
 62
     7
370
     9
100
AcDbLine
 10
-3378.214410567391
 20
1863.534288303418
 30
0.0
 11
-3378.214410567391
 21
1848.534288303418
 31
0.0
  0
LINE
  5
2AE
330
1F
100
AcDbEntity
  8
0-7__
  6
Continuous
 62
     7
370
     9
100
AcDbLine
 10
-3228.214410567391
 20
1863.534288303418
 30
0.0
 11
-3378.214410567391
 21
1863.534288303418
 31
0.0
  0
LINE
  5
2AF
330
1F
100
AcDbEntity
  8
0-7__
  6
Continuous
 62
     7
370
     9
100
AcDbLine
 10
-3228.214410567391
 20
1848.534288303418
 30
0.0
 11
-3228.214410567391
 21
1863.534288303418
 31
0.0
  0
LINE
  5
2B0
330
1F
100
AcDbEntity
  8
0-7__
  6
Continuous
 62
     7
370
     9
100
AcDbLine
 10
-3378.214410567391
 20
1848.534288303418
 30
0.0
 11
-3228.214410567391
 21
1848.534288303418
 31
0.0
  0
TEXT
  5
2B1
330
1F
100
AcDbEntity
  8
0-B_寸法
  6
Continuous
 62
     7
370
   211
100
AcDbText
 10
-3767.759472090369
 20
1332.534288303418
 30
0.0
 40
68.58
  1
3
 50
90.0
  7
ＭＳ ゴシック
100
AcDbText
  0
TEXT
  5
2B2
330
1F
100
AcDbEntity
  8
0-B_寸法
  6
Continuous
 62
     7
370
   211
100
AcDbText
 10
-3767.759472090369
 20
1544.034288303419
 30
0.0
 40
68.58
  1
3
 50
90.0
  7
ＭＳ ゴシック
100
AcDbText
  0
TEXT
  5
2B3
330
1F
100
AcDbEntity
  8
0-B_寸法
  6
Continuous
 62
     7
370
   211
100
AcDbText
 10
-3767.759472090369
 20
1755.534288303417
 30
0.0
 40
68.58
  1
3
 50
90.0
  7
ＭＳ ゴシック
100
AcDbText
  0
TEXT
  5
2B4
330
1F
100
AcDbEntity
  8
0-B_寸法
  6
Continuous
 62
     7
370
   211
100
AcDbText
 10
-3767.759472090369
 20
1967.034288303419
 30
0.0
 40
68.58
  1
3
 50
90.0
  7
ＭＳ ゴシック
100
AcDbText
  0
TEXT
  5
2B5
330
1F
100
AcDbEntity
  8
0-B_寸法
  6
Continuous
 62
     7
370
   211
100
AcDbText
 10
-3378.214410567393
 20
2216.724288303417
 30
0.0
 40
68.58
  1
416
 41
1.111111111111111
  7
ＭＳ ゴシック
100
AcDbText
  0
TEXT
  5
2B6
330
1F
100
AcDbEntity
  8
0-B_寸法
  6
Continuous
 62
     7
370
   211
100
AcDbText
 10
-3012.214410567394
 20
2216.724288303417
 30
0.0
 40
68.58
  1
2
  7
ＭＳ ゴシック
100
AcDbText
  0
TEXT
  5
2B7
330
1F
100
AcDbEntity
  8
0-B_寸法
  6
Continuous
 62
     7
370
   211
100
AcDbText
 10
-3639.214410567395
 20
2216.724288303417
 30
0.0
 40
68.58
  1
2
  7
ＭＳ ゴシック
100
AcDbText
  0
LINE
  5
2B8
330
1F
100
AcDbEntity
  8
0-B_寸法
  6
Continuous
 62
   120
370
     5
100
AcDbLine
 10
-3615.214410567394
 20
2189.034288303417
 30
0.0
 11
-2991.214410567394
 21
2189.034288303417
 31
0.0
  0
LINE
  5
2B9
330
1F
100
AcDbEntity
  8
0-2_扉
  6
Continuous
 62
    92
370
    13
100
AcDbLine
 10
-3615.214410567394
 20
1959.534288303419
 30
0.0
 11
-2991.214410567394
 21
1959.534288303419
 31
0.0
  0
LINE
  5
2BA
330
1F
100
AcDbEntity
  8
0-2_扉
  6
Continuous
 62
    92
370
    13
100
AcDbLine
 10
-2991.214410567394
 20
1118.034288303417
 30
0.0
 11
-3615.214410567394
 21
1118.034288303417
 31
0.0
  0
LINE
  5
2BB
330
1F
100
AcDbEntity
  8
0-2_扉
  6
Continuous
 62
    92
370
    13
100
AcDbLine
 10
-3615.214410567394
 20
1329.534288303419
 30
0.0
 11
-2991.214410567394
 21
1329.534288303419
 31
0.0
  0
LINE
  5
2BC
330
1F
100
AcDbEntity
  8
0-2_扉
  6
Continuous
 62
    92
370
    13
100
AcDbLine
 10
-3615.214410567394
 20
1325.034288303417
 30
0.0
 11
-2991.214410567394
 21
1325.034288303417
 31
0.0
  0
LINE
  5
2BD
330
1F
100
AcDbEntity
  8
0-2_扉
  6
Continuous
 62
    92
370
    13
100
AcDbLine
 10
-2991.214410567394
 20
1541.034288303418
 30
0.0
 11
-3615.214410567394
 21
1541.034288303418
 31
0.0
  0
LINE
  5
2BE
330
1F
100
AcDbEntity
  8
0-2_扉
  6
Continuous
 62
    92
370
    13
100
AcDbLine
 10
-2991.214410567394
 20
1536.534288303417
 30
0.0
 11
-3615.214410567394
 21
1536.534288303417
 31
0.0
  0
LINE
  5
2BF
330
1F
100
AcDbEntity
  8
0-2_扉
  6
Continuous
 62
    92
370
    13
100
AcDbLine
 10
-3615.214410567394
 20
1752.534288303417
 30
0.0
 11
-2991.214410567394
 21
1752.534288303417
 31
0.0
  0
LINE
  5
2C0
330
1F
100
AcDbEntity
  8
0-2_扉
  6
Continuous
 62
    92
370
    13
100
AcDbLine
 10
-3615.214410567394
 20
1748.034288303417
 30
0.0
 11
-2991.214410567394
 21
1748.034288303417
 31
0.0
  0
LINE
  5
2C1
330
1F
100
AcDbEntity
  8
0-B_寸法
  6
Continuous
 62
   120
370
     5
100
AcDbLine
 10
-2991.214410567394
 20
2189.034288303417
 30
0.0
 11
-2988.214410567393
 21
2189.034288303417
 31
0.0
  0
LINE
  5
2C2
330
1F
100
AcDbEntity
  8
0-B_寸法
  6
Continuous
 62
   120
370
     5
100
AcDbLine
 10
-2991.214410567394
 20
2189.034288303417
 30
0.0
 11
-2991.214410567394
 21
2039.034288303417
 31
0.0
  0
LWPOLYLINE
  5
2C3
330
1F
100
AcDbEntity
  8
0-B_寸法
  6
Continuous
 62
     7
370
     9
100
AcDbPolyline
 90
        4
 70
     1
 43
3.0
 10
-2989.714410567394
 20
2189.034288303417
 42
0.4142135623731
 10
-2991.214410567394
 20
2190.534288303417
 42
0.4142135623731
 10
-2992.714410567394
 20
2189.034288303417
 42
0.4142135623731
 10
-2991.214410567394
 20
2187.534288303417
 42
0.4142135623731
  0
LINE
  5
2C4
330
1F
100
AcDbEntity
  8
0-2_扉
  6
Continuous
 62
    92
370
    13
100
AcDbLine
 10
-2991.214410567394
 20
1325.034288303417
 30
0.0
 11
-2991.214410567394
 21
1118.034288303417
 31
0.0
  0
LINE
  5
2C5
330
1F
100
AcDbEntity
  8
0-2_扉
  6
Continuous
 62
    92
370
    13
100
AcDbLine
 10
-2991.214410567394
 20
1536.534288303417
 30
0.0
 11
-2991.214410567394
 21
1329.534288303419
 31
0.0
  0
LINE
  5
2C6
330
1F
100
AcDbEntity
  8
0-2_扉
  6
Continuous
 62
    92
370
    13
100
AcDbLine
 10
-2991.214410567394
 20
1959.534288303419
 30
0.0
 11
-2991.214410567394
 21
1752.534288303417
 31
0.0
  0
LINE
  5
2C7
330
1F
100
AcDbEntity
  8
0-2_扉
  6
Continuous
 62
    92
370
    13
100
AcDbLine
 10
-2991.214410567394
 20
1748.034288303417
 30
0.0
 11
-2991.214410567394
 21
1541.034288303418
 31
0.0
  0
LINE
  5
2C8
330
1F
100
AcDbEntity
  8
0-B_寸法
  6
Continuous
 62
   120
370
     5
100
AcDbLine
 10
-3615.214410567394
 20
2189.034288303417
 30
0.0
 11
-3615.214410567394
 21
2039.034288303417
 31
0.0
  0
LWPOLYLINE
  5
2C9
330
1F
100
AcDbEntity
  8
0-B_寸法
  6
Continuous
 62
     7
370
     9
100
AcDbPolyline
 90
        4
 70
     1
 43
3.0
 10
-3613.714410567394
 20
2189.034288303417
 42
0.4142135623731
 10
-3615.214410567394
 20
2190.534288303417
 42
0.4142135623731
 10
-3616.714410567394
 20
2189.034288303417
 42
0.4142135623731
 10
-3615.214410567394
 20
2187.534288303417
 42
0.4142135623731
  0
LINE
  5
2CA
330
1F
100
AcDbEntity
  8
0-B_寸法
  6
Continuous
 62
   120
370
     5
100
AcDbLine
 10
-3618.214410567393
 20
2189.034288303417
 30
0.0
 11
-3615.214410567394
 21
2189.034288303417
 31
0.0
  0
LINE
  5
2CB
330
1F
100
AcDbEntity
  8
0-2_扉
  6
Continuous
 62
    92
370
    13
100
AcDbLine
 10
-3615.214410567394
 20
1325.034288303417
 30
0.0
 11
-3615.214410567394
 21
1118.034288303417
 31
0.0
  0
LINE
  5
2CC
330
1F
100
AcDbEntity
  8
0-2_扉
  6
Continuous
 62
    92
370
    13
100
AcDbLine
 10
-3615.214410567394
 20
1536.534288303417
 30
0.0
 11
-3615.214410567394
 21
1329.534288303419
 31
0.0
  0
LINE
  5
2CD
330
1F
100
AcDbEntity
  8
0-2_扉
  6
Continuous
 62
    92
370
    13
100
AcDbLine
 10
-3615.214410567394
 20
1959.534288303419
 30
0.0
 11
-3615.214410567394
 21
1752.534288303417
 31
0.0
  0
LINE
  5
2CE
330
1F
100
AcDbEntity
  8
0-2_扉
  6
Continuous
 62
    92
370
    13
100
AcDbLine
 10
-3615.214410567394
 20
1748.034288303417
 30
0.0
 11
-3615.214410567394
 21
1541.034288303418
 31
0.0
  0
TEXT
  5
2CF
330
1F
100
AcDbEntity
  8
0-B_寸法
  6
Continuous
 62
     7
370
   211
100
AcDbText
 10
-4020.904410567393
 20
1391.034288303418
 30
0.0
 40
68.58
  1
664
 50
90.0
 41
1.111111111111111
  7
ＭＳ ゴシック
100
AcDbText
  0
LINE
  5
2D0
330
1F
100
AcDbEntity
  8
0-B_寸法
  6
Continuous
 62
   120
370
     5
100
AcDbLine
 10
-3993.214410567393
 20
1964.034288303417
 30
0.0
 11
-3843.214410567393
 21
1964.034288303417
 31
0.0
  0
LINE
  5
2D1
330
1F
100
AcDbEntity
  8
0-B_寸法
  6
Continuous
 62
   120
370
     5
100
AcDbLine
 10
-3993.214410567393
 20
968.0342883034183
 30
0.0
 11
-3843.214410567393
 21
968.0342883034183
 31
0.0
  0
LWPOLYLINE
  5
2D2
330
1F
100
AcDbEntity
  8
0-B_寸法
  6
Continuous
 62
     7
370
     9
100
AcDbPolyline
 90
        4
 70
     1
 43
3.0
 10
-3991.714410567393
 20
1964.034288303417
 42
0.4142135623731
 10
-3993.214410567393
 20
1965.534288303417
 42
0.4142135623731
 10
-3994.714410567394
 20
1964.034288303417
 42
0.4142135623731
 10
-3993.214410567393
 20
1962.534288303417
 42
0.4142135623731
  0
LWPOLYLINE
  5
2D3
330
1F
100
AcDbEntity
  8
0-B_寸法
  6
Continuous
 62
     7
370
     9
100
AcDbPolyline
 90
        4
 70
     1
 43
3.0
 10
-3991.714410567393
 20
968.0342883034183
 42
0.4142135623731
 10
-3993.214410567393
 20
969.5342883034182
 42
0.4142135623731
 10
-3994.714410567394
 20
968.0342883034183
 42
0.4142135623731
 10
-3993.214410567393
 20
966.5342883034184
 42
0.4142135623731
  0
LINE
  5
2D4
330
1F
100
AcDbEntity
  8
0-B_寸法
  6
Continuous
 62
   120
370
     5
100
AcDbLine
 10
-3993.214410567393
 20
968.0342883034183
 30
0.0
 11
-3993.214410567393
 21
1964.034288303417
 31
0.0
  0
LINE
  5
2D5
330
1F
100
AcDbEntity
  8
0-B_寸法
  6
Continuous
 62
   120
370
     5
100
AcDbLine
 10
-3843.214410567393
 20
1964.034288303417
 30
0.0
 11
-3693.214410567393
 21
1964.034288303417
 31
0.0
  0
LWPOLYLINE
  5
2D6
330
1F
100
AcDbEntity
  8
0-B_寸法
  6
Continuous
 62
     7
370
     9
100
AcDbPolyline
 90
        4
 70
     1
 43
3.0
 10
-3841.714410567393
 20
1964.034288303417
 42
0.4142135623731
 10
-3843.214410567393
 20
1965.534288303417
 42
0.4142135623731
 10
-3844.714410567394
 20
1964.034288303417
 42
0.4142135623731
 10
-3843.214410567393
 20
1962.534288303417
 42
0.4142135623731
  0
LINE
  5
2D7
330
1F
100
AcDbEntity
  8
0-B_寸法
  6
Continuous
 62
   120
370
     5
100
AcDbLine
 10
-3843.214410567393
 20
1959.534288303419
 30
0.0
 11
-3843.214410567393
 21
1964.034288303417
 31
0.0
  0
TEXT
  5
2D8
330
1F
100
AcDbEntity
  8
0-B_寸法
  6
Continuous
 62
     7
370
   211
100
AcDbText
 10
-3870.904410567393
 20
1781.034288303418
 30
0.0
 40
68.58
  1
138
 50
90.0
 41
1.111111111111111
  7
ＭＳ ゴシック
100
AcDbText
  0
LINE
  5
2D9
330
1F
100
AcDbEntity
  8
0-B_寸法
  6
Continuous
 62
   120
370
     5
100
AcDbLine
 10
-3843.214410567393
 20
1959.534288303419
 30
0.0
 11
-3693.214410567393
 21
1959.534288303419
 31
0.0
  0
LWPOLYLINE
  5
2DA
330
1F
100
AcDbEntity
  8
0-B_寸法
  6
Continuous
 62
     7
370
     9
100
AcDbPolyline
 90
        4
 70
     1
 43
3.0
 10
-3841.714410567393
 20
1959.534288303419
 42
0.4142135623731
 10
-3843.214410567393
 20
1961.034288303419
 42
0.4142135623731
 10
-3844.714410567394
 20
1959.534288303419
 42
0.4142135623731
 10
-3843.214410567393
 20
1958.034288303419
 42
0.4142135623731
  0
LINE
  5
2DB
330
1F
100
AcDbEntity
  8
0-B_寸法
  6
Continuous
 62
   120
370
     5
100
AcDbLine
 10
-3843.214410567393
 20
1752.534288303417
 30
0.0
 11
-3843.214410567393
 21
1959.534288303419
 31
0.0
  0
LINE
  5
2DC
330
1F
100
AcDbEntity
  8
0-B_寸法
  6
Continuous
 62
   120
370
     5
100
AcDbLine
 10
-3843.214410567393
 20
1752.534288303417
 30
0.0
 11
-3693.214410567393
 21
1752.534288303417
 31
0.0
  0
LWPOLYLINE
  5
2DD
330
1F
100
AcDbEntity
  8
0-B_寸法
  6
Continuous
 62
     7
370
     9
100
AcDbPolyline
 90
        4
 70
     1
 43
3.0
 10
-3841.714410567393
 20
1752.534288303417
 42
0.4142135623731
 10
-3843.214410567393
 20
1754.034288303417
 42
0.4142135623731
 10
-3844.714410567394
 20
1752.534288303417
 42
0.4142135623731
 10
-3843.214410567393
 20
1751.034288303417
 42
0.4142135623731
  0
LINE
  5
2DE
330
1F
100
AcDbEntity
  8
0-B_寸法
  6
Continuous
 62
   120
370
     5
100
AcDbLine
 10
-3843.214410567393
 20
1748.034288303417
 30
0.0
 11
-3843.214410567393
 21
1752.534288303417
 31
0.0
  0
TEXT
  5
2DF
330
1F
100
AcDbEntity
  8
0-B_寸法
  6
Continuous
 62
     7
370
   211
100
AcDbText
 10
-3870.904410567393
 20
1569.534288303419
 30
0.0
 40
68.58
  1
138
 50
90.0
 41
1.111111111111111
  7
ＭＳ ゴシック
100
AcDbText
  0
LINE
  5
2E0
330
1F
100
AcDbEntity
  8
0-B_寸法
  6
Continuous
 62
   120
370
     5
100
AcDbLine
 10
-3843.214410567393
 20
1748.034288303417
 30
0.0
 11
-3693.214410567393
 21
1748.034288303417
 31
0.0
  0
LWPOLYLINE
  5
2E1
330
1F
100
AcDbEntity
  8
0-B_寸法
  6
Continuous
 62
     7
370
     9
100
AcDbPolyline
 90
        4
 70
     1
 43
3.0
 10
-3841.714410567393
 20
1748.034288303417
 42
0.4142135623731
 10
-3843.214410567393
 20
1749.534288303417
 42
0.4142135623731
 10
-3844.714410567394
 20
1748.034288303417
 42
0.4142135623731
 10
-3843.214410567393
 20
1746.534288303417
 42
0.4142135623731
  0
LINE
  5
2E2
330
1F
100
AcDbEntity
  8
0-B_寸法
  6
Continuous
 62
   120
370
     5
100
AcDbLine
 10
-3843.214410567393
 20
1541.034288303418
 30
0.0
 11
-3843.214410567393
 21
1748.034288303417
 31
0.0
  0
LINE
  5
2E3
330
1F
100
AcDbEntity
  8
0-B_寸法
  6
Continuous
 62
   120
370
     5
100
AcDbLine
 10
-3843.214410567393
 20
1541.034288303418
 30
0.0
 11
-3693.214410567393
 21
1541.034288303418
 31
0.0
  0
LWPOLYLINE
  5
2E4
330
1F
100
AcDbEntity
  8
0-B_寸法
  6
Continuous
 62
     7
370
     9
100
AcDbPolyline
 90
        4
 70
     1
 43
3.0
 10
-3841.714410567393
 20
1541.034288303418
 42
0.4142135623731
 10
-3843.214410567393
 20
1542.534288303418
 42
0.4142135623731
 10
-3844.714410567394
 20
1541.034288303418
 42
0.4142135623731
 10
-3843.214410567393
 20
1539.534288303418
 42
0.4142135623731
  0
LINE
  5
2E5
330
1F
100
AcDbEntity
  8
0-B_寸法
  6
Continuous
 62
   120
370
     5
100
AcDbLine
 10
-3843.214410567393
 20
1536.534288303417
 30
0.0
 11
-3843.214410567393
 21
1541.034288303418
 31
0.0
  0
TEXT
  5
2E6
330
1F
100
AcDbEntity
  8
0-B_寸法
  6
Continuous
 62
     7
370
   211
100
AcDbText
 10
-3870.904410567393
 20
1358.034288303417
 30
0.0
 40
68.58
  1
138
 50
90.0
 41
1.111111111111111
  7
ＭＳ ゴシック
100
AcDbText
  0
LINE
  5
2E7
330
1F
100
AcDbEntity
  8
0-B_寸法
  6
Continuous
 62
   120
370
     5
100
AcDbLine
 10
-3843.214410567393
 20
1536.534288303417
 30
0.0
 11
-3693.214410567393
 21
1536.534288303417
 31
0.0
  0
LWPOLYLINE
  5
2E8
330
1F
100
AcDbEntity
  8
0-B_寸法
  6
Continuous
 62
     7
370
     9
100
AcDbPolyline
 90
        4
 70
     1
 43
3.0
 10
-3841.714410567393
 20
1536.534288303417
 42
0.4142135623731
 10
-3843.214410567393
 20
1538.034288303417
 42
0.4142135623731
 10
-3844.714410567394
 20
1536.534288303417
 42
0.4142135623731
 10
-3843.214410567393
 20
1535.034288303417
 42
0.4142135623731
  0
LINE
  5
2E9
330
1F
100
AcDbEntity
  8
0-B_寸法
  6
Continuous
 62
   120
370
     5
100
AcDbLine
 10
-3843.214410567393
 20
1329.534288303419
 30
0.0
 11
-3843.214410567393
 21
1536.534288303417
 31
0.0
  0
LINE
  5
2EA
330
1F
100
AcDbEntity
  8
0-B_寸法
  6
Continuous
 62
   120
370
     5
100
AcDbLine
 10
-3843.214410567393
 20
1329.534288303419
 30
0.0
 11
-3693.214410567393
 21
1329.534288303419
 31
0.0
  0
LWPOLYLINE
  5
2EB
330
1F
100
AcDbEntity
  8
0-B_寸法
  6
Continuous
 62
     7
370
     9
100
AcDbPolyline
 90
        4
 70
     1
 43
3.0
 10
-3841.714410567393
 20
1329.534288303419
 42
0.4142135623731
 10
-3843.214410567393
 20
1331.034288303419
 42
0.4142135623731
 10
-3844.714410567394
 20
1329.534288303419
 42
0.4142135623731
 10
-3843.214410567393
 20
1328.034288303419
 42
0.4142135623731
  0
LINE
  5
2EC
330
1F
100
AcDbEntity
  8
0-B_寸法
  6
Continuous
 62
   120
370
     5
100
AcDbLine
 10
-3843.214410567393
 20
1325.034288303417
 30
0.0
 11
-3843.214410567393
 21
1329.534288303419
 31
0.0
  0
TEXT
  5
2ED
330
1F
100
AcDbEntity
  8
0-B_寸法
  6
Continuous
 62
     7
370
   211
100
AcDbText
 10
-3870.904410567393
 20
1146.534288303417
 30
0.0
 40
68.58
  1
138
 50
90.0
 41
1.111111111111111
  7
ＭＳ ゴシック
100
AcDbText
  0
LINE
  5
2EE
330
1F
100
AcDbEntity
  8
0-B_寸法
  6
Continuous
 62
   120
370
     5
100
AcDbLine
 10
-3843.214410567393
 20
1325.034288303417
 30
0.0
 11
-3693.214410567393
 21
1325.034288303417
 31
0.0
  0
LWPOLYLINE
  5
2EF
330
1F
100
AcDbEntity
  8
0-B_寸法
  6
Continuous
 62
     7
370
     9
100
AcDbPolyline
 90
        4
 70
     1
 43
3.0
 10
-3841.714410567393
 20
1325.034288303417
 42
0.4142135623731
 10
-3843.214410567393
 20
1326.534288303417
 42
0.4142135623731
 10
-3844.714410567394
 20
1325.034288303417
 42
0.4142135623731
 10
-3843.214410567393
 20
1323.534288303417
 42
0.4142135623731
  0
LINE
  5
2F0
330
1F
100
AcDbEntity
  8
0-B_寸法
  6
Continuous
 62
   120
370
     5
100
AcDbLine
 10
-3843.214410567393
 20
1118.034288303418
 30
0.0
 11
-3843.214410567393
 21
1325.034288303417
 31
0.0
  0
TEXT
  5
2F1
330
1F
100
AcDbEntity
  8
0-B_寸法
  6
Continuous
 62
     7
370
   211
100
AcDbText
 10
-3870.904410567393
 20
968.0342883034247
 30
0.0
 40
68.58
  1
100
 50
90.0
 41
1.111111111111007
  7
ＭＳ ゴシック
100
AcDbText
  0
LINE
  5
2F2
330
1F
100
AcDbEntity
  8
0-B_寸法
  6
Continuous
 62
   120
370
     5
100
AcDbLine
 10
-3843.214410567393
 20
1118.034288303418
 30
0.0
 11
-3693.214410567393
 21
1118.034288303418
 31
0.0
  0
LINE
  5
2F3
330
1F
100
AcDbEntity
  8
0-B_寸法
  6
Continuous
 62
   120
370
     5
100
AcDbLine
 10
-3843.214410567393
 20
968.0342883034183
 30
0.0
 11
-3693.214410567393
 21
968.0342883034183
 31
0.0
  0
LWPOLYLINE
  5
2F4
330
1F
100
AcDbEntity
  8
0-B_寸法
  6
Continuous
 62
     7
370
     9
100
AcDbPolyline
 90
        4
 70
     1
 43
3.0
 10
-3841.714410567393
 20
1118.034288303418
 42
0.4142135623731
 10
-3843.214410567393
 20
1119.534288303418
 42
0.4142135623731
 10
-3844.714410567394
 20
1118.034288303418
 42
0.4142135623731
 10
-3843.214410567393
 20
1116.534288303418
 42
0.4142135623731
  0
LWPOLYLINE
  5
2F5
330
1F
100
AcDbEntity
  8
0-B_寸法
  6
Continuous
 62
     7
370
     9
100
AcDbPolyline
 90
        4
 70
     1
 43
3.0
 10
-3841.714410567393
 20
968.0342883034183
 42
0.4142135623731
 10
-3843.214410567393
 20
969.5342883034182
 42
0.4142135623731
 10
-3844.714410567394
 20
968.0342883034183
 42
0.4142135623731
 10
-3843.214410567393
 20
966.5342883034184
 42
0.4142135623731
  0
LINE
  5
2F6
330
1F
100
AcDbEntity
  8
0-B_寸法
  6
Continuous
 62
   120
370
     5
100
AcDbLine
 10
-3843.214410567393
 20
968.0342883034183
 30
0.0
 11
-3843.214410567393
 21
1118.034288303418
 31
0.0
  0
LINE
  5
2F7
330
1F
100
AcDbEntity
  8
0-B_寸法
  6
Continuous
 62
   120
370
     5
100
AcDbLine
 10
-2988.214410567393
 20
2189.034288303417
 30
0.0
 11
-2988.214410567393
 21
2039.034288303417
 31
0.0
  0
LWPOLYLINE
  5
2F8
330
1F
100
AcDbEntity
  8
0-B_寸法
  6
Continuous
 62
     7
370
     9
100
AcDbPolyline
 90
        4
 70
     1
 43
3.0
 10
-2986.714410567393
 20
2189.034288303417
 42
0.4142135623731
 10
-2988.214410567393
 20
2190.534288303417
 42
0.4142135623731
 10
-2989.714410567393
 20
2189.034288303417
 42
0.4142135623731
 10
-2988.214410567393
 20
2187.534288303417
 42
0.4142135623731
  0
LINE
  5
2F9
330
1F
100
AcDbEntity
  8
0-B_寸法
  6
Continuous
 62
   120
370
     5
100
AcDbLine
 10
-3618.214410567393
 20
2189.034288303417
 30
0.0
 11
-3618.214410567393
 21
2039.034288303417
 31
0.0
  0
LWPOLYLINE
  5
2FA
330
1F
100
AcDbEntity
  8
0-B_寸法
  6
Continuous
 62
     7
370
     9
100
AcDbPolyline
 90
        4
 70
     1
 43
3.0
 10
-3616.714410567393
 20
2189.034288303417
 42
0.4142135623731
 10
-3618.214410567393
 20
2190.534288303417
 42
0.4142135623731
 10
-3619.714410567393
 20
2189.034288303417
 42
0.4142135623731
 10
-3618.214410567393
 20
2187.534288303417
 42
0.4142135623731
  0
LINE
  5
2FB
330
1F
100
AcDbEntity
  8
0-0_補助線
  6
JWW_HOJO
 62
   120
370
     5
100
AcDbLine
 10
-2913.214410567393
 20
2039.034288303417
 30
0.0
 11
-3693.214410567393
 21
2039.034288303417
 31
0.0
  0
LINE
  5
2FC
330
1F
100
AcDbEntity
  8
0-0_補助線
  6
JWW_HOJO
 62
   120
370
     5
100
AcDbLine
 10
-2913.214410567393
 20
893.0342883034183
 30
0.0
 11
-2913.214410567393
 21
2039.034288303417
 31
0.0
  0
LINE
  5
2FD
330
1F
100
AcDbEntity
  8
0-0_補助線
  6
JWW_HOJO
 62
   120
370
     5
100
AcDbLine
 10
-3693.214410567393
 20
893.0342883034183
 30
0.0
 11
-2913.214410567393
 21
893.0342883034183
 31
0.0
  0
LINE
  5
2FE
330
1F
100
AcDbEntity
  8
0-0_補助線
  6
JWW_HOJO
 62
   120
370
     5
100
AcDbLine
 10
-3693.214410567393
 20
2039.034288303417
 30
0.0
 11
-3693.214410567393
 21
893.0342883034183
 31
0.0
  0
LINE
  5
2FF
330
1F
100
AcDbEntity
  8
0-1_本体
  6
Continuous
 62
     7
370
     9
100
AcDbLine
 10
-3618.214410567393
 20
968.0342883034183
 30
0.0
 11
-2988.214410567393
 21
968.0342883034183
 31
0.0
  0
LINE
  5
300
330
1F
100
AcDbEntity
  8
0-1_本体
  6
Continuous
 62
     7
370
     9
100
AcDbLine
 10
-2988.214410567393
 20
968.0342883034183
 30
0.0
 11
-2988.214410567393
 21
1964.034288303417
 31
0.0
  0
LINE
  5
301
330
1F
100
AcDbEntity
  8
0-1_本体
  6
Continuous
 62
     7
370
     9
100
AcDbLine
 10
-2988.214410567393
 20
1964.034288303417
 30
0.0
 11
-3618.214410567393
 21
1964.034288303417
 31
0.0
  0
LINE
  5
302
330
1F
100
AcDbEntity
  8
0-1_本体
  6
Continuous
 62
     7
370
     9
100
AcDbLine
 10
-3618.214410567393
 20
1964.034288303417
 30
0.0
 11
-3618.214410567393
 21
968.0342883034183
 31
0.0
  0
LINE
  5
303
330
1F
100
AcDbEntity
  8
0-1_本体
  6
JWW_DASHED1
 62
     7
370
     9
100
AcDbLine
 10
-3594.964410567392
 20
1964.034288303417
 30
0.0
 11
-3594.964410567392
 21
1118.034288303417
 31
0.0
  0
LINE
  5
304
330
1F
100
AcDbEntity
  8
0-1_本体
  6
JWW_DASHED1
 62
     7
370
     9
100
AcDbLine
 10
-3011.464410567392
 20
1118.034288303417
 30
0.0
 11
-3011.464410567392
 21
1964.034288303417
 31
0.0
  0
LINE
  5
305
330
1F
100
AcDbEntity
  8
0-1_本体
  6
Continuous
 62
     7
370
     9
100
AcDbLine
 10
-3594.964410567392
 20
1118.034288303417
 30
0.0
 11
-3594.964410567392
 21
968.0342883034183
 31
0.0
  0
LINE
  5
306
330
1F
100
AcDbEntity
  8
0-1_本体
  6
Continuous
 62
     7
370
     9
100
AcDbLine
 10
-3011.464410567392
 20
1118.034288303417
 30
0.0
 11
-3011.464410567392
 21
968.0342883034183
 31
0.0
  0
LINE
  5
307
330
1F
100
AcDbEntity
  8
0-1_本体
  6
JWW_DASHED1
 62
     7
370
     9
100
AcDbLine
 10
-3594.964410567392
 20
1141.284288303417
 30
0.0
 11
-3011.464410567392
 21
1141.284288303417
 31
0.0
  0
LINE
  5
308
330
1F
100
AcDbEntity
  8
0-1_本体
  6
JWW_DASHED1
 62
     7
370
     9
100
AcDbLine
 10
-3011.464410567392
 20
1940.784288303419
 30
0.0
 11
-3594.964410567392
 21
1940.784288303419
 31
0.0
  0
TEXT
  5
309
330
1F
100
AcDbEntity
  8
0-B_寸法
  6
Continuous
 62
     7
370
   211
100
AcDbText
 10
2718.995910936808
 20
-2307.810118749018
 30
0.0
 40
68.58
  1
18
 41
1.083333333333333
  7
ＭＳ ゴシック
100
AcDbText
  0
LINE
  5
30A
330
1F
100
AcDbEntity
  8
0-2_扉
  6
Continuous
 62
    40
370
    15
100
AcDbLine
 10
2829.214163127569
 20
-796.5001187490191
 30
0.0
 11
2856.21416312757
 21
-796.5001187490191
 31
0.0
  0
LINE
  5
30B
330
1F
100
AcDbEntity
  8
0-2_扉
  6
Continuous
 62
    40
370
    15
100
AcDbLine
 10
2829.214163127569
 20
-1003.500118749018
 30
0.0
 11
2829.214163127569
 21
-796.5001187490191
 31
0.0
  0
LINE
  5
30C
330
1F
100
AcDbEntity
  8
0-2_扉
  6
Continuous
 62
    40
370
    15
100
AcDbLine
 10
2829.214163127569
 20
-1008.000118749019
 30
0.0
 11
2856.21416312757
 21
-1008.000118749019
 31
0.0
  0
LINE
  5
30D
330
1F
100
AcDbEntity
  8
0-2_扉
  6
Continuous
 62
    40
370
    15
100
AcDbLine
 10
2829.214163127569
 20
-1215.000118749019
 30
0.0
 11
2829.214163127569
 21
-1008.000118749019
 31
0.0
  0
LINE
  5
30E
330
1F
100
AcDbEntity
  8
0-2_扉
  6
Continuous
 62
    40
370
    15
100
AcDbLine
 10
2829.214163127569
 20
-1219.500118749018
 30
0.0
 11
2856.21416312757
 21
-1219.500118749018
 31
0.0
  0
LINE
  5
30F
330
1F
100
AcDbEntity
  8
0-2_扉
  6
Continuous
 62
    40
370
    15
100
AcDbLine
 10
2829.214163127569
 20
-1512.750118749019
 30
0.0
 11
2829.214163127569
 21
-1219.500118749018
 31
0.0
  0
LINE
  5
310
330
1F
100
AcDbEntity
  8
0-2_扉
  6
Continuous
 62
    40
370
    15
100
AcDbLine
 10
2829.214163127569
 20
-1517.250118749018
 30
0.0
 11
2856.21416312757
 21
-1517.250118749018
 31
0.0
  0
LINE
  5
311
330
1F
100
AcDbEntity
  8
0-2_扉
  6
Continuous
 62
    40
370
    15
100
AcDbLine
 10
2829.214163127569
 20
-1810.500118749018
 30
0.0
 11
2829.214163127569
 21
-1517.250118749018
 31
0.0
  0
LINE
  5
312
330
1F
100
AcDbEntity
  8
0-2_扉
  6
Continuous
 62
    40
370
    15
100
AcDbLine
 10
2829.214163127569
 20
-1810.500118749018
 30
0.0
 11
2856.21416312757
 21
-1810.500118749018
 31
0.0
  0
LINE
  5
313
330
1F
100
AcDbEntity
  8
0-2_扉
  6
Continuous
 62
    40
370
    15
100
AcDbLine
 10
2829.214163127569
 20
-1003.500118749018
 30
0.0
 11
2856.21416312757
 21
-1003.500118749018
 31
0.0
  0
LINE
  5
314
330
1F
100
AcDbEntity
  8
0-2_扉
  6
Continuous
 62
    40
370
    15
100
AcDbLine
 10
2829.214163127569
 20
-1512.750118749019
 30
0.0
 11
2856.21416312757
 21
-1512.750118749019
 31
0.0
  0
LINE
  5
315
330
1F
100
AcDbEntity
  8
0-2_扉
  6
Continuous
 62
    40
370
    15
100
AcDbLine
 10
2829.214163127569
 20
-1215.000118749019
 30
0.0
 11
2856.21416312757
 21
-1215.000118749019
 31
0.0
  0
LINE
  5
316
330
1F
100
AcDbEntity
  8
0-B_寸法
  6
Continuous
 62
   120
370
     5
100
AcDbLine
 10
2829.214163127569
 20
-2335.500118749018
 30
0.0
 11
2829.214163127569
 21
-2035.500118749018
 31
0.0
  0
LWPOLYLINE
  5
317
330
1F
100
AcDbEntity
  8
0-B_寸法
  6
Continuous
 62
     7
370
     9
100
AcDbPolyline
 90
        4
 70
     1
 43
3.0
 10
2830.714163127569
 20
-2335.500118749018
 42
0.4142135623731
 10
2829.214163127569
 20
-2334.000118749018
 42
0.4142135623731
 10
2827.714163127569
 20
-2335.500118749018
 42
0.4142135623731
 10
2829.214163127569
 20
-2337.000118749017
 42
0.4142135623731
  0
LINE
  5
318
330
1F
100
AcDbEntity
  8
0-B_寸法
  6
Continuous
 62
   120
370
     5
100
AcDbLine
 10
2829.214163127569
 20
-2335.500118749018
 30
0.0
 11
2856.214163127569
 21
-2335.500118749018
 31
0.0
  0
TEXT
  5
319
330
1F
100
AcDbEntity
  8
0-B_寸法
  6
Continuous
 62
     7
370
   211
100
AcDbText
 10
3087.21416312757
 20
-2307.810118749018
 30
0.0
 40
68.58
  1
408
 41
1.111111111111111
  7
ＭＳ ゴシック
100
AcDbText
  0
LINE
  5
31A
330
1F
100
AcDbEntity
  8
0-2_扉
  6
Continuous
 62
    40
370
    15
100
AcDbLine
 10
2856.21416312757
 20
-1003.500118749018
 30
0.0
 11
2856.21416312757
 21
-796.5001187490191
 31
0.0
  0
LINE
  5
31B
330
1F
100
AcDbEntity
  8
0-2_扉
  6
Continuous
 62
    40
370
    15
100
AcDbLine
 10
2856.21416312757
 20
-1215.000118749019
 30
0.0
 11
2856.21416312757
 21
-1008.000118749019
 31
0.0
  0
LINE
  5
31C
330
1F
100
AcDbEntity
  8
0-2_扉
  6
Continuous
 62
    40
370
    15
100
AcDbLine
 10
2856.21416312757
 20
-1512.750118749019
 30
0.0
 11
2856.21416312757
 21
-1219.500118749018
 31
0.0
  0
LINE
  5
31D
330
1F
100
AcDbEntity
  8
0-2_扉
  6
Continuous
 62
    40
370
    15
100
AcDbLine
 10
2856.21416312757
 20
-1810.500118749018
 30
0.0
 11
2856.21416312757
 21
-1517.250118749018
 31
0.0
  0
TEXT
  5
31E
330
1F
100
AcDbEntity
  8
0-B_寸法
  6
Continuous
 62
     7
370
   211
100
AcDbText
 10
2703.624708128373
 20
-1509.750118749019
 30
0.0
 40
68.58
  1
3
 50
90.0
  7
ＭＳ ゴシック
100
AcDbText
  0
TEXT
  5
31F
330
1F
100
AcDbEntity
  8
0-B_寸法
  6
Continuous
 62
     7
370
   211
100
AcDbText
 10
2703.624708128373
 20
-1212.000118749018
 30
0.0
 40
68.58
  1
3
 50
90.0
  7
ＭＳ ゴシック
100
AcDbText
  0
TEXT
  5
320
330
1F
100
AcDbEntity
  8
0-B_寸法
  6
Continuous
 62
     7
370
   211
100
AcDbText
 10
2703.624708128373
 20
-1000.500118749019
 30
0.0
 40
68.58
  1
3
 50
90.0
  7
ＭＳ ゴシック
100
AcDbText
  0
TEXT
  5
321
330
1F
100
AcDbEntity
  8
0-B_寸法
  6
Continuous
 62
     7
370
   211
100
AcDbText
 10
2703.624708128373
 20
-789.0001187490184
 30
0.0
 40
68.58
  1
3
 50
90.0
  7
ＭＳ ゴシック
100
AcDbText
  0
TEXT
  5
322
330
1F
100
AcDbEntity
  8
0-B_寸法
  6
Continuous
 62
     7
370
   211
100
AcDbText
 10
2573.524163127569
 20
-1791.375118749018
 30
0.0
 40
68.58
  1
195.5
 50
90.0
 41
1.133333333333333
  7
ＭＳ ゴシック
100
AcDbText
  0
LINE
  5
323
330
1F
100
AcDbEntity
  8
0-B_寸法
  6
Continuous
 62
   120
370
     5
100
AcDbLine
 10
2601.214163127569
 20
-1810.500118749018
 30
0.0
 11
2751.214163127569
 21
-1810.500118749018
 31
0.0
  0
LWPOLYLINE
  5
324
330
1F
100
AcDbEntity
  8
0-B_寸法
  6
Continuous
 62
     7
370
     9
100
AcDbPolyline
 90
        4
 70
     1
 43
3.0
 10
2602.714163127569
 20
-1810.500118749018
 42
0.4142135623731
 10
2601.214163127569
 20
-1809.000118749018
 42
0.4142135623731
 10
2599.714163127569
 20
-1810.500118749018
 42
0.4142135623731
 10
2601.214163127569
 20
-1812.000118749018
 42
0.4142135623731
  0
LINE
  5
325
330
1F
100
AcDbEntity
  8
0-B_寸法
  6
Continuous
 62
   120
370
     5
100
AcDbLine
 10
2601.214163127569
 20
-1517.250118749018
 30
0.0
 11
2601.214163127569
 21
-1810.500118749018
 31
0.0
  0
LINE
  5
326
330
1F
100
AcDbEntity
  8
0-B_寸法
  6
Continuous
 62
   120
370
     5
100
AcDbLine
 10
2601.214163127569
 20
-1517.250118749018
 30
0.0
 11
2751.214163127569
 21
-1517.250118749018
 31
0.0
  0
LWPOLYLINE
  5
327
330
1F
100
AcDbEntity
  8
0-B_寸法
  6
Continuous
 62
     7
370
     9
100
AcDbPolyline
 90
        4
 70
     1
 43
3.0
 10
2602.714163127569
 20
-1517.250118749018
 42
0.4142135623731
 10
2601.214163127569
 20
-1515.750118749018
 42
0.4142135623731
 10
2599.714163127569
 20
-1517.250118749018
 42
0.4142135623731
 10
2601.214163127569
 20
-1518.750118749018
 42
0.4142135623731
  0
LINE
  5
328
330
1F
100
AcDbEntity
  8
0-B_寸法
  6
Continuous
 62
   120
370
     5
100
AcDbLine
 10
2601.214163127569
 20
-1512.750118749019
 30
0.0
 11
2601.214163127569
 21
-1517.250118749018
 31
0.0
  0
TEXT
  5
329
330
1F
100
AcDbEntity
  8
0-B_寸法
  6
Continuous
 62
     7
370
   211
100
AcDbText
 10
2573.524163127569
 20
-1493.625118749018
 30
0.0
 40
68.58
  1
195.5
 50
90.0
 41
1.133333333333333
  7
ＭＳ ゴシック
100
AcDbText
  0
LINE
  5
32A
330
1F
100
AcDbEntity
  8
0-B_寸法
  6
Continuous
 62
   120
370
     5
100
AcDbLine
 10
2601.214163127569
 20
-1512.750118749019
 30
0.0
 11
2751.214163127569
 21
-1512.750118749019
 31
0.0
  0
LWPOLYLINE
  5
32B
330
1F
100
AcDbEntity
  8
0-B_寸法
  6
Continuous
 62
     7
370
     9
100
AcDbPolyline
 90
        4
 70
     1
 43
3.0
 10
2602.714163127569
 20
-1512.750118749019
 42
0.4142135623731
 10
2601.214163127569
 20
-1511.250118749019
 42
0.4142135623731
 10
2599.714163127569
 20
-1512.750118749019
 42
0.4142135623731
 10
2601.214163127569
 20
-1514.250118749019
 42
0.4142135623731
  0
LINE
  5
32C
330
1F
100
AcDbEntity
  8
0-B_寸法
  6
Continuous
 62
   120
370
     5
100
AcDbLine
 10
2601.214163127569
 20
-1219.500118749018
 30
0.0
 11
2601.214163127569
 21
-1512.750118749019
 31
0.0
  0
LINE
  5
32D
330
1F
100
AcDbEntity
  8
0-B_寸法
  6
Continuous
 62
   120
370
     5
100
AcDbLine
 10
2601.214163127569
 20
-1219.500118749018
 30
0.0
 11
2751.214163127569
 21
-1219.500118749018
 31
0.0
  0
LWPOLYLINE
  5
32E
330
1F
100
AcDbEntity
  8
0-B_寸法
  6
Continuous
 62
     7
370
     9
100
AcDbPolyline
 90
        4
 70
     1
 43
3.0
 10
2602.714163127569
 20
-1219.500118749018
 42
0.4142135623731
 10
2601.214163127569
 20
-1218.000118749018
 42
0.4142135623731
 10
2599.714163127569
 20
-1219.500118749018
 42
0.4142135623731
 10
2601.214163127569
 20
-1221.000118749018
 42
0.4142135623731
  0
LINE
  5
32F
330
1F
100
AcDbEntity
  8
0-B_寸法
  6
Continuous
 62
   120
370
     5
100
AcDbLine
 10
2601.214163127569
 20
-1215.000118749019
 30
0.0
 11
2601.214163127569
 21
-1219.500118749018
 31
0.0
  0
TEXT
  5
330
330
1F
100
AcDbEntity
  8
0-B_寸法
  6
Continuous
 62
     7
370
   211
100
AcDbText
 10
2573.524163127569
 20
-1186.500118749019
 30
0.0
 40
68.58
  1
138
 50
90.0
 41
1.111111111111111
  7
ＭＳ ゴシック
100
AcDbText
  0
LINE
  5
331
330
1F
100
AcDbEntity
  8
0-B_寸法
  6
Continuous
 62
   120
370
     5
100
AcDbLine
 10
2601.214163127569
 20
-1215.000118749019
 30
0.0
 11
2751.214163127569
 21
-1215.000118749019
 31
0.0
  0
LWPOLYLINE
  5
332
330
1F
100
AcDbEntity
  8
0-B_寸法
  6
Continuous
 62
     7
370
     9
100
AcDbPolyline
 90
        4
 70
     1
 43
3.0
 10
2602.714163127569
 20
-1215.000118749019
 42
0.4142135623731
 10
2601.214163127569
 20
-1213.500118749019
 42
0.4142135623731
 10
2599.714163127569
 20
-1215.000118749019
 42
0.4142135623731
 10
2601.214163127569
 20
-1216.500118749018
 42
0.4142135623731
  0
LINE
  5
333
330
1F
100
AcDbEntity
  8
0-B_寸法
  6
Continuous
 62
   120
370
     5
100
AcDbLine
 10
2601.214163127569
 20
-1008.000118749019
 30
0.0
 11
2601.214163127569
 21
-1215.000118749019
 31
0.0
  0
LINE
  5
334
330
1F
100
AcDbEntity
  8
0-B_寸法
  6
Continuous
 62
   120
370
     5
100
AcDbLine
 10
2601.214163127569
 20
-1008.000118749019
 30
0.0
 11
2751.214163127569
 21
-1008.000118749019
 31
0.0
  0
LWPOLYLINE
  5
335
330
1F
100
AcDbEntity
  8
0-B_寸法
  6
Continuous
 62
     7
370
     9
100
AcDbPolyline
 90
        4
 70
     1
 43
3.0
 10
2602.714163127569
 20
-1008.000118749019
 42
0.4142135623731
 10
2601.214163127569
 20
-1006.500118749019
 42
0.4142135623731
 10
2599.714163127569
 20
-1008.000118749019
 42
0.4142135623731
 10
2601.214163127569
 20
-1009.500118749019
 42
0.4142135623731
  0
LINE
  5
336
330
1F
100
AcDbEntity
  8
0-B_寸法
  6
Continuous
 62
   120
370
     5
100
AcDbLine
 10
2601.214163127569
 20
-1003.500118749018
 30
0.0
 11
2601.214163127569
 21
-1008.000118749019
 31
0.0
  0
TEXT
  5
337
330
1F
100
AcDbEntity
  8
0-B_寸法
  6
Continuous
 62
     7
370
   211
100
AcDbText
 10
2573.524163127569
 20
-975.0001187490185
 30
0.0
 40
68.58
  1
138
 50
90.0
 41
1.111111111111111
  7
ＭＳ ゴシック
100
AcDbText
  0
LINE
  5
338
330
1F
100
AcDbEntity
  8
0-B_寸法
  6
Continuous
 62
   120
370
     5
100
AcDbLine
 10
2601.214163127569
 20
-1003.500118749018
 30
0.0
 11
2751.214163127569
 21
-1003.500118749018
 31
0.0
  0
LWPOLYLINE
  5
339
330
1F
100
AcDbEntity
  8
0-B_寸法
  6
Continuous
 62
     7
370
     9
100
AcDbPolyline
 90
        4
 70
     1
 43
3.0
 10
2602.714163127569
 20
-1003.500118749018
 42
0.4142135623731
 10
2601.214163127569
 20
-1002.000118749018
 42
0.4142135623731
 10
2599.714163127569
 20
-1003.500118749018
 42
0.4142135623731
 10
2601.214163127569
 20
-1005.000118749018
 42
0.4142135623731
  0
LINE
  5
33A
330
1F
100
AcDbEntity
  8
0-B_寸法
  6
Continuous
 62
   120
370
     5
100
AcDbLine
 10
2601.214163127569
 20
-796.5001187490188
 30
0.0
 11
2601.214163127569
 21
-1003.500118749018
 31
0.0
  0
LINE
  5
33B
330
1F
100
AcDbEntity
  8
0-B_寸法
  6
Continuous
 62
   120
370
     5
100
AcDbLine
 10
2601.214163127569
 20
-796.5001187490188
 30
0.0
 11
2751.214163127569
 21
-796.5001187490188
 31
0.0
  0
LINE
  5
33C
330
1F
100
AcDbEntity
  8
0-B_寸法
  6
Continuous
 62
   120
370
     5
100
AcDbLine
 10
2601.214163127569
 20
-792.0001187490178
 30
0.0
 11
2751.214163127569
 21
-792.0001187490178
 31
0.0
  0
LWPOLYLINE
  5
33D
330
1F
100
AcDbEntity
  8
0-B_寸法
  6
Continuous
 62
     7
370
     9
100
AcDbPolyline
 90
        4
 70
     1
 43
3.0
 10
2602.714163127569
 20
-796.5001187490188
 42
0.4142135623731
 10
2601.214163127569
 20
-795.0001187490188
 42
0.4142135623731
 10
2599.714163127569
 20
-796.5001187490188
 42
0.4142135623731
 10
2601.214163127569
 20
-798.0001187490188
 42
0.4142135623731
  0
LWPOLYLINE
  5
33E
330
1F
100
AcDbEntity
  8
0-B_寸法
  6
Continuous
 62
     7
370
     9
100
AcDbPolyline
 90
        4
 70
     1
 43
3.0
 10
2602.714163127569
 20
-792.0001187490178
 42
0.4142135623731
 10
2601.214163127569
 20
-790.5001187490178
 42
0.4142135623731
 10
2599.714163127569
 20
-792.0001187490178
 42
0.4142135623731
 10
2601.214163127569
 20
-793.5001187490178
 42
0.4142135623731
  0
LINE
  5
33F
330
1F
100
AcDbEntity
  8
0-B_寸法
  6
Continuous
 62
   120
370
     5
100
AcDbLine
 10
2601.214163127569
 20
-792.0001187490178
 30
0.0
 11
2601.214163127569
 21
-796.5001187490188
 31
0.0
  0
TEXT
  5
340
330
1F
100
AcDbEntity
  8
0-B_寸法
  6
Continuous
 62
     7
370
   211
100
AcDbText
 10
3785.524163127572
 20
-905.1808706061473
 30
0.0
 40
68.58
  1
15.5
 50
90.0
 41
1.125
  7
ＭＳ ゴシック
100
AcDbText
  0
TEXT
  5
341
330
1F
100
AcDbEntity
  8
0-B_寸法
  6
Continuous
 62
     7
370
   211
100
AcDbText
 10
3785.524163127572
 20
-1900.430870606148
 30
0.0
 40
68.58
  1
15.5
 50
90.0
 41
1.125
  7
ＭＳ ゴシック
100
AcDbText
  0
TEXT
  5
342
330
1F
100
AcDbEntity
  8
0-B_寸法
  6
Continuous
 62
     7
370
   211
100
AcDbText
 10
3665.524163127572
 20
-1967.775106854229
 30
0.0
 40
68.58
  1
100
 50
90.0
 41
1.111111111111111
  7
ＭＳ ゴシック
100
AcDbText
  0
LINE
  5
343
330
1F
100
AcDbEntity
  8
0-B_寸法
  6
Continuous
 62
   120
370
     5
100
AcDbLine
 10
3693.214163127572
 20
-1960.500118749018
 30
0.0
 11
3543.214163127572
 21
-1960.500118749018
 31
0.0
  0
LWPOLYLINE
  5
344
330
1F
100
AcDbEntity
  8
0-B_寸法
  6
Continuous
 62
     7
370
     9
100
AcDbPolyline
 90
        4
 70
     1
 43
3.0
 10
3694.714163127571
 20
-1960.500118749018
 42
0.4142135623731
 10
3693.214163127572
 20
-1959.000118749018
 42
0.4142135623731
 10
3691.714163127572
 20
-1960.500118749018
 42
0.4142135623731
 10
3693.214163127572
 20
-1962.000118749018
 42
0.4142135623731
  0
LINE
  5
345
330
1F
100
AcDbEntity
  8
0-B_寸法
  6
Continuous
 62
   120
370
     5
100
AcDbLine
 10
3693.214163127572
 20
-1810.500118749018
 30
0.0
 11
3693.214163127572
 21
-1960.500118749018
 31
0.0
  0
LINE
  5
346
330
1F
100
AcDbEntity
  8
0-B_寸法
  6
Continuous
 62
   120
370
     5
100
AcDbLine
 10
3693.214163127572
 20
-1810.500118749018
 30
0.0
 11
3543.214163127572
 21
-1810.500118749018
 31
0.0
  0
LWPOLYLINE
  5
347
330
1F
100
AcDbEntity
  8
0-B_寸法
  6
Continuous
 62
     7
370
     9
100
AcDbPolyline
 90
        4
 70
     1
 43
3.0
 10
3694.714163127571
 20
-1810.500118749018
 42
0.4142135623731
 10
3693.214163127572
 20
-1809.000118749018
 42
0.4142135623731
 10
3691.714163127572
 20
-1810.500118749018
 42
0.4142135623731
 10
3693.214163127572
 20
-1812.000118749018
 42
0.4142135623731
  0
LINE
  5
348
330
1F
100
AcDbEntity
  8
0-B_寸法
  6
Continuous
 62
   120
370
     5
100
AcDbLine
 10
3693.214163127572
 20
-1787.250118749018
 30
0.0
 11
3693.214163127572
 21
-1810.500118749018
 31
0.0
  0
TEXT
  5
349
330
1F
100
AcDbEntity
  8
0-B_寸法
  6
Continuous
 62
     7
370
   211
100
AcDbText
 10
3665.524163127572
 20
-1376.250118749018
 30
0.0
 40
68.58
  1
648
 50
90.0
 41
1.111111111111111
  7
ＭＳ ゴシック
100
AcDbText
  0
LINE
  5
34A
330
1F
100
AcDbEntity
  8
0-B_寸法
  6
Continuous
 62
   120
370
     5
100
AcDbLine
 10
3693.214163127572
 20
-1787.250118749018
 30
0.0
 11
3543.214163127572
 21
-1787.250118749018
 31
0.0
  0
LWPOLYLINE
  5
34B
330
1F
100
AcDbEntity
  8
0-B_寸法
  6
Continuous
 62
     7
370
     9
100
AcDbPolyline
 90
        4
 70
     1
 43
3.0
 10
3694.714163127571
 20
-1787.250118749018
 42
0.4142135623731
 10
3693.214163127572
 20
-1785.750118749018
 42
0.4142135623731
 10
3691.714163127572
 20
-1787.250118749018
 42
0.4142135623731
 10
3693.214163127572
 20
-1788.750118749018
 42
0.4142135623731
  0
LINE
  5
34C
330
1F
100
AcDbEntity
  8
0-B_寸法
  6
Continuous
 62
   120
370
     5
100
AcDbLine
 10
3693.214163127572
 20
-815.2501187490188
 30
0.0
 11
3693.214163127572
 21
-1787.250118749018
 31
0.0
  0
LINE
  5
34D
330
1F
100
AcDbEntity
  8
0-B_寸法
  6
Continuous
 62
   120
370
     5
100
AcDbLine
 10
3693.214163127572
 20
-815.2501187490188
 30
0.0
 11
3543.214163127572
 21
-815.2501187490188
 31
0.0
  0
LINE
  5
34E
330
1F
100
AcDbEntity
  8
0-B_寸法
  6
Continuous
 62
   120
370
     5
100
AcDbLine
 10
3693.214163127572
 20
-792.0001187490178
 30
0.0
 11
3543.214163127572
 21
-792.0001187490178
 31
0.0
  0
LWPOLYLINE
  5
34F
330
1F
100
AcDbEntity
  8
0-B_寸法
  6
Continuous
 62
     7
370
     9
100
AcDbPolyline
 90
        4
 70
     1
 43
3.0
 10
3694.714163127571
 20
-815.2501187490188
 42
0.4142135623731
 10
3693.214163127572
 20
-813.7501187490188
 42
0.4142135623731
 10
3691.714163127572
 20
-815.2501187490188
 42
0.4142135623731
 10
3693.214163127572
 20
-816.7501187490188
 42
0.4142135623731
  0
LWPOLYLINE
  5
350
330
1F
100
AcDbEntity
  8
0-B_寸法
  6
Continuous
 62
     7
370
     9
100
AcDbPolyline
 90
        4
 70
     1
 43
3.0
 10
3694.714163127571
 20
-792.0001187490178
 42
0.4142135623731
 10
3693.214163127572
 20
-790.5001187490178
 42
0.4142135623731
 10
3691.714163127572
 20
-792.0001187490178
 42
0.4142135623731
 10
3693.214163127572
 20
-793.5001187490178
 42
0.4142135623731
  0
LINE
  5
351
330
1F
100
AcDbEntity
  8
0-B_寸法
  6
Continuous
 62
   120
370
     5
100
AcDbLine
 10
3693.214163127572
 20
-792.0001187490178
 30
0.0
 11
3693.214163127572
 21
-815.2501187490188
 31
0.0
  0
LINE
  5
352
330
1F
100
AcDbEntity
  8
0-B_寸法
  6
Continuous
 62
   120
370
     5
100
AcDbLine
 10
3468.214163127568
 20
-2335.500118749018
 30
0.0
 11
3468.214163127568
 21
-2185.500118749018
 31
0.0
  0
LWPOLYLINE
  5
353
330
1F
100
AcDbEntity
  8
0-B_寸法
  6
Continuous
 62
     7
370
     9
100
AcDbPolyline
 90
        4
 70
     1
 43
3.0
 10
3469.714163127568
 20
-2335.500118749018
 42
0.4142135623731
 10
3468.214163127568
 20
-2334.000118749018
 42
0.4142135623731
 10
3466.714163127568
 20
-2335.500118749018
 42
0.4142135623731
 10
3468.214163127568
 20
-2337.000118749017
 42
0.4142135623731
  0
LINE
  5
354
330
1F
100
AcDbEntity
  8
0-B_寸法
  6
Continuous
 62
   120
370
     5
100
AcDbLine
 10
2856.214163127569
 20
-2335.500118749018
 30
0.0
 11
3468.214163127568
 21
-2335.500118749018
 31
0.0
  0
LINE
  5
355
330
1F
100
AcDbEntity
  8
0-B_寸法
  6
Continuous
 62
   120
370
     5
100
AcDbLine
 10
2856.214163127569
 20
-2335.500118749018
 30
0.0
 11
2856.214163127569
 21
-2185.500118749018
 31
0.0
  0
LWPOLYLINE
  5
356
330
1F
100
AcDbEntity
  8
0-B_寸法
  6
Continuous
 62
     7
370
     9
100
AcDbPolyline
 90
        4
 70
     1
 43
3.0
 10
2857.714163127569
 20
-2335.500118749018
 42
0.4142135623731
 10
2856.214163127569
 20
-2334.000118749018
 42
0.4142135623731
 10
2854.714163127569
 20
-2335.500118749018
 42
0.4142135623731
 10
2856.214163127569
 20
-2337.000118749017
 42
0.4142135623731
  0
TEXT
  5
357
330
1F
100
AcDbEntity
  8
0-B_寸法
  6
Continuous
 62
     7
370
   211
100
AcDbText
 10
3100.714163127568
 20
-2157.810118749018
 30
0.0
 40
68.58
  1
390
 41
1.111111111111111
  7
ＭＳ ゴシック
100
AcDbText
  0
LINE
  5
358
330
1F
100
AcDbEntity
  8
0-B_寸法
  6
Continuous
 62
   120
370
     5
100
AcDbLine
 10
3468.214163127568
 20
-2185.500118749018
 30
0.0
 11
3468.214163127568
 21
-2035.500118749018
 31
0.0
  0
LWPOLYLINE
  5
359
330
1F
100
AcDbEntity
  8
0-B_寸法
  6
Continuous
 62
     7
370
     9
100
AcDbPolyline
 90
        4
 70
     1
 43
3.0
 10
3469.714163127568
 20
-2185.500118749018
 42
0.4142135623731
 10
3468.214163127568
 20
-2184.000118749018
 42
0.4142135623731
 10
3466.714163127568
 20
-2185.500118749018
 42
0.4142135623731
 10
3468.214163127568
 20
-2187.000118749017
 42
0.4142135623731
  0
LINE
  5
35A
330
1F
100
AcDbEntity
  8
0-B_寸法
  6
Continuous
 62
   120
370
     5
100
AcDbLine
 10
2856.214163127569
 20
-2185.500118749018
 30
0.0
 11
2856.214163127569
 21
-2035.500118749018
 31
0.0
  0
LWPOLYLINE
  5
35B
330
1F
100
AcDbEntity
  8
0-B_寸法
  6
Continuous
 62
     7
370
     9
100
AcDbPolyline
 90
        4
 70
     1
 43
3.0
 10
2857.714163127569
 20
-2185.500118749018
 42
0.4142135623731
 10
2856.214163127569
 20
-2184.000118749018
 42
0.4142135623731
 10
2854.714163127569
 20
-2185.500118749018
 42
0.4142135623731
 10
2856.214163127569
 20
-2187.000118749017
 42
0.4142135623731
  0
LINE
  5
35C
330
1F
100
AcDbEntity
  8
0-1_本体
  6
Continuous
 62
    40
370
    15
100
AcDbLine
 10
2856.21416312757
 20
-1787.250118749018
 30
0.0
 11
3464.464163127566
 21
-1787.250118749018
 31
0.0
  0
LINE
  5
35D
330
1F
100
AcDbEntity
  8
0-1_本体
  6
Continuous
 62
    40
370
    15
100
AcDbLine
 10
3464.464163127566
 20
-815.2501187490191
 30
0.0
 11
2856.21416312757
 21
-815.2501187490191
 31
0.0
  0
LINE
  5
35E
330
1F
100
AcDbEntity
  8
0-1_本体
  6
Continuous
 62
    40
370
    15
100
AcDbLine
 10
3468.214163127573
 20
-800.2501187490191
 30
0.0
 11
3464.464163127566
 21
-800.2501187490191
 31
0.0
  0
LINE
  5
35F
330
1F
100
AcDbEntity
  8
0-1_本体
  6
Continuous
 62
    40
370
    15
100
AcDbLine
 10
3464.464163127566
 20
-1802.250118749018
 30
0.0
 11
3468.214163127573
 21
-1802.250118749018
 31
0.0
  0
LINE
  5
360
330
1F
100
AcDbEntity
  8
0-1_本体
  6
Continuous
 62
    40
370
    15
100
AcDbLine
 10
3464.464163127566
 20
-1802.250118749018
 30
0.0
 11
3464.464163127566
 21
-800.2501187490191
 31
0.0
  0
LINE
  5
361
330
1F
100
AcDbEntity
  8
0-1_本体
  6
Continuous
 62
     7
370
     9
100
AcDbLine
 10
3468.214163127573
 20
-1810.500118749018
 30
0.0
 11
3468.214163127573
 21
-1960.500118749018
 31
0.0
  0
LINE
  5
362
330
1F
100
AcDbEntity
  8
0-1_本体
  6
Continuous
 62
     7
370
     9
100
AcDbLine
 10
2856.21416312757
 20
-1810.500118749018
 30
0.0
 11
2856.21416312757
 21
-1960.500118749018
 31
0.0
  0
LINE
  5
363
330
1F
100
AcDbEntity
  8
0-1_本体
  6
Continuous
 62
    40
370
    15
100
AcDbLine
 10
3468.214163127573
 20
-1810.500118749018
 30
0.0
 11
3468.214163127573
 21
-792.0001187490176
 31
0.0
  0
LINE
  5
364
330
1F
100
AcDbEntity
  8
0-1_本体
  6
Continuous
 62
    40
370
    15
100
AcDbLine
 10
2856.21416312757
 20
-1787.250118749018
 30
0.0
 11
2856.21416312757
 21
-1810.500118749018
 31
0.0
  0
LINE
  5
365
330
1F
100
AcDbEntity
  8
0-1_本体
  6
Continuous
 62
    40
370
    15
100
AcDbLine
 10
2856.21416312757
 20
-792.0001187490176
 30
0.0
 11
2856.21416312757
 21
-815.2501187490191
 31
0.0
  0
LINE
  5
366
330
1F
100
AcDbEntity
  8
0-1_本体
  6
Continuous
 62
    40
370
    15
100
AcDbLine
 10
2856.21416312757
 20
-1810.500118749018
 30
0.0
 11
3468.214163127573
 21
-1810.500118749018
 31
0.0
  0
LINE
  5
367
330
1F
100
AcDbEntity
  8
0-1_本体
  6
Continuous
 62
    40
370
    15
100
AcDbLine
 10
3468.214163127573
 20
-792.0001187490176
 30
0.0
 11
2856.21416312757
 21
-792.0001187490176
 31
0.0
  0
LINE
  5
368
330
1F
100
AcDbEntity
  8
0-0_補助線
  6
JWW_HOJO
 62
   120
370
     5
100
AcDbLine
 10
3543.214163127573
 20
-2035.500118749018
 30
0.0
 11
3543.214163127573
 21
-717.0001187490176
 31
0.0
  0
LINE
  5
369
330
1F
100
AcDbEntity
  8
0-0_補助線
  6
JWW_HOJO
 62
   120
370
     5
100
AcDbLine
 10
2751.21416312757
 20
-2035.500118749018
 30
0.0
 11
3543.214163127573
 21
-2035.500118749018
 31
0.0
  0
LINE
  5
36A
330
1F
100
AcDbEntity
  8
0-0_補助線
  6
JWW_HOJO
 62
   120
370
     5
100
AcDbLine
 10
3543.214163127573
 20
-717.0001187490176
 30
0.0
 11
2751.21416312757
 21
-717.0001187490176
 31
0.0
  0
LINE
  5
36B
330
1F
100
AcDbEntity
  8
0-0_補助線
  6
JWW_HOJO
 62
   120
370
     5
100
AcDbLine
 10
2751.21416312757
 20
-717.0001187490176
 30
0.0
 11
2751.21416312757
 21
-2035.500118749018
 31
0.0
  0
LINE
  5
36C
330
1F
100
AcDbEntity
  8
0-A_文字
  6
Continuous
 62
     7
370
     9
100
AcDbLine
 10
4078.714163127569
 20
-2785.500089056221
 30
0.0
 11
2218.714163127569
 21
-2785.500089056221
 31
0.0
  0
LINE
  5
36D
330
1F
100
AcDbEntity
  8
0-A_文字
  6
Continuous
 62
     7
370
     9
100
AcDbLine
 10
2218.714163127569
 20
-2560.500089056219
 30
0.0
 11
4078.714163127569
 21
-2560.500089056219
 31
0.0
  0
LINE
  5
36E
330
1F
100
AcDbEntity
  8
0-A_文字
  6
Continuous
 62
     7
370
     9
100
AcDbLine
 10
4078.714163127569
 20
-2560.500089056219
 30
0.0
 11
4078.714163127569
 21
-2785.500089056221
 31
0.0
  0
LINE
  5
36F
330
1F
100
AcDbEntity
  8
0-A_文字
  6
Continuous
 62
     7
370
     9
100
AcDbLine
 10
2218.714163127569
 20
-2560.500089056219
 30
0.0
 11
2218.714163127569
 21
-2785.500089056221
 31
0.0
  0
TEXT
  5
370
330
1F
100
AcDbEntity
  8
0-A_文字
  6
Continuous
 62
     7
370
     9
100
AcDbText
 10
2323.714163127569
 20
-2737.620089056219
 30
0.0
 40
137.16
  1
断面図(奥行408mm)
 41
1.07843137254902
  7
ＭＳ ゴシック
100
AcDbText
  0
TEXT
  5
371
330
1F
100
AcDbEntity
  8
0-B_寸法
  6
Continuous
 62
     7
370
   211
100
AcDbText
 10
2718.995910936808
 20
620.7242883034183
 30
0.0
 40
68.58
  1
18
 41
1.083333333333333
  7
ＭＳ ゴシック
100
AcDbText
  0
LINE
  5
372
330
1F
100
AcDbEntity
  8
0-2_扉
  6
Continuous
 62
    40
370
    15
100
AcDbLine
 10
2829.214163127569
 20
1959.534288303419
 30
0.0
 11
2856.214163127569
 21
1959.534288303419
 31
0.0
  0
LINE
  5
373
330
1F
100
AcDbEntity
  8
0-2_扉
  6
Continuous
 62
    40
370
    15
100
AcDbLine
 10
2829.214163127569
 20
1752.534288303417
 30
0.0
 11
2829.214163127569
 21
1959.534288303419
 31
0.0
  0
LINE
  5
374
330
1F
100
AcDbEntity
  8
0-2_扉
  6
Continuous
 62
    40
370
    15
100
AcDbLine
 10
2829.214163127569
 20
1748.034288303417
 30
0.0
 11
2856.214163127569
 21
1748.034288303417
 31
0.0
  0
LINE
  5
375
330
1F
100
AcDbEntity
  8
0-2_扉
  6
Continuous
 62
    40
370
    15
100
AcDbLine
 10
2829.214163127569
 20
1541.034288303418
 30
0.0
 11
2829.214163127569
 21
1748.034288303417
 31
0.0
  0
LINE
  5
376
330
1F
100
AcDbEntity
  8
0-2_扉
  6
Continuous
 62
    40
370
    15
100
AcDbLine
 10
2829.214163127569
 20
1536.534288303417
 30
0.0
 11
2856.214163127569
 21
1536.534288303417
 31
0.0
  0
LINE
  5
377
330
1F
100
AcDbEntity
  8
0-2_扉
  6
Continuous
 62
    40
370
    15
100
AcDbLine
 10
2829.214163127569
 20
1329.534288303419
 30
0.0
 11
2829.214163127569
 21
1536.534288303417
 31
0.0
  0
LINE
  5
378
330
1F
100
AcDbEntity
  8
0-2_扉
  6
Continuous
 62
    40
370
    15
100
AcDbLine
 10
2829.214163127569
 20
1325.034288303417
 30
0.0
 11
2856.214163127569
 21
1325.034288303417
 31
0.0
  0
LINE
  5
379
330
1F
100
AcDbEntity
  8
0-2_扉
  6
Continuous
 62
    40
370
    15
100
AcDbLine
 10
2829.214163127569
 20
1118.034288303417
 30
0.0
 11
2829.214163127569
 21
1325.034288303417
 31
0.0
  0
LINE
  5
37A
330
1F
100
AcDbEntity
  8
0-2_扉
  6
Continuous
 62
    40
370
    15
100
AcDbLine
 10
2829.214163127569
 20
1118.034288303417
 30
0.0
 11
2856.214163127569
 21
1118.034288303417
 31
0.0
  0
LINE
  5
37B
330
1F
100
AcDbEntity
  8
0-2_扉
  6
Continuous
 62
    40
370
    15
100
AcDbLine
 10
2829.214163127569
 20
1329.534288303419
 30
0.0
 11
2856.214163127569
 21
1329.534288303419
 31
0.0
  0
LINE
  5
37C
330
1F
100
AcDbEntity
  8
0-2_扉
  6
Continuous
 62
    40
370
    15
100
AcDbLine
 10
2829.214163127569
 20
1541.034288303418
 30
0.0
 11
2856.214163127569
 21
1541.034288303418
 31
0.0
  0
LINE
  5
37D
330
1F
100
AcDbEntity
  8
0-2_扉
  6
Continuous
 62
    40
370
    15
100
AcDbLine
 10
2829.214163127569
 20
1752.534288303417
 30
0.0
 11
2856.214163127569
 21
1752.534288303417
 31
0.0
  0
LWPOLYLINE
  5
37E
330
1F
100
AcDbEntity
  8
0-B_寸法
  6
Continuous
 62
     7
370
     9
100
AcDbPolyline
 90
        4
 70
     1
 43
3.0
 10
2830.714163127569
 20
593.0342883034183
 42
0.4142135623731
 10
2829.214163127569
 20
594.5342883034183
 42
0.4142135623731
 10
2827.714163127569
 20
593.0342883034183
 42
0.4142135623731
 10
2829.214163127569
 20
591.5342883034183
 42
0.4142135623731
  0
LINE
  5
37F
330
1F
100
AcDbEntity
  8
0-B_寸法
  6
Continuous
 62
   120
370
     5
100
AcDbLine
 10
2829.214163127569
 20
593.0342883034183
 30
0.0
 11
2856.214163127569
 21
593.0342883034183
 31
0.0
  0
LINE
  5
380
330
1F
100
AcDbEntity
  8
0-B_寸法
  6
Continuous
 62
   120
370
     5
100
AcDbLine
 10
2829.214163127569
 20
593.0342883034183
 30
0.0
 11
2829.214163127569
 21
893.0342883034183
 31
0.0
  0
TEXT
  5
381
330
1F
100
AcDbEntity
  8
0-B_寸法
  6
Continuous
 62
     7
370
   211
100
AcDbText
 10
3087.21416312757
 20
620.7242883034183
 30
0.0
 40
68.58
  1
408
 41
1.111111111111111
  7
ＭＳ ゴシック
100
AcDbText
  0
LINE
  5
382
330
1F
100
AcDbEntity
  8
0-2_扉
  6
Continuous
 62
    40
370
    15
100
AcDbLine
 10
2856.214163127569
 20
1752.534288303417
 30
0.0
 11
2856.214163127569
 21
1959.534288303419
 31
0.0
  0
LINE
  5
383
330
1F
100
AcDbEntity
  8
0-2_扉
  6
Continuous
 62
    40
370
    15
100
AcDbLine
 10
2856.214163127569
 20
1541.034288303418
 30
0.0
 11
2856.214163127569
 21
1748.034288303417
 31
0.0
  0
LINE
  5
384
330
1F
100
AcDbEntity
  8
0-2_扉
  6
Continuous
 62
    40
370
    15
100
AcDbLine
 10
2856.214163127569
 20
1329.534288303419
 30
0.0
 11
2856.214163127569
 21
1536.534288303417
 31
0.0
  0
LINE
  5
385
330
1F
100
AcDbEntity
  8
0-2_扉
  6
Continuous
 62
    40
370
    15
100
AcDbLine
 10
2856.214163127569
 20
1118.034288303417
 30
0.0
 11
2856.214163127569
 21
1325.034288303417
 31
0.0
  0
TEXT
  5
386
330
1F
100
AcDbEntity
  8
0-B_寸法
  6
Continuous
 62
     7
370
   211
100
AcDbText
 10
2703.624708128373
 20
1332.534288303418
 30
0.0
 40
68.58
  1
3
 50
90.0
  7
ＭＳ ゴシック
100
AcDbText
  0
TEXT
  5
387
330
1F
100
AcDbEntity
  8
0-B_寸法
  6
Continuous
 62
     7
370
   211
100
AcDbText
 10
2703.624708128373
 20
1544.034288303418
 30
0.0
 40
68.58
  1
3
 50
90.0
  7
ＭＳ ゴシック
100
AcDbText
  0
TEXT
  5
388
330
1F
100
AcDbEntity
  8
0-B_寸法
  6
Continuous
 62
     7
370
   211
100
AcDbText
 10
2703.624708128373
 20
1755.534288303418
 30
0.0
 40
68.58
  1
3
 50
90.0
  7
ＭＳ ゴシック
100
AcDbText
  0
TEXT
  5
389
330
1F
100
AcDbEntity
  8
0-B_寸法
  6
Continuous
 62
     7
370
   211
100
AcDbText
 10
2703.624708128373
 20
1967.034288303418
 30
0.0
 40
68.58
  1
3
 50
90.0
  7
ＭＳ ゴシック
100
AcDbText
  0
TEXT
  5
38A
330
1F
100
AcDbEntity
  8
0-B_寸法
  6
Continuous
 62
     7
370
   211
100
AcDbText
 10
2573.524163127569
 20
1146.534288303418
 30
0.0
 40
68.58
  1
138
 50
90.0
 41
1.111111111111111
  7
ＭＳ ゴシック
100
AcDbText
  0
LINE
  5
38B
330
1F
100
AcDbEntity
  8
0-B_寸法
  6
Continuous
 62
   120
370
     5
100
AcDbLine
 10
2601.214163127569
 20
1118.034288303418
 30
0.0
 11
2751.214163127569
 21
1118.034288303418
 31
0.0
  0
LWPOLYLINE
  5
38C
330
1F
100
AcDbEntity
  8
0-B_寸法
  6
Continuous
 62
     7
370
     9
100
AcDbPolyline
 90
        4
 70
     1
 43
3.0
 10
2602.714163127569
 20
1118.034288303418
 42
0.4142135623731
 10
2601.214163127569
 20
1119.534288303418
 42
0.4142135623731
 10
2599.714163127569
 20
1118.034288303418
 42
0.4142135623731
 10
2601.214163127569
 20
1116.534288303418
 42
0.4142135623731
  0
LINE
  5
38D
330
1F
100
AcDbEntity
  8
0-B_寸法
  6
Continuous
 62
   120
370
     5
100
AcDbLine
 10
2601.214163127569
 20
1325.034288303418
 30
0.0
 11
2601.214163127569
 21
1118.034288303418
 31
0.0
  0
LINE
  5
38E
330
1F
100
AcDbEntity
  8
0-B_寸法
  6
Continuous
 62
   120
370
     5
100
AcDbLine
 10
2601.214163127569
 20
1325.034288303418
 30
0.0
 11
2751.214163127569
 21
1325.034288303418
 31
0.0
  0
LWPOLYLINE
  5
38F
330
1F
100
AcDbEntity
  8
0-B_寸法
  6
Continuous
 62
     7
370
     9
100
AcDbPolyline
 90
        4
 70
     1
 43
3.0
 10
2602.714163127569
 20
1325.034288303418
 42
0.4142135623731
 10
2601.214163127569
 20
1326.534288303417
 42
0.4142135623731
 10
2599.714163127569
 20
1325.034288303418
 42
0.4142135623731
 10
2601.214163127569
 20
1323.534288303418
 42
0.4142135623731
  0
LINE
  5
390
330
1F
100
AcDbEntity
  8
0-B_寸法
  6
Continuous
 62
   120
370
     5
100
AcDbLine
 10
2601.214163127569
 20
1329.534288303419
 30
0.0
 11
2601.214163127569
 21
1325.034288303418
 31
0.0
  0
TEXT
  5
391
330
1F
100
AcDbEntity
  8
0-B_寸法
  6
Continuous
 62
     7
370
   211
100
AcDbText
 10
2573.524163127569
 20
1358.034288303418
 30
0.0
 40
68.58
  1
138
 50
90.0
 41
1.111111111111111
  7
ＭＳ ゴシック
100
AcDbText
  0
LINE
  5
392
330
1F
100
AcDbEntity
  8
0-B_寸法
  6
Continuous
 62
   120
370
     5
100
AcDbLine
 10
2601.214163127569
 20
1329.534288303419
 30
0.0
 11
2751.214163127569
 21
1329.534288303419
 31
0.0
  0
LWPOLYLINE
  5
393
330
1F
100
AcDbEntity
  8
0-B_寸法
  6
Continuous
 62
     7
370
     9
100
AcDbPolyline
 90
        4
 70
     1
 43
3.0
 10
2602.714163127569
 20
1329.534288303419
 42
0.4142135623731
 10
2601.214163127569
 20
1331.034288303419
 42
0.4142135623731
 10
2599.714163127569
 20
1329.534288303419
 42
0.4142135623731
 10
2601.214163127569
 20
1328.034288303419
 42
0.4142135623731
  0
LINE
  5
394
330
1F
100
AcDbEntity
  8
0-B_寸法
  6
Continuous
 62
   120
370
     5
100
AcDbLine
 10
2601.214163127569
 20
1536.534288303418
 30
0.0
 11
2601.214163127569
 21
1329.534288303419
 31
0.0
  0
LINE
  5
395
330
1F
100
AcDbEntity
  8
0-B_寸法
  6
Continuous
 62
   120
370
     5
100
AcDbLine
 10
2601.214163127569
 20
1536.534288303418
 30
0.0
 11
2751.214163127569
 21
1536.534288303418
 31
0.0
  0
LWPOLYLINE
  5
396
330
1F
100
AcDbEntity
  8
0-B_寸法
  6
Continuous
 62
     7
370
     9
100
AcDbPolyline
 90
        4
 70
     1
 43
3.0
 10
2602.714163127569
 20
1536.534288303418
 42
0.4142135623731
 10
2601.214163127569
 20
1538.034288303418
 42
0.4142135623731
 10
2599.714163127569
 20
1536.534288303418
 42
0.4142135623731
 10
2601.214163127569
 20
1535.034288303418
 42
0.4142135623731
  0
LINE
  5
397
330
1F
100
AcDbEntity
  8
0-B_寸法
  6
Continuous
 62
   120
370
     5
100
AcDbLine
 10
2601.214163127569
 20
1541.034288303419
 30
0.0
 11
2601.214163127569
 21
1536.534288303418
 31
0.0
  0
TEXT
  5
398
330
1F
100
AcDbEntity
  8
0-B_寸法
  6
Continuous
 62
     7
370
   211
100
AcDbText
 10
2573.524163127569
 20
1569.534288303419
 30
0.0
 40
68.58
  1
138
 50
90.0
 41
1.111111111111111
  7
ＭＳ ゴシック
100
AcDbText
  0
LINE
  5
399
330
1F
100
AcDbEntity
  8
0-B_寸法
  6
Continuous
 62
   120
370
     5
100
AcDbLine
 10
2601.214163127569
 20
1541.034288303419
 30
0.0
 11
2751.214163127569
 21
1541.034288303419
 31
0.0
  0
LWPOLYLINE
  5
39A
330
1F
100
AcDbEntity
  8
0-B_寸法
  6
Continuous
 62
     7
370
     9
100
AcDbPolyline
 90
        4
 70
     1
 43
3.0
 10
2602.714163127569
 20
1541.034288303419
 42
0.4142135623731
 10
2601.214163127569
 20
1542.534288303419
 42
0.4142135623731
 10
2599.714163127569
 20
1541.034288303419
 42
0.4142135623731
 10
2601.214163127569
 20
1539.534288303419
 42
0.4142135623731
  0
LINE
  5
39B
330
1F
100
AcDbEntity
  8
0-B_寸法
  6
Continuous
 62
   120
370
     5
100
AcDbLine
 10
2601.214163127569
 20
1748.034288303418
 30
0.0
 11
2601.214163127569
 21
1541.034288303419
 31
0.0
  0
LINE
  5
39C
330
1F
100
AcDbEntity
  8
0-B_寸法
  6
Continuous
 62
   120
370
     5
100
AcDbLine
 10
2601.214163127569
 20
1748.034288303418
 30
0.0
 11
2751.214163127569
 21
1748.034288303418
 31
0.0
  0
LWPOLYLINE
  5
39D
330
1F
100
AcDbEntity
  8
0-B_寸法
  6
Continuous
 62
     7
370
     9
100
AcDbPolyline
 90
        4
 70
     1
 43
3.0
 10
2602.714163127569
 20
1748.034288303418
 42
0.4142135623731
 10
2601.214163127569
 20
1749.534288303418
 42
0.4142135623731
 10
2599.714163127569
 20
1748.034288303418
 42
0.4142135623731
 10
2601.214163127569
 20
1746.534288303418
 42
0.4142135623731
  0
LINE
  5
39E
330
1F
100
AcDbEntity
  8
0-B_寸法
  6
Continuous
 62
   120
370
     5
100
AcDbLine
 10
2601.214163127569
 20
1752.534288303418
 30
0.0
 11
2601.214163127569
 21
1748.034288303418
 31
0.0
  0
TEXT
  5
39F
330
1F
100
AcDbEntity
  8
0-B_寸法
  6
Continuous
 62
     7
370
   211
100
AcDbText
 10
2573.524163127569
 20
1781.034288303418
 30
0.0
 40
68.58
  1
138
 50
90.0
 41
1.111111111111111
  7
ＭＳ ゴシック
100
AcDbText
  0
LINE
  5
3A0
330
1F
100
AcDbEntity
  8
0-B_寸法
  6
Continuous
 62
   120
370
     5
100
AcDbLine
 10
2601.214163127569
 20
1752.534288303418
 30
0.0
 11
2751.214163127569
 21
1752.534288303418
 31
0.0
  0
LWPOLYLINE
  5
3A1
330
1F
100
AcDbEntity
  8
0-B_寸法
  6
Continuous
 62
     7
370
     9
100
AcDbPolyline
 90
        4
 70
     1
 43
3.0
 10
2602.714163127569
 20
1752.534288303418
 42
0.4142135623731
 10
2601.214163127569
 20
1754.034288303417
 42
0.4142135623731
 10
2599.714163127569
 20
1752.534288303418
 42
0.4142135623731
 10
2601.214163127569
 20
1751.034288303418
 42
0.4142135623731
  0
LINE
  5
3A2
330
1F
100
AcDbEntity
  8
0-B_寸法
  6
Continuous
 62
   120
370
     5
100
AcDbLine
 10
2601.214163127569
 20
1959.534288303419
 30
0.0
 11
2601.214163127569
 21
1752.534288303418
 31
0.0
  0
LINE
  5
3A3
330
1F
100
AcDbEntity
  8
0-B_寸法
  6
Continuous
 62
   120
370
     5
100
AcDbLine
 10
2601.214163127569
 20
1959.534288303419
 30
0.0
 11
2751.214163127569
 21
1959.534288303419
 31
0.0
  0
LINE
  5
3A4
330
1F
100
AcDbEntity
  8
0-B_寸法
  6
Continuous
 62
   120
370
     5
100
AcDbLine
 10
2601.214163127569
 20
1964.034288303418
 30
0.0
 11
2751.214163127569
 21
1964.034288303418
 31
0.0
  0
LWPOLYLINE
  5
3A5
330
1F
100
AcDbEntity
  8
0-B_寸法
  6
Continuous
 62
     7
370
     9
100
AcDbPolyline
 90
        4
 70
     1
 43
3.0
 10
2602.714163127569
 20
1959.534288303419
 42
0.4142135623731
 10
2601.214163127569
 20
1961.034288303419
 42
0.4142135623731
 10
2599.714163127569
 20
1959.534288303419
 42
0.4142135623731
 10
2601.214163127569
 20
1958.034288303419
 42
0.4142135623731
  0
LWPOLYLINE
  5
3A6
330
1F
100
AcDbEntity
  8
0-B_寸法
  6
Continuous
 62
     7
370
     9
100
AcDbPolyline
 90
        4
 70
     1
 43
3.0
 10
2602.714163127569
 20
1964.034288303418
 42
0.4142135623731
 10
2601.214163127569
 20
1965.534288303418
 42
0.4142135623731
 10
2599.714163127569
 20
1964.034288303418
 42
0.4142135623731
 10
2601.214163127569
 20
1962.534288303418
 42
0.4142135623731
  0
LINE
  5
3A7
330
1F
100
AcDbEntity
  8
0-B_寸法
  6
Continuous
 62
   120
370
     5
100
AcDbLine
 10
2601.214163127569
 20
1964.034288303418
 30
0.0
 11
2601.214163127569
 21
1959.534288303419
 31
0.0
  0
TEXT
  5
3A8
330
1F
100
AcDbEntity
  8
0-B_寸法
  6
Continuous
 62
     7
370
   211
100
AcDbText
 10
3665.524163127572
 20
960.7593001982066
 30
0.0
 40
68.58
  1
100
 50
90.0
 41
1.111111111111111
  7
ＭＳ ゴシック
100
AcDbText
  0
TEXT
  5
3A9
330
1F
100
AcDbEntity
  8
0-B_寸法
  6
Continuous
 62
     7
370
   211
100
AcDbText
 10
3785.524163127572
 20
1850.853536446289
 30
0.0
 40
68.58
  1
15.5
 50
90.0
 41
1.125
  7
ＭＳ ゴシック
100
AcDbText
  0
TEXT
  5
3AA
330
1F
100
AcDbEntity
  8
0-B_寸法
  6
Continuous
 62
     7
370
   211
100
AcDbText
 10
3785.524163127572
 20
1028.103536446289
 30
0.0
 40
68.58
  1
15.5
 50
90.0
 41
1.125
  7
ＭＳ ゴシック
100
AcDbText
  0
LINE
  5
3AB
330
1F
100
AcDbEntity
  8
0-B_寸法
  6
Continuous
 62
   120
370
     5
100
AcDbLine
 10
3693.214163127572
 20
968.0342883034183
 30
0.0
 11
3543.214163127572
 21
968.0342883034183
 31
0.0
  0
LWPOLYLINE
  5
3AC
330
1F
100
AcDbEntity
  8
0-B_寸法
  6
Continuous
 62
     7
370
     9
100
AcDbPolyline
 90
        4
 70
     1
 43
3.0
 10
3694.714163127571
 20
968.0342883034183
 42
0.4142135623731
 10
3693.214163127572
 20
969.5342883034182
 42
0.4142135623731
 10
3691.714163127572
 20
968.0342883034183
 42
0.4142135623731
 10
3693.214163127572
 20
966.5342883034184
 42
0.4142135623731
  0
LINE
  5
3AD
330
1F
100
AcDbEntity
  8
0-B_寸法
  6
Continuous
 62
   120
370
     5
100
AcDbLine
 10
3693.214163127572
 20
1118.034288303418
 30
0.0
 11
3693.214163127572
 21
968.0342883034183
 31
0.0
  0
LINE
  5
3AE
330
1F
100
AcDbEntity
  8
0-B_寸法
  6
Continuous
 62
   120
370
     5
100
AcDbLine
 10
3693.214163127572
 20
1118.034288303418
 30
0.0
 11
3543.214163127572
 21
1118.034288303418
 31
0.0
  0
LWPOLYLINE
  5
3AF
330
1F
100
AcDbEntity
  8
0-B_寸法
  6
Continuous
 62
     7
370
     9
100
AcDbPolyline
 90
        4
 70
     1
 43
3.0
 10
3694.714163127571
 20
1118.034288303418
 42
0.4142135623731
 10
3693.214163127572
 20
1119.534288303418
 42
0.4142135623731
 10
3691.714163127572
 20
1118.034288303418
 42
0.4142135623731
 10
3693.214163127572
 20
1116.534288303418
 42
0.4142135623731
  0
LINE
  5
3B0
330
1F
100
AcDbEntity
  8
0-B_寸法
  6
Continuous
 62
   120
370
     5
100
AcDbLine
 10
3693.214163127572
 20
1141.284288303418
 30
0.0
 11
3693.214163127572
 21
1118.034288303418
 31
0.0
  0
TEXT
  5
3B1
330
1F
100
AcDbEntity
  8
0-B_寸法
  6
Continuous
 62
     7
370
   211
100
AcDbText
 10
3665.524163127572
 20
1466.034288303418
 30
0.0
 40
68.58
  1
533
 50
90.0
 41
1.111111111111111
  7
ＭＳ ゴシック
100
AcDbText
  0
LINE
  5
3B2
330
1F
100
AcDbEntity
  8
0-B_寸法
  6
Continuous
 62
   120
370
     5
100
AcDbLine
 10
3693.214163127572
 20
1141.284288303418
 30
0.0
 11
3543.214163127572
 21
1141.284288303418
 31
0.0
  0
LWPOLYLINE
  5
3B3
330
1F
100
AcDbEntity
  8
0-B_寸法
  6
Continuous
 62
     7
370
     9
100
AcDbPolyline
 90
        4
 70
     1
 43
3.0
 10
3694.714163127571
 20
1141.284288303418
 42
0.4142135623731
 10
3693.214163127572
 20
1142.784288303417
 42
0.4142135623731
 10
3691.714163127572
 20
1141.284288303418
 42
0.4142135623731
 10
3693.214163127572
 20
1139.784288303418
 42
0.4142135623731
  0
LINE
  5
3B4
330
1F
100
AcDbEntity
  8
0-B_寸法
  6
Continuous
 62
   120
370
     5
100
AcDbLine
 10
3693.214163127572
 20
1940.784288303419
 30
0.0
 11
3693.214163127572
 21
1141.284288303418
 31
0.0
  0
LINE
  5
3B5
330
1F
100
AcDbEntity
  8
0-B_寸法
  6
Continuous
 62
   120
370
     5
100
AcDbLine
 10
3693.214163127572
 20
1940.784288303419
 30
0.0
 11
3543.214163127572
 21
1940.784288303419
 31
0.0
  0
LINE
  5
3B6
330
1F
100
AcDbEntity
  8
0-B_寸法
  6
Continuous
 62
   120
370
     5
100
AcDbLine
 10
3693.214163127572
 20
1964.034288303418
 30
0.0
 11
3543.214163127572
 21
1964.034288303418
 31
0.0
  0
LWPOLYLINE
  5
3B7
330
1F
100
AcDbEntity
  8
0-B_寸法
  6
Continuous
 62
     7
370
     9
100
AcDbPolyline
 90
        4
 70
     1
 43
3.0
 10
3694.714163127571
 20
1940.784288303419
 42
0.4142135623731
 10
3693.214163127572
 20
1942.284288303419
 42
0.4142135623731
 10
3691.714163127572
 20
1940.784288303419
 42
0.4142135623731
 10
3693.214163127572
 20
1939.284288303419
 42
0.4142135623731
  0
LWPOLYLINE
  5
3B8
330
1F
100
AcDbEntity
  8
0-B_寸法
  6
Continuous
 62
     7
370
     9
100
AcDbPolyline
 90
        4
 70
     1
 43
3.0
 10
3694.714163127571
 20
1964.034288303418
 42
0.4142135623731
 10
3693.214163127572
 20
1965.534288303418
 42
0.4142135623731
 10
3691.714163127572
 20
1964.034288303418
 42
0.4142135623731
 10
3693.214163127572
 20
1962.534288303418
 42
0.4142135623731
  0
LINE
  5
3B9
330
1F
100
AcDbEntity
  8
0-B_寸法
  6
Continuous
 62
   120
370
     5
100
AcDbLine
 10
3693.214163127572
 20
1964.034288303418
 30
0.0
 11
3693.214163127572
 21
1940.784288303419
 31
0.0
  0
LINE
  5
3BA
330
1F
100
AcDbEntity
  8
0-B_寸法
  6
Continuous
 62
   120
370
     5
100
AcDbLine
 10
3468.214163127568
 20
593.0342883034183
 30
0.0
 11
3468.214163127568
 21
743.0342883034183
 31
0.0
  0
LWPOLYLINE
  5
3BB
330
1F
100
AcDbEntity
  8
0-B_寸法
  6
Continuous
 62
     7
370
     9
100
AcDbPolyline
 90
        4
 70
     1
 43
3.0
 10
3469.714163127568
 20
593.0342883034183
 42
0.4142135623731
 10
3468.214163127568
 20
594.5342883034183
 42
0.4142135623731
 10
3466.714163127568
 20
593.0342883034183
 42
0.4142135623731
 10
3468.214163127568
 20
591.5342883034183
 42
0.4142135623731
  0
LINE
  5
3BC
330
1F
100
AcDbEntity
  8
0-B_寸法
  6
Continuous
 62
   120
370
     5
100
AcDbLine
 10
2856.214163127569
 20
593.0342883034183
 30
0.0
 11
3468.214163127568
 21
593.0342883034183
 31
0.0
  0
LINE
  5
3BD
330
1F
100
AcDbEntity
  8
0-B_寸法
  6
Continuous
 62
   120
370
     5
100
AcDbLine
 10
2856.214163127569
 20
593.0342883034183
 30
0.0
 11
2856.214163127569
 21
743.0342883034183
 31
0.0
  0
LWPOLYLINE
  5
3BE
330
1F
100
AcDbEntity
  8
0-B_寸法
  6
Continuous
 62
     7
370
     9
100
AcDbPolyline
 90
        4
 70
     1
 43
3.0
 10
2857.714163127569
 20
593.0342883034183
 42
0.4142135623731
 10
2856.214163127569
 20
594.5342883034183
 42
0.4142135623731
 10
2854.714163127569
 20
593.0342883034183
 42
0.4142135623731
 10
2856.214163127569
 20
591.5342883034183
 42
0.4142135623731
  0
TEXT
  5
3BF
330
1F
100
AcDbEntity
  8
0-B_寸法
  6
Continuous
 62
     7
370
   211
100
AcDbText
 10
3100.714163127568
 20
770.7242883034183
 30
0.0
 40
68.58
  1
390
 41
1.111111111111111
  7
ＭＳ ゴシック
100
AcDbText
  0
LINE
  5
3C0
330
1F
100
AcDbEntity
  8
0-B_寸法
  6
Continuous
 62
   120
370
     5
100
AcDbLine
 10
3468.214163127568
 20
743.0342883034183
 30
0.0
 11
3468.214163127568
 21
893.0342883034183
 31
0.0
  0
LWPOLYLINE
  5
3C1
330
1F
100
AcDbEntity
  8
0-B_寸法
  6
Continuous
 62
     7
370
     9
100
AcDbPolyline
 90
        4
 70
     1
 43
3.0
 10
3469.714163127568
 20
743.0342883034183
 42
0.4142135623731
 10
3468.214163127568
 20
744.5342883034183
 42
0.4142135623731
 10
3466.714163127568
 20
743.0342883034183
 42
0.4142135623731
 10
3468.214163127568
 20
741.5342883034183
 42
0.4142135623731
  0
LINE
  5
3C2
330
1F
100
AcDbEntity
  8
0-B_寸法
  6
Continuous
 62
   120
370
     5
100
AcDbLine
 10
2856.214163127569
 20
743.0342883034183
 30
0.0
 11
2856.214163127569
 21
893.0342883034183
 31
0.0
  0
LWPOLYLINE
  5
3C3
330
1F
100
AcDbEntity
  8
0-B_寸法
  6
Continuous
 62
     7
370
     9
100
AcDbPolyline
 90
        4
 70
     1
 43
3.0
 10
2857.714163127569
 20
743.0342883034183
 42
0.4142135623731
 10
2856.214163127569
 20
744.5342883034183
 42
0.4142135623731
 10
2854.714163127569
 20
743.0342883034183
 42
0.4142135623731
 10
2856.214163127569
 20
741.5342883034183
 42
0.4142135623731
  0
LINE
  5
3C4
330
1F
100
AcDbEntity
  8
0-1_本体
  6
Continuous
 62
    40
370
    15
100
AcDbLine
 10
3464.464163127568
 20
1940.784288303419
 30
0.0
 11
2856.214163127569
 21
1940.784288303419
 31
0.0
  0
LINE
  5
3C5
330
1F
100
AcDbEntity
  8
0-1_本体
  6
Continuous
 62
    40
370
    15
100
AcDbLine
 10
2856.214163127569
 20
1141.284288303417
 30
0.0
 11
3464.464163127568
 21
1141.284288303417
 31
0.0
  0
LINE
  5
3C6
330
1F
100
AcDbEntity
  8
0-1_本体
  6
Continuous
 62
    40
370
    15
100
AcDbLine
 10
3468.214163127568
 20
1955.784288303419
 30
0.0
 11
3464.464163127568
 21
1955.784288303419
 31
0.0
  0
LINE
  5
3C7
330
1F
100
AcDbEntity
  8
0-1_本体
  6
Continuous
 62
    40
370
    15
100
AcDbLine
 10
3464.464163127568
 20
1126.284288303417
 30
0.0
 11
3468.214163127568
 21
1126.284288303417
 31
0.0
  0
LINE
  5
3C8
330
1F
100
AcDbEntity
  8
0-1_本体
  6
Continuous
 62
    40
370
    15
100
AcDbLine
 10
3464.464163127568
 20
1126.284288303417
 30
0.0
 11
3464.464163127568
 21
1955.784288303419
 31
0.0
  0
LINE
  5
3C9
330
1F
100
AcDbEntity
  8
0-1_本体
  6
Continuous
 62
     7
370
     9
100
AcDbLine
 10
3468.214163127568
 20
1118.034288303417
 30
0.0
 11
3468.214163127568
 21
968.0342883034183
 31
0.0
  0
LINE
  5
3CA
330
1F
100
AcDbEntity
  8
0-1_本体
  6
Continuous
 62
     7
370
     9
100
AcDbLine
 10
2856.214163127569
 20
1118.034288303417
 30
0.0
 11
2856.214163127569
 21
968.0342883034183
 31
0.0
  0
LINE
  5
3CB
330
1F
100
AcDbEntity
  8
0-1_本体
  6
Continuous
 62
    40
370
    15
100
AcDbLine
 10
3468.214163127568
 20
1118.034288303417
 30
0.0
 11
3468.214163127568
 21
1964.034288303417
 31
0.0
  0
LINE
  5
3CC
330
1F
100
AcDbEntity
  8
0-1_本体
  6
Continuous
 62
    40
370
    15
100
AcDbLine
 10
2856.214163127569
 20
1141.284288303417
 30
0.0
 11
2856.214163127569
 21
1118.034288303417
 31
0.0
  0
LINE
  5
3CD
330
1F
100
AcDbEntity
  8
0-1_本体
  6
Continuous
 62
    40
370
    15
100
AcDbLine
 10
2856.214163127569
 20
1964.034288303417
 30
0.0
 11
2856.214163127569
 21
1940.784288303419
 31
0.0
  0
LINE
  5
3CE
330
1F
100
AcDbEntity
  8
0-1_本体
  6
Continuous
 62
    40
370
    15
100
AcDbLine
 10
2856.214163127569
 20
1118.034288303417
 30
0.0
 11
3468.214163127568
 21
1118.034288303417
 31
0.0
  0
LINE
  5
3CF
330
1F
100
AcDbEntity
  8
0-1_本体
  6
Continuous
 62
    40
370
    15
100
AcDbLine
 10
3468.214163127568
 20
1964.034288303417
 30
0.0
 11
2856.214163127569
 21
1964.034288303417
 31
0.0
  0
LINE
  5
3D0
330
1F
100
AcDbEntity
  8
0-1_本体
  6
JWW_HOJO
 62
   120
370
     5
100
AcDbLine
 10
3543.214163127568
 20
2039.034288303417
 30
0.0
 11
2751.214163127569
 21
2039.034288303417
 31
0.0
  0
LINE
  5
3D1
330
1F
100
AcDbEntity
  8
0-1_本体
  6
JWW_HOJO
 62
   120
370
     5
100
AcDbLine
 10
3543.214163127568
 20
893.0342883034183
 30
0.0
 11
3543.214163127568
 21
2039.034288303417
 31
0.0
  0
LINE
  5
3D2
330
1F
100
AcDbEntity
  8
0-1_本体
  6
JWW_HOJO
 62
   120
370
     5
100
AcDbLine
 10
2751.214163127569
 20
893.0342883034183
 30
0.0
 11
3543.214163127568
 21
893.0342883034183
 31
0.0
  0
LINE
  5
3D3
330
1F
100
AcDbEntity
  8
0-1_本体
  6
JWW_HOJO
 62
   120
370
     5
100
AcDbLine
 10
2751.214163127569
 20
2039.034288303417
 30
0.0
 11
2751.214163127569
 21
893.0342883034183
 31
0.0
  0
TEXT
  5
3D4
330
1F
100
AcDbEntity
  8
F-A_文字
  6
Continuous
 62
     7
370
     0
100
AcDbText
 10
-5239.999990205507
 20
-4017.309988143852
 30
0.0
 40
68.58
  1
ソフトアート　造り付け家具　引き出しユニット
 41
1.159090909090909
  7
ＭＳ ゴシック
100
AcDbText
  0
LINE
  5
3D5
330
1F
100
AcDbEntity
  8
0-4_棚
  6
JWW_CENTER1
 62
   120
370
     5
100
AcDbLine
 10
802.0713052292467
 20
1300.284288303417
 30
0.0
 11
802.0713052292467
 21
1150.284288303417
 31
0.0
  0
LINE
  5
3D6
330
1F
100
AcDbEntity
  8
0-4_棚
  6
JWW_CENTER1
 62
   120
370
     5
100
AcDbLine
 10
1252.071305229247
 20
1300.284288303417
 30
0.0
 11
802.0713052292467
 21
1300.284288303417
 31
0.0
  0
LINE
  5
3D7
330
1F
100
AcDbEntity
  8
0-4_棚
  6
JWW_CENTER1
 62
   120
370
     5
100
AcDbLine
 10
1252.071305229247
 20
1150.284288303417
 30
0.0
 11
1252.071305229247
 21
1300.284288303417
 31
0.0
  0
LINE
  5
3D8
330
1F
100
AcDbEntity
  8
0-4_棚
  6
JWW_CENTER1
 62
   120
370
     5
100
AcDbLine
 10
802.0713052292467
 20
1488.534288303418
 30
0.0
 11
802.0713052292467
 21
1338.534288303418
 31
0.0
  0
LINE
  5
3D9
330
1F
100
AcDbEntity
  8
0-4_棚
  6
JWW_CENTER1
 62
   120
370
     5
100
AcDbLine
 10
1252.071305229247
 20
1488.534288303418
 30
0.0
 11
802.0713052292467
 21
1488.534288303418
 31
0.0
  0
LINE
  5
3DA
330
1F
100
AcDbEntity
  8
0-4_棚
  6
JWW_CENTER1
 62
   120
370
     5
100
AcDbLine
 10
1252.071305229247
 20
1338.534288303418
 30
0.0
 11
1252.071305229247
 21
1488.534288303418
 31
0.0
  0
LINE
  5
3DB
330
1F
100
AcDbEntity
  8
0-4_棚
  6
JWW_CENTER1
 62
   120
370
     5
100
AcDbLine
 10
802.0713052292467
 20
1700.034288303417
 30
0.0
 11
802.0713052292467
 21
1550.034288303417
 31
0.0
  0
LINE
  5
3DC
330
1F
100
AcDbEntity
  8
0-4_棚
  6
JWW_CENTER1
 62
   120
370
     5
100
AcDbLine
 10
1252.071305229247
 20
1700.034288303417
 30
0.0
 11
802.0713052292467
 21
1700.034288303417
 31
0.0
  0
LINE
  5
3DD
330
1F
100
AcDbEntity
  8
0-4_棚
  6
JWW_CENTER1
 62
   120
370
     5
100
AcDbLine
 10
1252.071305229247
 20
1550.034288303417
 30
0.0
 11
1252.071305229247
 21
1700.034288303417
 31
0.0
  0
LINE
  5
3DE
330
1F
100
AcDbEntity
  8
0-4_棚
  6
JWW_CENTER1
 62
   120
370
     5
100
AcDbLine
 10
802.0713052292467
 20
1911.534288303417
 30
0.0
 11
802.0713052292467
 21
1761.534288303417
 31
0.0
  0
LINE
  5
3DF
330
1F
100
AcDbEntity
  8
0-4_棚
  6
JWW_CENTER1
 62
   120
370
     5
100
AcDbLine
 10
1252.071305229247
 20
1911.534288303417
 30
0.0
 11
802.0713052292467
 21
1911.534288303417
 31
0.0
  0
LINE
  5
3E0
330
1F
100
AcDbEntity
  8
0-4_棚
  6
JWW_CENTER1
 62
   120
370
     5
100
AcDbLine
 10
1252.071305229247
 20
1761.534288303417
 30
0.0
 11
1252.071305229247
 21
1911.534288303417
 31
0.0
  0
LINE
  5
3E1
330
1F
100
AcDbEntity
  8
0-4_棚
  6
JWW_CENTER1
 62
   120
370
     5
100
AcDbLine
 10
2856.214163127569
 20
1300.284288303417
 30
0.0
 11
2856.214163127569
 21
1150.284288303417
 31
0.0
  0
LINE
  5
3E2
330
1F
100
AcDbEntity
  8
0-4_棚
  6
JWW_CENTER1
 62
   120
370
     5
100
AcDbLine
 10
2856.214163127569
 20
1488.534288303418
 30
0.0
 11
2856.214163127569
 21
1338.534288303418
 31
0.0
  0
LINE
  5
3E3
330
1F
100
AcDbEntity
  8
0-4_棚
  6
JWW_CENTER1
 62
   120
370
     5
100
AcDbLine
 10
2856.214163127569
 20
1700.034288303417
 30
0.0
 11
2856.214163127569
 21
1550.034288303417
 31
0.0
  0
LINE
  5
3E4
330
1F
100
AcDbEntity
  8
0-4_棚
  6
JWW_CENTER1
 62
   120
370
     5
100
AcDbLine
 10
2856.214163127569
 20
1911.534288303417
 30
0.0
 11
2856.214163127569
 21
1761.534288303417
 31
0.0
  0
LINE
  5
3E5
330
1F
100
AcDbEntity
  8
0-4_棚
  6
JWW_CENTER1
 62
   120
370
     5
100
AcDbLine
 10
802.0713052292467
 20
-1056.000118749018
 30
0.0
 11
802.0713052292467
 21
-1206.000118749018
 31
0.0
  0
LINE
  5
3E6
330
1F
100
AcDbEntity
  8
0-4_棚
  6
JWW_CENTER1
 62
   120
370
     5
100
AcDbLine
 10
1252.071305229247
 20
-1056.000118749018
 30
0.0
 11
802.0713052292467
 21
-1056.000118749018
 31
0.0
  0
LINE
  5
3E7
330
1F
100
AcDbEntity
  8
0-4_棚
  6
JWW_CENTER1
 62
   120
370
     5
100
AcDbLine
 10
1252.071305229247
 20
-1206.000118749018
 30
0.0
 11
1252.071305229247
 21
-1056.000118749018
 31
0.0
  0
LINE
  5
3E8
330
1F
100
AcDbEntity
  8
0-4_棚
  6
JWW_CENTER1
 62
   120
370
     5
100
AcDbLine
 10
802.0713052292467
 20
-844.5001187490176
 30
0.0
 11
802.0713052292467
 21
-994.5001187490176
 31
0.0
  0
LINE
  5
3E9
330
1F
100
AcDbEntity
  8
0-4_棚
  6
JWW_CENTER1
 62
   120
370
     5
100
AcDbLine
 10
1252.071305229247
 20
-844.5001187490176
 30
0.0
 11
802.0713052292467
 21
-844.5001187490176
 31
0.0
  0
LINE
  5
3EA
330
1F
100
AcDbEntity
  8
0-4_棚
  6
JWW_CENTER1
 62
   120
370
     5
100
AcDbLine
 10
1252.071305229247
 20
-994.5001187490176
 30
0.0
 11
1252.071305229247
 21
-844.5001187490176
 31
0.0
  0
LINE
  5
3EB
330
1F
100
AcDbEntity
  8
0-4_棚
  6
JWW_CENTER1
 62
   120
370
     5
100
AcDbLine
 10
2856.21416312757
 20
-1056.000118749018
 30
0.0
 11
2856.21416312757
 21
-1206.000118749018
 31
0.0
  0
LINE
  5
3EC
330
1F
100
AcDbEntity
  8
0-4_棚
  6
JWW_CENTER1
 62
   120
370
     5
100
AcDbLine
 10
2856.21416312757
 20
-844.5001187490176
 30
0.0
 11
2856.21416312757
 21
-994.5001187490176
 31
0.0
  0
LINE
  5
3ED
330
1F
100
AcDbEntity
  8
0-4_棚
  6
JWW_CENTER1
 62
   120
370
     5
100
AcDbLine
 10
802.0713052292467
 20
-1542.750118749018
 30
0.0
 11
802.0713052292467
 21
-1778.250118749018
 31
0.0
  0
LINE
  5
3EE
330
1F
100
AcDbEntity
  8
0-4_棚
  6
JWW_CENTER1
 62
   120
370
     5
100
AcDbLine
 10
1252.071305229247
 20
-1778.250118749018
 30
0.0
 11
1252.071305229247
 21
-1542.750118749018
 31
0.0
  0
LINE
  5
3EF
330
1F
100
AcDbEntity
  8
0-4_棚
  6
JWW_CENTER1
 62
   120
370
     5
100
AcDbLine
 10
1252.071305229247
 20
-1542.750118749018
 30
0.0
 11
802.0713052292467
 21
-1542.750118749018
 31
0.0
  0
LINE
  5
3F0
330
1F
100
AcDbEntity
  8
0-4_棚
  6
JWW_CENTER1
 62
   120
370
     5
100
AcDbLine
 10
802.0713052292467
 20
-1268.250118749019
 30
0.0
 11
802.0713052292467
 21
-1503.750118749019
 31
0.0
  0
LINE
  5
3F1
330
1F
100
AcDbEntity
  8
0-4_棚
  6
JWW_CENTER1
 62
   120
370
     5
100
AcDbLine
 10
1252.071305229247
 20
-1503.750118749019
 30
0.0
 11
1252.071305229247
 21
-1268.250118749019
 31
0.0
  0
LINE
  5
3F2
330
1F
100
AcDbEntity
  8
0-4_棚
  6
JWW_CENTER1
 62
   120
370
     5
100
AcDbLine
 10
1252.071305229247
 20
-1268.250118749019
 30
0.0
 11
802.0713052292467
 21
-1268.250118749019
 31
0.0
  0
LINE
  5
3F3
330
1F
100
AcDbEntity
  8
0-4_棚
  6
JWW_CENTER1
 62
   120
370
     5
100
AcDbLine
 10
2856.21416312757
 20
-1542.750118749018
 30
0.0
 11
2856.21416312757
 21
-1778.250118749018
 31
0.0
  0
LINE
  5
3F4
330
1F
100
AcDbEntity
  8
0-4_棚
  6
JWW_CENTER1
 62
   120
370
     5
100
AcDbLine
 10
2856.21416312757
 20
-1268.250118749019
 30
0.0
 11
2856.21416312757
 21
-1503.750118749019
 31
0.0
  0
TEXT
  5
3F5
330
1F
100
AcDbEntity
  8
0-A_文字
  6
Continuous
 62
     7
370
     9
100
AcDbText
 10
710.0711651602967
 20
1830.891026573892
 30
0.0
 40
61.722
  1
BOX 363x100x300
  7
ＭＳ ゴシック
100
AcDbText
  0
TEXT
  5
3F6
330
1F
100
AcDbEntity
  8
0-A_文字
  6
Continuous
 62
     7
370
     9
100
AcDbText
 10
818.022907855401
 20
1769.406186151367
 30
0.0
 40
61.722
  1
ｽﾗｲﾄﾞﾚｰﾙ L300
 41
0.9999999999999998
  7
ＭＳ ゴシック
100
AcDbText
  0
TEXT
  5
3F7
330
1F
100
AcDbEntity
  8
0-A_文字
  6
Continuous
 62
     7
370
     9
100
AcDbText
 10
710.0711651602967
 20
1619.391026573891
 30
0.0
 40
61.722
  1
BOX 363x100x300
  7
ＭＳ ゴシック
100
AcDbText
  0
TEXT
  5
3F8
330
1F
100
AcDbEntity
  8
0-A_文字
  6
Continuous
 62
     7
370
     9
100
AcDbText
 10
818.022907855401
 20
1557.906186151369
 30
0.0
 40
61.722
  1
ｽﾗｲﾄﾞﾚｰﾙ L300
 41
0.9999999999999998
  7
ＭＳ ゴシック
100
AcDbText
  0
TEXT
  5
3F9
330
1F
100
AcDbEntity
  8
0-A_文字
  6
Continuous
 62
     7
370
     9
100
AcDbText
 10
710.0711651602967
 20
1407.89102657389
 30
0.0
 40
61.722
  1
BOX 363x100x300
  7
ＭＳ ゴシック
100
AcDbText
  0
TEXT
  5
3FA
330
1F
100
AcDbEntity
  8
0-A_文字
  6
Continuous
 62
     7
370
     9
100
AcDbText
 10
818.022907855401
 20
1346.406186151368
 30
0.0
 40
61.722
  1
ｽﾗｲﾄﾞﾚｰﾙ L300
 41
0.9999999999999998
  7
ＭＳ ゴシック
100
AcDbText
  0
TEXT
  5
3FB
330
1F
100
AcDbEntity
  8
0-A_文字
  6
Continuous
 62
     7
370
     9
100
AcDbText
 10
710.0711651602967
 20
1219.641026573891
 30
0.0
 40
61.722
  1
BOX 363x100x300
  7
ＭＳ ゴシック
100
AcDbText
  0
TEXT
  5
3FC
330
1F
100
AcDbEntity
  8
0-A_文字
  6
Continuous
 62
     7
370
     9
100
AcDbText
 10
818.022907855401
 20
1158.156186151367
 30
0.0
 40
61.722
  1
ｽﾗｲﾄﾞﾚｰﾙ L300
 41
0.9999999999999998
  7
ＭＳ ゴシック
100
AcDbText
  0
TEXT
  5
3FD
330
1F
100
AcDbEntity
  8
0-A_文字
  6
Continuous
 62
     7
370
     9
100
AcDbText
 10
710.0711651602933
 20
-925.143380478544
 30
0.0
 40
61.722
  1
BOX 363x100x300
  7
ＭＳ ゴシック
100
AcDbText
  0
TEXT
  5
3FE
330
1F
100
AcDbEntity
  8
0-A_文字
  6
Continuous
 62
     7
370
     9
100
AcDbText
 10
818.0229078553873
 20
-986.628220901068
 30
0.0
 40
61.722
  1
ｽﾗｲﾄﾞﾚｰﾙ L300
 41
0.9999999999999998
  7
ＭＳ ゴシック
100
AcDbText
  0
TEXT
  5
3FF
330
1F
100
AcDbEntity
  8
0-A_文字
  6
Continuous
 62
     7
370
     9
100
AcDbText
 10
710.0711651602933
 20
-1136.643380478544
 30
0.0
 40
61.722
  1
BOX 363x100x300
  7
ＭＳ ゴシック
100
AcDbText
  0
TEXT
  5
400
330
1F
100
AcDbEntity
  8
0-A_文字
  6
Continuous
 62
     7
370
     9
100
AcDbText
 10
818.0229078553873
 20
-1198.128220901069
 30
0.0
 40
61.722
  1
ｽﾗｲﾄﾞﾚｰﾙ L300
 41
0.9999999999999998
  7
ＭＳ ゴシック
100
AcDbText
  0
TEXT
  5
401
330
1F
100
AcDbEntity
  8
0-A_文字
  6
Continuous
 62
     7
370
     9
100
AcDbText
 10
689.8211651603015
 20
-1393.027968060582
 30
0.0
 40
61.722
  1
BOX 363x157x300
  7
ＭＳ ゴシック
100
AcDbText
  0
TEXT
  5
402
330
1F
100
AcDbEntity
  8
0-A_文字
  6
Continuous
 62
     7
370
     9
100
AcDbText
 10
818.0229078553873
 20
-1454.512808483106
 30
0.0
 40
61.722
  1
ｽﾗｲﾄﾞﾚｰﾙ L300
 41
0.9999999999999998
  7
ＭＳ ゴシック
100
AcDbText
  0
TEXT
  5
403
330
1F
100
AcDbEntity
  8
0-A_文字
  6
Continuous
 62
     7
370
     9
100
AcDbText
 10
689.8211651603015
 20
-1667.527968060583
 30
0.0
 40
61.722
  1
BOX 363x157x300
  7
ＭＳ ゴシック
100
AcDbText
  0
TEXT
  5
404
330
1F
100
AcDbEntity
  8
0-A_文字
  6
Continuous
 62
     7
370
     9
100
AcDbText
 10
818.0229078553873
 20
-1729.012808483106
 30
0.0
 40
61.722
  1
ｽﾗｲﾄﾞﾚｰﾙ L300
 41
0.9999999999999998
  7
ＭＳ ゴシック
100
AcDbText
  0
LINE
  5
405
330
1F
100
AcDbEntity
  8
0-4_棚
  6
JWW_CENTER1
 62
   120
370
     5
100
AcDbLine
 10
2856.21416312757
 20
-1778.250118749018
 30
0.0
 11
3381.21416312757
 21
-1778.250118749018
 31
0.0
  0
LINE
  5
406
330
1F
100
AcDbEntity
  8
0-4_棚
  6
JWW_CENTER1
 62
   120
370
     5
100
AcDbLine
 10
2856.21416312757
 20
-1503.750118749019
 30
0.0
 11
3381.21416312757
 21
-1503.750118749019
 31
0.0
  0
LINE
  5
407
330
1F
100
AcDbEntity
  8
0-4_棚
  6
JWW_CENTER1
 62
   120
370
     5
100
AcDbLine
 10
2856.21416312757
 20
-1206.000118749018
 30
0.0
 11
3381.21416312757
 21
-1206.000118749018
 31
0.0
  0
LINE
  5
408
330
1F
100
AcDbEntity
  8
0-4_棚
  6
JWW_CENTER1
 62
   120
370
     5
100
AcDbLine
 10
2856.21416312757
 20
-994.5001187490176
 30
0.0
 11
3381.21416312757
 21
-994.5001187490176
 31
0.0
  0
LINE
  5
409
330
1F
100
AcDbEntity
  8
0-4_棚
  6
JWW_CENTER1
 62
   120
370
     5
100
AcDbLine
 10
2856.214163127569
 20
1150.284288303417
 30
0.0
 11
3381.214163127569
 21
1150.284288303417
 31
0.0
  0
LINE
  5
40A
330
1F
100
AcDbEntity
  8
0-4_棚
  6
JWW_CENTER1
 62
   120
370
     5
100
AcDbLine
 10
2856.214163127569
 20
1338.534288303418
 30
0.0
 11
3381.214163127569
 21
1338.534288303418
 31
0.0
  0
LINE
  5
40B
330
1F
100
AcDbEntity
  8
0-4_棚
  6
JWW_CENTER1
 62
   120
370
     5
100
AcDbLine
 10
2856.214163127569
 20
1550.034288303417
 30
0.0
 11
3381.214163127569
 21
1550.034288303417
 31
0.0
  0
LINE
  5
40C
330
1F
100
AcDbEntity
  8
0-4_棚
  6
JWW_CENTER1
 62
   120
370
     5
100
AcDbLine
 10
2856.214163127569
 20
1761.534288303417
 30
0.0
 11
3381.214163127569
 21
1761.534288303417
 31
0.0
  0
LINE
  5
40D
330
1F
100
AcDbEntity
  8
0-4_棚
  6
JWW_CENTER1
 62
   120
370
     5
100
AcDbLine
 10
3381.214163127569
 20
1300.284288303417
 30
0.0
 11
2856.214163127569
 21
1300.284288303417
 31
0.0
  0
LINE
  5
40E
330
1F
100
AcDbEntity
  8
0-4_棚
  6
JWW_CENTER1
 62
   120
370
     5
100
AcDbLine
 10
3381.214163127569
 20
1150.284288303417
 30
0.0
 11
3381.214163127569
 21
1300.284288303417
 31
0.0
  0
LINE
  5
40F
330
1F
100
AcDbEntity
  8
0-4_棚
  6
JWW_CENTER1
 62
   120
370
     5
100
AcDbLine
 10
3381.214163127569
 20
1488.534288303418
 30
0.0
 11
2856.214163127569
 21
1488.534288303418
 31
0.0
  0
LINE
  5
410
330
1F
100
AcDbEntity
  8
0-4_棚
  6
JWW_CENTER1
 62
   120
370
     5
100
AcDbLine
 10
3381.214163127569
 20
1338.534288303418
 30
0.0
 11
3381.214163127569
 21
1488.534288303418
 31
0.0
  0
LINE
  5
411
330
1F
100
AcDbEntity
  8
0-4_棚
  6
JWW_CENTER1
 62
   120
370
     5
100
AcDbLine
 10
3381.214163127569
 20
1700.034288303417
 30
0.0
 11
2856.214163127569
 21
1700.034288303417
 31
0.0
  0
LINE
  5
412
330
1F
100
AcDbEntity
  8
0-4_棚
  6
JWW_CENTER1
 62
   120
370
     5
100
AcDbLine
 10
3381.214163127569
 20
1550.034288303417
 30
0.0
 11
3381.214163127569
 21
1700.034288303417
 31
0.0
  0
LINE
  5
413
330
1F
100
AcDbEntity
  8
0-4_棚
  6
JWW_CENTER1
 62
   120
370
     5
100
AcDbLine
 10
3381.214163127569
 20
1911.534288303417
 30
0.0
 11
2856.214163127569
 21
1911.534288303417
 31
0.0
  0
LINE
  5
414
330
1F
100
AcDbEntity
  8
0-4_棚
  6
JWW_CENTER1
 62
   120
370
     5
100
AcDbLine
 10
3381.214163127569
 20
1761.534288303417
 30
0.0
 11
3381.214163127569
 21
1911.534288303417
 31
0.0
  0
LINE
  5
415
330
1F
100
AcDbEntity
  8
0-4_棚
  6
JWW_CENTER1
 62
   120
370
     5
100
AcDbLine
 10
3381.21416312757
 20
-1056.000118749018
 30
0.0
 11
2856.21416312757
 21
-1056.000118749018
 31
0.0
  0
LINE
  5
416
330
1F
100
AcDbEntity
  8
0-4_棚
  6
JWW_CENTER1
 62
   120
370
     5
100
AcDbLine
 10
3381.21416312757
 20
-1206.000118749018
 30
0.0
 11
3381.21416312757
 21
-1056.000118749018
 31
0.0
  0
LINE
  5
417
330
1F
100
AcDbEntity
  8
0-4_棚
  6
JWW_CENTER1
 62
   120
370
     5
100
AcDbLine
 10
3381.21416312757
 20
-844.5001187490176
 30
0.0
 11
2856.21416312757
 21
-844.5001187490176
 31
0.0
  0
LINE
  5
418
330
1F
100
AcDbEntity
  8
0-4_棚
  6
JWW_CENTER1
 62
   120
370
     5
100
AcDbLine
 10
3381.21416312757
 20
-994.5001187490176
 30
0.0
 11
3381.21416312757
 21
-844.5001187490176
 31
0.0
  0
LINE
  5
419
330
1F
100
AcDbEntity
  8
0-4_棚
  6
JWW_CENTER1
 62
   120
370
     5
100
AcDbLine
 10
3381.21416312757
 20
-1778.250118749018
 30
0.0
 11
3381.21416312757
 21
-1542.750118749018
 31
0.0
  0
LINE
  5
41A
330
1F
100
AcDbEntity
  8
0-4_棚
  6
JWW_CENTER1
 62
   120
370
     5
100
AcDbLine
 10
3381.21416312757
 20
-1542.750118749018
 30
0.0
 11
2856.21416312757
 21
-1542.750118749018
 31
0.0
  0
LINE
  5
41B
330
1F
100
AcDbEntity
  8
0-4_棚
  6
JWW_CENTER1
 62
   120
370
     5
100
AcDbLine
 10
3381.21416312757
 20
-1503.750118749019
 30
0.0
 11
3381.21416312757
 21
-1268.250118749019
 31
0.0
  0
LINE
  5
41C
330
1F
100
AcDbEntity
  8
0-4_棚
  6
JWW_CENTER1
 62
   120
370
     5
100
AcDbLine
 10
3381.21416312757
 20
-1268.250118749019
 30
0.0
 11
2856.21416312757
 21
-1268.250118749019
 31
0.0
  0
TEXT
  5
41D
330
1F
100
AcDbEntity
  8
0-A_文字
  6
Continuous
 62
     7
370
     9
100
AcDbText
 10
2833.563552296096
 20
1830.891026573892
 30
0.0
 40
61.722
  1
BOX 363x100x350
  7
ＭＳ ゴシック
100
AcDbText
  0
TEXT
  5
41E
330
1F
100
AcDbEntity
  8
0-A_文字
  6
Continuous
 62
     7
370
     9
100
AcDbText
 10
2941.515294991193
 20
1769.406186151367
 30
0.0
 40
61.722
  1
ｽﾗｲﾄﾞﾚｰﾙ L400
 41
0.9999999999999998
  7
ＭＳ ゴシック
100
AcDbText
  0
TEXT
  5
41F
330
1F
100
AcDbEntity
  8
0-A_文字
  6
Continuous
 62
     7
370
     9
100
AcDbText
 10
2833.563552296096
 20
1619.391026573891
 30
0.0
 40
61.722
  1
BOX 363x100x350
  7
ＭＳ ゴシック
100
AcDbText
  0
TEXT
  5
420
330
1F
100
AcDbEntity
  8
0-A_文字
  6
Continuous
 62
     7
370
     9
100
AcDbText
 10
2941.515294991193
 20
1557.906186151369
 30
0.0
 40
61.722
  1
ｽﾗｲﾄﾞﾚｰﾙ L400
 41
0.9999999999999998
  7
ＭＳ ゴシック
100
AcDbText
  0
TEXT
  5
421
330
1F
100
AcDbEntity
  8
0-A_文字
  6
Continuous
 62
     7
370
     9
100
AcDbText
 10
2833.563552296096
 20
1407.89102657389
 30
0.0
 40
61.722
  1
BOX 363x100x350
  7
ＭＳ ゴシック
100
AcDbText
  0
TEXT
  5
422
330
1F
100
AcDbEntity
  8
0-A_文字
  6
Continuous
 62
     7
370
     9
100
AcDbText
 10
2941.515294991193
 20
1346.406186151368
 30
0.0
 40
61.722
  1
ｽﾗｲﾄﾞﾚｰﾙ L400
 41
0.9999999999999998
  7
ＭＳ ゴシック
100
AcDbText
  0
TEXT
  5
423
330
1F
100
AcDbEntity
  8
0-A_文字
  6
Continuous
 62
     7
370
     9
100
AcDbText
 10
2833.563552296096
 20
1219.641026573891
 30
0.0
 40
61.722
  1
BOX 363x100x350
  7
ＭＳ ゴシック
100
AcDbText
  0
TEXT
  5
424
330
1F
100
AcDbEntity
  8
0-A_文字
  6
Continuous
 62
     7
370
     9
100
AcDbText
 10
2941.515294991193
 20
1158.156186151367
 30
0.0
 40
61.722
  1
ｽﾗｲﾄﾞﾚｰﾙ L400
 41
0.9999999999999998
  7
ＭＳ ゴシック
100
AcDbText
  0
TEXT
  5
425
330
1F
100
AcDbEntity
  8
0-A_文字
  6
Continuous
 62
     7
370
     9
100
AcDbText
 10
2820.143386095206
 20
-925.143380478544
 30
0.0
 40
61.722
  1
BOX 363x100x350
  7
ＭＳ ゴシック
100
AcDbText
  0
TEXT
  5
426
330
1F
100
AcDbEntity
  8
0-A_文字
  6
Continuous
 62
     7
370
     9
100
AcDbText
 10
2928.09512879029
 20
-986.628220901068
 30
0.0
 40
61.722
  1
ｽﾗｲﾄﾞﾚｰﾙ L400
 41
0.9999999999999998
  7
ＭＳ ゴシック
100
AcDbText
  0
TEXT
  5
427
330
1F
100
AcDbEntity
  8
0-A_文字
  6
Continuous
 62
     7
370
     9
100
AcDbText
 10
2820.143386095206
 20
-1136.643380478544
 30
0.0
 40
61.722
  1
BOX 363x100x350
  7
ＭＳ ゴシック
100
AcDbText
  0
TEXT
  5
428
330
1F
100
AcDbEntity
  8
0-A_文字
  6
Continuous
 62
     7
370
     9
100
AcDbText
 10
2965.924205967879
 20
-1198.128220901069
 30
0.0
 40
61.722
  1
ｽﾗｲﾄﾞﾚｰﾙ L400
 41
0.9999999999999998
  7
ＭＳ ゴシック
100
AcDbText
  0
TEXT
  5
429
330
1F
100
AcDbEntity
  8
0-A_文字
  6
Continuous
 62
     7
370
     9
100
AcDbText
 10
2799.893386095201
 20
-1393.027968060582
 30
0.0
 40
61.722
  1
BOX 363x157x350
  7
ＭＳ ゴシック
100
AcDbText
  0
TEXT
  5
42A
330
1F
100
AcDbEntity
  8
0-A_文字
  6
Continuous
 62
     7
370
     9
100
AcDbText
 10
2928.09512879029
 20
-1454.512808483106
 30
0.0
 40
61.722
  1
ｽﾗｲﾄﾞﾚｰﾙ L400
 41
0.9999999999999998
  7
ＭＳ ゴシック
100
AcDbText
  0
TEXT
  5
42B
330
1F
100
AcDbEntity
  8
0-A_文字
  6
Continuous
 62
     7
370
     9
100
AcDbText
 10
2799.893386095201
 20
-1667.527968060583
 30
0.0
 40
61.722
  1
BOX 363x157x350
  7
ＭＳ ゴシック
100
AcDbText
  0
TEXT
  5
42C
330
1F
100
AcDbEntity
  8
0-A_文字
  6
Continuous
 62
     7
370
     9
100
AcDbText
 10
2928.09512879029
 20
-1729.012808483106
 30
0.0
 40
61.722
  1
ｽﾗｲﾄﾞﾚｰﾙ L400
 41
0.9999999999999998
  7
ＭＳ ゴシック
100
AcDbText
  0
LINE
  5
42D
330
1F
100
AcDbEntity
  8
0-B_寸法
  6
Continuous
 62
   120
370
     5
100
AcDbLine
 10
805.8213052292467
 20
-2185.500118749018
 30
0.0
 11
805.8213052292467
 21
-2035.500118749018
 31
0.0
  0
LWPOLYLINE
  5
42E
330
1F
100
AcDbEntity
  8
0-B_寸法
  6
Continuous
 62
     7
370
     9
100
AcDbPolyline
 90
        4
 70
     1
 43
3.0
 10
807.3213052292467
 20
-2185.500118749018
 42
0.4142135623731
 10
805.8213052292467
 20
-2184.000118749018
 42
0.4142135623731
 10
804.3213052292467
 20
-2185.500118749018
 42
0.4142135623731
 10
805.8213052292467
 20
-2187.000118749017
 42
0.4142135623731
  0
LINE
  5
42F
330
1F
100
AcDbEntity
  8
0-B_寸法
  6
Continuous
 62
   120
370
     5
100
AcDbLine
 10
802.0713052292484
 20
-2185.500118749018
 30
0.0
 11
805.8213052292467
 21
-2185.500118749018
 31
0.0
  0
LINE
  5
430
330
1F
100
AcDbEntity
  8
0-B_寸法
  6
Continuous
 62
   120
370
     5
100
AcDbLine
 10
805.8213052292467
 20
-2185.500118749018
 30
0.0
 11
829.0713052292477
 21
-2185.500118749018
 31
0.0
  0
LINE
  5
431
330
1F
100
AcDbEntity
  8
0-1_本体
  6
Continuous
 62
     7
370
     9
100
AcDbLine
 10
805.8213052292467
 20
-1960.500118749018
 30
0.0
 11
802.0713052292467
 21
-1960.500118749018
 31
0.0
  0
LINE
  5
432
330
1F
100
AcDbEntity
  8
0-1_本体
  6
Continuous
 62
    40
370
    15
100
AcDbLine
 10
805.8213052292467
 20
-1810.500118749018
 30
0.0
 11
805.8213052292467
 21
-1960.500118749018
 31
0.0
  0
LINE
  5
433
330
1F
100
AcDbEntity
  8
0-1_本体
  6
Continuous
 62
    40
370
    15
100
AcDbLine
 10
805.8213052292467
 20
-1960.500118749018
 30
0.0
 11
829.0713052292494
 21
-1960.500118749018
 31
0.0
  0
LINE
  5
434
330
1F
100
AcDbEntity
  8
0-B_寸法
  6
Continuous
 62
   120
370
     5
100
AcDbLine
 10
805.8213052292467
 20
743.0342883034183
 30
0.0
 11
805.8213052292467
 21
893.0342883034183
 31
0.0
  0
LWPOLYLINE
  5
435
330
1F
100
AcDbEntity
  8
0-B_寸法
  6
Continuous
 62
     7
370
     9
100
AcDbPolyline
 90
        4
 70
     1
 43
3.0
 10
807.3213052292467
 20
743.0342883034183
 42
0.4142135623731
 10
805.8213052292467
 20
744.5342883034183
 42
0.4142135623731
 10
804.3213052292467
 20
743.0342883034183
 42
0.4142135623731
 10
805.8213052292467
 20
741.5342883034183
 42
0.4142135623731
  0
LINE
  5
436
330
1F
100
AcDbEntity
  8
0-B_寸法
  6
Continuous
 62
   120
370
     5
100
AcDbLine
 10
802.0713052292484
 20
743.0342883034183
 30
0.0
 11
805.8213052292467
 21
743.0342883034183
 31
0.0
  0
LINE
  5
437
330
1F
100
AcDbEntity
  8
0-B_寸法
  6
Continuous
 62
   120
370
     5
100
AcDbLine
 10
805.8213052292467
 20
743.0342883034183
 30
0.0
 11
829.0713052292477
 21
743.0342883034183
 31
0.0
  0
LINE
  5
438
330
1F
100
AcDbEntity
  8
0-1_本体
  6
Continuous
 62
     7
370
     9
100
AcDbLine
 10
805.8213052292467
 20
968.0342883034183
 30
0.0
 11
802.0713052292467
 21
968.0342883034183
 31
0.0
  0
LINE
  5
439
330
1F
100
AcDbEntity
  8
0-1_本体
  6
Continuous
 62
    40
370
    15
100
AcDbLine
 10
805.8213052292467
 20
1118.034288303417
 30
0.0
 11
805.8213052292467
 21
968.0342883034183
 31
0.0
  0
LINE
  5
43A
330
1F
100
AcDbEntity
  8
0-1_本体
  6
Continuous
 62
    40
370
    15
100
AcDbLine
 10
805.8213052292467
 20
968.0342883034183
 30
0.0
 11
829.0713052292477
 21
968.0342883034183
 31
0.0
  0
LINE
  5
43B
330
1F
100
AcDbEntity
  8
0-B_寸法
  6
Continuous
 62
   120
370
     5
100
AcDbLine
 10
2859.964163127569
 20
-2185.500118749018
 30
0.0
 11
2859.964163127569
 21
-2035.500118749018
 31
0.0
  0
LWPOLYLINE
  5
43C
330
1F
100
AcDbEntity
  8
0-B_寸法
  6
Continuous
 62
     7
370
     9
100
AcDbPolyline
 90
        4
 70
     1
 43
3.0
 10
2861.464163127569
 20
-2185.500118749018
 42
0.4142135623731
 10
2859.964163127569
 20
-2184.000118749018
 42
0.4142135623731
 10
2858.464163127569
 20
-2185.500118749018
 42
0.4142135623731
 10
2859.964163127569
 20
-2187.000118749017
 42
0.4142135623731
  0
LINE
  5
43D
330
1F
100
AcDbEntity
  8
0-B_寸法
  6
Continuous
 62
   120
370
     5
100
AcDbLine
 10
2856.214163127569
 20
-2185.500118749018
 30
0.0
 11
2859.964163127569
 21
-2185.500118749018
 31
0.0
  0
LINE
  5
43E
330
1F
100
AcDbEntity
  8
0-B_寸法
  6
Continuous
 62
   120
370
     5
100
AcDbLine
 10
2859.964163127569
 20
-2185.500118749018
 30
0.0
 11
2883.214163127568
 21
-2185.500118749018
 31
0.0
  0
LINE
  5
43F
330
1F
100
AcDbEntity
  8
0-1_本体
  6
Continuous
 62
     7
370
     9
100
AcDbLine
 10
2859.964163127567
 20
-1960.500118749018
 30
0.0
 11
2856.21416312757
 21
-1960.500118749018
 31
0.0
  0
LINE
  5
440
330
1F
100
AcDbEntity
  8
0-1_本体
  6
Continuous
 62
    40
370
    15
100
AcDbLine
 10
2859.964163127567
 20
-1810.500118749018
 30
0.0
 11
2859.964163127567
 21
-1960.500118749018
 31
0.0
  0
LINE
  5
441
330
1F
100
AcDbEntity
  8
0-1_本体
  6
Continuous
 62
    40
370
    15
100
AcDbLine
 10
2859.964163127567
 20
-1960.500118749018
 30
0.0
 11
2883.214163127573
 21
-1960.500118749018
 31
0.0
  0
LINE
  5
442
330
1F
100
AcDbEntity
  8
0-B_寸法
  6
Continuous
 62
   120
370
     5
100
AcDbLine
 10
2859.964163127569
 20
743.0342883034183
 30
0.0
 11
2859.964163127569
 21
893.0342883034183
 31
0.0
  0
LWPOLYLINE
  5
443
330
1F
100
AcDbEntity
  8
0-B_寸法
  6
Continuous
 62
     7
370
     9
100
AcDbPolyline
 90
        4
 70
     1
 43
3.0
 10
2861.464163127569
 20
743.0342883034183
 42
0.4142135623731
 10
2859.964163127569
 20
744.5342883034183
 42
0.4142135623731
 10
2858.464163127569
 20
743.0342883034183
 42
0.4142135623731
 10
2859.964163127569
 20
741.5342883034183
 42
0.4142135623731
  0
LINE
  5
444
330
1F
100
AcDbEntity
  8
0-B_寸法
  6
Continuous
 62
   120
370
     5
100
AcDbLine
 10
2856.214163127569
 20
743.0342883034183
 30
0.0
 11
2859.964163127569
 21
743.0342883034183
 31
0.0
  0
LINE
  5
445
330
1F
100
AcDbEntity
  8
0-B_寸法
  6
Continuous
 62
   120
370
     5
100
AcDbLine
 10
2859.964163127569
 20
743.0342883034183
 30
0.0
 11
2883.214163127568
 21
743.0342883034183
 31
0.0
  0
LINE
  5
446
330
1F
100
AcDbEntity
  8
0-1_本体
  6
Continuous
 62
     7
370
     9
100
AcDbLine
 10
2859.964163127569
 20
968.0342883034183
 30
0.0
 11
2856.214163127569
 21
968.0342883034183
 31
0.0
  0
LINE
  5
447
330
1F
100
AcDbEntity
  8
0-1_本体
  6
Continuous
 62
    40
370
    15
100
AcDbLine
 10
2859.964163127569
 20
1118.034288303417
 30
0.0
 11
2859.964163127569
 21
968.0342883034183
 31
0.0
  0
LINE
  5
448
330
1F
100
AcDbEntity
  8
0-1_本体
  6
Continuous
 62
    40
370
    15
100
AcDbLine
 10
2859.964163127569
 20
968.0342883034183
 30
0.0
 11
2883.214163127568
 21
968.0342883034183
 31
0.0
  0
TEXT
  5
449
330
1F
100
AcDbEntity
  8
0-B_寸法
  6
Continuous
 62
     7
370
   211
100
AcDbText
 10
625.0713052292474
 20
770.7242883034183
 30
0.0
 40
68.58
  1
2.5
 41
1.111111111111111
  7
ＭＳ ゴシック
100
AcDbText
  0
TEXT
  5
44A
330
1F
100
AcDbEntity
  8
0-B_寸法
  6
Continuous
 62
     7
370
   211
100
AcDbText
 10
625.0713052292474
 20
-2157.810118749018
 30
0.0
 40
68.58
  1
2.5
 41
1.111111111111111
  7
ＭＳ ゴシック
100
AcDbText
  0
TEXT
  5
44B
330
1F
100
AcDbEntity
  8
0-B_寸法
  6
Continuous
 62
     7
370
   211
100
AcDbText
 10
2666.495910936808
 20
770.7242883034183
 30
0.0
 40
68.58
  1
2.5
 41
1.111111111111111
  7
ＭＳ ゴシック
100
AcDbText
  0
TEXT
  5
44C
330
1F
100
AcDbEntity
  8
0-B_寸法
  6
Continuous
 62
     7
370
   211
100
AcDbText
 10
2666.495910936808
 20
-2157.810118749018
 30
0.0
 40
68.58
  1
2.5
 41
1.111111111111111
  7
ＭＳ ゴシック
100
AcDbText
  0
TEXT
  5
44D
330
1F
100
AcDbEntity
  8
0-B_寸法
  6
Continuous
 62
     7
370
   211
100
AcDbText
 10
2876.696436454964
 20
860.7242883034183
 30
0.0
 40
68.58
  1
15.5
 41
1.125
  7
ＭＳ ゴシック
100
AcDbText
  0
TEXT
  5
44E
330
1F
100
AcDbEntity
  8
0-B_寸法
  6
Continuous
 62
     7
370
   211
100
AcDbText
 10
822.5535785566422
 20
860.7242883034183
 30
0.0
 40
68.58
  1
15.5
 41
1.125
  7
ＭＳ ゴシック
100
AcDbText
  0
TEXT
  5
44F
330
1F
100
AcDbEntity
  8
0-B_寸法
  6
Continuous
 62
     7
370
   211
100
AcDbText
 10
822.5535785566422
 20
-2067.810118749018
 30
0.0
 40
68.58
  1
15.5
 41
1.125
  7
ＭＳ ゴシック
100
AcDbText
  0
TEXT
  5
450
330
1F
100
AcDbEntity
  8
0-B_寸法
  6
Continuous
 62
     7
370
   211
100
AcDbText
 10
2876.696436454964
 20
-2067.810118749018
 30
0.0
 40
68.58
  1
15.5
 41
1.125
  7
ＭＳ ゴシック
100
AcDbText
  0
LINE
  5
451
330
1F
100
AcDbEntity
  8
0-1_本体
  6
Continuous
 62
     7
370
     9
100
AcDbLine
 10
-1399.821552669072
 20
1118.034288303417
 30
0.0
 11
-816.3215526690726
 21
1118.034288303417
 31
0.0
  0
LINE
  5
452
330
1F
100
AcDbEntity
  8
0-1_本体
  6
Continuous
 62
     7
370
     9
100
AcDbLine
 10
-1399.821552669072
 20
-1810.500118749018
 30
0.0
 11
-816.3215526690709
 21
-1810.500118749018
 31
0.0
  0
LINE
  5
453
330
1F
100
AcDbEntity
  8
0-1_本体
  6
JWW_DASHED1
 62
     7
370
     9
100
AcDbLine
 10
-3594.964410567392
 20
1118.034288303417
 30
0.0
 11
-3011.464410567392
 21
1118.034288303417
 31
0.0
  0
LINE
  5
454
330
1F
100
AcDbEntity
  8
0-1_本体
  6
JWW_DASHED1
 62
     7
370
     9
100
AcDbLine
 10
-3594.964410567392
 20
-1810.500118749018
 30
0.0
 11
-3011.464410567391
 21
-1810.500118749018
 31
0.0
  0
ENDSEC
  0
SECTION
  2
OBJECTS
  0
DICTIONARY
  5
C
330
0
100
AcDbDictionary
281
     1
  3
ACAD_GROUP
350
D
  3
ACAD_LAYOUT
350
1A
  3
ACAD_MATERIAL
350
3B
  3
ACAD_MLEADERSTYLE
350
456
  3
ACAD_MLINESTYLE
350
17
  3
ACAD_PLOTSETTINGS
350
19
  3
ACAD_PLOTSTYLENAME
350
E
  3
ACAD_TABLESTYLE
350
455
  3
ACAD_VISUALSTYLE
350
2A
  0
DICTIONARY
  5
D
102
{ACAD_REACTORS
330
C
102
}
330
C
100
AcDbDictionary
281
     1
  0
DICTIONARY
  5
1A
102
{ACAD_REACTORS
330
C
102
}
330
C
100
AcDbDictionary
281
     1
  3
Layout1
350
1E
  3
Layout2
350
26
  3
Model
350
22
  0
DICTIONARY
  5
3B
102
{ACAD_REACTORS
330
C
102
}
330
C
100
AcDbDictionary
281
     1
  3
ByBlock
350
3D
  3
ByLayer
350
3C
  3
Global
350
3E
  0
DICTIONARY
  5
456
102
{ACAD_REACTORS
330
C
102
}
330
C
100
AcDbDictionary
281
     1
  0
DICTIONARY
  5
17
102
{ACAD_REACTORS
330
C
102
}
330
C
100
AcDbDictionary
281
     1
  3
Standard
350
18
  0
DICTIONARY
  5
19
102
{ACAD_REACTORS
330
C
102
}
330
C
100
AcDbDictionary
281
     1
  0
ACDBDICTIONARYWDFLT
  5
E
102
{ACAD_REACTORS
330
C
102
}
330
C
100
AcDbDictionary
281
     1
  3
Normal
350
F
100
AcDbDictionaryWithDefault
340
F
  0
DICTIONARY
  5
455
102
{ACAD_REACTORS
330
C
102
}
330
C
100
AcDbDictionary
281
     1
  0
DICTIONARY
  5
2A
102
{ACAD_REACTORS
330
C
102
}
330
C
100
AcDbDictionary
281
     1
  3
2dWireframe
350
2F
  3
3D Hidden
350
31
  3
3dWireframe
350
30
  3
Basic
350
32
  3
Brighten
350
36
  3
ColorChange
350
3A
  3
Conceptual
350
34
  3
Dim
350
35
  3
Facepattern
350
39
  3
Flat
350
2B
  3
FlatWithEdges
350
2C
  3
Gouraud
350
2D
  3
GouraudWithEdges
350
2E
  3
Linepattern
350
38
  3
Realistic
350
33
  3
Thicken
350
37
  0
LAYOUT
  5
1E
102
{ACAD_REACTORS
330
1A
102
}
330
1A
100
AcDbPlotSettings
  1

  2
none_device
  4

  6

 40
0.0
 41
0.0
 42
0.0
 43
0.0
 44
0.0
 45
0.0
 46
0.0
 47
0.0
 48
0.0
 49
0.0
140
0.0
141
0.0
142
1.0
143
1.0
 70
   688
 72
     0
 73
     0
 74
     5
  7

 75
    16
 76
     0
 77
     5
 78
   300
147
1.0
148
0.0
149
0.0
100
AcDbLayout
  1
Layout1
 70
     1
 71
     1
 10
0.0
 20
0.0
 11
420.0
 21
297.0
 12
0.0
 22
0.0
 32
0.0
 14
1.000000000000000E+20
 24
1.000000000000000E+20
 34
1.000000000000000E+20
 15
-1.000000000000000E+20
 25
-1.000000000000000E+20
 35
-1.000000000000000E+20
146
0.0
 13
0.0
 23
0.0
 33
0.0
 16
1.0
 26
0.0
 36
0.0
 17
0.0
 27
1.0
 37
0.0
 76
     0
330
1B
  0
LAYOUT
  5
26
102
{ACAD_REACTORS
330
1A
102
}
330
1A
100
AcDbPlotSettings
  1

  2
none_device
  4

  6

 40
0.0
 41
0.0
 42
0.0
 43
0.0
 44
0.0
 45
0.0
 46
0.0
 47
0.0
 48
0.0
 49
0.0
140
0.0
141
0.0
142
1.0
143
1.0
 70
   688
 72
     0
 73
     0
 74
     5
  7

 75
    16
 76
     0
 77
     5
 78
   300
147
1.0
148
0.0
149
0.0
100
AcDbLayout
  1
Layout2
 70
     1
 71
     2
 10
0.0
 20
0.0
 11
0.0
 21
0.0
 12
0.0
 22
0.0
 32
0.0
 14
0.0
 24
0.0
 34
0.0
 15
0.0
 25
0.0
 35
0.0
146
0.0
 13
0.0
 23
0.0
 33
0.0
 16
1.0
 26
0.0
 36
0.0
 17
0.0
 27
1.0
 37
0.0
 76
     0
330
23
  0
LAYOUT
  5
22
102
{ACAD_REACTORS
330
1A
102
}
330
1A
100
AcDbPlotSettings
  1

  2
none_device
  4

  6

 40
0.0
 41
0.0
 42
0.0
 43
0.0
 44
0.0
 45
0.0
 46
0.0
 47
0.0
 48
0.0
 49
0.0
140
0.0
141
0.0
142
1.0
143
1.0
 70
  1712
 72
     0
 73
     0
 74
     0
  7

 75
     0
 76
     0
 77
     5
 78
   300
147
1.0
148
0.0
149
0.0
100
AcDbLayout
  1
Model
 70
     1
 71
     0
 10
-6300.0
 20
-4455.0
 11
6300.0
 21
4455.0
 12
0.0
 22
0.0
 32
0.0
 14
-6300.0
 24
-4455.0
 34
0.0
 15
6300.0
 25
4455.0
 35
0.0
146
0.0
 13
0.0
 23
0.0
 33
0.0
 16
1.0
 26
0.0
 36
0.0
 17
0.0
 27
1.0
 37
0.0
 76
     0
330
1F
331
29
  0
MATERIAL
  5
3D
102
{ACAD_REACTORS
330
3B
102
}
330
3B
100
AcDbMaterial
  1
ByBlock
 72
     1
 94
      127
  0
MATERIAL
  5
3C
102
{ACAD_REACTORS
330
3B
102
}
330
3B
100
AcDbMaterial
  1
ByLayer
 72
     1
 94
      127
  0
MATERIAL
  5
3E
102
{ACAD_REACTORS
330
3B
102
}
330
3B
100
AcDbMaterial
  1
Global
 72
     1
 94
      127
  0
MLINESTYLE
  5
18
102
{ACAD_REACTORS
330
17
102
}
330
17
100
AcDbMlineStyle
  2
Standard
 70
     0
  3

 62
   256
 51
90.0
 52
90.0
 71
     2
 49
0.5
 62
   256
  6
BYLAYER
 49
-0.5
 62
   256
  6
BYLAYER
  0
ACDBPLACEHOLDER
  5
F
102
{ACAD_REACTORS
330
E
102
}
330
E
  0
VISUALSTYLE
  5
2F
102
{ACAD_REACTORS
330
2A
102
}
330
2A
100
AcDbVisualStyle
  2
2dWireframe
 70
     4
177
     2
291
     0
 71
     0
176
     1
 72
     2
176
     1
 73
     0
176
     1
 90
        0
176
     1
 40
-0.6
176
     1
 41
-30.0
176
     1
 62
     5
 63
     7
421
 16777215
176
     1
 74
     1
176
     1
 91
        4
176
     1
 64
     7
176
     1
 65
   257
176
     1
 75
     1
176
     1
175
     1
176
     1
 42
1.0
176
     1
 92
        0
176
     1
 66
   257
176
     1
 43
1.0
176
     1
 76
     1
176
     1
 77
     6
176
     1
 78
     2
176
     1
 67
     7
176
     1
 79
     5
176
     1
170
     0
176
     1
171
     0
176
     1
290
     0
176
     1
 93
        1
176
     1
 44
0.0
176
     1
173
     0
176
     1
  0
VISUALSTYLE
  5
31
102
{ACAD_REACTORS
330
2A
102
}
330
2A
100
AcDbVisualStyle
  2
3D Hidden
 70
     6
177
     2
291
     0
 71
     1
176
     1
 72
     2
176
     1
 73
     2
176
     1
 90
        0
176
     1
 40
-0.6
176
     1
 41
-30.0
176
     1
 62
     5
 63
     7
421
 16777215
176
     1
 74
     2
176
     1
 91
        2
176
     1
 64
     7
176
     1
 65
   257
176
     1
 75
     2
176
     1
175
     1
176
     1
 42
40.0
176
     1
 92
        0
176
     1
 66
   257
176
     1
 43
1.0
176
     1
 76
     1
176
     1
 77
     6
176
     1
 78
     2
176
     1
 67
     7
176
     1
 79
     3
176
     1
170
     0
176
     1
171
     0
176
     1
290
     0
176
     1
 93
        1
176
     1
 44
0.0
176
     1
173
     0
176
     1
  0
VISUALSTYLE
  5
30
102
{ACAD_REACTORS
330
2A
102
}
330
2A
100
AcDbVisualStyle
  2
3dWireframe
 70
     5
177
     2
291
     0
 71
     0
176
     1
 72
     2
176
     1
 73
     0
176
     1
 90
        0
176
     1
 40
-0.6
176
     1
 41
-30.0
176
     1
 62
     5
 63
     7
421
 16777215
176
     1
 74
     1
176
     1
 91
        4
176
     1
 64
     7
176
     1
 65
   257
176
     1
 75
     1
176
     1
175
     1
176
     1
 42
1.0
176
     1
 92
        0
176
     1
 66
   257
176
     1
 43
1.0
176
     1
 76
     1
176
     1
 77
     6
176
     1
 78
     2
176
     1
 67
     7
176
     1
 79
     5
176
     1
170
     0
176
     1
171
     0
176
     1
290
     0
176
     1
 93
        1
176
     1
 44
0.0
176
     1
173
     0
176
     1
  0
VISUALSTYLE
  5
32
102
{ACAD_REACTORS
330
2A
102
}
330
2A
100
AcDbVisualStyle
  2
Basic
 70
     7
177
     2
291
     1
 71
     1
176
     1
 72
     0
176
     1
 73
     1
176
     1
 90
        0
176
     1
 40
-0.6
176
     1
 41
-30.0
176
     1
 62
     5
 63
     7
421
 16777215
176
     1
 74
     0
176
     1
 91
        4
176
     1
 64
     7
176
     1
 65
   257
176
     1
 75
     1
176
     1
175
     1
176
     1
 42
1.0
176
     1
 92
        8
176
     1
 66
     7
176
     1
 43
1.0
176
     1
 76
     1
176
     1
 77
     6
176
     1
 78
     2
176
     1
 67
     7
176
     1
 79
     5
176
     1
170
     0
176
     1
171
     0
176
     1
290
     0
176
     1
 93
        1
176
     1
 44
0.0
176
     1
173
     0
176
     1
  0
VISUALSTYLE
  5
36
102
{ACAD_REACTORS
330
2A
102
}
330
2A
100
AcDbVisualStyle
  2
Brighten
 70
    12
177
     2
291
     1
 71
     2
176
     1
 72
     2
176
     1
 73
     0
176
     1
 90
        0
176
     1
 40
-0.6
176
     1
 41
-30.0
176
     1
 62
     5
 63
     7
421
 16777215
176
     1
 74
     1
176
     1
 91
        4
176
     1
 64
     7
176
     1
 65
   257
176
     1
 75
     1
176
     1
175
     1
176
     1
 42
1.0
176
     1
 92
        8
176
     1
 66
     7
176
     1
 43
1.0
176
     1
 76
     1
176
     1
 77
     6
176
     1
 78
     2
176
     1
 67
     7
176
     1
 79
     5
176
     1
170
     0
176
     1
171
     0
176
     1
290
     0
176
     1
 93
        1
176
     1
 44
50.0
176
     1
173
     0
176
     1
  0
VISUALSTYLE
  5
3A
102
{ACAD_REACTORS
330
2A
102
}
330
2A
100
AcDbVisualStyle
  2
ColorChange
 70
    16
177
     2
291
     1
 71
     2
176
     1
 72
     2
176
     1
 73
     3
176
     1
 90
        0
176
     1
 40
-0.6
176
     1
 41
-30.0
176
     1
 62
     5
 63
     8
421
  8421504
176
     1
 74
     1
176
     1
 91
        4
176
     1
 64
     7
176
     1
 65
   257
176
     1
 75
     1
176
     1
175
     1
176
     1
 42
1.0
176
     1
 92
        8
176
     1
 66
     8
424
  8421504
176
     1
 43
1.0
176
     1
 76
     1
176
     1
 77
     6
176
     1
 78
     2
176
     1
 67
     7
176
     1
 79
     5
176
     1
170
     0
176
     1
171
     0
176
     1
290
     0
176
     1
 93
        1
176
     1
 44
0.0
176
     1
173
     0
176
     1
  0
VISUALSTYLE
  5
34
102
{ACAD_REACTORS
330
2A
102
}
330
2A
100
AcDbVisualStyle
  2
Conceptual
 70
     9
177
     2
291
     0
 71
     3
176
     1
 72
     2
176
     1
 73
     0
176
     1
 90
        0
176
     1
 40
-0.6
176
     1
 41
-30.0
176
     1
 62
     5
 63
     7
421
 16777215
176
     1
 74
     2
176
     1
 91
        2
176
     1
 64
     7
176
     1
 65
   257
176
     1
 75
     1
176
     1
175
     1
176
     1
 42
40.0
176
     1
 92
        8
176
     1
 66
     7
176
     1
 43
1.0
176
     1
 76
     1
176
     1
 77
     6
176
     1
 78
     2
176
     1
 67
     7
176
     1
 79
     3
176
     1
170
     0
176
     1
171
     0
176
     1
290
     0
176
     1
 93
        1
176
     1
 44
0.0
176
     1
173
     0
176
     1
  0
VISUALSTYLE
  5
35
102
{ACAD_REACTORS
330
2A
102
}
330
2A
100
AcDbVisualStyle
  2
Dim
 70
    11
177
     2
291
     1
 71
     2
176
     1
 72
     2
176
     1
 73
     0
176
     1
 90
        0
176
     1
 40
-0.6
176
     1
 41
-30.0
176
     1
 62
     5
 63
     7
421
 16777215
176
     1
 74
     1
176
     1
 91
        4
176
     1
 64
     7
176
     1
 65
   257
176
     1
 75
     1
176
     1
175
     1
176
     1
 42
1.0
176
     1
 92
        8
176
     1
 66
     7
176
     1
 43
1.0
176
     1
 76
     1
176
     1
 77
     6
176
     1
 78
     2
176
     1
 67
     7
176
     1
 79
     5
176
     1
170
     0
176
     1
171
     0
176
     1
290
     0
176
     1
 93
        1
176
     1
 44
-50.0
176
     1
173
     0
176
     1
  0
VISUALSTYLE
  5
39
102
{ACAD_REACTORS
330
2A
102
}
330
2A
100
AcDbVisualStyle
  2
Facepattern
 70
    15
177
     2
291
     1
 71
     2
176
     1
 72
     2
176
     1
 73
     0
176
     1
 90
        0
176
     1
 40
-0.6
176
     1
 41
-30.0
176
     1
 62
     5
 63
     7
421
 16777215
176
     1
 74
     1
176
     1
 91
        4
176
     1
 64
     7
176
     1
 65
   257
176
     1
 75
     1
176
     1
175
     1
176
     1
 42
1.0
176
     1
 92
        8
176
     1
 66
     7
176
     1
 43
1.0
176
     1
 76
     1
176
     1
 77
     6
176
     1
 78
     2
176
     1
 67
     7
176
     1
 79
     5
176
     1
170
     0
176
     1
171
     0
176
     1
290
     0
176
     1
 93
        1
176
     1
 44
0.0
176
     1
173
     0
176
     1
  0
VISUALSTYLE
  5
2B
102
{ACAD_REACTORS
330
2A
102
}
330
2A
100
AcDbVisualStyle
  2
Flat
 70
     0
177
     2
291
     1
 71
     2
176
     1
 72
     1
176
     1
 73
     1
176
     1
 90
        2
176
     1
 40
-0.6
176
     1
 41
30.0
176
     1
 62
     5
 63
     7
421
 16777215
176
     1
 74
     0
176
     1
 91
        4
176
     1
 64
     7
176
     1
 65
   257
176
     1
 75
     1
176
     1
175
     1
176
     1
 42
1.0
176
     1
 92
        8
176
     1
 66
     7
176
     1
 43
1.0
176
     1
 76
     1
176
     1
 77
     6
176
     1
 78
     2
176
     1
 67
     7
176
     1
 79
     5
176
     1
170
     0
176
     1
171
     0
176
     1
290
     0
176
     1
 93
       13
176
     1
 44
0.0
176
     1
173
     0
176
     1
  0
VISUALSTYLE
  5
2C
102
{ACAD_REACTORS
330
2A
102
}
330
2A
100
AcDbVisualStyle
  2
FlatWithEdges
 70
     1
177
     2
291
     1
 71
     2
176
     1
 72
     1
176
     1
 73
     1
176
     1
 90
        2
176
     1
 40
-0.6
176
     1
 41
30.0
176
     1
 62
     5
 63
     7
421
 16777215
176
     1
 74
     1
176
     1
 91
        4
176
     1
 64
     7
176
     1
 65
   257
176
     1
 75
     1
176
     1
175
     1
176
     1
 42
1.0
176
     1
 92
        0
176
     1
 66
   257
176
     1
 43
1.0
176
     1
 76
     1
176
     1
 77
     6
176
     1
 78
     2
176
     1
 67
     7
176
     1
 79
     5
176
     1
170
     0
176
     1
171
     0
176
     1
290
     0
176
     1
 93
       13
176
     1
 44
0.0
176
     1
173
     0
176
     1
  0
VISUALSTYLE
  5
2D
102
{ACAD_REACTORS
330
2A
102
}
330
2A
100
AcDbVisualStyle
  2
Gouraud
 70
     2
177
     2
291
     1
 71
     2
176
     1
 72
     2
176
     1
 73
     1
176
     1
 90
        2
176
     1
 40
-0.6
176
     1
 41
30.0
176
     1
 62
     5
 63
     7
421
 16777215
176
     1
 74
     0
176
     1
 91
        4
176
     1
 64
     7
176
     1
 65
   257
176
     1
 75
     1
176
     1
175
     1
176
     1
 42
1.0
176
     1
 92
        0
176
     1
 66
     7
176
     1
 43
1.0
176
     1
 76
     1
176
     1
 77
     6
176
     1
 78
     2
176
     1
 67
     7
176
     1
 79
     5
176
     1
170
     0
176
     1
171
     0
176
     1
290
     0
176
     1
 93
       13
176
     1
 44
0.0
176
     1
173
     0
176
     1
  0
VISUALSTYLE
  5
2E
102
{ACAD_REACTORS
330
2A
102
}
330
2A
100
AcDbVisualStyle
  2
GouraudWithEdges
 70
     3
177
     2
291
     1
 71
     2
176
     1
 72
     2
176
     1
 73
     1
176
     1
 90
        2
176
     1
 40
-0.6
176
     1
 41
30.0
176
     1
 62
     5
 63
     7
421
 16777215
176
     1
 74
     1
176
     1
 91
        4
176
     1
 64
     7
176
     1
 65
   257
176
     1
 75
     1
176
     1
175
     1
176
     1
 42
1.0
176
     1
 92
        0
176
     1
 66
   257
176
     1
 43
1.0
176
     1
 76
     1
176
     1
 77
     6
176
     1
 78
     2
176
     1
 67
     7
176
     1
 79
     5
176
     1
170
     0
176
     1
171
     0
176
     1
290
     0
176
     1
 93
       13
176
     1
 44
0.0
176
     1
173
     0
176
     1
  0
VISUALSTYLE
  5
38
102
{ACAD_REACTORS
330
2A
102
}
330
2A
100
AcDbVisualStyle
  2
Linepattern
 70
    14
177
     2
291
     1
 71
     2
176
     1
 72
     2
176
     1
 73
     0
176
     1
 90
        0
176
     1
 40
-0.6
176
     1
 41
-30.0
176
     1
 62
     5
 63
     7
421
 16777215
176
     1
 74
     1
176
     1
 91
        4
176
     1
 64
     7
176
     1
 65
   257
176
     1
 75
     7
176
     1
175
     7
176
     1
 42
1.0
176
     1
 92
        8
176
     1
 66
     7
176
     1
 43
1.0
176
     1
 76
     1
176
     1
 77
     6
176
     1
 78
     2
176
     1
 67
     7
176
     1
 79
     5
176
     1
170
     0
176
     1
171
     0
176
     1
290
     0
176
     1
 93
        1
176
     1
 44
0.0
176
     1
173
     0
176
     1
  0
VISUALSTYLE
  5
33
102
{ACAD_REACTORS
330
2A
102
}
330
2A
100
AcDbVisualStyle
  2
Realistic
 70
     8
177
     2
291
     0
 71
     2
176
     1
 72
     2
176
     1
 73
     0
176
     1
 90
        0
176
     1
 40
-0.6
176
     1
 41
-30.0
176
     1
 62
     5
 63
     7
421
 16777215
176
     1
 74
     1
176
     1
 91
        0
176
     1
 64
     7
176
     1
 65
   257
176
     1
 75
     1
176
     1
175
     1
176
     1
 42
1.0
176
     1
 92
        8
176
     1
 66
     8
424
  7895160
176
     1
 43
1.0
176
     1
 76
     1
176
     1
 77
     6
176
     1
 78
     2
176
     1
 67
     7
176
     1
 79
     5
176
     1
170
     0
176
     1
171
     0
176
     1
290
     0
176
     1
 93
       13
176
     1
 44
0.0
176
     1
173
     0
176
     1
  0
VISUALSTYLE
  5
37
102
{ACAD_REACTORS
330
2A
102
}
330
2A
100
AcDbVisualStyle
  2
Thicken
 70
    13
177
     2
291
     1
 71
     2
176
     1
 72
     2
176
     1
 73
     0
176
     1
 90
        0
176
     1
 40
-0.6
176
     1
 41
-30.0
176
     1
 62
     5
 63
     7
421
 16777215
176
     1
 74
     1
176
     1
 91
        4
176
     1
 64
     7
176
     1
 65
   257
176
     1
 75
     1
176
     1
175
     1
176
     1
 42
1.0
176
     1
 92
       12
176
     1
 66
     7
176
     1
 43
1.0
176
     1
 76
     1
176
     1
 77
     6
176
     1
 78
     2
176
     1
 67
     7
176
     1
 79
     5
176
     1
170
     0
176
     1
171
     0
176
     1
290
     0
176
     1
 93
        1
176
     1
 44
0.0
176
     1
173
     0
176
     1
  0
ENDSEC
  0
EOF
