  0
SECTION
  2
HEADER
  9
$ACADVER
  1
AC1024
  9
$ACADMAINTVER
 70
     6
  9
$DWGCODEPAGE
  3
ANSI_932
  9
$INSBASE
 10
0.0
 20
0.0
 30
0.0
  9
$EXTMIN
 10
-6300.0
 20
-4455.0
 30
0.0
  9
$EXTMAX
 10
6300.0
 20
4455.0
 30
0.0
  9
$LIMMIN
 10
-6300.0
 20
-4455.0
  9
$LIMMAX
 10
6300.0
 20
4455.0
  9
$ORTHOMODE
 70
     0
  9
$REGENMODE
 70
     1
  9
$FILLMODE
 70
     1
  9
$QTEXTMODE
 70
     0
  9
$MIRRTEXT
 70
     1
  9
$LTSCALE
 40
30.0
  9
$ATTMODE
 70
     1
  9
$TEXTSIZE
 40
2.5
  9
$TRACEWID
 40
1.0
  9
$TEXTSTYLE
  7
Standard
  9
$CLAYER
  8
0
  9
$CELTYPE
  6
ByLayer
  9
$CECOLOR
 62
   256
  9
$CELTSCALE
 40
1.0
  9
$DISPSILH
 70
     0
  9
$DIMSCALE
 40
1.0
  9
$DIMASZ
 40
2.5
  9
$DIMEXO
 40
0.625
  9
$DIMDLI
 40
3.75
  9
$DIMRND
 40
0.0
  9
$DIMDLE
 40
0.0
  9
$DIMEXE
 40
1.25
  9
$DIMTP
 40
0.0
  9
$DIMTM
 40
0.0
  9
$DIMTXT
 40
2.5
  9
$DIMCEN
 40
2.5
  9
$DIMTSZ
 40
0.0
  9
$DIMTOL
 70
     0
  9
$DIMLIM
 70
     0
  9
$DIMTIH
 70
     0
  9
$DIMTOH
 70
     0
  9
$DIMSE1
 70
     0
  9
$DIMSE2
 70
     0
  9
$DIMTAD
 70
     1
  9
$DIMZIN
 70
     8
  9
$DIMBLK
  1

  9
$DIMASO
 70
     1
  9
$DIMSHO
 70
     1
  9
$DIMPOST
  1

  9
$DIMAPOST
  1

  9
$DIMALT
 70
     0
  9
$DIMALTD
 70
     3
  9
$DIMALTF
 40
0.03937007874016
  9
$DIMLFAC
 40
1.0
  9
$DIMTOFL
 70
     1
  9
$DIMTVP
 40
0.0
  9
$DIMTIX
 70
     0
  9
$DIMSOXD
 70
     0
  9
$DIMSAH
 70
     0
  9
$DIMBLK1
  1

  9
$DIMBLK2
  1

  9
$DIMSTYLE
  2
ISO-25
  9
$DIMCLRD
 70
     0
  9
$DIMCLRE
 70
     0
  9
$DIMCLRT
 70
     0
  9
$DIMTFAC
 40
1.0
  9
$DIMGAP
 40
0.625
  9
$DIMJUST
 70
     0
  9
$DIMSD1
 70
     0
  9
$DIMSD2
 70
     0
  9
$DIMTOLJ
 70
     0
  9
$DIMTZIN
 70
     8
  9
$DIMALTZ
 70
     0
  9
$DIMALTTZ
 70
     0
  9
$DIMUPT
 70
     0
  9
$DIMDEC
 70
     2
  9
$DIMTDEC
 70
     2
  9
$DIMALTU
 70
     2
  9
$DIMALTTD
 70
     3
  9
$DIMTXSTY
  7
Standard
  9
$DIMAUNIT
 70
     0
  9
$DIMADEC
 70
     0
  9
$DIMALTRND
 40
0.0
  9
$DIMAZIN
 70
     0
  9
$DIMDSEP
 70
    44
  9
$DIMATFIT
 70
     3
  9
$DIMFRAC
 70
     0
  9
$DIMLDRBLK
  1

  9
$DIMLUNIT
 70
     2
  9
$DIMLWD
 70
    -2
  9
$DIMLWE
 70
    -2
  9
$DIMTMOVE
 70
     0
  9
$DIMFXL
 40
1.0
  9
$DIMFXLON
 70
     0
  9
$DIMJOGANG
 40
0.7853981633974483
  9
$DIMTFILL
 70
     0
  9
$DIMTFILLCLR
 70
     0
  9
$DIMARCSYM
 70
     0
  9
$DIMLTYPE
  6

  9
$DIMLTEX1
  6

  9
$DIMLTEX2
  6

  9
$DIMTXTDIRECTION
 70
     0
  9
$LUNITS
 70
     2
  9
$LUPREC
 70
     4
  9
$SKETCHINC
 40
1.0
  9
$FILLETRAD
 40
10.0
  9
$AUNITS
 70
     0
  9
$AUPREC
 70
     0
  9
$MENU
  1
.
  9
$ELEVATION
 40
0.0
  9
$PELEVATION
 40
0.0
  9
$THICKNESS
 40
0.0
  9
$LIMCHECK
 70
     0
  9
$CHAMFERA
 40
10.0
  9
$CHAMFERB
 40
10.0
  9
$CHAMFERC
 40
20.0
  9
$CHAMFERD
 40
0.0
  9
$SKPOLY
 70
     0
  9
$TDCREATE
 40
2457739.515075544
  9
$TDUCREATE
 40
2457739.140075544
  9
$TDUPDATE
 40
2457739.515075556
  9
$TDUUPDATE
 40
2457739.140075556
  9
$TDINDWG
 40
0.0000000116
  9
$TDUSRTIMER
 40
0.0000000116
  9
$USRTIMER
 70
     1
  9
$ANGBASE
 50
0.0
  9
$ANGDIR
 70
     0
  9
$PDMODE
 70
     0
  9
$PDSIZE
 40
0.0
  9
$PLINEWID
 40
0.0
  9
$SPLFRAME
 70
     0
  9
$SPLINETYPE
 70
     6
  9
$SPLINESEGS
 70
     8
  9
$HANDSEED
  5
41F
  9
$SURFTAB1
 70
     6
  9
$SURFTAB2
 70
     6
  9
$SURFTYPE
 70
     6
  9
$SURFU
 70
     6
  9
$SURFV
 70
     6
  9
$UCSBASE
  2

  9
$UCSNAME
  2

  9
$UCSORG
 10
0.0
 20
0.0
 30
0.0
  9
$UCSXDIR
 10
1.0
 20
0.0
 30
0.0
  9
$UCSYDIR
 10
0.0
 20
1.0
 30
0.0
  9
$UCSORTHOREF
  2

  9
$UCSORTHOVIEW
 70
     0
  9
$UCSORGTOP
 10
0.0
 20
0.0
 30
0.0
  9
$UCSORGBOTTOM
 10
0.0
 20
0.0
 30
0.0
  9
$UCSORGLEFT
 10
0.0
 20
0.0
 30
0.0
  9
$UCSORGRIGHT
 10
0.0
 20
0.0
 30
0.0
  9
$UCSORGFRONT
 10
0.0
 20
0.0
 30
0.0
  9
$UCSORGBACK
 10
0.0
 20
0.0
 30
0.0
  9
$PUCSBASE
  2

  9
$PUCSNAME
  2

  9
$PUCSORG
 10
0.0
 20
0.0
 30
0.0
  9
$PUCSXDIR
 10
1.0
 20
0.0
 30
0.0
  9
$PUCSYDIR
 10
0.0
 20
1.0
 30
0.0
  9
$PUCSORTHOREF
  2

  9
$PUCSORTHOVIEW
 70
     0
  9
$PUCSORGTOP
 10
0.0
 20
0.0
 30
0.0
  9
$PUCSORGBOTTOM
 10
0.0
 20
0.0
 30
0.0
  9
$PUCSORGLEFT
 10
0.0
 20
0.0
 30
0.0
  9
$PUCSORGRIGHT
 10
0.0
 20
0.0
 30
0.0
  9
$PUCSORGFRONT
 10
0.0
 20
0.0
 30
0.0
  9
$PUCSORGBACK
 10
0.0
 20
0.0
 30
0.0
  9
$USERI1
 70
     0
  9
$USERI2
 70
     0
  9
$USERI3
 70
     0
  9
$USERI4
 70
     0
  9
$USERI5
 70
     0
  9
$USERR1
 40
0.0
  9
$USERR2
 40
0.0
  9
$USERR3
 40
0.0
  9
$USERR4
 40
0.0
  9
$USERR5
 40
0.0
  9
$WORLDVIEW
 70
     1
  9
$SHADEDGE
 70
     3
  9
$SHADEDIF
 70
    70
  9
$TILEMODE
 70
     1
  9
$MAXACTVP
 70
    64
  9
$PINSBASE
 10
0.0
 20
0.0
 30
0.0
  9
$PLIMCHECK
 70
     0
  9
$PEXTMIN
 10
1.000000000000000E+20
 20
1.000000000000000E+20
 30
1.000000000000000E+20
  9
$PEXTMAX
 10
-1.000000000000000E+20
 20
-1.000000000000000E+20
 30
-1.000000000000000E+20
  9
$PLIMMIN
 10
0.0
 20
0.0
  9
$PLIMMAX
 10
420.0
 20
297.0
  9
$UNITMODE
 70
     0
  9
$VISRETAIN
 70
     1
  9
$PLINEGEN
 70
     0
  9
$PSLTSCALE
 70
     1
  9
$TREEDEPTH
 70
  3020
  9
$CMLSTYLE
  2
Standard
  9
$CMLJUST
 70
     0
  9
$CMLSCALE
 40
20.0
  9
$PROXYGRAPHICS
 70
     1
  9
$MEASUREMENT
 70
     1
  9
$CELWEIGHT
370
    -1
  9
$ENDCAPS
280
     0
  9
$JOINSTYLE
280
     0
  9
$LWDISPLAY
290
     0
  9
$INSUNITS
 70
     4
  9
$HYPERLINKBASE
  1

  9
$STYLESHEET
  1

  9
$XEDIT
290
     1
  9
$CEPSNTYPE
380
     0
  9
$PSTYLEMODE
290
     1
  9
$FINGERPRINTGUID
  2
{7A0FFE78-60D4-4CDD-A6AA-F563F3797900}
  9
$VERSIONGUID
  2
{FAEB1C32-E019-11D5-929B-00C0DF256EC4}
  9
$EXTNAMES
290
     1
  9
$PSVPSCALE
 40
0.0
  9
$OLESTARTUP
290
     0
  9
$SORTENTS
280
   127
  9
$INDEXCTL
280
     0
  9
$HIDETEXT
280
     1
  9
$XCLIPFRAME
280
     2
  9
$HALOGAP
280
     0
  9
$OBSCOLOR
 70
   257
  9
$OBSLTYPE
280
     0
  9
$INTERSECTIONDISPLAY
280
     0
  9
$INTERSECTIONCOLOR
 70
   257
  9
$DIMASSOC
280
     2
  9
$PROJECTNAME
  1

  9
$CAMERADISPLAY
290
     0
  9
$LENSLENGTH
 40
50.0
  9
$CAMERAHEIGHT
 40
0.0
  9
$STEPSPERSEC
 40
2.0
  9
$STEPSIZE
 40
6.0
  9
$3DDWFPREC
 40
2.0
  9
$PSOLWIDTH
 40
5.0
  9
$PSOLHEIGHT
 40
80.0
  9
$LOFTANG1
 40
1.570796326794897
  9
$LOFTANG2
 40
1.570796326794897
  9
$LOFTMAG1
 40
0.0
  9
$LOFTMAG2
 40
0.0
  9
$LOFTPARAM
 70
     7
  9
$LOFTNORMALS
280
     1
  9
$LATITUDE
 40
37.795
  9
$LONGITUDE
 40
-122.394
  9
$NORTHDIRECTION
 40
0.0
  9
$TIMEZONE
 70
 -8000
  9
$LIGHTGLYPHDISPLAY
280
     1
  9
$TILEMODELIGHTSYNCH
280
     1
  9
$SOLIDHIST
280
     1
  9
$SHOWHIST
280
     1
  9
$DWFFRAME
280
     2
  9
$DGNFRAME
280
     2
  9
$REALWORLDSCALE
290
     1
  9
$INTERFERECOLOR
 62
   256
  9
$CSHADOW
280
     0
  9
$SHADOWPLANELOCATION
 40
0.0
  0
ENDSEC
  0
SECTION
  2
CLASSES
  0
CLASS
  1
ACDBDICTIONARYWDFLT
  2
AcDbDictionaryWithDefault
  3
ObjectDBX Classes
 90
        0
 91
        4
280
     0
281
     0
  0
CLASS
  1
VISUALSTYLE
  2
AcDbVisualStyle
  3
ObjectDBX Classes
 90
     4095
 91
        4
280
     0
281
     0
  0
CLASS
  1
MATERIAL
  2
AcDbMaterial
  3
ObjectDBX Classes
 90
     1153
 91
        4
280
     0
281
     0
  0
ENDSEC
  0
SECTION
  2
TABLES
  0
TABLE
  2
VPORT
  5
8
330
0
100
AcDbSymbolTable
 70
     1
  0
VPORT
  5
29
330
8
100
AcDbSymbolTableRecord
100
AcDbViewportTableRecord
  2
*Active
 70
     0
 10
0.0
 20
0.0
 11
1.0
 21
1.0
 12
0.0
 22
0.0
 13
0.0
 23
0.0
 14
10.0
 24
10.0
 15
10.0
 25
10.0
 16
0.0
 26
0.0
 36
1.0
 17
0.0
 27
0.0
 37
0.0
 40
9801.0
 41
1.414141414141414
 42
50.0
 43
0.0
 44
0.0
 50
0.0
 51
0.0
 71
     0
 72
 10000
 73
     1
 74
     3
 75
     0
 76
     0
 77
     0
 78
     0
281
     0
 65
     1
110
0.0
120
0.0
130
0.0
111
1.0
121
0.0
131
0.0
112
0.0
122
1.0
132
0.0
 79
     0
146
0.0
 60
     3
 61
     5
292
     1
282
     1
141
0.0
142
0.0
 63
   250
  0
ENDTAB
  0
TABLE
  2
LTYPE
  5
5
330
0
100
AcDbSymbolTable
 70
     5
  0
LTYPE
  5
14
330
5
100
AcDbSymbolTableRecord
100
AcDbLinetypeTableRecord
  2
ByBlock
 70
     0
  3

 72
    65
 73
     0
 40
0.0
  0
LTYPE
  5
15
330
5
100
AcDbSymbolTableRecord
100
AcDbLinetypeTableRecord
  2
ByLayer
 70
     0
  3

 72
    65
 73
     0
 40
0.0
  0
LTYPE
  5
16
330
5
100
AcDbSymbolTableRecord
100
AcDbLinetypeTableRecord
  2
Continuous
 70
     0
  3
Solid line
 72
    65
 73
     0
 40
0.0
  0
LTYPE
  5
3F
330
5
100
AcDbSymbolTableRecord
100
AcDbLinetypeTableRecord
  2
JWW_HOJO
 70
     0
  3
  -   -   -   -   -   -   -   - 
 72
    65
 73
     2
 40
1.693333333333333
 49
-1.27
 74
     0
 49
0.4233333333333333
 74
     0
  0
LTYPE
  5
40
330
5
100
AcDbSymbolTableRecord
100
AcDbLinetypeTableRecord
  2
JWW_CENTER1
 70
     0
  3
-----  --  ----------  --  -----
 72
    65
 73
     4
 40
6.773333333333333
 49
4.233333333333333
 74
     0
 49
-0.8466666666666667
 74
     0
 49
0.8466666666666667
 74
     0
 49
-0.8466666666666667
 74
     0
  0
LTYPE
  5
41
330
5
100
AcDbSymbolTableRecord
100
AcDbLinetypeTableRecord
  2
JWW_DASHED1
 70
     0
  3
-  --  --  --  --  --  --  --  -
 72
    65
 73
     2
 40
1.693333333333333
 49
0.8466666666666667
 74
     0
 49
-0.8466666666666667
 74
     0
  0
LTYPE
  5
42
330
5
100
AcDbSymbolTableRecord
100
AcDbLinetypeTableRecord
  2
JWW_DASHED2
 70
     0
  3
--    ----    ----    ----    --
 72
    65
 73
     2
 40
3.386666666666667
 49
1.693333333333333
 74
     0
 49
-1.693333333333333
 74
     0
  0
ENDTAB
  0
TABLE
  2
LAYER
  5
2
330
0
100
AcDbSymbolTable
 70
    18
  0
LAYER
  5
10
330
2
100
AcDbSymbolTableRecord
100
AcDbLayerTableRecord
  2
0
 70
     0
 62
     7
  6
Continuous
370
    -3
390
F
347
3E
  0
LAYER
  5
43
330
2
100
AcDbSymbolTableRecord
100
AcDbLayerTableRecord
  2
1-7_金物
 70
     0
 62
     7
  6
Continuous
370
    -3
390
F
347
3E
  0
LAYER
  5
44
330
2
100
AcDbSymbolTableRecord
100
AcDbLayerTableRecord
  2
F-1_枠
 70
     0
 62
     7
  6
Continuous
370
    -3
390
F
347
3E
  0
LAYER
  5
45
330
2
100
AcDbSymbolTableRecord
100
AcDbLayerTableRecord
  2
0-B_寸法
 70
     0
 62
     7
  6
Continuous
370
    -3
390
F
347
3E
  0
LAYER
  5
46
330
2
100
AcDbSymbolTableRecord
100
AcDbLayerTableRecord
  2
F-0_補助線
 70
     0
 62
     7
  6
Continuous
370
    -3
390
F
347
3E
  0
LAYER
  5
47
330
2
100
AcDbSymbolTableRecord
100
AcDbLayerTableRecord
  2
F-A_文字
 70
     0
 62
     7
  6
Continuous
370
    -3
390
F
347
3E
  0
LAYER
  5
48
330
2
100
AcDbSymbolTableRecord
100
AcDbLayerTableRecord
  2
1-B_寸法
 70
     0
 62
     7
  6
Continuous
370
    -3
390
F
347
3E
  0
LAYER
  5
49
330
2
100
AcDbSymbolTableRecord
100
AcDbLayerTableRecord
  2
1-C_ハッチ
 70
     0
 62
     7
  6
Continuous
370
    -3
390
F
347
3E
  0
LAYER
  5
4A
330
2
100
AcDbSymbolTableRecord
100
AcDbLayerTableRecord
  2
1-4_枠
 70
     0
 62
     7
  6
Continuous
370
    -3
390
F
347
3E
  0
LAYER
  5
4B
330
2
100
AcDbSymbolTableRecord
100
AcDbLayerTableRecord
  2
1-1_通り芯
 70
     0
 62
     7
  6
Continuous
370
    -3
390
F
347
3E
  0
LAYER
  5
4C
330
2
100
AcDbSymbolTableRecord
100
AcDbLayerTableRecord
  2
1-A_文字
 70
     0
 62
     7
  6
Continuous
370
    -3
390
F
347
3E
  0
LAYER
  5
4D
330
2
100
AcDbSymbolTableRecord
100
AcDbLayerTableRecord
  2
1-3_仕上げ
 70
     0
 62
     7
  6
Continuous
370
    -3
390
F
347
3E
  0
LAYER
  5
4E
330
2
100
AcDbSymbolTableRecord
100
AcDbLayerTableRecord
  2
1-5_ケーシング
 70
     0
 62
     7
  6
Continuous
370
    -3
390
F
347
3E
  0
LAYER
  5
4F
330
2
100
AcDbSymbolTableRecord
100
AcDbLayerTableRecord
  2
0-A_文字
 70
     0
 62
     7
  6
Continuous
370
    -3
390
F
347
3E
  0
LAYER
  5
50
330
2
100
AcDbSymbolTableRecord
100
AcDbLayerTableRecord
  2
0-4_枠
 70
     0
 62
     7
  6
Continuous
370
    -3
390
F
347
3E
  0
LAYER
  5
51
330
2
100
AcDbSymbolTableRecord
100
AcDbLayerTableRecord
  2
0-7_金物
 70
     0
 62
     7
  6
Continuous
370
    -3
390
F
347
3E
  0
LAYER
  5
52
330
2
100
AcDbSymbolTableRecord
100
AcDbLayerTableRecord
  2
0-C_ハッチ
 70
     0
 62
     7
  6
Continuous
370
    -3
390
F
347
3E
  0
LAYER
  5
53
330
2
100
AcDbSymbolTableRecord
100
AcDbLayerTableRecord
  2
1-6_扉
 70
     0
 62
     7
  6
Continuous
370
    -3
390
F
347
3E
  0
ENDTAB
  0
TABLE
  2
STYLE
  5
3
330
0
100
AcDbSymbolTable
 70
     1
  0
STYLE
  5
11
330
3
100
AcDbSymbolTableRecord
100
AcDbTextStyleTableRecord
  2
Standard
 70
     0
 40
0.0
 41
1.0
 50
0.0
 71
     0
 42
2.5
  3
txt
  4

  0
ENDTAB
  0
TABLE
  2
VIEW
  5
6
330
0
100
AcDbSymbolTable
 70
     0
  0
ENDTAB
  0
TABLE
  2
UCS
  5
7
330
0
100
AcDbSymbolTable
 70
     0
  0
ENDTAB
  0
TABLE
  2
APPID
  5
9
330
0
100
AcDbSymbolTable
 70
     1
  0
APPID
  5
12
330
9
100
AcDbSymbolTableRecord
100
AcDbRegAppTableRecord
  2
ACAD
 70
     0
  0
ENDTAB
  0
TABLE
  2
DIMSTYLE
  5
A
330
0
100
AcDbSymbolTable
 70
     1
100
AcDbDimStyleTable
  0
DIMSTYLE
105
27
330
A
100
AcDbSymbolTableRecord
100
AcDbDimStyleTableRecord
  2
ISO-25
 70
     0
 41
2.5
 42
0.625
 43
3.75
 44
1.25
 73
     0
 74
     0
 77
     1
 78
     8
140
2.5
141
2.5
143
0.03937007874016
147
0.625
171
     3
172
     1
178
     0
271
     2
272
     2
274
     3
278
    44
283
     0
284
     8
340
11
  0
ENDTAB
  0
TABLE
  2
BLOCK_RECORD
  5
1
330
0
100
AcDbSymbolTable
 70
     1
  0
BLOCK_RECORD
  5
1F
330
1
100
AcDbSymbolTableRecord
100
AcDbBlockTableRecord
  2
*Model_Space
340
22
 70
     0
280
     1
281
     0
  0
BLOCK_RECORD
  5
1B
330
1
100
AcDbSymbolTableRecord
100
AcDbBlockTableRecord
  2
*Paper_Space
340
1E
 70
     0
280
     1
281
     0
  0
BLOCK_RECORD
  5
23
330
1
100
AcDbSymbolTableRecord
100
AcDbBlockTableRecord
  2
*Paper_Space0
340
26
 70
     0
280
     1
281
     0
  0
ENDTAB
  0
ENDSEC
  0
SECTION
  2
BLOCKS
  0
BLOCK
  5
20
330
1F
100
AcDbEntity
  8
0
100
AcDbBlockBegin
  2
*Model_Space
 70
     0
 10
0.0
 20
0.0
 30
0.0
  3
*Model_Space
  1

  0
ENDBLK
  5
21
330
1F
100
AcDbEntity
  8
0
100
AcDbBlockEnd
  0
BLOCK
  5
1C
330
1B
100
AcDbEntity
 67
     1
  8
0
100
AcDbBlockBegin
  2
*Paper_Space
 70
     0
 10
0.0
 20
0.0
 30
0.0
  3
*Paper_Space
  1

  0
ENDBLK
  5
1D
330
1B
100
AcDbEntity
 67
     1
  8
0
100
AcDbBlockEnd
  0
BLOCK
  5
24
330
23
100
AcDbEntity
  8
0
100
AcDbBlockBegin
  2
*Paper_Space0
 70
     0
 10
0.0
 20
0.0
 30
0.0
  3
*Paper_Space0
  1

  0
ENDBLK
  5
25
330
23
100
AcDbEntity
  8
0
100
AcDbBlockEnd
  0
ENDSEC
  0
SECTION
  2
ENTITIES
  0
ARC
  5
54
330
1F
100
AcDbEntity
  8
1-7_金物
  6
Continuous
 62
     7
370
     9
100
AcDbCircle
 10
995.6208255627485
 20
-3424.328758354171
 30
0.0
 40
7.5
100
AcDbArc
 50
180.0
 51
270.0
  0
LINE
  5
55
330
1F
100
AcDbEntity
  8
1-7_金物
  6
Continuous
 62
     7
370
     9
100
AcDbLine
 10
1160.620825562748
 20
-3431.828758354171
 30
0.0
 11
995.6208255627485
 21
-3431.828758354171
 31
0.0
  0
ARC
  5
56
330
1F
100
AcDbEntity
  8
1-7_金物
  6
Continuous
 62
     7
370
     9
100
AcDbCircle
 10
1160.620825562748
 20
-3424.328758354171
 30
0.0
 40
7.5
100
AcDbArc
 50
270.0
 51
0.0
  0
LINE
  5
57
330
1F
100
AcDbEntity
  8
1-7_金物
  6
Continuous
 62
     7
370
     9
100
AcDbLine
 10
1168.120825562748
 20
-3394.328758354171
 30
0.0
 11
1168.120825562748
 21
-3424.328758354171
 31
0.0
  0
ARC
  5
58
330
1F
100
AcDbEntity
  8
1-7_金物
  6
Continuous
 62
     7
370
     9
100
AcDbCircle
 10
1160.620825562748
 20
-3394.328758354171
 30
0.0
 40
7.5
100
AcDbArc
 50
0.0
 51
90.0
  0
LINE
  5
59
330
1F
100
AcDbEntity
  8
1-7_金物
  6
Continuous
 62
     7
370
     9
100
AcDbLine
 10
988.1208255627485
 20
-3394.328758354171
 30
0.0
 11
988.1208255627485
 21
-3424.328758354171
 31
0.0
  0
ARC
  5
5A
330
1F
100
AcDbEntity
  8
1-7_金物
  6
Continuous
 62
     7
370
     9
100
AcDbCircle
 10
995.6208255627485
 20
-3394.328758354171
 30
0.0
 40
7.5
100
AcDbArc
 50
90.0
 51
180.0
  0
ARC
  5
5B
330
1F
100
AcDbEntity
  8
1-7_金物
  6
Continuous
 62
     7
370
     9
100
AcDbCircle
 10
883.1208255627485
 20
-3356.828758354171
 30
0.0
 40
30.0
100
AcDbArc
 50
180.0
 51
270.0
  0
LINE
  5
5C
330
1F
100
AcDbEntity
  8
1-7_金物
  6
Continuous
 62
     7
370
     9
100
AcDbLine
 10
1273.120825562745
 20
-3386.828758354171
 30
0.0
 11
883.1208255627485
 21
-3386.828758354171
 31
0.0
  0
ARC
  5
5D
330
1F
100
AcDbEntity
  8
1-7_金物
  6
Continuous
 62
     7
370
     9
100
AcDbCircle
 10
1273.120825562745
 20
-3356.828758354171
 30
0.0
 40
30.0
100
AcDbArc
 50
270.0
 51
0.0
  0
ARC
  5
5E
330
1F
100
AcDbEntity
  8
1-7_金物
  6
Continuous
 62
     7
370
     9
100
AcDbCircle
 10
883.120825562745
 20
-3191.82875835417
 30
0.0
 40
30.0
100
AcDbArc
 50
90.0
 51
180.0
  0
LINE
  5
5F
330
1F
100
AcDbEntity
  8
1-7_金物
  6
Continuous
 62
     7
370
     9
100
AcDbLine
 10
1273.120825562745
 20
-3161.828758354171
 30
0.0
 11
883.120825562745
 21
-3161.828758354171
 31
0.0
  0
ARC
  5
60
330
1F
100
AcDbEntity
  8
1-7_金物
  6
Continuous
 62
     7
370
     9
100
AcDbCircle
 10
1273.120825562745
 20
-3191.828758354171
 30
0.0
 40
30.0
100
AcDbArc
 50
0.0
 51
90.0
  0
LINE
  5
61
330
1F
100
AcDbEntity
  8
1-7_金物
  6
Continuous
 62
     7
370
     9
100
AcDbLine
 10
1303.120825562745
 20
-3191.828758354171
 30
0.0
 11
1303.120825562745
 21
-3356.828758354171
 31
0.0
  0
LINE
  5
62
330
1F
100
AcDbEntity
  8
1-7_金物
  6
Continuous
 62
     7
370
     9
100
AcDbLine
 10
853.1208255627485
 20
-3356.828758354171
 30
0.0
 11
853.1208255627485
 21
-3191.82875835417
 31
0.0
  0
ARC
  5
63
330
1F
100
AcDbEntity
  8
1-7_金物
  6
Continuous
 62
     7
370
     9
100
AcDbCircle
 10
1213.120825562745
 20
-3251.828758354171
 30
0.0
 40
60.0
100
AcDbArc
 50
0.0
 51
180.0
  0
ARC
  5
64
330
1F
100
AcDbEntity
  8
1-7_金物
  6
Continuous
 62
     7
370
     9
100
AcDbCircle
 10
943.1208255627485
 20
-3251.828758354171
 30
0.0
 40
60.0
100
AcDbArc
 50
0.0
 51
180.0
  0
ARC
  5
65
330
1F
100
AcDbEntity
  8
1-7_金物
  6
Continuous
 62
     7
370
     9
100
AcDbCircle
 10
943.1208255627485
 20
-3251.828758354171
 30
0.0
 40
30.0
100
AcDbArc
 50
0.0
 51
180.0
  0
ARC
  5
66
330
1F
100
AcDbEntity
  8
1-7_金物
  6
Continuous
 62
     7
370
     9
100
AcDbCircle
 10
1213.120825562745
 20
-3251.828758354171
 30
0.0
 40
30.0
100
AcDbArc
 50
0.0
 51
180.0
  0
ARC
  5
67
330
1F
100
AcDbEntity
  8
1-7_金物
  6
Continuous
 62
     7
370
     9
100
AcDbCircle
 10
943.1208255627485
 20
-3296.828758354171
 30
0.0
 40
60.0
100
AcDbArc
 50
180.0
 51
0.0
  0
ARC
  5
68
330
1F
100
AcDbEntity
  8
1-7_金物
  6
Continuous
 62
     7
370
     9
100
AcDbCircle
 10
943.1208255627485
 20
-3296.828758354171
 30
0.0
 40
30.0
100
AcDbArc
 50
180.0
 51
0.0
  0
ARC
  5
69
330
1F
100
AcDbEntity
  8
1-7_金物
  6
Continuous
 62
     7
370
     9
100
AcDbCircle
 10
1213.120825562748
 20
-3296.828758354171
 30
0.0
 40
60.0
100
AcDbArc
 50
180.0
 51
0.0
  0
ARC
  5
6A
330
1F
100
AcDbEntity
  8
1-7_金物
  6
Continuous
 62
     7
370
     9
100
AcDbCircle
 10
1213.120825562748
 20
-3296.828758354171
 30
0.0
 40
30.0
100
AcDbArc
 50
180.0
 51
0.0
  0
LINE
  5
6B
330
1F
100
AcDbEntity
  8
1-7_金物
  6
Continuous
 62
     7
370
     9
100
AcDbLine
 10
973.1208255627485
 20
-3296.828758354171
 30
0.0
 11
973.1208255627485
 21
-3251.828758354171
 31
0.0
  0
LINE
  5
6C
330
1F
100
AcDbEntity
  8
1-7_金物
  6
Continuous
 62
     7
370
     9
100
AcDbLine
 10
913.1208255627485
 20
-3251.828758354171
 30
0.0
 11
913.1208255627485
 21
-3296.828758354171
 31
0.0
  0
LINE
  5
6D
330
1F
100
AcDbEntity
  8
1-7_金物
  6
Continuous
 62
     7
370
     9
100
AcDbLine
 10
883.1208255627485
 20
-3251.828758354171
 30
0.0
 11
883.1208255627485
 21
-3296.828758354171
 31
0.0
  0
LINE
  5
6E
330
1F
100
AcDbEntity
  8
1-7_金物
  6
Continuous
 62
     7
370
     9
100
AcDbLine
 10
1003.120825562748
 20
-3251.828758354171
 30
0.0
 11
1003.120825562748
 21
-3296.828758354171
 31
0.0
  0
LINE
  5
6F
330
1F
100
AcDbEntity
  8
1-7_金物
  6
Continuous
 62
     7
370
     9
100
AcDbLine
 10
1273.120825562745
 20
-3296.828758354171
 30
0.0
 11
1273.120825562745
 21
-3251.828758354171
 31
0.0
  0
LINE
  5
70
330
1F
100
AcDbEntity
  8
1-7_金物
  6
Continuous
 62
     7
370
     9
100
AcDbLine
 10
1243.120825562748
 20
-3296.828758354171
 30
0.0
 11
1243.120825562748
 21
-3251.828758354171
 31
0.0
  0
LINE
  5
71
330
1F
100
AcDbEntity
  8
1-7_金物
  6
Continuous
 62
     7
370
     9
100
AcDbLine
 10
1183.120825562748
 20
-3251.828758354171
 30
0.0
 11
1183.120825562748
 21
-3296.828758354171
 31
0.0
  0
LINE
  5
72
330
1F
100
AcDbEntity
  8
1-7_金物
  6
Continuous
 62
     7
370
     9
100
AcDbLine
 10
1153.120825562748
 20
-3296.828758354171
 30
0.0
 11
1153.120825562748
 21
-3251.828758354171
 31
0.0
  0
LINE
  5
73
330
1F
100
AcDbEntity
  8
F-1_枠
  6
Continuous
 62
   200
370
    20
100
AcDbLine
 10
-144.4632555649025
 20
-478.9996561617455
 30
0.0
 11
-144.4632555649025
 21
-3774.99981957513
 31
0.0
  0
LINE
  5
74
330
1F
100
AcDbEntity
  8
0-B_寸法
  6
Continuous
 62
   200
370
    20
100
AcDbLine
 10
-5839.99949532586
 20
-478.9996561617455
 30
0.0
 11
3670.537080245499
 21
-478.9996561617455
 31
0.0
  0
LINE
  5
75
330
1F
100
AcDbEntity
  8
F-0_補助線
  6
JWW_HOJO
 62
   120
370
     5
100
AcDbLine
 10
-6149.999505120355
 20
-4439.999802048143
 30
0.0
 11
-6149.999505120355
 21
4439.999802048143
 31
0.0
  0
LINE
  5
76
330
1F
100
AcDbEntity
  8
F-0_補助線
  6
JWW_HOJO
 62
   120
370
     5
100
AcDbLine
 10
-6149.999505120355
 20
4439.999802048143
 30
0.0
 11
6149.999505120355
 21
4439.999802048143
 31
0.0
  0
LINE
  5
77
330
1F
100
AcDbEntity
  8
F-0_補助線
  6
JWW_HOJO
 62
   120
370
     5
100
AcDbLine
 10
6149.999505120355
 20
4439.999802048143
 30
0.0
 11
6149.999505120355
 21
-4439.999802048143
 31
0.0
  0
LINE
  5
78
330
1F
100
AcDbEntity
  8
F-0_補助線
  6
JWW_HOJO
 62
   120
370
     5
100
AcDbLine
 10
6149.999505120355
 20
-4439.999802048143
 30
0.0
 11
-6149.999505120355
 21
-4439.999802048143
 31
0.0
  0
LINE
  5
79
330
1F
100
AcDbEntity
  8
F-1_枠
  6
Continuous
 62
   200
370
    20
100
AcDbLine
 10
5849.999257680533
 20
4189.999967008023
 30
0.0
 11
5849.999257680533
 21
-4189.999967008024
 31
0.0
  0
LINE
  5
7A
330
1F
100
AcDbEntity
  8
F-1_枠
  6
Continuous
 62
   200
370
    20
100
AcDbLine
 10
-5849.999489655365
 20
4189.999967008023
 30
0.0
 11
-5849.999489655365
 21
-4189.999967008024
 31
0.0
  0
LINE
  5
7B
330
1F
100
AcDbEntity
  8
F-1_枠
  6
Continuous
 62
   200
370
    20
100
AcDbLine
 10
-5839.99949532586
 20
4189.999967008023
 30
0.0
 11
-5839.99949532586
 21
-4189.999967008024
 31
0.0
  0
LINE
  5
7C
330
1F
100
AcDbEntity
  8
F-1_枠
  6
Continuous
 62
   200
370
    20
100
AcDbLine
 10
-5844.999480891873
 20
4189.999967008023
 30
0.0
 11
-5844.999480891873
 21
-4189.999967008024
 31
0.0
  0
LINE
  5
7D
330
1F
100
AcDbEntity
  8
F-1_枠
  6
Continuous
 62
   200
370
    20
100
AcDbLine
 10
5844.998993744722
 20
4189.999967008023
 30
0.0
 11
5844.998993744722
 21
-4189.999967008024
 31
0.0
  0
LINE
  5
7E
330
1F
100
AcDbEntity
  8
F-1_枠
  6
Continuous
 62
   200
370
    20
100
AcDbLine
 10
5839.99947212838
 20
4189.999967008023
 30
0.0
 11
5839.99947212838
 21
-4189.999967008024
 31
0.0
  0
LINE
  5
7F
330
1F
100
AcDbEntity
  8
F-1_枠
  6
Continuous
 62
   200
370
    20
100
AcDbLine
 10
-5849.999257680531
 20
4189.999967008023
 30
0.0
 11
5849.999257680533
 21
4189.999967008023
 31
0.0
  0
LINE
  5
80
330
1F
100
AcDbEntity
  8
F-1_枠
  6
Continuous
 62
   200
370
    20
100
AcDbLine
 10
-5849.999257680531
 20
4180.00018145587
 30
0.0
 11
5849.999257680533
 21
4180.00018145587
 31
0.0
  0
LINE
  5
81
330
1F
100
AcDbEntity
  8
F-1_枠
  6
Continuous
 62
   200
370
    20
100
AcDbLine
 10
-5849.999257680531
 20
4184.999703072212
 30
0.0
 11
5849.999257680533
 21
4184.999703072212
 31
0.0
  0
LINE
  5
82
330
1F
100
AcDbEntity
  8
F-0_補助線
  6
JWW_HOJO
 62
     7
370
     9
100
AcDbLine
 10
1000.000082479942
 20
-3779.99980514114
 30
0.0
 11
1000.000082479942
 21
-4179.999810296136
 31
0.0
  0
LINE
  5
83
330
1F
100
AcDbEntity
  8
F-0_補助線
  6
JWW_HOJO
 62
     7
370
     9
100
AcDbLine
 10
500.0004123997047
 20
-3779.99980514114
 30
0.0
 11
500.0004123997047
 21
-4179.999810296136
 31
0.0
  0
LINE
  5
84
330
1F
100
AcDbEntity
  8
F-1_枠
  6
Continuous
 62
   200
370
    20
100
AcDbLine
 10
5849.999257680533
 20
-4189.999804625641
 30
0.0
 11
-5849.999257680533
 21
-4189.999804625641
 31
0.0
  0
LINE
  5
85
330
1F
100
AcDbEntity
  8
F-1_枠
  6
Continuous
 62
   200
370
    20
100
AcDbLine
 10
5849.999257680533
 20
-4184.999795862147
 30
0.0
 11
-5849.999257680533
 21
-4184.999795862147
 31
0.0
  0
LINE
  5
86
330
1F
100
AcDbEntity
  8
F-1_枠
  6
Continuous
 62
   200
370
    20
100
AcDbLine
 10
5849.999257680533
 20
-4179.999810296136
 30
0.0
 11
-5849.999257680533
 21
-4179.999810296136
 31
0.0
  0
LINE
  5
87
330
1F
100
AcDbEntity
  8
F-1_枠
  6
Continuous
 62
   200
370
    20
100
AcDbLine
 10
4339.999719568202
 20
-3779.99980514114
 30
0.0
 11
4339.999719568202
 21
-4179.999810296136
 31
0.0
  0
LINE
  5
88
330
1F
100
AcDbEntity
  8
F-1_枠
  6
Continuous
 62
   200
370
    20
100
AcDbLine
 10
2839.999224688557
 20
-3779.99980514114
 30
0.0
 11
2839.999224688557
 21
-4179.999810296136
 31
0.0
  0
LINE
  5
89
330
1F
100
AcDbEntity
  8
F-1_枠
  6
Continuous
 62
   200
370
    20
100
AcDbLine
 10
0.0003711597344136
 20
-3779.99980514114
 30
0.0
 11
0.0003711597344136
 21
-4179.999810296136
 31
0.0
  0
LINE
  5
8A
330
1F
100
AcDbEntity
  8
F-1_枠
  6
Continuous
 62
   200
370
    20
100
AcDbLine
 10
0.0003711597344136
 20
-3979.999738126188
 30
0.0
 11
5839.99947212838
 21
-3980.005166337297
 31
0.0
  0
LINE
  5
8B
330
1F
100
AcDbEntity
  8
F-0_補助線
  6
JWW_HOJO
 62
     7
370
     9
100
AcDbLine
 10
-5839.999495325861
 20
-3979.999738126533
 30
0.0
 11
0.0003711597344136
 21
-3979.999738126533
 31
0.0
  0
LINE
  5
8C
330
1F
100
AcDbEntity
  8
F-0_補助線
  6
JWW_HOJO
 62
     7
370
     9
100
AcDbLine
 10
-5839.999495325861
 20
-3889.999738126533
 30
0.0
 11
0.0003711597344136
 21
-3889.999738126533
 31
0.0
  0
LINE
  5
8D
330
1F
100
AcDbEntity
  8
F-0_補助線
  6
JWW_HOJO
 62
     7
370
     9
100
AcDbLine
 10
-5839.999495325861
 20
-4069.999738126533
 30
0.0
 11
0.0003711597344136
 21
-4069.999738126533
 31
0.0
  0
LINE
  5
8E
330
1F
100
AcDbEntity
  8
F-0_補助線
  6
JWW_HOJO
 62
     7
370
     9
100
AcDbLine
 10
0.0002363841065289
 20
-4124.999541826125
 30
0.0
 11
5839.99933735275
 21
-4125.004970037234
 31
0.0
  0
LINE
  5
8F
330
1F
100
AcDbEntity
  8
F-0_補助線
  6
JWW_HOJO
 62
     7
370
     9
100
AcDbLine
 10
0.0003200380581347
 20
-4034.999541826165
 30
0.0
 11
5839.999421006702
 21
-4035.004970037273
 31
0.0
  0
LINE
  5
90
330
1F
100
AcDbEntity
  8
F-0_補助線
  6
JWW_HOJO
 62
     7
370
     9
100
AcDbLine
 10
0.0004222817781852
 20
-3924.999539266212
 30
0.0
 11
5839.999523250422
 21
-3925.004967477321
 31
0.0
  0
LINE
  5
91
330
1F
100
AcDbEntity
  8
F-0_補助線
  6
JWW_HOJO
 62
     7
370
     9
100
AcDbLine
 10
0.000505935729791
 20
-3834.999539266251
 30
0.0
 11
5839.999606904374
 21
-3835.00496747736
 31
0.0
  0
LINE
  5
92
330
1F
100
AcDbEntity
  8
F-0_補助線
  6
JWW_HOJO
 62
     7
370
     9
100
AcDbLine
 10
2929.999224688557
 20
-3779.99980514114
 30
0.0
 11
2929.999224688557
 21
-4179.999810296136
 31
0.0
  0
LINE
  5
93
330
1F
100
AcDbEntity
  8
F-0_補助線
  6
JWW_HOJO
 62
     7
370
     9
100
AcDbLine
 10
90.00037115973441
 20
-3779.99980514114
 30
0.0
 11
90.00037115973441
 21
-4179.999810296136
 31
0.0
  0
LINE
  5
94
330
1F
100
AcDbEntity
  8
F-0_補助線
  6
JWW_HOJO
 62
     7
370
     9
100
AcDbLine
 10
4429.999719568202
 20
-3779.99980514114
 30
0.0
 11
4429.999719568202
 21
-4179.999810296136
 31
0.0
  0
MTEXT
  5
95
330
1F
100
AcDbEntity
  8
F-A_文字
  6
Continuous
 62
     7
370
     0
100
AcDbMText
 10
4429.999719568202
 20
-3872.143656898896
 30
0.0
 40
45.72
 41
240.0
 46
0.0
 71
     7
 72
     1
  1
{\fＭＳ ゴシック|b0|i0|c128|p49;ＤＡＴＥ}
 73
     1
 44
1.0
  0
MTEXT
  5
96
330
1F
100
AcDbEntity
  8
F-A_文字
  6
Continuous
 62
     7
370
     0
100
AcDbMText
 10
4429.999719568202
 20
-4072.143659458982
 30
0.0
 40
45.72
 41
180.0
 46
0.0
 71
     7
 72
     1
  1
{\fＭＳ ゴシック|b0|i0|c128|p49;ＮＯ．}
 73
     1
 44
1.0
  0
MTEXT
  5
97
330
1F
100
AcDbEntity
  8
F-A_文字
  6
Continuous
 62
     7
370
     0
100
AcDbMText
 10
2929.999224688557
 20
-3872.142262665916
 30
0.0
 40
45.72
 41
300.0
 46
0.0
 71
     7
 72
     1
  1
{\fＭＳ ゴシック|b0|i0|c128|p49;ＳＣＡＬＥ}
 73
     1
 44
1.0
  0
MTEXT
  5
98
330
1F
100
AcDbEntity
  8
F-A_文字
  6
Continuous
 62
     7
370
     0
100
AcDbMText
 10
2929.999224688557
 20
-4072.142265226002
 30
0.0
 40
45.72
 41
240.0
 46
0.0
 71
     7
 72
     1
  1
{\fＭＳ ゴシック|b0|i0|c128|p49;ＦＩＬＥ}
 73
     1
 44
1.0
  0
MTEXT
  5
99
330
1F
100
AcDbEntity
  8
F-A_文字
  6
Continuous
 62
     7
370
     0
100
AcDbMText
 10
90.00037115973441
 20
-3872.139622920078
 30
0.0
 40
45.72
 41
180.0
 46
0.0
 71
     7
 72
     1
  1
{\fＭＳ ゴシック|b0|i0|c128|p49;図面名}
 73
     1
 44
1.0
  0
MTEXT
  5
9A
330
1F
100
AcDbEntity
  8
F-A_文字
  6
Continuous
 62
     7
370
     0
100
AcDbMText
 10
1594.999224688556
 20
-4149.28155657207
 30
0.0
 40
101.44125
 41
1065.0
 46
0.0
 71
     7
 72
     1
  1
{\fＭＳ ゴシック|b0|i0|c128|p49;ウッドワン・・・}
 73
     1
 44
1.0
  0
MTEXT
  5
9B
330
1F
100
AcDbEntity
  8
F-A_文字
  6
Continuous
 62
     7
370
     0
100
AcDbMText
 10
1384.999224688556
 20
-4081.14047131429
 30
0.0
 40
45.72
 41
120.0
 46
0.0
 71
     7
 72
     1
  1
{\fＭＳ ゴシック|b0|i0|c128|p49;株式}
 73
     1
 44
1.0
  0
MTEXT
  5
9C
330
1F
100
AcDbEntity
  8
F-A_文字
  6
Continuous
 62
     7
370
     0
100
AcDbMText
 10
1384.999224688556
 20
-4153.140471314329
 30
0.0
 40
45.72
 41
120.0
 46
0.0
 71
     7
 72
     1
  1
{\fＭＳ ゴシック|b0|i0|c128|p49;会社}
 73
     1
 44
1.0
  0
LINE
  5
9D
330
1F
100
AcDbEntity
  8
F-1_枠
  6
Continuous
 62
   200
370
    20
100
AcDbLine
 10
5849.999257680533
 20
-3779.99980514114
 30
0.0
 11
-5849.999257680533
 21
-3779.99980514114
 31
0.0
  0
LINE
  5
9E
330
1F
100
AcDbEntity
  8
F-1_枠
  6
Continuous
 62
   200
370
    20
100
AcDbLine
 10
5849.999257680533
 20
-3774.99981957513
 30
0.0
 11
-5849.999257680533
 21
-3774.99981957513
 31
0.0
  0
LINE
  5
9F
330
1F
100
AcDbEntity
  8
F-0_補助線
  6
JWW_HOJO
 62
     7
370
     9
100
AcDbLine
 10
-5097.546881873193
 20
-3779.999805141141
 30
0.0
 11
-5097.546881873193
 21
-4189.999967008024
 31
0.0
  0
MTEXT
  5
A0
330
1F
100
AcDbEntity
  8
F-A_文字
  6
Continuous
 62
     7
370
     0
100
AcDbMText
 10
1000.000082479942
 20
-3930.947968754224
 30
0.0
 40
78.105
 41
615.0
 46
0.0
 71
     7
 72
     1
  1
{\fＭＳ ゴシック|b0|i0|c128|p49;建具納まり図}
 73
     1
 44
1.0
  0
LINE
  5
A1
330
1F
100
AcDbEntity
  8
F-0_補助線
  6
JWW_HOJO
 62
     7
370
     9
100
AcDbLine
 10
-59.99962884026559
 20
-3779.99980514114
 30
0.0
 11
-59.99962884026559
 21
-4179.999810296136
 31
0.0
  0
MTEXT
  5
A2
330
1F
100
AcDbEntity
  8
F-A_文字
  6
Continuous
 62
     7
370
     9
100
AcDbMText
 10
5086.249528460476
 20
-4132.856814748127
 30
0.0
 40
74.295
 41
97.5
 46
0.0
 71
     7
 72
     1
  1
{\fＭＳ ゴシック|b0|i0|c128|p49;01}
 73
     1
 44
1.0
  0
MTEXT
  5
A3
330
1F
100
AcDbEntity
  8
F-A_文字
  6
Continuous
 62
     7
370
     0
100
AcDbMText
 10
4928.749621409312
 20
-3923.213687188108
 30
0.0
 40
78.58125
 41
412.5
 46
0.0
 71
     7
 72
     1
  1
{\fＭＳ ゴシック|b0|i0|c128|p49;12.02.25}
 73
     1
 44
1.0
  0
MTEXT
  5
A4
330
1F
100
AcDbEntity
  8
F-A_文字
  6
Continuous
 62
     7
370
     0
100
AcDbMText
 10
3533.749472128379
 20
-3931.42666795545
 30
0.0
 40
77.15249999999999
 41
202.5
 46
0.0
 71
     7
 72
     1
  1
{\fＭＳ ゴシック|b0|i0|c128|p49;1/10}
 73
     1
 44
1.0
  0
LINE
  5
A5
330
1F
100
AcDbEntity
  8
1-B_寸法
  6
Continuous
 62
   120
370
     5
100
AcDbLine
 10
1167.838660066265
 20
-1915.287726760225
 30
0.0
 11
1167.838660066265
 21
-1872.203813133638
 31
0.0
  0
LINE
  5
A6
330
1F
100
AcDbEntity
  8
1-B_寸法
  6
Continuous
 62
   120
370
     5
100
AcDbLine
 10
1167.838660066265
 20
-2022.203813133638
 30
0.0
 11
1167.838660066265
 21
-2001.732768353444
 31
0.0
  0
LINE
  5
A7
330
1F
100
AcDbEntity
  8
1-B_寸法
  6
Continuous
 62
   120
370
     5
100
AcDbLine
 10
1265.338660066265
 20
-1915.287726760225
 30
0.0
 11
1265.338660066265
 21
-1872.203813133638
 31
0.0
  0
LINE
  5
A8
330
1F
100
AcDbEntity
  8
1-B_寸法
  6
Continuous
 62
   120
370
     5
100
AcDbLine
 10
1265.338660066265
 20
-2022.203813133638
 30
0.0
 11
1265.338660066265
 21
-2001.732768353444
 31
0.0
  0
LINE
  5
A9
330
1F
100
AcDbEntity
  8
1-C_ハッチ
  6
Continuous
 62
   120
370
     5
100
AcDbLine
 10
897.8386600662416
 20
-1562.800958182432
 30
0.0
 11
942.8386600662416
 21
-1517.800958182446
 31
0.0
  0
LINE
  5
AA
330
1F
100
AcDbEntity
  8
1-C_ハッチ
  6
Continuous
 62
   120
370
     5
100
AcDbLine
 10
897.8386600662416
 20
-1371.882127262072
 30
0.0
 11
942.8386600662416
 21
-1326.882127262069
 31
0.0
  0
LINE
  5
AB
330
1F
100
AcDbEntity
  8
1-C_ハッチ
  6
Continuous
 62
   120
370
     5
100
AcDbLine
 10
897.8386600662416
 20
-1499.1613478757
 30
0.0
 11
942.8386600662416
 21
-1454.161347875694
 31
0.0
  0
LINE
  5
AC
330
1F
100
AcDbEntity
  8
1-C_ハッチ
  6
Continuous
 62
   120
370
     5
100
AcDbLine
 10
897.8386600662416
 20
-1435.521737568957
 30
0.0
 11
942.8386600662416
 21
-1390.521737568951
 31
0.0
  0
LINE
  5
AD
330
1F
100
AcDbEntity
  8
1-C_ハッチ
  6
Continuous
 62
   120
370
     5
100
AcDbLine
 10
970.7163619037087
 20
-1617.202476958593
 30
0.0
 11
1015.716361903719
 21
-1572.202476958593
 31
0.0
  0
LINE
  5
AE
330
1F
100
AcDbEntity
  8
1-C_ハッチ
  6
Continuous
 62
   120
370
     5
100
AcDbLine
 10
1161.635192824095
 20
-1617.202476958593
 30
0.0
 11
1167.827217715276
 21
-1611.010452067412
 31
0.0
  0
LINE
  5
AF
330
1F
100
AcDbEntity
  8
1-C_ハッチ
  6
Continuous
 62
   120
370
     5
100
AcDbLine
 10
1097.995582517336
 20
-1617.202476958593
 30
0.0
 11
1142.99558251735
 21
-1572.202476958593
 31
0.0
  0
LINE
  5
B0
330
1F
100
AcDbEntity
  8
1-C_ハッチ
  6
Continuous
 62
   120
370
     5
100
AcDbLine
 10
1034.355972210471
 20
-1617.202476958593
 30
0.0
 11
1079.355972210461
 21
-1572.202476958593
 31
0.0
  0
LINE
  5
B1
330
1F
100
AcDbEntity
  8
1-C_ハッチ
  6
Continuous
 62
   120
370
     5
100
AcDbLine
 10
915.9749420358842
 20
-1608.304286519688
 30
0.0
 11
952.0767515969803
 21
-1572.202476958593
 31
0.0
  0
LINE
  5
B2
330
1F
100
AcDbEntity
  8
1-7_金物
  6
Continuous
 62
    92
370
    13
100
AcDbLine
 10
942.8386600662416
 20
-1317.202476958593
 30
0.0
 11
897.838660066245
 21
-1317.202476958593
 31
0.0
  0
LINE
  5
B3
330
1F
100
AcDbEntity
  8
1-7_金物
  6
Continuous
 62
    92
370
    13
100
AcDbLine
 10
942.8386600662416
 20
-1317.202476958593
 30
0.0
 11
942.8386600662416
 21
-1572.202476958593
 31
0.0
  0
LINE
  5
B4
330
1F
100
AcDbEntity
  8
1-7_金物
  6
Continuous
 62
    92
370
    13
100
AcDbLine
 10
897.8386600662416
 20
-1572.202476958593
 30
0.0
 11
897.8386600662416
 21
-1317.202476958593
 31
0.0
  0
ARC
  5
B5
330
1F
100
AcDbEntity
  8
1-7_金物
  6
Continuous
 62
    92
370
    13
100
AcDbCircle
 10
942.8386600662416
 20
-1572.202476958593
 30
0.0
 40
45.00000000000001
100
AcDbArc
 50
180.0
 51
270.0
  0
LINE
  5
B6
330
1F
100
AcDbEntity
  8
1-7_金物
  6
Continuous
 62
    92
370
    13
100
AcDbLine
 10
1167.838660066265
 20
-1572.202476958593
 30
0.0
 11
942.8386600662416
 21
-1572.202476958593
 31
0.0
  0
LINE
  5
B7
330
1F
100
AcDbEntity
  8
1-7_金物
  6
Continuous
 62
    92
370
    13
100
AcDbLine
 10
942.8386600662416
 20
-1617.202476958593
 30
0.0
 11
1167.838660066269
 21
-1617.202476958593
 31
0.0
  0
LINE
  5
B8
330
1F
100
AcDbEntity
  8
1-7_金物
  6
Continuous
 62
    92
370
    13
100
AcDbLine
 10
1167.838660066265
 20
-1572.202476958593
 30
0.0
 11
1167.838660066265
 21
-1617.202476958593
 31
0.0
  0
LWPOLYLINE
  5
B9
330
1F
100
AcDbEntity
  8
1-B_寸法
  6
Continuous
 62
     7
370
     9
100
AcDbPolyline
 90
        4
 70
     1
 43
3.0
 10
526.109654326083
 20
-1617.203404857931
 42
0.4142135623731
 10
524.609654326083
 20
-1615.703404857931
 42
0.4142135623731
 10
523.109654326083
 20
-1617.203404857931
 42
0.4142135623731
 10
524.609654326083
 20
-1618.703404857931
 42
0.4142135623731
  0
LINE
  5
BA
330
1F
100
AcDbEntity
  8
1-B_寸法
  6
Continuous
 62
   120
370
     5
100
AcDbLine
 10
524.609654326083
 20
-1617.203404857931
 30
0.0
 11
674.609654326084
 21
-1617.203404857931
 31
0.0
  0
LINE
  5
BB
330
1F
100
AcDbEntity
  8
1-B_寸法
  6
Continuous
 62
   120
370
     5
100
AcDbLine
 10
897.8386600662416
 20
-2022.203813133638
 30
0.0
 11
1167.838660066265
 21
-2022.203813133638
 31
0.0
  0
LWPOLYLINE
  5
BC
330
1F
100
AcDbEntity
  8
1-B_寸法
  6
Continuous
 62
     7
370
     9
100
AcDbPolyline
 90
        4
 70
     1
 43
3.0
 10
899.3386600662416
 20
-2022.203813133638
 42
0.4142135623731
 10
897.8386600662416
 20
-2020.703813133638
 42
0.4142135623731
 10
896.3386600662415
 20
-2022.203813133638
 42
0.4142135623731
 10
897.8386600662416
 20
-2023.703813133638
 42
0.4142135623731
  0
LWPOLYLINE
  5
BD
330
1F
100
AcDbEntity
  8
1-B_寸法
  6
Continuous
 62
     7
370
     9
100
AcDbPolyline
 90
        4
 70
     1
 43
3.0
 10
1169.338660066265
 20
-2022.203813133638
 42
0.4142135623731
 10
1167.838660066265
 20
-2020.703813133638
 42
0.4142135623731
 10
1166.338660066265
 20
-2022.203813133638
 42
0.4142135623731
 10
1167.838660066265
 20
-2023.703813133638
 42
0.4142135623731
  0
LINE
  5
BE
330
1F
100
AcDbEntity
  8
1-B_寸法
  6
Continuous
 62
   120
370
     5
100
AcDbLine
 10
897.8386600662416
 20
-2172.203813133638
 30
0.0
 11
897.8386600662416
 21
-1872.203813133638
 31
0.0
  0
LWPOLYLINE
  5
BF
330
1F
100
AcDbEntity
  8
1-B_寸法
  6
Continuous
 62
     7
370
     9
100
AcDbPolyline
 90
        4
 70
     1
 43
3.0
 10
899.3386600662416
 20
-2172.203813133638
 42
0.4142135623731
 10
897.8386600662416
 20
-2170.703813133638
 42
0.4142135623731
 10
896.3386600662415
 20
-2172.203813133638
 42
0.4142135623731
 10
897.8386600662416
 20
-2173.703813133638
 42
0.4142135623731
  0
LINE
  5
C0
330
1F
100
AcDbEntity
  8
1-4_枠
  6
Continuous
 62
    92
370
    13
100
AcDbLine
 10
410.3386600662662
 20
-962.0745738775277
 30
0.0
 11
410.3386600662654
 21
-1617.203404857923
 31
0.0
  0
LINE
  5
C1
330
1F
100
AcDbEntity
  8
1-1_通り芯
  6
JWW_CENTER1
 62
   120
370
     5
100
AcDbLine
 10
920.3386600662654
 20
-962.0745738775277
 30
0.0
 11
920.3386600662654
 21
-1784.804370374169
 31
0.0
  0
LINE
  5
C2
330
1F
100
AcDbEntity
  8
1-A_文字
  6
Continuous
 62
     7
370
     9
100
AcDbLine
 10
1105.180243219124
 20
-2569.328758354177
 30
0.0
 11
1622.680243219124
 21
-2569.328758354177
 31
0.0
  0
LINE
  5
C3
330
1F
100
AcDbEntity
  8
1-3_仕上げ
  6
Continuous
 62
    40
370
    15
100
AcDbLine
 10
1235.620825562772
 20
-2310.904889358899
 30
0.0
 11
1235.620825562772
 21
-2457.989929819935
 31
0.0
  0
LINE
  5
C4
330
1F
100
AcDbEntity
  8
1-3_仕上げ
  6
Continuous
 62
    40
370
    15
100
AcDbLine
 10
1235.620825562772
 20
-2590.002326304211
 30
0.0
 11
1235.620825562772
 21
-2696.828758354172
 31
0.0
  0
LINE
  5
C5
330
1F
100
AcDbEntity
  8
1-A_文字
  6
Continuous
 62
     7
370
     9
100
AcDbLine
 10
1105.180243219124
 20
-2569.328758354177
 30
0.0
 11
1030.180243219123
 21
-2644.328758354177
 31
0.0
  0
MTEXT
  5
C6
330
1F
100
AcDbEntity
  8
1-A_文字
  6
Continuous
 62
     7
370
     9
100
AcDbMText
 10
1105.180243219124
 20
-2567.395258354177
 30
0.0
 40
78.86699999999999
 41
517.5
 46
0.0
 71
     7
 72
     1
  1
{\fＭＳ ゴシック|b0|i0|c128|p49;見切材(竪)}
 73
     1
 44
1.0
  0
LINE
  5
C7
330
1F
100
AcDbEntity
  8
1-A_文字
  6
Continuous
 62
     7
370
     9
100
AcDbLine
 10
1864.781129042234
 20
-2809.860869420655
 30
0.0
 11
1789.781129042234
 21
-2884.860869420655
 31
0.0
  0
LINE
  5
C8
330
1F
100
AcDbEntity
  8
1-A_文字
  6
Continuous
 62
     7
370
     9
100
AcDbLine
 10
1864.781129042234
 20
-2809.860869420655
 30
0.0
 11
1954.781129042234
 21
-2809.860869420655
 31
0.0
  0
MTEXT
  5
C9
330
1F
100
AcDbEntity
  8
1-A_文字
  6
Continuous
 62
     7
370
     9
100
AcDbMText
 10
1864.781129042234
 20
-2813.070869420655
 30
0.0
 40
68.58
 41
90.0
 46
0.0
 71
     7
 72
     1
  1
{\fＭＳ ゴシック|b0|i0|c128|p49;壁}
 73
     1
 44
1.0
  0
LINE
  5
CA
330
1F
100
AcDbEntity
  8
1-3_仕上げ
  6
Continuous
 62
    40
370
    15
100
AcDbLine
 10
1048.120825562752
 20
-2310.904889358899
 30
0.0
 11
1048.120825562752
 21
-2884.328758354172
 31
0.0
  0
LINE
  5
CB
330
1F
100
AcDbEntity
  8
1-B_寸法
  6
Continuous
 62
   120
370
     5
100
AcDbLine
 10
493.120825562734
 20
-2644.328758354177
 30
0.0
 11
493.120825562734
 21
-3064.328758354204
 31
0.0
  0
LWPOLYLINE
  5
CC
330
1F
100
AcDbEntity
  8
1-B_寸法
  6
Continuous
 62
     7
370
     9
100
AcDbPolyline
 90
        4
 70
     1
 43
3.0
 10
494.620825562734
 20
-2644.328758354177
 42
0.4142135623731
 10
493.120825562734
 20
-2642.828758354177
 42
0.4142135623731
 10
491.620825562734
 20
-2644.328758354177
 42
0.4142135623731
 10
493.120825562734
 20
-2645.828758354177
 42
0.4142135623731
  0
LWPOLYLINE
  5
CD
330
1F
100
AcDbEntity
  8
1-B_寸法
  6
Continuous
 62
     7
370
     9
100
AcDbPolyline
 90
        4
 70
     1
 43
3.0
 10
494.620825562734
 20
-3064.328758354205
 42
0.4142135623731
 10
493.120825562734
 20
-3062.828758354205
 42
0.4142135623731
 10
491.620825562734
 20
-3064.328758354205
 42
0.4142135623731
 10
493.120825562734
 20
-3065.828758354205
 42
0.4142135623731
  0
MTEXT
  5
CE
330
1F
100
AcDbEntity
  8
1-B_寸法
  6
Continuous
 62
     7
370
   211
100
AcDbMText
 10
478.120825562734
 20
-2910.931258354191
 30
0.0
 40
74.295
 41
97.5
 46
0.0
 71
     7
 72
     1
  1
{\fＭＳ ゴシック|b0|i0|c128|p49;28}
 11
6.123031769111886E-17
 21
1.0
 31
0.0
 73
     1
 44
1.0
  0
LINE
  5
CF
330
1F
100
AcDbEntity
  8
1-5_ケーシング
  6
Continuous
 62
    92
370
    13
100
AcDbLine
 10
1288.120825562745
 20
-3064.328758354171
 30
0.0
 11
1288.120825562745
 21
-2884.328758354172
 31
0.0
  0
LINE
  5
D0
330
1F
100
AcDbEntity
  8
1-B_寸法
  6
Continuous
 62
   120
370
     5
100
AcDbLine
 10
853.120825562745
 20
-2989.32875835417
 30
0.0
 11
868.1208255627348
 21
-2989.32875835417
 31
0.0
  0
LWPOLYLINE
  5
D1
330
1F
100
AcDbEntity
  8
1-B_寸法
  6
Continuous
 62
     7
370
     9
100
AcDbPolyline
 90
        4
 70
     1
 43
3.0
 10
854.620825562745
 20
-2989.328758354171
 42
0.4142135623731
 10
853.120825562745
 20
-2987.828758354171
 42
0.4142135623731
 10
851.620825562745
 20
-2989.328758354171
 42
0.4142135623731
 10
853.120825562745
 20
-2990.828758354171
 42
0.4142135623731
  0
LWPOLYLINE
  5
D2
330
1F
100
AcDbEntity
  8
1-B_寸法
  6
Continuous
 62
     7
370
     9
100
AcDbPolyline
 90
        4
 70
     1
 43
3.0
 10
869.6208255627348
 20
-2989.328758354171
 42
0.4142135623731
 10
868.1208255627348
 20
-2987.828758354171
 42
0.4142135623731
 10
866.6208255627348
 20
-2989.328758354171
 42
0.4142135623731
 10
868.1208255627348
 20
-2990.828758354171
 42
0.4142135623731
  0
LINE
  5
D3
330
1F
100
AcDbEntity
  8
1-B_寸法
  6
Continuous
 62
   120
370
     5
100
AcDbLine
 10
853.120825562745
 20
-2989.32875835417
 30
0.0
 11
853.120825562745
 21
-3064.32875835417
 31
0.0
  0
LINE
  5
D4
330
1F
100
AcDbEntity
  8
1-B_寸法
  6
Continuous
 62
   120
370
     5
100
AcDbLine
 10
868.1208255627348
 20
-2989.32875835417
 30
0.0
 11
868.1208255627348
 21
-3064.32875835417
 31
0.0
  0
LINE
  5
D5
330
1F
100
AcDbEntity
  8
1-B_寸法
  6
Continuous
 62
   120
370
     5
100
AcDbLine
 10
1288.120825562745
 20
-2989.328758354171
 30
0.0
 11
1303.120825562745
 21
-2989.328758354171
 31
0.0
  0
LWPOLYLINE
  5
D6
330
1F
100
AcDbEntity
  8
1-B_寸法
  6
Continuous
 62
     7
370
     9
100
AcDbPolyline
 90
        4
 70
     1
 43
3.0
 10
1289.620825562745
 20
-2989.328758354171
 42
0.4142135623731
 10
1288.120825562745
 20
-2987.828758354171
 42
0.4142135623731
 10
1286.620825562745
 20
-2989.328758354171
 42
0.4142135623731
 10
1288.120825562745
 20
-2990.828758354171
 42
0.4142135623731
  0
LWPOLYLINE
  5
D7
330
1F
100
AcDbEntity
  8
1-B_寸法
  6
Continuous
 62
     7
370
     9
100
AcDbPolyline
 90
        4
 70
     1
 43
3.0
 10
1304.620825562745
 20
-2989.328758354171
 42
0.4142135623731
 10
1303.120825562745
 20
-2987.828758354171
 42
0.4142135623731
 10
1301.620825562745
 20
-2989.328758354171
 42
0.4142135623731
 10
1303.120825562745
 20
-2990.828758354171
 42
0.4142135623731
  0
LINE
  5
D8
330
1F
100
AcDbEntity
  8
1-B_寸法
  6
Continuous
 62
   120
370
     5
100
AcDbLine
 10
1288.120825562745
 20
-2989.328758354171
 30
0.0
 11
1288.120825562745
 21
-3064.328758354171
 31
0.0
  0
LINE
  5
D9
330
1F
100
AcDbEntity
  8
1-B_寸法
  6
Continuous
 62
   120
370
     5
100
AcDbLine
 10
1303.120825562745
 20
-2989.328758354171
 30
0.0
 11
1303.120825562745
 21
-3064.328758354171
 31
0.0
  0
LINE
  5
DA
330
1F
100
AcDbEntity
  8
1-5_ケーシング
  6
Continuous
 62
    92
370
    13
100
AcDbLine
 10
928.120825562745
 20
-3064.32875835417
 30
0.0
 11
868.1208255627348
 21
-3004.328758354182
 31
0.0
  0
LINE
  5
DB
330
1F
100
AcDbEntity
  8
1-5_ケーシング
  6
Continuous
 62
    92
370
    13
100
AcDbLine
 10
868.1208255627348
 20
-3004.328758354182
 30
0.0
 11
868.1208255627348
 21
-2644.328758354177
 31
0.0
  0
LINE
  5
DC
330
1F
100
AcDbEntity
  8
1-5_ケーシング
  6
Continuous
 62
    92
370
    13
100
AcDbLine
 10
928.120825562745
 20
-3064.328758354171
 30
0.0
 11
1288.120825562745
 21
-3064.328758354171
 31
0.0
  0
LINE
  5
DD
330
1F
100
AcDbEntity
  8
1-5_ケーシング
  6
Continuous
 62
    92
370
    13
100
AcDbLine
 10
1048.120825562752
 20
-2884.328758354172
 30
0.0
 11
1048.120825562752
 21
-2644.328758354177
 31
0.0
  0
LINE
  5
DE
330
1F
100
AcDbEntity
  8
1-5_ケーシング
  6
Continuous
 62
    92
370
    13
100
AcDbLine
 10
1048.120825562752
 20
-2644.328758354177
 30
0.0
 11
868.1208255627348
 21
-2644.328758354177
 31
0.0
  0
LINE
  5
DF
330
1F
100
AcDbEntity
  8
1-5_ケーシング
  6
Continuous
 62
    92
370
    13
100
AcDbLine
 10
1288.120825562745
 20
-2884.328758354172
 30
0.0
 11
1048.120825562752
 21
-2884.328758354172
 31
0.0
  0
LINE
  5
E0
330
1F
100
AcDbEntity
  8
1-C_ハッチ
  6
Continuous
 62
   120
370
     5
100
AcDbLine
 10
1048.120825562738
 20
-2710.030639727671
 30
0.0
 11
982.4189441892497
 21
-2644.328758354177
 31
0.0
  0
LINE
  5
E1
330
1F
100
AcDbEntity
  8
1-C_ハッチ
  6
Continuous
 62
   120
370
     5
100
AcDbLine
 10
1288.120825562738
 20
-2950.030639727666
 30
0.0
 11
1222.418944189257
 21
-2884.328758354181
 31
0.0
  0
LINE
  5
E2
330
1F
100
AcDbEntity
  8
1-C_ハッチ
  6
Continuous
 62
   120
370
     5
100
AcDbLine
 10
1048.120825562752
 20
-2816.096656905688
 30
0.0
 11
876.3529270112565
 21
-2644.328758354186
 31
0.0
  0
LINE
  5
E3
330
1F
100
AcDbEntity
  8
1-C_ハッチ
  6
Continuous
 62
   120
370
     5
100
AcDbLine
 10
1288.120825562728
 20
-3056.096656905666
 30
0.0
 11
1116.352927011222
 21
-2884.328758354155
 31
0.0
  0
LINE
  5
E4
330
1F
100
AcDbEntity
  8
1-C_ハッチ
  6
Continuous
 62
   120
370
     5
100
AcDbLine
 10
1190.286909833413
 20
-3064.328758354205
 30
0.0
 11
868.1208255627689
 21
-2742.162674083579
 31
0.0
  0
LINE
  5
E5
330
1F
100
AcDbEntity
  8
1-C_ハッチ
  6
Continuous
 62
   120
370
     5
100
AcDbLine
 10
1084.220892655413
 20
-3064.328758354205
 30
0.0
 11
868.1208255627689
 21
-2848.22869126157
 31
0.0
  0
LINE
  5
E6
330
1F
100
AcDbEntity
  8
1-C_ハッチ
  6
Continuous
 62
   120
370
     5
100
AcDbLine
 10
978.1548754774133
 20
-3064.328758354204
 30
0.0
 11
868.1208255627553
 21
-2954.294708439553
 31
0.0
  0
LINE
  5
E7
330
1F
100
AcDbEntity
  8
1-3_仕上げ
  6
Continuous
 62
    40
370
    15
100
AcDbLine
 10
1235.620825562752
 20
-2696.828758354172
 30
0.0
 11
1837.982667009001
 21
-2696.828758354172
 31
0.0
  0
LINE
  5
E8
330
1F
100
AcDbEntity
  8
1-3_仕上げ
  6
Continuous
 62
    40
370
    15
100
AcDbLine
 10
1048.120825562752
 20
-2884.328758354172
 30
0.0
 11
1837.982667009001
 21
-2884.328758354172
 31
0.0
  0
LWPOLYLINE
  5
E9
330
1F
100
AcDbEntity
  8
1-B_寸法
  6
Continuous
 62
     7
370
     9
100
AcDbPolyline
 90
        4
 70
     1
 43
3.0
 10
1529.620825562745
 20
-3064.328758354171
 42
0.4142135623731
 10
1528.120825562745
 20
-3062.828758354171
 42
0.4142135623731
 10
1526.620825562745
 20
-3064.328758354171
 42
0.4142135623731
 10
1528.120825562745
 20
-3065.828758354171
 42
0.4142135623731
  0
LINE
  5
EA
330
1F
100
AcDbEntity
  8
1-B_寸法
  6
Continuous
 62
   120
370
     5
100
AcDbLine
 10
1528.120825562745
 20
-3064.328758354171
 30
0.0
 11
1378.120825562745
 21
-3064.328758354171
 31
0.0
  0
MTEXT
  5
EB
330
1F
100
AcDbEntity
  8
1-B_寸法
  6
Continuous
 62
     7
370
   211
100
AcDbMText
 10
1298.025210610632
 20
-2985.038758354171
 30
0.0
 40
68.58
 41
45.0
 46
0.0
 71
     7
 72
     1
  1
{\fＭＳ ゴシック|b0|i0|c128|p49;1}
 73
     1
 44
1.0
  0
MTEXT
  5
EC
330
1F
100
AcDbEntity
  8
1-B_寸法
  6
Continuous
 62
     7
370
   211
100
AcDbMText
 10
816.4075710231702
 20
-2985.03875835417
 30
0.0
 40
68.58
 41
45.0
 46
0.0
 71
     7
 72
     1
  1
{\fＭＳ ゴシック|b0|i0|c128|p49;1}
 73
     1
 44
1.0
  0
LWPOLYLINE
  5
ED
330
1F
100
AcDbEntity
  8
1-B_寸法
  6
Continuous
 62
     7
370
     9
100
AcDbPolyline
 90
        4
 70
     1
 43
3.0
 10
1679.620825562745
 20
-2884.328758354172
 42
0.4142135623731
 10
1678.120825562745
 20
-2882.828758354172
 42
0.4142135623731
 10
1676.620825562745
 20
-2884.328758354172
 42
0.4142135623731
 10
1678.120825562745
 20
-2885.828758354172
 42
0.4142135623731
  0
LINE
  5
EE
330
1F
100
AcDbEntity
  8
1-B_寸法
  6
Continuous
 62
   120
370
     5
100
AcDbLine
 10
1678.120825562745
 20
-2884.328758354172
 30
0.0
 11
1378.120825562745
 21
-2884.328758354172
 31
0.0
  0
LINE
  5
EF
330
1F
100
AcDbEntity
  8
1-B_寸法
  6
Continuous
 62
   120
370
     5
100
AcDbLine
 10
493.120825562734
 20
-2644.328758354177
 30
0.0
 11
793.1208255627348
 21
-2644.328758354177
 31
0.0
  0
LINE
  5
F0
330
1F
100
AcDbEntity
  8
1-B_寸法
  6
Continuous
 62
   120
370
     5
100
AcDbLine
 10
493.120825562734
 20
-3064.328758354204
 30
0.0
 11
793.1208255627348
 21
-3064.328758354204
 31
0.0
  0
LINE
  5
F1
330
1F
100
AcDbEntity
  8
1-B_寸法
  6
Continuous
 62
   120
370
     5
100
AcDbLine
 10
643.1208255627348
 20
-2644.328758354177
 30
0.0
 11
643.1208255627348
 21
-2884.328758354172
 31
0.0
  0
LWPOLYLINE
  5
F2
330
1F
100
AcDbEntity
  8
1-B_寸法
  6
Continuous
 62
     7
370
     9
100
AcDbPolyline
 90
        4
 70
     1
 43
3.0
 10
644.6208255627348
 20
-2644.328758354177
 42
0.4142135623731
 10
643.1208255627348
 20
-2642.828758354177
 42
0.4142135623731
 10
641.6208255627348
 20
-2644.328758354177
 42
0.4142135623731
 10
643.1208255627348
 20
-2645.828758354177
 42
0.4142135623731
  0
LWPOLYLINE
  5
F3
330
1F
100
AcDbEntity
  8
1-B_寸法
  6
Continuous
 62
     7
370
     9
100
AcDbPolyline
 90
        4
 70
     1
 43
3.0
 10
644.6208255627348
 20
-2884.328758354172
 42
0.4142135623731
 10
643.1208255627348
 20
-2882.828758354172
 42
0.4142135623731
 10
641.6208255627348
 20
-2884.328758354172
 42
0.4142135623731
 10
643.1208255627348
 20
-2885.828758354172
 42
0.4142135623731
  0
LINE
  5
F4
330
1F
100
AcDbEntity
  8
1-B_寸法
  6
Continuous
 62
   120
370
     5
100
AcDbLine
 10
643.1208255627348
 20
-2884.328758354172
 30
0.0
 11
793.1208255627348
 21
-2884.328758354172
 31
0.0
  0
MTEXT
  5
F5
330
1F
100
AcDbEntity
  8
1-B_寸法
  6
Continuous
 62
     7
370
   211
100
AcDbMText
 10
628.1208255627348
 20
-2820.931258354175
 30
0.0
 40
74.29499999999935
 41
97.49999999999915
 46
0.0
 71
     7
 72
     1
  1
{\fＭＳ ゴシック|b0|i0|c128|p49;16}
 11
6.123031769111886E-17
 21
1.0
 31
0.0
 73
     1
 44
1.0
  0
LINE
  5
F6
330
1F
100
AcDbEntity
  8
1-B_寸法
  6
Continuous
 62
   120
370
     5
100
AcDbLine
 10
643.1208255627348
 20
-2884.328758354172
 30
0.0
 11
643.1208255627348
 21
-3064.32875835417
 31
0.0
  0
LWPOLYLINE
  5
F7
330
1F
100
AcDbEntity
  8
1-B_寸法
  6
Continuous
 62
     7
370
     9
100
AcDbPolyline
 90
        4
 70
     1
 43
3.0
 10
644.6208255627348
 20
-3064.328758354171
 42
0.4142135623731
 10
643.1208255627348
 20
-3062.828758354171
 42
0.4142135623731
 10
641.6208255627348
 20
-3064.328758354171
 42
0.4142135623731
 10
643.1208255627348
 20
-3065.828758354171
 42
0.4142135623731
  0
MTEXT
  5
F8
330
1F
100
AcDbEntity
  8
1-B_寸法
  6
Continuous
 62
     7
370
   211
100
AcDbMText
 10
628.1208255627348
 20
-3030.931258354171
 30
0.0
 40
74.295
 41
97.5
 46
0.0
 71
     7
 72
     1
  1
{\fＭＳ ゴシック|b0|i0|c128|p49;12}
 11
6.123031769111886E-17
 21
1.0
 31
0.0
 73
     1
 44
1.0
  0
LINE
  5
F9
330
1F
100
AcDbEntity
  8
1-B_寸法
  6
Continuous
 62
   120
370
     5
100
AcDbLine
 10
868.1208255627689
 20
-2419.328758354177
 30
0.0
 11
1048.120825562752
 21
-2419.328758354177
 31
0.0
  0
LWPOLYLINE
  5
FA
330
1F
100
AcDbEntity
  8
1-B_寸法
  6
Continuous
 62
     7
370
     9
100
AcDbPolyline
 90
        4
 70
     1
 43
3.0
 10
869.6208255627689
 20
-2419.328758354177
 42
0.4142135623731
 10
868.1208255627689
 20
-2417.828758354177
 42
0.4142135623731
 10
866.6208255627689
 20
-2419.328758354177
 42
0.4142135623731
 10
868.1208255627689
 20
-2420.828758354177
 42
0.4142135623731
  0
LWPOLYLINE
  5
FB
330
1F
100
AcDbEntity
  8
1-B_寸法
  6
Continuous
 62
     7
370
     9
100
AcDbPolyline
 90
        4
 70
     1
 43
3.0
 10
1049.620825562752
 20
-2419.328758354177
 42
0.4142135623731
 10
1048.120825562752
 20
-2417.828758354177
 42
0.4142135623731
 10
1046.620825562752
 20
-2419.328758354177
 42
0.4142135623731
 10
1048.120825562752
 20
-2420.828758354177
 42
0.4142135623731
  0
LINE
  5
FC
330
1F
100
AcDbEntity
  8
1-B_寸法
  6
Continuous
 62
   120
370
     5
100
AcDbLine
 10
868.1208255627689
 20
-2419.328758354177
 30
0.0
 11
868.1208255627689
 21
-2569.328758354177
 31
0.0
  0
LINE
  5
FD
330
1F
100
AcDbEntity
  8
1-B_寸法
  6
Continuous
 62
   120
370
     5
100
AcDbLine
 10
1048.120825562752
 20
-2419.328758354177
 30
0.0
 11
1048.120825562752
 21
-2569.328758354177
 31
0.0
  0
MTEXT
  5
FE
330
1F
100
AcDbEntity
  8
1-B_寸法
  6
Continuous
 62
     7
370
   211
100
AcDbMText
 10
909.3708255627621
 20
-2412.181258354177
 30
0.0
 40
74.295
 41
97.5
 46
0.0
 71
     7
 72
     1
  1
{\fＭＳ ゴシック|b0|i0|c128|p49;12}
 73
     1
 44
1.0
  0
LINE
  5
FF
330
1F
100
AcDbEntity
  8
0-A_文字
  6
Continuous
 62
     7
370
     9
100
AcDbLine
 10
96.21138099533795
 20
-852.0710218101339
 30
0.0
 11
96.21138099533795
 21
-567.0360400140474
 31
0.0
  0
MTEXT
  5
100
330
1F
100
AcDbEntity
  8
0-A_文字
  6
Continuous
 62
     7
370
     9
100
AcDbMText
 10
125.297343998603
 20
-3711.016876035566
 30
0.0
 40
100.584
 41
660.0
 46
0.0
 71
     7
 72
     1
  1
{\fＭＳ ゴシック|b0|i0|c128|p49;Ｓ＝１／２}
 73
     1
 44
1.0
  0
MTEXT
  5
101
330
1F
100
AcDbEntity
  8
0-A_文字
  6
Continuous
 62
     7
370
     9
100
AcDbMText
 10
199.3834398609977
 20
-760.1200309120907
 30
0.0
 40
78.86699999999999
 41
1035.0
 46
0.0
 71
     7
 72
     1
  1
{\fＭＳ ゴシック|b0|i0|c128|p49;振れ止金具取付け位置}
 73
     1
 44
1.0
  0
LINE
  5
102
330
1F
100
AcDbEntity
  8
0-A_文字
  6
Continuous
 62
     7
370
     9
100
AcDbLine
 10
1324.383439860998
 20
-567.0360400140474
 30
0.0
 11
1324.383439860998
 21
-852.0710218101339
 31
0.0
  0
LINE
  5
103
330
1F
100
AcDbEntity
  8
0-A_文字
  6
Continuous
 62
     7
370
     9
100
AcDbLine
 10
96.21138099533795
 20
-567.0360400140474
 30
0.0
 11
1324.383439860998
 21
-567.0360400140474
 31
0.0
  0
LINE
  5
104
330
1F
100
AcDbEntity
  8
0-A_文字
  6
Continuous
 62
     7
370
     9
100
AcDbLine
 10
1324.383439860998
 20
-852.0710218101339
 30
0.0
 11
96.21138099533795
 21
-852.0710218101339
 31
0.0
  0
LINE
  5
105
330
1F
100
AcDbEntity
  8
1-5_ケーシング
  6
Continuous
 62
    92
370
    13
100
AcDbLine
 10
2832.008324500825
 20
-1518.297098838075
 30
0.0
 11
2772.008324500815
 21
-1458.297098838087
 31
0.0
  0
LINE
  5
106
330
1F
100
AcDbEntity
  8
1-5_ケーシング
  6
Continuous
 62
    92
370
    13
100
AcDbLine
 10
2772.008324500815
 20
-1458.297098838087
 30
0.0
 11
2772.008324500815
 21
-1098.297098838082
 31
0.0
  0
LINE
  5
107
330
1F
100
AcDbEntity
  8
1-5_ケーシング
  6
Continuous
 62
    92
370
    13
100
AcDbLine
 10
2832.008324500825
 20
-1518.297098838075
 30
0.0
 11
3192.008324500825
 21
-1518.297098838075
 31
0.0
  0
LINE
  5
108
330
1F
100
AcDbEntity
  8
1-5_ケーシング
  6
Continuous
 62
    92
370
    13
100
AcDbLine
 10
3192.008324500825
 20
-1518.297098838075
 30
0.0
 11
3192.008324500825
 21
-1338.297098838077
 31
0.0
  0
LINE
  5
109
330
1F
100
AcDbEntity
  8
1-5_ケーシング
  6
Continuous
 62
    92
370
    13
100
AcDbLine
 10
2952.008324500832
 20
-1338.297098838077
 30
0.0
 11
2952.008324500832
 21
-1098.297098838082
 31
0.0
  0
LINE
  5
10A
330
1F
100
AcDbEntity
  8
1-5_ケーシング
  6
Continuous
 62
    92
370
    13
100
AcDbLine
 10
2952.008324500832
 20
-1098.297098838082
 30
0.0
 11
2772.008324500815
 21
-1098.297098838082
 31
0.0
  0
LINE
  5
10B
330
1F
100
AcDbEntity
  8
1-5_ケーシング
  6
Continuous
 62
    92
370
    13
100
AcDbLine
 10
3192.008324500825
 20
-1338.297098838077
 30
0.0
 11
2952.008324500832
 21
-1338.297098838077
 31
0.0
  0
LINE
  5
10C
330
1F
100
AcDbEntity
  8
1-C_ハッチ
  6
Continuous
 62
   120
370
     5
100
AcDbLine
 10
2952.008324500818
 20
-1163.998980211576
 30
0.0
 11
2886.30644312733
 21
-1098.297098838082
 31
0.0
  0
LINE
  5
10D
330
1F
100
AcDbEntity
  8
1-C_ハッチ
  6
Continuous
 62
   120
370
     5
100
AcDbLine
 10
3192.008324500818
 20
-1403.99898021157
 30
0.0
 11
3126.306443127336
 21
-1338.297098838085
 31
0.0
  0
LINE
  5
10E
330
1F
100
AcDbEntity
  8
1-C_ハッチ
  6
Continuous
 62
   120
370
     5
100
AcDbLine
 10
2952.008324500832
 20
-1270.064997389593
 30
0.0
 11
2780.240425949336
 21
-1098.297098838091
 31
0.0
  0
LINE
  5
10F
330
1F
100
AcDbEntity
  8
1-C_ハッチ
  6
Continuous
 62
   120
370
     5
100
AcDbLine
 10
3192.008324500808
 20
-1510.06499738957
 30
0.0
 11
3020.240425949302
 21
-1338.29709883806
 31
0.0
  0
LINE
  5
110
330
1F
100
AcDbEntity
  8
1-C_ハッチ
  6
Continuous
 62
   120
370
     5
100
AcDbLine
 10
3094.174408771493
 20
-1518.297098838109
 30
0.0
 11
2772.008324500849
 21
-1196.131014567484
 31
0.0
  0
LINE
  5
111
330
1F
100
AcDbEntity
  8
1-C_ハッチ
  6
Continuous
 62
   120
370
     5
100
AcDbLine
 10
2988.108391593493
 20
-1518.297098838109
 30
0.0
 11
2772.008324500849
 21
-1302.197031745475
 31
0.0
  0
LINE
  5
112
330
1F
100
AcDbEntity
  8
1-C_ハッチ
  6
Continuous
 62
   120
370
     5
100
AcDbLine
 10
2882.042374415493
 20
-1518.297098838109
 30
0.0
 11
2772.008324500835
 21
-1408.263048923458
 31
0.0
  0
LINE
  5
113
330
1F
100
AcDbEntity
  8
1-B_寸法
  6
Continuous
 62
   120
370
     5
100
AcDbLine
 10
3417.008324500825
 20
-1518.297098838075
 30
0.0
 11
3417.008324500825
 21
-1338.297098838077
 31
0.0
  0
LWPOLYLINE
  5
114
330
1F
100
AcDbEntity
  8
1-B_寸法
  6
Continuous
 62
     7
370
     9
100
AcDbPolyline
 90
        4
 70
     1
 43
3.0
 10
3418.508324500825
 20
-1518.297098838075
 42
0.4142135623731
 10
3417.008324500825
 20
-1516.797098838075
 42
0.4142135623731
 10
3415.508324500825
 20
-1518.297098838075
 42
0.4142135623731
 10
3417.008324500825
 20
-1519.797098838075
 42
0.4142135623731
  0
LWPOLYLINE
  5
115
330
1F
100
AcDbEntity
  8
1-B_寸法
  6
Continuous
 62
     7
370
     9
100
AcDbPolyline
 90
        4
 70
     1
 43
3.0
 10
3418.508324500825
 20
-1338.297098838077
 42
0.4142135623731
 10
3417.008324500825
 20
-1336.797098838077
 42
0.4142135623731
 10
3415.508324500825
 20
-1338.297098838077
 42
0.4142135623731
 10
3417.008324500825
 20
-1339.797098838077
 42
0.4142135623731
  0
LINE
  5
116
330
1F
100
AcDbEntity
  8
1-B_寸法
  6
Continuous
 62
   120
370
     5
100
AcDbLine
 10
3417.008324500825
 20
-1518.297098838075
 30
0.0
 11
3267.008324500825
 21
-1518.297098838075
 31
0.0
  0
LINE
  5
117
330
1F
100
AcDbEntity
  8
1-B_寸法
  6
Continuous
 62
   120
370
     5
100
AcDbLine
 10
3417.008324500825
 20
-1338.297098838077
 30
0.0
 11
3267.008324500825
 21
-1338.297098838077
 31
0.0
  0
MTEXT
  5
118
330
1F
100
AcDbEntity
  8
1-B_寸法
  6
Continuous
 62
     7
370
   211
100
AcDbMText
 10
3402.008324500825
 20
-1484.899598838076
 30
0.0
 40
74.295
 41
97.5
 46
0.0
 71
     7
 72
     1
  1
{\fＭＳ ゴシック|b0|i0|c128|p49;12}
 11
6.123031769111886E-17
 21
1.0
 31
0.0
 73
     1
 44
1.0
  0
LINE
  5
119
330
1F
100
AcDbEntity
  8
1-B_寸法
  6
Continuous
 62
   120
370
     5
100
AcDbLine
 10
3417.008324500825
 20
-1338.297098838077
 30
0.0
 11
3417.008324500825
 21
-1098.297098838082
 31
0.0
  0
LWPOLYLINE
  5
11A
330
1F
100
AcDbEntity
  8
1-B_寸法
  6
Continuous
 62
     7
370
     9
100
AcDbPolyline
 90
        4
 70
     1
 43
3.0
 10
3418.508324500825
 20
-1098.297098838082
 42
0.4142135623731
 10
3417.008324500825
 20
-1096.797098838082
 42
0.4142135623731
 10
3415.508324500825
 20
-1098.297098838082
 42
0.4142135623731
 10
3417.008324500825
 20
-1099.797098838082
 42
0.4142135623731
  0
LINE
  5
11B
330
1F
100
AcDbEntity
  8
1-B_寸法
  6
Continuous
 62
   120
370
     5
100
AcDbLine
 10
3417.008324500825
 20
-1098.297098838082
 30
0.0
 11
3267.008324500825
 21
-1098.297098838082
 31
0.0
  0
MTEXT
  5
11C
330
1F
100
AcDbEntity
  8
1-B_寸法
  6
Continuous
 62
     7
370
   211
100
AcDbMText
 10
3402.008324500825
 20
-1274.899598838079
 30
0.0
 40
74.295
 41
97.5
 46
0.0
 71
     7
 72
     1
  1
{\fＭＳ ゴシック|b0|i0|c128|p49;16}
 11
6.123031769111886E-17
 21
1.0
 31
0.0
 73
     1
 44
1.0
  0
LINE
  5
11D
330
1F
100
AcDbEntity
  8
1-B_寸法
  6
Continuous
 62
   120
370
     5
100
AcDbLine
 10
2772.008324500815
 20
-1743.297098838075
 30
0.0
 11
3192.008324500825
 21
-1743.297098838075
 31
0.0
  0
LWPOLYLINE
  5
11E
330
1F
100
AcDbEntity
  8
1-B_寸法
  6
Continuous
 62
     7
370
     9
100
AcDbPolyline
 90
        4
 70
     1
 43
3.0
 10
2773.508324500815
 20
-1743.297098838075
 42
0.4142135623731
 10
2772.008324500815
 20
-1741.797098838075
 42
0.4142135623731
 10
2770.508324500815
 20
-1743.297098838075
 42
0.4142135623731
 10
2772.008324500815
 20
-1744.797098838075
 42
0.4142135623731
  0
LWPOLYLINE
  5
11F
330
1F
100
AcDbEntity
  8
1-B_寸法
  6
Continuous
 62
     7
370
     9
100
AcDbPolyline
 90
        4
 70
     1
 43
3.0
 10
3193.508324500825
 20
-1743.297098838075
 42
0.4142135623731
 10
3192.008324500825
 20
-1741.797098838075
 42
0.4142135623731
 10
3190.508324500825
 20
-1743.297098838075
 42
0.4142135623731
 10
3192.008324500825
 20
-1744.797098838075
 42
0.4142135623731
  0
LINE
  5
120
330
1F
100
AcDbEntity
  8
1-B_寸法
  6
Continuous
 62
   120
370
     5
100
AcDbLine
 10
2772.008324500815
 20
-1743.297098838075
 30
0.0
 11
2772.008324500815
 21
-1593.297098838075
 31
0.0
  0
LINE
  5
121
330
1F
100
AcDbEntity
  8
1-B_寸法
  6
Continuous
 62
   120
370
     5
100
AcDbLine
 10
3192.008324500825
 20
-1743.297098838075
 30
0.0
 11
3192.008324500825
 21
-1593.297098838075
 31
0.0
  0
MTEXT
  5
122
330
1F
100
AcDbEntity
  8
1-B_寸法
  6
Continuous
 62
     7
370
   211
100
AcDbMText
 10
2933.258324500822
 20
-1736.149598838075
 30
0.0
 40
74.295
 41
97.5
 46
0.0
 71
     7
 72
     1
  1
{\fＭＳ ゴシック|b0|i0|c128|p49;28}
 73
     1
 44
1.0
  0
LINE
  5
123
330
1F
100
AcDbEntity
  8
1-B_寸法
  6
Continuous
 62
   120
370
     5
100
AcDbLine
 10
2772.008324500815
 20
-873.2970988380819
 30
0.0
 11
2952.008324500832
 21
-873.2970988380819
 31
0.0
  0
LWPOLYLINE
  5
124
330
1F
100
AcDbEntity
  8
1-B_寸法
  6
Continuous
 62
     7
370
     9
100
AcDbPolyline
 90
        4
 70
     1
 43
3.0
 10
2773.508324500815
 20
-873.2970988380819
 42
0.4142135623731
 10
2772.008324500815
 20
-871.7970988380819
 42
0.4142135623731
 10
2770.508324500815
 20
-873.2970988380819
 42
0.4142135623731
 10
2772.008324500815
 20
-874.797098838082
 42
0.4142135623731
  0
LWPOLYLINE
  5
125
330
1F
100
AcDbEntity
  8
1-B_寸法
  6
Continuous
 62
     7
370
     9
100
AcDbPolyline
 90
        4
 70
     1
 43
3.0
 10
2953.508324500832
 20
-873.2970988380819
 42
0.4142135623731
 10
2952.008324500832
 20
-871.7970988380819
 42
0.4142135623731
 10
2950.508324500832
 20
-873.2970988380819
 42
0.4142135623731
 10
2952.008324500832
 20
-874.797098838082
 42
0.4142135623731
  0
LINE
  5
126
330
1F
100
AcDbEntity
  8
1-B_寸法
  6
Continuous
 62
   120
370
     5
100
AcDbLine
 10
2772.008324500815
 20
-873.2970988380819
 30
0.0
 11
2772.008324500815
 21
-1023.297098838082
 31
0.0
  0
LINE
  5
127
330
1F
100
AcDbEntity
  8
1-B_寸法
  6
Continuous
 62
   120
370
     5
100
AcDbLine
 10
2952.008324500832
 20
-873.2970988380819
 30
0.0
 11
2952.008324500832
 21
-1023.297098838082
 31
0.0
  0
MTEXT
  5
128
330
1F
100
AcDbEntity
  8
1-B_寸法
  6
Continuous
 62
     7
370
   211
100
AcDbMText
 10
2813.258324500822
 20
-866.1495988380818
 30
0.0
 40
74.295
 41
97.5
 46
0.0
 71
     7
 72
     1
  1
{\fＭＳ ゴシック|b0|i0|c128|p49;12}
 73
     1
 44
1.0
  0
LINE
  5
129
330
1F
100
AcDbEntity
  8
1-B_寸法
  6
Continuous
 62
   120
370
     5
100
AcDbLine
 10
2952.008324500832
 20
-873.2970988380819
 30
0.0
 11
3192.008324500825
 21
-873.2970988380819
 31
0.0
  0
LWPOLYLINE
  5
12A
330
1F
100
AcDbEntity
  8
1-B_寸法
  6
Continuous
 62
     7
370
     9
100
AcDbPolyline
 90
        4
 70
     1
 43
3.0
 10
3193.508324500825
 20
-873.2970988380819
 42
0.4142135623731
 10
3192.008324500825
 20
-871.7970988380819
 42
0.4142135623731
 10
3190.508324500825
 20
-873.2970988380819
 42
0.4142135623731
 10
3192.008324500825
 20
-874.797098838082
 42
0.4142135623731
  0
LINE
  5
12B
330
1F
100
AcDbEntity
  8
1-B_寸法
  6
Continuous
 62
   120
370
     5
100
AcDbLine
 10
3192.008324500825
 20
-873.2970988380819
 30
0.0
 11
3192.008324500825
 21
-1023.297098838082
 31
0.0
  0
MTEXT
  5
12C
330
1F
100
AcDbEntity
  8
1-B_寸法
  6
Continuous
 62
     7
370
   211
100
AcDbMText
 10
3023.258324500829
 20
-866.1495988380818
 30
0.0
 40
74.295
 41
97.5
 46
0.0
 71
     7
 72
     1
  1
{\fＭＳ ゴシック|b0|i0|c128|p49;16}
 73
     1
 44
1.0
  0
LINE
  5
12D
330
1F
100
AcDbEntity
  8
1-B_寸法
  6
Continuous
 62
   120
370
     5
100
AcDbLine
 10
2547.008324500815
 20
-1098.297098838082
 30
0.0
 11
2547.008324500815
 21
-1518.297098838075
 31
0.0
  0
LWPOLYLINE
  5
12E
330
1F
100
AcDbEntity
  8
1-B_寸法
  6
Continuous
 62
     7
370
     9
100
AcDbPolyline
 90
        4
 70
     1
 43
3.0
 10
2548.508324500815
 20
-1098.297098838082
 42
0.4142135623731
 10
2547.008324500815
 20
-1096.797098838082
 42
0.4142135623731
 10
2545.508324500815
 20
-1098.297098838082
 42
0.4142135623731
 10
2547.008324500815
 20
-1099.797098838082
 42
0.4142135623731
  0
LWPOLYLINE
  5
12F
330
1F
100
AcDbEntity
  8
1-B_寸法
  6
Continuous
 62
     7
370
     9
100
AcDbPolyline
 90
        4
 70
     1
 43
3.0
 10
2548.508324500815
 20
-1518.297098838075
 42
0.4142135623731
 10
2547.008324500815
 20
-1516.797098838075
 42
0.4142135623731
 10
2545.508324500815
 20
-1518.297098838075
 42
0.4142135623731
 10
2547.008324500815
 20
-1519.797098838075
 42
0.4142135623731
  0
LINE
  5
130
330
1F
100
AcDbEntity
  8
1-B_寸法
  6
Continuous
 62
   120
370
     5
100
AcDbLine
 10
2547.008324500815
 20
-1098.297098838082
 30
0.0
 11
2697.008324500815
 21
-1098.297098838082
 31
0.0
  0
LINE
  5
131
330
1F
100
AcDbEntity
  8
1-B_寸法
  6
Continuous
 62
   120
370
     5
100
AcDbLine
 10
2547.008324500815
 20
-1518.297098838075
 30
0.0
 11
2697.008324500815
 21
-1518.297098838075
 31
0.0
  0
MTEXT
  5
132
330
1F
100
AcDbEntity
  8
1-B_寸法
  6
Continuous
 62
     7
370
   211
100
AcDbMText
 10
2532.008324500815
 20
-1364.899598838078
 30
0.0
 40
74.295
 41
97.5
 46
0.0
 71
     7
 72
     1
  1
{\fＭＳ ゴシック|b0|i0|c128|p49;28}
 11
6.123031769111886E-17
 21
1.0
 31
0.0
 73
     1
 44
1.0
  0
LINE
  5
133
330
1F
100
AcDbEntity
  8
F-1_枠
  6
Continuous
 62
   200
370
    20
100
AcDbLine
 10
2293.479568756141
 20
-659.8996561346628
 30
0.0
 11
3670.537080245499
 21
-659.8996561346628
 31
0.0
  0
LINE
  5
134
330
1F
100
AcDbEntity
  8
F-1_枠
  6
Continuous
 62
   200
370
    20
100
AcDbLine
 10
2293.479568756141
 20
-2038.482284023267
 30
0.0
 11
3670.537080245499
 21
-2038.482284023267
 31
0.0
  0
LINE
  5
135
330
1F
100
AcDbEntity
  8
F-1_枠
  6
Continuous
 62
   200
370
    20
100
AcDbLine
 10
2293.479568756141
 20
-1858.482284023267
 30
0.0
 11
3670.537080245499
 21
-1858.482284023267
 31
0.0
  0
MTEXT
  5
136
330
1F
100
AcDbEntity
  8
1-B_寸法
  6
Continuous
 62
     7
370
   211
100
AcDbMText
 10
3327.37053990486
 20
-3360.068608353133
 30
0.0
 40
74.295
 41
97.5
 46
0.0
 71
     7
 72
     1
  1
{\fＭＳ ゴシック|b0|i0|c128|p49;17}
 11
6.123031769111886E-17
 21
1.0
 31
0.0
 73
     1
 44
1.0
  0
LINE
  5
137
330
1F
100
AcDbEntity
  8
1-B_寸法
  6
Continuous
 62
   120
370
     5
100
AcDbLine
 10
3342.37053990486
 20
-3175.966108353133
 30
0.0
 11
3192.37053990486
 21
-3175.966108353133
 31
0.0
  0
LWPOLYLINE
  5
138
330
1F
100
AcDbEntity
  8
1-B_寸法
  6
Continuous
 62
     7
370
     9
100
AcDbPolyline
 90
        4
 70
     1
 43
3.0
 10
3343.87053990486
 20
-3175.966108353133
 42
0.4142135623731
 10
3342.37053990486
 20
-3174.466108353133
 42
0.4142135623731
 10
3340.87053990486
 20
-3175.966108353133
 42
0.4142135623731
 10
3342.37053990486
 20
-3177.466108353133
 42
0.4142135623731
  0
LINE
  5
139
330
1F
100
AcDbEntity
  8
1-B_寸法
  6
Continuous
 62
   120
370
     5
100
AcDbLine
 10
3342.37053990486
 20
-3430.966108353134
 30
0.0
 11
3342.37053990486
 21
-3175.966108353133
 31
0.0
  0
MTEXT
  5
13A
330
1F
100
AcDbEntity
  8
1-B_寸法
  6
Continuous
 62
     7
370
   211
100
AcDbMText
 10
3327.37053990486
 20
-3486.676108353133
 30
0.0
 40
68.58
 41
45.0
 46
0.0
 71
     7
 72
     1
  1
{\fＭＳ ゴシック|b0|i0|c128|p49;3}
 11
6.123031769111886E-17
 21
1.0
 31
0.0
 73
     1
 44
1.0
  0
LINE
  5
13B
330
1F
100
AcDbEntity
  8
1-B_寸法
  6
Continuous
 62
   120
370
     5
100
AcDbLine
 10
3342.37053990486
 20
-3430.966108353134
 30
0.0
 11
3192.37053990486
 21
-3430.966108353134
 31
0.0
  0
LINE
  5
13C
330
1F
100
AcDbEntity
  8
1-B_寸法
  6
Continuous
 62
   120
370
     5
100
AcDbLine
 10
3342.37053990486
 20
-3475.966108353133
 30
0.0
 11
3192.37053990486
 21
-3475.966108353133
 31
0.0
  0
LWPOLYLINE
  5
13D
330
1F
100
AcDbEntity
  8
1-B_寸法
  6
Continuous
 62
     7
370
     9
100
AcDbPolyline
 90
        4
 70
     1
 43
3.0
 10
3343.87053990486
 20
-3430.966108353134
 42
0.4142135623731
 10
3342.37053990486
 20
-3429.466108353134
 42
0.4142135623731
 10
3340.87053990486
 20
-3430.966108353134
 42
0.4142135623731
 10
3342.37053990486
 20
-3432.466108353134
 42
0.4142135623731
  0
LWPOLYLINE
  5
13E
330
1F
100
AcDbEntity
  8
1-B_寸法
  6
Continuous
 62
     7
370
     9
100
AcDbPolyline
 90
        4
 70
     1
 43
3.0
 10
3343.87053990486
 20
-3475.966108353133
 42
0.4142135623731
 10
3342.37053990486
 20
-3474.466108353133
 42
0.4142135623731
 10
3340.87053990486
 20
-3475.966108353133
 42
0.4142135623731
 10
3342.37053990486
 20
-3477.466108353133
 42
0.4142135623731
  0
LINE
  5
13F
330
1F
100
AcDbEntity
  8
1-B_寸法
  6
Continuous
 62
   120
370
     5
100
AcDbLine
 10
3342.37053990486
 20
-3475.966108353133
 30
0.0
 11
3342.37053990486
 21
-3430.966108353134
 31
0.0
  0
LINE
  5
140
330
1F
100
AcDbEntity
  8
1-C_ハッチ
  6
Continuous
 62
   120
370
     5
100
AcDbLine
 10
2847.370539904836
 20
-3421.564589576973
 30
0.0
 11
2892.370539904836
 21
-3376.564589576987
 31
0.0
  0
LINE
  5
141
330
1F
100
AcDbEntity
  8
1-C_ハッチ
  6
Continuous
 62
   120
370
     5
100
AcDbLine
 10
2847.370539904836
 20
-3230.645758656613
 30
0.0
 11
2892.370539904836
 21
-3185.645758656609
 31
0.0
  0
LINE
  5
142
330
1F
100
AcDbEntity
  8
1-C_ハッチ
  6
Continuous
 62
   120
370
     5
100
AcDbLine
 10
2847.370539904836
 20
-3357.92497927024
 30
0.0
 11
2892.370539904836
 21
-3312.924979270234
 31
0.0
  0
LINE
  5
143
330
1F
100
AcDbEntity
  8
1-C_ハッチ
  6
Continuous
 62
   120
370
     5
100
AcDbLine
 10
2847.370539904836
 20
-3294.285368963498
 30
0.0
 11
2892.370539904836
 21
-3249.285368963491
 31
0.0
  0
LINE
  5
144
330
1F
100
AcDbEntity
  8
1-C_ハッチ
  6
Continuous
 62
   120
370
     5
100
AcDbLine
 10
2920.248241742303
 20
-3475.966108353133
 30
0.0
 11
2965.248241742314
 21
-3430.966108353134
 31
0.0
  0
LINE
  5
145
330
1F
100
AcDbEntity
  8
1-C_ハッチ
  6
Continuous
 62
   120
370
     5
100
AcDbLine
 10
2983.887852049066
 20
-3475.966108353133
 30
0.0
 11
3028.887852049056
 21
-3430.966108353134
 31
0.0
  0
LINE
  5
146
330
1F
100
AcDbEntity
  8
1-C_ハッチ
  6
Continuous
 62
   120
370
     5
100
AcDbLine
 10
2865.506821874479
 20
-3467.067917914228
 30
0.0
 11
2901.608631435575
 21
-3430.966108353134
 31
0.0
  0
LINE
  5
147
330
1F
100
AcDbEntity
  8
1-7_金物
  6
Continuous
 62
    92
370
    13
100
AcDbLine
 10
2892.370539904836
 20
-3175.966108353133
 30
0.0
 11
2847.37053990484
 21
-3175.966108353133
 31
0.0
  0
LINE
  5
148
330
1F
100
AcDbEntity
  8
1-7_金物
  6
Continuous
 62
    92
370
    13
100
AcDbLine
 10
2892.370539904836
 20
-3175.966108353133
 30
0.0
 11
2892.370539904836
 21
-3430.966108353134
 31
0.0
  0
LINE
  5
149
330
1F
100
AcDbEntity
  8
1-7_金物
  6
Continuous
 62
    92
370
    13
100
AcDbLine
 10
2847.370539904836
 20
-3430.966108353134
 30
0.0
 11
2847.370539904836
 21
-3175.966108353133
 31
0.0
  0
ARC
  5
14A
330
1F
100
AcDbEntity
  8
1-7_金物
  6
Continuous
 62
    92
370
    13
100
AcDbCircle
 10
2892.370539904836
 20
-3430.966108353134
 30
0.0
 40
45.00000000000001
100
AcDbArc
 50
180.0
 51
270.0
  0
LINE
  5
14B
330
1F
100
AcDbEntity
  8
1-C_ハッチ
  6
Continuous
 62
   120
370
     5
100
AcDbLine
 10
3047.527462355931
 20
-3475.966108353133
 30
0.0
 11
3092.527462355944
 21
-3430.966108353134
 31
0.0
  0
LINE
  5
14C
330
1F
100
AcDbEntity
  8
1-C_ハッチ
  6
Continuous
 62
   120
370
     5
100
AcDbLine
 10
3111.16707266269
 20
-3475.966108353133
 30
0.0
 11
3117.35909755387
 21
-3469.774083461953
 31
0.0
  0
LINE
  5
14D
330
1F
100
AcDbEntity
  8
1-7_金物
  6
Continuous
 62
    92
370
    13
100
AcDbLine
 10
2892.370539904836
 20
-3430.966108353134
 30
0.0
 11
3117.37053990486
 21
-3430.966108353134
 31
0.0
  0
LINE
  5
14E
330
1F
100
AcDbEntity
  8
1-7_金物
  6
Continuous
 62
    92
370
    13
100
AcDbLine
 10
2892.370539904836
 20
-3475.966108353133
 30
0.0
 11
3117.37053990486
 21
-3475.966108353133
 31
0.0
  0
LINE
  5
14F
330
1F
100
AcDbEntity
  8
1-7_金物
  6
Continuous
 62
    92
370
    13
100
AcDbLine
 10
3117.37053990486
 20
-3430.966108353134
 30
0.0
 11
3117.37053990486
 21
-3475.966108353133
 31
0.0
  0
LWPOLYLINE
  5
150
330
1F
100
AcDbEntity
  8
1-B_寸法
  6
Continuous
 62
     7
370
     9
100
AcDbPolyline
 90
        4
 70
     1
 43
3.0
 10
2848.870539904836
 20
-3700.966108353133
 42
0.4142135623731
 10
2847.370539904836
 20
-3699.466108353133
 42
0.4142135623731
 10
2845.870539904837
 20
-3700.966108353133
 42
0.4142135623731
 10
2847.370539904836
 20
-3702.466108353133
 42
0.4142135623731
  0
LWPOLYLINE
  5
151
330
1F
100
AcDbEntity
  8
1-B_寸法
  6
Continuous
 62
     7
370
     9
100
AcDbPolyline
 90
        4
 70
     1
 43
3.0
 10
2893.870539904836
 20
-3700.966108353133
 42
0.4142135623731
 10
2892.370539904836
 20
-3699.466108353133
 42
0.4142135623731
 10
2890.870539904837
 20
-3700.966108353133
 42
0.4142135623731
 10
2892.370539904836
 20
-3702.466108353133
 42
0.4142135623731
  0
LINE
  5
152
330
1F
100
AcDbEntity
  8
1-B_寸法
  6
Continuous
 62
   120
370
     5
100
AcDbLine
 10
2847.370539904836
 20
-3700.966108353133
 30
0.0
 11
2847.370539904836
 21
-3550.966108353133
 31
0.0
  0
LINE
  5
153
330
1F
100
AcDbEntity
  8
1-B_寸法
  6
Continuous
 62
   120
370
     5
100
AcDbLine
 10
2892.370539904836
 20
-3700.966108353133
 30
0.0
 11
2892.370539904836
 21
-3550.966108353133
 31
0.0
  0
LINE
  5
154
330
1F
100
AcDbEntity
  8
1-B_寸法
  6
Continuous
 62
   120
370
     5
100
AcDbLine
 10
2892.370539904836
 20
-3700.966108353133
 30
0.0
 11
3117.37053990486
 21
-3700.966108353133
 31
0.0
  0
LWPOLYLINE
  5
155
330
1F
100
AcDbEntity
  8
1-B_寸法
  6
Continuous
 62
     7
370
     9
100
AcDbPolyline
 90
        4
 70
     1
 43
3.0
 10
3118.87053990486
 20
-3700.966108353133
 42
0.4142135623731
 10
3117.37053990486
 20
-3699.466108353133
 42
0.4142135623731
 10
3115.87053990486
 20
-3700.966108353133
 42
0.4142135623731
 10
3117.37053990486
 20
-3702.466108353133
 42
0.4142135623731
  0
LINE
  5
156
330
1F
100
AcDbEntity
  8
1-B_寸法
  6
Continuous
 62
   120
370
     5
100
AcDbLine
 10
3117.37053990486
 20
-3700.966108353133
 30
0.0
 11
3117.37053990486
 21
-3550.966108353133
 31
0.0
  0
MTEXT
  5
157
330
1F
100
AcDbEntity
  8
1-B_寸法
  6
Continuous
 62
     7
370
   211
100
AcDbMText
 10
2956.120539904849
 20
-3693.818608353133
 30
0.0
 40
74.295
 41
97.5
 46
0.0
 71
     7
 72
     1
  1
{\fＭＳ ゴシック|b0|i0|c128|p49;15}
 73
     1
 44
1.0
  0
LINE
  5
158
330
1F
100
AcDbEntity
  8
1-B_寸法
  6
Continuous
 62
   120
370
     5
100
AcDbLine
 10
2622.370539904836
 20
-3175.966108353133
 30
0.0
 11
2622.370539904836
 21
-3475.966108353133
 31
0.0
  0
LWPOLYLINE
  5
159
330
1F
100
AcDbEntity
  8
1-B_寸法
  6
Continuous
 62
     7
370
     9
100
AcDbPolyline
 90
        4
 70
     1
 43
3.0
 10
2623.870539904836
 20
-3175.966108353133
 42
0.4142135623731
 10
2622.370539904836
 20
-3174.466108353133
 42
0.4142135623731
 10
2620.870539904837
 20
-3175.966108353133
 42
0.4142135623731
 10
2622.370539904836
 20
-3177.466108353133
 42
0.4142135623731
  0
LWPOLYLINE
  5
15A
330
1F
100
AcDbEntity
  8
1-B_寸法
  6
Continuous
 62
     7
370
     9
100
AcDbPolyline
 90
        4
 70
     1
 43
3.0
 10
2623.870539904836
 20
-3475.966108353133
 42
0.4142135623731
 10
2622.370539904836
 20
-3474.466108353133
 42
0.4142135623731
 10
2620.870539904837
 20
-3475.966108353133
 42
0.4142135623731
 10
2622.370539904836
 20
-3477.466108353133
 42
0.4142135623731
  0
LINE
  5
15B
330
1F
100
AcDbEntity
  8
1-B_寸法
  6
Continuous
 62
   120
370
     5
100
AcDbLine
 10
2622.370539904836
 20
-3175.966108353133
 30
0.0
 11
2772.370539904836
 21
-3175.966108353133
 31
0.0
  0
LINE
  5
15C
330
1F
100
AcDbEntity
  8
1-B_寸法
  6
Continuous
 62
   120
370
     5
100
AcDbLine
 10
2622.370539904836
 20
-3475.966108353133
 30
0.0
 11
2772.370539904836
 21
-3475.966108353133
 31
0.0
  0
MTEXT
  5
15D
330
1F
100
AcDbEntity
  8
1-B_寸法
  6
Continuous
 62
     7
370
   211
100
AcDbMText
 10
2607.370539904836
 20
-3382.568608353133
 30
0.0
 40
74.295
 41
97.5
 46
0.0
 71
     7
 72
     1
  1
{\fＭＳ ゴシック|b0|i0|c128|p49;20}
 11
6.123031769111886E-17
 21
1.0
 31
0.0
 73
     1
 44
1.0
  0
LINE
  5
15E
330
1F
100
AcDbEntity
  8
1-7_金物
  6
Continuous
 62
     7
370
     9
100
AcDbLine
 10
2982.37053990486
 20
-2725.966108353133
 30
0.0
 11
3027.37053990486
 21
-2725.966108353133
 31
0.0
  0
LINE
  5
15F
330
1F
100
AcDbEntity
  8
1-7_金物
  6
Continuous
 62
     7
370
     9
100
AcDbLine
 10
3027.37053990486
 20
-2755.966108353133
 30
0.0
 11
2982.37053990486
 21
-2755.966108353133
 31
0.0
  0
LINE
  5
160
330
1F
100
AcDbEntity
  8
1-7_金物
  6
Continuous
 62
     7
370
     9
100
AcDbLine
 10
2982.37053990486
 20
-2815.966108353133
 30
0.0
 11
3027.37053990486
 21
-2815.966108353133
 31
0.0
  0
LINE
  5
161
330
1F
100
AcDbEntity
  8
1-7_金物
  6
Continuous
 62
     7
370
     9
100
AcDbLine
 10
2982.37053990486
 20
-2845.966108353133
 30
0.0
 11
3027.37053990486
 21
-2845.966108353133
 31
0.0
  0
LINE
  5
162
330
1F
100
AcDbEntity
  8
1-7_金物
  6
Continuous
 62
     7
370
     9
100
AcDbLine
 10
3027.37053990486
 20
-2575.966108353133
 30
0.0
 11
2982.37053990486
 21
-2575.966108353133
 31
0.0
  0
LINE
  5
163
330
1F
100
AcDbEntity
  8
1-7_金物
  6
Continuous
 62
     7
370
     9
100
AcDbLine
 10
3027.37053990486
 20
-2455.966108353133
 30
0.0
 11
2982.37053990486
 21
-2455.966108353133
 31
0.0
  0
LINE
  5
164
330
1F
100
AcDbEntity
  8
1-7_金物
  6
Continuous
 62
     7
370
     9
100
AcDbLine
 10
3027.37053990486
 20
-2485.966108353133
 30
0.0
 11
2982.37053990486
 21
-2485.966108353133
 31
0.0
  0
LINE
  5
165
330
1F
100
AcDbEntity
  8
1-7_金物
  6
Continuous
 62
     7
370
     9
100
AcDbLine
 10
2982.37053990486
 20
-2545.966108353133
 30
0.0
 11
3027.37053990486
 21
-2545.966108353133
 31
0.0
  0
ARC
  5
166
330
1F
100
AcDbEntity
  8
1-7_金物
  6
Continuous
 62
     7
370
     9
100
AcDbCircle
 10
2982.37053990486
 20
-2785.966108353133
 30
0.0
 40
30.0
100
AcDbArc
 50
90.0
 51
270.0
  0
ARC
  5
167
330
1F
100
AcDbEntity
  8
1-7_金物
  6
Continuous
 62
     7
370
     9
100
AcDbCircle
 10
2982.37053990486
 20
-2785.966108353133
 30
0.0
 40
60.0
100
AcDbArc
 50
90.0
 51
270.0
  0
ARC
  5
168
330
1F
100
AcDbEntity
  8
1-7_金物
  6
Continuous
 62
     7
370
     9
100
AcDbCircle
 10
2982.37053990486
 20
-2515.966108353133
 30
0.0
 40
30.0
100
AcDbArc
 50
90.0
 51
270.0
  0
ARC
  5
169
330
1F
100
AcDbEntity
  8
1-7_金物
  6
Continuous
 62
     7
370
     9
100
AcDbCircle
 10
2982.37053990486
 20
-2515.966108353133
 30
0.0
 40
60.0
100
AcDbArc
 50
90.0
 51
270.0
  0
ARC
  5
16A
330
1F
100
AcDbEntity
  8
1-7_金物
  6
Continuous
 62
     7
370
     9
100
AcDbCircle
 10
3027.37053990486
 20
-2785.966108353133
 30
0.0
 40
30.0
100
AcDbArc
 50
270.0
 51
90.00000000000001
  0
ARC
  5
16B
330
1F
100
AcDbEntity
  8
1-7_金物
  6
Continuous
 62
     7
370
     9
100
AcDbCircle
 10
3027.37053990486
 20
-2515.966108353133
 30
0.0
 40
30.0
100
AcDbArc
 50
270.0
 51
90.00000000000001
  0
ARC
  5
16C
330
1F
100
AcDbEntity
  8
1-7_金物
  6
Continuous
 62
     7
370
     9
100
AcDbCircle
 10
3027.37053990486
 20
-2515.966108353133
 30
0.0
 40
60.0
100
AcDbArc
 50
270.0
 51
90.00000000000001
  0
ARC
  5
16D
330
1F
100
AcDbEntity
  8
1-7_金物
  6
Continuous
 62
     7
370
     9
100
AcDbCircle
 10
3027.37053990486
 20
-2785.966108353133
 30
0.0
 40
60.0
100
AcDbArc
 50
270.0
 51
90.00000000000001
  0
LINE
  5
16E
330
1F
100
AcDbEntity
  8
1-7_金物
  6
Continuous
 62
     7
370
     9
100
AcDbLine
 10
2922.37053990486
 20
-2425.966108353133
 30
0.0
 11
3087.37053990486
 21
-2425.966108353133
 31
0.0
  0
LINE
  5
16F
330
1F
100
AcDbEntity
  8
1-7_金物
  6
Continuous
 62
     7
370
     9
100
AcDbLine
 10
3087.37053990486
 20
-2875.966108353133
 30
0.0
 11
2922.37053990486
 21
-2875.966108353133
 31
0.0
  0
ARC
  5
170
330
1F
100
AcDbEntity
  8
1-7_金物
  6
Continuous
 62
     7
370
     9
100
AcDbCircle
 10
3087.37053990486
 20
-2845.966108353133
 30
0.0
 40
30.0
100
AcDbArc
 50
270.0
 51
0.0
  0
LINE
  5
171
330
1F
100
AcDbEntity
  8
1-7_金物
  6
Continuous
 62
     7
370
     9
100
AcDbLine
 10
3117.37053990486
 20
-2845.966108353133
 30
0.0
 11
3117.37053990486
 21
-2455.966108353133
 31
0.0
  0
ARC
  5
172
330
1F
100
AcDbEntity
  8
1-7_金物
  6
Continuous
 62
     7
370
     9
100
AcDbCircle
 10
3087.37053990486
 20
-2455.966108353133
 30
0.0
 40
30.0
100
AcDbArc
 50
0.0
 51
90.0
  0
ARC
  5
173
330
1F
100
AcDbEntity
  8
1-7_金物
  6
Continuous
 62
     7
370
     9
100
AcDbCircle
 10
2922.37053990486
 20
-2845.966108353133
 30
0.0
 40
30.0
100
AcDbArc
 50
180.0
 51
270.0
  0
LINE
  5
174
330
1F
100
AcDbEntity
  8
1-7_金物
  6
Continuous
 62
     7
370
     9
100
AcDbLine
 10
2892.37053990486
 20
-2845.966108353133
 30
0.0
 11
2892.37053990486
 21
-2455.966108353133
 31
0.0
  0
ARC
  5
175
330
1F
100
AcDbEntity
  8
1-7_金物
  6
Continuous
 62
     7
370
     9
100
AcDbCircle
 10
2922.37053990486
 20
-2455.966108353133
 30
0.0
 40
30.0
100
AcDbArc
 50
90.0
 51
180.0
  0
ARC
  5
176
330
1F
100
AcDbEntity
  8
1-7_金物
  6
Continuous
 62
     7
370
     9
100
AcDbCircle
 10
2884.87053990486
 20
-2568.466108353133
 30
0.0
 40
7.5
100
AcDbArc
 50
0.0
 51
90.0
  0
LINE
  5
177
330
1F
100
AcDbEntity
  8
1-7_金物
  6
Continuous
 62
     7
370
     9
100
AcDbLine
 10
2884.87053990486
 20
-2560.966108353133
 30
0.0
 11
2854.87053990486
 21
-2560.966108353133
 31
0.0
  0
ARC
  5
178
330
1F
100
AcDbEntity
  8
1-7_金物
  6
Continuous
 62
     7
370
     9
100
AcDbCircle
 10
2884.87053990486
 20
-2733.466108353133
 30
0.0
 40
7.5
100
AcDbArc
 50
270.0
 51
0.0
  0
LINE
  5
179
330
1F
100
AcDbEntity
  8
1-7_金物
  6
Continuous
 62
     7
370
     9
100
AcDbLine
 10
2884.87053990486
 20
-2740.966108353133
 30
0.0
 11
2854.87053990486
 21
-2740.966108353133
 31
0.0
  0
ARC
  5
17A
330
1F
100
AcDbEntity
  8
1-7_金物
  6
Continuous
 62
     7
370
     9
100
AcDbCircle
 10
2854.87053990486
 20
-2733.466108353133
 30
0.0
 40
7.5
100
AcDbArc
 50
180.0
 51
270.0
  0
LINE
  5
17B
330
1F
100
AcDbEntity
  8
1-7_金物
  6
Continuous
 62
     7
370
     9
100
AcDbLine
 10
2847.37053990486
 20
-2733.466108353133
 30
0.0
 11
2847.37053990486
 21
-2568.466108353133
 31
0.0
  0
ARC
  5
17C
330
1F
100
AcDbEntity
  8
1-7_金物
  6
Continuous
 62
     7
370
     9
100
AcDbCircle
 10
2854.87053990486
 20
-2568.466108353133
 30
0.0
 40
7.5
100
AcDbArc
 50
90.0
 51
180.0
  0
LINE
  5
17D
330
1F
100
AcDbEntity
  8
1-B_寸法
  6
Continuous
 62
   120
370
     5
100
AcDbLine
 10
3117.37053990486
 20
-2200.966108353133
 30
0.0
 11
2847.37053990486
 21
-2200.966108353133
 31
0.0
  0
LWPOLYLINE
  5
17E
330
1F
100
AcDbEntity
  8
1-B_寸法
  6
Continuous
 62
     7
370
     9
100
AcDbPolyline
 90
        4
 70
     1
 43
3.0
 10
3118.87053990486
 20
-2200.966108353133
 42
0.4142135623731
 10
3117.37053990486
 20
-2199.466108353133
 42
0.4142135623731
 10
3115.87053990486
 20
-2200.966108353133
 42
0.4142135623731
 10
3117.37053990486
 20
-2202.466108353133
 42
0.4142135623731
  0
LWPOLYLINE
  5
17F
330
1F
100
AcDbEntity
  8
1-B_寸法
  6
Continuous
 62
     7
370
     9
100
AcDbPolyline
 90
        4
 70
     1
 43
3.0
 10
2848.87053990486
 20
-2200.966108353133
 42
0.4142135623731
 10
2847.37053990486
 20
-2199.466108353133
 42
0.4142135623731
 10
2845.87053990486
 20
-2200.966108353133
 42
0.4142135623731
 10
2847.37053990486
 20
-2202.466108353133
 42
0.4142135623731
  0
LINE
  5
180
330
1F
100
AcDbEntity
  8
1-B_寸法
  6
Continuous
 62
   120
370
     5
100
AcDbLine
 10
3117.37053990486
 20
-2200.966108353133
 30
0.0
 11
3117.37053990486
 21
-2350.966108353133
 31
0.0
  0
LINE
  5
181
330
1F
100
AcDbEntity
  8
1-B_寸法
  6
Continuous
 62
   120
370
     5
100
AcDbLine
 10
2847.37053990486
 20
-2200.966108353133
 30
0.0
 11
2847.37053990486
 21
-2350.966108353133
 31
0.0
  0
MTEXT
  5
182
330
1F
100
AcDbEntity
  8
1-B_寸法
  6
Continuous
 62
     7
370
   211
100
AcDbMText
 10
2933.62053990486
 20
-2193.818608353133
 30
0.0
 40
74.295
 41
97.5
 46
0.0
 71
     7
 72
     1
  1
{\fＭＳ ゴシック|b0|i0|c128|p49;18}
 73
     1
 44
1.0
  0
LINE
  5
183
330
1F
100
AcDbEntity
  8
1-B_寸法
  6
Continuous
 62
   120
370
     5
100
AcDbLine
 10
2622.37053990486
 20
-2425.966108353133
 30
0.0
 11
2622.37053990486
 21
-2875.966108353133
 31
0.0
  0
LWPOLYLINE
  5
184
330
1F
100
AcDbEntity
  8
1-B_寸法
  6
Continuous
 62
     7
370
     9
100
AcDbPolyline
 90
        4
 70
     1
 43
3.0
 10
2623.87053990486
 20
-2425.966108353133
 42
0.4142135623731
 10
2622.37053990486
 20
-2424.466108353133
 42
0.4142135623731
 10
2620.87053990486
 20
-2425.966108353133
 42
0.4142135623731
 10
2622.37053990486
 20
-2427.466108353133
 42
0.4142135623731
  0
LWPOLYLINE
  5
185
330
1F
100
AcDbEntity
  8
1-B_寸法
  6
Continuous
 62
     7
370
     9
100
AcDbPolyline
 90
        4
 70
     1
 43
3.0
 10
2623.87053990486
 20
-2875.966108353133
 42
0.4142135623731
 10
2622.37053990486
 20
-2874.466108353133
 42
0.4142135623731
 10
2620.87053990486
 20
-2875.966108353133
 42
0.4142135623731
 10
2622.37053990486
 20
-2877.466108353133
 42
0.4142135623731
  0
LINE
  5
186
330
1F
100
AcDbEntity
  8
1-B_寸法
  6
Continuous
 62
   120
370
     5
100
AcDbLine
 10
2622.37053990486
 20
-2425.966108353133
 30
0.0
 11
2772.37053990486
 21
-2425.966108353133
 31
0.0
  0
LINE
  5
187
330
1F
100
AcDbEntity
  8
1-B_寸法
  6
Continuous
 62
   120
370
     5
100
AcDbLine
 10
2622.37053990486
 20
-2875.966108353133
 30
0.0
 11
2772.37053990486
 21
-2875.966108353133
 31
0.0
  0
MTEXT
  5
188
330
1F
100
AcDbEntity
  8
1-B_寸法
  6
Continuous
 62
     7
370
   211
100
AcDbMText
 10
2607.37053990486
 20
-2707.568608353133
 30
0.0
 40
74.295
 41
97.5
 46
0.0
 71
     7
 72
     1
  1
{\fＭＳ ゴシック|b0|i0|c128|p49;30}
 11
6.123031769111886E-17
 21
1.0
 31
0.0
 73
     1
 44
1.0
  0
LINE
  5
189
330
1F
100
AcDbEntity
  8
1-4_枠
  6
JWW_CENTER1
 62
   120
370
     5
100
AcDbLine
 10
3004.87053990486
 20
-2425.966108353133
 30
0.0
 11
3004.87053990486
 21
-3550.966108353133
 31
0.0
  0
MTEXT
  5
18A
330
1F
100
AcDbEntity
  8
1-A_文字
  6
Continuous
 62
     7
370
     9
100
AcDbMText
 10
2779.508324500822
 20
-621.3234061346628
 30
0.0
 40
77.15249999999999
 41
405.0
 46
0.0
 71
     7
 72
     1
  1
{\fＭＳ ゴシック|b0|i0|c128|p49;見切材・}
 73
     1
 44
1.0
  0
MTEXT
  5
18B
330
1F
100
AcDbEntity
  8
1-A_文字
  6
Continuous
 62
     7
370
     9
100
AcDbMText
 10
2674.508324500822
 20
-1999.429784023267
 30
0.0
 40
78.105
 41
615.0
 46
0.0
 71
     7
 72
     1
  1
{\fＭＳ ゴシック|b0|i0|c128|p49;振れ止め金具}
 73
     1
 44
1.0
  0
MTEXT
  5
18C
330
1F
100
AcDbEntity
  8
1-B_寸法
  6
Continuous
 62
     7
370
   211
100
AcDbMText
 10
2791.356092208413
 20
-3696.676108353133
 30
0.0
 40
68.58
 41
45.0
 46
0.0
 71
     7
 72
     1
  1
{\fＭＳ ゴシック|b0|i0|c128|p49;3}
 73
     1
 44
1.0
  0
LINE
  5
18D
330
1F
100
AcDbEntity
  8
1-B_寸法
  6
Continuous
 62
   120
370
     5
100
AcDbLine
 10
2791.356092208413
 20
-3700.966108353133
 30
0.0
 11
2892.370539904836
 21
-3700.966108353133
 31
0.0
  0
LINE
  5
18E
330
1F
100
AcDbEntity
  8
F-1_枠
  6
JWW_DASHED1
 62
   200
370
    20
100
AcDbLine
 10
2293.479568756141
 20
-479.8996561346628
 30
0.0
 11
2293.479568756141
 21
-3774.99981957513
 31
0.0
  0
LINE
  5
18F
330
1F
100
AcDbEntity
  8
1-B_寸法
  6
Continuous
 62
   120
370
     5
100
AcDbLine
 10
1167.838660066265
 20
-2022.203813133638
 30
0.0
 11
1265.338660066265
 21
-2022.203813133638
 31
0.0
  0
LINE
  5
190
330
1F
100
AcDbEntity
  8
1-B_寸法
  6
Continuous
 62
   120
370
     5
100
AcDbLine
 10
1445.338660066256
 20
-2172.203813133638
 30
0.0
 11
897.8386600662416
 21
-2172.203813133638
 31
0.0
  0
LINE
  5
191
330
1F
100
AcDbEntity
  8
1-4_枠
  6
Continuous
 62
    92
370
    13
100
AcDbLine
 10
1265.338660066265
 20
-962.0745738775277
 30
0.0
 11
1265.338660066265
 21
-1617.203404857933
 31
0.0
  0
LINE
  5
192
330
1F
100
AcDbEntity
  8
1-B_寸法
  6
Continuous
 62
   120
370
     5
100
AcDbLine
 10
1445.338660066256
 20
-2172.203813133638
 30
0.0
 11
1445.338660066256
 21
-1872.203813133638
 31
0.0
  0
LWPOLYLINE
  5
193
330
1F
100
AcDbEntity
  8
1-B_寸法
  6
Continuous
 62
     7
370
     9
100
AcDbPolyline
 90
        4
 70
     1
 43
3.0
 10
1446.838660066256
 20
-2172.203813133638
 42
0.4142135623731
 10
1445.338660066256
 20
-2170.703813133638
 42
0.4142135623731
 10
1443.838660066256
 20
-2172.203813133638
 42
0.4142135623731
 10
1445.338660066256
 20
-2173.703813133638
 42
0.4142135623731
  0
LWPOLYLINE
  5
194
330
1F
100
AcDbEntity
  8
1-B_寸法
  6
Continuous
 62
     7
370
     9
100
AcDbPolyline
 90
        4
 70
     1
 43
3.0
 10
1446.838660066256
 20
-2022.203813133638
 42
0.4142135623731
 10
1445.338660066256
 20
-2020.703813133638
 42
0.4142135623731
 10
1443.838660066256
 20
-2022.203813133638
 42
0.4142135623731
 10
1445.338660066256
 20
-2023.703813133638
 42
0.4142135623731
  0
LINE
  5
195
330
1F
100
AcDbEntity
  8
1-B_寸法
  6
Continuous
 62
   120
370
     5
100
AcDbLine
 10
1265.338660066265
 20
-2022.203813133638
 30
0.0
 11
1445.338660066256
 21
-2022.203813133638
 31
0.0
  0
LWPOLYLINE
  5
196
330
1F
100
AcDbEntity
  8
1-B_寸法
  6
Continuous
 62
     7
370
     9
100
AcDbPolyline
 90
        4
 70
     1
 43
3.0
 10
1266.838660066265
 20
-2022.203813133638
 42
0.4142135623731
 10
1265.338660066265
 20
-2020.703813133638
 42
0.4142135623731
 10
1263.838660066265
 20
-2022.203813133638
 42
0.4142135623731
 10
1265.338660066265
 20
-2023.703813133638
 42
0.4142135623731
  0
MTEXT
  5
197
330
1F
100
AcDbEntity
  8
1-B_寸法
  6
Continuous
 62
     7
370
   211
100
AcDbMText
 10
1475.338660066266
 20
-1627.912940908263
 30
0.0
 40
68.58
 41
45.0
 46
0.0
 71
     7
 72
     1
  1
{\fＭＳ ゴシック|b0|i0|c128|p49;3}
 11
6.123031769111886E-17
 21
1.0
 31
0.0
 73
     1
 44
1.0
  0
LINE
  5
198
330
1F
100
AcDbEntity
  8
1-B_寸法
  6
Continuous
 62
   120
370
     5
100
AcDbLine
 10
1490.338660066266
 20
-1617.203404857933
 30
0.0
 11
1340.338660066265
 21
-1617.203404857933
 31
0.0
  0
LWPOLYLINE
  5
199
330
1F
100
AcDbEntity
  8
1-B_寸法
  6
Continuous
 62
     7
370
     9
100
AcDbPolyline
 90
        4
 70
     1
 43
3.0
 10
1491.838660066266
 20
-1617.203404857933
 42
0.4142135623731
 10
1490.338660066266
 20
-1615.703404857933
 42
0.4142135623731
 10
1488.838660066266
 20
-1617.203404857933
 42
0.4142135623731
 10
1490.338660066266
 20
-1618.703404857933
 42
0.4142135623731
  0
LINE
  5
19A
330
1F
100
AcDbEntity
  8
1-C_ハッチ
  6
Continuous
 62
     7
370
     9
100
AcDbLine
 10
340.1758273794596
 20
-1752.203479089876
 30
0.0
 11
2103.22199999734
 21
-1752.203479089877
 31
0.0
  0
LINE
  5
19B
330
1F
100
AcDbEntity
  8
1-C_ハッチ
  6
Continuous
 62
     7
370
     9
100
AcDbLine
 10
340.1758273794596
 20
-1707.204072945451
 30
0.0
 11
2103.22199999734
 21
-1707.204072945451
 31
0.0
  0
LINE
  5
19C
330
1F
100
AcDbEntity
  8
1-C_ハッチ
  6
Continuous
 62
     7
370
     9
100
AcDbLine
 10
340.1758273794596
 20
-1662.203738901693
 30
0.0
 11
2103.22199999734
 21
-1662.203738901694
 31
0.0
  0
LINE
  5
19D
330
1F
100
AcDbEntity
  8
1-3_仕上げ
  6
Continuous
 62
    40
370
    15
100
AcDbLine
 10
340.1758273794596
 20
-1617.203404857931
 30
0.0
 11
2103.22199999734
 21
-1617.203404857932
 31
0.0
  0
LINE
  5
19E
330
1F
100
AcDbEntity
  8
1-3_仕上げ
  6
Continuous
 62
    40
370
    15
100
AcDbLine
 10
340.1758273794596
 20
-1797.203813133638
 30
0.0
 11
2103.22199999734
 21
-1797.203813133639
 31
0.0
  0
MTEXT
  5
19F
330
1F
100
AcDbEntity
  8
1-A_文字
  6
Continuous
 62
     7
370
     9
100
AcDbMText
 10
1803.395965717674
 20
-1601.602940908263
 30
0.0
 40
76.19999999999999
 41
300.0
 46
0.0
 71
     7
 72
     1
  1
{\fＭＳ ゴシック|b0|i0|c128|p49;▽ＦＬ}
 73
     1
 44
1.0
  0
MTEXT
  5
1A0
330
1F
100
AcDbEntity
  8
1-B_寸法
  6
Continuous
 62
     7
370
   211
100
AcDbMText
 10
1070.338660066248
 20
-2163.627563133638
 30
0.0
 40
77.15249999999999
 41
202.5
 46
0.0
 71
     7
 72
     1
  1
{\fＭＳ ゴシック|b0|i0|c128|p49;36.5}
 73
     1
 44
1.0
  0
MTEXT
  5
1A1
330
1F
100
AcDbEntity
  8
1-B_寸法
  6
Continuous
 62
     7
370
   211
100
AcDbMText
 10
1141.67863700318
 20
-2014.103813133638
 30
0.0
 40
76.19999999999999
 41
150.0
 46
0.0
 71
     7
 72
     1
  1
{\fＭＳ ゴシック|b0|i0|c128|p49;6.5}
 73
     1
 44
1.0
  0
MTEXT
  5
1A2
330
1F
100
AcDbEntity
  8
1-B_寸法
  6
Continuous
 62
     7
370
   211
100
AcDbMText
 10
1334.713777136571
 20
-2015.056313133638
 30
0.0
 40
74.295
 41
97.5
 46
0.0
 71
     7
 72
     1
  1
{\fＭＳ ゴシック|b0|i0|c128|p49;12}
 73
     1
 44
1.0
  0
MTEXT
  5
1A3
330
1F
100
AcDbEntity
  8
1-B_寸法
  6
Continuous
 62
     7
370
   211
100
AcDbMText
 10
984.0886600662534
 20
-2015.056313133638
 30
0.0
 40
74.295
 41
97.5
 46
0.0
 71
     7
 72
     1
  1
{\fＭＳ ゴシック|b0|i0|c128|p49;18}
 73
     1
 44
1.0
  0
LINE
  5
1A4
330
1F
100
AcDbEntity
  8
1-B_寸法
  6
Continuous
 62
   120
370
     5
100
AcDbLine
 10
493.120825562734
 20
-3431.828758354171
 30
0.0
 11
793.1208255627382
 21
-3431.828758354171
 31
0.0
  0
LINE
  5
1A5
330
1F
100
AcDbEntity
  8
1-B_寸法
  6
Continuous
 62
   120
370
     5
100
AcDbLine
 10
493.120825562734
 20
-3161.82875835417
 30
0.0
 11
793.1208255627348
 21
-3161.82875835417
 31
0.0
  0
LINE
  5
1A6
330
1F
100
AcDbEntity
  8
1-B_寸法
  6
Continuous
 62
   120
370
     5
100
AcDbLine
 10
1678.120825562745
 20
-3431.828758354171
 30
0.0
 11
1378.120825562745
 21
-3431.828758354171
 31
0.0
  0
LWPOLYLINE
  5
1A7
330
1F
100
AcDbEntity
  8
1-B_寸法
  6
Continuous
 62
     7
370
     9
100
AcDbPolyline
 90
        4
 70
     1
 43
3.0
 10
1679.620825562745
 20
-3431.828758354171
 42
0.4142135623731
 10
1678.120825562745
 20
-3430.328758354171
 42
0.4142135623731
 10
1676.620825562745
 20
-3431.828758354171
 42
0.4142135623731
 10
1678.120825562745
 20
-3433.328758354171
 42
0.4142135623731
  0
LINE
  5
1A8
330
1F
100
AcDbEntity
  8
1-B_寸法
  6
Continuous
 62
   120
370
     5
100
AcDbLine
 10
1678.120825562745
 20
-2884.328758354172
 30
0.0
 11
1678.120825562745
 21
-3431.828758354171
 31
0.0
  0
LINE
  5
1A9
330
1F
100
AcDbEntity
  8
1-B_寸法
  6
Continuous
 62
   120
370
     5
100
AcDbLine
 10
1528.120825562745
 20
-3161.828758354171
 30
0.0
 11
1378.120825562745
 21
-3161.828758354171
 31
0.0
  0
LWPOLYLINE
  5
1AA
330
1F
100
AcDbEntity
  8
1-B_寸法
  6
Continuous
 62
     7
370
     9
100
AcDbPolyline
 90
        4
 70
     1
 43
3.0
 10
1529.620825562745
 20
-3161.828758354171
 42
0.4142135623731
 10
1528.120825562745
 20
-3160.328758354171
 42
0.4142135623731
 10
1526.620825562745
 20
-3161.828758354171
 42
0.4142135623731
 10
1528.120825562745
 20
-3163.328758354171
 42
0.4142135623731
  0
LINE
  5
1AB
330
1F
100
AcDbEntity
  8
1-4_枠
  6
JWW_CENTER1
 62
   120
370
     5
100
AcDbLine
 10
1078.120825562748
 20
-3549.165769759735
 30
0.0
 11
1078.120825562748
 21
-2977.643136014881
 31
0.0
  0
LINE
  5
1AC
330
1F
100
AcDbEntity
  8
1-4_枠
  6
JWW_CENTER1
 62
   120
370
     5
100
AcDbLine
 10
853.1208255627485
 20
-3274.328758354171
 30
0.0
 11
1303.120825562745
 21
-3274.328758354171
 31
0.0
  0
MTEXT
  5
1AD
330
1F
100
AcDbEntity
  8
1-B_寸法
  6
Continuous
 62
     7
370
   211
100
AcDbMText
 10
478.120825562734
 20
-3353.43125835417
 30
0.0
 40
74.295
 41
97.5
 46
0.0
 71
     7
 72
     1
  1
{\fＭＳ ゴシック|b0|i0|c128|p49;18}
 11
6.123031769111886E-17
 21
1.0
 31
0.0
 73
     1
 44
1.0
  0
LWPOLYLINE
  5
1AE
330
1F
100
AcDbEntity
  8
1-B_寸法
  6
Continuous
 62
     7
370
     9
100
AcDbPolyline
 90
        4
 70
     1
 43
3.0
 10
494.620825562734
 20
-3431.828758354171
 42
0.4142135623731
 10
493.120825562734
 20
-3430.328758354171
 42
0.4142135623731
 10
491.620825562734
 20
-3431.828758354171
 42
0.4142135623731
 10
493.120825562734
 20
-3433.328758354171
 42
0.4142135623731
  0
LINE
  5
1AF
330
1F
100
AcDbEntity
  8
1-B_寸法
  6
Continuous
 62
   120
370
     5
100
AcDbLine
 10
493.120825562734
 20
-3161.82875835417
 30
0.0
 11
493.120825562734
 21
-3431.82875835417
 31
0.0
  0
LWPOLYLINE
  5
1B0
330
1F
100
AcDbEntity
  8
1-B_寸法
  6
Continuous
 62
     7
370
     9
100
AcDbPolyline
 90
        4
 70
     1
 43
3.0
 10
494.620825562734
 20
-3161.828758354171
 42
0.4142135623731
 10
493.120825562734
 20
-3160.328758354171
 42
0.4142135623731
 10
491.620825562734
 20
-3161.828758354171
 42
0.4142135623731
 10
493.120825562734
 20
-3163.328758354171
 42
0.4142135623731
  0
LINE
  5
1B1
330
1F
100
AcDbEntity
  8
1-B_寸法
  6
Continuous
 62
   120
370
     5
100
AcDbLine
 10
493.120825562734
 20
-3064.328758354204
 30
0.0
 11
493.120825562734
 21
-3161.82875835417
 31
0.0
  0
MTEXT
  5
1B2
330
1F
100
AcDbEntity
  8
1-B_寸法
  6
Continuous
 62
     7
370
   211
100
AcDbMText
 10
478.120825562734
 20
-3194.978758354187
 30
0.0
 40
76.19999999999999
 41
150.0
 46
0.0
 71
     7
 72
     1
  1
{\fＭＳ ゴシック|b0|i0|c128|p49;6.5}
 11
6.123031769111886E-17
 21
1.0
 31
0.0
 73
     1
 44
1.0
  0
MTEXT
  5
1B3
330
1F
100
AcDbEntity
  8
1-B_寸法
  6
Continuous
 62
     7
370
   211
100
AcDbMText
 10
1513.120825562745
 20
-3333.032272571204
 30
0.0
 40
76.19999999999999
 41
150.0
 46
0.0
 71
     7
 72
     1
  1
{\fＭＳ ゴシック|b0|i0|c128|p49;6.5}
 11
6.123031769111886E-17
 21
1.0
 31
0.0
 73
     1
 44
1.0
  0
LINE
  5
1B4
330
1F
100
AcDbEntity
  8
1-B_寸法
  6
Continuous
 62
   120
370
     5
100
AcDbLine
 10
1528.120825562745
 20
-3064.328758354171
 30
0.0
 11
1528.120825562745
 21
-3326.132272571203
 31
0.0
  0
MTEXT
  5
1B5
330
1F
100
AcDbEntity
  8
1-B_寸法
  6
Continuous
 62
     7
370
   211
100
AcDbMText
 10
1663.120825562745
 20
-3265.752508354171
 30
0.0
 40
77.15249999999999
 41
202.5
 46
0.0
 71
     7
 72
     1
  1
{\fＭＳ ゴシック|b0|i0|c128|p49;36.5}
 11
6.123031769111886E-17
 21
1.0
 31
0.0
 73
     1
 44
1.0
  0
LINE
  5
1B6
330
1F
100
AcDbEntity
  8
0-4_枠
  6
Continuous
 62
   200
370
    20
100
AcDbLine
 10
-5839.99949532586
 20
1850.500262647062
 30
0.0
 11
3670.537080245499
 21
1850.500262647062
 31
0.0
  0
LINE
  5
1B7
330
1F
100
AcDbEntity
  8
F-1_枠
  6
Continuous
 62
   200
370
    20
100
AcDbLine
 10
3670.537080245499
 20
4189.999967008023
 30
0.0
 11
3670.537080245499
 21
-3774.999819575129
 31
0.0
  0
LINE
  5
1B8
330
1F
100
AcDbEntity
  8
0-4_枠
  6
Continuous
 62
     7
370
     9
100
AcDbLine
 10
-5666.928448090994
 20
1248.453213515671
 30
0.0
 11
-5666.928448090994
 21
1382.960152887475
 31
0.0
  0
LINE
  5
1B9
330
1F
100
AcDbEntity
  8
0-4_枠
  6
Continuous
 62
     7
370
     9
100
AcDbLine
 10
-5666.928448090994
 20
1382.960152887475
 30
0.0
 11
-4126.918517365234
 21
1382.960152887475
 31
0.0
  0
LINE
  5
1BA
330
1F
100
AcDbEntity
  8
0-4_枠
  6
Continuous
 62
     7
370
     9
100
AcDbLine
 10
-4126.918517365234
 20
1382.960152887475
 30
0.0
 11
-4126.918517365234
 21
1248.453213515671
 31
0.0
  0
LINE
  5
1BB
330
1F
100
AcDbEntity
  8
0-4_枠
  6
Continuous
 62
     7
370
     9
100
AcDbLine
 10
-4126.918517365234
 20
1248.453213515671
 30
0.0
 11
-5666.928448090994
 21
1248.453213515671
 31
0.0
  0
MTEXT
  5
1BC
330
1F
100
AcDbEntity
  8
0-4_枠
  6
Continuous
 62
     7
370
     9
100
AcDbMText
 10
-5559.32289659355
 20
1264.539708430544
 30
0.0
 40
79.13076923076923
 41
1350.0
 46
0.0
 71
     7
 72
     1
  1
{\fＭＳ ゴシック|b0|i0|c128|p49;カマ錠枠　片入隅　納まり図}
 73
     1
 44
1.0
  0
MTEXT
  5
1BD
330
1F
100
AcDbEntity
  8
0-4_枠
  6
Continuous
 62
     7
370
     9
100
AcDbMText
 10
-5514.525025745857
 20
780.3458095179066
 30
0.0
 40
79.4084210526316
 41
1980.0
 46
0.0
 71
     7
 72
     1
  1
{\fＭＳ ゴシック|b0|i0|c128|p49;カマ錠枠を取り付ける際は。枠取付け側の}
 73
     1
 44
1.0
  0
MTEXT
  5
1BE
330
1F
100
AcDbEntity
  8
0-4_枠
  6
Continuous
 62
     7
370
     9
100
AcDbMText
 10
-5515.478047035005
 20
539.7768379887829
 30
0.0
 40
78.97090909090909
 41
1140.0
 46
0.0
 71
     7
 72
     1
  1
{\fＭＳ ゴシック|b0|i0|c128|p49;取り付けないで下さい。}
 73
     1
 44
1.0
  0
MTEXT
  5
1BF
330
1F
100
AcDbEntity
  8
0-4_枠
  6
Continuous
 62
     7
370
     9
100
AcDbMText
 10
-5511.58496405973
 20
667.7363767263092
 30
0.0
 40
79.4084210526316
 41
1980.0
 46
0.0
 71
     7
 72
     1
  1
{\fＭＳ ゴシック|b0|i0|c128|p49;上吊レールのストッパー及びキャップは、}
 73
     1
 44
1.0
  0
LINE
  5
1C0
330
1F
100
AcDbEntity
  8
0-4_枠
  6
Continuous
 62
     7
370
     9
100
AcDbLine
 10
-3463.269233677512
 20
952.6584111049518
 30
0.0
 11
-3463.269233677512
 21
468.3572859087354
 31
0.0
  0
LINE
  5
1C1
330
1F
100
AcDbEntity
  8
0-4_枠
  6
Continuous
 62
     7
370
     9
100
AcDbLine
 10
-3463.269233677512
 20
468.3572859087354
 30
0.0
 11
-5608.031359546472
 21
468.3572859087354
 31
0.0
  0
LINE
  5
1C2
330
1F
100
AcDbEntity
  8
0-4_枠
  6
Continuous
 62
     7
370
     9
100
AcDbLine
 10
-5608.031359546472
 20
468.3572859087354
 30
0.0
 11
-5608.031359546472
 21
952.6584111049518
 31
0.0
  0
MTEXT
  5
1C3
330
1F
100
AcDbEntity
  8
0-4_枠
  6
Continuous
 62
     7
370
     9
100
AcDbMText
 10
-4737.442432110416
 20
905.8762340052673
 30
0.0
 40
77.15249999999999
 41
405.0
 46
0.0
 71
     7
 72
     1
  1
{\fＭＳ ゴシック|b0|i0|c128|p49;■注意■}
 73
     1
 44
1.0
  0
LINE
  5
1C4
330
1F
100
AcDbEntity
  8
0-4_枠
  6
Continuous
 62
     7
370
     9
100
AcDbLine
 10
-5608.031359546472
 20
952.6584111049518
 30
0.0
 11
-4711.497728974904
 21
952.6584111049518
 31
0.0
  0
LINE
  5
1C5
330
1F
100
AcDbEntity
  8
0-4_枠
  6
Continuous
 62
     7
370
     9
100
AcDbLine
 10
-4368.451098627584
 20
952.6584111049518
 30
0.0
 11
-3463.269233677512
 21
952.6584111049518
 31
0.0
  0
LINE
  5
1C6
330
1F
100
AcDbEntity
  8
0-4_枠
  6
Continuous
 62
    92
370
    13
100
AcDbLine
 10
-2336.241838282546
 20
355.7503032426592
 30
0.0
 11
-2336.241838282546
 21
490.7503032426592
 31
0.0
  0
LINE
  5
1C7
330
1F
100
AcDbEntity
  8
0-4_枠
  6
Continuous
 62
   200
370
    20
100
AcDbLine
 10
-2442.741838282547
 20
528.2503032426583
 30
0.0
 11
-2442.741838282547
 21
843.2503032426591
 31
0.0
  0
LINE
  5
1C8
330
1F
100
AcDbEntity
  8
0-4_枠
  6
Continuous
 62
     7
370
     9
100
AcDbLine
 10
-2127.741838282547
 20
843.2503032426591
 30
0.0
 11
-2442.741838282547
 21
528.2503032426583
 31
0.0
  0
LINE
  5
1C9
330
1F
100
AcDbEntity
  8
0-4_枠
  6
Continuous
 62
     7
370
     9
100
AcDbLine
 10
-2127.741838282547
 20
528.2503032426583
 30
0.0
 11
-2442.741838282547
 21
843.2503032426591
 31
0.0
  0
LINE
  5
1CA
330
1F
100
AcDbEntity
  8
0-4_枠
  6
Continuous
 62
   200
370
    20
100
AcDbLine
 10
602.2581617174515
 20
843.2503032426591
 30
0.0
 11
602.2581617174515
 21
528.2503032426583
 31
0.0
  0
LINE
  5
1CB
330
1F
100
AcDbEntity
  8
0-4_枠
  6
Continuous
 62
     7
370
     9
100
AcDbLine
 10
602.2581617174515
 20
528.2503032426583
 30
0.0
 11
287.2581617174532
 21
843.2503032426591
 31
0.0
  0
LINE
  5
1CC
330
1F
100
AcDbEntity
  8
0-4_枠
  6
Continuous
 62
     7
370
     9
100
AcDbLine
 10
602.2581617174515
 20
843.2503032426591
 30
0.0
 11
287.2581617174532
 21
528.2503032426583
 31
0.0
  0
LINE
  5
1CD
330
1F
100
AcDbEntity
  8
0-4_枠
  6
Continuous
 62
   120
370
     5
100
AcDbLine
 10
249.7581617174498
 20
525.6099269679603
 30
0.0
 11
236.6177854427528
 21
538.7503032426573
 31
0.0
  0
LINE
  5
1CE
330
1F
100
AcDbEntity
  8
0-4_枠
  6
Continuous
 62
   120
370
     5
100
AcDbLine
 10
297.7581617174505
 20
477.6099269679605
 30
0.0
 11
284.6177854427535
 21
490.7503032426575
 31
0.0
  0
LINE
  5
1CF
330
1F
100
AcDbEntity
  8
0-4_枠
  6
Continuous
 62
   120
370
     5
100
AcDbLine
 10
249.7581617174532
 20
504.396723532356
 30
0.0
 11
215.4045820071545
 21
538.7503032426556
 31
0.0
  0
LINE
  5
1D0
330
1F
100
AcDbEntity
  8
0-4_枠
  6
Continuous
 62
   120
370
     5
100
AcDbLine
 10
297.7581617174488
 20
456.3967235323613
 30
0.0
 11
263.4045820071466
 21
490.7503032426634
 31
0.0
  0
LINE
  5
1D1
330
1F
100
AcDbEntity
  8
0-4_枠
  6
Continuous
 62
   120
370
     5
100
AcDbLine
 10
278.1913785715855
 20
454.7503032426527
 30
0.0
 11
213.758161717457
 21
519.1835200967778
 31
0.0
  0
LINE
  5
1D2
330
1F
100
AcDbEntity
  8
0-4_枠
  6
Continuous
 62
   120
370
     5
100
AcDbLine
 10
256.9781751359855
 20
454.7503032426527
 30
0.0
 11
213.758161717457
 21
497.9703166611812
 31
0.0
  0
LINE
  5
1D3
330
1F
100
AcDbEntity
  8
0-4_枠
  6
Continuous
 62
   120
370
     5
100
AcDbLine
 10
235.7649717003855
 20
454.7503032426519
 30
0.0
 11
213.7581617174536
 21
476.7571132255838
 31
0.0
  0
LINE
  5
1D4
330
1F
100
AcDbEntity
  8
0-4_枠
  6
Continuous
 62
    92
370
    13
100
AcDbLine
 10
225.7581617174512
 20
454.7503032426587
 30
0.0
 11
213.7581617174502
 21
466.7503032426588
 31
0.0
  0
LINE
  5
1D5
330
1F
100
AcDbEntity
  8
0-4_枠
  6
Continuous
 62
    92
370
    13
100
AcDbLine
 10
213.7581617174502
 20
466.7503032426588
 30
0.0
 11
213.7581617174502
 21
538.750303242659
 31
0.0
  0
LINE
  5
1D6
330
1F
100
AcDbEntity
  8
0-4_枠
  6
Continuous
 62
    92
370
    13
100
AcDbLine
 10
225.7581617174512
 20
454.7503032426587
 30
0.0
 11
297.7581617174522
 21
454.7503032426587
 31
0.0
  0
LINE
  5
1D7
330
1F
100
AcDbEntity
  8
0-4_枠
  6
Continuous
 62
    92
370
    13
100
AcDbLine
 10
297.7581617174522
 20
454.7503032426587
 30
0.0
 11
297.7581617174522
 21
490.7503032426592
 31
0.0
  0
LINE
  5
1D8
330
1F
100
AcDbEntity
  8
0-4_枠
  6
Continuous
 62
    92
370
    13
100
AcDbLine
 10
249.7581617174532
 20
490.7503032426592
 30
0.0
 11
249.7581617174532
 21
538.750303242659
 31
0.0
  0
LINE
  5
1D9
330
1F
100
AcDbEntity
  8
0-4_枠
  6
Continuous
 62
    92
370
    13
100
AcDbLine
 10
249.7581617174532
 20
538.750303242659
 30
0.0
 11
213.7581617174502
 21
538.750303242659
 31
0.0
  0
LINE
  5
1DA
330
1F
100
AcDbEntity
  8
0-4_枠
  6
Continuous
 62
    92
370
    13
100
AcDbLine
 10
297.7581617174522
 20
490.7503032426592
 30
0.0
 11
249.7581617174532
 21
490.7503032426592
 31
0.0
  0
LINE
  5
1DB
330
1F
100
AcDbEntity
  8
0-4_枠
  6
Continuous
 62
    40
370
    15
100
AcDbLine
 10
249.7581617174532
 20
880.7503032426591
 30
0.0
 11
249.7581617174532
 21
490.7503032426592
 31
0.0
  0
LINE
  5
1DC
330
1F
100
AcDbEntity
  8
0-4_枠
  6
Continuous
 62
    92
370
    13
100
AcDbLine
 10
-2090.241838282547
 20
490.7503032426592
 30
0.0
 11
-2138.241838282548
 21
490.7503032426592
 31
0.0
  0
LINE
  5
1DD
330
1F
100
AcDbEntity
  8
0-4_枠
  6
Continuous
 62
    92
370
    13
100
AcDbLine
 10
-2054.241838282549
 20
538.750303242659
 30
0.0
 11
-2090.241838282547
 21
538.750303242659
 31
0.0
  0
LINE
  5
1DE
330
1F
100
AcDbEntity
  8
0-4_枠
  6
Continuous
 62
    92
370
    13
100
AcDbLine
 10
-2090.241838282547
 20
538.750303242659
 30
0.0
 11
-2090.241838282547
 21
490.7503032426592
 31
0.0
  0
LINE
  5
1DF
330
1F
100
AcDbEntity
  8
0-4_枠
  6
Continuous
 62
    92
370
    13
100
AcDbLine
 10
-2054.241838282549
 20
466.7503032426588
 30
0.0
 11
-2054.241838282549
 21
538.750303242659
 31
0.0
  0
LINE
  5
1E0
330
1F
100
AcDbEntity
  8
0-4_枠
  6
Continuous
 62
    92
370
    13
100
AcDbLine
 10
-2066.241838282548
 20
454.7503032426587
 30
0.0
 11
-2138.241838282548
 21
454.7503032426587
 31
0.0
  0
LINE
  5
1E1
330
1F
100
AcDbEntity
  8
0-4_枠
  6
Continuous
 62
    92
370
    13
100
AcDbLine
 10
-2054.241838282549
 20
466.7503032426588
 30
0.0
 11
-2066.241838282548
 21
454.7503032426587
 31
0.0
  0
LINE
  5
1E2
330
1F
100
AcDbEntity
  8
0-4_枠
  6
Continuous
 62
   120
370
     5
100
AcDbLine
 10
-2125.101462007847
 20
490.7503032426575
 30
0.0
 11
-2138.241838282546
 21
477.6099269679596
 31
0.0
  0
LINE
  5
1E3
330
1F
100
AcDbEntity
  8
0-4_枠
  6
Continuous
 62
   120
370
     5
100
AcDbLine
 10
-2077.10146200785
 20
538.7503032426573
 30
0.0
 11
-2090.241838282547
 21
525.6099269679603
 31
0.0
  0
LINE
  5
1E4
330
1F
100
AcDbEntity
  8
0-4_枠
  6
Continuous
 62
   120
370
     5
100
AcDbLine
 10
-2103.888258572244
 20
490.7503032426609
 30
0.0
 11
-2138.241838282544
 21
456.3967235323613
 31
0.0
  0
LINE
  5
1E5
330
1F
100
AcDbEntity
  8
0-4_枠
  6
Continuous
 62
   120
370
     5
100
AcDbLine
 10
-2055.88825857225
 20
538.7503032426556
 30
0.0
 11
-2090.241838282552
 21
504.3967235323535
 31
0.0
  0
LINE
  5
1E6
330
1F
100
AcDbEntity
  8
0-4_枠
  6
Continuous
 62
   120
370
     5
100
AcDbLine
 10
-2054.241838282542
 20
519.1835200967914
 30
0.0
 11
-2118.675055136665
 21
454.7503032426663
 31
0.0
  0
LINE
  5
1E7
330
1F
100
AcDbEntity
  8
0-4_枠
  6
Continuous
 62
   120
370
     5
100
AcDbLine
 10
-2054.241838282542
 20
497.9703166611923
 30
0.0
 11
-2097.461851701069
 21
454.7503032426638
 31
0.0
  0
LINE
  5
1E8
330
1F
100
AcDbEntity
  8
0-4_枠
  6
Continuous
 62
   120
370
     5
100
AcDbLine
 10
-2054.24183828254
 20
476.7571132255923
 30
0.0
 11
-2076.248648265472
 21
454.7503032426612
 31
0.0
  0
LINE
  5
1E9
330
1F
100
AcDbEntity
  8
0-4_枠
  6
Continuous
 62
    40
370
    15
100
AcDbLine
 10
-2090.241838282547
 20
880.7503032426591
 30
0.0
 11
-2537.844537007792
 21
880.7503032426591
 31
0.0
  0
LINE
  5
1EA
330
1F
100
AcDbEntity
  8
0-4_枠
  6
Continuous
 62
    40
370
    15
100
AcDbLine
 10
-2090.241838282547
 20
880.7503032426591
 30
0.0
 11
-2090.241838282547
 21
490.7503032426592
 31
0.0
  0
LINE
  5
1EB
330
1F
100
AcDbEntity
  8
0-4_枠
  6
Continuous
 62
    40
370
    15
100
AcDbLine
 10
-2090.241838282547
 20
490.7503032426592
 30
0.0
 11
-2537.844537007792
 21
490.7503032426592
 31
0.0
  0
LINE
  5
1EC
330
1F
100
AcDbEntity
  8
0-4_枠
  6
Continuous
 62
   200
370
    20
100
AcDbLine
 10
3332.258161717453
 20
528.2503032426583
 30
0.0
 11
3017.258161717453
 21
528.2503032426583
 31
0.0
  0
LINE
  5
1ED
330
1F
100
AcDbEntity
  8
0-4_枠
  6
Continuous
 62
   200
370
    20
100
AcDbLine
 10
3017.258161717453
 20
528.2503032426583
 30
0.0
 11
3017.258161717453
 21
843.2503032426583
 31
0.0
  0
LINE
  5
1EE
330
1F
100
AcDbEntity
  8
0-4_枠
  6
Continuous
 62
     7
370
     9
100
AcDbLine
 10
3332.258161717453
 20
528.2503032426583
 30
0.0
 11
3017.258161717453
 21
843.2503032426583
 31
0.0
  0
LINE
  5
1EF
330
1F
100
AcDbEntity
  8
0-4_枠
  6
Continuous
 62
     7
370
     9
100
AcDbLine
 10
3332.258161717453
 20
843.2503032426583
 30
0.0
 11
3017.258161717453
 21
528.2503032426583
 31
0.0
  0
LINE
  5
1F0
330
1F
100
AcDbEntity
  8
0-4_枠
  6
Continuous
 62
   200
370
    20
100
AcDbLine
 10
3332.258161717453
 20
843.2503032426583
 30
0.0
 11
3017.258161717453
 21
843.2503032426583
 31
0.0
  0
LINE
  5
1F1
330
1F
100
AcDbEntity
  8
0-4_枠
  6
Continuous
 62
    40
370
    15
100
AcDbLine
 10
-2127.741838282547
 20
843.2503032426591
 30
0.0
 11
-2537.844537007792
 21
843.2503032426591
 31
0.0
  0
LINE
  5
1F2
330
1F
100
AcDbEntity
  8
0-4_枠
  6
Continuous
 62
    40
370
    15
100
AcDbLine
 10
-2127.741838282547
 20
843.2503032426591
 30
0.0
 11
-2127.741838282547
 21
528.2503032426583
 31
0.0
  0
LINE
  5
1F3
330
1F
100
AcDbEntity
  8
0-4_枠
  6
Continuous
 62
    40
370
    15
100
AcDbLine
 10
-2127.741838282547
 20
528.2503032426583
 30
0.0
 11
-2537.844537007792
 21
528.2503032426583
 31
0.0
  0
LINE
  5
1F4
330
1F
100
AcDbEntity
  8
0-4_枠
  6
Continuous
 62
    40
370
    15
100
AcDbLine
 10
287.2581617174532
 20
843.2503032426591
 30
0.0
 11
287.2581617174532
 21
528.2503032426583
 31
0.0
  0
LINE
  5
1F5
330
1F
100
AcDbEntity
  8
0-4_枠
  6
Continuous
 62
    40
370
    15
100
AcDbLine
 10
2979.758161717453
 20
880.7503032426591
 30
0.0
 11
249.7581617174532
 21
880.7503032426591
 31
0.0
  0
LINE
  5
1F6
330
1F
100
AcDbEntity
  8
0-4_枠
  6
Continuous
 62
    40
370
    15
100
AcDbLine
 10
3017.258161717453
 20
843.2503032426591
 30
0.0
 11
287.2581617174532
 21
843.2503032426591
 31
0.0
  0
LINE
  5
1F7
330
1F
100
AcDbEntity
  8
0-4_枠
  6
Continuous
 62
    40
370
    15
100
AcDbLine
 10
3369.758161717453
 20
303.3359139096069
 30
0.0
 11
3369.758161717453
 21
1099.222765077575
 31
0.0
  0
LINE
  5
1F8
330
1F
100
AcDbEntity
  8
0-4_枠
  6
Continuous
 62
    40
370
    15
100
AcDbLine
 10
3332.258161717453
 20
303.3359139096069
 30
0.0
 11
3332.258161717453
 21
1099.222765077575
 31
0.0
  0
LINE
  5
1F9
330
1F
100
AcDbEntity
  8
0-4_枠
  6
Continuous
 62
    40
370
    15
100
AcDbLine
 10
3017.258161717453
 20
1099.222765077575
 30
0.0
 11
3017.258161717453
 21
843.2503032426591
 31
0.0
  0
LINE
  5
1FA
330
1F
100
AcDbEntity
  8
0-4_枠
  6
Continuous
 62
    40
370
    15
100
AcDbLine
 10
2979.758161717453
 20
1099.222765077575
 30
0.0
 11
2979.758161717453
 21
880.7503032426591
 31
0.0
  0
LINE
  5
1FB
330
1F
100
AcDbEntity
  8
0-4_枠
  6
Continuous
 62
    40
370
    15
100
AcDbLine
 10
3017.258161717453
 20
303.3359139096069
 30
0.0
 11
3017.258161717453
 21
528.2503032426583
 31
0.0
  0
LINE
  5
1FC
330
1F
100
AcDbEntity
  8
0-4_枠
  6
Continuous
 62
    40
370
    15
100
AcDbLine
 10
287.2581617174532
 20
528.2503032426583
 30
0.0
 11
3017.258161717453
 21
528.2503032426583
 31
0.0
  0
LINE
  5
1FD
330
1F
100
AcDbEntity
  8
0-4_枠
  6
Continuous
 62
    40
370
    15
100
AcDbLine
 10
249.7581617174532
 20
490.7503032426592
 30
0.0
 11
2979.758161717453
 21
490.7503032426592
 31
0.0
  0
LINE
  5
1FE
330
1F
100
AcDbEntity
  8
0-4_枠
  6
Continuous
 62
    40
370
    15
100
AcDbLine
 10
2979.758161717453
 20
303.3359139096069
 30
0.0
 11
2979.758161717453
 21
490.7503032426592
 31
0.0
  0
LINE
  5
1FF
330
1F
100
AcDbEntity
  8
0-4_枠
  6
Continuous
 62
    92
370
    13
100
AcDbLine
 10
-2196.999197595426
 20
280.7503032426592
 30
0.0
 11
-2201.241838282546
 21
284.9929439297787
 31
0.0
  0
LINE
  5
200
330
1F
100
AcDbEntity
  8
0-4_枠
  6
Continuous
 62
    92
370
    13
100
AcDbLine
 10
-2201.241838282546
 20
284.9929439297787
 30
0.0
 11
-2201.241838282546
 21
490.7503032426592
 31
0.0
  0
LINE
  5
201
330
1F
100
AcDbEntity
  8
0-4_枠
  6
Continuous
 62
   120
370
     5
100
AcDbLine
 10
-2201.241838282546
 20
328.4778926119704
 30
0.0
 11
-2153.514248913234
 21
280.7503032426592
 31
0.0
  0
LINE
  5
202
330
1F
100
AcDbEntity
  8
0-4_枠
  6
Continuous
 62
   120
370
     5
100
AcDbLine
 10
-2201.241838282546
 20
307.2646891763679
 30
0.0
 11
-2174.727452348836
 21
280.7503032426592
 31
0.0
  0
LINE
  5
203
330
1F
100
AcDbEntity
  8
0-4_枠
  6
Continuous
 62
    92
370
    13
100
AcDbLine
 10
-2201.241838282546
 20
355.7503032426592
 30
0.0
 11
-2336.241838282546
 21
355.7503032426592
 31
0.0
  0
LINE
  5
204
330
1F
100
AcDbEntity
  8
0-4_枠
  6
Continuous
 62
    92
370
    13
100
AcDbLine
 10
-2201.241838282546
 20
318.2503032426592
 30
0.0
 11
-2373.741838282546
 21
318.2503032426592
 31
0.0
  0
LINE
  5
205
330
1F
100
AcDbEntity
  8
0-4_枠
  6
Continuous
 62
    92
370
    13
100
AcDbLine
 10
-2373.741838282546
 20
318.2503032426592
 30
0.0
 11
-2373.741838282546
 21
490.7503032426592
 31
0.0
  0
LINE
  5
206
330
1F
100
AcDbEntity
  8
0-4_枠
  6
Continuous
 62
    92
370
    13
100
AcDbLine
 10
-2336.241838282546
 20
490.7503032426592
 30
0.0
 11
-2201.241838282546
 21
355.7503032426592
 31
0.0
  0
LINE
  5
207
330
1F
100
AcDbEntity
  8
0-4_枠
  6
Continuous
 62
    92
370
    13
100
AcDbLine
 10
-2201.241838282546
 20
490.7503032426592
 30
0.0
 11
-2336.241838282546
 21
355.7503032426592
 31
0.0
  0
LINE
  5
208
330
1F
100
AcDbEntity
  8
0-4_枠
  6
Continuous
 62
   120
370
     5
100
AcDbLine
 10
-2090.241838282547
 20
996.9864422760041
 30
0.0
 11
-2054.241838282542
 21
996.9864422760041
 31
0.0
  0
LWPOLYLINE
  5
209
330
1F
100
AcDbEntity
  8
0-4_枠
  6
Continuous
 62
     7
370
     9
100
AcDbPolyline
 90
        4
 70
     1
 43
3.0
 10
-2088.741838282547
 20
996.9864422760041
 42
0.4142135623731
 10
-2090.241838282547
 20
998.4864422760041
 42
0.4142135623731
 10
-2091.741838282547
 20
996.9864422760041
 42
0.4142135623731
 10
-2090.241838282547
 20
995.4864422760043
 42
0.4142135623731
  0
LWPOLYLINE
  5
20A
330
1F
100
AcDbEntity
  8
0-4_枠
  6
Continuous
 62
     7
370
     9
100
AcDbPolyline
 90
        4
 70
     1
 43
3.0
 10
-2052.741838282542
 20
996.9864422760041
 42
0.4142135623731
 10
-2054.241838282542
 20
998.4864422760041
 42
0.4142135623731
 10
-2055.741838282542
 20
996.9864422760041
 42
0.4142135623731
 10
-2054.241838282542
 20
995.4864422760043
 42
0.4142135623731
  0
LINE
  5
20B
330
1F
100
AcDbEntity
  8
0-4_枠
  6
Continuous
 62
   120
370
     5
100
AcDbLine
 10
-2090.241838282547
 20
1143.549119530684
 30
0.0
 11
-2090.241838282547
 21
923.7051036486644
 31
0.0
  0
LINE
  5
20C
330
1F
100
AcDbEntity
  8
0-4_枠
  6
Continuous
 62
   120
370
     5
100
AcDbLine
 10
-2054.241838282542
 20
996.9864422760041
 30
0.0
 11
-2054.241838282542
 21
923.7051036486644
 31
0.0
  0
MTEXT
  5
20D
330
1F
100
AcDbEntity
  8
0-4_枠
  6
Continuous
 62
     7
370
   211
100
AcDbMText
 10
-2120.991838282544
 20
1004.133942276004
 30
0.0
 40
74.295
 41
97.5
 46
0.0
 71
     7
 72
     1
  1
{\fＭＳ ゴシック|b0|i0|c128|p49;12}
 73
     1
 44
1.0
  0
LINE
  5
20E
330
1F
100
AcDbEntity
  8
0-4_枠
  6
Continuous
 62
   120
370
     5
100
AcDbLine
 10
-2054.241838282542
 20
996.9864422760041
 30
0.0
 11
213.7581617174587
 21
996.9864422760041
 31
0.0
  0
LWPOLYLINE
  5
20F
330
1F
100
AcDbEntity
  8
0-4_枠
  6
Continuous
 62
     7
370
     9
100
AcDbPolyline
 90
        4
 70
     1
 43
3.0
 10
215.2581617174587
 20
996.9864422760041
 42
0.4142135623731
 10
213.7581617174587
 20
998.4864422760041
 42
0.4142135623731
 10
212.2581617174587
 20
996.9864422760041
 42
0.4142135623731
 10
213.7581617174587
 20
995.4864422760043
 42
0.4142135623731
  0
LINE
  5
210
330
1F
100
AcDbEntity
  8
0-4_枠
  6
Continuous
 62
   120
370
     5
100
AcDbLine
 10
213.7581617174587
 20
996.9864422760041
 30
0.0
 11
213.7581617174587
 21
923.7051036486644
 31
0.0
  0
LINE
  5
211
330
1F
100
AcDbEntity
  8
0-4_枠
  6
Continuous
 62
   120
370
     5
100
AcDbLine
 10
213.7581617174587
 20
996.9864422760041
 30
0.0
 11
249.7581617174532
 21
996.9864422760041
 31
0.0
  0
LWPOLYLINE
  5
212
330
1F
100
AcDbEntity
  8
0-4_枠
  6
Continuous
 62
     7
370
     9
100
AcDbPolyline
 90
        4
 70
     1
 43
3.0
 10
251.2581617174532
 20
996.9864422760041
 42
0.4142135623731
 10
249.7581617174532
 20
998.4864422760041
 42
0.4142135623731
 10
248.2581617174532
 20
996.9864422760041
 42
0.4142135623731
 10
249.7581617174532
 20
995.4864422760043
 42
0.4142135623731
  0
LINE
  5
213
330
1F
100
AcDbEntity
  8
0-4_枠
  6
Continuous
 62
   120
370
     5
100
AcDbLine
 10
249.7581617174532
 20
1143.549119530684
 30
0.0
 11
249.7581617174532
 21
923.7051036486644
 31
0.0
  0
MTEXT
  5
214
330
1F
100
AcDbEntity
  8
0-4_枠
  6
Continuous
 62
     7
370
   211
100
AcDbMText
 10
183.0081617174559
 20
1004.133942276004
 30
0.0
 40
74.295
 41
97.5
 46
0.0
 71
     7
 72
     1
  1
{\fＭＳ ゴシック|b0|i0|c128|p49;12}
 73
     1
 44
1.0
  0
LINE
  5
215
330
1F
100
AcDbEntity
  8
0-4_枠
  6
Continuous
 62
   120
370
     5
100
AcDbLine
 10
-2090.241838282547
 20
1143.549119530684
 30
0.0
 11
249.7581617174532
 21
1143.549119530684
 31
0.0
  0
LWPOLYLINE
  5
216
330
1F
100
AcDbEntity
  8
0-4_枠
  6
Continuous
 62
     7
370
     9
100
AcDbPolyline
 90
        4
 70
     1
 43
3.0
 10
-2088.741838282547
 20
1143.549119530684
 42
0.4142135623731
 10
-2090.241838282547
 20
1145.049119530684
 42
0.4142135623731
 10
-2091.741838282547
 20
1143.549119530684
 42
0.4142135623731
 10
-2090.241838282547
 20
1142.049119530684
 42
0.4142135623731
  0
LWPOLYLINE
  5
217
330
1F
100
AcDbEntity
  8
0-4_枠
  6
Continuous
 62
     7
370
     9
100
AcDbPolyline
 90
        4
 70
     1
 43
3.0
 10
251.2581617174532
 20
1143.549119530684
 42
0.4142135623731
 10
249.7581617174532
 20
1145.049119530684
 42
0.4142135623731
 10
248.2581617174532
 20
1143.549119530684
 42
0.4142135623731
 10
249.7581617174532
 20
1142.049119530684
 42
0.4142135623731
  0
MTEXT
  5
218
330
1F
100
AcDbEntity
  8
0-4_枠
  6
Continuous
 62
     7
370
   211
100
AcDbMText
 10
-995.2418382825467
 20
1151.649119530684
 30
0.0
 40
76.19999999999999
 41
150.0
 46
0.0
 71
     7
 72
     1
  1
{\fＭＳ ゴシック|b0|i0|c128|p49;780}
 73
     1
 44
1.0
  0
MTEXT
  5
219
330
1F
100
AcDbEntity
  8
0-4_枠
  6
Continuous
 62
     7
370
   211
100
AcDbMText
 10
-1250.173056318091
 20
1006.551826891389
 30
0.0
 40
79.13076923076923
 41
675.0
 46
0.0
 71
     7
 72
     1
  1
{\fＭＳ ゴシック|b0|i0|c128|p49;有効開口：756}
 73
     1
 44
1.0
  0
LINE
  5
21A
330
1F
100
AcDbEntity
  8
0-4_枠
  6
Continuous
 62
   120
370
     5
100
AcDbLine
 10
-2138.241838282548
 20
164.0625116494669
 30
0.0
 11
-2090.241838282547
 21
164.0625116494669
 31
0.0
  0
LWPOLYLINE
  5
21B
330
1F
100
AcDbEntity
  8
0-4_枠
  6
Continuous
 62
     7
370
     9
100
AcDbPolyline
 90
        4
 70
     1
 43
3.0
 10
-2136.741838282548
 20
164.0625116494669
 42
0.4142135623731
 10
-2138.241838282548
 20
165.5625116494669
 42
0.4142135623731
 10
-2139.741838282547
 20
164.0625116494669
 42
0.4142135623731
 10
-2138.241838282548
 20
162.5625116494669
 42
0.4142135623731
  0
LWPOLYLINE
  5
21C
330
1F
100
AcDbEntity
  8
0-4_枠
  6
Continuous
 62
     7
370
     9
100
AcDbPolyline
 90
        4
 70
     1
 43
3.0
 10
-2088.741838282547
 20
164.0625116494669
 42
0.4142135623731
 10
-2090.241838282547
 20
165.5625116494669
 42
0.4142135623731
 10
-2091.741838282547
 20
164.0625116494669
 42
0.4142135623731
 10
-2090.241838282547
 20
162.5625116494669
 42
0.4142135623731
  0
LINE
  5
21D
330
1F
100
AcDbEntity
  8
0-4_枠
  6
Continuous
 62
   120
370
     5
100
AcDbLine
 10
-2090.241838282547
 20
164.0625116494669
 30
0.0
 11
-2090.241838282547
 21
257.4429247479824
 31
0.0
  0
MTEXT
  5
21E
330
1F
100
AcDbEntity
  8
0-4_枠
  6
Continuous
 62
     7
370
   211
100
AcDbMText
 10
-2079.656454195517
 20
171.2100116494669
 30
0.0
 40
74.295
 41
97.5
 46
0.0
 71
     7
 72
     1
  1
{\fＭＳ ゴシック|b0|i0|c128|p49;16}
 73
     1
 44
1.0
  0
LWPOLYLINE
  5
21F
330
1F
100
AcDbEntity
  8
0-4_枠
  6
Continuous
 62
     7
370
     9
100
AcDbPolyline
 90
        4
 70
     1
 43
3.0
 10
-2199.741838282547
 20
32.3536411582824
 42
0.4142135623731
 10
-2201.241838282546
 20
33.8536411582824
 42
0.4142135623731
 10
-2202.741838282546
 20
32.3536411582824
 42
0.4142135623731
 10
-2201.241838282546
 20
30.8536411582824
 42
0.4142135623731
  0
LINE
  5
220
330
1F
100
AcDbEntity
  8
0-4_枠
  6
Continuous
 62
   120
370
     5
100
AcDbLine
 10
-2201.241838282546
 20
32.3536411582824
 30
0.0
 11
-2201.241838282546
 21
257.4429247479824
 31
0.0
  0
LINE
  5
221
330
1F
100
AcDbEntity
  8
0-4_枠
  6
Continuous
 62
   120
370
     5
100
AcDbLine
 10
-2681.124859629712
 20
385.7503032426583
 30
0.0
 11
-2681.124859629712
 21
490.7503032426592
 31
0.0
  0
LWPOLYLINE
  5
222
330
1F
100
AcDbEntity
  8
0-4_枠
  6
Continuous
 62
     7
370
     9
100
AcDbPolyline
 90
        4
 70
     1
 43
3.0
 10
-2679.624859629712
 20
385.7503032426583
 42
0.4142135623731
 10
-2681.124859629712
 20
387.2503032426583
 42
0.4142135623731
 10
-2682.624859629712
 20
385.7503032426583
 42
0.4142135623731
 10
-2681.124859629712
 20
384.2503032426583
 42
0.4142135623731
  0
LWPOLYLINE
  5
223
330
1F
100
AcDbEntity
  8
0-4_枠
  6
Continuous
 62
     7
370
     9
100
AcDbPolyline
 90
        4
 70
     1
 43
3.0
 10
-2679.624859629712
 20
490.7503032426592
 42
0.4142135623731
 10
-2681.124859629712
 20
492.2503032426592
 42
0.4142135623731
 10
-2682.624859629712
 20
490.7503032426592
 42
0.4142135623731
 10
-2681.124859629712
 20
489.2503032426591
 42
0.4142135623731
  0
LINE
  5
224
330
1F
100
AcDbEntity
  8
0-4_枠
  6
Continuous
 62
   120
370
     5
100
AcDbLine
 10
-2681.124859629712
 20
385.7503032426583
 30
0.0
 11
-2563.139607219049
 21
385.7503032426583
 31
0.0
  0
LINE
  5
225
330
1F
100
AcDbEntity
  8
0-4_枠
  6
Continuous
 62
   120
370
     5
100
AcDbLine
 10
-2681.124859629712
 20
490.7503032426592
 30
0.0
 11
-2563.139607219049
 21
490.7503032426592
 31
0.0
  0
MTEXT
  5
226
330
1F
100
AcDbEntity
  8
0-4_枠
  6
Continuous
 62
     7
370
   211
100
AcDbMText
 10
-2696.124859629712
 20
381.6478032426583
 30
0.0
 40
74.295
 41
97.5
 46
0.0
 71
     7
 72
     1
  1
{\fＭＳ ゴシック|b0|i0|c128|p49;35}
 11
6.123031769111886E-17
 21
1.0
 31
0.0
 73
     1
 44
1.0
  0
MTEXT
  5
227
330
1F
100
AcDbEntity
  8
0-4_枠
  6
Continuous
 62
     7
370
     9
100
AcDbMText
 10
-282.6312719258263
 20
194.0296439627361
 30
0.0
 40
57.15
 41
300.0
 46
0.0
 71
     7
 72
     1
  1
{\fＭＳ ゴシック|b0|i0|c128|p49;振止金具}
 73
     1
 44
1.0
  0
LINE
  5
228
330
1F
100
AcDbEntity
  8
0-4_枠
  6
Continuous
 62
     7
370
     9
100
AcDbLine
 10
-303.3617894749037
 20
184.2971781685656
 30
0.0
 11
38.69175008488156
 21
184.2971781685656
 31
0.0
  0
LINE
  5
229
330
1F
100
AcDbEntity
  8
0-4_枠
  6
Continuous
 62
     7
370
     9
100
AcDbLine
 10
38.69175008488156
 20
184.2971781685656
 30
0.0
 11
256.3621843502
 21
408.1867676986072
 31
0.0
  0
LINE
  5
22A
330
1F
100
AcDbEntity
  8
0-4_枠
  6
Continuous
 62
     7
370
     9
100
AcDbLine
 10
-4659.993153273864
 20
3640.377584338428
 30
0.0
 11
-5666.928448090994
 21
3640.377584338428
 31
0.0
  0
LINE
  5
22B
330
1F
100
AcDbEntity
  8
0-4_枠
  6
Continuous
 62
     7
370
     9
100
AcDbLine
 10
-5666.928448090994
 20
3774.884523710232
 30
0.0
 11
-4659.993153273864
 21
3774.884523710232
 31
0.0
  0
LINE
  5
22C
330
1F
100
AcDbEntity
  8
0-4_枠
  6
Continuous
 62
     7
370
     9
100
AcDbLine
 10
-4659.993153273864
 20
3774.884523710232
 30
0.0
 11
-4659.993153273864
 21
3640.377584338428
 31
0.0
  0
LINE
  5
22D
330
1F
100
AcDbEntity
  8
0-4_枠
  6
Continuous
 62
     7
370
     9
100
AcDbLine
 10
-5666.928448090994
 20
3640.377584338428
 30
0.0
 11
-5666.928448090994
 21
3774.884523710232
 31
0.0
  0
MTEXT
  5
22E
330
1F
100
AcDbEntity
  8
0-4_枠
  6
Continuous
 62
     7
370
     9
100
AcDbMText
 10
-5559.32289659355
 20
3656.189319637916
 30
0.0
 40
78.58125
 41
825.0
 46
0.0
 71
     7
 72
     1
  1
{\fＭＳ ゴシック|b0|i0|c128|p49;通常枠　納まり図}
 73
     1
 44
1.0
  0
LINE
  5
22F
330
1F
100
AcDbEntity
  8
0-4_枠
  6
Continuous
 62
   120
370
     5
100
AcDbLine
 10
-3822.007733640049
 20
3167.782444951548
 30
0.0
 11
-3932.041783554709
 21
3057.748395036889
 31
0.0
  0
LINE
  5
230
330
1F
100
AcDbEntity
  8
0-4_枠
  6
Continuous
 62
   120
370
     5
100
AcDbLine
 10
-3822.007733640058
 20
3379.914479307546
 30
0.0
 11
-4144.173817910674
 21
3057.748395036921
 31
0.0
  0
LINE
  5
231
330
1F
100
AcDbEntity
  8
0-4_枠
  6
Continuous
 62
   120
370
     5
100
AcDbLine
 10
-4176.305852266582
 20
3237.74839503687
 30
0.0
 11
-4242.007733640076
 21
3172.046513663385
 31
0.0
  0
LINE
  5
232
330
1F
100
AcDbEntity
  8
0-4_枠
  6
Continuous
 62
    92
370
    13
100
AcDbLine
 10
-4002.007733640081
 20
3237.748395036879
 30
0.0
 11
-4242.007733640085
 21
3237.748395036879
 31
0.0
  0
LINE
  5
233
330
1F
100
AcDbEntity
  8
0-4_枠
  6
Continuous
 62
    92
370
    13
100
AcDbLine
 10
-3822.007733640092
 20
3477.748395036882
 30
0.0
 11
-4002.007733640081
 21
3477.748395036882
 31
0.0
  0
LINE
  5
234
330
1F
100
AcDbEntity
  8
0-4_枠
  6
Continuous
 62
    92
370
    13
100
AcDbLine
 10
-4002.007733640081
 20
3477.748395036882
 30
0.0
 11
-4002.007733640081
 21
3237.748395036879
 31
0.0
  0
LINE
  5
235
330
1F
100
AcDbEntity
  8
0-4_枠
  6
Continuous
 62
    92
370
    13
100
AcDbLine
 10
-4242.007733640085
 20
3237.748395036879
 30
0.0
 11
-4242.007733640085
 21
3057.74839503688
 31
0.0
  0
LINE
  5
236
330
1F
100
AcDbEntity
  8
0-4_枠
  6
Continuous
 62
    92
370
    13
100
AcDbLine
 10
-3822.007733640092
 20
3117.748395036877
 30
0.0
 11
-3822.007733640092
 21
3477.748395036882
 31
0.0
  0
LINE
  5
237
330
1F
100
AcDbEntity
  8
0-4_枠
  6
Continuous
 62
    92
370
    13
100
AcDbLine
 10
-3882.007733640088
 20
3057.74839503688
 30
0.0
 11
-4242.007733640085
 21
3057.74839503688
 31
0.0
  0
LINE
  5
238
330
1F
100
AcDbEntity
  8
0-4_枠
  6
Continuous
 62
    92
370
    13
100
AcDbLine
 10
-3822.007733640092
 20
3117.748395036877
 30
0.0
 11
-3882.007733640088
 21
3057.74839503688
 31
0.0
  0
LINE
  5
239
330
1F
100
AcDbEntity
  8
0-4_枠
  6
Continuous
 62
   120
370
     5
100
AcDbLine
 10
-3936.305852266596
 20
3477.748395036873
 30
0.0
 11
-4002.007733640081
 21
3412.046513663388
 31
0.0
  0
LINE
  5
23A
330
1F
100
AcDbEntity
  8
0-4_枠
  6
Continuous
 62
   120
370
     5
100
AcDbLine
 10
-4070.239835088565
 20
3237.748395036893
 30
0.0
 11
-4242.007733640067
 21
3065.980496485393
 31
0.0
  0
LINE
  5
23B
330
1F
100
AcDbEntity
  8
0-4_枠
  6
Continuous
 62
   120
370
     5
100
AcDbLine
 10
-3830.239835088596
 20
3477.748395036865
 30
0.0
 11
-4002.007733640107
 21
3305.980496485354
 31
0.0
  0
LINE
  5
23C
330
1F
100
AcDbEntity
  8
0-4_枠
  6
Continuous
 62
   120
370
     5
100
AcDbLine
 10
-3822.007733640058
 20
3273.848462129548
 30
0.0
 11
-4038.107800732691
 21
3057.748395036906
 31
0.0
  0
LINE
  5
23D
330
1F
100
AcDbEntity
  8
0-4_枠
  6
Continuous
 62
    92
370
    13
100
AcDbLine
 10
-4347.007733640084
 20
2502.74839503688
 30
0.0
 11
-4347.007733640084
 21
2922.748395036881
 31
0.0
  0
LINE
  5
23E
330
1F
100
AcDbEntity
  8
0-4_枠
  6
Continuous
 62
    92
370
    13
100
AcDbLine
 10
-3491.067712632734
 20
2922.74839503688
 30
0.0
 11
-4392.007733640085
 21
2922.74839503688
 31
0.0
  0
LINE
  5
23F
330
1F
100
AcDbEntity
  8
0-4_枠
  6
Continuous
 62
    92
370
    13
100
AcDbLine
 10
-4392.007733640085
 20
2502.748395036878
 30
0.0
 11
-4392.007733640085
 21
2922.74839503688
 31
0.0
  0
LINE
  5
240
330
1F
100
AcDbEntity
  8
0-4_枠
  6
Continuous
 62
    92
370
    13
100
AcDbLine
 10
-3491.067712632734
 20
2502.748395036878
 30
0.0
 11
-4392.007733640085
 21
2502.748395036878
 31
0.0
  0
LINE
  5
241
330
1F
100
AcDbEntity
  8
0-4_枠
  6
Continuous
 62
    40
370
    15
100
AcDbLine
 10
-4002.007733640081
 20
3237.748395036879
 30
0.0
 11
-5106.117536118002
 21
3237.748395036879
 31
0.0
  0
LINE
  5
242
330
1F
100
AcDbEntity
  8
0-4_枠
  6
Continuous
 62
    40
370
    15
100
AcDbLine
 10
-4189.50773364009
 20
3425.248395036879
 30
0.0
 11
-5106.117536118002
 21
3425.248395036879
 31
0.0
  0
LINE
  5
243
330
1F
100
AcDbEntity
  8
0-4_枠
  6
Continuous
 62
   120
370
     5
100
AcDbLine
 10
-3607.350126265452
 20
3057.748395036874
 30
0.0
 11
-3607.350126265452
 21
3237.748395036874
 31
0.0
  0
LWPOLYLINE
  5
244
330
1F
100
AcDbEntity
  8
0-4_枠
  6
Continuous
 62
     7
370
     9
100
AcDbPolyline
 90
        4
 70
     1
 43
3.0
 10
-3605.850126265453
 20
3057.748395036874
 42
0.4142135623731
 10
-3607.350126265452
 20
3059.248395036874
 42
0.4142135623731
 10
-3608.850126265452
 20
3057.748395036874
 42
0.4142135623731
 10
-3607.350126265452
 20
3056.248395036874
 42
0.4142135623731
  0
LWPOLYLINE
  5
245
330
1F
100
AcDbEntity
  8
0-4_枠
  6
Continuous
 62
     7
370
     9
100
AcDbPolyline
 90
        4
 70
     1
 43
3.0
 10
-3605.850126265453
 20
3237.748395036874
 42
0.4142135623731
 10
-3607.350126265452
 20
3239.248395036874
 42
0.4142135623731
 10
-3608.850126265452
 20
3237.748395036874
 42
0.4142135623731
 10
-3607.350126265452
 20
3236.248395036874
 42
0.4142135623731
  0
LINE
  5
246
330
1F
100
AcDbEntity
  8
0-4_枠
  6
Continuous
 62
   120
370
     5
100
AcDbLine
 10
-3460.81439172206
 20
3057.748395036874
 30
0.0
 11
-3744.69329132501
 21
3057.748395036874
 31
0.0
  0
LINE
  5
247
330
1F
100
AcDbEntity
  8
0-4_枠
  6
Continuous
 62
   120
370
     5
100
AcDbLine
 10
-3607.350126265452
 20
3237.748395036874
 30
0.0
 11
-3744.69329132501
 21
3237.748395036874
 31
0.0
  0
MTEXT
  5
248
330
1F
100
AcDbEntity
  8
0-4_枠
  6
Continuous
 62
     7
370
   211
100
AcDbMText
 10
-3622.350126265452
 20
3091.145895036874
 30
0.0
 40
74.295
 41
97.5
 46
0.0
 71
     7
 72
     1
  1
{\fＭＳ ゴシック|b0|i0|c128|p49;12}
 11
6.123031769111886E-17
 21
1.0
 31
0.0
 73
     1
 44
1.0
  0
LINE
  5
249
330
1F
100
AcDbEntity
  8
0-4_枠
  6
Continuous
 62
   120
370
     5
100
AcDbLine
 10
-3460.81439172206
 20
3477.748395036873
 30
0.0
 11
-3460.81439172206
 21
3057.748395036874
 31
0.0
  0
LWPOLYLINE
  5
24A
330
1F
100
AcDbEntity
  8
0-4_枠
  6
Continuous
 62
     7
370
     9
100
AcDbPolyline
 90
        4
 70
     1
 43
3.0
 10
-3459.31439172206
 20
3477.748395036873
 42
0.4142135623731
 10
-3460.81439172206
 20
3479.248395036873
 42
0.4142135623731
 10
-3462.31439172206
 20
3477.748395036873
 42
0.4142135623731
 10
-3460.81439172206
 20
3476.248395036874
 42
0.4142135623731
  0
LWPOLYLINE
  5
24B
330
1F
100
AcDbEntity
  8
0-4_枠
  6
Continuous
 62
     7
370
     9
100
AcDbPolyline
 90
        4
 70
     1
 43
3.0
 10
-3459.31439172206
 20
3057.748395036874
 42
0.4142135623731
 10
-3460.81439172206
 20
3059.248395036874
 42
0.4142135623731
 10
-3462.31439172206
 20
3057.748395036874
 42
0.4142135623731
 10
-3460.81439172206
 20
3056.248395036874
 42
0.4142135623731
  0
MTEXT
  5
24C
330
1F
100
AcDbEntity
  8
0-4_枠
  6
Continuous
 62
     7
370
   211
100
AcDbMText
 10
-3475.81439172206
 20
3211.145895036873
 30
0.0
 40
74.295
 41
97.5
 46
0.0
 71
     7
 72
     1
  1
{\fＭＳ ゴシック|b0|i0|c128|p49;28}
 11
6.123031769111886E-17
 21
1.0
 31
0.0
 73
     1
 44
1.0
  0
LINE
  5
24D
330
1F
100
AcDbEntity
  8
0-4_枠
  6
Continuous
 62
   120
370
     5
100
AcDbLine
 10
-3460.81439172206
 20
3477.748395036873
 30
0.0
 11
-3744.69329132501
 21
3477.748395036873
 31
0.0
  0
LINE
  5
24E
330
1F
100
AcDbEntity
  8
0-4_枠
  6
Continuous
 62
   120
370
     5
100
AcDbLine
 10
-4872.675817011086
 20
3237.748395036879
 30
0.0
 11
-4872.675817011086
 21
2922.74839503688
 31
0.0
  0
LWPOLYLINE
  5
24F
330
1F
100
AcDbEntity
  8
0-4_枠
  6
Continuous
 62
     7
370
     9
100
AcDbPolyline
 90
        4
 70
     1
 43
3.0
 10
-4871.175817011086
 20
3237.748395036879
 42
0.4142135623731
 10
-4872.675817011086
 20
3239.248395036879
 42
0.4142135623731
 10
-4874.175817011087
 20
3237.748395036879
 42
0.4142135623731
 10
-4872.675817011086
 20
3236.248395036879
 42
0.4142135623731
  0
LWPOLYLINE
  5
250
330
1F
100
AcDbEntity
  8
0-4_枠
  6
Continuous
 62
     7
370
     9
100
AcDbPolyline
 90
        4
 70
     1
 43
3.0
 10
-4871.175817011086
 20
2922.74839503688
 42
0.4142135623731
 10
-4872.675817011086
 20
2924.248395036879
 42
0.4142135623731
 10
-4874.175817011087
 20
2922.74839503688
 42
0.4142135623731
 10
-4872.675817011086
 20
2921.24839503688
 42
0.4142135623731
  0
LINE
  5
251
330
1F
100
AcDbEntity
  8
0-4_枠
  6
Continuous
 62
   120
370
     5
100
AcDbLine
 10
-5012.576554390554
 20
3237.748395036879
 30
0.0
 11
-4616.995159041716
 21
3237.748395036879
 31
0.0
  0
LINE
  5
252
330
1F
100
AcDbEntity
  8
0-4_枠
  6
Continuous
 62
   120
370
     5
100
AcDbLine
 10
-4872.675817011086
 20
2922.74839503688
 30
0.0
 11
-4616.995159041716
 21
2922.74839503688
 31
0.0
  0
MTEXT
  5
253
330
1F
100
AcDbEntity
  8
0-4_枠
  6
Continuous
 62
     7
370
   211
100
AcDbMText
 10
-4887.675817011086
 20
3023.64589503688
 30
0.0
 40
74.295
 41
97.5
 46
0.0
 71
     7
 72
     1
  1
{\fＭＳ ゴシック|b0|i0|c128|p49;21}
 11
6.123031769111886E-17
 21
1.0
 31
0.0
 73
     1
 44
1.0
  0
LINE
  5
254
330
1F
100
AcDbEntity
  8
0-4_枠
  6
Continuous
 62
   120
370
     5
100
AcDbLine
 10
-5012.576554390554
 20
3237.748395036879
 30
0.0
 11
-5012.576554390554
 21
2712.748395036879
 31
0.0
  0
LWPOLYLINE
  5
255
330
1F
100
AcDbEntity
  8
0-4_枠
  6
Continuous
 62
     7
370
     9
100
AcDbPolyline
 90
        4
 70
     1
 43
3.0
 10
-5011.076554390554
 20
3237.748395036879
 42
0.4142135623731
 10
-5012.576554390554
 20
3239.248395036879
 42
0.4142135623731
 10
-5014.076554390554
 20
3237.748395036879
 42
0.4142135623731
 10
-5012.576554390554
 20
3236.248395036879
 42
0.4142135623731
  0
LWPOLYLINE
  5
256
330
1F
100
AcDbEntity
  8
0-4_枠
  6
Continuous
 62
     7
370
     9
100
AcDbPolyline
 90
        4
 70
     1
 43
3.0
 10
-5011.076554390554
 20
2712.748395036879
 42
0.4142135623731
 10
-5012.576554390554
 20
2714.248395036879
 42
0.4142135623731
 10
-5014.076554390554
 20
2712.748395036879
 42
0.4142135623731
 10
-5012.576554390554
 20
2711.248395036879
 42
0.4142135623731
  0
LINE
  5
257
330
1F
100
AcDbEntity
  8
0-4_枠
  6
Continuous
 62
   120
370
     5
100
AcDbLine
 10
-5012.576554390554
 20
2712.748395036879
 30
0.0
 11
-4616.995159041716
 21
2712.748395036879
 31
0.0
  0
MTEXT
  5
258
330
1F
100
AcDbEntity
  8
0-4_枠
  6
Continuous
 62
     7
370
   211
100
AcDbMText
 10
-5027.576554390554
 20
2918.645895036879
 30
0.0
 40
74.295
 41
97.5
 46
0.0
 71
     7
 72
     1
  1
{\fＭＳ ゴシック|b0|i0|c128|p49;35}
 11
6.123031769111886E-17
 21
1.0
 31
0.0
 73
     1
 44
1.0
  0
LINE
  5
259
330
1F
100
AcDbEntity
  8
0-4_枠
  6
Continuous
 62
   120
370
     5
100
AcDbLine
 10
-4347.007733640084
 20
2208.356870479739
 30
0.0
 11
-4002.007733640081
 21
2208.356870479739
 31
0.0
  0
LWPOLYLINE
  5
25A
330
1F
100
AcDbEntity
  8
0-4_枠
  6
Continuous
 62
     7
370
     9
100
AcDbPolyline
 90
        4
 70
     1
 43
3.0
 10
-4345.507733640084
 20
2208.356870479739
 42
0.4142135623731
 10
-4347.007733640084
 20
2209.856870479739
 42
0.4142135623731
 10
-4348.507733640084
 20
2208.356870479739
 42
0.4142135623731
 10
-4347.007733640084
 20
2206.85687047974
 42
0.4142135623731
  0
LWPOLYLINE
  5
25B
330
1F
100
AcDbEntity
  8
0-4_枠
  6
Continuous
 62
     7
370
     9
100
AcDbPolyline
 90
        4
 70
     1
 43
3.0
 10
-4000.507733640081
 20
2208.356870479739
 42
0.4142135623731
 10
-4002.007733640081
 20
2209.856870479739
 42
0.4142135623731
 10
-4003.507733640081
 20
2208.356870479739
 42
0.4142135623731
 10
-4002.007733640081
 20
2206.85687047974
 42
0.4142135623731
  0
MTEXT
  5
25C
330
1F
100
AcDbEntity
  8
0-4_枠
  6
Continuous
 62
     7
370
   211
100
AcDbMText
 10
-4223.257733640083
 20
2215.504370479739
 30
0.0
 40
74.295
 41
97.5
 46
0.0
 71
     7
 72
     1
  1
{\fＭＳ ゴシック|b0|i0|c128|p49;23}
 73
     1
 44
1.0
  0
LINE
  5
25D
330
1F
100
AcDbEntity
  8
0-4_枠
  6
Continuous
 62
   120
370
     5
100
AcDbLine
 10
-4002.007733640081
 20
2208.356870479739
 30
0.0
 11
-4002.007733640081
 21
3157.507390176203
 31
0.0
  0
LINE
  5
25E
330
1F
100
AcDbEntity
  8
0-4_枠
  6
Continuous
 62
   120
370
     5
100
AcDbLine
 10
-4347.007733640084
 20
2208.356870479739
 30
0.0
 11
-4347.007733640084
 21
2435.590559021693
 31
0.0
  0
LINE
  5
25F
330
1F
100
AcDbEntity
  8
0-4_枠
  6
Continuous
 62
   120
370
     5
100
AcDbLine
 10
-4347.007733640084
 20
2363.222206850367
 30
0.0
 11
-4242.007733640085
 21
2363.222206850367
 31
0.0
  0
LWPOLYLINE
  5
260
330
1F
100
AcDbEntity
  8
0-4_枠
  6
Continuous
 62
     7
370
     9
100
AcDbPolyline
 90
        4
 70
     1
 43
3.0
 10
-4345.507733640084
 20
2363.222206850367
 42
0.4142135623731
 10
-4347.007733640084
 20
2364.722206850367
 42
0.4142135623731
 10
-4348.507733640084
 20
2363.222206850367
 42
0.4142135623731
 10
-4347.007733640084
 20
2361.722206850367
 42
0.4142135623731
  0
LWPOLYLINE
  5
261
330
1F
100
AcDbEntity
  8
0-4_枠
  6
Continuous
 62
     7
370
     9
100
AcDbPolyline
 90
        4
 70
     1
 43
3.0
 10
-4240.507733640085
 20
2363.222206850367
 42
0.4142135623731
 10
-4242.007733640085
 20
2364.722206850367
 42
0.4142135623731
 10
-4243.507733640085
 20
2363.222206850367
 42
0.4142135623731
 10
-4242.007733640085
 20
2361.722206850367
 42
0.4142135623731
  0
MTEXT
  5
262
330
1F
100
AcDbEntity
  8
0-4_枠
  6
Continuous
 62
     7
370
   211
100
AcDbMText
 10
-4317.007733640084
 20
2367.512206850366
 30
0.0
 40
68.5799999999987
 41
44.99999999999915
 46
0.0
 71
     7
 72
     1
  1
{\fＭＳ ゴシック|b0|i0|c128|p49;7}
 73
     1
 44
1.0
  0
LINE
  5
263
330
1F
100
AcDbEntity
  8
0-4_枠
  6
Continuous
 62
   120
370
     5
100
AcDbLine
 10
-4242.007733640085
 20
2363.222206850367
 30
0.0
 11
-4242.007733640085
 21
2996.445288349475
 31
0.0
  0
MTEXT
  5
264
330
1F
100
AcDbEntity
  8
0-4_枠
  6
Continuous
 62
     7
370
     9
100
AcDbMText
 10
-3968.970522543508
 20
2781.032921851273
 30
0.0
 40
77.72400000000007
 41
510.0000000000005
 46
0.0
 71
     7
 72
     1
  1
{\fＭＳ ゴシック|b0|i0|c128|p49;上吊レール}
 73
     1
 44
1.0
  0
MTEXT
  5
265
330
1F
100
AcDbEntity
  8
0-4_枠
  6
Continuous
 62
     7
370
     9
100
AcDbMText
 10
-5417.64214657682
 20
2397.069543443168
 30
0.0
 40
79.29562499999984
 41
832.4999999999983
 46
0.0
 71
     7
 72
     1
  1
{\fＭＳ ゴシック|b0|i0|c128|p49;キャップ厚：３mm}
 73
     1
 44
1.0
  0
LINE
  5
266
330
1F
100
AcDbEntity
  8
0-4_枠
  6
Continuous
 62
     7
370
     9
100
AcDbLine
 10
-4359.254996071169
 20
2676.818399592782
 30
0.0
 11
-4558.267964542317
 21
2378.298946886059
 31
0.0
  0
LINE
  5
267
330
1F
100
AcDbEntity
  8
0-4_枠
  6
Continuous
 62
     7
370
     9
100
AcDbLine
 10
-4558.267964542317
 20
2378.298946886059
 30
0.0
 11
-5432.718886612513
 21
2378.298946886059
 31
0.0
  0
LWPOLYLINE
  5
268
330
1F
100
AcDbEntity
  8
0-4_枠
  6
Continuous
 62
     7
370
     9
100
AcDbPolyline
 90
        4
 70
     1
 43
3.0
 10
-4357.754996071169
 20
2676.818399592782
 42
0.4142135623731
 10
-4359.254996071169
 20
2678.318399592782
 42
0.4142135623731
 10
-4360.754996071169
 20
2676.818399592782
 42
0.4142135623731
 10
-4359.254996071169
 20
2675.318399592782
 42
0.4142135623731
  0
LINE
  5
269
330
1F
100
AcDbEntity
  8
0-4_枠
  6
Continuous
 62
    40
370
    15
100
AcDbLine
 10
-4002.007733640081
 20
3654.39986903097
 30
0.0
 11
-4002.007733640081
 21
3237.748395036879
 31
0.0
  0
LINE
  5
26A
330
1F
100
AcDbEntity
  8
0-4_枠
  6
Continuous
 62
    40
370
    15
100
AcDbLine
 10
-4189.50773364009
 20
3654.39986903097
 30
0.0
 11
-4189.50773364009
 21
3425.248395036879
 31
0.0
  0
LINE
  5
26B
330
1F
100
AcDbEntity
  8
0-4_枠
  6
Continuous
 62
     7
370
     9
100
AcDbLine
 10
-4189.50773364009
 20
3425.248395036879
 30
0.0
 11
-4413.561916996982
 21
3649.302578393772
 31
0.0
  0
LINE
  5
26C
330
1F
100
AcDbEntity
  8
0-4_枠
  6
JWW_DASHED2
 62
    40
370
    15
100
AcDbLine
 10
213.758161717457
 20
2760.250222051466
 30
0.0
 11
213.758161717457
 21
2670.250222051466
 31
0.0
  0
LINE
  5
26D
330
1F
100
AcDbEntity
  8
0-4_枠
  6
Continuous
 62
   200
370
    20
100
AcDbLine
 10
294.7581617174532
 20
2760.250222051466
 30
0.0
 11
294.7581617174532
 21
2670.250222051466
 31
0.0
  0
LINE
  5
26E
330
1F
100
AcDbEntity
  8
0-4_枠
  6
Continuous
 62
   120
370
     5
100
AcDbLine
 10
-2054.24183828254
 20
2806.2570320344
 30
0.0
 11
-2076.248648265472
 21
2784.250222051468
 31
0.0
  0
LINE
  5
26F
330
1F
100
AcDbEntity
  8
0-4_枠
  6
Continuous
 62
   120
370
     5
100
AcDbLine
 10
-2054.241838282542
 20
2848.683438905599
 30
0.0
 11
-2118.675055136665
 21
2784.250222051474
 31
0.0
  0
LINE
  5
270
330
1F
100
AcDbEntity
  8
0-4_枠
  6
Continuous
 62
   120
370
     5
100
AcDbLine
 10
-2125.101462007847
 20
2820.250222051464
 30
0.0
 11
-2138.241838282546
 21
2807.109845776767
 31
0.0
  0
LINE
  5
271
330
1F
100
AcDbEntity
  8
0-4_枠
  6
Continuous
 62
   200
370
    20
100
AcDbLine
 10
3017.258161717453
 20
2857.750222051466
 30
0.0
 11
3017.258161717453
 21
3172.750222051467
 31
0.0
  0
LINE
  5
272
330
1F
100
AcDbEntity
  8
0-4_枠
  6
Continuous
 62
     7
370
     9
100
AcDbLine
 10
3332.258161717453
 20
2857.750222051466
 30
0.0
 11
3017.258161717453
 21
3172.750222051467
 31
0.0
  0
LINE
  5
273
330
1F
100
AcDbEntity
  8
0-4_枠
  6
Continuous
 62
     7
370
     9
100
AcDbLine
 10
3332.258161717453
 20
3172.750222051467
 30
0.0
 11
3017.258161717453
 21
2857.750222051466
 31
0.0
  0
LINE
  5
274
330
1F
100
AcDbEntity
  8
0-4_枠
  6
Continuous
 62
   200
370
    20
100
AcDbLine
 10
602.2581617174515
 20
3172.750222051467
 30
0.0
 11
602.2581617174515
 21
2857.750222051466
 31
0.0
  0
LINE
  5
275
330
1F
100
AcDbEntity
  8
0-4_枠
  6
Continuous
 62
     7
370
     9
100
AcDbLine
 10
602.2581617174515
 20
2857.750222051466
 30
0.0
 11
287.2581617174532
 21
3172.750222051467
 31
0.0
  0
LINE
  5
276
330
1F
100
AcDbEntity
  8
0-4_枠
  6
Continuous
 62
     7
370
     9
100
AcDbLine
 10
602.2581617174515
 20
3172.750222051467
 30
0.0
 11
287.2581617174532
 21
2857.750222051466
 31
0.0
  0
LINE
  5
277
330
1F
100
AcDbEntity
  8
0-4_枠
  6
Continuous
 62
   120
370
     5
100
AcDbLine
 10
249.7581617174498
 20
2855.109845776768
 30
0.0
 11
236.6177854427528
 21
2868.250222051465
 31
0.0
  0
LINE
  5
278
330
1F
100
AcDbEntity
  8
0-4_枠
  6
Continuous
 62
   120
370
     5
100
AcDbLine
 10
297.7581617174505
 20
2807.109845776767
 30
0.0
 11
284.6177854427535
 21
2820.250222051464
 31
0.0
  0
LINE
  5
279
330
1F
100
AcDbEntity
  8
0-4_枠
  6
Continuous
 62
   120
370
     5
100
AcDbLine
 10
249.7581617174532
 20
2833.896642341163
 30
0.0
 11
215.4045820071545
 21
2868.250222051463
 31
0.0
  0
LINE
  5
27A
330
1F
100
AcDbEntity
  8
0-4_枠
  6
Continuous
 62
   120
370
     5
100
AcDbLine
 10
297.7581617174488
 20
2785.896642341169
 30
0.0
 11
263.4045820071466
 21
2820.250222051471
 31
0.0
  0
LINE
  5
27B
330
1F
100
AcDbEntity
  8
0-4_枠
  6
Continuous
 62
   120
370
     5
100
AcDbLine
 10
278.1913785715855
 20
2784.25022205146
 30
0.0
 11
213.758161717457
 21
2848.683438905585
 31
0.0
  0
LINE
  5
27C
330
1F
100
AcDbEntity
  8
0-4_枠
  6
Continuous
 62
   120
370
     5
100
AcDbLine
 10
256.9781751359855
 20
2784.250222051459
 30
0.0
 11
213.758161717457
 21
2827.470235469988
 31
0.0
  0
LINE
  5
27D
330
1F
100
AcDbEntity
  8
0-4_枠
  6
Continuous
 62
   120
370
     5
100
AcDbLine
 10
235.7649717003855
 20
2784.250222051459
 30
0.0
 11
213.7581617174536
 21
2806.257032034391
 31
0.0
  0
LINE
  5
27E
330
1F
100
AcDbEntity
  8
0-4_枠
  6
Continuous
 62
    92
370
    13
100
AcDbLine
 10
225.7581617174512
 20
2784.250222051466
 30
0.0
 11
213.7581617174502
 21
2796.250222051466
 31
0.0
  0
LINE
  5
27F
330
1F
100
AcDbEntity
  8
0-4_枠
  6
Continuous
 62
    92
370
    13
100
AcDbLine
 10
213.7581617174502
 20
2796.250222051466
 30
0.0
 11
213.7581617174502
 21
2868.250222051467
 31
0.0
  0
LINE
  5
280
330
1F
100
AcDbEntity
  8
0-4_枠
  6
Continuous
 62
    92
370
    13
100
AcDbLine
 10
225.7581617174512
 20
2784.250222051466
 30
0.0
 11
297.7581617174522
 21
2784.250222051466
 31
0.0
  0
LINE
  5
281
330
1F
100
AcDbEntity
  8
0-4_枠
  6
Continuous
 62
    92
370
    13
100
AcDbLine
 10
297.7581617174522
 20
2784.250222051466
 30
0.0
 11
297.7581617174522
 21
2820.250222051466
 31
0.0
  0
LINE
  5
282
330
1F
100
AcDbEntity
  8
0-4_枠
  6
Continuous
 62
    92
370
    13
100
AcDbLine
 10
249.7581617174532
 20
2820.250222051466
 30
0.0
 11
249.7581617174532
 21
2868.250222051467
 31
0.0
  0
LINE
  5
283
330
1F
100
AcDbEntity
  8
0-4_枠
  6
Continuous
 62
    92
370
    13
100
AcDbLine
 10
249.7581617174532
 20
2868.250222051467
 30
0.0
 11
213.7581617174502
 21
2868.250222051467
 31
0.0
  0
LINE
  5
284
330
1F
100
AcDbEntity
  8
0-4_枠
  6
Continuous
 62
    92
370
    13
100
AcDbLine
 10
297.7581617174522
 20
2820.250222051466
 30
0.0
 11
249.7581617174532
 21
2820.250222051466
 31
0.0
  0
LINE
  5
285
330
1F
100
AcDbEntity
  8
0-4_枠
  6
Continuous
 62
    40
370
    15
100
AcDbLine
 10
2602.857768205655
 20
3210.250222051467
 30
0.0
 11
249.7581617174532
 21
3210.250222051467
 31
0.0
  0
LINE
  5
286
330
1F
100
AcDbEntity
  8
0-4_枠
  6
Continuous
 62
    40
370
    15
100
AcDbLine
 10
249.7581617174532
 20
3210.250222051467
 30
0.0
 11
249.7581617174532
 21
2820.250222051466
 31
0.0
  0
LINE
  5
287
330
1F
100
AcDbEntity
  8
0-4_枠
  6
Continuous
 62
    92
370
    13
100
AcDbLine
 10
-2090.241838282547
 20
2820.250222051466
 30
0.0
 11
-2138.241838282548
 21
2820.250222051466
 31
0.0
  0
LINE
  5
288
330
1F
100
AcDbEntity
  8
0-4_枠
  6
Continuous
 62
    92
370
    13
100
AcDbLine
 10
-2054.241838282549
 20
2868.250222051467
 30
0.0
 11
-2090.241838282547
 21
2868.250222051467
 31
0.0
  0
LINE
  5
289
330
1F
100
AcDbEntity
  8
0-4_枠
  6
Continuous
 62
    92
370
    13
100
AcDbLine
 10
-2090.241838282547
 20
2868.250222051467
 30
0.0
 11
-2090.241838282547
 21
2820.250222051466
 31
0.0
  0
LINE
  5
28A
330
1F
100
AcDbEntity
  8
0-4_枠
  6
Continuous
 62
    92
370
    13
100
AcDbLine
 10
-2138.241838282548
 20
2820.250222051466
 30
0.0
 11
-2138.241838282548
 21
2784.250222051466
 31
0.0
  0
LINE
  5
28B
330
1F
100
AcDbEntity
  8
0-4_枠
  6
Continuous
 62
    92
370
    13
100
AcDbLine
 10
-2054.241838282549
 20
2796.250222051466
 30
0.0
 11
-2054.241838282549
 21
2868.250222051467
 31
0.0
  0
LINE
  5
28C
330
1F
100
AcDbEntity
  8
0-4_枠
  6
Continuous
 62
    92
370
    13
100
AcDbLine
 10
-2066.241838282548
 20
2784.250222051466
 30
0.0
 11
-2138.241838282548
 21
2784.250222051466
 31
0.0
  0
LINE
  5
28D
330
1F
100
AcDbEntity
  8
0-4_枠
  6
Continuous
 62
    92
370
    13
100
AcDbLine
 10
-2054.241838282549
 20
2796.250222051466
 30
0.0
 11
-2066.241838282548
 21
2784.250222051466
 31
0.0
  0
LINE
  5
28E
330
1F
100
AcDbEntity
  8
0-4_枠
  6
Continuous
 62
   120
370
     5
100
AcDbLine
 10
-2077.10146200785
 20
2868.250222051465
 30
0.0
 11
-2090.241838282547
 21
2855.109845776768
 31
0.0
  0
LINE
  5
28F
330
1F
100
AcDbEntity
  8
0-4_枠
  6
Continuous
 62
   120
370
     5
100
AcDbLine
 10
-2103.888258572244
 20
2820.250222051468
 30
0.0
 11
-2138.241838282544
 21
2785.896642341169
 31
0.0
  0
LINE
  5
290
330
1F
100
AcDbEntity
  8
0-4_枠
  6
Continuous
 62
   120
370
     5
100
AcDbLine
 10
-2055.88825857225
 20
2868.250222051463
 30
0.0
 11
-2090.241838282552
 21
2833.896642341161
 31
0.0
  0
LINE
  5
291
330
1F
100
AcDbEntity
  8
0-4_枠
  6
Continuous
 62
   120
370
     5
100
AcDbLine
 10
-2054.241838282542
 20
2827.47023547
 30
0.0
 11
-2097.461851701069
 21
2784.250222051471
 31
0.0
  0
LINE
  5
292
330
1F
100
AcDbEntity
  8
0-4_枠
  6
Continuous
 62
    40
370
    15
100
AcDbLine
 10
-2090.241838282547
 20
3210.250222051467
 30
0.0
 11
-2537.844537007792
 21
3210.250222051467
 31
0.0
  0
LINE
  5
293
330
1F
100
AcDbEntity
  8
0-4_枠
  6
Continuous
 62
    40
370
    15
100
AcDbLine
 10
-2090.241838282547
 20
3210.250222051467
 30
0.0
 11
-2090.241838282547
 21
2820.250222051466
 31
0.0
  0
LINE
  5
294
330
1F
100
AcDbEntity
  8
0-4_枠
  6
Continuous
 62
    40
370
    15
100
AcDbLine
 10
-2090.241838282547
 20
2820.250222051466
 30
0.0
 11
-2537.844537007792
 21
2820.250222051466
 31
0.0
  0
LINE
  5
295
330
1F
100
AcDbEntity
  8
0-4_枠
  6
Continuous
 62
   200
370
    20
100
AcDbLine
 10
-2135.241838282547
 20
2670.250222051466
 30
0.0
 11
-2135.241838282547
 21
2760.250222051466
 31
0.0
  0
LINE
  5
296
330
1F
100
AcDbEntity
  8
0-4_枠
  6
Continuous
 62
   200
370
    20
100
AcDbLine
 10
-2135.241838282547
 20
2760.250222051466
 30
0.0
 11
294.7581617174532
 21
2760.250222051466
 31
0.0
  0
LINE
  5
297
330
1F
100
AcDbEntity
  8
0-4_枠
  6
Continuous
 62
   200
370
    20
100
AcDbLine
 10
-2135.241838282547
 20
2670.250222051466
 30
0.0
 11
294.7581617174532
 21
2670.250222051466
 31
0.0
  0
LINE
  5
298
330
1F
100
AcDbEntity
  8
0-4_枠
  6
JWW_DASHED2
 62
    40
370
    15
100
AcDbLine
 10
213.758161717457
 20
2760.250222051466
 30
0.0
 11
2643.758161717459
 21
2760.250222051466
 31
0.0
  0
LINE
  5
299
330
1F
100
AcDbEntity
  8
0-4_枠
  6
JWW_DASHED2
 62
    40
370
    15
100
AcDbLine
 10
213.758161717457
 20
2670.250222051466
 30
0.0
 11
2643.758161717459
 21
2670.250222051466
 31
0.0
  0
LINE
  5
29A
330
1F
100
AcDbEntity
  8
0-4_枠
  6
JWW_DASHED2
 62
    40
370
    15
100
AcDbLine
 10
2643.758161717459
 20
2760.250222051466
 30
0.0
 11
2643.758161717459
 21
2670.250222051466
 31
0.0
  0
LINE
  5
29B
330
1F
100
AcDbEntity
  8
0-4_枠
  6
Continuous
 62
    40
370
    15
100
AcDbLine
 10
3369.758161717453
 20
3210.250222051467
 30
0.0
 11
2602.857768205655
 21
3210.250222051467
 31
0.0
  0
LINE
  5
29C
330
1F
100
AcDbEntity
  8
0-4_枠
  6
Continuous
 62
     7
370
     9
100
AcDbLine
 10
-2127.741838282549
 20
3172.750222051467
 30
0.0
 11
-2442.741838282549
 21
2857.750222051466
 31
0.0
  0
LINE
  5
29D
330
1F
100
AcDbEntity
  8
0-4_枠
  6
Continuous
 62
     7
370
     9
100
AcDbLine
 10
-2127.741838282549
 20
2857.750222051466
 30
0.0
 11
-2442.741838282549
 21
3172.750222051467
 31
0.0
  0
LINE
  5
29E
330
1F
100
AcDbEntity
  8
0-4_枠
  6
Continuous
 62
   200
370
    20
100
AcDbLine
 10
-2442.741838282549
 20
2857.750222051466
 30
0.0
 11
-2442.741838282549
 21
3172.750222051467
 31
0.0
  0
LINE
  5
29F
330
1F
100
AcDbEntity
  8
0-4_枠
  6
Continuous
 62
    40
370
    15
100
AcDbLine
 10
-2127.741838282549
 20
3172.750222051467
 30
0.0
 11
-2537.844537007792
 21
3172.750222051467
 31
0.0
  0
LINE
  5
2A0
330
1F
100
AcDbEntity
  8
0-4_枠
  6
Continuous
 62
    40
370
    15
100
AcDbLine
 10
-2127.741838282549
 20
3172.750222051467
 30
0.0
 11
-2127.741838282549
 21
2857.750222051466
 31
0.0
  0
LINE
  5
2A1
330
1F
100
AcDbEntity
  8
0-4_枠
  6
Continuous
 62
    40
370
    15
100
AcDbLine
 10
-2127.741838282549
 20
2857.750222051466
 30
0.0
 11
-2537.844537007792
 21
2857.750222051466
 31
0.0
  0
LINE
  5
2A2
330
1F
100
AcDbEntity
  8
0-4_枠
  6
Continuous
 62
    40
370
    15
100
AcDbLine
 10
287.2581617174532
 20
2857.750222051466
 30
0.0
 11
2602.857768205655
 21
2857.750222051466
 31
0.0
  0
LINE
  5
2A3
330
1F
100
AcDbEntity
  8
0-4_枠
  6
Continuous
 62
    40
370
    15
100
AcDbLine
 10
287.2581617174532
 20
3172.750222051467
 30
0.0
 11
287.2581617174532
 21
2857.750222051466
 31
0.0
  0
LINE
  5
2A4
330
1F
100
AcDbEntity
  8
0-4_枠
  6
Continuous
 62
   120
370
     5
100
AcDbLine
 10
-2090.241838282547
 20
3326.486361084811
 30
0.0
 11
-2054.241838282542
 21
3326.486361084811
 31
0.0
  0
LWPOLYLINE
  5
2A5
330
1F
100
AcDbEntity
  8
0-4_枠
  6
Continuous
 62
     7
370
     9
100
AcDbPolyline
 90
        4
 70
     1
 43
3.0
 10
-2088.741838282547
 20
3326.486361084811
 42
0.4142135623731
 10
-2090.241838282547
 20
3327.986361084811
 42
0.4142135623731
 10
-2091.741838282547
 20
3326.486361084811
 42
0.4142135623731
 10
-2090.241838282547
 20
3324.986361084811
 42
0.4142135623731
  0
LWPOLYLINE
  5
2A6
330
1F
100
AcDbEntity
  8
0-4_枠
  6
Continuous
 62
     7
370
     9
100
AcDbPolyline
 90
        4
 70
     1
 43
3.0
 10
-2052.741838282542
 20
3326.486361084811
 42
0.4142135623731
 10
-2054.241838282542
 20
3327.986361084811
 42
0.4142135623731
 10
-2055.741838282542
 20
3326.486361084811
 42
0.4142135623731
 10
-2054.241838282542
 20
3324.986361084811
 42
0.4142135623731
  0
LINE
  5
2A7
330
1F
100
AcDbEntity
  8
0-4_枠
  6
Continuous
 62
   120
370
     5
100
AcDbLine
 10
-2090.241838282547
 20
3473.04903833949
 30
0.0
 11
-2090.241838282547
 21
3253.205022457472
 31
0.0
  0
LINE
  5
2A8
330
1F
100
AcDbEntity
  8
0-4_枠
  6
Continuous
 62
   120
370
     5
100
AcDbLine
 10
-2054.241838282542
 20
3326.486361084811
 30
0.0
 11
-2054.241838282542
 21
3253.205022457472
 31
0.0
  0
MTEXT
  5
2A9
330
1F
100
AcDbEntity
  8
0-4_枠
  6
Continuous
 62
     7
370
   211
100
AcDbMText
 10
-2120.991838282544
 20
3333.633861084811
 30
0.0
 40
74.295
 41
97.5
 46
0.0
 71
     7
 72
     1
  1
{\fＭＳ ゴシック|b0|i0|c128|p49;12}
 73
     1
 44
1.0
  0
LINE
  5
2AA
330
1F
100
AcDbEntity
  8
0-4_枠
  6
Continuous
 62
   120
370
     5
100
AcDbLine
 10
-2054.241838282542
 20
3326.486361084811
 30
0.0
 11
213.7581617174587
 21
3326.486361084811
 31
0.0
  0
LWPOLYLINE
  5
2AB
330
1F
100
AcDbEntity
  8
0-4_枠
  6
Continuous
 62
     7
370
     9
100
AcDbPolyline
 90
        4
 70
     1
 43
3.0
 10
215.2581617174587
 20
3326.486361084811
 42
0.4142135623731
 10
213.7581617174587
 20
3327.986361084811
 42
0.4142135623731
 10
212.2581617174587
 20
3326.486361084811
 42
0.4142135623731
 10
213.7581617174587
 20
3324.986361084811
 42
0.4142135623731
  0
LINE
  5
2AC
330
1F
100
AcDbEntity
  8
0-4_枠
  6
Continuous
 62
   120
370
     5
100
AcDbLine
 10
213.7581617174587
 20
3326.486361084811
 30
0.0
 11
213.7581617174587
 21
3253.205022457472
 31
0.0
  0
LINE
  5
2AD
330
1F
100
AcDbEntity
  8
0-4_枠
  6
Continuous
 62
   120
370
     5
100
AcDbLine
 10
213.7581617174587
 20
3326.486361084811
 30
0.0
 11
249.7581617174532
 21
3326.486361084811
 31
0.0
  0
LWPOLYLINE
  5
2AE
330
1F
100
AcDbEntity
  8
0-4_枠
  6
Continuous
 62
     7
370
     9
100
AcDbPolyline
 90
        4
 70
     1
 43
3.0
 10
251.2581617174532
 20
3326.486361084811
 42
0.4142135623731
 10
249.7581617174532
 20
3327.986361084811
 42
0.4142135623731
 10
248.2581617174532
 20
3326.486361084811
 42
0.4142135623731
 10
249.7581617174532
 20
3324.986361084811
 42
0.4142135623731
  0
LINE
  5
2AF
330
1F
100
AcDbEntity
  8
0-4_枠
  6
Continuous
 62
   120
370
     5
100
AcDbLine
 10
249.7581617174532
 20
3473.04903833949
 30
0.0
 11
249.7581617174532
 21
3253.205022457472
 31
0.0
  0
MTEXT
  5
2B0
330
1F
100
AcDbEntity
  8
0-4_枠
  6
Continuous
 62
     7
370
   211
100
AcDbMText
 10
183.0081617174559
 20
3333.633861084811
 30
0.0
 40
74.295
 41
97.5
 46
0.0
 71
     7
 72
     1
  1
{\fＭＳ ゴシック|b0|i0|c128|p49;12}
 73
     1
 44
1.0
  0
LINE
  5
2B1
330
1F
100
AcDbEntity
  8
0-4_枠
  6
Continuous
 62
   120
370
     5
100
AcDbLine
 10
-2090.241838282547
 20
3473.04903833949
 30
0.0
 11
249.7581617174532
 21
3473.04903833949
 31
0.0
  0
LWPOLYLINE
  5
2B2
330
1F
100
AcDbEntity
  8
0-4_枠
  6
Continuous
 62
     7
370
     9
100
AcDbPolyline
 90
        4
 70
     1
 43
3.0
 10
-2088.741838282547
 20
3473.04903833949
 42
0.4142135623731
 10
-2090.241838282547
 20
3474.54903833949
 42
0.4142135623731
 10
-2091.741838282547
 20
3473.04903833949
 42
0.4142135623731
 10
-2090.241838282547
 20
3471.54903833949
 42
0.4142135623731
  0
LWPOLYLINE
  5
2B3
330
1F
100
AcDbEntity
  8
0-4_枠
  6
Continuous
 62
     7
370
     9
100
AcDbPolyline
 90
        4
 70
     1
 43
3.0
 10
251.2581617174532
 20
3473.04903833949
 42
0.4142135623731
 10
249.7581617174532
 20
3474.54903833949
 42
0.4142135623731
 10
248.2581617174532
 20
3473.04903833949
 42
0.4142135623731
 10
249.7581617174532
 20
3471.54903833949
 42
0.4142135623731
  0
MTEXT
  5
2B4
330
1F
100
AcDbEntity
  8
0-4_枠
  6
Continuous
 62
     7
370
   211
100
AcDbMText
 10
-995.2418382825467
 20
3481.14903833949
 30
0.0
 40
76.19999999999999
 41
150.0
 46
0.0
 71
     7
 72
     1
  1
{\fＭＳ ゴシック|b0|i0|c128|p49;780}
 73
     1
 44
1.0
  0
LINE
  5
2B5
330
1F
100
AcDbEntity
  8
0-4_枠
  6
Continuous
 62
    40
370
    15
100
AcDbLine
 10
3369.758161717453
 20
3172.750222051467
 30
0.0
 11
287.2581617174532
 21
3172.750222051467
 31
0.0
  0
LINE
  5
2B6
330
1F
100
AcDbEntity
  8
0-4_枠
  6
Continuous
 62
   200
370
    20
100
AcDbLine
 10
3332.258161717453
 20
2857.750222051466
 30
0.0
 11
3332.258161717453
 21
3172.750222051467
 31
0.0
  0
LINE
  5
2B7
330
1F
100
AcDbEntity
  8
0-4_枠
  6
Continuous
 62
    40
370
    15
100
AcDbLine
 10
2602.857768205655
 20
2857.750222051466
 30
0.0
 11
3369.758161717453
 21
2857.750222051466
 31
0.0
  0
LINE
  5
2B8
330
1F
100
AcDbEntity
  8
0-4_枠
  6
Continuous
 62
    40
370
    15
100
AcDbLine
 10
249.7581617174532
 20
2820.250222051466
 30
0.0
 11
3369.758161717453
 21
2820.250222051466
 31
0.0
  0
MTEXT
  5
2B9
330
1F
100
AcDbEntity
  8
0-4_枠
  6
Continuous
 62
     7
370
     9
100
AcDbMText
 10
-1118.380960510696
 20
2664.512415355172
 30
0.0
 40
78.74000000000001
 41
465.0
 46
0.0
 71
     7
 72
     1
  1
{\fＭＳ ゴシック|b0|i0|c128|p49;ＤＷ：810}
 73
     1
 44
1.0
  0
MTEXT
  5
2BA
330
1F
100
AcDbEntity
  8
0-4_枠
  6
Continuous
 62
     7
370
   211
100
AcDbMText
 10
-1250.173056318091
 20
3336.051745700196
 30
0.0
 40
79.13076923076923
 41
675.0
 46
0.0
 71
     7
 72
     1
  1
{\fＭＳ ゴシック|b0|i0|c128|p49;有効開口：756}
 73
     1
 44
1.0
  0
LINE
  5
2BB
330
1F
100
AcDbEntity
  8
0-4_枠
  6
Continuous
 62
     7
370
     9
100
AcDbLine
 10
2619.75816171746
 20
2754.250222051465
 30
0.0
 11
2619.75816171746
 21
2676.250222051466
 31
0.0
  0
LINE
  5
2BC
330
1F
100
AcDbEntity
  8
0-4_枠
  6
Continuous
 62
     7
370
     9
100
AcDbLine
 10
2667.758161717461
 20
2676.250222051466
 30
0.0
 11
2619.75816171746
 21
2676.250222051466
 31
0.0
  0
LINE
  5
2BD
330
1F
100
AcDbEntity
  8
0-4_枠
  6
Continuous
 62
     7
370
     9
100
AcDbLine
 10
2667.758161717461
 20
2754.250222051465
 30
0.0
 11
2619.75816171746
 21
2754.250222051465
 31
0.0
  0
LINE
  5
2BE
330
1F
100
AcDbEntity
  8
0-4_枠
  6
Continuous
 62
     7
370
     9
100
AcDbLine
 10
2625.251801076395
 20
2754.250222051465
 30
0.0
 11
2619.75816171746
 21
2748.756582692531
 31
0.0
  0
LINE
  5
2BF
330
1F
100
AcDbEntity
  8
0-4_枠
  6
Continuous
 62
     7
370
     9
100
AcDbLine
 10
2637.979723137752
 20
2754.250222051465
 30
0.0
 11
2619.75816171746
 21
2736.028660631174
 31
0.0
  0
LINE
  5
2C0
330
1F
100
AcDbEntity
  8
0-4_枠
  6
Continuous
 62
     7
370
     9
100
AcDbLine
 10
2650.70764519911
 20
2754.250222051465
 30
0.0
 11
2619.75816171746
 21
2723.300738569816
 31
0.0
  0
LINE
  5
2C1
330
1F
100
AcDbEntity
  8
0-4_枠
  6
Continuous
 62
     7
370
     9
100
AcDbLine
 10
2663.435567260468
 20
2754.250222051465
 30
0.0
 11
2619.75816171746
 21
2710.572816508457
 31
0.0
  0
LINE
  5
2C2
330
1F
100
AcDbEntity
  8
0-4_枠
  6
Continuous
 62
     7
370
     9
100
AcDbLine
 10
2667.758161717461
 20
2745.8448944471
 30
0.0
 11
2619.75816171746
 21
2697.844894447101
 31
0.0
  0
LINE
  5
2C3
330
1F
100
AcDbEntity
  8
0-4_枠
  6
Continuous
 62
     7
370
     9
100
AcDbLine
 10
2667.758161717461
 20
2733.116972385742
 30
0.0
 11
2619.75816171746
 21
2685.116972385742
 31
0.0
  0
LINE
  5
2C4
330
1F
100
AcDbEntity
  8
0-4_枠
  6
Continuous
 62
     7
370
     9
100
AcDbLine
 10
2667.758161717461
 20
2720.389050324385
 30
0.0
 11
2623.619333444542
 21
2676.250222051466
 31
0.0
  0
LINE
  5
2C5
330
1F
100
AcDbEntity
  8
0-4_枠
  6
Continuous
 62
     7
370
     9
100
AcDbLine
 10
2667.758161717461
 20
2707.661128263027
 30
0.0
 11
2636.347255505899
 21
2676.250222051466
 31
0.0
  0
LINE
  5
2C6
330
1F
100
AcDbEntity
  8
0-4_枠
  6
Continuous
 62
     7
370
     9
100
AcDbLine
 10
2667.758161717461
 20
2694.933206201669
 30
0.0
 11
2649.075177567257
 21
2676.250222051466
 31
0.0
  0
LINE
  5
2C7
330
1F
100
AcDbEntity
  8
0-4_枠
  6
Continuous
 62
     7
370
     9
100
AcDbLine
 10
2667.758161717461
 20
2682.205284140311
 30
0.0
 11
2661.803099628615
 21
2676.250222051466
 31
0.0
  0
LINE
  5
2C8
330
1F
100
AcDbEntity
  8
0-4_枠
  6
Continuous
 62
    92
370
    13
100
AcDbLine
 10
-2168.241838282548
 20
2673.250222051466
 30
0.0
 11
-2168.241838282548
 21
2757.250222051466
 31
0.0
  0
LINE
  5
2C9
330
1F
100
AcDbEntity
  8
0-4_枠
  6
Continuous
 62
    92
370
    13
100
AcDbLine
 10
-2159.241838282547
 20
2673.250222051466
 30
0.0
 11
-2159.241838282547
 21
2757.250222051466
 31
0.0
  0
LINE
  5
2CA
330
1F
100
AcDbEntity
  8
0-4_枠
  6
Continuous
 62
    92
370
    13
100
AcDbLine
 10
2676.758161717459
 20
2757.250222051466
 30
0.0
 11
-2168.241838282548
 21
2757.250222051466
 31
0.0
  0
LINE
  5
2CB
330
1F
100
AcDbEntity
  8
0-4_枠
  6
Continuous
 62
    92
370
    13
100
AcDbLine
 10
2676.758161717459
 20
2757.250222051466
 30
0.0
 11
2676.758161717459
 21
2673.250222051466
 31
0.0
  0
LINE
  5
2CC
330
1F
100
AcDbEntity
  8
0-4_枠
  6
Continuous
 62
    92
370
    13
100
AcDbLine
 10
2676.758161717459
 20
2673.250222051466
 30
0.0
 11
-2168.241838282548
 21
2673.250222051466
 31
0.0
  0
LINE
  5
2CD
330
1F
100
AcDbEntity
  8
0-4_枠
  6
Continuous
 62
    92
370
    13
100
AcDbLine
 10
2667.758161717461
 20
2757.250222051466
 30
0.0
 11
2667.758161717461
 21
2673.250222051466
 31
0.0
  0
LINE
  5
2CE
330
1F
100
AcDbEntity
  8
0-4_枠
  6
Continuous
 62
   120
370
     5
100
AcDbLine
 10
-2168.241838282548
 20
2293.182731256456
 30
0.0
 11
-2159.241838282547
 21
2293.182731256456
 31
0.0
  0
LWPOLYLINE
  5
2CF
330
1F
100
AcDbEntity
  8
0-4_枠
  6
Continuous
 62
     7
370
     9
100
AcDbPolyline
 90
        4
 70
     1
 43
3.0
 10
-2166.741838282548
 20
2293.182731256456
 42
0.4142135623731
 10
-2168.241838282548
 20
2294.682731256456
 42
0.4142135623731
 10
-2169.741838282547
 20
2293.182731256456
 42
0.4142135623731
 10
-2168.241838282548
 20
2291.682731256456
 42
0.4142135623731
  0
LWPOLYLINE
  5
2D0
330
1F
100
AcDbEntity
  8
0-4_枠
  6
Continuous
 62
     7
370
     9
100
AcDbPolyline
 90
        4
 70
     1
 43
3.0
 10
-2157.741838282547
 20
2293.182731256456
 42
0.4142135623731
 10
-2159.241838282547
 20
2294.682731256456
 42
0.4142135623731
 10
-2160.741838282547
 20
2293.182731256456
 42
0.4142135623731
 10
-2159.241838282547
 20
2291.682731256456
 42
0.4142135623731
  0
LINE
  5
2D1
330
1F
100
AcDbEntity
  8
0-4_枠
  6
Continuous
 62
   120
370
     5
100
AcDbLine
 10
-2159.241838282547
 20
2293.182731256456
 30
0.0
 11
2667.758161717461
 21
2293.182731256456
 31
0.0
  0
LWPOLYLINE
  5
2D2
330
1F
100
AcDbEntity
  8
0-4_枠
  6
Continuous
 62
     7
370
     9
100
AcDbPolyline
 90
        4
 70
     1
 43
3.0
 10
2669.258161717461
 20
2293.182731256456
 42
0.4142135623731
 10
2667.758161717461
 20
2294.682731256456
 42
0.4142135623731
 10
2666.258161717461
 20
2293.182731256456
 42
0.4142135623731
 10
2667.758161717461
 20
2291.682731256456
 42
0.4142135623731
  0
LINE
  5
2D3
330
1F
100
AcDbEntity
  8
0-4_枠
  6
Continuous
 62
   120
370
     5
100
AcDbLine
 10
2667.758161717461
 20
2293.182731256456
 30
0.0
 11
2676.758161717459
 21
2293.182731256456
 31
0.0
  0
LWPOLYLINE
  5
2D4
330
1F
100
AcDbEntity
  8
0-4_枠
  6
Continuous
 62
     7
370
     9
100
AcDbPolyline
 90
        4
 70
     1
 43
3.0
 10
2678.258161717459
 20
2293.182731256456
 42
0.4142135623731
 10
2676.758161717459
 20
2294.682731256456
 42
0.4142135623731
 10
2675.25816171746
 20
2293.182731256456
 42
0.4142135623731
 10
2676.758161717459
 20
2291.682731256456
 42
0.4142135623731
  0
MTEXT
  5
2D5
330
1F
100
AcDbEntity
  8
0-4_枠
  6
Continuous
 62
     7
370
   211
100
AcDbMText
 10
2608.053388396766
 20
2297.472731256456
 30
0.0
 40
68.58
 41
45.0
 46
0.0
 71
     7
 72
     1
  1
{\fＭＳ ゴシック|b0|i0|c128|p49;3}
 73
     1
 44
1.0
  0
MTEXT
  5
2D6
330
1F
100
AcDbEntity
  8
0-4_枠
  6
Continuous
 62
     7
370
   211
100
AcDbMText
 10
-2141.024803736255
 20
2297.472731256456
 30
0.0
 40
68.58
 41
45.0
 46
0.0
 71
     7
 72
     1
  1
{\fＭＳ ゴシック|b0|i0|c128|p49;3}
 73
     1
 44
1.0
  0
LINE
  5
2D7
330
1F
100
AcDbEntity
  8
0-4_枠
  6
Continuous
 62
   120
370
     5
100
AcDbLine
 10
-2159.241838282547
 20
2293.182731256456
 30
0.0
 11
-2159.241838282547
 21
2555.560454590241
 31
0.0
  0
LINE
  5
2D8
330
1F
100
AcDbEntity
  8
0-4_枠
  6
Continuous
 62
   120
370
     5
100
AcDbLine
 10
-2168.241838282548
 20
2293.182731256456
 30
0.0
 11
-2168.241838282548
 21
2555.560454590241
 31
0.0
  0
LINE
  5
2D9
330
1F
100
AcDbEntity
  8
0-4_枠
  6
Continuous
 62
   120
370
     5
100
AcDbLine
 10
2667.758161717461
 20
2293.182731256456
 30
0.0
 11
2667.758161717461
 21
2555.560454590241
 31
0.0
  0
LINE
  5
2DA
330
1F
100
AcDbEntity
  8
0-4_枠
  6
Continuous
 62
   120
370
     5
100
AcDbLine
 10
2676.758161717459
 20
2293.182731256456
 30
0.0
 11
2676.758161717459
 21
2555.560454590241
 31
0.0
  0
LWPOLYLINE
  5
2DB
330
1F
100
AcDbEntity
  8
0-4_枠
  6
Continuous
 62
     7
370
     9
100
AcDbPolyline
 90
        4
 70
     1
 43
3.0
 10
-2157.741838282547
 20
2443.115983355438
 42
0.4142135623731
 10
-2159.241838282547
 20
2444.615983355438
 42
0.4142135623731
 10
-2160.741838282547
 20
2443.115983355438
 42
0.4142135623731
 10
-2159.241838282547
 20
2441.615983355438
 42
0.4142135623731
  0
LWPOLYLINE
  5
2DC
330
1F
100
AcDbEntity
  8
0-4_枠
  6
Continuous
 62
     7
370
     9
100
AcDbPolyline
 90
        4
 70
     1
 43
3.0
 10
-2088.741838282547
 20
2443.115983355438
 42
0.4142135623731
 10
-2090.241838282547
 20
2444.615983355438
 42
0.4142135623731
 10
-2091.741838282547
 20
2443.115983355438
 42
0.4142135623731
 10
-2090.241838282547
 20
2441.615983355438
 42
0.4142135623731
  0
LINE
  5
2DD
330
1F
100
AcDbEntity
  8
0-4_枠
  6
Continuous
 62
   120
370
     5
100
AcDbLine
 10
-2090.241838282547
 20
2443.115983355438
 30
0.0
 11
-2090.241838282547
 21
2555.560454590241
 31
0.0
  0
MTEXT
  5
2DE
330
1F
100
AcDbEntity
  8
0-4_枠
  6
Continuous
 62
     7
370
   211
100
AcDbMText
 10
-2077.849808366099
 20
2450.263483355438
 30
0.0
 40
74.295
 41
97.5
 46
0.0
 71
     7
 72
     1
  1
{\fＭＳ ゴシック|b0|i0|c128|p49;23}
 73
     1
 44
1.0
  0
LINE
  5
2DF
330
1F
100
AcDbEntity
  8
0-4_枠
  6
Continuous
 62
   120
370
     5
100
AcDbLine
 10
-2159.241838282547
 20
2443.115983355438
 30
0.0
 11
-1957.763960076027
 21
2443.115983355438
 31
0.0
  0
LINE
  5
2E0
330
1F
100
AcDbEntity
  8
0-4_枠
  6
Continuous
 62
   120
370
     5
100
AcDbLine
 10
-2479.308273130104
 20
2820.250222051466
 30
0.0
 11
-2479.308273130104
 21
2715.250222051466
 31
0.0
  0
LWPOLYLINE
  5
2E1
330
1F
100
AcDbEntity
  8
0-4_枠
  6
Continuous
 62
     7
370
     9
100
AcDbPolyline
 90
        4
 70
     1
 43
3.0
 10
-2477.808273130104
 20
2820.250222051466
 42
0.4142135623731
 10
-2479.308273130104
 20
2821.750222051466
 42
0.4142135623731
 10
-2480.808273130104
 20
2820.250222051466
 42
0.4142135623731
 10
-2479.308273130104
 20
2818.750222051466
 42
0.4142135623731
  0
LWPOLYLINE
  5
2E2
330
1F
100
AcDbEntity
  8
0-4_枠
  6
Continuous
 62
     7
370
     9
100
AcDbPolyline
 90
        4
 70
     1
 43
3.0
 10
-2477.808273130104
 20
2715.250222051466
 42
0.4142135623731
 10
-2479.308273130104
 20
2716.750222051466
 42
0.4142135623731
 10
-2480.808273130104
 20
2715.250222051466
 42
0.4142135623731
 10
-2479.308273130104
 20
2713.750222051466
 42
0.4142135623731
  0
LINE
  5
2E3
330
1F
100
AcDbEntity
  8
0-4_枠
  6
Continuous
 62
   120
370
     5
100
AcDbLine
 10
-2479.308273130104
 20
2820.250222051466
 30
0.0
 11
-2349.318505134863
 21
2820.250222051466
 31
0.0
  0
LINE
  5
2E4
330
1F
100
AcDbEntity
  8
0-4_枠
  6
Continuous
 62
   120
370
     5
100
AcDbLine
 10
-2479.308273130104
 20
2715.250222051466
 30
0.0
 11
-2349.318505134863
 21
2715.250222051466
 31
0.0
  0
MTEXT
  5
2E5
330
1F
100
AcDbEntity
  8
0-4_枠
  6
Continuous
 62
     7
370
   211
100
AcDbMText
 10
-2494.308273130104
 20
2711.147722051466
 30
0.0
 40
74.295
 41
97.5
 46
0.0
 71
     7
 72
     1
  1
{\fＭＳ ゴシック|b0|i0|c128|p49;35}
 11
6.123031769111886E-17
 21
1.0
 31
0.0
 73
     1
 44
1.0
  0
MTEXT
  5
2E6
330
1F
100
AcDbEntity
  8
0-4_枠
  6
Continuous
 62
     7
370
     9
100
AcDbMText
 10
-293.3498917949524
 20
2529.214737211807
 30
0.0
 40
57.15
 41
300.0
 46
0.0
 71
     7
 72
     1
  1
{\fＭＳ ゴシック|b0|i0|c128|p49;振止金具}
 73
     1
 44
1.0
  0
LINE
  5
2E7
330
1F
100
AcDbEntity
  8
0-4_枠
  6
Continuous
 62
     7
370
     9
100
AcDbLine
 10
-314.0804093440298
 20
2519.482271417638
 30
0.0
 11
27.97313021575548
 21
2519.482271417638
 31
0.0
  0
LINE
  5
2E8
330
1F
100
AcDbEntity
  8
0-4_枠
  6
Continuous
 62
     7
370
     9
100
AcDbLine
 10
27.97313021575548
 20
2519.482271417638
 30
0.0
 11
245.6435644810739
 21
2743.37186094768
 31
0.0
  0
LINE
  5
2E9
330
1F
100
AcDbEntity
  8
0-4_枠
  6
Continuous
 62
     7
370
     9
100
AcDbLine
 10
-1703.241838282547
 20
2715.250222051466
 30
0.0
 11
-1547.663990545695
 21
2949.888118091003
 31
0.0
  0
LINE
  5
2EA
330
1F
100
AcDbEntity
  8
0-4_枠
  6
Continuous
 62
     7
370
     9
100
AcDbLine
 10
-1547.663990545695
 20
2949.888118091003
 30
0.0
 11
-1628.241838282547
 21
2715.250222051466
 31
0.0
  0
LINE
  5
2EB
330
1F
100
AcDbEntity
  8
0-4_枠
  6
Continuous
 62
     7
370
     9
100
AcDbLine
 10
-1547.663990545695
 20
2949.888118091003
 30
0.0
 11
-603.4831458104188
 21
2949.888118091003
 31
0.0
  0
MTEXT
  5
2EC
330
1F
100
AcDbEntity
  8
0-4_枠
  6
Continuous
 62
     7
370
     9
100
AcDbMText
 10
-1511.856732960925
 20
2949.874542663211
 30
0.0
 40
78.66529411764706
 41
877.5
 46
0.0
 71
     7
 72
     1
  1
{\fＭＳ ゴシック|b0|i0|c128|p49;4.5Φトリガー用穴}
 73
     1
 44
1.0
  0
CIRCLE
  5
2ED
330
1F
100
AcDbEntity
  8
0-4_枠
  6
Continuous
 62
     7
370
     9
100
AcDbCircle
 10
-2049.909885154386
 20
2806.716384580216
 30
0.0
 40
232.0989222915484
  0
LINE
  5
2EE
330
1F
100
AcDbEntity
  8
0-4_枠
  6
Continuous
 62
     7
370
     9
100
AcDbLine
 10
-2261.943762523269
 20
2901.117362206593
 30
0.0
 11
-3318.288665743579
 21
3127.701150677767
 31
0.0
  0
CIRCLE
  5
2EF
330
1F
100
AcDbEntity
  8
0-4_枠
  6
Continuous
 62
   120
370
     5
100
AcDbCircle
 10
2643.758161717459
 20
2715.250222051466
 30
0.0
 40
6.0
  0
CIRCLE
  5
2F0
330
1F
100
AcDbEntity
  8
0-4_枠
  6
Continuous
 62
   120
370
     5
100
AcDbCircle
 10
-2135.241838282538
 20
2715.250222051466
 30
0.0
 40
6.0
  0
CIRCLE
  5
2F1
330
1F
100
AcDbEntity
  8
0-4_枠
  6
Continuous
 62
   120
370
     5
100
AcDbCircle
 10
-1703.241838282547
 20
2715.250222051466
 30
0.0
 40
6.0
  0
CIRCLE
  5
2F2
330
1F
100
AcDbEntity
  8
0-4_枠
  6
Continuous
 62
   120
370
     5
100
AcDbCircle
 10
-1628.241838282547
 20
2715.250222051466
 30
0.0
 40
6.0
  0
CIRCLE
  5
2F3
330
1F
100
AcDbEntity
  8
0-4_枠
  6
Continuous
 62
   120
370
     5
100
AcDbCircle
 10
2211.758161717458
 20
2715.250222051466
 30
0.0
 40
6.0
  0
CIRCLE
  5
2F4
330
1F
100
AcDbEntity
  8
0-4_枠
  6
Continuous
 62
   120
370
     5
100
AcDbCircle
 10
2136.758161717458
 20
2715.250222051466
 30
0.0
 40
6.0
  0
LINE
  5
2F5
330
1F
100
AcDbEntity
  8
0-4_枠
  6
JWW_CENTER1
 62
   120
370
     5
100
AcDbLine
 10
-3491.067712632734
 20
2712.748395036879
 30
0.0
 11
-4481.918585020163
 21
2712.748395036879
 31
0.0
  0
LINE
  5
2F6
330
1F
100
AcDbEntity
  8
0-4_枠
  6
JWW_CENTER1
 62
   120
370
     5
100
AcDbLine
 10
2797.843092698566
 20
2715.250222051466
 30
0.0
 11
-2281.032816617748
 21
2715.250222051466
 31
0.0
  0
LINE
  5
2F7
330
1F
100
AcDbEntity
  8
0-4_枠
  6
JWW_CENTER1
 62
   120
370
     5
100
AcDbLine
 10
-1703.241838282547
 20
2743.321622487908
 30
0.0
 11
-1703.241838282547
 21
2693.888721252486
 31
0.0
  0
LINE
  5
2F8
330
1F
100
AcDbEntity
  8
0-4_枠
  6
JWW_CENTER1
 62
   120
370
     5
100
AcDbLine
 10
-1628.241838282547
 20
2743.321622487908
 30
0.0
 11
-1628.241838282547
 21
2693.888721252486
 31
0.0
  0
LINE
  5
2F9
330
1F
100
AcDbEntity
  8
0-4_枠
  6
JWW_CENTER1
 62
   120
370
     5
100
AcDbLine
 10
2211.758161717458
 20
2743.321622487908
 30
0.0
 11
2211.758161717458
 21
2693.888721252486
 31
0.0
  0
LINE
  5
2FA
330
1F
100
AcDbEntity
  8
0-4_枠
  6
JWW_CENTER1
 62
   120
370
     5
100
AcDbLine
 10
2136.758161717458
 20
2743.321622487908
 30
0.0
 11
2136.758161717458
 21
2693.888721252486
 31
0.0
  0
LINE
  5
2FB
330
1F
100
AcDbEntity
  8
0-7_金物
  6
Continuous
 62
    92
370
    13
100
AcDbLine
 10
4804.76827618694
 20
-3407.1122289611
 30
0.0
 11
4804.76827618694
 21
-3416.1122289611
 31
0.0
  0
LINE
  5
2FC
330
1F
100
AcDbEntity
  8
0-7_金物
  6
Continuous
 62
    92
370
    13
100
AcDbLine
 10
4759.768276186935
 20
-3416.1122289611
 30
0.0
 11
4804.76827618694
 21
-3416.1122289611
 31
0.0
  0
LINE
  5
2FD
330
1F
100
AcDbEntity
  8
0-7_金物
  6
Continuous
 62
    92
370
    13
100
AcDbLine
 10
4804.76827618694
 20
-3407.1122289611
 30
0.0
 11
4759.768276186935
 21
-3407.1122289611
 31
0.0
  0
ARC
  5
2FE
330
1F
100
AcDbEntity
  8
0-7_金物
  6
Continuous
 62
    92
370
    13
100
AcDbCircle
 10
4759.768276186935
 20
-3407.1122289611
 30
0.0
 40
9.000000000000002
100
AcDbArc
 50
180.0
 51
270.0
  0
LINE
  5
2FF
330
1F
100
AcDbEntity
  8
0-7_金物
  6
Continuous
 62
    92
370
    13
100
AcDbLine
 10
4750.768276186936
 20
-3407.1122289611
 30
0.0
 11
4750.768276186936
 21
-3356.1122289611
 31
0.0
  0
LINE
  5
300
330
1F
100
AcDbEntity
  8
0-7_金物
  6
Continuous
 62
    92
370
    13
100
AcDbLine
 10
4759.768276186935
 20
-3356.1122289611
 30
0.0
 11
4759.768276186935
 21
-3407.1122289611
 31
0.0
  0
LINE
  5
301
330
1F
100
AcDbEntity
  8
0-7_金物
  6
Continuous
 62
    92
370
    13
100
AcDbLine
 10
4759.768276186935
 20
-3356.1122289611
 30
0.0
 11
4750.768276186936
 21
-3356.1122289611
 31
0.0
  0
LINE
  5
302
330
1F
100
AcDbEntity
  8
0-C_ハッチ
  6
Continuous
 62
   120
370
     5
100
AcDbLine
 10
4754.395532580864
 20
-3414.332590873319
 30
0.0
 11
4761.615894493082
 21
-3407.1122289611
 31
0.0
  0
LINE
  5
303
330
1F
100
AcDbEntity
  8
0-C_ハッチ
  6
Continuous
 62
   120
370
     5
100
AcDbLine
 10
4778.071738615781
 20
-3416.1122289611
 30
0.0
 11
4787.071738615779
 21
-3407.1122289611
 31
0.0
  0
LINE
  5
304
330
1F
100
AcDbEntity
  8
0-C_ハッチ
  6
Continuous
 62
   120
370
     5
100
AcDbLine
 10
4790.799660677154
 20
-3416.1122289611
 30
0.0
 11
4799.799660677157
 21
-3407.1122289611
 31
0.0
  0
LINE
  5
305
330
1F
100
AcDbEntity
  8
0-C_ハッチ
  6
Continuous
 62
   120
370
     5
100
AcDbLine
 10
4803.527582738506
 20
-3416.1122289611
 30
0.0
 11
4804.765987716742
 21
-3414.873823982864
 31
0.0
  0
LINE
  5
306
330
1F
100
AcDbEntity
  8
0-C_ハッチ
  6
Continuous
 62
   120
370
     5
100
AcDbLine
 10
4765.343816554428
 20
-3416.1122289611
 30
0.0
 11
4774.34381655443
 21
-3407.1122289611
 31
0.0
  0
LINE
  5
307
330
1F
100
AcDbEntity
  8
0-C_ハッチ
  6
Continuous
 62
   120
370
     5
100
AcDbLine
 10
4750.768276186936
 20
-3379.776081083172
 30
0.0
 11
4759.768276186935
 21
-3370.776081083171
 31
0.0
  0
LINE
  5
308
330
1F
100
AcDbEntity
  8
0-C_ハッチ
  6
Continuous
 62
   120
370
     5
100
AcDbLine
 10
4750.768276186936
 20
-3392.504003144521
 30
0.0
 11
4759.768276186935
 21
-3383.50400314452
 31
0.0
  0
LINE
  5
309
330
1F
100
AcDbEntity
  8
0-C_ハッチ
  6
Continuous
 62
   120
370
     5
100
AcDbLine
 10
4750.768276186936
 20
-3367.048159021796
 30
0.0
 11
4759.768276186935
 21
-3358.048159021795
 31
0.0
  0
LINE
  5
30A
330
1F
100
AcDbEntity
  8
0-C_ハッチ
  6
Continuous
 62
   120
370
     5
100
AcDbLine
 10
4750.768276186936
 20
-3405.231925205868
 30
0.0
 11
4759.768276186935
 21
-3396.231925205871
 31
0.0
  0
LINE
  5
30B
330
1F
100
AcDbEntity
  8
0-4_枠
  6
Continuous
 62
     7
370
     9
100
AcDbLine
 10
4765.018276186939
 20
-3387.612414540968
 30
0.0
 11
4765.018276186939
 21
-3333.612414540968
 31
0.0
  0
LINE
  5
30C
330
1F
100
AcDbEntity
  8
0-4_枠
  6
Continuous
 62
     7
370
     9
100
AcDbLine
 10
4745.51827618694
 20
-3333.612414540968
 30
0.0
 11
4765.018276186939
 21
-3333.612414540968
 31
0.0
  0
LINE
  5
30D
330
1F
100
AcDbEntity
  8
0-4_枠
  6
Continuous
 62
   200
370
    20
100
AcDbLine
 10
4745.51827618694
 20
-3333.612414540968
 30
0.0
 11
4765.018276186939
 21
-3333.612414540968
 31
0.0
  0
LINE
  5
30E
330
1F
100
AcDbEntity
  8
0-4_枠
  6
Continuous
 62
   200
370
    20
100
AcDbLine
 10
4765.018276186939
 20
-3387.612414540968
 30
0.0
 11
4765.018276186939
 21
-3333.612414540968
 31
0.0
  0
LINE
  5
30F
330
1F
100
AcDbEntity
  8
0-4_枠
  6
Continuous
 62
     7
370
     9
100
AcDbLine
 10
5388.240498695591
 20
3783.887585459033
 30
0.0
 11
4602.664414135837
 21
3783.887585459033
 31
0.0
  0
LWPOLYLINE
  5
310
330
1F
100
AcDbEntity
  8
0-4_枠
  6
Continuous
 62
     7
370
     9
100
AcDbPolyline
 90
        4
 70
     1
 43
3.0
 10
4861.76827618694
 20
3920.856718108419
 42
0.4142135623731
 10
4860.26827618694
 20
3922.356718108419
 42
0.4142135623731
 10
4858.768276186939
 20
3920.856718108419
 42
0.4142135623731
 10
4860.26827618694
 20
3919.356718108418
 42
0.4142135623731
  0
LINE
  5
311
330
1F
100
AcDbEntity
  8
0-4_枠
  6
Continuous
 62
   120
370
     5
100
AcDbLine
 10
4860.26827618694
 20
3920.856718108419
 30
0.0
 11
4860.26827618694
 21
3840.332156332261
 31
0.0
  0
LINE
  5
312
330
1F
100
AcDbEntity
  8
0-4_枠
  6
Continuous
 62
   120
370
     5
100
AcDbLine
 10
4860.26827618694
 20
3920.856718108419
 30
0.0
 11
5250.26827618694
 21
3920.856718108419
 31
0.0
  0
LWPOLYLINE
  5
313
330
1F
100
AcDbEntity
  8
0-4_枠
  6
Continuous
 62
     7
370
     9
100
AcDbPolyline
 90
        4
 70
     1
 43
3.0
 10
5251.76827618694
 20
3920.856718108419
 42
0.4142135623731
 10
5250.26827618694
 20
3922.356718108419
 42
0.4142135623731
 10
5248.768276186939
 20
3920.856718108419
 42
0.4142135623731
 10
5250.26827618694
 20
3919.356718108418
 42
0.4142135623731
  0
LINE
  5
314
330
1F
100
AcDbEntity
  8
0-4_枠
  6
Continuous
 62
   120
370
     5
100
AcDbLine
 10
5250.26827618694
 20
3920.856718108419
 30
0.0
 11
5250.26827618694
 21
3840.332156332261
 31
0.0
  0
MTEXT
  5
315
330
1F
100
AcDbEntity
  8
0-4_枠
  6
Continuous
 62
     7
370
   211
100
AcDbMText
 10
4980.26827618694
 20
3928.956718108418
 30
0.0
 40
76.19999999999999
 41
150.0
 46
0.0
 71
     7
 72
     1
  1
{\fＭＳ ゴシック|b0|i0|c128|p49;130}
 73
     1
 44
1.0
  0
LINE
  5
316
330
1F
100
AcDbEntity
  8
0-4_枠
  6
Continuous
 62
     7
370
     9
100
AcDbLine
 10
4615.73831169874
 20
-3416.112414540968
 30
0.0
 11
5388.240498695591
 21
-3416.112414540968
 31
0.0
  0
LINE
  5
317
330
1F
100
AcDbEntity
  8
0-4_枠
  6
Continuous
 62
     7
370
     9
100
AcDbLine
 10
4615.73831169874
 20
-3428.112414540968
 30
0.0
 11
5388.240498695591
 21
-3428.112414540968
 31
0.0
  0
LINE
  5
318
330
1F
100
AcDbEntity
  8
0-4_枠
  6
Continuous
 62
     7
370
     9
100
AcDbLine
 10
4615.73831169874
 20
-3440.112414540967
 30
0.0
 11
5388.240498695591
 21
-3440.112414540967
 31
0.0
  0
LINE
  5
319
330
1F
100
AcDbEntity
  8
0-4_枠
  6
Continuous
 62
     7
370
     9
100
AcDbLine
 10
4615.73831169874
 20
-3452.112414540967
 30
0.0
 11
5388.240498695591
 21
-3452.112414540967
 31
0.0
  0
LINE
  5
31A
330
1F
100
AcDbEntity
  8
0-4_枠
  6
Continuous
 62
    92
370
    13
100
AcDbLine
 10
4824.26827618694
 20
-3416.112414540968
 30
0.0
 11
4824.26827618694
 21
3783.887585459033
 31
0.0
  0
LWPOLYLINE
  5
31B
330
1F
100
AcDbEntity
  8
0-4_枠
  6
Continuous
 62
     7
370
     9
100
AcDbPolyline
 90
        4
 70
     1
 43
3.0
 10
4825.76827618694
 20
3222.703083095205
 42
0.4142135623731
 10
4824.26827618694
 20
3224.203083095205
 42
0.4142135623731
 10
4822.76827618694
 20
3222.703083095205
 42
0.4142135623731
 10
4824.26827618694
 20
3221.203083095205
 42
0.4142135623731
  0
LINE
  5
31C
330
1F
100
AcDbEntity
  8
0-4_枠
  6
Continuous
 62
   120
370
     5
100
AcDbLine
 10
4824.26827618694
 20
3222.703083095205
 30
0.0
 11
4824.26827618694
 21
3277.168638380101
 31
0.0
  0
LINE
  5
31D
330
1F
100
AcDbEntity
  8
0-4_枠
  6
Continuous
 62
   120
370
     5
100
AcDbLine
 10
4803.26827618694
 20
3222.703083095205
 30
0.0
 11
4932.743910580495
 21
3222.703083095205
 31
0.0
  0
LINE
  5
31E
330
1F
100
AcDbEntity
  8
0-4_枠
  6
Continuous
 62
    92
370
    13
100
AcDbLine
 10
4908.268276186939
 20
-3416.112414540968
 30
0.0
 11
4908.268276186939
 21
3783.887585459033
 31
0.0
  0
LINE
  5
31F
330
1F
100
AcDbEntity
  8
0-4_枠
  6
Continuous
 62
    92
370
    13
100
AcDbLine
 10
4843.768276186939
 20
3761.130226146152
 30
0.0
 11
4843.768276186939
 21
3783.887585459033
 31
0.0
  0
LINE
  5
320
330
1F
100
AcDbEntity
  8
0-4_枠
  6
Continuous
 62
    92
370
    13
100
AcDbLine
 10
4843.768276186939
 20
3761.130226146152
 30
0.0
 11
4848.01091687406
 21
3756.887585459032
 31
0.0
  0
LINE
  5
321
330
1F
100
AcDbEntity
  8
0-4_枠
  6
Continuous
 62
    92
370
    13
100
AcDbLine
 10
4884.525635499821
 20
3756.887585459032
 30
0.0
 11
4848.01091687406
 21
3756.887585459032
 31
0.0
  0
LINE
  5
322
330
1F
100
AcDbEntity
  8
0-4_枠
  6
Continuous
 62
    92
370
    13
100
AcDbLine
 10
4888.768276186939
 20
3761.130226146152
 30
0.0
 11
4888.768276186939
 21
3783.887585459033
 31
0.0
  0
LINE
  5
323
330
1F
100
AcDbEntity
  8
0-4_枠
  6
Continuous
 62
    92
370
    13
100
AcDbLine
 10
4884.525635499821
 20
3756.887585459032
 30
0.0
 11
4888.768276186939
 21
3761.130226146152
 31
0.0
  0
LINE
  5
324
330
1F
100
AcDbEntity
  8
0-4_枠
  6
Continuous
 62
   120
370
     5
100
AcDbLine
 10
4710.26827618694
 20
3222.703083095205
 30
0.0
 11
4800.26827618694
 21
3222.703083095205
 31
0.0
  0
LWPOLYLINE
  5
325
330
1F
100
AcDbEntity
  8
0-4_枠
  6
Continuous
 62
     7
370
     9
100
AcDbPolyline
 90
        4
 70
     1
 43
3.0
 10
4711.76827618694
 20
3222.703083095205
 42
0.4142135623731
 10
4710.26827618694
 20
3224.203083095205
 42
0.4142135623731
 10
4708.768276186939
 20
3222.703083095205
 42
0.4142135623731
 10
4710.26827618694
 20
3221.203083095205
 42
0.4142135623731
  0
LWPOLYLINE
  5
326
330
1F
100
AcDbEntity
  8
0-4_枠
  6
Continuous
 62
     7
370
     9
100
AcDbPolyline
 90
        4
 70
     1
 43
3.0
 10
4801.76827618694
 20
3222.703083095205
 42
0.4142135623731
 10
4800.26827618694
 20
3224.203083095205
 42
0.4142135623731
 10
4798.768276186939
 20
3222.703083095205
 42
0.4142135623731
 10
4800.26827618694
 20
3221.203083095205
 42
0.4142135623731
  0
LINE
  5
327
330
1F
100
AcDbEntity
  8
0-4_枠
  6
Continuous
 62
   120
370
     5
100
AcDbLine
 10
4710.26827618694
 20
3222.703083095205
 30
0.0
 11
4710.26827618694
 21
3319.529558944937
 31
0.0
  0
LINE
  5
328
330
1F
100
AcDbEntity
  8
0-4_枠
  6
Continuous
 62
   120
370
     5
100
AcDbLine
 10
4800.26827618694
 20
3222.703083095205
 30
0.0
 11
4800.26827618694
 21
3319.529558944937
 31
0.0
  0
MTEXT
  5
329
330
1F
100
AcDbEntity
  8
0-4_枠
  6
Continuous
 62
     7
370
   211
100
AcDbMText
 10
4706.51827618694
 20
3229.850583095205
 30
0.0
 40
74.295
 41
97.5
 46
0.0
 71
     7
 72
     1
  1
{\fＭＳ ゴシック|b0|i0|c128|p49;30}
 73
     1
 44
1.0
  0
MTEXT
  5
32A
330
1F
100
AcDbEntity
  8
0-4_枠
  6
Continuous
 62
     7
370
   211
100
AcDbMText
 10
4865.487064564256
 20
3226.993083095206
 30
0.0
 40
68.5800000000026
 41
45.00000000000171
 46
0.0
 71
     7
 72
     1
  1
{\fＭＳ ゴシック|b0|i0|c128|p49;8}
 73
     1
 44
1.0
  0
LINE
  5
32B
330
1F
100
AcDbEntity
  8
0-4_枠
  6
Continuous
 62
   120
370
     5
100
AcDbLine
 10
4413.685651681776
 20
-3390.612414540968
 30
0.0
 11
4413.685651681776
 21
-3416.112414540967
 31
0.0
  0
LWPOLYLINE
  5
32C
330
1F
100
AcDbEntity
  8
0-4_枠
  6
Continuous
 62
     7
370
     9
100
AcDbPolyline
 90
        4
 70
     1
 43
3.0
 10
4415.185651681776
 20
-3416.112414540967
 42
0.4142135623731
 10
4413.685651681776
 20
-3414.612414540967
 42
0.4142135623731
 10
4412.185651681775
 20
-3416.112414540967
 42
0.4142135623731
 10
4413.685651681776
 20
-3417.612414540967
 42
0.4142135623731
  0
LINE
  5
32D
330
1F
100
AcDbEntity
  8
0-4_枠
  6
Continuous
 62
   120
370
     5
100
AcDbLine
 10
4246.787912375465
 20
-3416.112414540967
 30
0.0
 11
4564.608728604852
 21
-3416.112414540967
 31
0.0
  0
LWPOLYLINE
  5
32E
330
1F
100
AcDbEntity
  8
0-4_枠
  6
Continuous
 62
     7
370
     9
100
AcDbPolyline
 90
        4
 70
     1
 43
3.0
 10
4415.185651681776
 20
3692.387585459033
 42
0.4142135623731
 10
4413.685651681776
 20
3693.887585459033
 42
0.4142135623731
 10
4412.185651681775
 20
3692.387585459033
 42
0.4142135623731
 10
4413.685651681776
 20
3690.887585459033
 42
0.4142135623731
  0
LINE
  5
32F
330
1F
100
AcDbEntity
  8
0-4_枠
  6
Continuous
 62
   120
370
     5
100
AcDbLine
 10
4413.685651681776
 20
3692.387585459033
 30
0.0
 11
4564.608728604853
 21
3692.387585459033
 31
0.0
  0
LINE
  5
330
330
1F
100
AcDbEntity
  8
0-4_枠
  6
Continuous
 62
   120
370
     5
100
AcDbLine
 10
4413.685651681776
 20
3692.387585459033
 30
0.0
 11
4413.685651681776
 21
3714.887585459032
 31
0.0
  0
LWPOLYLINE
  5
331
330
1F
100
AcDbEntity
  8
0-4_枠
  6
Continuous
 62
     7
370
     9
100
AcDbPolyline
 90
        4
 70
     1
 43
3.0
 10
4415.185651681776
 20
3714.887585459032
 42
0.4142135623731
 10
4413.685651681776
 20
3716.387585459032
 42
0.4142135623731
 10
4412.185651681775
 20
3714.887585459032
 42
0.4142135623731
 10
4413.685651681776
 20
3713.387585459032
 42
0.4142135623731
  0
LINE
  5
332
330
1F
100
AcDbEntity
  8
0-4_枠
  6
Continuous
 62
   120
370
     5
100
AcDbLine
 10
4413.685651681776
 20
3714.887585459032
 30
0.0
 11
4564.608728604853
 21
3714.887585459032
 31
0.0
  0
LINE
  5
333
330
1F
100
AcDbEntity
  8
0-4_枠
  6
Continuous
 62
   120
370
     5
100
AcDbLine
 10
4413.685651681776
 20
3692.387585459033
 30
0.0
 11
4413.685651681776
 21
-3390.612414540968
 31
0.0
  0
LWPOLYLINE
  5
334
330
1F
100
AcDbEntity
  8
0-4_枠
  6
Continuous
 62
     7
370
     9
100
AcDbPolyline
 90
        4
 70
     1
 43
3.0
 10
4415.185651681776
 20
3783.887585459033
 42
0.4142135623731
 10
4413.685651681776
 20
3785.387585459033
 42
0.4142135623731
 10
4412.185651681775
 20
3783.887585459033
 42
0.4142135623731
 10
4413.685651681776
 20
3782.387585459033
 42
0.4142135623731
  0
LINE
  5
335
330
1F
100
AcDbEntity
  8
0-4_枠
  6
Continuous
 62
   120
370
     5
100
AcDbLine
 10
4246.787912375466
 20
3783.887585459033
 30
0.0
 11
4564.608728604853
 21
3783.887585459033
 31
0.0
  0
MTEXT
  5
336
330
1F
100
AcDbEntity
  8
0-4_枠
  6
Continuous
 62
     7
370
   211
100
AcDbMText
 10
4398.685651681776
 20
3794.908728169562
 30
0.0
 40
74.29499999999967
 41
97.49999999999957
 46
0.0
 71
     7
 72
     1
  1
{\fＭＳ ゴシック|b0|i0|c128|p49;23}
 11
6.123031769111886E-17
 21
1.0
 31
0.0
 73
     1
 44
1.0
  0
MTEXT
  5
337
330
1F
100
AcDbEntity
  8
0-4_枠
  6
Continuous
 62
     7
370
   211
100
AcDbMText
 10
4398.685651681776
 20
3520.295251838199
 30
0.0
 40
76.19999999999999
 41
150.0
 46
0.0
 71
     7
 72
     1
  1
{\fＭＳ ゴシック|b0|i0|c128|p49;7.5}
 11
6.123031769111886E-17
 21
1.0
 31
0.0
 73
     1
 44
1.0
  0
LINE
  5
338
330
1F
100
AcDbEntity
  8
0-4_枠
  6
Continuous
 62
   120
370
     5
100
AcDbLine
 10
4413.685651681776
 20
3925.712411601514
 30
0.0
 11
4413.685651681776
 21
3714.887585459032
 31
0.0
  0
LINE
  5
339
330
1F
100
AcDbEntity
  8
0-4_枠
  6
Continuous
 62
   120
370
     5
100
AcDbLine
 10
4246.787912375466
 20
3783.887585459033
 30
0.0
 11
4246.787912375465
 21
-3416.112414540967
 31
0.0
  0
LWPOLYLINE
  5
33A
330
1F
100
AcDbEntity
  8
0-4_枠
  6
Continuous
 62
     7
370
     9
100
AcDbPolyline
 90
        4
 70
     1
 43
3.0
 10
4248.287912375466
 20
3783.887585459033
 42
0.4142135623731
 10
4246.787912375466
 20
3785.387585459033
 42
0.4142135623731
 10
4245.287912375466
 20
3783.887585459033
 42
0.4142135623731
 10
4246.787912375466
 20
3782.387585459033
 42
0.4142135623731
  0
LWPOLYLINE
  5
33B
330
1F
100
AcDbEntity
  8
0-4_枠
  6
Continuous
 62
     7
370
     9
100
AcDbPolyline
 90
        4
 70
     1
 43
3.0
 10
4248.287912375466
 20
-3416.112414540967
 42
0.4142135623731
 10
4246.787912375465
 20
-3414.612414540967
 42
0.4142135623731
 10
4245.287912375465
 20
-3416.112414540967
 42
0.4142135623731
 10
4246.787912375465
 20
-3417.612414540967
 42
0.4142135623731
  0
MTEXT
  5
33C
330
1F
100
AcDbEntity
  8
0-4_枠
  6
Continuous
 62
     7
370
   211
100
AcDbMText
 10
4231.787912375465
 20
102.7495854590334
 30
0.0
 40
77.724
 41
255.0
 46
0.0
 71
     7
 72
     1
  1
{\fＭＳ ゴシック|b0|i0|c128|p49;2,400}
 11
6.123031769111886E-17
 21
1.0
 31
0.0
 73
     1
 44
1.0
  0
LINE
  5
33D
330
1F
100
AcDbEntity
  8
0-4_枠
  6
Continuous
 62
   120
370
     5
100
AcDbLine
 10
4755.26827618694
 20
-3655.585380287648
 30
0.0
 11
4860.26827618694
 21
-3655.585380287648
 31
0.0
  0
LWPOLYLINE
  5
33E
330
1F
100
AcDbEntity
  8
0-4_枠
  6
Continuous
 62
     7
370
     9
100
AcDbPolyline
 90
        4
 70
     1
 43
3.0
 10
4756.76827618694
 20
-3655.585380287648
 42
0.4142135623731
 10
4755.26827618694
 20
-3654.085380287648
 42
0.4142135623731
 10
4753.768276186939
 20
-3655.585380287648
 42
0.4142135623731
 10
4755.26827618694
 20
-3657.085380287648
 42
0.4142135623731
  0
LWPOLYLINE
  5
33F
330
1F
100
AcDbEntity
  8
0-4_枠
  6
Continuous
 62
     7
370
     9
100
AcDbPolyline
 90
        4
 70
     1
 43
3.0
 10
4861.76827618694
 20
-3655.585380287648
 42
0.4142135623731
 10
4860.26827618694
 20
-3654.085380287648
 42
0.4142135623731
 10
4858.768276186939
 20
-3655.585380287648
 42
0.4142135623731
 10
4860.26827618694
 20
-3657.085380287648
 42
0.4142135623731
  0
LINE
  5
340
330
1F
100
AcDbEntity
  8
0-4_枠
  6
Continuous
 62
   120
370
     5
100
AcDbLine
 10
4755.26827618694
 20
-3655.585380287648
 30
0.0
 11
4755.26827618694
 21
-3578.88246535606
 31
0.0
  0
LINE
  5
341
330
1F
100
AcDbEntity
  8
0-4_枠
  6
Continuous
 62
   120
370
     5
100
AcDbLine
 10
4860.26827618694
 20
-3655.585380287648
 30
0.0
 11
4860.26827618694
 21
-3578.88246535606
 31
0.0
  0
MTEXT
  5
342
330
1F
100
AcDbEntity
  8
0-4_枠
  6
Continuous
 62
     7
370
   211
100
AcDbMText
 10
4759.01827618694
 20
-3648.437880287648
 30
0.0
 40
74.295
 41
97.5
 46
0.0
 71
     7
 72
     1
  1
{\fＭＳ ゴシック|b0|i0|c128|p49;35}
 73
     1
 44
1.0
  0
LINE
  5
343
330
1F
100
AcDbEntity
  8
0-4_枠
  6
Continuous
 62
     7
370
     9
100
AcDbLine
 10
4774.01827618694
 20
-3390.612414540968
 30
0.0
 11
4762.018276186939
 21
-3390.612414540968
 31
0.0
  0
LINE
  5
344
330
1F
100
AcDbEntity
  8
0-4_枠
  6
Continuous
 62
   120
370
     5
100
AcDbLine
 10
4860.26827618694
 20
3920.856718108419
 30
0.0
 11
4755.26827618694
 21
3920.856718108419
 31
0.0
  0
LWPOLYLINE
  5
345
330
1F
100
AcDbEntity
  8
0-4_枠
  6
Continuous
 62
     7
370
     9
100
AcDbPolyline
 90
        4
 70
     1
 43
3.0
 10
4756.76827618694
 20
3920.856718108419
 42
0.4142135623731
 10
4755.26827618694
 20
3922.356718108419
 42
0.4142135623731
 10
4753.768276186939
 20
3920.856718108419
 42
0.4142135623731
 10
4755.26827618694
 20
3919.356718108418
 42
0.4142135623731
  0
LINE
  5
346
330
1F
100
AcDbEntity
  8
0-4_枠
  6
Continuous
 62
   120
370
     5
100
AcDbLine
 10
4755.26827618694
 20
3920.856718108419
 30
0.0
 11
4755.26827618694
 21
3840.332156332261
 31
0.0
  0
MTEXT
  5
347
330
1F
100
AcDbEntity
  8
0-4_枠
  6
Continuous
 62
     7
370
   211
100
AcDbMText
 10
4759.01827618694
 20
3928.004218108419
 30
0.0
 40
74.295
 41
97.5
 46
0.0
 71
     7
 72
     1
  1
{\fＭＳ ゴシック|b0|i0|c128|p49;35}
 73
     1
 44
1.0
  0
MTEXT
  5
348
330
1F
100
AcDbEntity
  8
0-4_枠
  6
Continuous
 62
     7
370
     9
100
AcDbMText
 10
4233.663002311474
 20
-3624.132985879558
 30
0.0
 40
57.15
 41
300.0
 46
0.0
 71
     7
 72
     1
  1
{\fＭＳ ゴシック|b0|i0|c128|p49;振止金具}
 73
     1
 44
1.0
  0
LINE
  5
349
330
1F
100
AcDbEntity
  8
0-4_枠
  6
Continuous
 62
     7
370
     9
100
AcDbLine
 10
4212.932484762397
 20
-3633.865451673728
 30
0.0
 11
4554.986024322182
 21
-3633.865451673728
 31
0.0
  0
LINE
  5
34A
330
1F
100
AcDbEntity
  8
0-4_枠
  6
Continuous
 62
     7
370
     9
100
AcDbLine
 10
4554.986024322182
 20
-3633.865451673728
 30
0.0
 11
4772.6564585875
 21
-3409.975862143686
 31
0.0
  0
LINE
  5
34B
330
1F
100
AcDbEntity
  8
0-4_枠
  6
Continuous
 62
   200
370
    20
100
AcDbLine
 10
4745.51827618694
 20
-3333.612414540968
 30
0.0
 11
4745.51827618694
 21
-3387.612414540968
 31
0.0
  0
LINE
  5
34C
330
1F
100
AcDbEntity
  8
0-4_枠
  6
Continuous
 62
     7
370
     9
100
AcDbLine
 10
4748.51827618694
 20
-3336.612414540968
 30
0.0
 11
4748.51827618694
 21
-3390.612414540968
 31
0.0
  0
LINE
  5
34D
330
1F
100
AcDbEntity
  8
0-4_枠
  6
Continuous
 62
     7
370
     9
100
AcDbLine
 10
4748.51827618694
 20
-3390.612414540968
 30
0.0
 11
4736.51827618694
 21
-3390.612414540968
 31
0.0
  0
LINE
  5
34E
330
1F
100
AcDbEntity
  8
0-4_枠
  6
Continuous
 62
     7
370
     9
100
AcDbLine
 10
4736.51827618694
 20
-3387.612414540968
 30
0.0
 11
4736.51827618694
 21
-3390.612414540968
 31
0.0
  0
LINE
  5
34F
330
1F
100
AcDbEntity
  8
0-4_枠
  6
Continuous
 62
     7
370
     9
100
AcDbLine
 10
4745.51827618694
 20
-3333.612414540968
 30
0.0
 11
4745.51827618694
 21
-3387.612414540968
 31
0.0
  0
LINE
  5
350
330
1F
100
AcDbEntity
  8
0-4_枠
  6
Continuous
 62
     7
370
     9
100
AcDbLine
 10
4745.51827618694
 20
-3387.612414540968
 30
0.0
 11
4736.51827618694
 21
-3387.612414540968
 31
0.0
  0
LINE
  5
351
330
1F
100
AcDbEntity
  8
0-4_枠
  6
Continuous
 62
     7
370
     9
100
AcDbLine
 10
4774.01827618694
 20
-3390.612414540968
 30
0.0
 11
4774.01827618694
 21
-3387.612414540968
 31
0.0
  0
LINE
  5
352
330
1F
100
AcDbEntity
  8
0-4_枠
  6
Continuous
 62
   200
370
    20
100
AcDbLine
 10
4765.018276186939
 20
-3387.612414540968
 30
0.0
 11
4800.26827618694
 21
-3387.612414540968
 31
0.0
  0
LINE
  5
353
330
1F
100
AcDbEntity
  8
0-4_枠
  6
Continuous
 62
   200
370
    20
100
AcDbLine
 10
4745.51827618694
 20
-3387.612414540968
 30
0.0
 11
4710.26827618694
 21
-3387.612414540968
 31
0.0
  0
LINE
  5
354
330
1F
100
AcDbEntity
  8
0-4_枠
  6
Continuous
 62
     7
370
     9
100
AcDbLine
 10
4762.018276186939
 20
-3390.612414540968
 30
0.0
 11
4762.018276186939
 21
-3336.612414540968
 31
0.0
  0
LINE
  5
355
330
1F
100
AcDbEntity
  8
0-4_枠
  6
Continuous
 62
     7
370
     9
100
AcDbLine
 10
4748.51827618694
 20
-3336.612414540968
 30
0.0
 11
4762.018276186939
 21
-3336.612414540968
 31
0.0
  0
LINE
  5
356
330
1F
100
AcDbEntity
  8
0-4_枠
  6
Continuous
 62
   200
370
    20
100
AcDbLine
 10
4800.26827618694
 20
-3387.612414540968
 30
0.0
 11
4800.26827618694
 21
3692.387585459033
 31
0.0
  0
LINE
  5
357
330
1F
100
AcDbEntity
  8
0-4_枠
  6
Continuous
 62
   200
370
    20
100
AcDbLine
 10
4710.26827618694
 20
-3387.612414540968
 30
0.0
 11
4710.26827618694
 21
3692.387585459033
 31
0.0
  0
LWPOLYLINE
  5
358
330
1F
100
AcDbEntity
  8
0-4_枠
  6
Continuous
 62
     7
370
     9
100
AcDbPolyline
 90
        4
 70
     1
 43
3.0
 10
4415.185651681776
 20
-3387.612414540968
 42
0.4142135623731
 10
4413.685651681776
 20
-3386.112414540968
 42
0.4142135623731
 10
4412.185651681775
 20
-3387.612414540968
 42
0.4142135623731
 10
4413.685651681776
 20
-3389.112414540968
 42
0.4142135623731
  0
LINE
  5
359
330
1F
100
AcDbEntity
  8
0-4_枠
  6
Continuous
 62
   120
370
     5
100
AcDbLine
 10
4413.685651681776
 20
-3387.612414540968
 30
0.0
 11
4564.608728604851
 21
-3387.612414540968
 31
0.0
  0
MTEXT
  5
35A
330
1F
100
AcDbEntity
  8
0-4_枠
  6
Continuous
 62
     7
370
   211
100
AcDbMText
 10
4398.685651681776
 20
-3411.225799678693
 30
0.0
 40
76.19999999999999
 41
150.0
 46
0.0
 71
     7
 72
     1
  1
{\fＭＳ ゴシック|b0|i0|c128|p49;9.5}
 11
6.123031769111886E-17
 21
1.0
 31
0.0
 73
     1
 44
1.0
  0
MTEXT
  5
35B
330
1F
100
AcDbEntity
  8
0-4_枠
  6
Continuous
 62
     7
370
   211
100
AcDbMText
 10
4398.685651681776
 20
17.87304000448769
 30
0.0
 40
78.97090909090903
 41
569.9999999999995
 46
0.0
 71
     7
 72
     1
  1
{\fＭＳ ゴシック|b0|i0|c128|p49;ＤＨ：2,360}
 11
6.123031769111886E-17
 21
1.0
 31
0.0
 73
     1
 44
1.0
  0
LINE
  5
35C
330
1F
100
AcDbEntity
  8
0-4_枠
  6
Continuous
 62
   120
370
     5
100
AcDbLine
 10
5250.26827618694
 20
-3416.112414540968
 30
0.0
 11
5250.26827618694
 21
3783.887585459033
 31
0.0
  0
LINE
  5
35D
330
1F
100
AcDbEntity
  8
0-4_枠
  6
Continuous
 62
   120
370
     5
100
AcDbLine
 10
4770.26827618694
 20
3720.887585459034
 30
0.0
 11
4791.268276186941
 21
3720.887585459034
 31
0.0
  0
LINE
  5
35E
330
1F
100
AcDbEntity
  8
0-4_枠
  6
Continuous
 62
   120
370
     5
100
AcDbLine
 10
4740.26827618694
 20
3720.887585459034
 30
0.0
 11
4719.26827618694
 21
3720.887585459034
 31
0.0
  0
LINE
  5
35F
330
1F
100
AcDbEntity
  8
0-4_枠
  6
Continuous
 62
   120
370
     5
100
AcDbLine
 10
4719.26827618694
 20
3720.887585459034
 30
0.0
 11
4719.26827618694
 21
3777.887585459032
 31
0.0
  0
LINE
  5
360
330
1F
100
AcDbEntity
  8
0-4_枠
  6
Continuous
 62
   120
370
     5
100
AcDbLine
 10
4791.268276186941
 20
3777.887585459032
 30
0.0
 11
4719.26827618694
 21
3777.887585459032
 31
0.0
  0
LINE
  5
361
330
1F
100
AcDbEntity
  8
0-4_枠
  6
Continuous
 62
   120
370
     5
100
AcDbLine
 10
4791.268276186941
 20
3720.887585459034
 30
0.0
 11
4791.268276186941
 21
3777.887585459032
 31
0.0
  0
LINE
  5
362
330
1F
100
AcDbEntity
  8
0-4_枠
  6
Continuous
 62
   120
370
     5
100
AcDbLine
 10
4713.26827618694
 20
3714.887585459033
 30
0.0
 11
4740.26827618694
 21
3714.887585459033
 31
0.0
  0
LINE
  5
363
330
1F
100
AcDbEntity
  8
0-4_枠
  6
Continuous
 62
   120
370
     5
100
AcDbLine
 10
4770.26827618694
 20
3714.887585459032
 30
0.0
 11
4770.26827618694
 21
3720.887585459034
 31
0.0
  0
LINE
  5
364
330
1F
100
AcDbEntity
  8
0-4_枠
  6
Continuous
 62
   120
370
     5
100
AcDbLine
 10
4797.268276186941
 20
3714.887585459032
 30
0.0
 11
4770.26827618694
 21
3714.887585459032
 31
0.0
  0
LINE
  5
365
330
1F
100
AcDbEntity
  8
0-4_枠
  6
Continuous
 62
   120
370
     5
100
AcDbLine
 10
4740.26827618694
 20
3714.887585459032
 30
0.0
 11
4740.26827618694
 21
3720.887585459034
 31
0.0
  0
LINE
  5
366
330
1F
100
AcDbEntity
  8
0-4_枠
  6
Continuous
 62
   120
370
     5
100
AcDbLine
 10
4797.268276186941
 20
3714.887585459032
 30
0.0
 11
4797.268276186941
 21
3783.887585459033
 31
0.0
  0
LINE
  5
367
330
1F
100
AcDbEntity
  8
0-4_枠
  6
Continuous
 62
   120
370
     5
100
AcDbLine
 10
4713.26827618694
 20
3714.887585459033
 30
0.0
 11
4713.26827618694
 21
3783.887585459033
 31
0.0
  0
LINE
  5
368
330
1F
100
AcDbEntity
  8
0-4_枠
  6
Continuous
 62
   120
370
     5
100
AcDbLine
 10
4710.26827618694
 20
3692.387585459033
 30
0.0
 11
4800.26827618694
 21
3692.387585459033
 31
0.0
  0
LINE
  5
369
330
1F
100
AcDbEntity
  8
0-4_枠
  6
JWW_DASHED1
 62
   120
370
     5
100
AcDbLine
 10
4860.26827618694
 20
-3416.112414540968
 30
0.0
 11
4860.26827618694
 21
3783.887585459033
 31
0.0
  0
LINE
  5
36A
330
1F
100
AcDbEntity
  8
0-4_枠
  6
JWW_CENTER1
 62
   120
370
     5
100
AcDbLine
 10
4755.26827618694
 20
-3537.890834614991
 30
0.0
 11
4755.26827618694
 21
3821.616857692702
 31
0.0
  0
MTEXT
  5
36B
330
1F
100
AcDbEntity
  8
0-4_枠
  6
Continuous
 62
     7
370
   211
100
AcDbMText
 10
-188.2418382825432
 20
2302.851554785868
 30
0.0
 40
79.33764705882353
 41
885.0
 46
0.0
 71
     7
 72
     1
  1
{\fＭＳ ゴシック|b0|i0|c128|p49;上吊レール：1,609}
 73
     1
 44
1.0
  0
MTEXT
  5
36C
330
1F
100
AcDbEntity
  8
F-A_文字
  6
Continuous
 62
     7
370
     0
100
AcDbMText
 10
-5646.249562083063
 20
-4030.04969004961
 30
0.0
 40
79.90009615384606
 41
5452.5
 46
0.0
 71
     7
 72
     1
  1
{\fＭＳ ゴシック|b0|i0|c128|p49;ソフトアート　天井ジャストシリーズ　アウトセット　片引き戸　上吊りタイプ　ドアＨ2,360　上吊レールＷ1,609}
 73
     1
 44
1.0
  0
ARC
  5
36D
330
1F
100
AcDbEntity
  8
0-7_金物
  6
Continuous
 62
     7
370
     9
100
AcDbCircle
 10
239.2581617174529
 20
2712.250222051466
 30
0.0
 40
1.5
100
AcDbArc
 50
180.0
 51
270.0
  0
LINE
  5
36E
330
1F
100
AcDbEntity
  8
0-7_金物
  6
Continuous
 62
     7
370
     9
100
AcDbLine
 10
272.2581617174529
 20
2710.750222051466
 30
0.0
 11
239.2581617174529
 21
2710.750222051466
 31
0.0
  0
ARC
  5
36F
330
1F
100
AcDbEntity
  8
0-7_金物
  6
Continuous
 62
     7
370
     9
100
AcDbCircle
 10
272.2581617174529
 20
2712.250222051466
 30
0.0
 40
1.5
100
AcDbArc
 50
270.0
 51
0.0
  0
LINE
  5
370
330
1F
100
AcDbEntity
  8
0-7_金物
  6
Continuous
 62
     7
370
     9
100
AcDbLine
 10
273.7581617174529
 20
2718.250222051466
 30
0.0
 11
273.7581617174529
 21
2712.250222051466
 31
0.0
  0
ARC
  5
371
330
1F
100
AcDbEntity
  8
0-7_金物
  6
Continuous
 62
     7
370
     9
100
AcDbCircle
 10
272.2581617174529
 20
2718.250222051466
 30
0.0
 40
1.5
100
AcDbArc
 50
0.0
 51
90.0
  0
LINE
  5
372
330
1F
100
AcDbEntity
  8
0-7_金物
  6
Continuous
 62
     7
370
     9
100
AcDbLine
 10
237.7581617174529
 20
2718.250222051466
 30
0.0
 11
237.7581617174529
 21
2712.250222051466
 31
0.0
  0
ARC
  5
373
330
1F
100
AcDbEntity
  8
0-7_金物
  6
Continuous
 62
     7
370
     9
100
AcDbCircle
 10
239.2581617174529
 20
2718.250222051466
 30
0.0
 40
1.5
100
AcDbArc
 50
90.0
 51
180.0
  0
ARC
  5
374
330
1F
100
AcDbEntity
  8
0-7_金物
  6
Continuous
 62
     7
370
     9
100
AcDbCircle
 10
216.7581617174529
 20
2725.750222051466
 30
0.0
 40
6.0
100
AcDbArc
 50
180.0
 51
270.0
  0
LINE
  5
375
330
1F
100
AcDbEntity
  8
0-7_金物
  6
Continuous
 62
     7
370
     9
100
AcDbLine
 10
294.7581617174522
 20
2719.750222051466
 30
0.0
 11
216.7581617174529
 21
2719.750222051466
 31
0.0
  0
ARC
  5
376
330
1F
100
AcDbEntity
  8
0-7_金物
  6
Continuous
 62
     7
370
     9
100
AcDbCircle
 10
294.7581617174522
 20
2725.750222051466
 30
0.0
 40
6.0
100
AcDbArc
 50
270.0
 51
0.0
  0
ARC
  5
377
330
1F
100
AcDbEntity
  8
0-7_金物
  6
Continuous
 62
     7
370
     9
100
AcDbCircle
 10
216.7581617174522
 20
2758.750222051466
 30
0.0
 40
6.0
100
AcDbArc
 50
90.0
 51
180.0
  0
LINE
  5
378
330
1F
100
AcDbEntity
  8
0-7_金物
  6
Continuous
 62
     7
370
     9
100
AcDbLine
 10
294.7581617174522
 20
2764.750222051466
 30
0.0
 11
216.7581617174522
 21
2764.750222051466
 31
0.0
  0
ARC
  5
379
330
1F
100
AcDbEntity
  8
0-7_金物
  6
Continuous
 62
     7
370
     9
100
AcDbCircle
 10
294.7581617174522
 20
2758.750222051466
 30
0.0
 40
6.0
100
AcDbArc
 50
0.0
 51
90.0
  0
LINE
  5
37A
330
1F
100
AcDbEntity
  8
0-7_金物
  6
Continuous
 62
     7
370
     9
100
AcDbLine
 10
300.7581617174522
 20
2758.750222051466
 30
0.0
 11
300.7581617174522
 21
2725.750222051466
 31
0.0
  0
LINE
  5
37B
330
1F
100
AcDbEntity
  8
0-7_金物
  6
Continuous
 62
     7
370
     9
100
AcDbLine
 10
210.7581617174529
 20
2725.750222051466
 30
0.0
 11
210.7581617174529
 21
2758.750222051466
 31
0.0
  0
ARC
  5
37C
330
1F
100
AcDbEntity
  8
0-7_金物
  6
Continuous
 62
     7
370
     9
100
AcDbCircle
 10
282.7581617174522
 20
2746.750222051466
 30
0.0
 40
12.0
100
AcDbArc
 50
0.0
 51
180.0
  0
ARC
  5
37D
330
1F
100
AcDbEntity
  8
0-7_金物
  6
Continuous
 62
     7
370
     9
100
AcDbCircle
 10
228.7581617174529
 20
2746.750222051466
 30
0.0
 40
12.0
100
AcDbArc
 50
0.0
 51
180.0
  0
ARC
  5
37E
330
1F
100
AcDbEntity
  8
0-7_金物
  6
Continuous
 62
     7
370
     9
100
AcDbCircle
 10
228.7581617174529
 20
2746.750222051466
 30
0.0
 40
6.0
100
AcDbArc
 50
0.0
 51
180.0
  0
ARC
  5
37F
330
1F
100
AcDbEntity
  8
0-7_金物
  6
Continuous
 62
     7
370
     9
100
AcDbCircle
 10
282.7581617174522
 20
2746.750222051466
 30
0.0
 40
6.0
100
AcDbArc
 50
0.0
 51
180.0
  0
ARC
  5
380
330
1F
100
AcDbEntity
  8
0-7_金物
  6
Continuous
 62
     7
370
     9
100
AcDbCircle
 10
228.7581617174529
 20
2737.750222051466
 30
0.0
 40
12.0
100
AcDbArc
 50
180.0
 51
0.0
  0
ARC
  5
381
330
1F
100
AcDbEntity
  8
0-7_金物
  6
Continuous
 62
     7
370
     9
100
AcDbCircle
 10
228.7581617174529
 20
2737.750222051466
 30
0.0
 40
6.0
100
AcDbArc
 50
180.0
 51
0.0
  0
ARC
  5
382
330
1F
100
AcDbEntity
  8
0-7_金物
  6
Continuous
 62
     7
370
     9
100
AcDbCircle
 10
282.7581617174529
 20
2737.750222051466
 30
0.0
 40
12.0
100
AcDbArc
 50
180.0
 51
0.0
  0
ARC
  5
383
330
1F
100
AcDbEntity
  8
0-7_金物
  6
Continuous
 62
     7
370
     9
100
AcDbCircle
 10
282.7581617174529
 20
2737.750222051466
 30
0.0
 40
6.0
100
AcDbArc
 50
180.0
 51
0.0
  0
LINE
  5
384
330
1F
100
AcDbEntity
  8
0-7_金物
  6
Continuous
 62
     7
370
     9
100
AcDbLine
 10
234.7581617174529
 20
2737.750222051466
 30
0.0
 11
234.7581617174529
 21
2746.750222051466
 31
0.0
  0
LINE
  5
385
330
1F
100
AcDbEntity
  8
0-7_金物
  6
Continuous
 62
     7
370
     9
100
AcDbLine
 10
222.7581617174529
 20
2746.750222051466
 30
0.0
 11
222.7581617174529
 21
2737.750222051466
 31
0.0
  0
LINE
  5
386
330
1F
100
AcDbEntity
  8
0-7_金物
  6
Continuous
 62
     7
370
     9
100
AcDbLine
 10
216.7581617174529
 20
2746.750222051466
 30
0.0
 11
216.7581617174529
 21
2737.750222051466
 31
0.0
  0
LINE
  5
387
330
1F
100
AcDbEntity
  8
0-7_金物
  6
Continuous
 62
     7
370
     9
100
AcDbLine
 10
240.7581617174529
 20
2746.750222051466
 30
0.0
 11
240.7581617174529
 21
2737.750222051466
 31
0.0
  0
LINE
  5
388
330
1F
100
AcDbEntity
  8
0-7_金物
  6
Continuous
 62
     7
370
     9
100
AcDbLine
 10
294.7581617174522
 20
2737.750222051466
 30
0.0
 11
294.7581617174522
 21
2746.750222051466
 31
0.0
  0
LINE
  5
389
330
1F
100
AcDbEntity
  8
0-7_金物
  6
Continuous
 62
     7
370
     9
100
AcDbLine
 10
288.7581617174529
 20
2737.750222051466
 30
0.0
 11
288.7581617174529
 21
2746.750222051466
 31
0.0
  0
LINE
  5
38A
330
1F
100
AcDbEntity
  8
0-7_金物
  6
Continuous
 62
     7
370
     9
100
AcDbLine
 10
276.7581617174529
 20
2746.750222051466
 30
0.0
 11
276.7581617174529
 21
2737.750222051466
 31
0.0
  0
LINE
  5
38B
330
1F
100
AcDbEntity
  8
0-7_金物
  6
Continuous
 62
     7
370
     9
100
AcDbLine
 10
270.7581617174529
 20
2737.750222051466
 30
0.0
 11
270.7581617174529
 21
2746.750222051466
 31
0.0
  0
ARC
  5
38C
330
1F
100
AcDbEntity
  8
0-7_金物
  6
Continuous
 62
     7
370
     9
100
AcDbCircle
 10
239.2581617174529
 20
382.7503032426587
 30
0.0
 40
1.5
100
AcDbArc
 50
180.0
 51
270.0
  0
LINE
  5
38D
330
1F
100
AcDbEntity
  8
0-7_金物
  6
Continuous
 62
     7
370
     9
100
AcDbLine
 10
272.2581617174529
 20
381.2503032426587
 30
0.0
 11
239.2581617174529
 21
381.2503032426587
 31
0.0
  0
ARC
  5
38E
330
1F
100
AcDbEntity
  8
0-7_金物
  6
Continuous
 62
     7
370
     9
100
AcDbCircle
 10
272.2581617174529
 20
382.7503032426587
 30
0.0
 40
1.5
100
AcDbArc
 50
270.0
 51
0.0
  0
LINE
  5
38F
330
1F
100
AcDbEntity
  8
0-7_金物
  6
Continuous
 62
     7
370
     9
100
AcDbLine
 10
273.7581617174529
 20
388.7503032426587
 30
0.0
 11
273.7581617174529
 21
382.7503032426587
 31
0.0
  0
ARC
  5
390
330
1F
100
AcDbEntity
  8
0-7_金物
  6
Continuous
 62
     7
370
     9
100
AcDbCircle
 10
272.2581617174529
 20
388.7503032426587
 30
0.0
 40
1.5
100
AcDbArc
 50
0.0
 51
90.0
  0
LINE
  5
391
330
1F
100
AcDbEntity
  8
0-7_金物
  6
Continuous
 62
     7
370
     9
100
AcDbLine
 10
237.7581617174529
 20
388.7503032426587
 30
0.0
 11
237.7581617174529
 21
382.7503032426587
 31
0.0
  0
ARC
  5
392
330
1F
100
AcDbEntity
  8
0-7_金物
  6
Continuous
 62
     7
370
     9
100
AcDbCircle
 10
239.2581617174529
 20
388.7503032426587
 30
0.0
 40
1.5
100
AcDbArc
 50
90.0
 51
180.0
  0
ARC
  5
393
330
1F
100
AcDbEntity
  8
0-7_金物
  6
Continuous
 62
     7
370
     9
100
AcDbCircle
 10
216.7581617174529
 20
396.2503032426587
 30
0.0
 40
6.0
100
AcDbArc
 50
180.0
 51
270.0
  0
LINE
  5
394
330
1F
100
AcDbEntity
  8
0-7_金物
  6
Continuous
 62
     7
370
     9
100
AcDbLine
 10
294.7581617174522
 20
390.2503032426587
 30
0.0
 11
216.7581617174529
 21
390.2503032426587
 31
0.0
  0
ARC
  5
395
330
1F
100
AcDbEntity
  8
0-7_金物
  6
Continuous
 62
     7
370
     9
100
AcDbCircle
 10
294.7581617174522
 20
396.2503032426587
 30
0.0
 40
6.0
100
AcDbArc
 50
270.0
 51
0.0
  0
ARC
  5
396
330
1F
100
AcDbEntity
  8
0-7_金物
  6
Continuous
 62
     7
370
     9
100
AcDbCircle
 10
216.7581617174522
 20
429.2503032426587
 30
0.0
 40
6.0
100
AcDbArc
 50
90.0
 51
180.0
  0
LINE
  5
397
330
1F
100
AcDbEntity
  8
0-7_金物
  6
Continuous
 62
     7
370
     9
100
AcDbLine
 10
294.7581617174522
 20
435.2503032426587
 30
0.0
 11
216.7581617174522
 21
435.2503032426587
 31
0.0
  0
ARC
  5
398
330
1F
100
AcDbEntity
  8
0-7_金物
  6
Continuous
 62
     7
370
     9
100
AcDbCircle
 10
294.7581617174522
 20
429.2503032426587
 30
0.0
 40
6.0
100
AcDbArc
 50
0.0
 51
90.0
  0
LINE
  5
399
330
1F
100
AcDbEntity
  8
0-7_金物
  6
Continuous
 62
     7
370
     9
100
AcDbLine
 10
300.7581617174522
 20
429.2503032426587
 30
0.0
 11
300.7581617174522
 21
396.2503032426587
 31
0.0
  0
LINE
  5
39A
330
1F
100
AcDbEntity
  8
0-7_金物
  6
Continuous
 62
     7
370
     9
100
AcDbLine
 10
210.7581617174529
 20
396.2503032426587
 30
0.0
 11
210.7581617174529
 21
429.2503032426587
 31
0.0
  0
ARC
  5
39B
330
1F
100
AcDbEntity
  8
0-7_金物
  6
Continuous
 62
     7
370
     9
100
AcDbCircle
 10
282.7581617174522
 20
417.2503032426587
 30
0.0
 40
12.0
100
AcDbArc
 50
0.0
 51
180.0
  0
ARC
  5
39C
330
1F
100
AcDbEntity
  8
0-7_金物
  6
Continuous
 62
     7
370
     9
100
AcDbCircle
 10
228.7581617174529
 20
417.2503032426587
 30
0.0
 40
12.0
100
AcDbArc
 50
0.0
 51
180.0
  0
ARC
  5
39D
330
1F
100
AcDbEntity
  8
0-7_金物
  6
Continuous
 62
     7
370
     9
100
AcDbCircle
 10
228.7581617174529
 20
417.2503032426587
 30
0.0
 40
6.0
100
AcDbArc
 50
0.0
 51
180.0
  0
ARC
  5
39E
330
1F
100
AcDbEntity
  8
0-7_金物
  6
Continuous
 62
     7
370
     9
100
AcDbCircle
 10
282.7581617174522
 20
417.2503032426587
 30
0.0
 40
6.0
100
AcDbArc
 50
0.0
 51
180.0
  0
ARC
  5
39F
330
1F
100
AcDbEntity
  8
0-7_金物
  6
Continuous
 62
     7
370
     9
100
AcDbCircle
 10
228.7581617174529
 20
408.2503032426586
 30
0.0
 40
12.0
100
AcDbArc
 50
180.0
 51
0.0
  0
ARC
  5
3A0
330
1F
100
AcDbEntity
  8
0-7_金物
  6
Continuous
 62
     7
370
     9
100
AcDbCircle
 10
228.7581617174529
 20
408.2503032426586
 30
0.0
 40
6.0
100
AcDbArc
 50
180.0
 51
0.0
  0
ARC
  5
3A1
330
1F
100
AcDbEntity
  8
0-7_金物
  6
Continuous
 62
     7
370
     9
100
AcDbCircle
 10
282.7581617174529
 20
408.2503032426586
 30
0.0
 40
12.0
100
AcDbArc
 50
180.0
 51
0.0
  0
ARC
  5
3A2
330
1F
100
AcDbEntity
  8
0-7_金物
  6
Continuous
 62
     7
370
     9
100
AcDbCircle
 10
282.7581617174529
 20
408.2503032426586
 30
0.0
 40
6.0
100
AcDbArc
 50
180.0
 51
0.0
  0
LINE
  5
3A3
330
1F
100
AcDbEntity
  8
0-7_金物
  6
Continuous
 62
     7
370
     9
100
AcDbLine
 10
234.7581617174529
 20
408.2503032426586
 30
0.0
 11
234.7581617174529
 21
417.2503032426587
 31
0.0
  0
LINE
  5
3A4
330
1F
100
AcDbEntity
  8
0-7_金物
  6
Continuous
 62
     7
370
     9
100
AcDbLine
 10
222.7581617174529
 20
417.2503032426587
 30
0.0
 11
222.7581617174529
 21
408.2503032426586
 31
0.0
  0
LINE
  5
3A5
330
1F
100
AcDbEntity
  8
0-7_金物
  6
Continuous
 62
     7
370
     9
100
AcDbLine
 10
216.7581617174529
 20
417.2503032426587
 30
0.0
 11
216.7581617174529
 21
408.2503032426586
 31
0.0
  0
LINE
  5
3A6
330
1F
100
AcDbEntity
  8
0-7_金物
  6
Continuous
 62
     7
370
     9
100
AcDbLine
 10
240.7581617174529
 20
417.2503032426587
 30
0.0
 11
240.7581617174529
 21
408.2503032426586
 31
0.0
  0
LINE
  5
3A7
330
1F
100
AcDbEntity
  8
0-7_金物
  6
Continuous
 62
     7
370
     9
100
AcDbLine
 10
294.7581617174522
 20
408.2503032426586
 30
0.0
 11
294.7581617174522
 21
417.2503032426587
 31
0.0
  0
LINE
  5
3A8
330
1F
100
AcDbEntity
  8
0-7_金物
  6
Continuous
 62
     7
370
     9
100
AcDbLine
 10
288.7581617174529
 20
408.2503032426586
 30
0.0
 11
288.7581617174529
 21
417.2503032426587
 31
0.0
  0
LINE
  5
3A9
330
1F
100
AcDbEntity
  8
0-7_金物
  6
Continuous
 62
     7
370
     9
100
AcDbLine
 10
276.7581617174529
 20
417.2503032426587
 30
0.0
 11
276.7581617174529
 21
408.2503032426586
 31
0.0
  0
LINE
  5
3AA
330
1F
100
AcDbEntity
  8
0-7_金物
  6
Continuous
 62
     7
370
     9
100
AcDbLine
 10
270.7581617174529
 20
408.2503032426586
 30
0.0
 11
270.7581617174529
 21
417.2503032426587
 31
0.0
  0
LWPOLYLINE
  5
3AB
330
1F
100
AcDbEntity
  8
1-B_寸法
  6
Continuous
 62
     7
370
     9
100
AcDbPolyline
 90
        4
 70
     1
 43
3.0
 10
1146.840144705203
 20
-1339.703404857932
 42
0.4142135623731
 10
1145.340144705203
 20
-1338.203404857932
 42
0.4142135623731
 10
1143.840144705203
 20
-1339.703404857932
 42
0.4142135623731
 10
1145.340144705203
 20
-1341.203404857931
 42
0.4142135623731
  0
LINE
  5
3AC
330
1F
100
AcDbEntity
  8
1-6_扉
  6
Continuous
 62
   200
370
    20
100
AcDbLine
 10
969.0886600662689
 20
-1204.703404857932
 30
0.0
 11
969.0886600662689
 21
-1474.703404857932
 31
0.0
  0
LINE
  5
3AD
330
1F
100
AcDbEntity
  8
1-6_扉
  6
Continuous
 62
   200
370
    20
100
AcDbLine
 10
871.588660066262
 20
-1204.703404857932
 30
0.0
 11
871.588660066262
 21
-1474.703404857932
 31
0.0
  0
LINE
  5
3AE
330
1F
100
AcDbEntity
  8
1-6_扉
  6
Continuous
 62
   200
370
    20
100
AcDbLine
 10
969.0886600662689
 20
-1204.703404857932
 30
0.0
 11
871.5886600662654
 21
-1204.703404857932
 31
0.0
  0
LINE
  5
3AF
330
1F
100
AcDbEntity
  8
1-6_扉
  6
Continuous
 62
   200
370
    20
100
AcDbLine
 10
871.5886600662654
 20
-1474.703404857932
 30
0.0
 11
695.3386600662654
 21
-1474.703404857932
 31
0.0
  0
LINE
  5
3B0
330
1F
100
AcDbEntity
  8
1-6_扉
  6
Continuous
 62
   200
370
    20
100
AcDbLine
 10
1145.338660066265
 20
-1474.703404857932
 30
0.0
 11
969.0886600662689
 21
-1474.703404857932
 31
0.0
  0
LINE
  5
3B1
330
1F
100
AcDbEntity
  8
1-B_寸法
  6
Continuous
 62
   120
370
     5
100
AcDbLine
 10
524.609654326083
 20
-1617.203404857931
 30
0.0
 11
524.609654326083
 21
-1474.703404857931
 31
0.0
  0
LWPOLYLINE
  5
3B2
330
1F
100
AcDbEntity
  8
1-B_寸法
  6
Continuous
 62
     7
370
     9
100
AcDbPolyline
 90
        4
 70
     1
 43
3.0
 10
526.109654326083
 20
-1474.703404857931
 42
0.4142135623731
 10
524.609654326083
 20
-1473.203404857931
 42
0.4142135623731
 10
523.109654326083
 20
-1474.703404857931
 42
0.4142135623731
 10
524.609654326083
 20
-1476.203404857931
 42
0.4142135623731
  0
LINE
  5
3B3
330
1F
100
AcDbEntity
  8
1-B_寸法
  6
Continuous
 62
   120
370
     5
100
AcDbLine
 10
524.609654326083
 20
-1474.703404857931
 30
0.0
 11
674.609654326084
 21
-1474.703404857931
 31
0.0
  0
LINE
  5
3B4
330
1F
100
AcDbEntity
  8
1-B_寸法
  6
Continuous
 62
   120
370
     5
100
AcDbLine
 10
524.609654326083
 20
-1474.703404857931
 30
0.0
 11
524.609654326083
 21
-1204.703404857932
 31
0.0
  0
LWPOLYLINE
  5
3B5
330
1F
100
AcDbEntity
  8
1-B_寸法
  6
Continuous
 62
     7
370
     9
100
AcDbPolyline
 90
        4
 70
     1
 43
3.0
 10
526.109654326083
 20
-1204.703404857932
 42
0.4142135623731
 10
524.609654326083
 20
-1203.203404857932
 42
0.4142135623731
 10
523.109654326083
 20
-1204.703404857932
 42
0.4142135623731
 10
524.609654326083
 20
-1206.203404857932
 42
0.4142135623731
  0
LINE
  5
3B6
330
1F
100
AcDbEntity
  8
1-B_寸法
  6
Continuous
 62
   120
370
     5
100
AcDbLine
 10
524.609654326083
 20
-1204.703404857932
 30
0.0
 11
674.609654326084
 21
-1204.703404857932
 31
0.0
  0
MTEXT
  5
3B7
330
1F
100
AcDbEntity
  8
1-B_寸法
  6
Continuous
 62
     7
370
   211
100
AcDbMText
 10
509.609654326083
 20
-1396.305904857932
 30
0.0
 40
74.295
 41
97.5
 46
0.0
 71
     7
 72
     1
  1
{\fＭＳ ゴシック|b0|i0|c128|p49;18}
 11
6.123031769111886E-17
 21
1.0
 31
0.0
 73
     1
 44
1.0
  0
LINE
  5
3B8
330
1F
100
AcDbEntity
  8
1-B_寸法
  6
JWW_DASHED1
 62
   120
370
     5
100
AcDbLine
 10
674.609654326084
 20
-1204.703404857932
 30
0.0
 11
871.588660066262
 21
-1204.703404857932
 31
0.0
  0
LINE
  5
3B9
330
1F
100
AcDbEntity
  8
1-6_扉
  6
Continuous
 62
   200
370
    20
100
AcDbLine
 10
695.3386600662662
 20
-962.0745738775277
 30
0.0
 11
695.3386600662654
 21
-1474.703404857931
 31
0.0
  0
LINE
  5
3BA
330
1F
100
AcDbEntity
  8
1-6_扉
  6
Continuous
 62
   200
370
    20
100
AcDbLine
 10
1145.340144705203
 20
-962.0745738775277
 30
0.0
 11
1145.340144705203
 21
-1474.703404857938
 31
0.0
  0
LWPOLYLINE
  5
3BB
330
1F
100
AcDbEntity
  8
1-B_寸法
  6
Continuous
 62
     7
370
     9
100
AcDbPolyline
 90
        4
 70
     1
 43
3.0
 10
1266.838660066265
 20
-1339.703404857932
 42
0.4142135623731
 10
1265.338660066265
 20
-1338.203404857932
 42
0.4142135623731
 10
1263.838660066265
 20
-1339.703404857932
 42
0.4142135623731
 10
1265.338660066265
 20
-1341.203404857931
 42
0.4142135623731
  0
LINE
  5
3BC
330
1F
100
AcDbEntity
  8
1-B_寸法
  6
Continuous
 62
   120
370
     5
100
AcDbLine
 10
1265.338660066265
 20
-1339.703404857932
 30
0.0
 11
1145.340144705203
 21
-1339.703404857932
 31
0.0
  0
LINE
  5
3BD
330
1F
100
AcDbEntity
  8
1-A_文字
  6
Continuous
 62
     7
370
     9
100
AcDbLine
 10
1520.338660066256
 20
-1350.067340434513
 30
0.0
 11
1445.338660066256
 21
-1425.067340434513
 31
0.0
  0
LINE
  5
3BE
330
1F
100
AcDbEntity
  8
1-A_文字
  6
Continuous
 62
     7
370
     9
100
AcDbLine
 10
1520.338660066256
 20
-1350.067340434513
 30
0.0
 11
1610.338660066256
 21
-1350.067340434513
 31
0.0
  0
MTEXT
  5
3BF
330
1F
100
AcDbEntity
  8
1-A_文字
  6
Continuous
 62
     7
370
     9
100
AcDbMText
 10
1520.338660066256
 20
-1353.277340434513
 30
0.0
 40
68.58
 41
90.0
 46
0.0
 71
     7
 72
     1
  1
{\fＭＳ ゴシック|b0|i0|c128|p49;壁}
 73
     1
 44
1.0
  0
LINE
  5
3C0
330
1F
100
AcDbEntity
  8
1-A_文字
  6
Continuous
 62
     7
370
     9
100
AcDbLine
 10
1340.338660066265
 20
-1129.378611582205
 30
0.0
 11
1265.338660066265
 21
-1204.378611582205
 31
0.0
  0
MTEXT
  5
3C1
330
1F
100
AcDbEntity
  8
1-A_文字
  6
Continuous
 62
     7
370
     9
100
AcDbMText
 10
1340.338660066265
 20
-1127.445111582205
 30
0.0
 40
78.86699999999999
 41
517.5
 46
0.0
 71
     7
 72
     1
  1
{\fＭＳ ゴシック|b0|i0|c128|p49;見切材(竪)}
 73
     1
 44
1.0
  0
LINE
  5
3C2
330
1F
100
AcDbEntity
  8
1-B_寸法
  6
Continuous
 62
   120
370
     5
100
AcDbLine
 10
1490.338660066266
 20
-1474.703404857932
 30
0.0
 11
1340.338660066265
 21
-1474.703404857932
 31
0.0
  0
LWPOLYLINE
  5
3C3
330
1F
100
AcDbEntity
  8
1-B_寸法
  6
Continuous
 62
     7
370
     9
100
AcDbPolyline
 90
        4
 70
     1
 43
3.0
 10
1491.838660066266
 20
-1474.703404857932
 42
0.4142135623731
 10
1490.338660066266
 20
-1473.203404857932
 42
0.4142135623731
 10
1488.838660066266
 20
-1474.703404857932
 42
0.4142135623731
 10
1490.338660066266
 20
-1476.203404857932
 42
0.4142135623731
  0
LINE
  5
3C4
330
1F
100
AcDbEntity
  8
1-3_仕上げ
  6
Continuous
 62
    40
370
    15
100
AcDbLine
 10
1445.338660066256
 20
-962.0745738775277
 30
0.0
 11
1445.338660066256
 21
-1022.133079690147
 31
0.0
  0
LINE
  5
3C5
330
1F
100
AcDbEntity
  8
1-A_文字
  6
Continuous
 62
     7
370
     9
100
AcDbLine
 10
1340.338660066265
 20
-1129.378611582205
 30
0.0
 11
1857.838660066265
 21
-1129.378611582205
 31
0.0
  0
LINE
  5
3C6
330
1F
100
AcDbEntity
  8
1-3_仕上げ
  6
Continuous
 62
    40
370
    15
100
AcDbLine
 10
1445.338660066256
 20
-1145.970570587537
 30
0.0
 11
1445.338660066256
 21
-1462.326139691163
 31
0.0
  0
MTEXT
  5
3C7
330
1F
100
AcDbEntity
  8
1-B_寸法
  6
Continuous
 62
     7
370
   211
100
AcDbMText
 10
1182.839402385734
 20
-1335.413404857932
 30
0.0
 40
68.58
 41
45.0
 46
0.0
 71
     7
 72
     1
  1
{\fＭＳ ゴシック|b0|i0|c128|p49;8}
 73
     1
 44
1.0
  0
LINE
  5
3C8
330
1F
100
AcDbEntity
  8
1-7_金物
  6
Continuous
 62
     7
370
     9
100
AcDbLine
 10
871.5886600662654
 20
-1474.703404857932
 30
0.0
 11
871.5886600662654
 21
-1204.703404857932
 31
0.0
  0
LINE
  5
3C9
330
1F
100
AcDbEntity
  8
1-7_金物
  6
Continuous
 62
     7
370
     9
100
AcDbLine
 10
826.5886600662654
 20
-1474.703404857932
 30
0.0
 11
871.5886600662689
 21
-1474.703404857932
 31
0.0
  0
LINE
  5
3CA
330
1F
100
AcDbEntity
  8
1-7_金物
  6
Continuous
 62
     7
370
     9
100
AcDbLine
 10
826.5886600662654
 20
-1489.703404857928
 30
0.0
 11
826.5886600662654
 21
-1474.703404857932
 31
0.0
  0
LINE
  5
3CB
330
1F
100
AcDbEntity
  8
1-7_金物
  6
Continuous
 62
     7
370
     9
100
AcDbLine
 10
886.5886600662689
 20
-1489.703404857928
 30
0.0
 11
886.5886600662689
 21
-1219.703404857931
 31
0.0
  0
LINE
  5
3CC
330
1F
100
AcDbEntity
  8
1-7_金物
  6
Continuous
 62
     7
370
     9
100
AcDbLine
 10
886.5886600662689
 20
-1489.703404857928
 30
0.0
 11
826.5886600662654
 21
-1489.703404857928
 31
0.0
  0
LINE
  5
3CD
330
1F
100
AcDbEntity
  8
1-7_金物
  6
Continuous
 62
     7
370
     9
100
AcDbLine
 10
969.0886600662689
 20
-1204.703404857932
 30
0.0
 11
969.0886600662689
 21
-1474.703404857932
 31
0.0
  0
LINE
  5
3CE
330
1F
100
AcDbEntity
  8
1-7_金物
  6
Continuous
 62
     7
370
     9
100
AcDbLine
 10
954.0886600662654
 20
-1219.703404857931
 30
0.0
 11
954.0886600662654
 21
-1489.703404857928
 31
0.0
  0
LINE
  5
3CF
330
1F
100
AcDbEntity
  8
1-7_金物
  6
Continuous
 62
     7
370
     9
100
AcDbLine
 10
871.5886600662654
 20
-1204.703404857932
 30
0.0
 11
969.0886600662654
 21
-1204.703404857932
 31
0.0
  0
LINE
  5
3D0
330
1F
100
AcDbEntity
  8
1-7_金物
  6
Continuous
 62
     7
370
     9
100
AcDbLine
 10
954.0886600662654
 20
-1219.703404857931
 30
0.0
 11
886.5886600662723
 21
-1219.703404857931
 31
0.0
  0
LINE
  5
3D1
330
1F
100
AcDbEntity
  8
1-7_金物
  6
Continuous
 62
     7
370
     9
100
AcDbLine
 10
954.0886600662654
 20
-1489.703404857928
 30
0.0
 11
1014.088660066265
 21
-1489.703404857928
 31
0.0
  0
LINE
  5
3D2
330
1F
100
AcDbEntity
  8
1-7_金物
  6
Continuous
 62
     7
370
     9
100
AcDbLine
 10
1014.088660066265
 20
-1474.703404857932
 30
0.0
 11
1014.088660066265
 21
-1489.703404857928
 31
0.0
  0
LINE
  5
3D3
330
1F
100
AcDbEntity
  8
1-7_金物
  6
Continuous
 62
     7
370
     9
100
AcDbLine
 10
969.0886600662689
 20
-1474.703404857932
 30
0.0
 11
1014.088660066265
 21
-1474.703404857932
 31
0.0
  0
MTEXT
  5
3D4
330
1F
100
AcDbEntity
  8
1-B_寸法
  6
Continuous
 62
     7
370
   211
100
AcDbMText
 10
509.609654326083
 20
-1611.281753423339
 30
0.0
 40
76.19999999999999
 41
150.0
 46
0.0
 71
     7
 72
     1
  1
{\fＭＳ ゴシック|b0|i0|c128|p49;9.5}
 11
6.123031769111886E-17
 21
1.0
 31
0.0
 73
     1
 44
1.0
  0
MTEXT
  5
3D5
330
1F
100
AcDbEntity
  8
1-B_寸法
  6
Continuous
 62
     7
370
   211
100
AcDbMText
 10
1595.338660066266
 20
-1609.51052150266
 30
0.0
 40
76.19999999999999
 41
150.0
 46
0.0
 71
     7
 72
     1
  1
{\fＭＳ ゴシック|b0|i0|c128|p49;6.5}
 11
6.123031769111886E-17
 21
1.0
 31
0.0
 73
     1
 44
1.0
  0
LINE
  5
3D6
330
1F
100
AcDbEntity
  8
1-B_寸法
  6
Continuous
 62
   120
370
     5
100
AcDbLine
 10
1490.338660066266
 20
-1572.203404857933
 30
0.0
 11
1340.338660066265
 21
-1572.203404857933
 31
0.0
  0
LWPOLYLINE
  5
3D7
330
1F
100
AcDbEntity
  8
1-B_寸法
  6
Continuous
 62
     7
370
     9
100
AcDbPolyline
 90
        4
 70
     1
 43
3.0
 10
1491.838660066266
 20
-1572.203404857933
 42
0.4142135623731
 10
1490.338660066266
 20
-1570.703404857933
 42
0.4142135623731
 10
1488.838660066266
 20
-1572.203404857933
 42
0.4142135623731
 10
1490.338660066266
 20
-1573.703404857933
 42
0.4142135623731
  0
LINE
  5
3D8
330
1F
100
AcDbEntity
  8
1-B_寸法
  6
Continuous
 62
   120
370
     5
100
AcDbLine
 10
1490.338660066266
 20
-1617.203404857933
 30
0.0
 11
1490.338660066266
 21
-1572.203404857933
 31
0.0
  0
LINE
  5
3D9
330
1F
100
AcDbEntity
  8
1-B_寸法
  6
Continuous
 62
   120
370
     5
100
AcDbLine
 10
1490.338660066266
 20
-1572.203404857933
 30
0.0
 11
1490.338660066266
 21
-1474.703404857932
 31
0.0
  0
MTEXT
  5
3DA
330
1F
100
AcDbEntity
  8
F-A_文字
  6
Continuous
 62
     7
370
     9
100
AcDbMText
 10
3271.249472128379
 20
-4130.406134801269
 30
0.0
 40
79.19357142857143
 41
727.5
 46
0.0
 71
     7
 72
     1
  1
{\fＭＳ ゴシック|b0|i0|c128|p49;M53-G1609a_S01}
 73
     1
 44
1.0
  0
LINE
  5
3DB
330
1F
100
AcDbEntity
  8
0-4_枠
  6
Continuous
 62
    92
370
    13
100
AcDbLine
 10
-2141.241838282547
 20
284.9929439297787
 30
0.0
 11
-2141.241838282547
 21
490.7503032426592
 31
0.0
  0
LINE
  5
3DC
330
1F
100
AcDbEntity
  8
0-4_枠
  6
Continuous
 62
    92
370
    13
100
AcDbLine
 10
-2141.241838282547
 20
284.9929439297787
 30
0.0
 11
-2145.484478969666
 21
280.7503032426592
 31
0.0
  0
LINE
  5
3DD
330
1F
100
AcDbEntity
  8
0-4_枠
  6
Continuous
 62
    92
370
    13
100
AcDbLine
 10
-2196.999197595426
 20
280.7503032426592
 30
0.0
 11
-2145.484478969666
 21
280.7503032426592
 31
0.0
  0
LINE
  5
3DE
330
1F
100
AcDbEntity
  8
0-4_枠
  6
Continuous
 62
   120
370
     5
100
AcDbLine
 10
-2141.241838282547
 20
32.3536411582824
 30
0.0
 11
-2141.241838282547
 21
257.4429247479824
 31
0.0
  0
LWPOLYLINE
  5
3DF
330
1F
100
AcDbEntity
  8
0-4_枠
  6
Continuous
 62
     7
370
     9
100
AcDbPolyline
 90
        4
 70
     1
 43
3.0
 10
-2139.741838282547
 20
32.3536411582824
 42
0.4142135623731
 10
-2141.241838282547
 20
33.8536411582824
 42
0.4142135623731
 10
-2142.741838282547
 20
32.3536411582824
 42
0.4142135623731
 10
-2141.241838282547
 20
30.8536411582824
 42
0.4142135623731
  0
LINE
  5
3E0
330
1F
100
AcDbEntity
  8
0-4_枠
  6
Continuous
 62
   120
370
     5
100
AcDbLine
 10
-2138.241838282548
 20
164.0625116494669
 30
0.0
 11
-2138.241838282548
 21
257.4429247479824
 31
0.0
  0
LINE
  5
3E1
330
1F
100
AcDbEntity
  8
0-4_枠
  6
Continuous
 62
   120
370
     5
100
AcDbLine
 10
-2201.241838282546
 20
349.691096047573
 30
0.0
 11
-2141.241838282547
 21
289.6910960475739
 31
0.0
  0
LINE
  5
3E2
330
1F
100
AcDbEntity
  8
0-4_枠
  6
Continuous
 62
   120
370
     5
100
AcDbLine
 10
-2151.382214557246
 20
490.7503032426575
 30
0.0
 11
-2141.241838282547
 21
480.6099269679592
 31
0.0
  0
LINE
  5
3E3
330
1F
100
AcDbEntity
  8
0-4_枠
  6
Continuous
 62
   120
370
     5
100
AcDbLine
 10
-2172.595417992849
 20
490.7503032426609
 30
0.0
 11
-2141.241838282547
 21
459.3967235323594
 31
0.0
  0
LINE
  5
3E4
330
1F
100
AcDbEntity
  8
0-4_枠
  6
Continuous
 62
   120
370
     5
100
AcDbLine
 10
-2201.241838282546
 20
455.757113225585
 30
0.0
 11
-2141.241838282547
 21
395.7571132255842
 31
0.0
  0
LINE
  5
3E5
330
1F
100
AcDbEntity
  8
0-4_枠
  6
Continuous
 62
   120
370
     5
100
AcDbLine
 10
-2201.241838282546
 20
476.9703166611858
 30
0.0
 11
-2141.241838282547
 21
416.9703166611867
 31
0.0
  0
LINE
  5
3E6
330
1F
100
AcDbEntity
  8
0-4_枠
  6
Continuous
 62
   120
370
     5
100
AcDbLine
 10
-2201.241838282546
 20
434.5439097899824
 30
0.0
 11
-2141.241838282547
 21
374.5439097899817
 31
0.0
  0
LINE
  5
3E7
330
1F
100
AcDbEntity
  8
0-4_枠
  6
Continuous
 62
   120
370
     5
100
AcDbLine
 10
-2201.241838282546
 20
413.3307063543799
 30
0.0
 11
-2141.241838282547
 21
353.3307063543791
 31
0.0
  0
LINE
  5
3E8
330
1F
100
AcDbEntity
  8
0-4_枠
  6
Continuous
 62
   120
370
     5
100
AcDbLine
 10
-2201.241838282546
 20
392.1175029187781
 30
0.0
 11
-2141.241838282547
 21
332.1175029187766
 31
0.0
  0
LINE
  5
3E9
330
1F
100
AcDbEntity
  8
0-4_枠
  6
Continuous
 62
   120
370
     5
100
AcDbLine
 10
-2193.808621428421
 20
490.7503032426592
 30
0.0
 11
-2141.241838282547
 21
438.1835200967859
 31
0.0
  0
LINE
  5
3EA
330
1F
100
AcDbEntity
  8
0-4_枠
  6
Continuous
 62
   120
370
     5
100
AcDbLine
 10
-2201.241838282546
 20
370.9042994831756
 30
0.0
 11
-2141.241838282547
 21
310.9042994831748
 31
0.0
  0
LINE
  5
3EB
330
1F
100
AcDbEntity
  8
0-4_枠
  6
Continuous
 62
    92
370
    13
100
AcDbLine
 10
-2138.241838282548
 20
454.7503032426587
 30
0.0
 11
-2138.241838282548
 21
490.7503032426592
 31
0.0
  0
LINE
  5
3EC
330
1F
100
AcDbEntity
  8
0-4_枠
  6
Continuous
 62
     7
370
     9
100
AcDbLine
 10
2637.75816171746
 20
424.7503032426578
 30
0.0
 11
2637.75816171746
 21
346.750303242658
 31
0.0
  0
LINE
  5
3ED
330
1F
100
AcDbEntity
  8
0-4_枠
  6
Continuous
 62
   200
370
    20
100
AcDbLine
 10
-2138.241838282547
 20
430.7503032426592
 30
0.0
 11
291.7581617174534
 21
430.7503032426592
 31
0.0
  0
LINE
  5
3EE
330
1F
100
AcDbEntity
  8
0-4_枠
  6
Continuous
 62
   200
370
    20
100
AcDbLine
 10
-2138.241838282547
 20
340.7503032426592
 30
0.0
 11
-2138.241838282547
 21
430.7503032426592
 31
0.0
  0
LINE
  5
3EF
330
1F
100
AcDbEntity
  8
0-4_枠
  6
Continuous
 62
   200
370
    20
100
AcDbLine
 10
-2138.241838282547
 20
340.7503032426592
 30
0.0
 11
291.7581617174534
 21
340.7503032426592
 31
0.0
  0
LINE
  5
3F0
330
1F
100
AcDbEntity
  8
0-4_枠
  6
Continuous
 62
   200
370
    20
100
AcDbLine
 10
291.7581617174534
 20
430.7503032426592
 30
0.0
 11
291.7581617174534
 21
340.7503032426592
 31
0.0
  0
MTEXT
  5
3F1
330
1F
100
AcDbEntity
  8
0-4_枠
  6
Continuous
 62
     7
370
     9
100
AcDbMText
 10
-1121.380960510696
 20
335.0124965463651
 30
0.0
 40
78.74000000000001
 41
465.0
 46
0.0
 71
     7
 72
     1
  1
{\fＭＳ ゴシック|b0|i0|c128|p49;ＤＷ：810}
 73
     1
 44
1.0
  0
LINE
  5
3F2
330
1F
100
AcDbEntity
  8
0-4_枠
  6
Continuous
 62
     7
370
     9
100
AcDbLine
 10
2685.758161717461
 20
346.750303242658
 30
0.0
 11
2637.75816171746
 21
346.750303242658
 31
0.0
  0
LINE
  5
3F3
330
1F
100
AcDbEntity
  8
0-4_枠
  6
Continuous
 62
     7
370
     9
100
AcDbLine
 10
2685.758161717461
 20
424.7503032426578
 30
0.0
 11
2637.75816171746
 21
424.7503032426578
 31
0.0
  0
LINE
  5
3F4
330
1F
100
AcDbEntity
  8
0-4_枠
  6
Continuous
 62
     7
370
     9
100
AcDbLine
 10
2643.251801076393
 20
424.7503032426578
 30
0.0
 11
2637.75816171746
 21
419.2566638837246
 31
0.0
  0
LINE
  5
3F5
330
1F
100
AcDbEntity
  8
0-4_枠
  6
Continuous
 62
     7
370
     9
100
AcDbLine
 10
2655.979723137752
 20
424.7503032426578
 30
0.0
 11
2637.75816171746
 21
406.5287418223661
 31
0.0
  0
LINE
  5
3F6
330
1F
100
AcDbEntity
  8
0-4_枠
  6
Continuous
 62
     7
370
     9
100
AcDbLine
 10
2668.70764519911
 20
424.7503032426578
 30
0.0
 11
2637.75816171746
 21
393.8008197610085
 31
0.0
  0
LINE
  5
3F7
330
1F
100
AcDbEntity
  8
0-4_枠
  6
Continuous
 62
     7
370
     9
100
AcDbLine
 10
2681.435567260468
 20
424.7503032426578
 30
0.0
 11
2637.75816171746
 21
381.07289769965
 31
0.0
  0
LINE
  5
3F8
330
1F
100
AcDbEntity
  8
0-4_枠
  6
Continuous
 62
     7
370
     9
100
AcDbLine
 10
2685.758161717461
 20
416.3449756382931
 30
0.0
 11
2637.75816171746
 21
368.3449756382932
 31
0.0
  0
LINE
  5
3F9
330
1F
100
AcDbEntity
  8
0-4_枠
  6
Continuous
 62
     7
370
     9
100
AcDbLine
 10
2685.758161717461
 20
403.6170535769346
 30
0.0
 11
2637.75816171746
 21
355.6170535769348
 31
0.0
  0
LINE
  5
3FA
330
1F
100
AcDbEntity
  8
0-4_枠
  6
Continuous
 62
     7
370
     9
100
AcDbLine
 10
2685.758161717461
 20
390.889131515577
 30
0.0
 11
2641.619333444542
 21
346.750303242658
 31
0.0
  0
LINE
  5
3FB
330
1F
100
AcDbEntity
  8
0-4_枠
  6
Continuous
 62
     7
370
     9
100
AcDbLine
 10
2685.758161717461
 20
378.1612094542194
 30
0.0
 11
2654.347255505899
 21
346.750303242658
 31
0.0
  0
LINE
  5
3FC
330
1F
100
AcDbEntity
  8
0-4_枠
  6
Continuous
 62
     7
370
     9
100
AcDbLine
 10
2685.758161717461
 20
365.4332873928618
 30
0.0
 11
2667.075177567257
 21
346.750303242658
 31
0.0
  0
LINE
  5
3FD
330
1F
100
AcDbEntity
  8
0-4_枠
  6
Continuous
 62
     7
370
     9
100
AcDbLine
 10
2685.758161717461
 20
352.7053653315033
 30
0.0
 11
2679.803099628614
 21
346.750303242658
 31
0.0
  0
LINE
  5
3FE
330
1F
100
AcDbEntity
  8
0-4_枠
  6
Continuous
 62
    92
370
    13
100
AcDbLine
 10
2694.758161717459
 20
427.7503032426585
 30
0.0
 11
2694.758161717459
 21
343.7503032426582
 31
0.0
  0
LINE
  5
3FF
330
1F
100
AcDbEntity
  8
0-4_枠
  6
Continuous
 62
    92
370
    13
100
AcDbLine
 10
2685.758161717461
 20
427.7503032426585
 30
0.0
 11
2685.758161717461
 21
343.7503032426582
 31
0.0
  0
LINE
  5
400
330
1F
100
AcDbEntity
  8
0-4_枠
  6
Continuous
 62
    92
370
    13
100
AcDbLine
 10
2694.758161717459
 20
427.7503032426585
 30
0.0
 11
-2141.241838282547
 21
427.7503032426585
 31
0.0
  0
LINE
  5
401
330
1F
100
AcDbEntity
  8
0-4_枠
  6
Continuous
 62
    92
370
    13
100
AcDbLine
 10
2694.758161717459
 20
343.7503032426582
 30
0.0
 11
-2141.241838282547
 21
343.7503032426582
 31
0.0
  0
LINE
  5
402
330
1F
100
AcDbEntity
  8
0-4_枠
  6
Continuous
 62
   120
370
     5
100
AcDbLine
 10
-2141.241838282547
 20
32.3536411582824
 30
0.0
 11
2685.758161717461
 21
32.3536411582824
 31
0.0
  0
LWPOLYLINE
  5
403
330
1F
100
AcDbEntity
  8
0-4_枠
  6
Continuous
 62
     7
370
     9
100
AcDbPolyline
 90
        4
 70
     1
 43
3.0
 10
2687.258161717461
 20
32.3536411582824
 42
0.4142135623731
 10
2685.758161717461
 20
33.8536411582824
 42
0.4142135623731
 10
2684.258161717461
 20
32.3536411582824
 42
0.4142135623731
 10
2685.758161717461
 20
30.8536411582824
 42
0.4142135623731
  0
LINE
  5
404
330
1F
100
AcDbEntity
  8
0-4_枠
  6
Continuous
 62
   120
370
     5
100
AcDbLine
 10
2685.758161717461
 20
32.3536411582824
 30
0.0
 11
2694.758161717459
 21
32.3536411582824
 31
0.0
  0
LWPOLYLINE
  5
405
330
1F
100
AcDbEntity
  8
0-4_枠
  6
Continuous
 62
     7
370
     9
100
AcDbPolyline
 90
        4
 70
     1
 43
3.0
 10
2696.258161717459
 20
32.3536411582824
 42
0.4142135623731
 10
2694.758161717459
 20
33.8536411582824
 42
0.4142135623731
 10
2693.258161717459
 20
32.3536411582824
 42
0.4142135623731
 10
2694.758161717459
 20
30.8536411582824
 42
0.4142135623731
  0
MTEXT
  5
406
330
1F
100
AcDbEntity
  8
0-4_枠
  6
Continuous
 62
     7
370
   211
100
AcDbMText
 10
2626.053388396766
 20
36.6436411582824
 30
0.0
 40
68.58
 41
45.0
 46
0.0
 71
     7
 72
     1
  1
{\fＭＳ ゴシック|b0|i0|c128|p49;3}
 73
     1
 44
1.0
  0
LINE
  5
407
330
1F
100
AcDbEntity
  8
0-4_枠
  6
Continuous
 62
   120
370
     5
100
AcDbLine
 10
2685.758161717461
 20
32.3536411582824
 30
0.0
 11
2685.758161717461
 21
257.4429247479824
 31
0.0
  0
LINE
  5
408
330
1F
100
AcDbEntity
  8
0-4_枠
  6
Continuous
 62
   120
370
     5
100
AcDbLine
 10
2694.758161717459
 20
32.3536411582824
 30
0.0
 11
2694.758161717459
 21
257.4429247479824
 31
0.0
  0
LINE
  5
409
330
1F
100
AcDbEntity
  8
0-4_枠
  6
Continuous
 62
   120
370
     5
100
AcDbLine
 10
-2141.241838282547
 20
32.3536411582824
 30
0.0
 11
-2335.197421642911
 21
32.3536411582824
 31
0.0
  0
LINE
  5
40A
330
1F
100
AcDbEntity
  8
0-4_枠
  6
JWW_DASHED1
 62
   200
370
    20
100
AcDbLine
 10
231.7581617174571
 20
430.7503032426592
 30
0.0
 11
231.7581617174571
 21
340.7503032426592
 31
0.0
  0
LINE
  5
40B
330
1F
100
AcDbEntity
  8
0-4_枠
  6
JWW_DASHED1
 62
   200
370
    20
100
AcDbLine
 10
2661.75816171746
 20
430.7503032426592
 30
0.0
 11
210.7581617174571
 21
430.7503032426592
 31
0.0
  0
LINE
  5
40C
330
1F
100
AcDbEntity
  8
0-4_枠
  6
JWW_DASHED1
 62
   200
370
    20
100
AcDbLine
 10
2661.75816171746
 20
340.7503032426592
 30
0.0
 11
2661.75816171746
 21
430.7503032426592
 31
0.0
  0
LINE
  5
40D
330
1F
100
AcDbEntity
  8
0-4_枠
  6
JWW_DASHED1
 62
   200
370
    20
100
AcDbLine
 10
210.7581617174571
 20
340.7503032426592
 30
0.0
 11
2661.75816171746
 21
340.7503032426592
 31
0.0
  0
CIRCLE
  5
40E
330
1F
100
AcDbEntity
  8
0-4_枠
  6
Continuous
 62
   120
370
     5
100
AcDbCircle
 10
2661.758161717458
 20
385.7503032426583
 30
0.0
 40
6.0
  0
CIRCLE
  5
40F
330
1F
100
AcDbEntity
  8
0-4_枠
  6
Continuous
 62
   120
370
     5
100
AcDbCircle
 10
-2117.241838282539
 20
385.7503032426583
 30
0.0
 40
6.0
  0
CIRCLE
  5
410
330
1F
100
AcDbEntity
  8
0-4_枠
  6
Continuous
 62
   120
370
     5
100
AcDbCircle
 10
2229.75816171746
 20
385.7503032426583
 30
0.0
 40
6.0
  0
CIRCLE
  5
411
330
1F
100
AcDbEntity
  8
0-4_枠
  6
Continuous
 62
   120
370
     5
100
AcDbCircle
 10
2154.75816171746
 20
385.7503032426583
 30
0.0
 40
6.0
  0
CIRCLE
  5
412
330
1F
100
AcDbEntity
  8
0-4_枠
  6
Continuous
 62
   120
370
     5
100
AcDbCircle
 10
-1685.24183828254
 20
385.7503032426583
 30
0.0
 40
6.0
  0
CIRCLE
  5
413
330
1F
100
AcDbEntity
  8
0-4_枠
  6
Continuous
 62
   120
370
     5
100
AcDbCircle
 10
-1610.24183828254
 20
385.7503032426583
 30
0.0
 40
6.0
  0
LINE
  5
414
330
1F
100
AcDbEntity
  8
0-4_枠
  6
JWW_CENTER1
 62
   120
370
     5
100
AcDbLine
 10
2794.843092698566
 20
385.7503032426583
 30
0.0
 11
-2281.032816617748
 21
385.7503032426583
 31
0.0
  0
LINE
  5
415
330
1F
100
AcDbEntity
  8
0-4_枠
  6
JWW_CENTER1
 62
   120
370
     5
100
AcDbLine
 10
2661.75816171746
 20
413.8217036791004
 30
0.0
 11
2661.75816171746
 21
364.3888024436787
 31
0.0
  0
LINE
  5
416
330
1F
100
AcDbEntity
  8
0-4_枠
  6
JWW_CENTER1
 62
   120
370
     5
100
AcDbLine
 10
-2117.24183828254
 20
413.8217036791004
 30
0.0
 11
-2117.24183828254
 21
364.3888024436787
 31
0.0
  0
LINE
  5
417
330
1F
100
AcDbEntity
  8
0-4_枠
  6
JWW_CENTER1
 62
   120
370
     5
100
AcDbLine
 10
2229.75816171746
 20
413.8217036791004
 30
0.0
 11
2229.75816171746
 21
364.3888024436787
 31
0.0
  0
LINE
  5
418
330
1F
100
AcDbEntity
  8
0-4_枠
  6
JWW_CENTER1
 62
   120
370
     5
100
AcDbLine
 10
2154.75816171746
 20
413.8217036791004
 30
0.0
 11
2154.75816171746
 21
364.3888024436787
 31
0.0
  0
LINE
  5
419
330
1F
100
AcDbEntity
  8
0-4_枠
  6
JWW_CENTER1
 62
   120
370
     5
100
AcDbLine
 10
-1685.24183828254
 20
413.8217036791004
 30
0.0
 11
-1685.24183828254
 21
364.3888024436787
 31
0.0
  0
LINE
  5
41A
330
1F
100
AcDbEntity
  8
0-4_枠
  6
JWW_CENTER1
 62
   120
370
     5
100
AcDbLine
 10
-1610.24183828254
 20
413.8217036791004
 30
0.0
 11
-1610.24183828254
 21
364.3888024436787
 31
0.0
  0
MTEXT
  5
41B
330
1F
100
AcDbEntity
  8
0-4_枠
  6
Continuous
 62
     7
370
   211
100
AcDbMText
 10
-170.2418382825434
 20
42.02246468769417
 30
0.0
 40
79.33764705882353
 41
885.0
 46
0.0
 71
     7
 72
     1
  1
{\fＭＳ ゴシック|b0|i0|c128|p49;上吊レール：1,609}
 73
     1
 44
1.0
  0
MTEXT
  5
41C
330
1F
100
AcDbEntity
  8
0-4_枠
  6
Continuous
 62
     7
370
   211
100
AcDbMText
 10
-2310.215379530658
 20
39.5011411582824
 30
0.0
 40
74.295
 41
97.5
 46
0.0
 71
     7
 72
     1
  1
{\fＭＳ ゴシック|b0|i0|c128|p49;20}
 73
     1
 44
1.0
  0
ENDSEC
  0
SECTION
  2
OBJECTS
  0
DICTIONARY
  5
C
330
0
100
AcDbDictionary
281
     1
  3
ACAD_GROUP
350
D
  3
ACAD_LAYOUT
350
1A
  3
ACAD_MATERIAL
350
3B
  3
ACAD_MLEADERSTYLE
350
41E
  3
ACAD_MLINESTYLE
350
17
  3
ACAD_PLOTSETTINGS
350
19
  3
ACAD_PLOTSTYLENAME
350
E
  3
ACAD_TABLESTYLE
350
41D
  3
ACAD_VISUALSTYLE
350
2A
  0
DICTIONARY
  5
D
102
{ACAD_REACTORS
330
C
102
}
330
C
100
AcDbDictionary
281
     1
  0
DICTIONARY
  5
1A
102
{ACAD_REACTORS
330
C
102
}
330
C
100
AcDbDictionary
281
     1
  3
Layout1
350
1E
  3
Layout2
350
26
  3
Model
350
22
  0
DICTIONARY
  5
3B
102
{ACAD_REACTORS
330
C
102
}
330
C
100
AcDbDictionary
281
     1
  3
ByBlock
350
3D
  3
ByLayer
350
3C
  3
Global
350
3E
  0
DICTIONARY
  5
41E
102
{ACAD_REACTORS
330
C
102
}
330
C
100
AcDbDictionary
281
     1
  0
DICTIONARY
  5
17
102
{ACAD_REACTORS
330
C
102
}
330
C
100
AcDbDictionary
281
     1
  3
Standard
350
18
  0
DICTIONARY
  5
19
102
{ACAD_REACTORS
330
C
102
}
330
C
100
AcDbDictionary
281
     1
  0
ACDBDICTIONARYWDFLT
  5
E
102
{ACAD_REACTORS
330
C
102
}
330
C
100
AcDbDictionary
281
     1
  3
Normal
350
F
100
AcDbDictionaryWithDefault
340
F
  0
DICTIONARY
  5
41D
102
{ACAD_REACTORS
330
C
102
}
330
C
100
AcDbDictionary
281
     1
  0
DICTIONARY
  5
2A
102
{ACAD_REACTORS
330
C
102
}
330
C
100
AcDbDictionary
281
     1
  3
2dWireframe
350
2F
  3
3D Hidden
350
31
  3
3dWireframe
350
30
  3
Basic
350
32
  3
Brighten
350
36
  3
ColorChange
350
3A
  3
Conceptual
350
34
  3
Dim
350
35
  3
Facepattern
350
39
  3
Flat
350
2B
  3
FlatWithEdges
350
2C
  3
Gouraud
350
2D
  3
GouraudWithEdges
350
2E
  3
Linepattern
350
38
  3
Realistic
350
33
  3
Thicken
350
37
  0
LAYOUT
  5
1E
102
{ACAD_REACTORS
330
1A
102
}
330
1A
100
AcDbPlotSettings
  1

  2
none_device
  4

  6

 40
0.0
 41
0.0
 42
0.0
 43
0.0
 44
0.0
 45
0.0
 46
0.0
 47
0.0
 48
0.0
 49
0.0
140
0.0
141
0.0
142
1.0
143
1.0
 70
   688
 72
     0
 73
     0
 74
     5
  7

 75
    16
 76
     0
 77
     5
 78
   300
147
1.0
148
0.0
149
0.0
100
AcDbLayout
  1
Layout1
 70
     1
 71
     1
 10
0.0
 20
0.0
 11
420.0
 21
297.0
 12
0.0
 22
0.0
 32
0.0
 14
1.000000000000000E+20
 24
1.000000000000000E+20
 34
1.000000000000000E+20
 15
-1.000000000000000E+20
 25
-1.000000000000000E+20
 35
-1.000000000000000E+20
146
0.0
 13
0.0
 23
0.0
 33
0.0
 16
1.0
 26
0.0
 36
0.0
 17
0.0
 27
1.0
 37
0.0
 76
     0
330
1B
  0
LAYOUT
  5
26
102
{ACAD_REACTORS
330
1A
102
}
330
1A
100
AcDbPlotSettings
  1

  2
none_device
  4

  6

 40
0.0
 41
0.0
 42
0.0
 43
0.0
 44
0.0
 45
0.0
 46
0.0
 47
0.0
 48
0.0
 49
0.0
140
0.0
141
0.0
142
1.0
143
1.0
 70
   688
 72
     0
 73
     0
 74
     5
  7

 75
    16
 76
     0
 77
     5
 78
   300
147
1.0
148
0.0
149
0.0
100
AcDbLayout
  1
Layout2
 70
     1
 71
     2
 10
0.0
 20
0.0
 11
0.0
 21
0.0
 12
0.0
 22
0.0
 32
0.0
 14
0.0
 24
0.0
 34
0.0
 15
0.0
 25
0.0
 35
0.0
146
0.0
 13
0.0
 23
0.0
 33
0.0
 16
1.0
 26
0.0
 36
0.0
 17
0.0
 27
1.0
 37
0.0
 76
     0
330
23
  0
LAYOUT
  5
22
102
{ACAD_REACTORS
330
1A
102
}
330
1A
100
AcDbPlotSettings
  1

  2
none_device
  4

  6

 40
0.0
 41
0.0
 42
0.0
 43
0.0
 44
0.0
 45
0.0
 46
0.0
 47
0.0
 48
0.0
 49
0.0
140
0.0
141
0.0
142
1.0
143
1.0
 70
  1712
 72
     0
 73
     0
 74
     0
  7

 75
     0
 76
     0
 77
     5
 78
   300
147
1.0
148
0.0
149
0.0
100
AcDbLayout
  1
Model
 70
     1
 71
     0
 10
-6300.0
 20
-4455.0
 11
6300.0
 21
4455.0
 12
0.0
 22
0.0
 32
0.0
 14
-6300.0
 24
-4455.0
 34
0.0
 15
6300.0
 25
4455.0
 35
0.0
146
0.0
 13
0.0
 23
0.0
 33
0.0
 16
1.0
 26
0.0
 36
0.0
 17
0.0
 27
1.0
 37
0.0
 76
     0
330
1F
331
29
  0
MATERIAL
  5
3D
102
{ACAD_REACTORS
330
3B
102
}
330
3B
100
AcDbMaterial
  1
ByBlock
 72
     1
 94
      127
  0
MATERIAL
  5
3C
102
{ACAD_REACTORS
330
3B
102
}
330
3B
100
AcDbMaterial
  1
ByLayer
 72
     1
 94
      127
  0
MATERIAL
  5
3E
102
{ACAD_REACTORS
330
3B
102
}
330
3B
100
AcDbMaterial
  1
Global
 72
     1
 94
      127
  0
MLINESTYLE
  5
18
102
{ACAD_REACTORS
330
17
102
}
330
17
100
AcDbMlineStyle
  2
Standard
 70
     0
  3

 62
   256
 51
90.0
 52
90.0
 71
     2
 49
0.5
 62
   256
  6
BYLAYER
 49
-0.5
 62
   256
  6
BYLAYER
  0
ACDBPLACEHOLDER
  5
F
102
{ACAD_REACTORS
330
E
102
}
330
E
  0
VISUALSTYLE
  5
2F
102
{ACAD_REACTORS
330
2A
102
}
330
2A
100
AcDbVisualStyle
  2
2dWireframe
 70
     4
177
     2
291
     0
 71
     0
176
     1
 72
     2
176
     1
 73
     0
176
     1
 90
        0
176
     1
 40
-0.6
176
     1
 41
-30.0
176
     1
 62
     5
 63
     7
421
 16777215
176
     1
 74
     1
176
     1
 91
        4
176
     1
 64
     7
176
     1
 65
   257
176
     1
 75
     1
176
     1
175
     1
176
     1
 42
1.0
176
     1
 92
        0
176
     1
 66
   257
176
     1
 43
1.0
176
     1
 76
     1
176
     1
 77
     6
176
     1
 78
     2
176
     1
 67
     7
176
     1
 79
     5
176
     1
170
     0
176
     1
171
     0
176
     1
290
     0
176
     1
 93
        1
176
     1
 44
0.0
176
     1
173
     0
176
     1
  0
VISUALSTYLE
  5
31
102
{ACAD_REACTORS
330
2A
102
}
330
2A
100
AcDbVisualStyle
  2
3D Hidden
 70
     6
177
     2
291
     0
 71
     1
176
     1
 72
     2
176
     1
 73
     2
176
     1
 90
        0
176
     1
 40
-0.6
176
     1
 41
-30.0
176
     1
 62
     5
 63
     7
421
 16777215
176
     1
 74
     2
176
     1
 91
        2
176
     1
 64
     7
176
     1
 65
   257
176
     1
 75
     2
176
     1
175
     1
176
     1
 42
40.0
176
     1
 92
        0
176
     1
 66
   257
176
     1
 43
1.0
176
     1
 76
     1
176
     1
 77
     6
176
     1
 78
     2
176
     1
 67
     7
176
     1
 79
     3
176
     1
170
     0
176
     1
171
     0
176
     1
290
     0
176
     1
 93
        1
176
     1
 44
0.0
176
     1
173
     0
176
     1
  0
VISUALSTYLE
  5
30
102
{ACAD_REACTORS
330
2A
102
}
330
2A
100
AcDbVisualStyle
  2
3dWireframe
 70
     5
177
     2
291
     0
 71
     0
176
     1
 72
     2
176
     1
 73
     0
176
     1
 90
        0
176
     1
 40
-0.6
176
     1
 41
-30.0
176
     1
 62
     5
 63
     7
421
 16777215
176
     1
 74
     1
176
     1
 91
        4
176
     1
 64
     7
176
     1
 65
   257
176
     1
 75
     1
176
     1
175
     1
176
     1
 42
1.0
176
     1
 92
        0
176
     1
 66
   257
176
     1
 43
1.0
176
     1
 76
     1
176
     1
 77
     6
176
     1
 78
     2
176
     1
 67
     7
176
     1
 79
     5
176
     1
170
     0
176
     1
171
     0
176
     1
290
     0
176
     1
 93
        1
176
     1
 44
0.0
176
     1
173
     0
176
     1
  0
VISUALSTYLE
  5
32
102
{ACAD_REACTORS
330
2A
102
}
330
2A
100
AcDbVisualStyle
  2
Basic
 70
     7
177
     2
291
     1
 71
     1
176
     1
 72
     0
176
     1
 73
     1
176
     1
 90
        0
176
     1
 40
-0.6
176
     1
 41
-30.0
176
     1
 62
     5
 63
     7
421
 16777215
176
     1
 74
     0
176
     1
 91
        4
176
     1
 64
     7
176
     1
 65
   257
176
     1
 75
     1
176
     1
175
     1
176
     1
 42
1.0
176
     1
 92
        8
176
     1
 66
     7
176
     1
 43
1.0
176
     1
 76
     1
176
     1
 77
     6
176
     1
 78
     2
176
     1
 67
     7
176
     1
 79
     5
176
     1
170
     0
176
     1
171
     0
176
     1
290
     0
176
     1
 93
        1
176
     1
 44
0.0
176
     1
173
     0
176
     1
  0
VISUALSTYLE
  5
36
102
{ACAD_REACTORS
330
2A
102
}
330
2A
100
AcDbVisualStyle
  2
Brighten
 70
    12
177
     2
291
     1
 71
     2
176
     1
 72
     2
176
     1
 73
     0
176
     1
 90
        0
176
     1
 40
-0.6
176
     1
 41
-30.0
176
     1
 62
     5
 63
     7
421
 16777215
176
     1
 74
     1
176
     1
 91
        4
176
     1
 64
     7
176
     1
 65
   257
176
     1
 75
     1
176
     1
175
     1
176
     1
 42
1.0
176
     1
 92
        8
176
     1
 66
     7
176
     1
 43
1.0
176
     1
 76
     1
176
     1
 77
     6
176
     1
 78
     2
176
     1
 67
     7
176
     1
 79
     5
176
     1
170
     0
176
     1
171
     0
176
     1
290
     0
176
     1
 93
        1
176
     1
 44
50.0
176
     1
173
     0
176
     1
  0
VISUALSTYLE
  5
3A
102
{ACAD_REACTORS
330
2A
102
}
330
2A
100
AcDbVisualStyle
  2
ColorChange
 70
    16
177
     2
291
     1
 71
     2
176
     1
 72
     2
176
     1
 73
     3
176
     1
 90
        0
176
     1
 40
-0.6
176
     1
 41
-30.0
176
     1
 62
     5
 63
     8
421
  8421504
176
     1
 74
     1
176
     1
 91
        4
176
     1
 64
     7
176
     1
 65
   257
176
     1
 75
     1
176
     1
175
     1
176
     1
 42
1.0
176
     1
 92
        8
176
     1
 66
     8
424
  8421504
176
     1
 43
1.0
176
     1
 76
     1
176
     1
 77
     6
176
     1
 78
     2
176
     1
 67
     7
176
     1
 79
     5
176
     1
170
     0
176
     1
171
     0
176
     1
290
     0
176
     1
 93
        1
176
     1
 44
0.0
176
     1
173
     0
176
     1
  0
VISUALSTYLE
  5
34
102
{ACAD_REACTORS
330
2A
102
}
330
2A
100
AcDbVisualStyle
  2
Conceptual
 70
     9
177
     2
291
     0
 71
     3
176
     1
 72
     2
176
     1
 73
     0
176
     1
 90
        0
176
     1
 40
-0.6
176
     1
 41
-30.0
176
     1
 62
     5
 63
     7
421
 16777215
176
     1
 74
     2
176
     1
 91
        2
176
     1
 64
     7
176
     1
 65
   257
176
     1
 75
     1
176
     1
175
     1
176
     1
 42
40.0
176
     1
 92
        8
176
     1
 66
     7
176
     1
 43
1.0
176
     1
 76
     1
176
     1
 77
     6
176
     1
 78
     2
176
     1
 67
     7
176
     1
 79
     3
176
     1
170
     0
176
     1
171
     0
176
     1
290
     0
176
     1
 93
        1
176
     1
 44
0.0
176
     1
173
     0
176
     1
  0
VISUALSTYLE
  5
35
102
{ACAD_REACTORS
330
2A
102
}
330
2A
100
AcDbVisualStyle
  2
Dim
 70
    11
177
     2
291
     1
 71
     2
176
     1
 72
     2
176
     1
 73
     0
176
     1
 90
        0
176
     1
 40
-0.6
176
     1
 41
-30.0
176
     1
 62
     5
 63
     7
421
 16777215
176
     1
 74
     1
176
     1
 91
        4
176
     1
 64
     7
176
     1
 65
   257
176
     1
 75
     1
176
     1
175
     1
176
     1
 42
1.0
176
     1
 92
        8
176
     1
 66
     7
176
     1
 43
1.0
176
     1
 76
     1
176
     1
 77
     6
176
     1
 78
     2
176
     1
 67
     7
176
     1
 79
     5
176
     1
170
     0
176
     1
171
     0
176
     1
290
     0
176
     1
 93
        1
176
     1
 44
-50.0
176
     1
173
     0
176
     1
  0
VISUALSTYLE
  5
39
102
{ACAD_REACTORS
330
2A
102
}
330
2A
100
AcDbVisualStyle
  2
Facepattern
 70
    15
177
     2
291
     1
 71
     2
176
     1
 72
     2
176
     1
 73
     0
176
     1
 90
        0
176
     1
 40
-0.6
176
     1
 41
-30.0
176
     1
 62
     5
 63
     7
421
 16777215
176
     1
 74
     1
176
     1
 91
        4
176
     1
 64
     7
176
     1
 65
   257
176
     1
 75
     1
176
     1
175
     1
176
     1
 42
1.0
176
     1
 92
        8
176
     1
 66
     7
176
     1
 43
1.0
176
     1
 76
     1
176
     1
 77
     6
176
     1
 78
     2
176
     1
 67
     7
176
     1
 79
     5
176
     1
170
     0
176
     1
171
     0
176
     1
290
     0
176
     1
 93
        1
176
     1
 44
0.0
176
     1
173
     0
176
     1
  0
VISUALSTYLE
  5
2B
102
{ACAD_REACTORS
330
2A
102
}
330
2A
100
AcDbVisualStyle
  2
Flat
 70
     0
177
     2
291
     1
 71
     2
176
     1
 72
     1
176
     1
 73
     1
176
     1
 90
        2
176
     1
 40
-0.6
176
     1
 41
30.0
176
     1
 62
     5
 63
     7
421
 16777215
176
     1
 74
     0
176
     1
 91
        4
176
     1
 64
     7
176
     1
 65
   257
176
     1
 75
     1
176
     1
175
     1
176
     1
 42
1.0
176
     1
 92
        8
176
     1
 66
     7
176
     1
 43
1.0
176
     1
 76
     1
176
     1
 77
     6
176
     1
 78
     2
176
     1
 67
     7
176
     1
 79
     5
176
     1
170
     0
176
     1
171
     0
176
     1
290
     0
176
     1
 93
       13
176
     1
 44
0.0
176
     1
173
     0
176
     1
  0
VISUALSTYLE
  5
2C
102
{ACAD_REACTORS
330
2A
102
}
330
2A
100
AcDbVisualStyle
  2
FlatWithEdges
 70
     1
177
     2
291
     1
 71
     2
176
     1
 72
     1
176
     1
 73
     1
176
     1
 90
        2
176
     1
 40
-0.6
176
     1
 41
30.0
176
     1
 62
     5
 63
     7
421
 16777215
176
     1
 74
     1
176
     1
 91
        4
176
     1
 64
     7
176
     1
 65
   257
176
     1
 75
     1
176
     1
175
     1
176
     1
 42
1.0
176
     1
 92
        0
176
     1
 66
   257
176
     1
 43
1.0
176
     1
 76
     1
176
     1
 77
     6
176
     1
 78
     2
176
     1
 67
     7
176
     1
 79
     5
176
     1
170
     0
176
     1
171
     0
176
     1
290
     0
176
     1
 93
       13
176
     1
 44
0.0
176
     1
173
     0
176
     1
  0
VISUALSTYLE
  5
2D
102
{ACAD_REACTORS
330
2A
102
}
330
2A
100
AcDbVisualStyle
  2
Gouraud
 70
     2
177
     2
291
     1
 71
     2
176
     1
 72
     2
176
     1
 73
     1
176
     1
 90
        2
176
     1
 40
-0.6
176
     1
 41
30.0
176
     1
 62
     5
 63
     7
421
 16777215
176
     1
 74
     0
176
     1
 91
        4
176
     1
 64
     7
176
     1
 65
   257
176
     1
 75
     1
176
     1
175
     1
176
     1
 42
1.0
176
     1
 92
        0
176
     1
 66
     7
176
     1
 43
1.0
176
     1
 76
     1
176
     1
 77
     6
176
     1
 78
     2
176
     1
 67
     7
176
     1
 79
     5
176
     1
170
     0
176
     1
171
     0
176
     1
290
     0
176
     1
 93
       13
176
     1
 44
0.0
176
     1
173
     0
176
     1
  0
VISUALSTYLE
  5
2E
102
{ACAD_REACTORS
330
2A
102
}
330
2A
100
AcDbVisualStyle
  2
GouraudWithEdges
 70
     3
177
     2
291
     1
 71
     2
176
     1
 72
     2
176
     1
 73
     1
176
     1
 90
        2
176
     1
 40
-0.6
176
     1
 41
30.0
176
     1
 62
     5
 63
     7
421
 16777215
176
     1
 74
     1
176
     1
 91
        4
176
     1
 64
     7
176
     1
 65
   257
176
     1
 75
     1
176
     1
175
     1
176
     1
 42
1.0
176
     1
 92
        0
176
     1
 66
   257
176
     1
 43
1.0
176
     1
 76
     1
176
     1
 77
     6
176
     1
 78
     2
176
     1
 67
     7
176
     1
 79
     5
176
     1
170
     0
176
     1
171
     0
176
     1
290
     0
176
     1
 93
       13
176
     1
 44
0.0
176
     1
173
     0
176
     1
  0
VISUALSTYLE
  5
38
102
{ACAD_REACTORS
330
2A
102
}
330
2A
100
AcDbVisualStyle
  2
Linepattern
 70
    14
177
     2
291
     1
 71
     2
176
     1
 72
     2
176
     1
 73
     0
176
     1
 90
        0
176
     1
 40
-0.6
176
     1
 41
-30.0
176
     1
 62
     5
 63
     7
421
 16777215
176
     1
 74
     1
176
     1
 91
        4
176
     1
 64
     7
176
     1
 65
   257
176
     1
 75
     7
176
     1
175
     7
176
     1
 42
1.0
176
     1
 92
        8
176
     1
 66
     7
176
     1
 43
1.0
176
     1
 76
     1
176
     1
 77
     6
176
     1
 78
     2
176
     1
 67
     7
176
     1
 79
     5
176
     1
170
     0
176
     1
171
     0
176
     1
290
     0
176
     1
 93
        1
176
     1
 44
0.0
176
     1
173
     0
176
     1
  0
VISUALSTYLE
  5
33
102
{ACAD_REACTORS
330
2A
102
}
330
2A
100
AcDbVisualStyle
  2
Realistic
 70
     8
177
     2
291
     0
 71
     2
176
     1
 72
     2
176
     1
 73
     0
176
     1
 90
        0
176
     1
 40
-0.6
176
     1
 41
-30.0
176
     1
 62
     5
 63
     7
421
 16777215
176
     1
 74
     1
176
     1
 91
        0
176
     1
 64
     7
176
     1
 65
   257
176
     1
 75
     1
176
     1
175
     1
176
     1
 42
1.0
176
     1
 92
        8
176
     1
 66
     8
424
  7895160
176
     1
 43
1.0
176
     1
 76
     1
176
     1
 77
     6
176
     1
 78
     2
176
     1
 67
     7
176
     1
 79
     5
176
     1
170
     0
176
     1
171
     0
176
     1
290
     0
176
     1
 93
       13
176
     1
 44
0.0
176
     1
173
     0
176
     1
  0
VISUALSTYLE
  5
37
102
{ACAD_REACTORS
330
2A
102
}
330
2A
100
AcDbVisualStyle
  2
Thicken
 70
    13
177
     2
291
     1
 71
     2
176
     1
 72
     2
176
     1
 73
     0
176
     1
 90
        0
176
     1
 40
-0.6
176
     1
 41
-30.0
176
     1
 62
     5
 63
     7
421
 16777215
176
     1
 74
     1
176
     1
 91
        4
176
     1
 64
     7
176
     1
 65
   257
176
     1
 75
     1
176
     1
175
     1
176
     1
 42
1.0
176
     1
 92
       12
176
     1
 66
     7
176
     1
 43
1.0
176
     1
 76
     1
176
     1
 77
     6
176
     1
 78
     2
176
     1
 67
     7
176
     1
 79
     5
176
     1
170
     0
176
     1
171
     0
176
     1
290
     0
176
     1
 93
        1
176
     1
 44
0.0
176
     1
173
     0
176
     1
  0
ENDSEC
  0
EOF
