  0
SECTION
  2
HEADER
  9
$ACADVER
  1
AC1024
  9
$ACADMAINTVER
 70
     6
  9
$DWGCODEPAGE
  3
ANSI_932
  9
$INSBASE
 10
0.0
 20
0.0
 30
0.0
  9
$EXTMIN
 10
-6300.0
 20
-4455.0
 30
0.0
  9
$EXTMAX
 10
6300.0
 20
4455.0
 30
0.0
  9
$LIMMIN
 10
-6300.0
 20
-4455.0
  9
$LIMMAX
 10
6300.0
 20
4455.0
  9
$ORTHOMODE
 70
     0
  9
$REGENMODE
 70
     1
  9
$FILLMODE
 70
     1
  9
$QTEXTMODE
 70
     0
  9
$MIRRTEXT
 70
     1
  9
$LTSCALE
 40
30.0
  9
$ATTMODE
 70
     1
  9
$TEXTSIZE
 40
2.5
  9
$TRACEWID
 40
1.0
  9
$TEXTSTYLE
  7
Standard
  9
$CLAYER
  8
0
  9
$CELTYPE
  6
ByLayer
  9
$CECOLOR
 62
   256
  9
$CELTSCALE
 40
1.0
  9
$DISPSILH
 70
     0
  9
$DIMSCALE
 40
1.0
  9
$DIMASZ
 40
2.5
  9
$DIMEXO
 40
0.625
  9
$DIMDLI
 40
3.75
  9
$DIMRND
 40
0.0
  9
$DIMDLE
 40
0.0
  9
$DIMEXE
 40
1.25
  9
$DIMTP
 40
0.0
  9
$DIMTM
 40
0.0
  9
$DIMTXT
 40
2.5
  9
$DIMCEN
 40
2.5
  9
$DIMTSZ
 40
0.0
  9
$DIMTOL
 70
     0
  9
$DIMLIM
 70
     0
  9
$DIMTIH
 70
     0
  9
$DIMTOH
 70
     0
  9
$DIMSE1
 70
     0
  9
$DIMSE2
 70
     0
  9
$DIMTAD
 70
     1
  9
$DIMZIN
 70
     8
  9
$DIMBLK
  1

  9
$DIMASO
 70
     1
  9
$DIMSHO
 70
     1
  9
$DIMPOST
  1

  9
$DIMAPOST
  1

  9
$DIMALT
 70
     0
  9
$DIMALTD
 70
     3
  9
$DIMALTF
 40
0.03937007874016
  9
$DIMLFAC
 40
1.0
  9
$DIMTOFL
 70
     1
  9
$DIMTVP
 40
0.0
  9
$DIMTIX
 70
     0
  9
$DIMSOXD
 70
     0
  9
$DIMSAH
 70
     0
  9
$DIMBLK1
  1

  9
$DIMBLK2
  1

  9
$DIMSTYLE
  2
ISO-25
  9
$DIMCLRD
 70
     0
  9
$DIMCLRE
 70
     0
  9
$DIMCLRT
 70
     0
  9
$DIMTFAC
 40
1.0
  9
$DIMGAP
 40
0.625
  9
$DIMJUST
 70
     0
  9
$DIMSD1
 70
     0
  9
$DIMSD2
 70
     0
  9
$DIMTOLJ
 70
     0
  9
$DIMTZIN
 70
     8
  9
$DIMALTZ
 70
     0
  9
$DIMALTTZ
 70
     0
  9
$DIMUPT
 70
     0
  9
$DIMDEC
 70
     2
  9
$DIMTDEC
 70
     2
  9
$DIMALTU
 70
     2
  9
$DIMALTTD
 70
     3
  9
$DIMTXSTY
  7
Standard
  9
$DIMAUNIT
 70
     0
  9
$DIMADEC
 70
     0
  9
$DIMALTRND
 40
0.0
  9
$DIMAZIN
 70
     0
  9
$DIMDSEP
 70
    44
  9
$DIMATFIT
 70
     3
  9
$DIMFRAC
 70
     0
  9
$DIMLDRBLK
  1

  9
$DIMLUNIT
 70
     2
  9
$DIMLWD
 70
    -2
  9
$DIMLWE
 70
    -2
  9
$DIMTMOVE
 70
     0
  9
$DIMFXL
 40
1.0
  9
$DIMFXLON
 70
     0
  9
$DIMJOGANG
 40
0.7853981633974483
  9
$DIMTFILL
 70
     0
  9
$DIMTFILLCLR
 70
     0
  9
$DIMARCSYM
 70
     0
  9
$DIMLTYPE
  6

  9
$DIMLTEX1
  6

  9
$DIMLTEX2
  6

  9
$DIMTXTDIRECTION
 70
     0
  9
$LUNITS
 70
     2
  9
$LUPREC
 70
     4
  9
$SKETCHINC
 40
1.0
  9
$FILLETRAD
 40
10.0
  9
$AUNITS
 70
     0
  9
$AUPREC
 70
     0
  9
$MENU
  1
.
  9
$ELEVATION
 40
0.0
  9
$PELEVATION
 40
0.0
  9
$THICKNESS
 40
0.0
  9
$LIMCHECK
 70
     0
  9
$CHAMFERA
 40
10.0
  9
$CHAMFERB
 40
10.0
  9
$CHAMFERC
 40
20.0
  9
$CHAMFERD
 40
0.0
  9
$SKPOLY
 70
     0
  9
$TDCREATE
 40
2457717.640160463
  9
$TDUCREATE
 40
2457717.265160463
  9
$TDUPDATE
 40
2457717.640160474
  9
$TDUUPDATE
 40
2457717.265160474
  9
$TDINDWG
 40
0.0000000116
  9
$TDUSRTIMER
 40
0.0000000116
  9
$USRTIMER
 70
     1
  9
$ANGBASE
 50
0.0
  9
$ANGDIR
 70
     0
  9
$PDMODE
 70
     0
  9
$PDSIZE
 40
0.0
  9
$PLINEWID
 40
0.0
  9
$SPLFRAME
 70
     0
  9
$SPLINETYPE
 70
     6
  9
$SPLINESEGS
 70
     8
  9
$HANDSEED
  5
2E3
  9
$SURFTAB1
 70
     6
  9
$SURFTAB2
 70
     6
  9
$SURFTYPE
 70
     6
  9
$SURFU
 70
     6
  9
$SURFV
 70
     6
  9
$UCSBASE
  2

  9
$UCSNAME
  2

  9
$UCSORG
 10
0.0
 20
0.0
 30
0.0
  9
$UCSXDIR
 10
1.0
 20
0.0
 30
0.0
  9
$UCSYDIR
 10
0.0
 20
1.0
 30
0.0
  9
$UCSORTHOREF
  2

  9
$UCSORTHOVIEW
 70
     0
  9
$UCSORGTOP
 10
0.0
 20
0.0
 30
0.0
  9
$UCSORGBOTTOM
 10
0.0
 20
0.0
 30
0.0
  9
$UCSORGLEFT
 10
0.0
 20
0.0
 30
0.0
  9
$UCSORGRIGHT
 10
0.0
 20
0.0
 30
0.0
  9
$UCSORGFRONT
 10
0.0
 20
0.0
 30
0.0
  9
$UCSORGBACK
 10
0.0
 20
0.0
 30
0.0
  9
$PUCSBASE
  2

  9
$PUCSNAME
  2

  9
$PUCSORG
 10
0.0
 20
0.0
 30
0.0
  9
$PUCSXDIR
 10
1.0
 20
0.0
 30
0.0
  9
$PUCSYDIR
 10
0.0
 20
1.0
 30
0.0
  9
$PUCSORTHOREF
  2

  9
$PUCSORTHOVIEW
 70
     0
  9
$PUCSORGTOP
 10
0.0
 20
0.0
 30
0.0
  9
$PUCSORGBOTTOM
 10
0.0
 20
0.0
 30
0.0
  9
$PUCSORGLEFT
 10
0.0
 20
0.0
 30
0.0
  9
$PUCSORGRIGHT
 10
0.0
 20
0.0
 30
0.0
  9
$PUCSORGFRONT
 10
0.0
 20
0.0
 30
0.0
  9
$PUCSORGBACK
 10
0.0
 20
0.0
 30
0.0
  9
$USERI1
 70
     0
  9
$USERI2
 70
     0
  9
$USERI3
 70
     0
  9
$USERI4
 70
     0
  9
$USERI5
 70
     0
  9
$USERR1
 40
0.0
  9
$USERR2
 40
0.0
  9
$USERR3
 40
0.0
  9
$USERR4
 40
0.0
  9
$USERR5
 40
0.0
  9
$WORLDVIEW
 70
     1
  9
$SHADEDGE
 70
     3
  9
$SHADEDIF
 70
    70
  9
$TILEMODE
 70
     1
  9
$MAXACTVP
 70
    64
  9
$PINSBASE
 10
0.0
 20
0.0
 30
0.0
  9
$PLIMCHECK
 70
     0
  9
$PEXTMIN
 10
1.000000000000000E+20
 20
1.000000000000000E+20
 30
1.000000000000000E+20
  9
$PEXTMAX
 10
-1.000000000000000E+20
 20
-1.000000000000000E+20
 30
-1.000000000000000E+20
  9
$PLIMMIN
 10
0.0
 20
0.0
  9
$PLIMMAX
 10
420.0
 20
297.0
  9
$UNITMODE
 70
     0
  9
$VISRETAIN
 70
     1
  9
$PLINEGEN
 70
     0
  9
$PSLTSCALE
 70
     1
  9
$TREEDEPTH
 70
  3020
  9
$CMLSTYLE
  2
Standard
  9
$CMLJUST
 70
     0
  9
$CMLSCALE
 40
20.0
  9
$PROXYGRAPHICS
 70
     1
  9
$MEASUREMENT
 70
     1
  9
$CELWEIGHT
370
    -1
  9
$ENDCAPS
280
     0
  9
$JOINSTYLE
280
     0
  9
$LWDISPLAY
290
     0
  9
$INSUNITS
 70
     4
  9
$HYPERLINKBASE
  1

  9
$STYLESHEET
  1

  9
$XEDIT
290
     1
  9
$CEPSNTYPE
380
     0
  9
$PSTYLEMODE
290
     1
  9
$FINGERPRINTGUID
  2
{B8BB954B-4E4D-4310-BE96-DE5FB17C478B}
  9
$VERSIONGUID
  2
{FAEB1C32-E019-11D5-929B-00C0DF256EC4}
  9
$EXTNAMES
290
     1
  9
$PSVPSCALE
 40
0.0
  9
$OLESTARTUP
290
     0
  9
$SORTENTS
280
   127
  9
$INDEXCTL
280
     0
  9
$HIDETEXT
280
     1
  9
$XCLIPFRAME
280
     2
  9
$HALOGAP
280
     0
  9
$OBSCOLOR
 70
   257
  9
$OBSLTYPE
280
     0
  9
$INTERSECTIONDISPLAY
280
     0
  9
$INTERSECTIONCOLOR
 70
   257
  9
$DIMASSOC
280
     2
  9
$PROJECTNAME
  1

  9
$CAMERADISPLAY
290
     0
  9
$LENSLENGTH
 40
50.0
  9
$CAMERAHEIGHT
 40
0.0
  9
$STEPSPERSEC
 40
2.0
  9
$STEPSIZE
 40
6.0
  9
$3DDWFPREC
 40
2.0
  9
$PSOLWIDTH
 40
5.0
  9
$PSOLHEIGHT
 40
80.0
  9
$LOFTANG1
 40
1.570796326794897
  9
$LOFTANG2
 40
1.570796326794897
  9
$LOFTMAG1
 40
0.0
  9
$LOFTMAG2
 40
0.0
  9
$LOFTPARAM
 70
     7
  9
$LOFTNORMALS
280
     1
  9
$LATITUDE
 40
37.795
  9
$LONGITUDE
 40
-122.394
  9
$NORTHDIRECTION
 40
0.0
  9
$TIMEZONE
 70
 -8000
  9
$LIGHTGLYPHDISPLAY
280
     1
  9
$TILEMODELIGHTSYNCH
280
     1
  9
$SOLIDHIST
280
     1
  9
$SHOWHIST
280
     1
  9
$DWFFRAME
280
     2
  9
$DGNFRAME
280
     2
  9
$REALWORLDSCALE
290
     1
  9
$INTERFERECOLOR
 62
   256
  9
$CSHADOW
280
     0
  9
$SHADOWPLANELOCATION
 40
0.0
  0
ENDSEC
  0
SECTION
  2
CLASSES
  0
CLASS
  1
ACDBDICTIONARYWDFLT
  2
AcDbDictionaryWithDefault
  3
ObjectDBX Classes
 90
        0
 91
        4
280
     0
281
     0
  0
CLASS
  1
VISUALSTYLE
  2
AcDbVisualStyle
  3
ObjectDBX Classes
 90
     4095
 91
        4
280
     0
281
     0
  0
CLASS
  1
MATERIAL
  2
AcDbMaterial
  3
ObjectDBX Classes
 90
     1153
 91
        4
280
     0
281
     0
  0
ENDSEC
  0
SECTION
  2
TABLES
  0
TABLE
  2
VPORT
  5
8
330
0
100
AcDbSymbolTable
 70
     1
  0
VPORT
  5
29
330
8
100
AcDbSymbolTableRecord
100
AcDbViewportTableRecord
  2
*Active
 70
     0
 10
0.0
 20
0.0
 11
1.0
 21
1.0
 12
0.0
 22
0.0
 13
0.0
 23
0.0
 14
10.0
 24
10.0
 15
10.0
 25
10.0
 16
0.0
 26
0.0
 36
1.0
 17
0.0
 27
0.0
 37
0.0
 40
9801.0
 41
1.414141414141414
 42
50.0
 43
0.0
 44
0.0
 50
0.0
 51
0.0
 71
     0
 72
 10000
 73
     1
 74
     3
 75
     0
 76
     0
 77
     0
 78
     0
281
     0
 65
     1
110
0.0
120
0.0
130
0.0
111
1.0
121
0.0
131
0.0
112
0.0
122
1.0
132
0.0
 79
     0
146
0.0
 60
     3
 61
     5
292
     1
282
     1
141
0.0
142
0.0
 63
   250
  0
ENDTAB
  0
TABLE
  2
LTYPE
  5
5
330
0
100
AcDbSymbolTable
 70
     5
  0
LTYPE
  5
14
330
5
100
AcDbSymbolTableRecord
100
AcDbLinetypeTableRecord
  2
ByBlock
 70
     0
  3

 72
    65
 73
     0
 40
0.0
  0
LTYPE
  5
15
330
5
100
AcDbSymbolTableRecord
100
AcDbLinetypeTableRecord
  2
ByLayer
 70
     0
  3

 72
    65
 73
     0
 40
0.0
  0
LTYPE
  5
16
330
5
100
AcDbSymbolTableRecord
100
AcDbLinetypeTableRecord
  2
Continuous
 70
     0
  3
Solid line
 72
    65
 73
     0
 40
0.0
  0
LTYPE
  5
3F
330
5
100
AcDbSymbolTableRecord
100
AcDbLinetypeTableRecord
  2
JWW_HOJO
 70
     0
  3
  -   -   -   -   -   -   -   - 
 72
    65
 73
     2
 40
1.693333333333333
 49
-1.27
 74
     0
 49
0.4233333333333333
 74
     0
  0
LTYPE
  5
40
330
5
100
AcDbSymbolTableRecord
100
AcDbLinetypeTableRecord
  2
JWW_DASHED2
 70
     0
  3
--    ----    ----    ----    --
 72
    65
 73
     2
 40
3.386666666666667
 49
1.693333333333333
 74
     0
 49
-1.693333333333333
 74
     0
  0
LTYPE
  5
41
330
5
100
AcDbSymbolTableRecord
100
AcDbLinetypeTableRecord
  2
JWW_DASHED1
 70
     0
  3
-  --  --  --  --  --  --  --  -
 72
    65
 73
     2
 40
1.693333333333333
 49
0.8466666666666667
 74
     0
 49
-0.8466666666666667
 74
     0
  0
LTYPE
  5
42
330
5
100
AcDbSymbolTableRecord
100
AcDbLinetypeTableRecord
  2
JWW_CENTER1
 70
     0
  3
-----  --  ----------  --  -----
 72
    65
 73
     4
 40
6.773333333333333
 49
4.233333333333333
 74
     0
 49
-0.8466666666666667
 74
     0
 49
0.8466666666666667
 74
     0
 49
-0.8466666666666667
 74
     0
  0
ENDTAB
  0
TABLE
  2
LAYER
  5
2
330
0
100
AcDbSymbolTable
 70
    21
  0
LAYER
  5
10
330
2
100
AcDbSymbolTableRecord
100
AcDbLayerTableRecord
  2
0
 70
     0
 62
     7
  6
Continuous
370
    -3
390
F
347
3E
  0
LAYER
  5
43
330
2
100
AcDbSymbolTableRecord
100
AcDbLayerTableRecord
  2
F-0_補助線
 70
     0
 62
     7
  6
Continuous
370
    -3
390
F
347
3E
  0
LAYER
  5
44
330
2
100
AcDbSymbolTableRecord
100
AcDbLayerTableRecord
  2
F-1_枠
 70
     0
 62
     7
  6
Continuous
370
    -3
390
F
347
3E
  0
LAYER
  5
45
330
2
100
AcDbSymbolTableRecord
100
AcDbLayerTableRecord
  2
F-A_文字
 70
     0
 62
     7
  6
Continuous
370
    -3
390
F
347
3E
  0
LAYER
  5
46
330
2
100
AcDbSymbolTableRecord
100
AcDbLayerTableRecord
  2
0-A_文字
 70
     0
 62
     7
  6
Continuous
370
    -3
390
F
347
3E
  0
LAYER
  5
47
330
2
100
AcDbSymbolTableRecord
100
AcDbLayerTableRecord
  2
戸当り
 70
     0
 62
     7
  6
Continuous
370
    -3
390
F
347
3E
  0
LAYER
  5
48
330
2
100
AcDbSymbolTableRecord
100
AcDbLayerTableRecord
  2
0-0_補助線
 70
     0
 62
     7
  6
Continuous
370
    -3
390
F
347
3E
  0
LAYER
  5
49
330
2
100
AcDbSymbolTableRecord
100
AcDbLayerTableRecord
  2
0-6_扉
 70
     0
 62
     7
  6
Continuous
370
    -3
390
F
347
3E
  0
LAYER
  5
4A
330
2
100
AcDbSymbolTableRecord
100
AcDbLayerTableRecord
  2
0-B_寸法
 70
     0
 62
     7
  6
Continuous
370
    -3
390
F
347
3E
  0
LAYER
  5
4B
330
2
100
AcDbSymbolTableRecord
100
AcDbLayerTableRecord
  2
0-7_金物
 70
     0
 62
     7
  6
Continuous
370
    -3
390
F
347
3E
  0
LAYER
  5
4C
330
2
100
AcDbSymbolTableRecord
100
AcDbLayerTableRecord
  2
0-4_枠
 70
     0
 62
     7
  6
Continuous
370
    -3
390
F
347
3E
  0
LAYER
  5
4D
330
2
100
AcDbSymbolTableRecord
100
AcDbLayerTableRecord
  2
0-C_ハッチ
 70
     0
 62
     7
  6
Continuous
370
    -3
390
F
347
3E
  0
LAYER
  5
4E
330
2
100
AcDbSymbolTableRecord
100
AcDbLayerTableRecord
  2
0-3_仕上げ
 70
     0
 62
     7
  6
Continuous
370
    -3
390
F
347
3E
  0
LAYER
  5
4F
330
2
100
AcDbSymbolTableRecord
100
AcDbLayerTableRecord
  2
0-1_通り芯
 70
     0
 62
     7
  6
Continuous
370
    -3
390
F
347
3E
  0
LAYER
  5
50
330
2
100
AcDbSymbolTableRecord
100
AcDbLayerTableRecord
  2
1-3_仕上げ
 70
     0
 62
     7
  6
Continuous
370
    -3
390
F
347
3E
  0
LAYER
  5
51
330
2
100
AcDbSymbolTableRecord
100
AcDbLayerTableRecord
  2
1-B_寸法
 70
     0
 62
     7
  6
Continuous
370
    -3
390
F
347
3E
  0
LAYER
  5
52
330
2
100
AcDbSymbolTableRecord
100
AcDbLayerTableRecord
  2
1-4_枠
 70
     0
 62
     7
  6
Continuous
370
    -3
390
F
347
3E
  0
LAYER
  5
53
330
2
100
AcDbSymbolTableRecord
100
AcDbLayerTableRecord
  2
1-7_金物
 70
     0
 62
     7
  6
Continuous
370
    -3
390
F
347
3E
  0
LAYER
  5
54
330
2
100
AcDbSymbolTableRecord
100
AcDbLayerTableRecord
  2
1-6_扉
 70
     0
 62
     7
  6
Continuous
370
    -3
390
F
347
3E
  0
LAYER
  5
55
330
2
100
AcDbSymbolTableRecord
100
AcDbLayerTableRecord
  2
1-1_通り芯
 70
     0
 62
     7
  6
Continuous
370
    -3
390
F
347
3E
  0
LAYER
  5
56
330
2
100
AcDbSymbolTableRecord
100
AcDbLayerTableRecord
  2
1-A_文字
 70
     0
 62
     7
  6
Continuous
370
    -3
390
F
347
3E
  0
ENDTAB
  0
TABLE
  2
STYLE
  5
3
330
0
100
AcDbSymbolTable
 70
     1
  0
STYLE
  5
11
330
3
100
AcDbSymbolTableRecord
100
AcDbTextStyleTableRecord
  2
Standard
 70
     0
 40
0.0
 41
1.0
 50
0.0
 71
     0
 42
2.5
  3
txt
  4

  0
ENDTAB
  0
TABLE
  2
VIEW
  5
6
330
0
100
AcDbSymbolTable
 70
     0
  0
ENDTAB
  0
TABLE
  2
UCS
  5
7
330
0
100
AcDbSymbolTable
 70
     0
  0
ENDTAB
  0
TABLE
  2
APPID
  5
9
330
0
100
AcDbSymbolTable
 70
     1
  0
APPID
  5
12
330
9
100
AcDbSymbolTableRecord
100
AcDbRegAppTableRecord
  2
ACAD
 70
     0
  0
ENDTAB
  0
TABLE
  2
DIMSTYLE
  5
A
330
0
100
AcDbSymbolTable
 70
     1
100
AcDbDimStyleTable
  0
DIMSTYLE
105
27
330
A
100
AcDbSymbolTableRecord
100
AcDbDimStyleTableRecord
  2
ISO-25
 70
     0
 41
2.5
 42
0.625
 43
3.75
 44
1.25
 73
     0
 74
     0
 77
     1
 78
     8
140
2.5
141
2.5
143
0.03937007874016
147
0.625
171
     3
172
     1
178
     0
271
     2
272
     2
274
     3
278
    44
283
     0
284
     8
340
11
  0
ENDTAB
  0
TABLE
  2
BLOCK_RECORD
  5
1
330
0
100
AcDbSymbolTable
 70
     1
  0
BLOCK_RECORD
  5
1F
330
1
100
AcDbSymbolTableRecord
100
AcDbBlockTableRecord
  2
*Model_Space
340
22
 70
     0
280
     1
281
     0
  0
BLOCK_RECORD
  5
1B
330
1
100
AcDbSymbolTableRecord
100
AcDbBlockTableRecord
  2
*Paper_Space
340
1E
 70
     0
280
     1
281
     0
  0
BLOCK_RECORD
  5
23
330
1
100
AcDbSymbolTableRecord
100
AcDbBlockTableRecord
  2
*Paper_Space0
340
26
 70
     0
280
     1
281
     0
  0
ENDTAB
  0
ENDSEC
  0
SECTION
  2
BLOCKS
  0
BLOCK
  5
20
330
1F
100
AcDbEntity
  8
0
100
AcDbBlockBegin
  2
*Model_Space
 70
     0
 10
0.0
 20
0.0
 30
0.0
  3
*Model_Space
  1

  0
ENDBLK
  5
21
330
1F
100
AcDbEntity
  8
0
100
AcDbBlockEnd
  0
BLOCK
  5
1C
330
1B
100
AcDbEntity
 67
     1
  8
0
100
AcDbBlockBegin
  2
*Paper_Space
 70
     0
 10
0.0
 20
0.0
 30
0.0
  3
*Paper_Space
  1

  0
ENDBLK
  5
1D
330
1B
100
AcDbEntity
 67
     1
  8
0
100
AcDbBlockEnd
  0
BLOCK
  5
24
330
23
100
AcDbEntity
  8
0
100
AcDbBlockBegin
  2
*Paper_Space0
 70
     0
 10
0.0
 20
0.0
 30
0.0
  3
*Paper_Space0
  1

  0
ENDBLK
  5
25
330
23
100
AcDbEntity
  8
0
100
AcDbBlockEnd
  0
ENDSEC
  0
SECTION
  2
ENTITIES
  0
LINE
  5
57
330
1F
100
AcDbEntity
  8
F-0_補助線
  6
JWW_HOJO
 62
   120
370
     5
100
AcDbLine
 10
-6140.081333436769
 20
-4455.0
 30
0.0
 11
-6140.081333436769
 21
4424.999604096284
 31
0.0
  0
LINE
  5
58
330
1F
100
AcDbEntity
  8
F-0_補助線
  6
JWW_HOJO
 62
   120
370
     5
100
AcDbLine
 10
-6140.081333436769
 20
4424.999604096284
 30
0.0
 11
6159.917676803936
 21
4424.999604096284
 31
0.0
  0
LINE
  5
59
330
1F
100
AcDbEntity
  8
F-0_補助線
  6
JWW_HOJO
 62
   120
370
     5
100
AcDbLine
 10
6159.917676803936
 20
4424.999604096284
 30
0.0
 11
6159.917676803936
 21
-4455.0
 31
0.0
  0
LINE
  5
5A
330
1F
100
AcDbEntity
  8
F-0_補助線
  6
JWW_HOJO
 62
   120
370
     5
100
AcDbLine
 10
6159.917676803936
 20
-4455.0
 30
0.0
 11
-6140.081333436769
 21
-4455.0
 31
0.0
  0
LINE
  5
5B
330
1F
100
AcDbEntity
  8
F-0_補助線
  6
JWW_HOJO
 62
     7
370
     5
100
AcDbLine
 10
1009.918254163524
 20
-3795.000003092998
 30
0.0
 11
1009.918254163524
 21
-4195.000008247994
 31
0.0
  0
LINE
  5
5C
330
1F
100
AcDbEntity
  8
F-0_補助線
  6
JWW_HOJO
 62
     7
370
     5
100
AcDbLine
 10
509.9185840832865
 20
-3795.000003092998
 30
0.0
 11
509.9185840832865
 21
-4195.000008247994
 31
0.0
  0
LINE
  5
5D
330
1F
100
AcDbEntity
  8
F-1_枠
  6
Continuous
 62
   200
370
     5
100
AcDbLine
 10
5859.917429364118
 20
4174.999769056166
 30
0.0
 11
5859.917429364118
 21
-4205.000164959882
 31
0.0
  0
LINE
  5
5E
330
1F
100
AcDbEntity
  8
F-1_枠
  6
Continuous
 62
   200
370
     5
100
AcDbLine
 10
-5840.081317971782
 20
4174.999769056166
 30
0.0
 11
-5840.081317971782
 21
-4205.000164959882
 31
0.0
  0
LINE
  5
5F
330
1F
100
AcDbEntity
  8
F-1_枠
  6
Continuous
 62
   200
370
     5
100
AcDbLine
 10
5859.917429364118
 20
-4205.000002577498
 30
0.0
 11
-5840.081085996952
 21
-4205.000002577498
 31
0.0
  0
LINE
  5
60
330
1F
100
AcDbEntity
  8
F-1_枠
  6
Continuous
 62
   200
370
     5
100
AcDbLine
 10
-5830.081323642278
 20
4174.999769056166
 30
0.0
 11
-5830.081323642278
 21
-4205.000164959882
 31
0.0
  0
LINE
  5
61
330
1F
100
AcDbEntity
  8
F-1_枠
  6
Continuous
 62
   200
370
     5
100
AcDbLine
 10
-5835.081309208292
 20
4174.999769056166
 30
0.0
 11
-5835.081309208292
 21
-4205.000164959882
 31
0.0
  0
LINE
  5
62
330
1F
100
AcDbEntity
  8
F-1_枠
  6
Continuous
 62
   200
370
     5
100
AcDbLine
 10
5854.917165428305
 20
4174.999769056166
 30
0.0
 11
5854.917165428305
 21
-4205.000164959882
 31
0.0
  0
LINE
  5
63
330
1F
100
AcDbEntity
  8
F-1_枠
  6
Continuous
 62
   200
370
     5
100
AcDbLine
 10
5849.917643811961
 20
4174.999769056166
 30
0.0
 11
5849.917643811961
 21
-4205.000164959882
 31
0.0
  0
LINE
  5
64
330
1F
100
AcDbEntity
  8
F-1_枠
  6
Continuous
 62
   200
370
     5
100
AcDbLine
 10
5859.917429364118
 20
-4199.999993814004
 30
0.0
 11
-5840.081085996952
 21
-4199.999993814004
 31
0.0
  0
LINE
  5
65
330
1F
100
AcDbEntity
  8
F-1_枠
  6
Continuous
 62
   200
370
     5
100
AcDbLine
 10
5859.917429364118
 20
-4195.000008247994
 30
0.0
 11
-5840.081085996952
 21
-4195.000008247994
 31
0.0
  0
LINE
  5
66
330
1F
100
AcDbEntity
  8
F-1_枠
  6
Continuous
 62
   200
370
     5
100
AcDbLine
 10
4349.91789125178
 20
-3795.000003092998
 30
0.0
 11
4349.91789125178
 21
-4195.000008247994
 31
0.0
  0
LINE
  5
67
330
1F
100
AcDbEntity
  8
F-1_枠
  6
Continuous
 62
   200
370
     5
100
AcDbLine
 10
2849.917396372143
 20
-3795.000003092998
 30
0.0
 11
2849.917396372143
 21
-4195.000008247994
 31
0.0
  0
LINE
  5
68
330
1F
100
AcDbEntity
  8
F-1_枠
  6
Continuous
 62
   200
370
     5
100
AcDbLine
 10
9.918542843317937
 20
-3795.000003092998
 30
0.0
 11
9.918542843317937
 21
-4195.000008247994
 31
0.0
  0
LINE
  5
69
330
1F
100
AcDbEntity
  8
F-1_枠
  6
Continuous
 62
   200
370
     5
100
AcDbLine
 10
9.918542843317937
 20
-3994.999936078046
 30
0.0
 11
5849.917643811961
 21
-3995.005364289155
 31
0.0
  0
LINE
  5
6A
330
1F
100
AcDbEntity
  8
F-1_枠
  6
Continuous
 62
   200
370
     5
100
AcDbLine
 10
-5840.081085996952
 20
4174.999769056166
 30
0.0
 11
5859.917429364118
 21
4174.999769056166
 31
0.0
  0
LINE
  5
6B
330
1F
100
AcDbEntity
  8
F-1_枠
  6
Continuous
 62
   200
370
     5
100
AcDbLine
 10
-5840.081085996952
 20
4164.999983504013
 30
0.0
 11
5859.917429364118
 21
4164.999983504013
 31
0.0
  0
LINE
  5
6C
330
1F
100
AcDbEntity
  8
F-1_枠
  6
Continuous
 62
   200
370
     5
100
AcDbLine
 10
-5840.081085996952
 20
4169.999505120355
 30
0.0
 11
5859.917429364118
 21
4169.999505120355
 31
0.0
  0
LINE
  5
6D
330
1F
100
AcDbEntity
  8
F-0_補助線
  6
JWW_HOJO
 62
     7
370
     5
100
AcDbLine
 10
-5830.081323642278
 20
-3994.99993607839
 30
0.0
 11
9.918542843317937
 21
-3994.99993607839
 31
0.0
  0
LINE
  5
6E
330
1F
100
AcDbEntity
  8
F-0_補助線
  6
JWW_HOJO
 62
     7
370
     5
100
AcDbLine
 10
-5830.081323642278
 20
-3904.99993607839
 30
0.0
 11
9.918542843317937
 21
-3904.99993607839
 31
0.0
  0
LINE
  5
6F
330
1F
100
AcDbEntity
  8
F-0_補助線
  6
JWW_HOJO
 62
     7
370
     5
100
AcDbLine
 10
-5830.081323642278
 20
-4084.99993607839
 30
0.0
 11
9.918542843317937
 21
-4084.99993607839
 31
0.0
  0
LINE
  5
70
330
1F
100
AcDbEntity
  8
F-0_補助線
  6
JWW_HOJO
 62
     7
370
     5
100
AcDbLine
 10
9.918408067690052
 20
-4139.999739777983
 30
0.0
 11
5849.917509036333
 21
-4140.005167989091
 31
0.0
  0
LINE
  5
71
330
1F
100
AcDbEntity
  8
F-0_補助線
  6
JWW_HOJO
 62
     7
370
     5
100
AcDbLine
 10
9.918491721641658
 20
-4049.999739778022
 30
0.0
 11
5849.917592690285
 21
-4050.005167989131
 31
0.0
  0
LINE
  5
72
330
1F
100
AcDbEntity
  8
F-0_補助線
  6
JWW_HOJO
 62
     7
370
     5
100
AcDbLine
 10
9.918593965362561
 20
-3939.99973721807
 30
0.0
 11
5849.917694934006
 21
-3940.005165429179
 31
0.0
  0
LINE
  5
73
330
1F
100
AcDbEntity
  8
F-0_補助線
  6
JWW_HOJO
 62
     7
370
     5
100
AcDbLine
 10
9.918677619307346
 20
-3849.999737218109
 30
0.0
 11
5849.917778587951
 21
-3850.005165429218
 31
0.0
  0
LINE
  5
74
330
1F
100
AcDbEntity
  8
F-0_補助線
  6
JWW_HOJO
 62
     7
370
     5
100
AcDbLine
 10
2939.917396372143
 20
-3795.000003092998
 30
0.0
 11
2939.917396372143
 21
-4195.000008247994
 31
0.0
  0
LINE
  5
75
330
1F
100
AcDbEntity
  8
F-0_補助線
  6
JWW_HOJO
 62
     7
370
     5
100
AcDbLine
 10
99.91854284331794
 20
-3795.000003092998
 30
0.0
 11
99.91854284331794
 21
-4195.000008247994
 31
0.0
  0
LINE
  5
76
330
1F
100
AcDbEntity
  8
F-0_補助線
  6
JWW_HOJO
 62
     7
370
     5
100
AcDbLine
 10
4439.91789125178
 20
-3795.000003092998
 30
0.0
 11
4439.91789125178
 21
-4195.000008247994
 31
0.0
  0
LINE
  5
77
330
1F
100
AcDbEntity
  8
F-1_枠
  6
Continuous
 62
   200
370
     5
100
AcDbLine
 10
5859.917429364118
 20
-3795.000003092998
 30
0.0
 11
-5840.081085996952
 21
-3795.000003092998
 31
0.0
  0
LINE
  5
78
330
1F
100
AcDbEntity
  8
F-1_枠
  6
Continuous
 62
   200
370
     5
100
AcDbLine
 10
5859.917429364118
 20
-3790.000017526987
 30
0.0
 11
-5840.081085996952
 21
-3790.000017526987
 31
0.0
  0
LINE
  5
79
330
1F
100
AcDbEntity
  8
F-0_補助線
  6
JWW_HOJO
 62
     7
370
     5
100
AcDbLine
 10
-5087.628710189612
 20
-3795.000003092999
 30
0.0
 11
-5087.628710189612
 21
-4205.000164959882
 31
0.0
  0
LINE
  5
7A
330
1F
100
AcDbEntity
  8
F-0_補助線
  6
JWW_HOJO
 62
     7
370
     5
100
AcDbLine
 10
-50.08145715668206
 20
-3795.000003092998
 30
0.0
 11
-50.08145715668206
 21
-4195.000008247994
 31
0.0
  0
MTEXT
  5
7B
330
1F
100
AcDbEntity
  8
F-0_補助線
  6
Continuous
 62
     7
370
     0
100
AcDbMText
 10
509.9185840832865
 20
-3950.199002252999
 30
0.0
 40
71.17657923900997
 41
525.0
 46
0.0
 71
     7
 72
     1
  1
{\fHGP明朝B|b1|i0|c128|p18;ＳＯＦＴＡＲＴ}
 73
     1
 44
1.0
  0
MTEXT
  5
7C
330
1F
100
AcDbEntity
  8
F-0_補助線
  6
Continuous
 62
     7
370
     0
100
AcDbMText
 10
1110.209427605312
 20
-3946.734791872504
 30
0.0
 40
78.105
 41
615.0
 46
0.0
 71
     7
 72
     1
  1
{\fＭＳ ゴシック|b0|i0|c128|p49;建具納まり図}
 73
     1
 44
1.0
  0
MTEXT
  5
7D
330
1F
100
AcDbEntity
  8
F-A_文字
  6
Continuous
 62
     7
370
     0
100
AcDbMText
 10
99.91854284331794
 20
-3887.139820871936
 30
0.0
 40
45.72
 41
180.0
 46
0.0
 71
     7
 72
     1
  1
{\fＭＳ ゴシック|b0|i0|c128|p49;図面名}
 73
     1
 44
1.0
  0
MTEXT
  5
7E
330
1F
100
AcDbEntity
  8
F-A_文字
  6
Continuous
 62
     7
370
     0
100
AcDbMText
 10
2939.917396372143
 20
-3887.142460617774
 30
0.0
 40
45.72
 41
300.0
 46
0.0
 71
     7
 72
     1
  1
{\fＭＳ ゴシック|b0|i0|c128|p49;ＳＣＡＬＥ}
 73
     1
 44
1.0
  0
MTEXT
  5
7F
330
1F
100
AcDbEntity
  8
F-A_文字
  6
Continuous
 62
     7
370
     0
100
AcDbMText
 10
4439.91789125178
 20
-3887.143854850754
 30
0.0
 40
45.72
 41
240.0
 46
0.0
 71
     7
 72
     1
  1
{\fＭＳ ゴシック|b0|i0|c128|p49;ＤＡＴＥ}
 73
     1
 44
1.0
  0
MTEXT
  5
80
330
1F
100
AcDbEntity
  8
F-A_文字
  6
Continuous
 62
     7
370
     0
100
AcDbMText
 10
4938.667793092893
 20
-3938.213885139966
 30
0.0
 40
78.58125
 41
412.5
 46
0.0
 71
     7
 72
     1
  1
{\fＭＳ ゴシック|b0|i0|c128|p49;13.02.12}
 73
     1
 44
1.0
  0
MTEXT
  5
81
330
1F
100
AcDbEntity
  8
F-A_文字
  6
Continuous
 62
     7
370
     0
100
AcDbMText
 10
2939.917396372143
 20
-4087.14246317786
 30
0.0
 40
45.72
 41
240.0
 46
0.0
 71
     7
 72
     1
  1
{\fＭＳ ゴシック|b0|i0|c128|p49;ＦＩＬＥ}
 73
     1
 44
1.0
  0
MTEXT
  5
82
330
1F
100
AcDbEntity
  8
F-A_文字
  6
Continuous
 62
     7
370
     0
100
AcDbMText
 10
4439.91789125178
 20
-4087.143857410839
 30
0.0
 40
45.72
 41
180.0
 46
0.0
 71
     7
 72
     1
  1
{\fＭＳ ゴシック|b0|i0|c128|p49;ＮＯ．}
 73
     1
 44
1.0
  0
MTEXT
  5
83
330
1F
100
AcDbEntity
  8
F-A_文字
  6
Continuous
 62
     7
370
     0
100
AcDbMText
 10
1394.917396372136
 20
-4096.140669266149
 30
0.0
 40
45.72
 41
120.0
 46
0.0
 71
     7
 72
     1
  1
{\fＭＳ ゴシック|b0|i0|c128|p49;株式}
 73
     1
 44
1.0
  0
MTEXT
  5
84
330
1F
100
AcDbEntity
  8
F-A_文字
  6
Continuous
 62
     7
370
     0
100
AcDbMText
 10
1604.917396372136
 20
-4164.281754523929
 30
0.0
 40
101.44125
 41
1065.0
 46
0.0
 71
     7
 72
     1
  1
{\fＭＳ ゴシック|b0|i0|c128|p49;ウッドワン・・・}
 73
     1
 44
1.0
  0
MTEXT
  5
85
330
1F
100
AcDbEntity
  8
F-A_文字
  6
Continuous
 62
     7
370
     0
100
AcDbMText
 10
1394.917396372136
 20
-4168.140669266187
 30
0.0
 40
45.72
 41
120.0
 46
0.0
 71
     7
 72
     1
  1
{\fＭＳ ゴシック|b0|i0|c128|p49;会社}
 73
     1
 44
1.0
  0
MTEXT
  5
86
330
1F
100
AcDbEntity
  8
F-A_文字
  6
Continuous
 62
     7
370
     0
100
AcDbMText
 10
5768.321977672936
 20
-4314.841419020919
 30
0.0
 40
68.58
 41
90.0
 46
0.0
 71
     7
 72
     1
  1
{\fＭＳ ゴシック|b0|i0|c128|p49;）}
 73
     1
 44
1.0
  0
MTEXT
  5
87
330
1F
100
AcDbEntity
  8
F-A_文字
  6
Continuous
 62
     7
370
     0
100
AcDbMText
 10
5350.114617405302
 20
-4316.235443869856
 30
0.0
 40
68.58
 41
45.0
 46
0.0
 71
     7
 72
     1
  1
{\fＭＳ ゴシック|b0|i0|c128|p49;,}
 73
     1
 44
1.0
  0
MTEXT
  5
88
330
1F
100
AcDbEntity
  8
F-A_文字
  6
Continuous
 62
     7
370
     0
100
AcDbMText
 10
5083.855928478597
 20
-4314.771967288282
 30
0.0
 40
74.295
 41
97.5
 46
0.0
 71
     7
 72
     1
  1
{\fＭＳ ゴシック|b0|i0|c128|p49;$y}
 73
     1
 44
1.0
  0
MTEXT
  5
89
330
1F
100
AcDbEntity
  8
F-A_文字
  6
Continuous
 62
     7
370
     0
100
AcDbMText
 10
5238.592649517418
 20
-4314.771967288282
 30
0.0
 40
74.295
 41
97.5
 46
0.0
 71
     7
 72
     1
  1
{\fＭＳ ゴシック|b0|i0|c128|p49;$m}
 73
     1
 44
1.0
  0
MTEXT
  5
8A
330
1F
100
AcDbEntity
  8
F-A_文字
  6
Continuous
 62
     7
370
     0
100
AcDbMText
 10
5393.329382000334
 20
-4314.771967288282
 30
0.0
 40
74.295
 41
97.5
 46
0.0
 71
     7
 72
     1
  1
{\fＭＳ ゴシック|b0|i0|c128|p49;$d}
 73
     1
 44
1.0
  0
MTEXT
  5
8B
330
1F
100
AcDbEntity
  8
F-A_文字
  6
Continuous
 62
     7
370
     0
100
AcDbMText
 10
5548.066114483236
 20
-4314.771967288282
 30
0.0
 40
74.295
 41
195.0
 46
0.0
 71
     7
 72
     1
  1
{\fＭＳ ゴシック|b0|i0|c128|p49;印刷}
 73
     1
 44
1.0
  0
MTEXT
  5
8C
330
1F
100
AcDbEntity
  8
F-A_文字
  6
Continuous
 62
     7
370
     0
100
AcDbMText
 10
4943.95204081623
 20
-4319.023493567732
 30
0.0
 40
68.58
 41
90.0
 46
0.0
 71
     7
 72
     1
  1
{\fＭＳ ゴシック|b0|i0|c128|p49;（}
 73
     1
 44
1.0
  0
MTEXT
  5
8D
330
1F
100
AcDbEntity
  8
F-A_文字
  6
Continuous
 62
     7
370
     0
100
AcDbMText
 10
5191.195810375575
 20
-4319.023493567732
 30
0.0
 40
68.58
 41
45.0
 46
0.0
 71
     7
 72
     1
  1
{\fＭＳ ゴシック|b0|i0|c128|p49;,}
 73
     1
 44
1.0
  0
MTEXT
  5
8E
330
1F
100
AcDbEntity
  8
F-A_文字
  6
Continuous
 62
     7
370
     5
100
AcDbMText
 10
5096.16770014406
 20
-4147.857012699985
 30
0.0
 40
74.295
 41
97.5
 46
0.0
 71
     7
 72
     1
  1
{\fＭＳ ゴシック|b0|i0|c128|p49;02}
 73
     1
 44
1.0
  0
MTEXT
  5
8F
330
1F
100
AcDbEntity
  8
F-A_文字
  6
Continuous
 62
     7
370
     0
100
AcDbMText
 10
-5080.081323642278
 20
-4045.060625733563
 30
0.0
 40
79.87862068965512
 41
4560.0
 46
0.0
 71
     7
 72
     1
  1
{\fＭＳ ゴシック|b0|i0|c128|p49;ソフトアート　クローゼットドア  固定枠　３方枠＋床直付けレール　ドアＨ８尺  枠外Ｗ1,189}
 73
     1
 44
1.0
  0
LINE
  5
90
330
1F
100
AcDbEntity
  8
0-A_文字
  6
Continuous
 62
    92
370
     5
100
AcDbLine
 10
-5659.999495325865
 20
3730.000181455527
 30
0.0
 11
-5659.999495325865
 21
4000.000181455527
 31
0.0
  0
LINE
  5
91
330
1F
100
AcDbEntity
  8
0-A_文字
  6
Continuous
 62
    92
370
     5
100
AcDbLine
 10
-5659.999495325865
 20
3730.000181455527
 30
0.0
 11
-2698.999495325857
 21
3730.000181455527
 31
0.0
  0
LINE
  5
92
330
1F
100
AcDbEntity
  8
0-A_文字
  6
Continuous
 62
    92
370
     5
100
AcDbLine
 10
-5659.999495325865
 20
4000.000181455527
 30
0.0
 11
-2698.999495325857
 21
4000.000181455527
 31
0.0
  0
LINE
  5
93
330
1F
100
AcDbEntity
  8
0-A_文字
  6
Continuous
 62
    92
370
     5
100
AcDbLine
 10
-2698.999495325857
 20
3730.000181455527
 30
0.0
 11
-2698.999495325857
 21
4000.000181455527
 31
0.0
  0
ELLIPSE
  5
94
330
1F
100
AcDbEntity
  8
戸当り
  6
Continuous
 62
    92
370
     5
100
AcDbEllipse
 10
4855.430917458078
 20
2876.053590301167
 30
0.0
 11
11.36181697857171
 21
42.40287823032828
 31
0.0
210
0.0
220
0.0
230
0.9999999999999999
 40
0.6
 41
1.570796326794897
 42
4.71238898038469
  0
LINE
  5
95
330
1F
100
AcDbEntity
  8
戸当り
  6
Continuous
 62
    92
370
     5
100
AcDbLine
 10
4880.872644396272
 20
2869.236500114025
 30
0.0
 11
4829.989190519882
 21
2882.870680488309
 31
0.0
  0
LINE
  5
96
330
1F
100
AcDbEntity
  8
戸当り
  6
Continuous
 62
    92
370
     5
100
AcDbLine
 10
4884.13376436456
 20
2881.407165525266
 30
0.0
 11
4833.25031048817
 21
2895.041345899553
 31
0.0
  0
ELLIPSE
  5
97
330
1F
100
AcDbEntity
  8
戸当り
  6
Continuous
 62
    92
370
     5
100
AcDbEllipse
 10
4879.604310755758
 20
2966.269922279452
 30
0.0
 11
21.86569797210526
 21
81.6038957748525
 31
0.0
210
0.0
220
0.0
230
1.0
 40
0.5
 41
4.340591432030095
 42
8.225779182329084
  0
ELLIPSE
  5
98
330
1F
100
AcDbEntity
  8
戸当り
  6
Continuous
 62
    92
370
     5
100
AcDbEllipse
 10
4878.978687882654
 20
2963.935065930661
 30
0.0
 11
26.49533313827761
 21
98.88192943551533
 31
0.0
210
0.0
220
0.0
230
0.9999999999999999
 40
0.4
 41
3.840308517104466
 42
4.432552034522944
  0
ELLIPSE
  5
99
330
1F
100
AcDbEntity
  8
戸当り
  6
Continuous
 62
    92
370
     5
100
AcDbEllipse
 10
4878.978687882654
 20
2963.935065930661
 30
0.0
 11
26.49533313827761
 21
98.88192943551533
 31
0.0
210
0.0
220
0.0
230
0.9999999999999999
 40
0.4
 41
1.850633272656679
 42
2.442876790075129
  0
ELLIPSE
  5
9A
330
1F
100
AcDbEntity
  8
戸当り
  6
Continuous
 62
    92
370
     5
100
AcDbEllipse
 10
4740.316707711377
 20
2838.284846936867
 30
0.0
 11
-7.622927487939132
 21
43.23177007461331
 31
0.0
210
0.0
220
0.0
230
1.0
 40
0.6000000000000001
 41
1.570796326794897
 42
4.71238898038469
  0
LINE
  5
9B
330
1F
100
AcDbEntity
  8
戸当り
  6
Continuous
 62
    92
370
     5
100
AcDbLine
 10
4766.255769756144
 20
2842.85860342963
 30
0.0
 11
4714.377645666609
 21
2833.711090444103
 31
0.0
  0
LINE
  5
9C
330
1F
100
AcDbEntity
  8
戸当り
  6
Continuous
 62
    92
370
     5
100
AcDbLine
 10
4764.067802717541
 20
2855.267181117583
 30
0.0
 11
4712.189678628006
 21
2846.119668132057
 31
0.0
  0
ELLIPSE
  5
9D
330
1F
100
AcDbEntity
  8
戸当り
  6
Continuous
 62
    92
370
     5
100
AcDbEllipse
 10
4724.098172894875
 20
2930.26472858251
 30
0.0
 11
-14.67024424252691
 21
83.19908946199426
 31
0.0
210
0.0
220
0.0
230
1.0
 40
0.5
 41
4.340591432030095
 42
8.225779182329084
  0
ELLIPSE
  5
9E
330
1F
100
AcDbEntity
  8
戸当り
  6
Continuous
 62
    92
370
     5
100
AcDbEllipse
 10
4724.517918944775
 20
2927.884230440854
 30
0.0
 11
-17.7763823922528
 21
100.8148742797557
 31
0.0
210
0.0
220
0.0
230
1.0
 40
0.4000000000000001
 41
3.840308517104466
 42
4.432552034522944
  0
ELLIPSE
  5
9F
330
1F
100
AcDbEntity
  8
戸当り
  6
Continuous
 62
    92
370
     5
100
AcDbEllipse
 10
4724.517918944775
 20
2927.884230440854
 30
0.0
 11
-17.7763823922528
 21
100.8148742797557
 31
0.0
210
0.0
220
0.0
230
1.0
 40
0.4000000000000001
 41
1.850633272656679
 42
2.442876790075129
  0
LINE
  5
A0
330
1F
100
AcDbEntity
  8
0-A_文字
  6
Continuous
 62
    92
370
     5
100
AcDbLine
 10
5369.917643811961
 20
3684.999983503669
 30
0.0
 11
5369.917643811961
 21
2718.999983503669
 31
0.0
  0
LINE
  5
A1
330
1F
100
AcDbEntity
  8
0-A_文字
  6
Continuous
 62
    92
370
     5
100
AcDbLine
 10
5369.917643811961
 20
2718.999983503669
 30
0.0
 11
4229.917643811961
 21
2718.999983503669
 31
0.0
  0
LINE
  5
A2
330
1F
100
AcDbEntity
  8
0-A_文字
  6
Continuous
 62
    92
370
     5
100
AcDbLine
 10
4229.917643811961
 20
3684.999983503669
 30
0.0
 11
4229.917643811961
 21
2718.999983503669
 31
0.0
  0
LINE
  5
A3
330
1F
100
AcDbEntity
  8
0-0_補助線
  6
JWW_HOJO
 62
   120
370
     5
100
AcDbLine
 10
5339.917643811961
 20
3684.999983503669
 30
0.0
 11
5339.917643811961
 21
2718.999983503669
 31
0.0
  0
LINE
  5
A4
330
1F
100
AcDbEntity
  8
0-0_補助線
  6
JWW_HOJO
 62
   120
370
     5
100
AcDbLine
 10
4259.917643811961
 20
3684.999983503669
 30
0.0
 11
4259.917643811961
 21
2718.999983503669
 31
0.0
  0
LINE
  5
A5
330
1F
100
AcDbEntity
  8
0-0_補助線
  6
JWW_HOJO
 62
   120
370
     5
100
AcDbLine
 10
4799.917643811961
 20
3684.999983503669
 30
0.0
 11
4799.917643811961
 21
2718.999983503669
 31
0.0
  0
CIRCLE
  5
A6
330
1F
100
AcDbEntity
  8
0-0_補助線
  6
JWW_HOJO
 62
   120
370
     5
100
AcDbCircle
 10
5159.917643811961
 20
3385.504011182406
 30
0.0
 40
240.0
  0
CIRCLE
  5
A7
330
1F
100
AcDbEntity
  8
0-0_補助線
  6
JWW_HOJO
 62
   120
370
     5
100
AcDbCircle
 10
4799.917643811961
 20
3385.504011182406
 30
0.0
 40
240.0
  0
CIRCLE
  5
A8
330
1F
100
AcDbEntity
  8
0-0_補助線
  6
JWW_HOJO
 62
   120
370
     5
100
AcDbCircle
 10
4444.047372024825
 20
3385.504011182406
 30
0.0
 40
240.0
  0
LINE
  5
A9
330
1F
100
AcDbEntity
  8
戸当り
  6
Continuous
 62
    40
370
     5
100
AcDbLine
 10
4502.034214636565
 20
3153.681812873028
 30
0.0
 11
4564.150785461175
 21
3385.504011182406
 31
0.0
  0
LINE
  5
AA
330
1F
100
AcDbEntity
  8
戸当り
  6
Continuous
 62
    40
370
     5
100
AcDbLine
 10
4502.034214636565
 20
3153.681812873028
 30
0.0
 11
4439.917643811961
 21
3385.504011182406
 31
0.0
  0
LINE
  5
AB
330
1F
100
AcDbEntity
  8
戸当り
  6
Continuous
 62
    40
370
     5
100
AcDbLine
 10
5035.684502162749
 20
3385.504011182406
 30
0.0
 11
5097.801072987359
 21
3153.681812873028
 31
0.0
  0
LINE
  5
AC
330
1F
100
AcDbEntity
  8
戸当り
  6
Continuous
 62
    40
370
     5
100
AcDbLine
 10
5159.917643811961
 20
3385.504011182406
 30
0.0
 11
5097.801072987359
 21
3153.681812873028
 31
0.0
  0
LINE
  5
AD
330
1F
100
AcDbEntity
  8
戸当り
  6
JWW_DASHED2
 62
     7
370
     5
100
AcDbLine
 10
5159.917643811961
 20
3385.504011182406
 30
0.0
 11
4439.917643811961
 21
3385.504011182406
 31
0.0
  0
LINE
  5
AE
330
1F
100
AcDbEntity
  8
戸当り
  6
Continuous
 62
    40
370
     5
100
AcDbLine
 10
5159.917643811961
 20
3439.504011182404
 30
0.0
 11
5159.917643811961
 21
3385.504011182406
 31
0.0
  0
LINE
  5
AF
330
1F
100
AcDbEntity
  8
戸当り
  6
Continuous
 62
    40
370
     5
100
AcDbLine
 10
5159.917643811961
 20
3439.504011182404
 30
0.0
 11
5339.917643811961
 21
3439.504011182404
 31
0.0
  0
LINE
  5
B0
330
1F
100
AcDbEntity
  8
戸当り
  6
Continuous
 62
    40
370
     5
100
AcDbLine
 10
5159.917643811961
 20
3385.504011182406
 30
0.0
 11
5339.917643811961
 21
3385.504011182406
 31
0.0
  0
LINE
  5
B1
330
1F
100
AcDbEntity
  8
戸当り
  6
Continuous
 62
    40
370
     5
100
AcDbLine
 10
4439.917643811961
 20
3439.504011182404
 30
0.0
 11
4439.917643811961
 21
3385.504011182406
 31
0.0
  0
LINE
  5
B2
330
1F
100
AcDbEntity
  8
戸当り
  6
Continuous
 62
    40
370
     5
100
AcDbLine
 10
4439.917643811961
 20
3439.504011182404
 30
0.0
 11
4259.917643811961
 21
3439.504011182404
 31
0.0
  0
LINE
  5
B3
330
1F
100
AcDbEntity
  8
戸当り
  6
Continuous
 62
    40
370
     5
100
AcDbLine
 10
4439.917643811961
 20
3385.504011182406
 30
0.0
 11
4259.917643811961
 21
3385.504011182406
 31
0.0
  0
LINE
  5
B4
330
1F
100
AcDbEntity
  8
0-A_文字
  6
Continuous
 62
    92
370
     5
100
AcDbLine
 10
5369.917643811961
 20
3540.999983503668
 30
0.0
 11
4229.917643811961
 21
3540.999983503668
 31
0.0
  0
LINE
  5
B5
330
1F
100
AcDbEntity
  8
0-A_文字
  6
Continuous
 62
    92
370
     5
100
AcDbLine
 10
5369.917643811961
 20
3684.999983503669
 30
0.0
 11
4229.917643811961
 21
3684.999983503669
 31
0.0
  0
MTEXT
  5
B6
330
1F
100
AcDbEntity
  8
0-A_文字
  6
Continuous
 62
    92
370
     5
100
AcDbMText
 10
-5592.499495325865
 20
3758.901043524492
 30
0.0
 40
147.801724137931
 41
2812.5
 46
0.0
 71
     7
 72
     1
  1
{\fＭＳ ゴシック|b0|i0|c128|p49;クローゼット[固定枠]Ｗ＝4.5尺}
 73
     1
 44
1.0
  0
MTEXT
  5
B7
330
1F
100
AcDbEntity
  8
0-A_文字
  6
Continuous
 62
     7
370
     5
100
AcDbMText
 10
4278.667643811961
 20
3554.775383503669
 30
0.0
 40
63.55080000000001
 41
1042.5
 46
0.0
 71
     7
 72
     1
  1
{\fＭＳ ゴシック|b0|i0|c128|p49;上吊軸固定/フリーオープン}
 73
     1
 44
1.0
  0
MTEXT
  5
B8
330
1F
100
AcDbEntity
  8
0-A_文字
  6
Continuous
 62
     7
370
     5
100
AcDbMText
 10
-2586.582109145238
 20
260.888451987686
 30
0.0
 40
91.44
 41
600.0
 46
0.0
 71
     7
 72
     1
  1
{\fＭＳ ゴシック|b0|i0|c128|p49;■縦断面図}
 73
     1
 44
1.0
  0
MTEXT
  5
B9
330
1F
100
AcDbEntity
  8
0-A_文字
  6
Continuous
 62
     7
370
     5
100
AcDbMText
 10
-2586.582109145238
 20
112.3681868202402
 30
0.0
 40
91.43999999999998
 41
1440.0
 46
0.0
 71
     7
 72
     1
  1
{\fＭＳ ゴシック|b0|i0|c128|p49;　[３方枠＋床直付レール]}
 73
     1
 44
1.0
  0
MTEXT
  5
BA
330
1F
100
AcDbEntity
  8
0-A_文字
  6
Continuous
 62
     7
370
     5
100
AcDbMText
 10
389.4187547833729
 20
-636.128628523927
 30
0.0
 40
91.43999999999998
 41
2100.0
 46
0.0
 71
     7
 72
     1
  1
{\fＭＳ ゴシック|b0|i0|c128|p49;床直付レール取り付け位置（Ｓ＝1/2）}
 73
     1
 44
1.0
  0
MTEXT
  5
BB
330
1F
100
AcDbEntity
  8
0-A_文字
  6
Continuous
 62
     7
370
   211
100
AcDbMText
 10
-1910.38200721141
 20
-2901.882286120296
 30
0.0
 40
91.44
 41
240.0
 46
0.0
 71
     7
 72
     1
  1
{\fＭＳ ゴシック|b0|i0|c128|p49;27.4}
 73
     1
 44
1.0
  0
LINE
  5
BC
330
1F
100
AcDbEntity
  8
0-6_扉
  6
Continuous
 62
   200
370
     5
100
AcDbLine
 10
-1821.581457895003
 20
-3157.000334250649
 30
0.0
 11
-1695.581457894995
 21
-3157.000334250649
 31
0.0
  0
LWPOLYLINE
  5
BD
330
1F
100
AcDbEntity
  8
0-B_寸法
  6
Continuous
 62
     7
370
     5
100
AcDbPolyline
 90
        4
 70
     1
 43
3.0
 10
-509.0820434909714
 20
-3225.999963090916
 42
0.4142135623731
 10
-510.5820434909714
 20
-3224.499963090916
 42
0.4142135623731
 10
-512.0820434909714
 20
-3225.999963090916
 42
0.4142135623731
 10
-510.5820434909714
 20
-3227.499963090916
 42
0.4142135623731
  0
LINE
  5
BE
330
1F
100
AcDbEntity
  8
0-B_寸法
  6
Continuous
 62
   120
370
     5
100
AcDbLine
 10
-1140.58216695661
 20
-3225.999963090916
 30
0.0
 11
-510.5820434909714
 21
-3225.999963090916
 31
0.0
  0
LWPOLYLINE
  5
BF
330
1F
100
AcDbEntity
  8
0-B_寸法
  6
Continuous
 62
     7
370
     5
100
AcDbPolyline
 90
        4
 70
     1
 43
3.0
 10
-719.0820434909714
 20
-3225.999963090916
 42
0.4142135623731
 10
-720.5820434909714
 20
-3224.499963090916
 42
0.4142135623731
 10
-722.0820434909714
 20
-3225.999963090916
 42
0.4142135623731
 10
-720.5820434909714
 20
-3227.499963090916
 42
0.4142135623731
  0
LWPOLYLINE
  5
C0
330
1F
100
AcDbEntity
  8
0-B_寸法
  6
Continuous
 62
     7
370
     5
100
AcDbPolyline
 90
        4
 70
     1
 43
3.0
 10
-719.0820434909714
 20
-3196.000334250649
 42
0.4142135623731
 10
-720.5820434909714
 20
-3194.500334250649
 42
0.4142135623731
 10
-722.0820434909714
 20
-3196.000334250649
 42
0.4142135623731
 10
-720.5820434909714
 20
-3197.500334250649
 42
0.4142135623731
  0
LINE
  5
C1
330
1F
100
AcDbEntity
  8
0-B_寸法
  6
Continuous
 62
   120
370
     5
100
AcDbLine
 10
-1140.58216695661
 20
-3196.000334250649
 30
0.0
 11
-720.5820434909714
 21
-3196.000334250649
 31
0.0
  0
LWPOLYLINE
  5
C2
330
1F
100
AcDbEntity
  8
0-B_寸法
  6
Continuous
 62
     7
370
     5
100
AcDbPolyline
 90
        4
 70
     1
 43
3.0
 10
-929.0820434909714
 20
-3196.000334250649
 42
0.4142135623731
 10
-930.5820434909714
 20
-3194.500334250649
 42
0.4142135623731
 10
-932.0820434909714
 20
-3196.000334250649
 42
0.4142135623731
 10
-930.5820434909714
 20
-3197.500334250649
 42
0.4142135623731
  0
LWPOLYLINE
  5
C3
330
1F
100
AcDbEntity
  8
0-B_寸法
  6
Continuous
 62
     7
370
     5
100
AcDbPolyline
 90
        4
 70
     1
 43
3.0
 10
-929.0820434909714
 20
-3157.000334250649
 42
0.4142135623731
 10
-930.5820434909714
 20
-3155.500334250649
 42
0.4142135623731
 10
-932.0820434909714
 20
-3157.000334250649
 42
0.4142135623731
 10
-930.5820434909714
 20
-3158.500334250649
 42
0.4142135623731
  0
LINE
  5
C4
330
1F
100
AcDbEntity
  8
0-B_寸法
  6
Continuous
 62
   120
370
     5
100
AcDbLine
 10
-1140.58216695661
 20
-3157.000334250649
 30
0.0
 11
-930.5820434909714
 21
-3157.000334250649
 31
0.0
  0
LINE
  5
C5
330
1F
100
AcDbEntity
  8
0-B_寸法
  6
Continuous
 62
   120
370
     5
100
AcDbLine
 10
-1140.58216695661
 20
-3297.999940821333
 30
0.0
 11
-510.5812452166305
 21
-3297.999940821333
 31
0.0
  0
LWPOLYLINE
  5
C6
330
1F
100
AcDbEntity
  8
0-B_寸法
  6
Continuous
 62
     7
370
     5
100
AcDbPolyline
 90
        4
 70
     1
 43
3.0
 10
-509.0812452166305
 20
-3297.999940821333
 42
0.4142135623731
 10
-510.5812452166305
 20
-3296.499940821333
 42
0.4142135623731
 10
-512.0812452166305
 20
-3297.999940821333
 42
0.4142135623731
 10
-510.5812452166305
 20
-3299.499940821333
 42
0.4142135623731
  0
LINE
  5
C7
330
1F
100
AcDbEntity
  8
0-B_寸法
  6
Continuous
 62
   120
370
     5
100
AcDbLine
 10
-1140.58216695661
 20
-297.9995696616005
 30
0.0
 11
-510.5820434909714
 21
-297.9995696616005
 31
0.0
  0
LWPOLYLINE
  5
C8
330
1F
100
AcDbEntity
  8
0-B_寸法
  6
Continuous
 62
     7
370
     5
100
AcDbPolyline
 90
        4
 70
     1
 43
3.0
 10
-509.0820434909714
 20
-297.9995696616005
 42
0.4142135623731
 10
-510.5820434909714
 20
-296.4995696616005
 42
0.4142135623731
 10
-512.0820434909714
 20
-297.9995696616005
 42
0.4142135623731
 10
-510.5820434909714
 20
-299.4995696616006
 42
0.4142135623731
  0
LINE
  5
C9
330
1F
100
AcDbEntity
  8
0-B_寸法
  6
Continuous
 62
   120
370
     5
100
AcDbLine
 10
-930.5820434909714
 20
-513.9985749535139
 30
0.0
 11
-720.5820434909714
 21
-513.9985749535139
 31
0.0
  0
LWPOLYLINE
  5
CA
330
1F
100
AcDbEntity
  8
0-B_寸法
  6
Continuous
 62
     7
370
     5
100
AcDbPolyline
 90
        4
 70
     1
 43
3.0
 10
-719.0820434909714
 20
-513.9985749535139
 42
0.4142135623731
 10
-720.5820434909714
 20
-512.4985749535139
 42
0.4142135623731
 10
-722.0820434909714
 20
-513.9985749535139
 42
0.4142135623731
 10
-720.5820434909714
 20
-515.4985749535139
 42
0.4142135623731
  0
LWPOLYLINE
  5
CB
330
1F
100
AcDbEntity
  8
0-B_寸法
  6
Continuous
 62
     7
370
     5
100
AcDbPolyline
 90
        4
 70
     1
 43
3.0
 10
-719.0820434909714
 20
-297.9995696616005
 42
0.4142135623731
 10
-720.5820434909714
 20
-296.4995696616005
 42
0.4142135623731
 10
-722.0820434909714
 20
-297.9995696616005
 42
0.4142135623731
 10
-720.5820434909714
 20
-299.4995696616006
 42
0.4142135623731
  0
LWPOLYLINE
  5
CC
330
1F
100
AcDbEntity
  8
0-B_寸法
  6
Continuous
 62
     7
370
     5
100
AcDbPolyline
 90
        4
 70
     1
 43
3.0
 10
-929.0820434909714
 20
-513.998946113247
 42
0.4142135623731
 10
-930.5820434909714
 20
-512.4989461132469
 42
0.4142135623731
 10
-932.0820434909714
 20
-513.998946113247
 42
0.4142135623731
 10
-930.5820434909714
 20
-515.498946113247
 42
0.4142135623731
  0
LWPOLYLINE
  5
CD
330
1F
100
AcDbEntity
  8
0-B_寸法
  6
Continuous
 62
     7
370
     5
100
AcDbPolyline
 90
        4
 70
     1
 43
3.0
 10
-929.0820434909714
 20
-558.9990945771408
 42
0.4142135623731
 10
-930.5820434909714
 20
-557.4990945771407
 42
0.4142135623731
 10
-932.0820434909714
 20
-558.9990945771408
 42
0.4142135623731
 10
-930.5820434909714
 20
-560.4990945771408
 42
0.4142135623731
  0
LINE
  5
CE
330
1F
100
AcDbEntity
  8
0-B_寸法
  6
Continuous
 62
   120
370
     5
100
AcDbLine
 10
-1140.58216695661
 20
-513.998946113247
 30
0.0
 11
-930.5820434909714
 21
-513.998946113247
 31
0.0
  0
LINE
  5
CF
330
1F
100
AcDbEntity
  8
0-B_寸法
  6
Continuous
 62
   120
370
     5
100
AcDbLine
 10
-1140.58216695661
 20
-558.9990945771408
 30
0.0
 11
-930.5820434909714
 21
-558.9990945771408
 31
0.0
  0
LINE
  5
D0
330
1F
100
AcDbEntity
  8
0-B_寸法
  6
Continuous
 62
   120
370
     5
100
AcDbLine
 10
-930.5820434909714
 20
-3196.000334250649
 30
0.0
 11
-930.5820434909714
 21
-513.998946113247
 31
0.0
  0
LINE
  5
D1
330
1F
100
AcDbEntity
  8
0-B_寸法
  6
Continuous
 62
   120
370
     5
100
AcDbLine
 10
-720.5820434909714
 20
-3225.999963090916
 30
0.0
 11
-720.5820434909714
 21
-297.9995696616005
 31
0.0
  0
LINE
  5
D2
330
1F
100
AcDbEntity
  8
0-7_金物
  6
Continuous
 62
     7
370
     5
100
AcDbLine
 10
-1830.581429284766
 20
-405.9992801570069
 30
0.0
 11
-1830.581429284766
 21
-513.9993717097433
 31
0.0
  0
LINE
  5
D3
330
1F
100
AcDbEntity
  8
0-7_金物
  6
Continuous
 62
     7
370
     5
100
AcDbLine
 10
-1686.581101697638
 20
-405.9992801570069
 30
0.0
 11
-1830.581429284766
 21
-405.9992801570069
 31
0.0
  0
LINE
  5
D4
330
1F
100
AcDbEntity
  8
0-7_金物
  6
Continuous
 62
     7
370
     5
100
AcDbLine
 10
-1686.581101697638
 20
-513.9993717097433
 30
0.0
 11
-1686.581101697638
 21
-405.9992801570069
 31
0.0
  0
LINE
  5
D5
330
1F
100
AcDbEntity
  8
0-7_金物
  6
Continuous
 62
     7
370
     5
100
AcDbLine
 10
-1692.402372163492
 20
-500.7871219538832
 30
0.0
 11
-1692.402372163492
 21
-434.7871219538819
 31
0.0
  0
LINE
  5
D6
330
1F
100
AcDbEntity
  8
0-7_金物
  6
Continuous
 62
     7
370
     5
100
AcDbLine
 10
-1692.402372163492
 20
-434.7871219538819
 30
0.0
 11
-1728.581538003641
 21
-434.7871219538819
 31
0.0
  0
LINE
  5
D7
330
1F
100
AcDbEntity
  8
0-7_金物
  6
Continuous
 62
     7
370
     5
100
AcDbLine
 10
-1728.581538003641
 20
-513.9993717097433
 30
0.0
 11
-1728.581538003641
 21
-417.99891394607
 31
0.0
  0
LINE
  5
D8
330
1F
100
AcDbEntity
  8
0-7_金物
  6
Continuous
 62
     7
370
     5
100
AcDbLine
 10
-1728.581538003641
 20
-417.99891394607
 30
0.0
 11
-1788.583226007181
 21
-417.99891394607
 31
0.0
  0
LINE
  5
D9
330
1F
100
AcDbEntity
  8
0-7_金物
  6
Continuous
 62
     7
370
     5
100
AcDbLine
 10
-1788.583226007181
 20
-417.99891394607
 30
0.0
 11
-1788.583226007181
 21
-513.9993717097433
 31
0.0
  0
LINE
  5
DA
330
1F
100
AcDbEntity
  8
0-7_金物
  6
Continuous
 62
     7
370
     5
100
AcDbLine
 10
-1824.401619714453
 20
-434.7871219538819
 30
0.0
 11
-1824.401619714453
 21
-500.7871219538832
 31
0.0
  0
LINE
  5
DB
330
1F
100
AcDbEntity
  8
0-7_金物
  6
Continuous
 62
     7
370
     5
100
AcDbLine
 10
-1788.583226007181
 20
-434.7871219538819
 30
0.0
 11
-1824.401619714453
 21
-434.7871219538819
 31
0.0
  0
LINE
  5
DC
330
1F
100
AcDbEntity
  8
0-7_金物
  6
Continuous
 62
     7
370
     5
100
AcDbLine
 10
-1842.581761163428
 20
-513.9993717097433
 30
0.0
 11
-1860.581532281603
 21
-513.9993717097433
 31
0.0
  0
LINE
  5
DD
330
1F
100
AcDbEntity
  8
0-7_金物
  6
Continuous
 62
     7
370
     5
100
AcDbLine
 10
-1823.577645105078
 20
-519.999463262477
 30
0.0
 11
-1823.577645105078
 21
-513.9993717097433
 31
0.0
  0
LINE
  5
DE
330
1F
100
AcDbEntity
  8
0-7_金物
  6
Continuous
 62
     7
370
     5
100
AcDbLine
 10
-1830.581429284766
 20
-513.9993717097433
 30
0.0
 11
-1823.577645105078
 21
-513.9993717097433
 31
0.0
  0
LINE
  5
DF
330
1F
100
AcDbEntity
  8
0-7_金物
  6
Continuous
 62
     7
370
     5
100
AcDbLine
 10
-1674.581508320525
 20
-513.9993717097433
 30
0.0
 11
-1656.583230298715
 21
-513.9993717097433
 31
0.0
  0
LINE
  5
E0
330
1F
100
AcDbEntity
  8
0-7_金物
  6
Continuous
 62
     7
370
     5
100
AcDbLine
 10
-1694.368032258712
 20
-519.999463262477
 30
0.0
 11
-1694.368032258712
 21
-513.9993717097433
 31
0.0
  0
LINE
  5
E1
330
1F
100
AcDbEntity
  8
0-7_金物
  6
Continuous
 62
     7
370
     5
100
AcDbLine
 10
-1694.368032258712
 20
-513.9993717097433
 30
0.0
 11
-1686.581101697638
 21
-513.9993717097433
 31
0.0
  0
LINE
  5
E2
330
1F
100
AcDbEntity
  8
0-7_金物
  6
Continuous
 62
     7
370
     5
100
AcDbLine
 10
-1860.581532281603
 20
-513.9993717097433
 30
0.0
 11
-1860.581532281603
 21
-519.999463262477
 31
0.0
  0
LINE
  5
E3
330
1F
100
AcDbEntity
  8
0-7_金物
  6
Continuous
 62
     7
370
     5
100
AcDbLine
 10
-1694.368032258712
 20
-519.999463262477
 30
0.0
 11
-1656.583230298715
 21
-519.999463262477
 31
0.0
  0
LINE
  5
E4
330
1F
100
AcDbEntity
  8
0-7_金物
  6
Continuous
 62
     7
370
     5
100
AcDbLine
 10
-1656.583230298715
 20
-513.9993717097433
 30
0.0
 11
-1656.583230298715
 21
-519.999463262477
 31
0.0
  0
LINE
  5
E5
330
1F
100
AcDbEntity
  8
0-7_金物
  6
Continuous
 62
     7
370
     5
100
AcDbLine
 10
-1770.58197860118
 20
-558.9994632624756
 30
0.0
 11
-1746.581297677721
 21
-558.9994632624756
 31
0.0
  0
LINE
  5
E6
330
1F
100
AcDbEntity
  8
0-7_金物
  6
Continuous
 62
     7
370
     5
100
AcDbLine
 10
-1770.58197860118
 20
-513.9993717097433
 30
0.0
 11
-1770.58197860118
 21
-558.9994632624756
 31
0.0
  0
LINE
  5
E7
330
1F
100
AcDbEntity
  8
0-7_金物
  6
Continuous
 62
     7
370
     5
100
AcDbLine
 10
-1746.581297677721
 20
-558.9994632624756
 30
0.0
 11
-1746.581297677721
 21
-513.9993717097433
 31
0.0
  0
LINE
  5
E8
330
1F
100
AcDbEntity
  8
0-7_金物
  6
Continuous
 62
     7
370
     5
100
AcDbLine
 10
-1728.581538003641
 20
-500.7871219538832
 30
0.0
 11
-1692.402372163492
 21
-500.7871219538832
 31
0.0
  0
LINE
  5
E9
330
1F
100
AcDbEntity
  8
0-7_金物
  6
Continuous
 62
     7
370
     5
100
AcDbLine
 10
-1824.401619714453
 20
-500.7871219538832
 30
0.0
 11
-1788.583226007181
 21
-500.7871219538832
 31
0.0
  0
LINE
  5
EA
330
1F
100
AcDbEntity
  8
0-7_金物
  6
Continuous
 62
     7
370
     5
100
AcDbLine
 10
-1788.583226007181
 20
-513.9993717097433
 30
0.0
 11
-1728.581538003641
 21
-513.9993717097433
 31
0.0
  0
LINE
  5
EB
330
1F
100
AcDbEntity
  8
0-7_金物
  6
Continuous
 62
     7
370
     5
100
AcDbLine
 10
-1823.577645105078
 20
-519.999463262477
 30
0.0
 11
-1860.581532281603
 21
-519.999463262477
 31
0.0
  0
LINE
  5
EC
330
1F
100
AcDbEntity
  8
0-4_枠
  6
Continuous
 62
    92
370
     5
100
AcDbLine
 10
-1674.582430642804
 20
-393.998913946068
 30
0.0
 11
-1674.582430642804
 21
-513.9993717097399
 31
0.0
  0
LINE
  5
ED
330
1F
100
AcDbEntity
  8
0-4_枠
  6
Continuous
 62
    92
370
     5
100
AcDbLine
 10
-1842.582683485707
 20
-393.998913946068
 30
0.0
 11
-1674.582430642804
 21
-393.998913946068
 31
0.0
  0
LINE
  5
EE
330
1F
100
AcDbEntity
  8
0-4_枠
  6
Continuous
 62
    92
370
     5
100
AcDbLine
 10
-1842.582683485707
 20
-513.9993717097399
 30
0.0
 11
-1842.582683485707
 21
-393.998913946068
 31
0.0
  0
LINE
  5
EF
330
1F
100
AcDbEntity
  8
0-4_枠
  6
Continuous
 62
    92
370
     5
100
AcDbLine
 10
-1527.582007211412
 20
-513.9993717097399
 30
0.0
 11
-1674.582430642804
 21
-513.9993717097399
 31
0.0
  0
LINE
  5
F0
330
1F
100
AcDbEntity
  8
0-4_枠
  6
Continuous
 62
    92
370
     5
100
AcDbLine
 10
-1989.582007211402
 20
-513.9993717097399
 30
0.0
 11
-1842.582683485707
 21
-513.9993717097399
 31
0.0
  0
LINE
  5
F1
330
1F
100
AcDbEntity
  8
0-4_枠
  6
Continuous
 62
    92
370
     5
100
AcDbLine
 10
-1527.582007211412
 20
-297.99955481521
 30
0.0
 11
-1527.582007211412
 21
-513.9993717097399
 31
0.0
  0
LINE
  5
F2
330
1F
100
AcDbEntity
  8
0-4_枠
  6
Continuous
 62
    92
370
     5
100
AcDbLine
 10
-1989.582007211402
 20
-297.99955481521
 30
0.0
 11
-1989.582007211402
 21
-513.9993717097399
 31
0.0
  0
LINE
  5
F3
330
1F
100
AcDbEntity
  8
0-4_枠
  6
Continuous
 62
    92
370
     5
100
AcDbLine
 10
-1989.582007211402
 20
-297.99955481521
 30
0.0
 11
-1527.582007211412
 21
-297.99955481521
 31
0.0
  0
LINE
  5
F4
330
1F
100
AcDbEntity
  8
0-B_寸法
  6
Continuous
 62
   120
370
     5
100
AcDbLine
 10
-1527.582007211412
 20
-809.4818941193465
 30
0.0
 11
-1527.582007211412
 21
-655.7709466974505
 31
0.0
  0
LWPOLYLINE
  5
F5
330
1F
100
AcDbEntity
  8
0-B_寸法
  6
Continuous
 62
     7
370
     5
100
AcDbPolyline
 90
        4
 70
     1
 43
3.0
 10
-1526.082007211412
 20
-809.4818941193465
 42
0.4142135623731
 10
-1527.582007211412
 20
-807.9818941193465
 42
0.4142135623731
 10
-1529.082007211412
 20
-809.4818941193465
 42
0.4142135623731
 10
-1527.582007211412
 20
-810.9818941193465
 42
0.4142135623731
  0
LINE
  5
F6
330
1F
100
AcDbEntity
  8
0-B_寸法
  6
Continuous
 62
   120
370
     5
100
AcDbLine
 10
-1989.582007211402
 20
-809.4818941193465
 30
0.0
 11
-1989.582007211402
 21
-655.7709466974505
 31
0.0
  0
LWPOLYLINE
  5
F7
330
1F
100
AcDbEntity
  8
0-B_寸法
  6
Continuous
 62
     7
370
     5
100
AcDbPolyline
 90
        4
 70
     1
 43
3.0
 10
-1988.082007211402
 20
-809.4818941193465
 42
0.4142135623731
 10
-1989.582007211402
 20
-807.9818941193465
 42
0.4142135623731
 10
-1991.082007211401
 20
-809.4818941193465
 42
0.4142135623731
 10
-1989.582007211402
 20
-810.9818941193465
 42
0.4142135623731
  0
LINE
  5
F8
330
1F
100
AcDbEntity
  8
0-B_寸法
  6
Continuous
 62
   120
370
     5
100
AcDbLine
 10
-1527.582007211412
 20
-809.4818941193465
 30
0.0
 11
-1989.582007211402
 21
-809.4818941193465
 31
0.0
  0
LINE
  5
F9
330
1F
100
AcDbEntity
  8
0-C_ハッチ
  6
Continuous
 62
   120
370
     5
100
AcDbLine
 10
-1984.283195976563
 20
-513.9993717097467
 30
0.0
 11
-1989.582007211415
 21
-508.7005604749014
 31
0.0
  0
LINE
  5
FA
330
1F
100
AcDbEntity
  8
0-C_ハッチ
  6
Continuous
 62
   120
370
     5
100
AcDbLine
 10
-1924.886226356861
 20
-513.9993717097433
 30
0.0
 11
-1989.582007211415
 21
-449.3035908552017
 31
0.0
  0
LINE
  5
FB
330
1F
100
AcDbEntity
  8
0-C_ハッチ
  6
Continuous
 62
   120
370
     5
100
AcDbLine
 10
-1865.489256737228
 20
-513.9993717097352
 30
0.0
 11
-1989.582007211415
 21
-389.9066212355523
 31
0.0
  0
LINE
  5
FC
330
1F
100
AcDbEntity
  8
0-C_ハッチ
  6
Continuous
 62
   120
370
     5
100
AcDbLine
 10
-1842.582683485693
 20
-477.5089753415624
 30
0.0
 11
-1989.582007211415
 21
-330.509651615847
 31
0.0
  0
LINE
  5
FD
330
1F
100
AcDbEntity
  8
0-C_ハッチ
  6
Continuous
 62
   120
370
     5
100
AcDbLine
 10
-1842.582683485707
 20
-418.1120057219049
 30
0.0
 11
-1962.695134392402
 21
-297.99955481521
 31
0.0
  0
LINE
  5
FE
330
1F
100
AcDbEntity
  8
0-C_ハッチ
  6
Continuous
 62
   120
370
     5
100
AcDbLine
 10
-1807.298805641903
 20
-393.998913946068
 30
0.0
 11
-1903.298164772741
 21
-297.9995548152223
 31
0.0
  0
LINE
  5
FF
330
1F
100
AcDbEntity
  8
0-C_ハッチ
  6
Continuous
 62
   120
370
     5
100
AcDbLine
 10
-1627.901378258529
 20
-513.999371709742
 30
0.0
 11
-1674.582430642804
 21
-467.3183193254623
 31
0.0
  0
LINE
  5
100
330
1F
100
AcDbEntity
  8
0-C_ハッチ
  6
Continuous
 62
   120
370
     5
100
AcDbLine
 10
-1747.901836022201
 20
-393.998913946068
 30
0.0
 11
-1843.901195153066
 21
-297.9995548152053
 31
0.0
  0
LINE
  5
101
330
1F
100
AcDbEntity
  8
0-C_ハッチ
  6
Continuous
 62
   120
370
     5
100
AcDbLine
 10
-1568.504408638882
 20
-513.9993717097399
 30
0.0
 11
-1674.582430642804
 21
-407.9213497058197
 31
0.0
  0
LINE
  5
102
330
1F
100
AcDbEntity
  8
0-C_ハッチ
  6
Continuous
 62
   120
370
     5
100
AcDbLine
 10
-1688.504866402554
 20
-393.9989139460633
 30
0.0
 11
-1784.504225533405
 21
-297.9995548152168
 31
0.0
  0
LINE
  5
103
330
1F
100
AcDbEntity
  8
0-C_ハッチ
  6
Continuous
 62
   120
370
     5
100
AcDbLine
 10
-1527.582007211399
 20
-495.524803517511
 30
0.0
 11
-1725.107255913703
 21
-297.9995548152066
 31
0.0
  0
LINE
  5
104
330
1F
100
AcDbEntity
  8
0-C_ハッチ
  6
Continuous
 62
   120
370
     5
100
AcDbLine
 10
-1527.582007211412
 20
-436.1278338978556
 30
0.0
 11
-1665.710286294056
 21
-297.99955481521
 31
0.0
  0
LINE
  5
105
330
1F
100
AcDbEntity
  8
0-C_ハッチ
  6
Continuous
 62
   120
370
     5
100
AcDbLine
 10
-1527.582007211412
 20
-376.7308642782062
 30
0.0
 11
-1606.313316674395
 21
-297.9995548152223
 31
0.0
  0
LINE
  5
106
330
1F
100
AcDbEntity
  8
0-C_ハッチ
  6
Continuous
 62
   120
370
     5
100
AcDbLine
 10
-1527.582007211399
 20
-317.333894658518
 30
0.0
 11
-1546.916347054721
 21
-297.9995548152053
 31
0.0
  0
LINE
  5
107
330
1F
100
AcDbEntity
  8
0-4_枠
  6
Continuous
 62
   120
370
     5
100
AcDbLine
 10
-1527.582007211412
 20
-297.99955481521
 30
0.0
 11
-1503.582007211407
 21
-297.99955481521
 31
0.0
  0
LINE
  5
108
330
1F
100
AcDbEntity
  8
0-4_枠
  6
Continuous
 62
   120
370
     5
100
AcDbLine
 10
-1989.582007211402
 20
-297.99955481521
 30
0.0
 11
-2013.582007211407
 21
-297.99955481521
 31
0.0
  0
LINE
  5
109
330
1F
100
AcDbEntity
  8
0-4_枠
  6
Continuous
 62
   120
370
     5
100
AcDbLine
 10
-1503.582007211407
 20
-1761.999713176695
 30
0.0
 11
-1503.582007211407
 21
-297.99955481521
 31
0.0
  0
LINE
  5
10A
330
1F
100
AcDbEntity
  8
0-C_ハッチ
  6
JWW_DASHED1
 62
   120
370
     5
100
AcDbLine
 10
-1589.76911502074
 20
-297.99955481521
 30
0.0
 11
-1608.582007211407
 21
-279.1866626245427
 31
0.0
  0
LINE
  5
10B
330
1F
100
AcDbEntity
  8
0-C_ハッチ
  6
JWW_DASHED1
 62
   120
370
     5
100
AcDbLine
 10
-1547.342708149553
 20
-297.9995548151985
 30
0.0
 11
-1608.582007211407
 21
-236.7602557533461
 31
0.0
  0
LINE
  5
10C
330
1F
100
AcDbEntity
  8
0-C_ハッチ
  6
JWW_DASHED1
 62
   120
370
     5
100
AcDbLine
 10
-1533.582007211407
 20
-269.3338488821448
 30
0.0
 11
-1608.582007211407
 21
-194.3338488821495
 31
0.0
  0
LINE
  5
10D
330
1F
100
AcDbEntity
  8
0-C_ハッチ
  6
JWW_DASHED1
 62
   120
370
     5
100
AcDbLine
 10
-1533.582007211407
 20
-226.9074420109494
 30
0.0
 11
-1608.582007211393
 21
-151.9074420109516
 31
0.0
  0
LINE
  5
10E
330
1F
100
AcDbEntity
  8
0-C_ハッチ
  6
JWW_DASHED1
 62
   120
370
     5
100
AcDbLine
 10
-1533.582007211393
 20
-184.4810351397516
 30
0.0
 11
-1608.582007211393
 21
-109.4810351397558
 31
0.0
  0
LINE
  5
10F
330
1F
100
AcDbEntity
  8
0-C_ハッチ
  6
JWW_DASHED1
 62
   120
370
     5
100
AcDbLine
 10
-1533.582007211393
 20
-142.0546282685558
 30
0.0
 11
-1608.582007211393
 21
-67.05462826855836
 31
0.0
  0
LINE
  5
110
330
1F
100
AcDbEntity
  8
0-C_ハッチ
  6
JWW_DASHED1
 62
   120
370
     5
100
AcDbLine
 10
-1533.582007211393
 20
-99.6282213974061
 30
0.0
 11
-1608.582007211393
 21
-24.62822139741206
 31
0.0
  0
LINE
  5
111
330
1F
100
AcDbEntity
  8
0-3_仕上げ
  6
Continuous
 62
    40
370
     5
100
AcDbLine
 10
-1533.582007211407
 20
-297.99955481521
 30
0.0
 11
-1533.582007211407
 21
2.000445184790465
 31
0.0
  0
LINE
  5
112
330
1F
100
AcDbEntity
  8
0-3_仕上げ
  6
Continuous
 62
    40
370
     5
100
AcDbLine
 10
-1608.582007211407
 20
-297.99955481521
 30
0.0
 11
-1608.582007211407
 21
2.000445184790465
 31
0.0
  0
LINE
  5
113
330
1F
100
AcDbEntity
  8
0-C_ハッチ
  6
JWW_DASHED1
 62
   120
370
     5
100
AcDbLine
 10
-1533.582007211407
 20
-57.20181452620352
 30
0.0
 11
-1592.784266922394
 21
2.000445184790465
 31
0.0
  0
LINE
  5
114
330
1F
100
AcDbEntity
  8
0-C_ハッチ
  6
JWW_DASHED1
 62
   120
370
     5
100
AcDbLine
 10
-1533.582007211393
 20
-14.77540765500606
 30
0.0
 11
-1550.357860051194
 21
2.000445184790465
 31
0.0
  0
LINE
  5
115
330
1F
100
AcDbEntity
  8
0-4_枠
  6
Continuous
 62
   120
370
     5
100
AcDbLine
 10
-2013.582007211407
 20
-1761.999713176695
 30
0.0
 11
-2013.582007211407
 21
-297.99955481521
 31
0.0
  0
LINE
  5
116
330
1F
100
AcDbEntity
  8
0-4_枠
  6
Continuous
 62
   120
370
     5
100
AcDbLine
 10
-2013.582007211407
 20
-3225.999963090915
 30
0.0
 11
-2013.582007211407
 21
-1881.999713176695
 31
0.0
  0
LINE
  5
117
330
1F
100
AcDbEntity
  8
0-4_枠
  6
Continuous
 62
   120
370
     5
100
AcDbLine
 10
-1503.582007211407
 20
-3225.999963090915
 30
0.0
 11
-1503.582007211407
 21
-1881.999713176695
 31
0.0
  0
LINE
  5
118
330
1F
100
AcDbEntity
  8
0-0_補助線
  6
JWW_HOJO
 62
   120
370
     5
100
AcDbLine
 10
-2559.581669096751
 20
-3297.999940794942
 30
0.0
 11
-510.5812452166305
 21
-3297.999940794942
 31
0.0
  0
LINE
  5
119
330
1F
100
AcDbEntity
  8
0-3_仕上げ
  6
Continuous
 62
     7
370
     5
100
AcDbLine
 10
-2349.581685223101
 20
-3274.000195684348
 30
0.0
 11
-1140.581384808647
 21
-3274.000195684348
 31
0.0
  0
LINE
  5
11A
330
1F
100
AcDbEntity
  8
0-3_仕上げ
  6
Continuous
 62
     7
370
     5
100
AcDbLine
 10
-2349.581685223101
 20
-3262.000230325923
 30
0.0
 11
-1140.581384808647
 21
-3262.000230325923
 31
0.0
  0
LINE
  5
11B
330
1F
100
AcDbEntity
  8
0-3_仕上げ
  6
Continuous
 62
     7
370
     5
100
AcDbLine
 10
-2349.581685223101
 20
-3286.000346622643
 30
0.0
 11
-1140.581384808647
 21
-3286.000346622643
 31
0.0
  0
LINE
  5
11C
330
1F
100
AcDbEntity
  8
0-3_仕上げ
  6
Continuous
 62
    40
370
     5
100
AcDbLine
 10
-2349.581685223101
 20
-3298.000311981067
 30
0.0
 11
-1140.581384808647
 21
-3298.000311981067
 31
0.0
  0
LINE
  5
11D
330
1F
100
AcDbEntity
  8
0-3_仕上げ
  6
Continuous
 62
     7
370
     5
100
AcDbLine
 10
-2349.581685223101
 20
-3250.000264967499
 30
0.0
 11
-1140.581384808647
 21
-3250.000264967499
 31
0.0
  0
LINE
  5
11E
330
1F
100
AcDbEntity
  8
0-3_仕上げ
  6
Continuous
 62
     7
370
     5
100
AcDbLine
 10
-2349.581685223101
 20
-3238.000114029207
 30
0.0
 11
-1140.581384808647
 21
-3238.000114029207
 31
0.0
  0
LINE
  5
11F
330
1F
100
AcDbEntity
  8
0-3_仕上げ
  6
Continuous
 62
    40
370
     5
100
AcDbLine
 10
-1140.581384808647
 20
-3226.000334250649
 30
0.0
 11
-2349.581685223101
 21
-3226.000334250649
 31
0.0
  0
LWPOLYLINE
  5
120
330
1F
100
AcDbEntity
  8
0-B_寸法
  6
Continuous
 62
     7
370
     5
100
AcDbPolyline
 90
        4
 70
     1
 43
3.0
 10
-2708.081669096737
 20
-3297.999940821333
 42
0.4142135623731
 10
-2709.581669096737
 20
-3296.499940821333
 42
0.4142135623731
 10
-2711.081669096737
 20
-3297.999940821333
 42
0.4142135623731
 10
-2709.581669096737
 20
-3299.499940821333
 42
0.4142135623731
  0
LINE
  5
121
330
1F
100
AcDbEntity
  8
0-B_寸法
  6
Continuous
 62
   120
370
     5
100
AcDbLine
 10
-2349.581669096737
 20
-3297.999940821333
 30
0.0
 11
-2709.581669096737
 21
-3297.999940821333
 31
0.0
  0
LINE
  5
122
330
1F
100
AcDbEntity
  8
0-0_補助線
  6
JWW_HOJO
 62
   120
370
     5
100
AcDbLine
 10
-1130.02968995273
 20
-1761.999713176695
 30
0.0
 11
-2373.557596867744
 21
-1761.999713176695
 31
0.0
  0
LINE
  5
123
330
1F
100
AcDbEntity
  8
0-0_補助線
  6
JWW_HOJO
 62
   120
370
     5
100
AcDbLine
 10
-1130.02968995273
 20
-1881.999713176696
 30
0.0
 11
-2373.557596867744
 21
-1881.999713176696
 31
0.0
  0
LINE
  5
124
330
1F
100
AcDbEntity
  8
0-B_寸法
  6
Continuous
 62
   120
370
     5
100
AcDbLine
 10
-510.5820434909714
 20
-267.9995696616005
 30
0.0
 11
-1140.582043490972
 21
-267.9995696616005
 31
0.0
  0
LWPOLYLINE
  5
125
330
1F
100
AcDbEntity
  8
0-B_寸法
  6
Continuous
 62
     7
370
     5
100
AcDbPolyline
 90
        4
 70
     1
 43
3.0
 10
-509.0820434909714
 20
-267.9995696616005
 42
0.4142135623731
 10
-510.5820434909714
 20
-266.4995696616005
 42
0.4142135623731
 10
-512.0820434909714
 20
-267.9995696616005
 42
0.4142135623731
 10
-510.5820434909714
 20
-269.4995696616006
 42
0.4142135623731
  0
LINE
  5
126
330
1F
100
AcDbEntity
  8
0-B_寸法
  6
Continuous
 62
   120
370
     5
100
AcDbLine
 10
-510.5820434909714
 20
-3297.999940821333
 30
0.0
 11
-510.5820434909714
 21
-267.9995696616005
 31
0.0
  0
LINE
  5
127
330
1F
100
AcDbEntity
  8
0-7_金物
  6
Continuous
 62
     7
370
     5
100
AcDbLine
 10
-1848.581938546854
 20
-279.8539714350942
 30
0.0
 11
-1668.582075875961
 21
-279.8539714350942
 31
0.0
  0
LINE
  5
128
330
1F
100
AcDbEntity
  8
0-7_金物
  6
Continuous
 62
     7
370
     5
100
AcDbLine
 10
-1668.582075875961
 20
-267.8536338343848
 30
0.0
 11
-1668.582075875961
 21
-279.8539714350942
 31
0.0
  0
LINE
  5
129
330
1F
100
AcDbEntity
  8
0-7_金物
  6
Continuous
 62
     7
370
     5
100
AcDbLine
 10
-1848.581938546854
 20
-267.8536338343848
 30
0.0
 11
-1848.581938546854
 21
-279.8539714350942
 31
0.0
  0
LINE
  5
12A
330
1F
100
AcDbEntity
  8
0-7_金物
  6
Continuous
 62
     7
370
     5
100
AcDbLine
 10
-1848.581938546854
 20
-267.8536338343848
 30
0.0
 11
-1668.582075875961
 21
-267.8536338343848
 31
0.0
  0
LINE
  5
12B
330
1F
100
AcDbEntity
  8
0-7_金物
  6
Continuous
 62
     7
370
     5
100
AcDbLine
 10
-1818.58183555003
 20
-279.8539714350942
 30
0.0
 11
-1818.58183555003
 21
-291.8535651698334
 31
0.0
  0
LINE
  5
12C
330
1F
100
AcDbEntity
  8
0-7_金物
  6
Continuous
 62
     7
370
     5
100
AcDbLine
 10
-1698.582178872784
 20
-279.8539714350942
 30
0.0
 11
-1698.582178872784
 21
-291.8535651698334
 31
0.0
  0
LINE
  5
12D
330
1F
100
AcDbEntity
  8
0-7_金物
  6
Continuous
 62
     7
370
     5
100
AcDbLine
 10
-1818.58183555003
 20
-291.8535651698334
 30
0.0
 11
-1698.582178872784
 21
-291.8535651698334
 31
0.0
  0
LINE
  5
12E
330
1F
100
AcDbEntity
  8
0-7_金物
  6
Continuous
 62
     7
370
     5
100
AcDbLine
 10
-1812.581669610699
 20
-291.8535651698334
 30
0.0
 11
-1812.581669610699
 21
-297.99955481521
 31
0.0
  0
LINE
  5
12F
330
1F
100
AcDbEntity
  8
0-7_金物
  6
Continuous
 62
     7
370
     5
100
AcDbLine
 10
-1704.581600946148
 20
-297.99955481521
 30
0.0
 11
-1704.581600946148
 21
-291.8535651698334
 31
0.0
  0
LINE
  5
130
330
1F
100
AcDbEntity
  8
0-3_仕上げ
  6
Continuous
 62
   120
370
     5
100
AcDbLine
 10
-2028.582007211407
 20
-267.99955481521
 30
0.0
 11
-1608.582007211407
 21
-267.99955481521
 31
0.0
  0
LINE
  5
131
330
1F
100
AcDbEntity
  8
0-3_仕上げ
  6
Continuous
 62
   120
370
     5
100
AcDbLine
 10
-1608.582007211407
 20
-87.99955481520954
 30
0.0
 11
-2028.582007211407
 21
-87.99955481520954
 31
0.0
  0
LINE
  5
132
330
1F
100
AcDbEntity
  8
0-3_仕上げ
  6
Continuous
 62
   120
370
     5
100
AcDbLine
 10
-2028.582007211407
 20
-87.99955481520954
 30
0.0
 11
-2028.582007211407
 21
-267.99955481521
 31
0.0
  0
LINE
  5
133
330
1F
100
AcDbEntity
  8
0-3_仕上げ
  6
Continuous
 62
   120
370
     5
100
AcDbLine
 10
-1608.582007211407
 20
-87.99955481520954
 30
0.0
 11
-2028.582007211407
 21
-267.99955481521
 31
0.0
  0
LINE
  5
134
330
1F
100
AcDbEntity
  8
0-B_寸法
  6
Continuous
 62
   120
370
     5
100
AcDbLine
 10
-2709.581669096737
 20
-267.99955481521
 30
0.0
 11
-2709.581669096737
 21
-3297.999940821333
 31
0.0
  0
LWPOLYLINE
  5
135
330
1F
100
AcDbEntity
  8
0-B_寸法
  6
Continuous
 62
     7
370
     5
100
AcDbPolyline
 90
        4
 70
     1
 43
3.0
 10
-2708.081669096737
 20
-267.99955481521
 42
0.4142135623731
 10
-2709.581669096737
 20
-266.4995548152099
 42
0.4142135623731
 10
-2711.081669096737
 20
-267.99955481521
 42
0.4142135623731
 10
-2709.581669096737
 20
-269.49955481521
 42
0.4142135623731
  0
LINE
  5
136
330
1F
100
AcDbEntity
  8
0-B_寸法
  6
Continuous
 62
   120
370
     5
100
AcDbLine
 10
-2709.581669096737
 20
-267.99955481521
 30
0.0
 11
-2349.581669096737
 21
-267.99955481521
 31
0.0
  0
LWPOLYLINE
  5
137
330
1F
100
AcDbEntity
  8
0-B_寸法
  6
Continuous
 62
     7
370
     5
100
AcDbPolyline
 90
        4
 70
     1
 43
3.0
 10
-1694.082556527811
 20
-1158.980015895047
 42
0.4142135623731
 10
-1695.582556527811
 20
-1157.480015895047
 42
0.4142135623731
 10
-1697.08255652781
 20
-1158.980015895047
 42
0.4142135623731
 10
-1695.582556527811
 20
-1160.480015895047
 42
0.4142135623731
  0
LINE
  5
138
330
1F
100
AcDbEntity
  8
0-B_寸法
  6
Continuous
 62
   120
370
     5
100
AcDbLine
 10
-1695.582556527811
 20
-1074.743087316075
 30
0.0
 11
-1695.582556527811
 21
-1158.980015895047
 31
0.0
  0
LINE
  5
139
330
1F
100
AcDbEntity
  8
0-6_扉
  6
Continuous
 62
   200
370
     5
100
AcDbLine
 10
-1695.582556527811
 20
-1881.999713176696
 30
0.0
 11
-1695.582556527811
 21
-3157.000334250649
 31
0.0
  0
LINE
  5
13A
330
1F
100
AcDbEntity
  8
0-6_扉
  6
Continuous
 62
   200
370
     5
100
AcDbLine
 10
-1695.582556527811
 20
-558.9994632624756
 30
0.0
 11
-1695.582556527811
 21
-1761.999713176695
 31
0.0
  0
LWPOLYLINE
  5
13B
330
1F
100
AcDbEntity
  8
0-B_寸法
  6
Continuous
 62
     7
370
     5
100
AcDbPolyline
 90
        4
 70
     1
 43
3.0
 10
-1820.082556527805
 20
-1158.980015895047
 42
0.4142135623731
 10
-1821.582556527805
 20
-1157.480015895047
 42
0.4142135623731
 10
-1823.082556527805
 20
-1158.980015895047
 42
0.4142135623731
 10
-1821.582556527805
 20
-1160.480015895047
 42
0.4142135623731
  0
LINE
  5
13C
330
1F
100
AcDbEntity
  8
0-B_寸法
  6
Continuous
 62
   120
370
     5
100
AcDbLine
 10
-1821.582556527805
 20
-1074.743087316075
 30
0.0
 11
-1821.582556527805
 21
-1158.980015895047
 31
0.0
  0
LINE
  5
13D
330
1F
100
AcDbEntity
  8
0-6_扉
  6
Continuous
 62
   200
370
     5
100
AcDbLine
 10
-1821.582556527805
 20
-1881.999713176696
 30
0.0
 11
-1821.582556527805
 21
-3157.000334250649
 31
0.0
  0
LINE
  5
13E
330
1F
100
AcDbEntity
  8
0-6_扉
  6
Continuous
 62
   200
370
     5
100
AcDbLine
 10
-1821.582556527805
 20
-558.9994632624756
 30
0.0
 11
-1821.582556527805
 21
-1761.999713176695
 31
0.0
  0
LINE
  5
13F
330
1F
100
AcDbEntity
  8
0-B_寸法
  6
Continuous
 62
   120
370
     5
100
AcDbLine
 10
-1695.582556527811
 20
-1158.980015895047
 30
0.0
 11
-1821.582556527805
 21
-1158.980015895047
 31
0.0
  0
LINE
  5
140
330
1F
100
AcDbEntity
  8
0-6_扉
  6
Continuous
 62
   200
370
     5
100
AcDbLine
 10
-1821.582556527805
 20
-558.9994632624756
 30
0.0
 11
-1695.582556527811
 21
-558.9994632624756
 31
0.0
  0
MTEXT
  5
141
330
1F
100
AcDbEntity
  8
0-B_寸法
  6
Continuous
 62
     7
370
   211
100
AcDbMText
 10
-525.5820434909714
 20
-276.716270067667
 30
0.0
 40
91.44
 41
60.0
 46
0.0
 71
     7
 72
     1
  1
{\fＭＳ ゴシック|b0|i0|c128|p49;5}
 11
6.123031769111886E-17
 21
1.0
 31
0.0
 73
     1
 44
1.0
  0
MTEXT
  5
142
330
1F
100
AcDbEntity
  8
0-B_寸法
  6
Continuous
 62
     7
370
     0
100
AcDbMText
 10
-735.5813506594717
 20
-476.5290723075555
 30
0.0
 40
91.44
 41
120.0
 46
0.0
 71
     7
 72
     1
  1
{\fＭＳ ゴシック|b0|i0|c128|p49;36}
 11
6.123031769111886E-17
 21
1.0
 31
0.0
 73
     1
 44
1.0
  0
MTEXT
  5
143
330
1F
100
AcDbEntity
  8
0-B_寸法
  6
Continuous
 62
     7
370
     0
100
AcDbMText
 10
-945.009826071277
 20
-770.559864077652
 30
0.0
 40
91.44
 41
180.0
 46
0.0
 71
     7
 72
     1
  1
{\fＭＳ ゴシック|b0|i0|c128|p49;7.5}
 11
6.123031769111886E-17
 21
1.0
 31
0.0
 73
     1
 44
1.0
  0
MTEXT
  5
144
330
1F
100
AcDbEntity
  8
0-B_寸法
  6
Continuous
 62
     7
370
     0
100
AcDbMText
 10
-1818.582556527808
 20
-808.7618941193465
 30
0.0
 40
91.44
 41
120.0
 46
0.0
 71
     7
 72
     1
  1
{\fＭＳ ゴシック|b0|i0|c128|p49;77}
 73
     1
 44
1.0
  0
MTEXT
  5
145
330
1F
100
AcDbEntity
  8
0-B_寸法
  6
Continuous
 62
     7
370
     0
100
AcDbMText
 10
-1811.082001952827
 20
-1158.259920011919
 30
0.0
 40
91.43999999999791
 41
119.9999999999973
 46
0.0
 71
     7
 72
     1
  1
{\fＭＳ ゴシック|b0|i0|c128|p49;21}
 11
0.9999999999914964
 21
-4.124000483563069E-6
 31
0.0
 73
     1
 44
1.0
  0
LINE
  5
146
330
1F
100
AcDbEntity
  8
0-0_補助線
  6
JWW_HOJO
 62
   120
370
     5
100
AcDbLine
 10
-2559.582409570884
 20
2.000445184790465
 30
0.0
 11
-510.5819856907641
 21
2.000445184790465
 31
0.0
  0
LINE
  5
147
330
1F
100
AcDbEntity
  8
0-0_補助線
  6
JWW_HOJO
 62
   120
370
     5
100
AcDbLine
 10
-720.5812452166305
 20
-3297.999940794942
 30
0.0
 11
-720.5819856907641
 21
2.000445184790465
 31
0.0
  0
LINE
  5
148
330
1F
100
AcDbEntity
  8
0-0_補助線
  6
JWW_HOJO
 62
   120
370
     5
100
AcDbLine
 10
-930.5812452166305
 20
-3297.999940794942
 30
0.0
 11
-930.5819856907641
 21
2.000445184790465
 31
0.0
  0
LINE
  5
149
330
1F
100
AcDbEntity
  8
0-0_補助線
  6
JWW_HOJO
 62
   120
370
     5
100
AcDbLine
 10
-1140.581368682283
 20
-3297.999940794942
 30
0.0
 11
-1140.582109156416
 21
2.000445184790465
 31
0.0
  0
LINE
  5
14A
330
1F
100
AcDbEntity
  8
0-0_補助線
  6
JWW_HOJO
 62
   120
370
     5
100
AcDbLine
 10
-510.5812452166305
 20
-3297.999940821333
 30
0.0
 11
-510.5819856907641
 21
2.000445184790465
 31
0.0
  0
LINE
  5
14B
330
1F
100
AcDbEntity
  8
0-0_補助線
  6
JWW_HOJO
 62
   120
370
     5
100
AcDbLine
 10
-2349.581669096737
 20
-3297.999940794942
 30
0.0
 11
-2349.582409570871
 21
2.000445184790465
 31
0.0
  0
LINE
  5
14C
330
1F
100
AcDbEntity
  8
0-1_通り芯
  6
JWW_CENTER1
 62
   120
370
     5
100
AcDbLine
 10
-1758.582007211407
 20
-3381.830282862587
 30
0.0
 11
-1758.582007211407
 21
2.000445184790465
 31
0.0
  0
LINE
  5
14D
330
1F
100
AcDbEntity
  8
0-0_補助線
  6
JWW_HOJO
 62
   120
370
     5
100
AcDbLine
 10
-2559.581669096751
 20
-3297.999940794942
 30
0.0
 11
-2559.582409570884
 21
2.000445184790465
 31
0.0
  0
LINE
  5
14E
330
1F
100
AcDbEntity
  8
0-4_枠
  6
Continuous
 62
     7
370
     5
100
AcDbLine
 10
-1860.582007211407
 20
-3197.800334250649
 30
0.0
 11
-1838.382007211406
 21
-3197.800334250649
 31
0.0
  0
LINE
  5
14F
330
1F
100
AcDbEntity
  8
0-4_枠
  6
Continuous
 62
     7
370
     5
100
AcDbLine
 10
-1836.582007211406
 20
-3199.600334250649
 30
0.0
 11
-1838.382007211406
 21
-3197.800334250649
 31
0.0
  0
LINE
  5
150
330
1F
100
AcDbEntity
  8
0-4_枠
  6
Continuous
 62
     7
370
     5
100
AcDbLine
 10
-1836.582007211406
 20
-3199.600334250649
 30
0.0
 11
-1834.782007211406
 21
-3197.800334250649
 31
0.0
  0
ARC
  5
151
330
1F
100
AcDbEntity
  8
0-4_枠
  6
Continuous
 62
     7
370
     5
100
AcDbCircle
 10
-1796.982007211407
 20
-3199.600334250648
 30
0.0
 40
1.800000000000579
100
AcDbArc
 50
359.9999999999784
 51
90.00000000000004
  0
LINE
  5
152
330
1F
100
AcDbEntity
  8
0-4_枠
  6
Continuous
 62
     7
370
     5
100
AcDbLine
 10
-1795.182007211406
 20
-3199.600334250649
 30
0.0
 11
-1795.182007211406
 21
-3202.600334250649
 31
0.0
  0
ARC
  5
153
330
1F
100
AcDbEntity
  8
0-4_枠
  6
Continuous
 62
     7
370
     5
100
AcDbCircle
 10
-1796.382007211408
 20
-3202.600334250649
 30
0.0
 40
1.200000000000273
100
AcDbArc
 50
270.0
 51
359.9999999999674
  0
LINE
  5
154
330
1F
100
AcDbEntity
  8
0-4_枠
  6
Continuous
 62
     7
370
     5
100
AcDbLine
 10
-1796.382007211408
 20
-3203.800334250649
 30
0.0
 11
-1799.982007211407
 21
-3203.800334250649
 31
0.0
  0
ARC
  5
155
330
1F
100
AcDbEntity
  8
0-4_枠
  6
Continuous
 62
     7
370
     5
100
AcDbCircle
 10
-1799.982007211407
 20
-3205.600334250648
 30
0.0
 40
1.799999999999727
100
AcDbArc
 50
90.0
 51
180.0
  0
LINE
  5
156
330
1F
100
AcDbEntity
  8
0-4_枠
  6
Continuous
 62
     7
370
     5
100
AcDbLine
 10
-1801.782007211407
 20
-3205.600334250648
 30
0.0
 11
-1801.782007211407
 21
-3217.600334250649
 31
0.0
  0
ARC
  5
157
330
1F
100
AcDbEntity
  8
0-4_枠
  6
Continuous
 62
     7
370
     5
100
AcDbCircle
 10
-1798.782007211407
 20
-3217.600334250649
 30
0.0
 40
3.0
100
AcDbArc
 50
180.0
 51
270.0
  0
LINE
  5
158
330
1F
100
AcDbEntity
  8
0-4_枠
  6
Continuous
 62
     7
370
     5
100
AcDbLine
 10
-1798.782007211407
 20
-3220.600334250649
 30
0.0
 11
-1760.382007211407
 21
-3220.600334250651
 31
0.0
  0
LINE
  5
159
330
1F
100
AcDbEntity
  8
0-4_枠
  6
Continuous
 62
     7
370
     5
100
AcDbLine
 10
-1758.582007211407
 20
-3222.40033425065
 30
0.0
 11
-1760.382007211407
 21
-3220.600334250651
 31
0.0
  0
LINE
  5
15A
330
1F
100
AcDbEntity
  8
0-4_枠
  6
Continuous
 62
     7
370
     5
100
AcDbLine
 10
-1758.582007211407
 20
-3222.40033425065
 30
0.0
 11
-1756.782007211407
 21
-3220.600334250651
 31
0.0
  0
LINE
  5
15B
330
1F
100
AcDbEntity
  8
0-4_枠
  6
Continuous
 62
     7
370
     5
100
AcDbLine
 10
-1756.782007211407
 20
-3220.600334250651
 30
0.0
 11
-1718.382007211413
 21
-3220.600334250649
 31
0.0
  0
ARC
  5
15C
330
1F
100
AcDbEntity
  8
0-4_枠
  6
Continuous
 62
     7
370
     5
100
AcDbCircle
 10
-1718.382007211413
 20
-3217.600334250649
 30
0.0
 40
3.0
100
AcDbArc
 50
270.0
 51
0.0
  0
LINE
  5
15D
330
1F
100
AcDbEntity
  8
0-4_枠
  6
Continuous
 62
     7
370
     5
100
AcDbLine
 10
-1715.382007211412
 20
-3205.600334250648
 30
0.0
 11
-1715.382007211412
 21
-3217.600334250649
 31
0.0
  0
ARC
  5
15E
330
1F
100
AcDbEntity
  8
0-4_枠
  6
Continuous
 62
     7
370
     5
100
AcDbCircle
 10
-1717.182007211412
 20
-3205.600334250648
 30
0.0
 40
1.800000000000069
100
AcDbArc
 50
0.0
 51
90.0
  0
LINE
  5
15F
330
1F
100
AcDbEntity
  8
0-4_枠
  6
Continuous
 62
     7
370
     5
100
AcDbLine
 10
-1720.782007211407
 20
-3203.800334250649
 30
0.0
 11
-1717.182007211412
 21
-3203.800334250649
 31
0.0
  0
ARC
  5
160
330
1F
100
AcDbEntity
  8
0-4_枠
  6
Continuous
 62
     7
370
     5
100
AcDbCircle
 10
-1720.782007211407
 20
-3202.600334250649
 30
0.0
 40
1.199999999999932
100
AcDbArc
 50
179.9999999999674
 51
270.0
  0
LINE
  5
161
330
1F
100
AcDbEntity
  8
0-4_枠
  6
Continuous
 62
     7
370
     5
100
AcDbLine
 10
-1721.982007211407
 20
-3199.600334250648
 30
0.0
 11
-1721.982007211407
 21
-3202.600334250648
 31
0.0
  0
ARC
  5
162
330
1F
100
AcDbEntity
  8
0-4_枠
  6
Continuous
 62
     7
370
     5
100
AcDbCircle
 10
-1720.182007211407
 20
-3199.600334250648
 30
0.0
 40
1.799999999999727
100
AcDbArc
 50
89.99999999996201
 51
180.0
  0
ARC
  5
163
330
1F
100
AcDbEntity
  8
0-4_枠
  6
Continuous
 62
     7
370
     5
100
AcDbCircle
 10
-1720.182007211413
 20
-3209.800334250649
 30
0.0
 40
12.0
100
AcDbArc
 50
359.9999999999968
 51
89.9999999999682
  0
LINE
  5
164
330
1F
100
AcDbEntity
  8
0-4_枠
  6
Continuous
 62
     7
370
     5
100
AcDbLine
 10
-1708.182007211412
 20
-3209.80033425065
 30
0.0
 11
-1708.182007211413
 21
-3226.000334250649
 31
0.0
  0
ARC
  5
165
330
1F
100
AcDbEntity
  8
0-4_枠
  6
Continuous
 62
     7
370
     5
100
AcDbCircle
 10
-1802.382007211406
 20
-3220.00033425065
 30
0.0
 40
6.0
100
AcDbArc
 50
180.0
 51
270.0
  0
LINE
  5
166
330
1F
100
AcDbEntity
  8
0-4_枠
  6
Continuous
 62
     7
370
     5
100
AcDbLine
 10
-1808.382007211407
 20
-3208.445918662921
 30
0.0
 11
-1808.382007211407
 21
-3220.00033425065
 31
0.0
  0
ARC
  5
167
330
1F
100
AcDbEntity
  8
0-4_枠
  6
Continuous
 62
     7
370
     5
100
AcDbCircle
 10
-1810.182007211407
 20
-3208.445918662921
 30
0.0
 40
1.800000000000069
100
AcDbArc
 50
359.9999999999784
 51
135.0000000000384
  0
LINE
  5
168
330
1F
100
AcDbEntity
  8
0-4_枠
  6
Continuous
 62
     7
370
     5
100
AcDbLine
 10
-1817.454799417541
 20
-3213.173126456787
 30
0.0
 11
-1811.454799417543
 21
-3207.173126456787
 31
0.0
  0
ARC
  5
169
330
1F
100
AcDbEntity
  8
0-4_枠
  6
Continuous
 62
     7
370
     5
100
AcDbCircle
 10
-1816.182007211406
 20
-3214.445918662922
 30
0.0
 40
1.799999999999605
100
AcDbArc
 50
135.0000000000057
 51
180.0000000000034
  0
LINE
  5
16A
330
1F
100
AcDbEntity
  8
0-4_枠
  6
Continuous
 62
     7
370
     5
100
AcDbLine
 10
-1817.982007211406
 20
-3226.000334250649
 30
0.0
 11
-1817.982007211406
 21
-3214.445918662922
 31
0.0
  0
LINE
  5
16B
330
1F
100
AcDbEntity
  8
0-4_枠
  6
Continuous
 62
     7
370
     5
100
AcDbLine
 10
-1824.582007211407
 20
-3226.000334250649
 30
0.0
 11
-1817.982007211406
 21
-3226.000334250649
 31
0.0
  0
LINE
  5
16C
330
1F
100
AcDbEntity
  8
0-4_枠
  6
Continuous
 62
     7
370
     5
100
AcDbLine
 10
-1824.582007211407
 20
-3226.000334250649
 30
0.0
 11
-1824.582007211407
 21
-3210.40033425065
 31
0.0
  0
ARC
  5
16D
330
1F
100
AcDbEntity
  8
0-4_枠
  6
Continuous
 62
     7
370
     5
100
AcDbCircle
 10
-1825.182007211406
 20
-3210.40033425065
 30
0.0
 40
0.599999999999966
100
AcDbArc
 50
0.0
 51
90.0
  0
LINE
  5
16E
330
1F
100
AcDbEntity
  8
0-4_枠
  6
Continuous
 62
     7
370
     5
100
AcDbLine
 10
-1847.982007211406
 20
-3209.80033425065
 30
0.0
 11
-1825.182007211406
 21
-3209.80033425065
 31
0.0
  0
ARC
  5
16F
330
1F
100
AcDbEntity
  8
0-4_枠
  6
Continuous
 62
     7
370
     5
100
AcDbCircle
 10
-1847.982007211406
 20
-3210.40033425065
 30
0.0
 40
0.6000000000001362
100
AcDbArc
 50
90.0
 51
180.0
  0
LINE
  5
170
330
1F
100
AcDbEntity
  8
0-4_枠
  6
Continuous
 62
     7
370
     5
100
AcDbLine
 10
-1848.582007211406
 20
-3226.000334250649
 30
0.0
 11
-1848.582007211406
 21
-3210.40033425065
 31
0.0
  0
LINE
  5
171
330
1F
100
AcDbEntity
  8
0-4_枠
  6
Continuous
 62
     7
370
     5
100
AcDbLine
 10
-1855.182007211407
 20
-3226.000334250649
 30
0.0
 11
-1848.582007211406
 21
-3226.000334250649
 31
0.0
  0
LINE
  5
172
330
1F
100
AcDbEntity
  8
0-4_枠
  6
Continuous
 62
     7
370
     5
100
AcDbLine
 10
-1855.182007211407
 20
-3226.000334250649
 30
0.0
 11
-1855.182007211407
 21
-3213.700334250651
 31
0.0
  0
LINE
  5
173
330
1F
100
AcDbEntity
  8
0-4_枠
  6
Continuous
 62
     7
370
     5
100
AcDbLine
 10
-1855.182007211407
 20
-3213.700334250651
 30
0.0
 11
-1861.460686867849
 21
-3207.421654594209
 31
0.0
  0
ARC
  5
174
330
1F
100
AcDbEntity
  8
0-4_枠
  6
Continuous
 62
     7
370
     5
100
AcDbCircle
 10
-1863.582007211407
 20
-3209.542974937768
 30
0.0
 40
2.999999999998578
100
AcDbArc
 50
45.0
 51
180.0000000000261
  0
LINE
  5
175
330
1F
100
AcDbEntity
  8
0-4_枠
  6
Continuous
 62
     7
370
     5
100
AcDbLine
 10
-1866.582007211406
 20
-3226.000334250649
 30
0.0
 11
-1866.582007211407
 21
-3209.542974937769
 31
0.0
  0
LINE
  5
176
330
1F
100
AcDbEntity
  8
0-4_枠
  6
Continuous
 62
     7
370
     5
100
AcDbLine
 10
-1872.582007211407
 20
-3226.000334250649
 30
0.0
 11
-1866.582007211406
 21
-3226.000334250649
 31
0.0
  0
LINE
  5
177
330
1F
100
AcDbEntity
  8
0-4_枠
  6
Continuous
 62
     7
370
     5
100
AcDbLine
 10
-1872.582007211407
 20
-3226.000334250649
 30
0.0
 11
-1872.582007211407
 21
-3209.800334250649
 31
0.0
  0
ARC
  5
178
330
1F
100
AcDbEntity
  8
0-4_枠
  6
Continuous
 62
     7
370
     5
100
AcDbCircle
 10
-1860.582007211407
 20
-3209.800334250649
 30
0.0
 40
12.0
100
AcDbArc
 50
90.0
 51
180.0
  0
LINE
  5
179
330
1F
100
AcDbEntity
  8
0-4_枠
  6
Continuous
 62
     7
370
     5
100
AcDbLine
 10
-1802.382007211406
 20
-3226.000334250649
 30
0.0
 11
-1708.182007211413
 21
-3226.000334250649
 31
0.0
  0
LINE
  5
17A
330
1F
100
AcDbEntity
  8
0-4_枠
  6
Continuous
 62
     7
370
     5
100
AcDbLine
 10
-1796.982007211407
 20
-3197.800334250649
 30
0.0
 11
-1834.782007211406
 21
-3197.800334250649
 31
0.0
  0
LINE
  5
17B
330
1F
100
AcDbEntity
  8
0-A_文字
  6
Continuous
 62
   120
370
     5
100
AcDbLine
 10
-1708.182007211413
 20
-2902.602286120296
 30
0.0
 11
-1872.582007211407
 21
-2902.602286120296
 31
0.0
  0
LWPOLYLINE
  5
17C
330
1F
100
AcDbEntity
  8
0-A_文字
  6
Continuous
 62
     7
370
     5
100
AcDbPolyline
 90
        4
 70
     1
 43
3.0
 10
-1706.682007211413
 20
-2902.602286120296
 42
0.4142135623731
 10
-1708.182007211413
 20
-2901.102286120296
 42
0.4142135623731
 10
-1709.682007211413
 20
-2902.602286120296
 42
0.4142135623731
 10
-1708.182007211413
 20
-2904.102286120296
 42
0.4142135623731
  0
LWPOLYLINE
  5
17D
330
1F
100
AcDbEntity
  8
0-A_文字
  6
Continuous
 62
     7
370
     5
100
AcDbPolyline
 90
        4
 70
     1
 43
3.0
 10
-1871.082007211407
 20
-2902.602286120296
 42
0.4142135623731
 10
-1872.582007211407
 20
-2901.102286120296
 42
0.4142135623731
 10
-1874.082007211407
 20
-2902.602286120296
 42
0.4142135623731
 10
-1872.582007211407
 20
-2904.102286120296
 42
0.4142135623731
  0
LINE
  5
17E
330
1F
100
AcDbEntity
  8
0-A_文字
  6
Continuous
 62
   120
370
     5
100
AcDbLine
 10
-1708.182007211413
 20
-2902.602286120296
 30
0.0
 11
-1708.182007211413
 21
-3010.720297678312
 31
0.0
  0
LINE
  5
17F
330
1F
100
AcDbEntity
  8
0-A_文字
  6
Continuous
 62
   120
370
     5
100
AcDbLine
 10
-1872.582007211407
 20
-2902.602286120296
 30
0.0
 11
-1872.582007211407
 21
-3010.720297678312
 31
0.0
  0
LINE
  5
180
330
1F
100
AcDbEntity
  8
0-7_金物
  6
Continuous
 62
     7
370
     5
100
AcDbLine
 10
-1749.581948599102
 20
-3157.253733651253
 30
0.0
 11
-1749.581948599102
 21
-3220.600334250651
 31
0.0
  0
LINE
  5
181
330
1F
100
AcDbEntity
  8
0-7_金物
  6
Continuous
 62
     7
370
     5
100
AcDbLine
 10
-1767.581711056877
 20
-3157.253733651253
 30
0.0
 11
-1767.581711056877
 21
-3220.600334250651
 31
0.0
  0
LINE
  5
182
330
1F
100
AcDbEntity
  8
0-7_金物
  6
Continuous
 62
     7
370
     5
100
AcDbLine
 10
-1749.581948599102
 20
-3220.600334250651
 30
0.0
 11
-1767.581711056877
 21
-3220.600334250651
 31
0.0
  0
LINE
  5
183
330
1F
100
AcDbEntity
  8
0-A_文字
  6
Continuous
 62
    92
370
     5
100
AcDbLine
 10
89.41875478336954
 20
-3297.999940821333
 30
0.0
 11
89.41875478336954
 21
-471.848628523927
 31
0.0
  0
LINE
  5
184
330
1F
100
AcDbEntity
  8
0-A_文字
  6
Continuous
 62
    92
370
     5
100
AcDbLine
 10
89.41875478336954
 20
-471.848628523927
 30
0.0
 11
2729.418754783373
 21
-471.848628523927
 31
0.0
  0
LINE
  5
185
330
1F
100
AcDbEntity
  8
0-A_文字
  6
Continuous
 62
    92
370
     5
100
AcDbLine
 10
89.41875478336954
 20
-651.848628523927
 30
0.0
 11
2729.418754783373
 21
-651.848628523927
 31
0.0
  0
LINE
  5
186
330
1F
100
AcDbEntity
  8
0-A_文字
  6
Continuous
 62
    92
370
     5
100
AcDbLine
 10
89.41875478336954
 20
-3297.999940821333
 30
0.0
 11
2729.418754783373
 21
-3297.999940821333
 31
0.0
  0
LINE
  5
187
330
1F
100
AcDbEntity
  8
0-A_文字
  6
Continuous
 62
    92
370
     5
100
AcDbLine
 10
2729.418754783373
 20
-471.848628523927
 30
0.0
 11
2729.418754783373
 21
-3297.999940821333
 31
0.0
  0
LINE
  5
188
330
1F
100
AcDbEntity
  8
1-3_仕上げ
  6
Continuous
 62
    40
370
     5
100
AcDbLine
 10
2451.918754783373
 20
-2769.504289576838
 30
0.0
 11
366.9187547833695
 21
-2769.504289576838
 31
0.0
  0
LINE
  5
189
330
1F
100
AcDbEntity
  8
1-3_仕上げ
  6
Continuous
 62
    40
370
     5
100
AcDbLine
 10
366.9187547833695
 20
-2949.504233902884
 30
0.0
 11
2451.918754783373
 21
-2949.504233902884
 31
0.0
  0
LINE
  5
18A
330
1F
100
AcDbEntity
  8
1-3_仕上げ
  6
Continuous
 62
     7
370
     5
100
AcDbLine
 10
366.9187547833695
 20
-2889.503943161086
 30
0.0
 11
2451.918754783373
 21
-2889.503943161086
 31
0.0
  0
LINE
  5
18B
330
1F
100
AcDbEntity
  8
1-3_仕上げ
  6
Continuous
 62
     7
370
     5
100
AcDbLine
 10
366.9187547833695
 20
-2859.504029765024
 30
0.0
 11
2451.918754783373
 21
-2859.504029765024
 31
0.0
  0
LINE
  5
18C
330
1F
100
AcDbEntity
  8
1-3_仕上げ
  6
Continuous
 62
     7
370
     5
100
AcDbLine
 10
366.9187547833695
 20
-2919.504320506823
 30
0.0
 11
2451.918754783373
 21
-2919.504320506823
 31
0.0
  0
LINE
  5
18D
330
1F
100
AcDbEntity
  8
1-3_仕上げ
  6
Continuous
 62
     7
370
     5
100
AcDbLine
 10
366.9187547833695
 20
-2829.504116368963
 30
0.0
 11
2451.918754783373
 21
-2829.504116368963
 31
0.0
  0
LINE
  5
18E
330
1F
100
AcDbEntity
  8
1-3_仕上げ
  6
Continuous
 62
     7
370
     5
100
AcDbLine
 10
366.9187547833695
 20
-2799.503739023232
 30
0.0
 11
2451.918754783373
 21
-2799.503739023232
 31
0.0
  0
MTEXT
  5
18F
330
1F
100
AcDbEntity
  8
0-B_寸法
  6
Continuous
 62
     7
370
     0
100
AcDbMText
 10
-945.0485387383782
 20
-3156.625103839969
 30
0.0
 40
91.44
 41
180.0
 46
0.0
 71
     7
 72
     1
  1
{\fＭＳ ゴシック|b0|i0|c128|p49;6.5}
 11
6.123031769111886E-17
 21
1.0
 31
0.0
 73
     1
 44
1.0
  0
LWPOLYLINE
  5
190
330
1F
100
AcDbEntity
  8
1-B_寸法
  6
Continuous
 62
     7
370
     5
100
AcDbPolyline
 90
        4
 70
     1
 43
3.0
 10
1894.392082148676
 20
-1229.677366414196
 42
0.4142135623731
 10
1892.892082148676
 20
-1228.177366414196
 42
0.4142135623731
 10
1891.392082148677
 20
-1229.677366414196
 42
0.4142135623731
 10
1892.892082148676
 20
-1231.177366414196
 42
0.4142135623731
  0
LWPOLYLINE
  5
191
330
1F
100
AcDbEntity
  8
1-B_寸法
  6
Continuous
 62
     7
370
     5
100
AcDbPolyline
 90
        4
 70
     1
 43
3.0
 10
619.3920821486764
 20
-1229.677366414196
 42
0.4142135623731
 10
617.8920821486764
 20
-1228.177366414196
 42
0.4142135623731
 10
616.3920821486764
 20
-1229.677366414196
 42
0.4142135623731
 10
617.8920821486764
 20
-1231.177366414196
 42
0.4142135623731
  0
LINE
  5
192
330
1F
100
AcDbEntity
  8
1-B_寸法
  6
Continuous
 62
   120
370
     5
100
AcDbLine
 10
617.8920821486764
 20
-1229.677366414196
 30
0.0
 11
1892.892082148676
 21
-1229.677366414196
 31
0.0
  0
LINE
  5
193
330
1F
100
AcDbEntity
  8
1-4_枠
  6
Continuous
 62
     7
370
     5
100
AcDbLine
 10
1000.392082148676
 20
-2699.004289576839
 30
0.0
 11
1055.89208214868
 21
-2699.004289576839
 31
0.0
  0
LINE
  5
194
330
1F
100
AcDbEntity
  8
1-4_枠
  6
Continuous
 62
     7
370
     5
100
AcDbLine
 10
1060.39208214868
 20
-2703.504289576838
 30
0.0
 11
1055.89208214868
 21
-2699.004289576839
 31
0.0
  0
LINE
  5
195
330
1F
100
AcDbEntity
  8
1-4_枠
  6
Continuous
 62
     7
370
     5
100
AcDbLine
 10
1060.39208214868
 20
-2703.504289576838
 30
0.0
 11
1064.892082148679
 21
-2699.004289576839
 31
0.0
  0
ARC
  5
196
330
1F
100
AcDbEntity
  8
1-4_枠
  6
Continuous
 62
     7
370
     5
100
AcDbCircle
 10
1159.392082148677
 20
-2703.504289576837
 30
0.0
 40
4.500000000001449
100
AcDbArc
 50
359.9999999999784
 51
90.00000000000004
  0
LINE
  5
197
330
1F
100
AcDbEntity
  8
1-4_枠
  6
Continuous
 62
     7
370
     5
100
AcDbLine
 10
1163.892082148679
 20
-2703.504289576838
 30
0.0
 11
1163.892082148679
 21
-2711.004289576838
 31
0.0
  0
ARC
  5
198
330
1F
100
AcDbEntity
  8
1-4_枠
  6
Continuous
 62
     7
370
     5
100
AcDbCircle
 10
1160.892082148675
 20
-2711.004289576837
 30
0.0
 40
3.000000000000683
100
AcDbArc
 50
270.0
 51
359.9999999999674
  0
LINE
  5
199
330
1F
100
AcDbEntity
  8
1-4_枠
  6
Continuous
 62
     7
370
     5
100
AcDbLine
 10
1160.892082148675
 20
-2714.004289576837
 30
0.0
 11
1151.892082148677
 21
-2714.004289576837
 31
0.0
  0
ARC
  5
19A
330
1F
100
AcDbEntity
  8
1-4_枠
  6
Continuous
 62
     7
370
     5
100
AcDbCircle
 10
1151.892082148677
 20
-2718.504289576837
 30
0.0
 40
4.499999999999318
100
AcDbArc
 50
90.0
 51
180.0
  0
LINE
  5
19B
330
1F
100
AcDbEntity
  8
1-4_枠
  6
Continuous
 62
     7
370
     5
100
AcDbLine
 10
1147.392082148677
 20
-2718.504289576837
 30
0.0
 11
1147.392082148677
 21
-2748.504289576838
 31
0.0
  0
ARC
  5
19C
330
1F
100
AcDbEntity
  8
1-4_枠
  6
Continuous
 62
     7
370
     5
100
AcDbCircle
 10
1154.892082148677
 20
-2748.504289576838
 30
0.0
 40
7.5
100
AcDbArc
 50
180.0
 51
270.0
  0
LINE
  5
19D
330
1F
100
AcDbEntity
  8
1-4_枠
  6
Continuous
 62
     7
370
     5
100
AcDbLine
 10
1154.892082148677
 20
-2756.004289576838
 30
0.0
 11
1250.892082148677
 21
-2756.004289576842
 31
0.0
  0
LINE
  5
19E
330
1F
100
AcDbEntity
  8
1-4_枠
  6
Continuous
 62
     7
370
     5
100
AcDbLine
 10
1255.392082148676
 20
-2760.504289576841
 30
0.0
 11
1250.892082148677
 21
-2756.004289576842
 31
0.0
  0
LINE
  5
19F
330
1F
100
AcDbEntity
  8
1-4_枠
  6
Continuous
 62
     7
370
     5
100
AcDbLine
 10
1255.392082148676
 20
-2760.504289576841
 30
0.0
 11
1259.892082148677
 21
-2756.004289576842
 31
0.0
  0
LINE
  5
1A0
330
1F
100
AcDbEntity
  8
1-4_枠
  6
Continuous
 62
     7
370
     5
100
AcDbLine
 10
1259.892082148677
 20
-2756.004289576842
 30
0.0
 11
1355.892082148662
 21
-2756.004289576838
 31
0.0
  0
ARC
  5
1A1
330
1F
100
AcDbEntity
  8
1-4_枠
  6
Continuous
 62
     7
370
     5
100
AcDbCircle
 10
1355.892082148662
 20
-2748.504289576838
 30
0.0
 40
7.5
100
AcDbArc
 50
270.0
 51
0.0
  0
LINE
  5
1A2
330
1F
100
AcDbEntity
  8
1-4_枠
  6
Continuous
 62
     7
370
     5
100
AcDbLine
 10
1363.392082148664
 20
-2718.504289576837
 30
0.0
 11
1363.392082148664
 21
-2748.504289576838
 31
0.0
  0
ARC
  5
1A3
330
1F
100
AcDbEntity
  8
1-4_枠
  6
Continuous
 62
     7
370
     5
100
AcDbCircle
 10
1358.892082148664
 20
-2718.504289576837
 30
0.0
 40
4.500000000000171
100
AcDbArc
 50
0.0
 51
90.0
  0
LINE
  5
1A4
330
1F
100
AcDbEntity
  8
1-4_枠
  6
Continuous
 62
     7
370
     5
100
AcDbLine
 10
1349.892082148676
 20
-2714.004289576837
 30
0.0
 11
1358.892082148664
 21
-2714.004289576837
 31
0.0
  0
ARC
  5
1A5
330
1F
100
AcDbEntity
  8
1-4_枠
  6
Continuous
 62
     7
370
     5
100
AcDbCircle
 10
1349.892082148676
 20
-2711.004289576837
 30
0.0
 40
2.99999999999983
100
AcDbArc
 50
179.9999999999674
 51
270.0
  0
LINE
  5
1A6
330
1F
100
AcDbEntity
  8
1-4_枠
  6
Continuous
 62
     7
370
     5
100
AcDbLine
 10
1346.892082148677
 20
-2703.504289576835
 30
0.0
 11
1346.892082148677
 21
-2711.004289576835
 31
0.0
  0
ARC
  5
1A7
330
1F
100
AcDbEntity
  8
1-4_枠
  6
Continuous
 62
     7
370
     5
100
AcDbCircle
 10
1351.392082148678
 20
-2703.504289576835
 30
0.0
 40
4.499999999999318
100
AcDbArc
 50
89.99999999996201
 51
180.0
  0
ARC
  5
1A8
330
1F
100
AcDbEntity
  8
1-4_枠
  6
Continuous
 62
     7
370
     5
100
AcDbCircle
 10
1351.392082148662
 20
-2729.004289576839
 30
0.0
 40
30.0
100
AcDbArc
 50
359.9999999999968
 51
89.9999999999682
  0
LINE
  5
1A9
330
1F
100
AcDbEntity
  8
1-4_枠
  6
Continuous
 62
     7
370
     5
100
AcDbLine
 10
1381.392082148664
 20
-2729.004289576841
 30
0.0
 11
1381.392082148662
 21
-2769.504289576838
 31
0.0
  0
ARC
  5
1AA
330
1F
100
AcDbEntity
  8
1-4_枠
  6
Continuous
 62
     7
370
     5
100
AcDbCircle
 10
1145.892082148679
 20
-2754.50428957684
 30
0.0
 40
15.0
100
AcDbArc
 50
180.0
 51
270.0
  0
LINE
  5
1AB
330
1F
100
AcDbEntity
  8
1-4_枠
  6
Continuous
 62
     7
370
     5
100
AcDbLine
 10
1130.892082148677
 20
-2725.618250607519
 30
0.0
 11
1130.892082148677
 21
-2754.50428957684
 31
0.0
  0
ARC
  5
1AC
330
1F
100
AcDbEntity
  8
1-4_枠
  6
Continuous
 62
     7
370
     5
100
AcDbCircle
 10
1126.392082148678
 20
-2725.618250607517
 30
0.0
 40
4.500000000000171
100
AcDbArc
 50
359.9999999999784
 51
135.0000000000384
  0
LINE
  5
1AD
330
1F
100
AcDbEntity
  8
1-4_枠
  6
Continuous
 62
     7
370
     5
100
AcDbLine
 10
1108.21010163334
 20
-2737.436270092182
 30
0.0
 11
1123.210101633335
 21
-2722.436270092182
 31
0.0
  0
ARC
  5
1AE
330
1F
100
AcDbEntity
  8
1-4_枠
  6
Continuous
 62
     7
370
     5
100
AcDbCircle
 10
1111.392082148681
 20
-2740.618250607521
 30
0.0
 40
4.499999999999011
100
AcDbArc
 50
135.0000000000057
 51
180.0000000000034
  0
LINE
  5
1AF
330
1F
100
AcDbEntity
  8
1-4_枠
  6
Continuous
 62
     7
370
     5
100
AcDbLine
 10
1106.89208214868
 20
-2769.504289576838
 30
0.0
 11
1106.89208214868
 21
-2740.618250607522
 31
0.0
  0
LINE
  5
1B0
330
1F
100
AcDbEntity
  8
1-4_枠
  6
Continuous
 62
     7
370
     5
100
AcDbLine
 10
1090.392082148678
 20
-2769.504289576838
 30
0.0
 11
1106.89208214868
 21
-2769.504289576838
 31
0.0
  0
LINE
  5
1B1
330
1F
100
AcDbEntity
  8
1-4_枠
  6
Continuous
 62
     7
370
     5
100
AcDbLine
 10
1090.392082148678
 20
-2769.504289576838
 30
0.0
 11
1090.392082148678
 21
-2730.504289576842
 31
0.0
  0
ARC
  5
1B2
330
1F
100
AcDbEntity
  8
1-4_枠
  6
Continuous
 62
     7
370
     5
100
AcDbCircle
 10
1088.892082148679
 20
-2730.504289576842
 30
0.0
 40
1.499999999999915
100
AcDbArc
 50
0.0
 51
90.0
  0
LINE
  5
1B3
330
1F
100
AcDbEntity
  8
1-4_枠
  6
Continuous
 62
     7
370
     5
100
AcDbLine
 10
1031.89208214868
 20
-2729.004289576841
 30
0.0
 11
1088.892082148679
 21
-2729.004289576841
 31
0.0
  0
ARC
  5
1B4
330
1F
100
AcDbEntity
  8
1-4_枠
  6
Continuous
 62
     7
370
     5
100
AcDbCircle
 10
1031.89208214868
 20
-2730.504289576842
 30
0.0
 40
1.500000000000341
100
AcDbArc
 50
90.0
 51
180.0
  0
LINE
  5
1B5
330
1F
100
AcDbEntity
  8
1-4_枠
  6
Continuous
 62
     7
370
     5
100
AcDbLine
 10
1030.39208214868
 20
-2769.504289576838
 30
0.0
 11
1030.39208214868
 21
-2730.504289576842
 31
0.0
  0
LINE
  5
1B6
330
1F
100
AcDbEntity
  8
1-4_枠
  6
Continuous
 62
     7
370
     5
100
AcDbLine
 10
1013.892082148678
 20
-2769.504289576838
 30
0.0
 11
1030.39208214868
 21
-2769.504289576838
 31
0.0
  0
LINE
  5
1B7
330
1F
100
AcDbEntity
  8
1-4_枠
  6
Continuous
 62
     7
370
     5
100
AcDbLine
 10
1013.892082148678
 20
-2769.504289576838
 30
0.0
 11
1013.892082148678
 21
-2738.754289576843
 31
0.0
  0
LINE
  5
1B8
330
1F
100
AcDbEntity
  8
1-4_枠
  6
Continuous
 62
     7
370
     5
100
AcDbLine
 10
1013.892082148678
 20
-2738.754289576843
 30
0.0
 11
998.1953830075713
 21
-2723.057590435739
 31
0.0
  0
ARC
  5
1B9
330
1F
100
AcDbEntity
  8
1-4_枠
  6
Continuous
 62
     7
370
     5
100
AcDbCircle
 10
992.8920821486764
 20
-2728.360891294636
 30
0.0
 40
7.499999999996444
100
AcDbArc
 50
45.0
 51
180.0000000000261
  0
LINE
  5
1BA
330
1F
100
AcDbEntity
  8
1-4_枠
  6
Continuous
 62
     7
370
     5
100
AcDbLine
 10
985.3920821486798
 20
-2769.504289576838
 30
0.0
 11
985.3920821486764
 21
-2728.360891294639
 31
0.0
  0
LINE
  5
1BB
330
1F
100
AcDbEntity
  8
1-4_枠
  6
Continuous
 62
     7
370
     5
100
AcDbLine
 10
970.3920821486781
 20
-2769.504289576838
 30
0.0
 11
985.3920821486798
 21
-2769.504289576838
 31
0.0
  0
LINE
  5
1BC
330
1F
100
AcDbEntity
  8
1-4_枠
  6
Continuous
 62
     7
370
     5
100
AcDbLine
 10
970.3920821486781
 20
-2769.504289576838
 30
0.0
 11
970.3920821486764
 21
-2729.004289576839
 31
0.0
  0
ARC
  5
1BD
330
1F
100
AcDbEntity
  8
1-4_枠
  6
Continuous
 62
     7
370
     5
100
AcDbCircle
 10
1000.392082148676
 20
-2729.004289576839
 30
0.0
 40
30.0
100
AcDbArc
 50
90.0
 51
180.0
  0
LINE
  5
1BE
330
1F
100
AcDbEntity
  8
1-4_枠
  6
Continuous
 62
     7
370
     5
100
AcDbLine
 10
1145.892082148679
 20
-2769.504289576838
 30
0.0
 11
1381.392082148662
 21
-2769.504289576838
 31
0.0
  0
LINE
  5
1BF
330
1F
100
AcDbEntity
  8
1-4_枠
  6
Continuous
 62
     7
370
     5
100
AcDbLine
 10
1159.392082148677
 20
-2699.004289576837
 30
0.0
 11
1064.892082148679
 21
-2699.004289576837
 31
0.0
  0
LINE
  5
1C0
330
1F
100
AcDbEntity
  8
1-7_金物
  6
Continuous
 62
     7
370
     5
100
AcDbLine
 10
1277.892228679439
 20
-2597.637788078348
 30
0.0
 11
1277.892228679439
 21
-2756.004289576842
 31
0.0
  0
LINE
  5
1C1
330
1F
100
AcDbEntity
  8
1-7_金物
  6
Continuous
 62
     7
370
     5
100
AcDbLine
 10
1232.892822535001
 20
-2597.637788078348
 30
0.0
 11
1232.892822535001
 21
-2756.004289576842
 31
0.0
  0
LINE
  5
1C2
330
1F
100
AcDbEntity
  8
1-7_金物
  6
Continuous
 62
     7
370
     5
100
AcDbLine
 10
1277.892228679439
 20
-2756.004289576842
 30
0.0
 11
1232.892822535001
 21
-2756.004289576842
 31
0.0
  0
LINE
  5
1C3
330
1F
100
AcDbEntity
  8
1-4_枠
  6
Continuous
 62
    92
370
     5
100
AcDbLine
 10
617.8920821486764
 20
-2769.503361677502
 30
0.0
 11
617.8920821486764
 21
-950.0013084308409
 31
0.0
  0
LINE
  5
1C4
330
1F
100
AcDbEntity
  8
1-4_枠
  6
Continuous
 62
    92
370
     5
100
AcDbLine
 10
1892.892082148676
 20
-2769.503361677502
 30
0.0
 11
1892.892082148676
 21
-950.0013084308409
 31
0.0
  0
LINE
  5
1C5
330
1F
100
AcDbEntity
  8
1-6_扉
  6
JWW_DASHED2
 62
     7
370
     5
100
AcDbLine
 10
1097.890708857681
 20
-950.0013084308409
 30
0.0
 11
1097.890708857681
 21
-2597.004289576837
 31
0.0
  0
LINE
  5
1C6
330
1F
100
AcDbEntity
  8
1-1_通り芯
  6
JWW_CENTER1
 62
   120
370
     5
100
AcDbLine
 10
1255.392082148694
 20
-3089.736679873625
 30
0.0
 11
1255.392082148694
 21
-950.0013084308409
 31
0.0
  0
LINE
  5
1C7
330
1F
100
AcDbEntity
  8
1-A_文字
  6
Continuous
 62
     7
370
     5
100
AcDbLine
 10
2063.378059185841
 20
-1776.164565761181
 30
0.0
 11
2558.932777746209
 21
-1776.164565761181
 31
0.0
  0
LINE
  5
1C8
330
1F
100
AcDbEntity
  8
1-A_文字
  6
Continuous
 62
     7
370
     5
100
AcDbLine
 10
2558.932777746209
 20
-1776.164565761181
 30
0.0
 11
2558.932777746209
 21
-1970.444540651326
 31
0.0
  0
LINE
  5
1C9
330
1F
100
AcDbEntity
  8
1-A_文字
  6
Continuous
 62
     7
370
     5
100
AcDbLine
 10
2558.932777746209
 20
-1970.444540651326
 30
0.0
 11
2063.378059185841
 21
-1970.444540651326
 31
0.0
  0
LINE
  5
1CA
330
1F
100
AcDbEntity
  8
1-A_文字
  6
Continuous
 62
     7
370
     5
100
AcDbLine
 10
2063.378059185841
 20
-1970.444540651326
 30
0.0
 11
2063.378059185841
 21
-1776.164565761181
 31
0.0
  0
MTEXT
  5
1CB
330
1F
100
AcDbEntity
  8
0-B_寸法
  6
Continuous
 62
     7
370
   211
100
AcDbMText
 10
-733.2077397825509
 20
-3203.200615031445
 30
0.0
 40
91.44
 41
60.0
 46
0.0
 71
     7
 72
     1
  1
{\fＭＳ ゴシック|b0|i0|c128|p49;5}
 11
6.123031769111886E-17
 21
1.0
 31
0.0
 73
     1
 44
1.0
  0
MTEXT
  5
1CC
330
1F
100
AcDbEntity
  8
0-B_寸法
  6
Continuous
 62
     7
370
   211
100
AcDbMText
 10
-520.1301432799704
 20
-3446.42642465619
 30
0.0
 40
91.44
 41
120.0
 46
0.0
 71
     7
 72
     1
  1
{\fＭＳ ゴシック|b0|i0|c128|p49;12}
 11
6.123031769111886E-17
 21
1.0
 31
0.0
 73
     1
 44
1.0
  0
LINE
  5
1CD
330
1F
100
AcDbEntity
  8
1-B_寸法
  6
Continuous
 62
   120
370
     5
100
AcDbLine
 10
970.3920821486781
 20
-2504.004289576837
 30
0.0
 11
1381.392082148662
 21
-2504.004289576837
 31
0.0
  0
LWPOLYLINE
  5
1CE
330
1F
100
AcDbEntity
  8
1-B_寸法
  6
Continuous
 62
     7
370
     5
100
AcDbPolyline
 90
        4
 70
     1
 43
3.0
 10
971.892082148678
 20
-2504.004289576837
 42
0.4142135623731
 10
970.3920821486781
 20
-2502.504289576837
 42
0.4142135623731
 10
968.8920821486782
 20
-2504.004289576837
 42
0.4142135623731
 10
970.3920821486781
 20
-2505.504289576837
 42
0.4142135623731
  0
LWPOLYLINE
  5
1CF
330
1F
100
AcDbEntity
  8
1-B_寸法
  6
Continuous
 62
     7
370
     5
100
AcDbPolyline
 90
        4
 70
     1
 43
3.0
 10
1382.892082148662
 20
-2504.004289576837
 42
0.4142135623731
 10
1381.392082148662
 20
-2502.504289576837
 42
0.4142135623731
 10
1379.892082148662
 20
-2504.004289576837
 42
0.4142135623731
 10
1381.392082148662
 20
-2505.504289576837
 42
0.4142135623731
  0
LINE
  5
1D0
330
1F
100
AcDbEntity
  8
1-B_寸法
  6
Continuous
 62
   120
370
     5
100
AcDbLine
 10
970.3920821486781
 20
-2504.004289576837
 30
0.0
 11
970.3920821486781
 21
-2654.004289576837
 31
0.0
  0
LINE
  5
1D1
330
1F
100
AcDbEntity
  8
1-B_寸法
  6
Continuous
 62
   120
370
     5
100
AcDbLine
 10
1381.392082148662
 20
-2504.004289576837
 30
0.0
 11
1381.392082148662
 21
-2654.004289576837
 31
0.0
  0
MTEXT
  5
1D2
330
1F
100
AcDbEntity
  8
1-A_文字
  6
Continuous
 62
     7
370
     5
100
AcDbMText
 10
2071.155418466024
 20
-1746.274027991773
 30
0.0
 40
91.44
 41
480.0
 46
0.0
 71
     7
 72
     1
  1
{\fＭＳ ゴシック|b0|i0|c128|p49;竪枠前面}
 73
     1
 44
1.0
  0
LINE
  5
1D3
330
1F
100
AcDbEntity
  8
1-B_寸法
  6
Continuous
 62
   120
370
     5
100
AcDbLine
 10
1381.392082148662
 20
-2504.004289576837
 30
0.0
 11
1892.892082148676
 21
-2504.004289576837
 31
0.0
  0
LWPOLYLINE
  5
1D4
330
1F
100
AcDbEntity
  8
1-B_寸法
  6
Continuous
 62
     7
370
     5
100
AcDbPolyline
 90
        4
 70
     1
 43
3.0
 10
1894.392082148676
 20
-2504.004289576837
 42
0.4142135623731
 10
1892.892082148676
 20
-2502.504289576837
 42
0.4142135623731
 10
1891.392082148677
 20
-2504.004289576837
 42
0.4142135623731
 10
1892.892082148676
 20
-2505.504289576837
 42
0.4142135623731
  0
LINE
  5
1D5
330
1F
100
AcDbEntity
  8
1-B_寸法
  6
Continuous
 62
   120
370
     5
100
AcDbLine
 10
1892.892082148676
 20
-2504.004289576837
 30
0.0
 11
1892.892082148676
 21
-2654.004289576837
 31
0.0
  0
MTEXT
  5
1D6
330
1F
100
AcDbEntity
  8
1-A_文字
  6
Continuous
 62
     7
370
     5
100
AcDbMText
 10
2131.155418466024
 20
-1947.584553206254
 30
0.0
 40
91.44
 41
360.0
 46
0.0
 71
     7
 72
     1
  1
{\fＭＳ ゴシック|b0|i0|c128|p49;室内側}
 73
     1
 44
1.0
  0
LINE
  5
1D7
330
1F
100
AcDbEntity
  8
1-6_扉
  6
JWW_DASHED2
 62
     7
370
     5
100
AcDbLine
 10
1412.890708857668
 20
-950.0013084308409
 30
0.0
 11
1412.890708857668
 21
-2459.004289576837
 31
0.0
  0
LINE
  5
1D8
330
1F
100
AcDbEntity
  8
1-6_扉
  6
JWW_DASHED2
 62
     7
370
     5
100
AcDbLine
 10
1097.893455439685
 20
-2597.004289576837
 30
0.0
 11
1336.392082148662
 21
-2597.004289576837
 31
0.0
  0
MTEXT
  5
1D9
330
1F
100
AcDbEntity
  8
1-B_寸法
  6
Continuous
 62
     7
370
   211
100
AcDbMText
 10
1195.392082148676
 20
-1228.957366414196
 30
0.0
 40
91.44
 41
120.0
 46
0.0
 71
     7
 72
     1
  1
{\fＭＳ ゴシック|b0|i0|c128|p49;85}
 73
     1
 44
1.0
  0
MTEXT
  5
1DA
330
1F
100
AcDbEntity
  8
1-B_寸法
  6
Continuous
 62
     7
370
   211
100
AcDbMText
 10
1055.89208214867
 20
-2503.284289576837
 30
0.0
 40
91.44
 41
240.0
 46
0.0
 71
     7
 72
     1
  1
{\fＭＳ ゴシック|b0|i0|c128|p49;27.4}
 73
     1
 44
1.0
  0
MTEXT
  5
1DB
330
1F
100
AcDbEntity
  8
1-B_寸法
  6
Continuous
 62
     7
370
   211
100
AcDbMText
 10
1577.142082148669
 20
-2503.284289576837
 30
0.0
 40
91.44
 41
120.0
 46
0.0
 71
     7
 72
     1
  1
{\fＭＳ ゴシック|b0|i0|c128|p49;34}
 73
     1
 44
1.0
  0
MTEXT
  5
1DC
330
1F
100
AcDbEntity
  8
0-B_寸法
  6
Continuous
 62
     7
370
   211
100
AcDbMText
 10
-2724.581669096737
 20
-2166.279758953062
 30
0.0
 40
91.43999999999997
 41
780.0
 46
0.0
 71
     7
 72
     1
  1
{\fＭＳ ゴシック|b0|i0|c128|p49;ＲＯＨ＝2,356}
 11
6.123031769111886E-17
 21
1.0
 31
0.0
 73
     1
 44
1.0
  0
MTEXT
  5
1DD
330
1F
100
AcDbEntity
  8
0-B_寸法
  6
Continuous
 62
     7
370
     0
100
AcDbMText
 10
-945.5813506594717
 20
-2124.809838454786
 30
0.0
 40
91.43999999999997
 41
660.0
 46
0.0
 71
     7
 72
     1
  1
{\fＭＳ ゴシック|b0|i0|c128|p49;ＤＨ＝2,284}
 11
6.123031769111886E-17
 21
1.0
 31
0.0
 73
     1
 44
1.0
  0
MTEXT
  5
1DE
330
1F
100
AcDbEntity
  8
0-B_寸法
  6
Continuous
 62
     7
370
     0
100
AcDbMText
 10
-735.5813506594717
 20
-2124.809838454786
 30
0.0
 40
91.43999999999997
 41
660.0
 46
0.0
 71
     7
 72
     1
  1
{\fＭＳ ゴシック|b0|i0|c128|p49;枠内＝2,298}
 11
6.123031769111886E-17
 21
1.0
 31
0.0
 73
     1
 44
1.0
  0
MTEXT
  5
1DF
330
1F
100
AcDbEntity
  8
0-B_寸法
  6
Continuous
 62
     7
370
     0
100
AcDbMText
 10
-525.5828352983957
 20
-2124.809838454786
 30
0.0
 40
91.43999999999997
 41
660.0
 46
0.0
 71
     7
 72
     1
  1
{\fＭＳ ゴシック|b0|i0|c128|p49;枠外＝2,339}
 11
6.123031769111886E-17
 21
1.0
 31
0.0
 73
     1
 44
1.0
  0
MTEXT
  5
1E0
330
1F
100
AcDbEntity
  8
0-A_文字
  6
Continuous
 62
     7
370
     5
100
AcDbMText
 10
-2728.614598207325
 20
3310.355192579901
 30
0.0
 40
100.584
 41
660.0
 46
0.0
 71
     7
 72
     1
  1
{\fＭＳ ゴシック|b0|i0|c128|p49;■横断面図}
 73
     1
 44
1.0
  0
LINE
  5
1E1
330
1F
100
AcDbEntity
  8
0-0_補助線
  6
JWW_HOJO
 62
     7
370
     5
100
AcDbLine
 10
9.918542843317937
 20
1086.945146596494
 30
0.0
 11
9.918542843317937
 21
3321.945146596495
 31
0.0
  0
MTEXT
  5
1E2
330
1F
100
AcDbEntity
  8
0-A_文字
  6
Continuous
 62
     7
370
     5
100
AcDbMText
 10
-638.0817293404828
 20
1006.738479929827
 30
0.0
 40
79.58666666666667
 41
2820.0
 46
0.0
 71
     7
 72
     1
  1
{\fＭＳ ゴシック|b0|i0|c128|p49;※有効開口寸法は扉の厚さや調整によって若干異なります。}
 73
     1
 44
1.0
  0
LINE
  5
1E3
330
1F
100
AcDbEntity
  8
0-6_扉
  6
Continuous
 62
   200
370
     5
100
AcDbLine
 10
-1997.081457156683
 20
2424.945146596494
 30
0.0
 11
-1997.081457156683
 21
2298.945146596493
 31
0.0
  0
LINE
  5
1E4
330
1F
100
AcDbEntity
  8
0-0_補助線
  6
JWW_HOJO
 62
   120
370
     5
100
AcDbLine
 10
-2762.081259204825
 20
1266.945146596494
 30
0.0
 11
-2762.081259204825
 21
3141.945146596495
 31
0.0
  0
LINE
  5
1E5
330
1F
100
AcDbEntity
  8
0-6_扉
  6
Continuous
 62
   200
370
     5
100
AcDbLine
 10
2016.918542843321
 20
2424.945146596494
 30
0.0
 11
2016.918542843321
 21
2298.945146596493
 31
0.0
  0
LINE
  5
1E6
330
1F
100
AcDbEntity
  8
0-0_補助線
  6
JWW_HOJO
 62
   120
370
     5
100
AcDbLine
 10
2781.918344891463
 20
1266.945146596494
 30
0.0
 11
2781.918344891463
 21
3141.945146596495
 31
0.0
  0
LINE
  5
1E7
330
1F
100
AcDbEntity
  8
0-0_補助線
  6
JWW_HOJO
 62
   120
370
     5
100
AcDbLine
 10
2781.918344891463
 20
2781.945146596495
 30
0.0
 11
-2762.081259204825
 21
2781.945146596495
 31
0.0
  0
LINE
  5
1E8
330
1F
100
AcDbEntity
  8
0-0_補助線
  6
JWW_HOJO
 62
   120
370
     5
100
AcDbLine
 10
2781.918344891463
 20
1626.945146596494
 30
0.0
 11
-2762.081259204825
 21
1626.945146596494
 31
0.0
  0
LINE
  5
1E9
330
1F
100
AcDbEntity
  8
0-0_補助線
  6
JWW_HOJO
 62
   120
370
     5
100
AcDbLine
 10
2781.918344891463
 20
1446.945146596494
 30
0.0
 11
-2762.081259204825
 21
1446.945146596494
 31
0.0
  0
LINE
  5
1EA
330
1F
100
AcDbEntity
  8
0-0_補助線
  6
JWW_HOJO
 62
   120
370
     5
100
AcDbLine
 10
2781.918344891463
 20
1266.945146596494
 30
0.0
 11
-2762.081259204825
 21
1266.945146596494
 31
0.0
  0
LINE
  5
1EB
330
1F
100
AcDbEntity
  8
0-0_補助線
  6
JWW_HOJO
 62
   120
370
     5
100
AcDbLine
 10
2781.918344891463
 20
3141.945146596495
 30
0.0
 11
-2762.081259204825
 21
3141.945146596495
 31
0.0
  0
LINE
  5
1EC
330
1F
100
AcDbEntity
  8
0-0_補助線
  6
JWW_HOJO
 62
   120
370
     5
100
AcDbLine
 10
2781.918344891463
 20
2961.945146596495
 30
0.0
 11
-2762.081259204825
 21
2961.945146596495
 31
0.0
  0
LINE
  5
1ED
330
1F
100
AcDbEntity
  8
0-0_補助線
  6
JWW_HOJO
 62
     7
370
     5
100
AcDbLine
 10
-1982.081457156683
 20
1086.945146596494
 30
0.0
 11
-1982.081457156683
 21
3321.945146596495
 31
0.0
  0
LINE
  5
1EE
330
1F
100
AcDbEntity
  8
0-0_補助線
  6
JWW_HOJO
 62
     7
370
     5
100
AcDbLine
 10
2001.918542843317
 20
1086.945146596494
 30
0.0
 11
2001.918542843317
 21
3321.945146596495
 31
0.0
  0
LINE
  5
1EF
330
1F
100
AcDbEntity
  8
0-1_通り芯
  6
JWW_CENTER1
 62
   120
370
     5
100
AcDbLine
 10
2781.918344891463
 20
2361.945146596495
 30
0.0
 11
-2762.081259204825
 21
2361.945146596495
 31
0.0
  0
LINE
  5
1F0
330
1F
100
AcDbEntity
  8
0-C_ハッチ
  6
Continuous
 62
   120
370
     5
100
AcDbLine
 10
-2162.081457156697
 20
2565.455682251161
 30
0.0
 11
-2110.591992811357
 21
2616.945146596503
 31
0.0
  0
LINE
  5
1F1
330
1F
100
AcDbEntity
  8
0-C_ハッチ
  6
Continuous
 62
   120
370
     5
100
AcDbLine
 10
-2162.081457156682
 20
2506.058712631531
 30
0.0
 11
-2051.195023191729
 21
2616.945146596484
 31
0.0
  0
LINE
  5
1F2
330
1F
100
AcDbEntity
  8
0-C_ハッチ
  6
Continuous
 62
   120
370
     5
100
AcDbLine
 10
-2162.081457156692
 20
2446.661743011818
 30
0.0
 11
-1995.939755364349
 21
2612.803444804162
 31
0.0
  0
LINE
  5
1F3
330
1F
100
AcDbEntity
  8
0-C_ハッチ
  6
Continuous
 62
   120
370
     5
100
AcDbLine
 10
-2162.081457156678
 20
2387.264773392184
 30
0.0
 11
-1982.081457156681
 21
2567.264773392182
 31
0.0
  0
LINE
  5
1F4
330
1F
100
AcDbEntity
  8
0-C_ハッチ
  6
Continuous
 62
   120
370
     5
100
AcDbLine
 10
-2162.081457156687
 20
2327.867803772476
 30
0.0
 11
-1982.081457156695
 21
2507.867803772466
 31
0.0
  0
LINE
  5
1F5
330
1F
100
AcDbEntity
  8
0-C_ハッチ
  6
Continuous
 62
   120
370
     5
100
AcDbLine
 10
-2162.081457156682
 20
2268.470834152833
 30
0.0
 11
-2012.983440397436
 21
2417.568850912078
 31
0.0
  0
LINE
  5
1F6
330
1F
100
AcDbEntity
  8
0-C_ハッチ
  6
Continuous
 62
   120
370
     5
100
AcDbLine
 10
-2162.081457156676
 20
2209.073864533189
 30
0.0
 11
-2017.956436377856
 21
2353.198885312011
 31
0.0
  0
LINE
  5
1F7
330
1F
100
AcDbEntity
  8
0-C_ハッチ
  6
Continuous
 62
   120
370
     5
100
AcDbLine
 10
-2162.081457156692
 20
2149.676894913473
 30
0.0
 11
-2011.748061293049
 21
2300.010290777116
 31
0.0
  0
LINE
  5
1F8
330
1F
100
AcDbEntity
  8
0-C_ハッチ
  6
Continuous
 62
   120
370
     5
100
AcDbLine
 10
-2145.41623585402
 20
2106.945146596498
 30
0.0
 11
-1998.396447750558
 21
2253.964934699959
 31
0.0
  0
LINE
  5
1F9
330
1F
100
AcDbEntity
  8
0-C_ハッチ
  6
Continuous
 62
   120
370
     5
100
AcDbLine
 10
-2086.01926623432
 20
2106.945146596498
 30
0.0
 11
-1982.081457156685
 21
2210.882955674131
 31
0.0
  0
LINE
  5
1FA
330
1F
100
AcDbEntity
  8
0-C_ハッチ
  6
Continuous
 62
   120
370
     5
100
AcDbLine
 10
-2026.622296614681
 20
2106.945146596491
 30
0.0
 11
-1982.081457156688
 21
2151.485986054481
 31
0.0
  0
ARC
  5
1FB
330
1F
100
AcDbEntity
  8
0-4_枠
  6
Continuous
 62
    92
370
     5
100
AcDbCircle
 10
-1712.081457156681
 20
2361.945146596495
 30
0.0
 40
306.0000000000022
100
AcDbArc
 50
151.9275130641473
 51
208.0724869358527
  0
LINE
  5
1FC
330
1F
100
AcDbEntity
  8
0-4_枠
  6
Continuous
 62
    92
370
     5
100
AcDbLine
 10
-1982.081457156683
 20
2505.945146596495
 30
0.0
 11
-1982.081457156683
 21
2598.945146596493
 31
0.0
  0
LINE
  5
1FD
330
1F
100
AcDbEntity
  8
0-4_枠
  6
Continuous
 62
    92
370
     5
100
AcDbLine
 10
-1982.081457156683
 20
2124.945146596495
 30
0.0
 11
-1982.081457156683
 21
2217.945146596493
 31
0.0
  0
LINE
  5
1FE
330
1F
100
AcDbEntity
  8
0-4_枠
  6
Continuous
 62
    92
370
     5
100
AcDbLine
 10
-1982.081457156683
 20
2124.945146596495
 30
0.0
 11
-2000.081457156682
 21
2106.945146596494
 31
0.0
  0
LINE
  5
1FF
330
1F
100
AcDbEntity
  8
0-4_枠
  6
Continuous
 62
    92
370
     5
100
AcDbLine
 10
-2000.081457156682
 20
2106.945146596494
 30
0.0
 11
-2162.081457156683
 21
2106.945146596494
 31
0.0
  0
LINE
  5
200
330
1F
100
AcDbEntity
  8
0-4_枠
  6
Continuous
 62
    92
370
     5
100
AcDbLine
 10
-2000.081457156682
 20
2616.945146596495
 30
0.0
 11
-1982.081457156683
 21
2598.945146596493
 31
0.0
  0
LINE
  5
201
330
1F
100
AcDbEntity
  8
0-4_枠
  6
Continuous
 62
    92
370
     5
100
AcDbLine
 10
-2000.081457156682
 20
2616.945146596495
 30
0.0
 11
-2162.081457156683
 21
2616.945146596495
 31
0.0
  0
LINE
  5
202
330
1F
100
AcDbEntity
  8
0-4_枠
  6
Continuous
 62
    92
370
     5
100
AcDbLine
 10
-2162.081457156683
 20
2106.945146596494
 30
0.0
 11
-2162.081457156683
 21
2616.945146596495
 31
0.0
  0
LINE
  5
203
330
1F
100
AcDbEntity
  8
0-0_補助線
  6
Continuous
 62
   120
370
     5
100
AcDbLine
 10
-1982.081457156683
 20
2324.359196304033
 30
0.0
 11
-1997.081457156683
 21
2324.359196304033
 31
0.0
  0
LWPOLYLINE
  5
204
330
1F
100
AcDbEntity
  8
0-0_補助線
  6
Continuous
 62
     7
370
     5
100
AcDbPolyline
 90
        4
 70
     1
 43
3.0
 10
-1980.581457156683
 20
2324.359196304033
 42
0.4142135623731
 10
-1982.081457156683
 20
2325.859196304033
 42
0.4142135623731
 10
-1983.581457156683
 20
2324.359196304033
 42
0.4142135623731
 10
-1982.081457156683
 20
2322.859196304033
 42
0.4142135623731
  0
LWPOLYLINE
  5
205
330
1F
100
AcDbEntity
  8
0-0_補助線
  6
Continuous
 62
     7
370
     5
100
AcDbPolyline
 90
        4
 70
     1
 43
3.0
 10
-1995.581457156683
 20
2324.359196304033
 42
0.4142135623731
 10
-1997.081457156683
 20
2325.859196304033
 42
0.4142135623731
 10
-1998.581457156683
 20
2324.359196304033
 42
0.4142135623731
 10
-1997.081457156683
 20
2322.859196304033
 42
0.4142135623731
  0
LINE
  5
206
330
1F
100
AcDbEntity
  8
0-0_補助線
  6
Continuous
 62
   120
370
     5
100
AcDbLine
 10
-1982.081457156683
 20
2324.359196304033
 30
0.0
 11
-1982.081457156683
 21
2405.688459527219
 31
0.0
  0
LINE
  5
207
330
1F
100
AcDbEntity
  8
0-0_補助線
  6
Continuous
 62
   120
370
     5
100
AcDbLine
 10
-1997.081457156683
 20
2324.359196304033
 30
0.0
 11
-1997.081457156683
 21
2405.688459527219
 31
0.0
  0
LINE
  5
208
330
1F
100
AcDbEntity
  8
0-0_補助線
  6
Continuous
 62
   120
370
     5
100
AcDbLine
 10
-1997.081457156683
 20
2324.359196304033
 30
0.0
 11
-2018.081457156683
 21
2324.359196304033
 31
0.0
  0
LWPOLYLINE
  5
209
330
1F
100
AcDbEntity
  8
0-0_補助線
  6
Continuous
 62
     7
370
     5
100
AcDbPolyline
 90
        4
 70
     1
 43
3.0
 10
-2016.581457156683
 20
2324.359196304033
 42
0.4142135623731
 10
-2018.081457156683
 20
2325.859196304033
 42
0.4142135623731
 10
-2019.581457156683
 20
2324.359196304033
 42
0.4142135623731
 10
-2018.081457156683
 20
2322.859196304033
 42
0.4142135623731
  0
LINE
  5
20A
330
1F
100
AcDbEntity
  8
0-0_補助線
  6
Continuous
 62
   120
370
     5
100
AcDbLine
 10
-2018.081457156683
 20
2324.359196304033
 30
0.0
 11
-2018.081457156683
 21
2405.688459527219
 31
0.0
  0
MTEXT
  5
20B
330
1F
100
AcDbEntity
  8
0-0_補助線
  6
Continuous
 62
     7
370
   211
100
AcDbMText
 10
-1971.695002244333
 20
2325.079196304032
 30
0.0
 40
91.44
 41
180.0
 46
0.0
 71
     7
 72
     1
  1
{\fＭＳ ゴシック|b0|i0|c128|p49;2.5}
 73
     1
 44
1.0
  0
LINE
  5
20C
330
1F
100
AcDbEntity
  8
0-C_ハッチ
  6
Continuous
 62
   120
370
     5
100
AcDbLine
 10
2001.918542843302
 20
2547.831580561424
 30
0.0
 11
2071.032108878376
 21
2616.945146596499
 31
0.0
  0
LINE
  5
20D
330
1F
100
AcDbEntity
  8
0-C_ハッチ
  6
Continuous
 62
   120
370
     5
100
AcDbLine
 10
2007.804115963677
 20
2494.320184062153
 30
0.0
 11
2130.429078498012
 21
2616.945146596487
 31
0.0
  0
LINE
  5
20E
330
1F
100
AcDbEntity
  8
0-C_ハッチ
  6
Continuous
 62
   120
370
     5
100
AcDbLine
 10
2024.48780002117
 20
2451.606898499945
 30
0.0
 11
2181.91854284331
 21
2609.037641322084
 31
0.0
  0
LINE
  5
20F
330
1F
100
AcDbEntity
  8
0-C_ハッチ
  6
Continuous
 62
   120
370
     5
100
AcDbLine
 10
2035.166947047865
 20
2402.889075906992
 30
0.0
 11
2181.918542843329
 21
2549.640671702457
 31
0.0
  0
LINE
  5
210
330
1F
100
AcDbEntity
  8
0-C_ハッチ
  6
Continuous
 62
   120
370
     5
100
AcDbLine
 10
2037.493296102093
 20
2345.818455341573
 30
0.0
 11
2181.918542843321
 21
2490.2437020828
 31
0.0
  0
LINE
  5
211
330
1F
100
AcDbEntity
  8
0-C_ハッチ
  6
Continuous
 62
   120
370
     5
100
AcDbLine
 10
2024.981162136178
 20
2273.909351755956
 30
0.0
 11
2181.918542843305
 21
2430.846732463082
 31
0.0
  0
LINE
  5
212
330
1F
100
AcDbEntity
  8
0-C_ハッチ
  6
Continuous
 62
   120
370
     5
100
AcDbLine
 10
2001.918542843319
 20
2191.449762843449
 30
0.0
 11
2181.918542843319
 21
2371.449762843447
 31
0.0
  0
LINE
  5
213
330
1F
100
AcDbEntity
  8
0-C_ハッチ
  6
Continuous
 62
   120
370
     5
100
AcDbLine
 10
2001.918542843307
 20
2132.052793223735
 30
0.0
 11
2181.91854284331
 21
2312.052793223739
 31
0.0
  0
LINE
  5
214
330
1F
100
AcDbEntity
  8
0-C_ハッチ
  6
Continuous
 62
   120
370
     5
100
AcDbLine
 10
2036.20786583572
 20
2106.945146596501
 30
0.0
 11
2181.918542843321
 21
2252.655823604101
 31
0.0
  0
LINE
  5
215
330
1F
100
AcDbEntity
  8
0-C_ハッチ
  6
Continuous
 62
   120
370
     5
100
AcDbLine
 10
2095.604835455411
 20
2106.945146596491
 30
0.0
 11
2181.918542843316
 21
2193.258853984396
 31
0.0
  0
LINE
  5
216
330
1F
100
AcDbEntity
  8
0-C_ハッチ
  6
Continuous
 62
   120
370
     5
100
AcDbLine
 10
2155.001805075072
 20
2106.945146596504
 30
0.0
 11
2181.918542843305
 21
2133.861884364737
 31
0.0
  0
ARC
  5
217
330
1F
100
AcDbEntity
  8
0-4_枠
  6
Continuous
 62
    92
370
     5
100
AcDbCircle
 10
1731.918542843314
 20
2361.945146596495
 30
0.0
 40
306.0000000000022
100
AcDbArc
 50
331.9275130641473
 51
28.07248693585271
  0
LINE
  5
218
330
1F
100
AcDbEntity
  8
0-4_枠
  6
Continuous
 62
    92
370
     5
100
AcDbLine
 10
2001.918542843317
 20
2505.945146596495
 30
0.0
 11
2001.918542843317
 21
2598.945146596493
 31
0.0
  0
LINE
  5
219
330
1F
100
AcDbEntity
  8
0-4_枠
  6
Continuous
 62
    92
370
     5
100
AcDbLine
 10
2001.918542843317
 20
2124.945146596495
 30
0.0
 11
2001.918542843317
 21
2217.945146596493
 31
0.0
  0
LINE
  5
21A
330
1F
100
AcDbEntity
  8
0-4_枠
  6
Continuous
 62
    92
370
     5
100
AcDbLine
 10
2001.918542843317
 20
2124.945146596495
 30
0.0
 11
2019.918542843316
 21
2106.945146596494
 31
0.0
  0
LINE
  5
21B
330
1F
100
AcDbEntity
  8
0-4_枠
  6
Continuous
 62
    92
370
     5
100
AcDbLine
 10
2019.918542843316
 20
2106.945146596494
 30
0.0
 11
2181.918542843317
 21
2106.945146596494
 31
0.0
  0
LINE
  5
21C
330
1F
100
AcDbEntity
  8
0-4_枠
  6
Continuous
 62
    92
370
     5
100
AcDbLine
 10
2019.918542843316
 20
2616.945146596495
 30
0.0
 11
2001.918542843317
 21
2598.945146596493
 31
0.0
  0
LINE
  5
21D
330
1F
100
AcDbEntity
  8
0-4_枠
  6
Continuous
 62
    92
370
     5
100
AcDbLine
 10
2019.918542843316
 20
2616.945146596495
 30
0.0
 11
2181.918542843317
 21
2616.945146596495
 31
0.0
  0
LINE
  5
21E
330
1F
100
AcDbEntity
  8
0-4_枠
  6
Continuous
 62
    92
370
     5
100
AcDbLine
 10
2181.918542843317
 20
2106.945146596494
 30
0.0
 11
2181.918542843317
 21
2616.945146596495
 31
0.0
  0
LINE
  5
21F
330
1F
100
AcDbEntity
  8
0-7_金物
  6
Continuous
 62
     7
370
     5
100
AcDbLine
 10
2199.918206325158
 20
2271.945220828441
 30
0.0
 11
2199.918206325158
 21
2451.945072364547
 31
0.0
  0
LINE
  5
220
330
1F
100
AcDbEntity
  8
0-7_金物
  6
Continuous
 62
     7
370
     5
100
AcDbLine
 10
2211.918542843317
 20
2451.945072364547
 30
0.0
 11
2199.918206325158
 21
2451.945072364547
 31
0.0
  0
LINE
  5
221
330
1F
100
AcDbEntity
  8
0-7_金物
  6
Continuous
 62
     7
370
     5
100
AcDbLine
 10
2211.918542843317
 20
2271.945220828441
 30
0.0
 11
2199.918206325158
 21
2271.945220828441
 31
0.0
  0
LINE
  5
222
330
1F
100
AcDbEntity
  8
0-7_金物
  6
Continuous
 62
     7
370
     5
100
AcDbLine
 10
2199.918206325158
 20
2301.945319804369
 30
0.0
 11
2187.918612126467
 21
2301.945319804369
 31
0.0
  0
LINE
  5
223
330
1F
100
AcDbEntity
  8
0-7_金物
  6
Continuous
 62
     7
370
     5
100
AcDbLine
 10
2199.918206325158
 20
2421.944973388617
 30
0.0
 11
2187.918612126467
 21
2421.944973388617
 31
0.0
  0
LINE
  5
224
330
1F
100
AcDbEntity
  8
0-7_金物
  6
Continuous
 62
     7
370
     5
100
AcDbLine
 10
2187.918612126467
 20
2301.945319804369
 30
0.0
 11
2187.918612126467
 21
2421.944973388617
 31
0.0
  0
LINE
  5
225
330
1F
100
AcDbEntity
  8
0-7_金物
  6
Continuous
 62
     7
370
     5
100
AcDbLine
 10
2187.918612126467
 20
2415.945547449006
 30
0.0
 11
2181.918542843317
 21
2415.945547449006
 31
0.0
  0
LINE
  5
226
330
1F
100
AcDbEntity
  8
0-7_金物
  6
Continuous
 62
     7
370
     5
100
AcDbLine
 10
2187.918612126467
 20
2307.945488063448
 30
0.0
 11
2181.918542843317
 21
2307.945488063448
 31
0.0
  0
LINE
  5
227
330
1F
100
AcDbEntity
  8
0-7_金物
  6
Continuous
 62
     7
370
     5
100
AcDbLine
 10
2211.918542843317
 20
2271.945220828441
 30
0.0
 11
2211.918542843317
 21
2451.945072364547
 31
0.0
  0
LINE
  5
228
330
1F
100
AcDbEntity
  8
0-3_仕上げ
  6
Continuous
 62
    40
370
     5
100
AcDbLine
 10
2181.918542843317
 20
2178.945146596495
 30
0.0
 11
2781.918344891463
 21
2178.945146596495
 31
0.0
  0
LINE
  5
229
330
1F
100
AcDbEntity
  8
0-3_仕上げ
  6
Continuous
 62
    40
370
     5
100
AcDbLine
 10
2181.918542843317
 20
2253.945146596495
 30
0.0
 11
2781.918344891463
 21
2253.945146596495
 31
0.0
  0
LINE
  5
22A
330
1F
100
AcDbEntity
  8
0-C_ハッチ
  6
JWW_DASHED1
 62
   120
370
     5
100
AcDbLine
 10
2769.898607050266
 20
2178.9451465965
 30
0.0
 11
2781.918344891456
 21
2190.96488443769
 31
0.0
  0
LINE
  5
22B
330
1F
100
AcDbEntity
  8
0-C_ハッチ
  6
JWW_DASHED1
 62
   120
370
     5
100
AcDbLine
 10
2727.47220017907
 20
2178.945146596506
 30
0.0
 11
2781.918344891446
 21
2233.391291308883
 31
0.0
  0
LINE
  5
22C
330
1F
100
AcDbEntity
  8
0-C_ハッチ
  6
JWW_DASHED1
 62
   120
370
     5
100
AcDbLine
 10
2685.045793307873
 20
2178.945146596508
 30
0.0
 11
2760.045793307885
 21
2253.94514659652
 31
0.0
  0
LINE
  5
22D
330
1F
100
AcDbEntity
  8
0-C_ハッチ
  6
JWW_DASHED1
 62
   120
370
     5
100
AcDbLine
 10
2642.619386436665
 20
2178.9451465965
 30
0.0
 11
2717.619386436658
 21
2253.945146596493
 31
0.0
  0
LINE
  5
22E
330
1F
100
AcDbEntity
  8
0-C_ハッチ
  6
JWW_DASHED1
 62
   120
370
     5
100
AcDbLine
 10
2600.192979565465
 20
2178.9451465965
 30
0.0
 11
2675.192979565461
 21
2253.945146596495
 31
0.0
  0
LINE
  5
22F
330
1F
100
AcDbEntity
  8
0-C_ハッチ
  6
JWW_DASHED1
 62
   120
370
     5
100
AcDbLine
 10
2557.766572694269
 20
2178.945146596503
 30
0.0
 11
2632.766572694264
 21
2253.945146596499
 31
0.0
  0
LINE
  5
230
330
1F
100
AcDbEntity
  8
0-C_ハッチ
  6
JWW_DASHED1
 62
   120
370
     5
100
AcDbLine
 10
2515.340165823131
 20
2178.945146596513
 30
0.0
 11
2590.340165823126
 21
2253.945146596507
 31
0.0
  0
LINE
  5
231
330
1F
100
AcDbEntity
  8
0-C_ハッチ
  6
JWW_DASHED1
 62
   120
370
     5
100
AcDbLine
 10
2472.913758951936
 20
2178.945146596515
 30
0.0
 11
2547.913758951931
 21
2253.945146596511
 31
0.0
  0
LINE
  5
232
330
1F
100
AcDbEntity
  8
0-C_ハッチ
  6
JWW_DASHED1
 62
   120
370
     5
100
AcDbLine
 10
2430.487352080723
 20
2178.945146596503
 30
0.0
 11
2505.487352080734
 21
2253.945146596514
 31
0.0
  0
LINE
  5
233
330
1F
100
AcDbEntity
  8
0-C_ハッチ
  6
JWW_DASHED1
 62
   120
370
     5
100
AcDbLine
 10
2388.060945209526
 20
2178.945146596507
 30
0.0
 11
2463.060945209538
 21
2253.945146596517
 31
0.0
  0
LINE
  5
234
330
1F
100
AcDbEntity
  8
0-C_ハッチ
  6
JWW_DASHED1
 62
   120
370
     5
100
AcDbLine
 10
2345.634538338331
 20
2178.945146596511
 30
0.0
 11
2420.634538338326
 21
2253.945146596506
 31
0.0
  0
LINE
  5
235
330
1F
100
AcDbEntity
  8
0-C_ハッチ
  6
JWW_DASHED1
 62
   120
370
     5
100
AcDbLine
 10
2303.208131467119
 20
2178.945146596499
 30
0.0
 11
2378.208131467114
 21
2253.945146596493
 31
0.0
  0
LINE
  5
236
330
1F
100
AcDbEntity
  8
0-C_ハッチ
  6
JWW_DASHED1
 62
   120
370
     5
100
AcDbLine
 10
2260.781724595922
 20
2178.945146596502
 30
0.0
 11
2335.781724595917
 21
2253.945146596498
 31
0.0
  0
LINE
  5
237
330
1F
100
AcDbEntity
  8
0-C_ハッチ
  6
JWW_DASHED1
 62
   120
370
     5
100
AcDbLine
 10
2218.355317724726
 20
2178.945146596506
 30
0.0
 11
2293.35531772472
 21
2253.945146596502
 31
0.0
  0
LINE
  5
238
330
1F
100
AcDbEntity
  8
0-C_ハッチ
  6
JWW_DASHED1
 62
   120
370
     5
100
AcDbLine
 10
2181.9185428433
 20
2184.934778586225
 30
0.0
 11
2250.928910853584
 21
2253.945146596508
 31
0.0
  0
LINE
  5
239
330
1F
100
AcDbEntity
  8
0-C_ハッチ
  6
JWW_DASHED1
 62
   120
370
     5
100
AcDbLine
 10
2181.918542843304
 20
2227.36118545743
 30
0.0
 11
2208.502503982387
 21
2253.945146596513
 31
0.0
  0
LINE
  5
23A
330
1F
100
AcDbEntity
  8
0-3_仕上げ
  6
Continuous
 62
    40
370
     5
100
AcDbLine
 10
-2762.081259204811
 20
2178.945146596495
 30
0.0
 11
-2162.081457156666
 21
2178.945146596495
 31
0.0
  0
LINE
  5
23B
330
1F
100
AcDbEntity
  8
0-3_仕上げ
  6
Continuous
 62
    40
370
     5
100
AcDbLine
 10
-2762.081259204811
 20
2253.945146596495
 30
0.0
 11
-2162.081457156666
 21
2253.945146596495
 31
0.0
  0
LINE
  5
23C
330
1F
100
AcDbEntity
  8
0-C_ハッチ
  6
JWW_DASHED1
 62
   120
370
     5
100
AcDbLine
 10
-2174.101194997863
 20
2178.9451465965
 30
0.0
 11
-2162.081457156674
 21
2190.96488443769
 31
0.0
  0
LINE
  5
23D
330
1F
100
AcDbEntity
  8
0-C_ハッチ
  6
JWW_DASHED1
 62
   120
370
     5
100
AcDbLine
 10
-2216.52760186906
 20
2178.945146596506
 30
0.0
 11
-2162.081457156683
 21
2233.391291308883
 31
0.0
  0
LINE
  5
23E
330
1F
100
AcDbEntity
  8
0-C_ハッチ
  6
JWW_DASHED1
 62
   120
370
     5
100
AcDbLine
 10
-2258.954008740256
 20
2178.945146596508
 30
0.0
 11
-2183.954008740244
 21
2253.94514659652
 31
0.0
  0
LINE
  5
23F
330
1F
100
AcDbEntity
  8
0-C_ハッチ
  6
JWW_DASHED1
 62
   120
370
     5
100
AcDbLine
 10
-2301.380415611465
 20
2178.9451465965
 30
0.0
 11
-2226.380415611471
 21
2253.945146596493
 31
0.0
  0
LINE
  5
240
330
1F
100
AcDbEntity
  8
0-C_ハッチ
  6
JWW_DASHED1
 62
   120
370
     5
100
AcDbLine
 10
-2343.806822482665
 20
2178.9451465965
 30
0.0
 11
-2268.806822482668
 21
2253.945146596495
 31
0.0
  0
LINE
  5
241
330
1F
100
AcDbEntity
  8
0-C_ハッチ
  6
JWW_DASHED1
 62
   120
370
     5
100
AcDbLine
 10
-2386.23322935386
 20
2178.945146596503
 30
0.0
 11
-2311.233229353865
 21
2253.945146596499
 31
0.0
  0
LINE
  5
242
330
1F
100
AcDbEntity
  8
0-C_ハッチ
  6
JWW_DASHED1
 62
   120
370
     5
100
AcDbLine
 10
-2428.659636224998
 20
2178.945146596513
 30
0.0
 11
-2353.659636225003
 21
2253.945146596507
 31
0.0
  0
LINE
  5
243
330
1F
100
AcDbEntity
  8
0-C_ハッチ
  6
JWW_DASHED1
 62
   120
370
     5
100
AcDbLine
 10
-2471.086043096193
 20
2178.945146596515
 30
0.0
 11
-2396.086043096198
 21
2253.945146596511
 31
0.0
  0
LINE
  5
244
330
1F
100
AcDbEntity
  8
0-C_ハッチ
  6
JWW_DASHED1
 62
   120
370
     5
100
AcDbLine
 10
-2513.512449967407
 20
2178.945146596503
 30
0.0
 11
-2438.512449967397
 21
2253.945146596514
 31
0.0
  0
LINE
  5
245
330
1F
100
AcDbEntity
  8
0-C_ハッチ
  6
JWW_DASHED1
 62
   120
370
     5
100
AcDbLine
 10
-2555.938856838603
 20
2178.945146596507
 30
0.0
 11
-2480.938856838592
 21
2253.945146596517
 31
0.0
  0
LINE
  5
246
330
1F
100
AcDbEntity
  8
0-C_ハッチ
  6
JWW_DASHED1
 62
   120
370
     5
100
AcDbLine
 10
-2598.365263709798
 20
2178.945146596511
 30
0.0
 11
-2523.365263709803
 21
2253.945146596506
 31
0.0
  0
LINE
  5
247
330
1F
100
AcDbEntity
  8
0-C_ハッチ
  6
JWW_DASHED1
 62
   120
370
     5
100
AcDbLine
 10
-2640.79167058101
 20
2178.945146596499
 30
0.0
 11
-2565.791670581017
 21
2253.945146596493
 31
0.0
  0
LINE
  5
248
330
1F
100
AcDbEntity
  8
0-C_ハッチ
  6
JWW_DASHED1
 62
   120
370
     5
100
AcDbLine
 10
-2683.218077452207
 20
2178.945146596502
 30
0.0
 11
-2608.218077452212
 21
2253.945146596498
 31
0.0
  0
LINE
  5
249
330
1F
100
AcDbEntity
  8
0-C_ハッチ
  6
JWW_DASHED1
 62
   120
370
     5
100
AcDbLine
 10
-2725.644484323403
 20
2178.945146596506
 30
0.0
 11
-2650.644484323409
 21
2253.945146596502
 31
0.0
  0
LINE
  5
24A
330
1F
100
AcDbEntity
  8
0-C_ハッチ
  6
JWW_DASHED1
 62
   120
370
     5
100
AcDbLine
 10
-2762.081259204829
 20
2184.934778586225
 30
0.0
 11
-2693.070891194545
 21
2253.945146596508
 31
0.0
  0
LINE
  5
24B
330
1F
100
AcDbEntity
  8
0-C_ハッチ
  6
JWW_DASHED1
 62
   120
370
     5
100
AcDbLine
 10
-2762.081259204825
 20
2227.36118545743
 30
0.0
 11
-2735.497298065742
 21
2253.945146596513
 31
0.0
  0
LINE
  5
24C
330
1F
100
AcDbEntity
  8
0-7_金物
  6
Continuous
 62
     7
370
     5
100
AcDbLine
 10
-2180.081120638525
 20
2271.945220828441
 30
0.0
 11
-2180.081120638525
 21
2451.945072364547
 31
0.0
  0
LINE
  5
24D
330
1F
100
AcDbEntity
  8
0-7_金物
  6
Continuous
 62
     7
370
     5
100
AcDbLine
 10
-2192.081457156683
 20
2451.945072364547
 30
0.0
 11
-2180.081120638525
 21
2451.945072364547
 31
0.0
  0
LINE
  5
24E
330
1F
100
AcDbEntity
  8
0-7_金物
  6
Continuous
 62
     7
370
     5
100
AcDbLine
 10
-2192.081457156683
 20
2271.945220828441
 30
0.0
 11
-2180.081120638525
 21
2271.945220828441
 31
0.0
  0
LINE
  5
24F
330
1F
100
AcDbEntity
  8
0-7_金物
  6
Continuous
 62
     7
370
     5
100
AcDbLine
 10
-2180.081120638525
 20
2301.945319804369
 30
0.0
 11
-2168.081526439833
 21
2301.945319804369
 31
0.0
  0
LINE
  5
250
330
1F
100
AcDbEntity
  8
0-7_金物
  6
Continuous
 62
     7
370
     5
100
AcDbLine
 10
-2180.081120638525
 20
2421.944973388617
 30
0.0
 11
-2168.081526439833
 21
2421.944973388617
 31
0.0
  0
LINE
  5
251
330
1F
100
AcDbEntity
  8
0-7_金物
  6
Continuous
 62
     7
370
     5
100
AcDbLine
 10
-2168.081526439833
 20
2301.945319804369
 30
0.0
 11
-2168.081526439833
 21
2421.944973388617
 31
0.0
  0
LINE
  5
252
330
1F
100
AcDbEntity
  8
0-7_金物
  6
Continuous
 62
     7
370
     5
100
AcDbLine
 10
-2168.081526439833
 20
2415.945547449006
 30
0.0
 11
-2162.081457156683
 21
2415.945547449006
 31
0.0
  0
LINE
  5
253
330
1F
100
AcDbEntity
  8
0-7_金物
  6
Continuous
 62
     7
370
     5
100
AcDbLine
 10
-2168.081526439833
 20
2307.945488063448
 30
0.0
 11
-2162.081457156683
 21
2307.945488063448
 31
0.0
  0
LINE
  5
254
330
1F
100
AcDbEntity
  8
0-7_金物
  6
Continuous
 62
     7
370
     5
100
AcDbLine
 10
-2192.081457156683
 20
2271.945220828441
 30
0.0
 11
-2192.081457156683
 21
2451.945072364547
 31
0.0
  0
MTEXT
  5
255
330
1F
100
AcDbEntity
  8
0-0_補助線
  6
Continuous
 62
     7
370
   211
100
AcDbMText
 10
-2175.486678848029
 20
2325.079196304032
 30
0.0
 40
91.44
 41
180.0
 46
0.0
 71
     7
 72
     1
  1
{\fＭＳ ゴシック|b0|i0|c128|p49;3.5}
 73
     1
 44
1.0
  0
LINE
  5
256
330
1F
100
AcDbEntity
  8
0-B_寸法
  6
Continuous
 62
   120
370
     5
100
AcDbLine
 10
-1552.880129734931
 20
2616.945146596484
 30
0.0
 11
-1552.880129734931
 21
2106.945146596498
 31
0.0
  0
LWPOLYLINE
  5
257
330
1F
100
AcDbEntity
  8
0-B_寸法
  6
Continuous
 62
     7
370
     5
100
AcDbPolyline
 90
        4
 70
     1
 43
3.0
 10
-1551.380129734932
 20
2616.945146596484
 42
0.4142135623731
 10
-1552.880129734931
 20
2618.445146596483
 42
0.4142135623731
 10
-1554.380129734931
 20
2616.945146596484
 42
0.4142135623731
 10
-1552.880129734931
 20
2615.445146596484
 42
0.4142135623731
  0
LWPOLYLINE
  5
258
330
1F
100
AcDbEntity
  8
0-B_寸法
  6
Continuous
 62
     7
370
     5
100
AcDbPolyline
 90
        4
 70
     1
 43
3.0
 10
-1551.380129734932
 20
2106.945146596498
 42
0.4142135623731
 10
-1552.880129734931
 20
2108.445146596497
 42
0.4142135623731
 10
-1554.380129734931
 20
2106.945146596498
 42
0.4142135623731
 10
-1552.880129734931
 20
2105.445146596498
 42
0.4142135623731
  0
LINE
  5
259
330
1F
100
AcDbEntity
  8
0-B_寸法
  6
Continuous
 62
   120
370
     5
100
AcDbLine
 10
-1552.880129734931
 20
2616.945146596484
 30
0.0
 11
-1671.655698516603
 21
2616.945146596484
 31
0.0
  0
LINE
  5
25A
330
1F
100
AcDbEntity
  8
0-B_寸法
  6
Continuous
 62
   120
370
     5
100
AcDbLine
 10
-1552.880129734931
 20
2106.945146596498
 30
0.0
 11
-1671.655698516603
 21
2106.945146596498
 31
0.0
  0
MTEXT
  5
25B
330
1F
100
AcDbEntity
  8
0-B_寸法
  6
Continuous
 62
     7
370
   211
100
AcDbMText
 10
-1567.880129734931
 20
2287.665146596491
 30
0.0
 40
91.44
 41
120.0
 46
0.0
 71
     7
 72
     1
  1
{\fＭＳ ゴシック|b0|i0|c128|p49;85}
 11
6.123031769111886E-17
 21
1.0
 31
0.0
 73
     1
 44
1.0
  0
LINE
  5
25C
330
1F
100
AcDbEntity
  8
0-B_寸法
  6
Continuous
 62
   120
370
     5
100
AcDbLine
 10
-1171.271042249589
 20
2424.945146596494
 30
0.0
 11
-1171.271042249589
 21
2298.945146596493
 31
0.0
  0
LWPOLYLINE
  5
25D
330
1F
100
AcDbEntity
  8
0-B_寸法
  6
Continuous
 62
     7
370
     5
100
AcDbPolyline
 90
        4
 70
     1
 43
3.0
 10
-1169.77104224959
 20
2424.945146596494
 42
0.4142135623731
 10
-1171.271042249589
 20
2426.445146596494
 42
0.4142135623731
 10
-1172.771042249589
 20
2424.945146596494
 42
0.4142135623731
 10
-1171.271042249589
 20
2423.445146596494
 42
0.4142135623731
  0
LWPOLYLINE
  5
25E
330
1F
100
AcDbEntity
  8
0-B_寸法
  6
Continuous
 62
     7
370
     5
100
AcDbPolyline
 90
        4
 70
     1
 43
3.0
 10
-1169.77104224959
 20
2298.945146596493
 42
0.4142135623731
 10
-1171.271042249589
 20
2300.445146596493
 42
0.4142135623731
 10
-1172.771042249589
 20
2298.945146596493
 42
0.4142135623731
 10
-1171.271042249589
 20
2297.445146596493
 42
0.4142135623731
  0
MTEXT
  5
25F
330
1F
100
AcDbEntity
  8
0-B_寸法
  6
Continuous
 62
     7
370
   211
100
AcDbMText
 10
-1186.271042249589
 20
2287.665146596495
 30
0.0
 40
91.44
 41
120.0
 46
0.0
 71
     7
 72
     1
  1
{\fＭＳ ゴシック|b0|i0|c128|p49;21}
 11
6.123031769111886E-17
 21
1.0
 31
0.0
 73
     1
 44
1.0
  0
LINE
  5
260
330
1F
100
AcDbEntity
  8
0-0_補助線
  6
JWW_HOJO
 62
   120
370
     5
100
AcDbLine
 10
2781.918344891463
 20
1806.945146596494
 30
0.0
 11
-2762.081259204825
 21
1806.945146596494
 31
0.0
  0
LINE
  5
261
330
1F
100
AcDbEntity
  8
0-0_補助線
  6
JWW_HOJO
 62
   120
370
     5
100
AcDbLine
 10
2781.918344891463
 20
1986.945146596494
 30
0.0
 11
-2762.081259204825
 21
1986.945146596494
 31
0.0
  0
LINE
  5
262
330
1F
100
AcDbEntity
  8
0-B_寸法
  6
Continuous
 62
   120
370
     5
100
AcDbLine
 10
-2162.081457156683
 20
1446.945146596494
 30
0.0
 11
-1982.081457156683
 21
1446.945146596494
 31
0.0
  0
LWPOLYLINE
  5
263
330
1F
100
AcDbEntity
  8
0-B_寸法
  6
Continuous
 62
     7
370
     5
100
AcDbPolyline
 90
        4
 70
     1
 43
3.0
 10
-2160.581457156683
 20
1446.945146596494
 42
0.4142135623731
 10
-2162.081457156683
 20
1448.445146596494
 42
0.4142135623731
 10
-2163.581457156683
 20
1446.945146596494
 42
0.4142135623731
 10
-2162.081457156683
 20
1445.445146596494
 42
0.4142135623731
  0
LWPOLYLINE
  5
264
330
1F
100
AcDbEntity
  8
0-B_寸法
  6
Continuous
 62
     7
370
     5
100
AcDbPolyline
 90
        4
 70
     1
 43
3.0
 10
-1980.581457156683
 20
1446.945146596494
 42
0.4142135623731
 10
-1982.081457156683
 20
1448.445146596494
 42
0.4142135623731
 10
-1983.581457156683
 20
1446.945146596494
 42
0.4142135623731
 10
-1982.081457156683
 20
1445.445146596494
 42
0.4142135623731
  0
LINE
  5
265
330
1F
100
AcDbEntity
  8
0-B_寸法
  6
Continuous
 62
   120
370
     5
100
AcDbLine
 10
-2162.081457156683
 20
1446.945146596494
 30
0.0
 11
-2162.081457156683
 21
1806.945146596494
 31
0.0
  0
LINE
  5
266
330
1F
100
AcDbEntity
  8
0-B_寸法
  6
Continuous
 62
   120
370
     5
100
AcDbLine
 10
-1982.081457156683
 20
1446.945146596494
 30
0.0
 11
-1982.081457156683
 21
1806.945146596494
 31
0.0
  0
MTEXT
  5
267
330
1F
100
AcDbEntity
  8
0-B_寸法
  6
Continuous
 62
     7
370
   211
100
AcDbMText
 10
-2132.081457156683
 20
1447.665146596494
 30
0.0
 40
91.44
 41
120.0
 46
0.0
 71
     7
 72
     1
  1
{\fＭＳ ゴシック|b0|i0|c128|p49;30}
 73
     1
 44
1.0
  0
LINE
  5
268
330
1F
100
AcDbEntity
  8
0-B_寸法
  6
Continuous
 62
   120
370
     5
100
AcDbLine
 10
-1982.081457156683
 20
1446.945146596494
 30
0.0
 11
2001.918542843317
 21
1446.945146596494
 31
0.0
  0
LWPOLYLINE
  5
269
330
1F
100
AcDbEntity
  8
0-B_寸法
  6
Continuous
 62
     7
370
     5
100
AcDbPolyline
 90
        4
 70
     1
 43
3.0
 10
2003.418542843317
 20
1446.945146596494
 42
0.4142135623731
 10
2001.918542843317
 20
1448.445146596494
 42
0.4142135623731
 10
2000.418542843317
 20
1446.945146596494
 42
0.4142135623731
 10
2001.918542843317
 20
1445.445146596494
 42
0.4142135623731
  0
LINE
  5
26A
330
1F
100
AcDbEntity
  8
0-B_寸法
  6
Continuous
 62
   120
370
     5
100
AcDbLine
 10
2001.918542843317
 20
1446.945146596494
 30
0.0
 11
2001.918542843317
 21
1806.945146596494
 31
0.0
  0
LINE
  5
26B
330
1F
100
AcDbEntity
  8
0-B_寸法
  6
Continuous
 62
   120
370
     5
100
AcDbLine
 10
2001.918542843317
 20
1446.945146596494
 30
0.0
 11
2181.918542843317
 21
1446.945146596494
 31
0.0
  0
LWPOLYLINE
  5
26C
330
1F
100
AcDbEntity
  8
0-B_寸法
  6
Continuous
 62
     7
370
     5
100
AcDbPolyline
 90
        4
 70
     1
 43
3.0
 10
2183.418542843317
 20
1446.945146596494
 42
0.4142135623731
 10
2181.918542843317
 20
1448.445146596494
 42
0.4142135623731
 10
2180.418542843317
 20
1446.945146596494
 42
0.4142135623731
 10
2181.918542843317
 20
1445.445146596494
 42
0.4142135623731
  0
LINE
  5
26D
330
1F
100
AcDbEntity
  8
0-B_寸法
  6
Continuous
 62
   120
370
     5
100
AcDbLine
 10
2181.918542843317
 20
1446.945146596494
 30
0.0
 11
2181.918542843317
 21
1806.945146596494
 31
0.0
  0
MTEXT
  5
26E
330
1F
100
AcDbEntity
  8
0-B_寸法
  6
Continuous
 62
     7
370
   211
100
AcDbMText
 10
2031.918542843317
 20
1447.665146596494
 30
0.0
 40
91.44
 41
120.0
 46
0.0
 71
     7
 72
     1
  1
{\fＭＳ ゴシック|b0|i0|c128|p49;30}
 73
     1
 44
1.0
  0
LINE
  5
26F
330
1F
100
AcDbEntity
  8
0-B_寸法
  6
Continuous
 62
   120
370
     5
100
AcDbLine
 10
-2162.081457156683
 20
1266.945146596494
 30
0.0
 11
2181.918542843317
 21
1266.945146596494
 31
0.0
  0
LWPOLYLINE
  5
270
330
1F
100
AcDbEntity
  8
0-B_寸法
  6
Continuous
 62
     7
370
     5
100
AcDbPolyline
 90
        4
 70
     1
 43
3.0
 10
-2160.581457156683
 20
1266.945146596494
 42
0.4142135623731
 10
-2162.081457156683
 20
1268.445146596494
 42
0.4142135623731
 10
-2163.581457156683
 20
1266.945146596494
 42
0.4142135623731
 10
-2162.081457156683
 20
1265.445146596494
 42
0.4142135623731
  0
LWPOLYLINE
  5
271
330
1F
100
AcDbEntity
  8
0-B_寸法
  6
Continuous
 62
     7
370
     5
100
AcDbPolyline
 90
        4
 70
     1
 43
3.0
 10
2183.418542843317
 20
1266.945146596494
 42
0.4142135623731
 10
2181.918542843317
 20
1268.445146596494
 42
0.4142135623731
 10
2180.418542843317
 20
1266.945146596494
 42
0.4142135623731
 10
2181.918542843317
 20
1265.445146596494
 42
0.4142135623731
  0
LINE
  5
272
330
1F
100
AcDbEntity
  8
0-B_寸法
  6
Continuous
 62
   120
370
     5
100
AcDbLine
 10
-2162.081457156683
 20
1266.945146596494
 30
0.0
 11
-2162.081457156683
 21
1446.945146596494
 31
0.0
  0
LINE
  5
273
330
1F
100
AcDbEntity
  8
0-B_寸法
  6
Continuous
 62
   120
370
     5
100
AcDbLine
 10
2181.918542843317
 20
1266.945146596494
 30
0.0
 11
2181.918542843317
 21
1446.945146596494
 31
0.0
  0
LINE
  5
274
330
1F
100
AcDbEntity
  8
0-B_寸法
  6
Continuous
 62
   120
370
     5
100
AcDbLine
 10
-2192.081457156683
 20
3141.945146596495
 30
0.0
 11
2211.918542843317
 21
3141.945146596495
 31
0.0
  0
LWPOLYLINE
  5
275
330
1F
100
AcDbEntity
  8
0-B_寸法
  6
Continuous
 62
     7
370
     5
100
AcDbPolyline
 90
        4
 70
     1
 43
3.0
 10
-2190.581457156683
 20
3141.945146596495
 42
0.4142135623731
 10
-2192.081457156683
 20
3143.445146596495
 42
0.4142135623731
 10
-2193.581457156683
 20
3141.945146596495
 42
0.4142135623731
 10
-2192.081457156683
 20
3140.445146596495
 42
0.4142135623731
  0
LWPOLYLINE
  5
276
330
1F
100
AcDbEntity
  8
0-B_寸法
  6
Continuous
 62
     7
370
     5
100
AcDbPolyline
 90
        4
 70
     1
 43
3.0
 10
2213.418542843317
 20
3141.945146596495
 42
0.4142135623731
 10
2211.918542843317
 20
3143.445146596495
 42
0.4142135623731
 10
2210.418542843317
 20
3141.945146596495
 42
0.4142135623731
 10
2211.918542843317
 20
3140.445146596495
 42
0.4142135623731
  0
LINE
  5
277
330
1F
100
AcDbEntity
  8
0-B_寸法
  6
Continuous
 62
   120
370
     5
100
AcDbLine
 10
-2192.081457156683
 20
3141.945146596495
 30
0.0
 11
-2192.081457156683
 21
2781.945146596495
 31
0.0
  0
LINE
  5
278
330
1F
100
AcDbEntity
  8
0-B_寸法
  6
Continuous
 62
   120
370
     5
100
AcDbLine
 10
2211.918542843317
 20
3141.945146596495
 30
0.0
 11
2211.918542843317
 21
2781.945146596495
 31
0.0
  0
ARC
  5
279
330
1F
100
AcDbEntity
  8
0-6_扉
  6
JWW_DASHED2
 62
    40
370
     5
100
AcDbCircle
 10
1720.835182732966
 20
2557.712520566674
 30
0.0
 40
18.0
100
AcDbArc
 50
85.6539792783598
 51
175.65397927836
  0
LINE
  5
27A
330
1F
100
AcDbEntity
  8
0-6_扉
  6
JWW_DASHED2
 62
    40
370
     5
100
AcDbLine
 10
1811.9404294352
 20
2568.840594224113
 30
0.0
 11
1722.19921651816
 21
2575.660763150082
 31
0.0
  0
ARC
  5
27B
330
1F
100
AcDbEntity
  8
0-6_扉
  6
JWW_DASHED2
 62
    40
370
     5
100
AcDbCircle
 10
1810.576395650005
 20
2550.892351640704
 30
0.0
 40
18.0
100
AcDbArc
 50
355.6539792783599
 51
85.6539792783597
  0
ARC
  5
27C
330
1F
100
AcDbEntity
  8
0-6_扉
  6
JWW_DASHED2
 62
    40
370
     5
100
AcDbCircle
 10
1377.607998343765
 20
2557.712520566677
 30
0.0
 40
18.0
100
AcDbArc
 50
4.346020721638975
 51
94.34602072163908
  0
LINE
  5
27D
330
1F
100
AcDbEntity
  8
0-6_扉
  6
JWW_DASHED2
 62
    40
370
     5
100
AcDbLine
 10
1286.502751641533
 20
2568.840594224118
 30
0.0
 11
1376.24396455857
 21
2575.660763150085
 31
0.0
  0
ARC
  5
27E
330
1F
100
AcDbEntity
  8
0-6_扉
  6
JWW_DASHED2
 62
    40
370
     5
100
AcDbCircle
 10
1287.866785426725
 20
2550.89235164071
 30
0.0
 40
18.0
100
AcDbArc
 50
94.34602072163908
 51
184.3460207216391
  0
LINE
  5
27F
330
1F
100
AcDbEntity
  8
0-6_扉
  6
JWW_DASHED2
 62
    40
370
     5
100
AcDbLine
 10
1828.524638233413
 20
2549.528317855513
 30
0.0
 11
1794.889122357693
 21
2106.945146596494
 31
0.0
  0
LINE
  5
280
330
1F
100
AcDbEntity
  8
0-6_扉
  6
JWW_DASHED2
 62
    40
370
     5
100
AcDbLine
 10
1269.91854284332
 20
2549.52831785552
 30
0.0
 11
1303.554058719031
 21
2106.945146596494
 31
0.0
  0
LINE
  5
281
330
1F
100
AcDbEntity
  8
0-6_扉
  6
JWW_DASHED2
 62
    40
370
     5
100
AcDbLine
 10
1395.556240927172
 20
2559.076554351872
 30
0.0
 11
1429.917405406612
 21
2106.945146596494
 31
0.0
  0
LINE
  5
282
330
1F
100
AcDbEntity
  8
0-6_扉
  6
JWW_DASHED2
 62
    40
370
     5
100
AcDbLine
 10
1702.886940149559
 20
2559.076554351868
 30
0.0
 11
1668.525775670111
 21
2106.945146596494
 31
0.0
  0
LINE
  5
283
330
1F
100
AcDbEntity
  8
0-1_通り芯
  6
JWW_CENTER1
 62
   120
370
     5
100
AcDbLine
 10
1269.918542843318
 20
2781.945146596495
 30
0.0
 11
1269.918542843318
 21
2549.52831785552
 31
0.0
  0
LWPOLYLINE
  5
284
330
1F
100
AcDbEntity
  8
0-B_寸法
  6
Continuous
 62
     7
370
     5
100
AcDbPolyline
 90
        4
 70
     1
 43
3.0
 10
1271.418542843318
 20
2961.945146596495
 42
0.4142135623731
 10
1269.918542843318
 20
2963.445146596495
 42
0.4142135623731
 10
1268.418542843318
 20
2961.945146596495
 42
0.4142135623731
 10
1269.918542843318
 20
2960.445146596495
 42
0.4142135623731
  0
LINE
  5
285
330
1F
100
AcDbEntity
  8
0-B_寸法
  6
Continuous
 62
   120
370
     5
100
AcDbLine
 10
1269.918542843318
 20
2961.945146596495
 30
0.0
 11
1269.918542843318
 21
2781.945146596495
 31
0.0
  0
LINE
  5
286
330
1F
100
AcDbEntity
  8
0-6_扉
  6
Continuous
 62
   200
370
     5
100
AcDbLine
 10
3.918542843318278
 20
2424.945146596494
 30
0.0
 11
3.918542843318278
 21
2298.945146596493
 31
0.0
  0
LINE
  5
287
330
1F
100
AcDbEntity
  8
0-6_扉
  6
Continuous
 62
   200
370
     5
100
AcDbLine
 10
15.9185428433176
 20
2424.945146596494
 30
0.0
 11
15.9185428433176
 21
2298.945146596493
 31
0.0
  0
LINE
  5
288
330
1F
100
AcDbEntity
  8
0-6_扉
  6
Continuous
 62
   200
370
     5
100
AcDbLine
 10
-999.5814571566831
 20
2424.945146596494
 30
0.0
 11
-999.5814571566831
 21
2298.945146596493
 31
0.0
  0
LINE
  5
289
330
1F
100
AcDbEntity
  8
0-6_扉
  6
Continuous
 62
   200
370
     5
100
AcDbLine
 10
-993.5814571566834
 20
2424.945146596494
 30
0.0
 11
-993.5814571566834
 21
2298.945146596493
 31
0.0
  0
LINE
  5
28A
330
1F
100
AcDbEntity
  8
0-6_扉
  6
Continuous
 62
   200
370
     5
100
AcDbLine
 10
1019.418542843317
 20
2424.945146596494
 30
0.0
 11
1019.418542843317
 21
2298.945146596493
 31
0.0
  0
LINE
  5
28B
330
1F
100
AcDbEntity
  8
0-6_扉
  6
Continuous
 62
   200
370
     5
100
AcDbLine
 10
1013.418542843318
 20
2424.945146596494
 30
0.0
 11
1013.418542843318
 21
2298.945146596493
 31
0.0
  0
LINE
  5
28C
330
1F
100
AcDbEntity
  8
0-0_補助線
  6
JWW_HOJO
 62
     7
370
     5
100
AcDbLine
 10
-996.5814571566841
 20
1086.945146596494
 30
0.0
 11
-996.5814571566841
 21
3321.945146596495
 31
0.0
  0
LINE
  5
28D
330
1F
100
AcDbEntity
  8
0-0_補助線
  6
JWW_HOJO
 62
     7
370
     5
100
AcDbLine
 10
1016.418542843318
 20
1086.945146596494
 30
0.0
 11
1016.418542843318
 21
3321.945146596495
 31
0.0
  0
LINE
  5
28E
330
1F
100
AcDbEntity
  8
0-B_寸法
  6
Continuous
 62
   120
370
     5
100
AcDbLine
 10
-1997.081457156683
 20
1806.945146596494
 30
0.0
 11
-999.5814571566831
 21
1806.945146596494
 31
0.0
  0
LWPOLYLINE
  5
28F
330
1F
100
AcDbEntity
  8
0-B_寸法
  6
Continuous
 62
     7
370
     5
100
AcDbPolyline
 90
        4
 70
     1
 43
3.0
 10
-1995.581457156683
 20
1806.945146596494
 42
0.4142135623731
 10
-1997.081457156683
 20
1808.445146596494
 42
0.4142135623731
 10
-1998.581457156683
 20
1806.945146596494
 42
0.4142135623731
 10
-1997.081457156683
 20
1805.445146596494
 42
0.4142135623731
  0
LWPOLYLINE
  5
290
330
1F
100
AcDbEntity
  8
0-B_寸法
  6
Continuous
 62
     7
370
     5
100
AcDbPolyline
 90
        4
 70
     1
 43
3.0
 10
-998.0814571566832
 20
1806.945146596494
 42
0.4142135623731
 10
-999.5814571566831
 20
1808.445146596494
 42
0.4142135623731
 10
-1001.081457156683
 20
1806.945146596494
 42
0.4142135623731
 10
-999.5814571566831
 20
1805.445146596494
 42
0.4142135623731
  0
LINE
  5
291
330
1F
100
AcDbEntity
  8
0-B_寸法
  6
Continuous
 62
   120
370
     5
100
AcDbLine
 10
-1997.081457156683
 20
1626.945146596494
 30
0.0
 11
-1997.081457156683
 21
1986.945146596494
 31
0.0
  0
LINE
  5
292
330
1F
100
AcDbEntity
  8
0-B_寸法
  6
Continuous
 62
   120
370
     5
100
AcDbLine
 10
-999.5814571566831
 20
1806.945146596494
 30
0.0
 11
-999.5814571566831
 21
1986.945146596494
 31
0.0
  0
LINE
  5
293
330
1F
100
AcDbEntity
  8
0-B_寸法
  6
Continuous
 62
   120
370
     5
100
AcDbLine
 10
-993.5814571566834
 20
1806.945146596494
 30
0.0
 11
3.918542843318278
 21
1806.945146596494
 31
0.0
  0
LWPOLYLINE
  5
294
330
1F
100
AcDbEntity
  8
0-B_寸法
  6
Continuous
 62
     7
370
     5
100
AcDbPolyline
 90
        4
 70
     1
 43
3.0
 10
-992.0814571566835
 20
1806.945146596494
 42
0.4142135623731
 10
-993.5814571566834
 20
1808.445146596494
 42
0.4142135623731
 10
-995.0814571566833
 20
1806.945146596494
 42
0.4142135623731
 10
-993.5814571566834
 20
1805.445146596494
 42
0.4142135623731
  0
LWPOLYLINE
  5
295
330
1F
100
AcDbEntity
  8
0-B_寸法
  6
Continuous
 62
     7
370
     5
100
AcDbPolyline
 90
        4
 70
     1
 43
3.0
 10
5.418542843318278
 20
1806.945146596494
 42
0.4142135623731
 10
3.918542843318278
 20
1808.445146596494
 42
0.4142135623731
 10
2.418542843318278
 20
1806.945146596494
 42
0.4142135623731
 10
3.918542843318278
 20
1805.445146596494
 42
0.4142135623731
  0
LINE
  5
296
330
1F
100
AcDbEntity
  8
0-B_寸法
  6
Continuous
 62
   120
370
     5
100
AcDbLine
 10
-993.5814571566834
 20
1806.945146596494
 30
0.0
 11
-993.5814571566834
 21
1986.945146596494
 31
0.0
  0
LINE
  5
297
330
1F
100
AcDbEntity
  8
0-B_寸法
  6
Continuous
 62
   120
370
     5
100
AcDbLine
 10
3.918542843318278
 20
1626.945146596494
 30
0.0
 11
3.918542843318278
 21
1986.945146596494
 31
0.0
  0
LINE
  5
298
330
1F
100
AcDbEntity
  8
0-B_寸法
  6
Continuous
 62
   120
370
     5
100
AcDbLine
 10
15.9185428433176
 20
1806.945146596494
 30
0.0
 11
1013.418542843318
 21
1806.945146596494
 31
0.0
  0
LWPOLYLINE
  5
299
330
1F
100
AcDbEntity
  8
0-B_寸法
  6
Continuous
 62
     7
370
     5
100
AcDbPolyline
 90
        4
 70
     1
 43
3.0
 10
17.4185428433176
 20
1806.945146596494
 42
0.4142135623731
 10
15.9185428433176
 20
1808.445146596494
 42
0.4142135623731
 10
14.4185428433176
 20
1806.945146596494
 42
0.4142135623731
 10
15.9185428433176
 20
1805.445146596494
 42
0.4142135623731
  0
LWPOLYLINE
  5
29A
330
1F
100
AcDbEntity
  8
0-B_寸法
  6
Continuous
 62
     7
370
     5
100
AcDbPolyline
 90
        4
 70
     1
 43
3.0
 10
1014.918542843317
 20
1806.945146596494
 42
0.4142135623731
 10
1013.418542843318
 20
1808.445146596494
 42
0.4142135623731
 10
1011.918542843318
 20
1806.945146596494
 42
0.4142135623731
 10
1013.418542843318
 20
1805.445146596494
 42
0.4142135623731
  0
LINE
  5
29B
330
1F
100
AcDbEntity
  8
0-B_寸法
  6
Continuous
 62
   120
370
     5
100
AcDbLine
 10
15.9185428433176
 20
1626.945146596494
 30
0.0
 11
15.9185428433176
 21
1986.945146596494
 31
0.0
  0
LINE
  5
29C
330
1F
100
AcDbEntity
  8
0-B_寸法
  6
Continuous
 62
   120
370
     5
100
AcDbLine
 10
1013.418542843318
 20
1806.945146596494
 30
0.0
 11
1013.418542843318
 21
1986.945146596494
 31
0.0
  0
LINE
  5
29D
330
1F
100
AcDbEntity
  8
0-B_寸法
  6
Continuous
 62
   120
370
     5
100
AcDbLine
 10
1019.418542843317
 20
1806.945146596494
 30
0.0
 11
2016.918542843321
 21
1806.945146596494
 31
0.0
  0
LWPOLYLINE
  5
29E
330
1F
100
AcDbEntity
  8
0-B_寸法
  6
Continuous
 62
     7
370
     5
100
AcDbPolyline
 90
        4
 70
     1
 43
3.0
 10
1020.918542843317
 20
1806.945146596494
 42
0.4142135623731
 10
1019.418542843317
 20
1808.445146596494
 42
0.4142135623731
 10
1017.918542843317
 20
1806.945146596494
 42
0.4142135623731
 10
1019.418542843317
 20
1805.445146596494
 42
0.4142135623731
  0
LWPOLYLINE
  5
29F
330
1F
100
AcDbEntity
  8
0-B_寸法
  6
Continuous
 62
     7
370
     5
100
AcDbPolyline
 90
        4
 70
     1
 43
3.0
 10
2018.418542843321
 20
1806.945146596494
 42
0.4142135623731
 10
2016.918542843321
 20
1808.445146596494
 42
0.4142135623731
 10
2015.418542843321
 20
1806.945146596494
 42
0.4142135623731
 10
2016.918542843321
 20
1805.445146596494
 42
0.4142135623731
  0
LINE
  5
2A0
330
1F
100
AcDbEntity
  8
0-B_寸法
  6
Continuous
 62
   120
370
     5
100
AcDbLine
 10
1019.418542843317
 20
1806.945146596494
 30
0.0
 11
1019.418542843317
 21
1986.945146596494
 31
0.0
  0
LINE
  5
2A1
330
1F
100
AcDbEntity
  8
0-B_寸法
  6
Continuous
 62
   120
370
     5
100
AcDbLine
 10
2016.918542843321
 20
1626.945146596494
 30
0.0
 11
2016.918542843321
 21
1986.945146596494
 31
0.0
  0
LINE
  5
2A2
330
1F
100
AcDbEntity
  8
0-B_寸法
  6
Continuous
 62
   120
370
     5
100
AcDbLine
 10
-1997.081457156683
 20
1626.945146596494
 30
0.0
 11
3.918542843318278
 21
1626.945146596494
 31
0.0
  0
LWPOLYLINE
  5
2A3
330
1F
100
AcDbEntity
  8
0-B_寸法
  6
Continuous
 62
     7
370
     5
100
AcDbPolyline
 90
        4
 70
     1
 43
3.0
 10
-1995.581457156683
 20
1626.945146596494
 42
0.4142135623731
 10
-1997.081457156683
 20
1628.445146596494
 42
0.4142135623731
 10
-1998.581457156683
 20
1626.945146596494
 42
0.4142135623731
 10
-1997.081457156683
 20
1625.445146596494
 42
0.4142135623731
  0
LWPOLYLINE
  5
2A4
330
1F
100
AcDbEntity
  8
0-B_寸法
  6
Continuous
 62
     7
370
     5
100
AcDbPolyline
 90
        4
 70
     1
 43
3.0
 10
5.418542843318278
 20
1626.945146596494
 42
0.4142135623731
 10
3.918542843318278
 20
1628.445146596494
 42
0.4142135623731
 10
2.418542843318278
 20
1626.945146596494
 42
0.4142135623731
 10
3.918542843318278
 20
1625.445146596494
 42
0.4142135623731
  0
LINE
  5
2A5
330
1F
100
AcDbEntity
  8
0-B_寸法
  6
Continuous
 62
   120
370
     5
100
AcDbLine
 10
3.918542843318278
 20
1626.945146596494
 30
0.0
 11
15.9185428433176
 21
1626.945146596494
 31
0.0
  0
LWPOLYLINE
  5
2A6
330
1F
100
AcDbEntity
  8
0-B_寸法
  6
Continuous
 62
     7
370
     5
100
AcDbPolyline
 90
        4
 70
     1
 43
3.0
 10
17.4185428433176
 20
1626.945146596494
 42
0.4142135623731
 10
15.9185428433176
 20
1628.445146596494
 42
0.4142135623731
 10
14.4185428433176
 20
1626.945146596494
 42
0.4142135623731
 10
15.9185428433176
 20
1625.445146596494
 42
0.4142135623731
  0
LINE
  5
2A7
330
1F
100
AcDbEntity
  8
0-B_寸法
  6
Continuous
 62
   120
370
     5
100
AcDbLine
 10
15.9185428433176
 20
1626.945146596494
 30
0.0
 11
2016.918542843321
 21
1626.945146596494
 31
0.0
  0
LWPOLYLINE
  5
2A8
330
1F
100
AcDbEntity
  8
0-B_寸法
  6
Continuous
 62
     7
370
     5
100
AcDbPolyline
 90
        4
 70
     1
 43
3.0
 10
2018.418542843321
 20
1626.945146596494
 42
0.4142135623731
 10
2016.918542843321
 20
1628.445146596494
 42
0.4142135623731
 10
2015.418542843321
 20
1626.945146596494
 42
0.4142135623731
 10
2016.918542843321
 20
1625.445146596494
 42
0.4142135623731
  0
MTEXT
  5
2A9
330
1F
100
AcDbEntity
  8
0-B_寸法
  6
Continuous
 62
     7
370
   211
100
AcDbMText
 10
-1828.331457156683
 20
1807.665146596494
 30
0.0
 40
91.43999999999997
 41
660.0
 46
0.0
 71
     7
 72
     1
  1
{\fＭＳ ゴシック|b0|i0|c128|p49;ＤＷ＝282.5}
 73
     1
 44
1.0
  0
MTEXT
  5
2AA
330
1F
100
AcDbEntity
  8
0-B_寸法
  6
Continuous
 62
     7
370
   211
100
AcDbMText
 10
-824.8314571566834
 20
1807.665146596494
 30
0.0
 40
91.43999999999997
 41
660.0
 46
0.0
 71
     7
 72
     1
  1
{\fＭＳ ゴシック|b0|i0|c128|p49;ＤＷ＝282.5}
 73
     1
 44
1.0
  0
MTEXT
  5
2AB
330
1F
100
AcDbEntity
  8
0-B_寸法
  6
Continuous
 62
     7
370
   211
100
AcDbMText
 10
184.6685428433176
 20
1807.665146596494
 30
0.0
 40
91.43999999999997
 41
660.0
 46
0.0
 71
     7
 72
     1
  1
{\fＭＳ ゴシック|b0|i0|c128|p49;ＤＷ＝282.5}
 73
     1
 44
1.0
  0
MTEXT
  5
2AC
330
1F
100
AcDbEntity
  8
0-B_寸法
  6
Continuous
 62
     7
370
   211
100
AcDbMText
 10
1188.168542843319
 20
1807.665146596494
 30
0.0
 40
91.43999999999997
 41
660.0
 46
0.0
 71
     7
 72
     1
  1
{\fＭＳ ゴシック|b0|i0|c128|p49;ＤＷ＝282.5}
 73
     1
 44
1.0
  0
MTEXT
  5
2AD
330
1F
100
AcDbEntity
  8
0-B_寸法
  6
Continuous
 62
     7
370
   211
100
AcDbMText
 10
-1446.581457156684
 20
1627.665146596494
 30
0.0
 40
91.43999999999998
 41
900.0
 46
0.0
 71
     7
 72
     1
  1
{\fＭＳ ゴシック|b0|i0|c128|p49;折戸：ＤＷ＝566}
 73
     1
 44
1.0
  0
MTEXT
  5
2AE
330
1F
100
AcDbEntity
  8
0-B_寸法
  6
Continuous
 62
     7
370
   211
100
AcDbMText
 10
566.41854284332
 20
1627.665146596494
 30
0.0
 40
91.43999999999998
 41
900.0
 46
0.0
 71
     7
 72
     1
  1
{\fＭＳ ゴシック|b0|i0|c128|p49;折戸：ＤＷ＝566}
 73
     1
 44
1.0
  0
MTEXT
  5
2AF
330
1F
100
AcDbEntity
  8
0-B_寸法
  6
Continuous
 62
     7
370
   211
100
AcDbMText
 10
-380.0814571566821
 20
3142.665146596495
 30
0.0
 40
91.43999999999997
 41
780.0
 46
0.0
 71
     7
 72
     1
  1
{\fＭＳ ゴシック|b0|i0|c128|p49;ＲＯＷ＝1,199}
 73
     1
 44
1.0
  0
MTEXT
  5
2B0
330
1F
100
AcDbEntity
  8
0-B_寸法
  6
Continuous
 62
     7
370
   211
100
AcDbMText
 10
-320.0814571566821
 20
1447.665146596494
 30
0.0
 40
91.43999999999997
 41
660.0
 46
0.0
 71
     7
 72
     1
  1
{\fＭＳ ゴシック|b0|i0|c128|p49;枠内＝1,129}
 73
     1
 44
1.0
  0
MTEXT
  5
2B1
330
1F
100
AcDbEntity
  8
0-A_文字
  6
Continuous
 62
     7
370
     5
100
AcDbMText
 10
-113.0817293404827
 20
1111.690373869221
 30
0.0
 40
79.49045454545455
 41
2295.0
 46
0.0
 71
     7
 72
     1
  1
{\fＭＳ ゴシック|b0|i0|c128|p49;※有効開口寸法にはハンドルの突出は含まない。}
 73
     1
 44
1.0
  0
MTEXT
  5
2B2
330
1F
100
AcDbEntity
  8
0-B_寸法
  6
Continuous
 62
     7
370
   211
100
AcDbMText
 10
-320.0814571566821
 20
1267.665146596494
 30
0.0
 40
91.43999999999997
 41
660.0
 46
0.0
 71
     7
 72
     1
  1
{\fＭＳ ゴシック|b0|i0|c128|p49;枠外＝1,189}
 73
     1
 44
1.0
  0
ARC
  5
2B3
330
1F
100
AcDbEntity
  8
0-6_扉
  6
JWW_DASHED2
 62
    40
370
     5
100
AcDbCircle
 10
-1700.99809704633
 20
2557.712520566674
 30
0.0
 40
18.0
100
AcDbArc
 50
4.346020721640005
 51
94.34602072164022
  0
LINE
  5
2B4
330
1F
100
AcDbEntity
  8
0-6_扉
  6
JWW_DASHED2
 62
    40
370
     5
100
AcDbLine
 10
-1792.103343748564
 20
2568.840594224113
 30
0.0
 11
-1702.362130831526
 21
2575.660763150082
 31
0.0
  0
ARC
  5
2B5
330
1F
100
AcDbEntity
  8
0-6_扉
  6
JWW_DASHED2
 62
    40
370
     5
100
AcDbCircle
 10
-1790.73930996337
 20
2550.892351640704
 30
0.0
 40
18.0
100
AcDbArc
 50
94.3460207216403
 51
184.3460207216401
  0
ARC
  5
2B6
330
1F
100
AcDbEntity
  8
0-6_扉
  6
JWW_DASHED2
 62
    40
370
     5
100
AcDbCircle
 10
-1357.770912657129
 20
2557.712520566677
 30
0.0
 40
18.0
100
AcDbArc
 50
85.65397927836092
 51
175.653979278361
  0
LINE
  5
2B7
330
1F
100
AcDbEntity
  8
0-6_扉
  6
JWW_DASHED2
 62
    40
370
     5
100
AcDbLine
 10
-1266.665665954898
 20
2568.840594224118
 30
0.0
 11
-1356.406878871936
 21
2575.660763150085
 31
0.0
  0
ARC
  5
2B8
330
1F
100
AcDbEntity
  8
0-6_扉
  6
JWW_DASHED2
 62
    40
370
     5
100
AcDbCircle
 10
-1268.029699740089
 20
2550.89235164071
 30
0.0
 40
18.0
100
AcDbArc
 50
355.653979278361
 51
85.65397927836094
  0
LINE
  5
2B9
330
1F
100
AcDbEntity
  8
0-6_扉
  6
JWW_DASHED2
 62
    40
370
     5
100
AcDbLine
 10
-1808.687552546777
 20
2549.528317855513
 30
0.0
 11
-1775.052036671057
 21
2106.945146596494
 31
0.0
  0
LINE
  5
2BA
330
1F
100
AcDbEntity
  8
0-6_扉
  6
JWW_DASHED2
 62
    40
370
     5
100
AcDbLine
 10
-1250.081457156685
 20
2549.52831785552
 30
0.0
 11
-1283.716973032395
 21
2106.945146596494
 31
0.0
  0
LINE
  5
2BB
330
1F
100
AcDbEntity
  8
0-6_扉
  6
JWW_DASHED2
 62
    40
370
     5
100
AcDbLine
 10
-1375.719155240536
 20
2559.076554351872
 30
0.0
 11
-1410.080319719976
 21
2106.945146596494
 31
0.0
  0
LINE
  5
2BC
330
1F
100
AcDbEntity
  8
0-6_扉
  6
JWW_DASHED2
 62
    40
370
     5
100
AcDbLine
 10
-1683.049854462923
 20
2559.076554351868
 30
0.0
 11
-1648.688689983475
 21
2106.945146596494
 31
0.0
  0
LINE
  5
2BD
330
1F
100
AcDbEntity
  8
0-1_通り芯
  6
JWW_CENTER1
 62
   120
370
     5
100
AcDbLine
 10
-1250.081457156682
 20
2781.945146596495
 30
0.0
 11
-1250.081457156682
 21
2549.52831785552
 31
0.0
  0
LWPOLYLINE
  5
2BE
330
1F
100
AcDbEntity
  8
0-B_寸法
  6
Continuous
 62
     7
370
     5
100
AcDbPolyline
 90
        4
 70
     1
 43
3.0
 10
-1248.581457156682
 20
2961.945146596495
 42
0.4142135623731
 10
-1250.081457156682
 20
2963.445146596495
 42
0.4142135623731
 10
-1251.581457156682
 20
2961.945146596495
 42
0.4142135623731
 10
-1250.081457156682
 20
2960.445146596495
 42
0.4142135623731
  0
LINE
  5
2BF
330
1F
100
AcDbEntity
  8
0-B_寸法
  6
Continuous
 62
   120
370
     5
100
AcDbLine
 10
-1250.081457156682
 20
2961.945146596495
 30
0.0
 11
-1250.081457156682
 21
2781.945146596495
 31
0.0
  0
LINE
  5
2C0
330
1F
100
AcDbEntity
  8
0-B_寸法
  6
Continuous
 62
   120
370
     5
100
AcDbLine
 10
-1250.081457156682
 20
2961.945146596495
 30
0.0
 11
1269.918542843318
 21
2961.945146596495
 31
0.0
  0
LINE
  5
2C1
330
1F
100
AcDbEntity
  8
0-0_補助線
  6
JWW_HOJO
 62
     7
370
     5
100
AcDbLine
 10
-1528.331457156683
 20
2442.945146596493
 30
0.0
 11
-1528.331457156683
 21
2280.944503252955
 31
0.0
  0
LINE
  5
2C2
330
1F
100
AcDbEntity
  8
0-0_補助線
  6
JWW_HOJO
 62
     7
370
     5
100
AcDbLine
 10
-1468.331457156683
 20
2442.945146596493
 30
0.0
 11
-1468.331457156683
 21
2280.944503252955
 31
0.0
  0
LINE
  5
2C3
330
1F
100
AcDbEntity
  8
0-6_扉
  6
Continuous
 62
   200
370
     5
100
AcDbLine
 10
-1997.081457156683
 20
2424.945146596494
 30
0.0
 11
-1528.331457156683
 21
2424.945146596494
 31
0.0
  0
LINE
  5
2C4
330
1F
100
AcDbEntity
  8
0-6_扉
  6
Continuous
 62
   200
370
     5
100
AcDbLine
 10
-1468.331457156683
 20
2424.945146596494
 30
0.0
 11
-999.5814571566831
 21
2424.945146596494
 31
0.0
  0
LINE
  5
2C5
330
1F
100
AcDbEntity
  8
0-6_扉
  6
Continuous
 62
   200
370
     5
100
AcDbLine
 10
-1997.081457156683
 20
2298.945146596493
 30
0.0
 11
-1528.331457156683
 21
2298.945146596493
 31
0.0
  0
LINE
  5
2C6
330
1F
100
AcDbEntity
  8
0-6_扉
  6
Continuous
 62
   200
370
     5
100
AcDbLine
 10
-1468.331457156683
 20
2298.945146596493
 30
0.0
 11
-999.5814571566831
 21
2298.945146596493
 31
0.0
  0
LINE
  5
2C7
330
1F
100
AcDbEntity
  8
0-0_補助線
  6
JWW_HOJO
 62
     7
370
     5
100
AcDbLine
 10
-524.8314571566834
 20
2442.945146596493
 30
0.0
 11
-524.8314571566834
 21
2280.944503252955
 31
0.0
  0
LINE
  5
2C8
330
1F
100
AcDbEntity
  8
0-0_補助線
  6
JWW_HOJO
 62
     7
370
     5
100
AcDbLine
 10
-464.8314571566834
 20
2442.945146596493
 30
0.0
 11
-464.8314571566834
 21
2280.944503252955
 31
0.0
  0
LINE
  5
2C9
330
1F
100
AcDbEntity
  8
0-0_補助線
  6
JWW_HOJO
 62
     7
370
     5
100
AcDbLine
 10
484.668542843321
 20
2442.945146596493
 30
0.0
 11
484.668542843321
 21
2280.944503252955
 31
0.0
  0
LINE
  5
2CA
330
1F
100
AcDbEntity
  8
0-0_補助線
  6
JWW_HOJO
 62
     7
370
     5
100
AcDbLine
 10
544.668542843321
 20
2442.945146596493
 30
0.0
 11
544.668542843321
 21
2280.944503252955
 31
0.0
  0
LINE
  5
2CB
330
1F
100
AcDbEntity
  8
0-0_補助線
  6
JWW_HOJO
 62
     7
370
     5
100
AcDbLine
 10
1488.168542843319
 20
2442.945146596493
 30
0.0
 11
1488.168542843319
 21
2280.944503252955
 31
0.0
  0
LINE
  5
2CC
330
1F
100
AcDbEntity
  8
0-0_補助線
  6
JWW_HOJO
 62
     7
370
     5
100
AcDbLine
 10
1548.168542843319
 20
2442.945146596493
 30
0.0
 11
1548.168542843319
 21
2280.944503252955
 31
0.0
  0
LINE
  5
2CD
330
1F
100
AcDbEntity
  8
0-6_扉
  6
Continuous
 62
   200
370
     5
100
AcDbLine
 10
-993.5814571566834
 20
2424.945146596494
 30
0.0
 11
-524.8314571566834
 21
2424.945146596494
 31
0.0
  0
LINE
  5
2CE
330
1F
100
AcDbEntity
  8
0-6_扉
  6
Continuous
 62
   200
370
     5
100
AcDbLine
 10
-464.8314571566834
 20
2424.945146596494
 30
0.0
 11
3.918542843318278
 21
2424.945146596494
 31
0.0
  0
LINE
  5
2CF
330
1F
100
AcDbEntity
  8
0-6_扉
  6
Continuous
 62
   200
370
     5
100
AcDbLine
 10
-993.5814571566834
 20
2298.945146596493
 30
0.0
 11
-524.8314571566834
 21
2298.945146596493
 31
0.0
  0
LINE
  5
2D0
330
1F
100
AcDbEntity
  8
0-6_扉
  6
Continuous
 62
   200
370
     5
100
AcDbLine
 10
-464.8314571566834
 20
2298.945146596493
 30
0.0
 11
3.918542843318278
 21
2298.945146596493
 31
0.0
  0
LINE
  5
2D1
330
1F
100
AcDbEntity
  8
0-6_扉
  6
Continuous
 62
   200
370
     5
100
AcDbLine
 10
15.91854284332271
 20
2424.945146596494
 30
0.0
 11
484.668542843321
 21
2424.945146596494
 31
0.0
  0
LINE
  5
2D2
330
1F
100
AcDbEntity
  8
0-6_扉
  6
Continuous
 62
   200
370
     5
100
AcDbLine
 10
544.668542843321
 20
2424.945146596494
 30
0.0
 11
1013.418542843318
 21
2424.945146596494
 31
0.0
  0
LINE
  5
2D3
330
1F
100
AcDbEntity
  8
0-6_扉
  6
Continuous
 62
   200
370
     5
100
AcDbLine
 10
15.91854284332271
 20
2298.945146596493
 30
0.0
 11
484.668542843321
 21
2298.945146596493
 31
0.0
  0
LINE
  5
2D4
330
1F
100
AcDbEntity
  8
0-6_扉
  6
Continuous
 62
   200
370
     5
100
AcDbLine
 10
544.668542843321
 20
2298.945146596493
 30
0.0
 11
1013.418542843318
 21
2298.945146596493
 31
0.0
  0
LINE
  5
2D5
330
1F
100
AcDbEntity
  8
0-6_扉
  6
Continuous
 62
   200
370
     5
100
AcDbLine
 10
1019.418542843317
 20
2424.945146596494
 30
0.0
 11
1488.168542843319
 21
2424.945146596494
 31
0.0
  0
LINE
  5
2D6
330
1F
100
AcDbEntity
  8
0-6_扉
  6
Continuous
 62
   200
370
     5
100
AcDbLine
 10
1548.168542843319
 20
2424.945146596494
 30
0.0
 11
2016.918542843321
 21
2424.945146596494
 31
0.0
  0
LINE
  5
2D7
330
1F
100
AcDbEntity
  8
0-6_扉
  6
Continuous
 62
   200
370
     5
100
AcDbLine
 10
1019.418542843317
 20
2298.945146596493
 30
0.0
 11
1488.168542843319
 21
2298.945146596493
 31
0.0
  0
LINE
  5
2D8
330
1F
100
AcDbEntity
  8
0-6_扉
  6
Continuous
 62
   200
370
     5
100
AcDbLine
 10
1548.168542843319
 20
2298.945146596493
 30
0.0
 11
2016.918542843321
 21
2298.945146596493
 31
0.0
  0
CIRCLE
  5
2D9
330
1F
100
AcDbEntity
  8
0-7_金物
  6
Continuous
 62
     7
370
     5
100
AcDbCircle
 10
-996.5814571566841
 20
2454.945146596471
 30
0.0
 40
21.00000000000001
  0
CIRCLE
  5
2DA
330
1F
100
AcDbEntity
  8
0-7_金物
  6
Continuous
 62
     7
370
     5
100
AcDbCircle
 10
-996.5814571566841
 20
2454.945146596471
 30
0.0
 40
30.0
  0
CIRCLE
  5
2DB
330
1F
100
AcDbEntity
  8
0-7_金物
  6
Continuous
 62
     7
370
     5
100
AcDbCircle
 10
1016.418542843318
 20
2454.945146596471
 30
0.0
 40
21.00000000000001
  0
CIRCLE
  5
2DC
330
1F
100
AcDbEntity
  8
0-7_金物
  6
Continuous
 62
     7
370
     5
100
AcDbCircle
 10
1016.418542843318
 20
2454.945146596471
 30
0.0
 40
30.0
  0
MTEXT
  5
2DD
330
1F
100
AcDbEntity
  8
0-B_寸法
  6
Continuous
 62
     7
370
   211
100
AcDbMText
 10
-484.1830428641578
 20
2962.665146596495
 30
0.0
 40
91.43999999999998
 41
1020.0
 46
0.0
 71
     7
 72
     1
  1
{\fＭＳ ゴシック|b0|i0|c128|p49;有効開口寸法＝885}
 73
     1
 44
1.0
  0
MTEXT
  5
2DE
330
1F
100
AcDbEntity
  8
0-B_寸法
  6
Continuous
 62
     7
370
   211
100
AcDbMText
 10
39.91854284331794
 20
1627.665146596494
 30
0.0
 40
91.44
 41
60.0
 46
0.0
 71
     7
 72
     1
  1
{\fＭＳ ゴシック|b0|i0|c128|p49;2}
 73
     1
 44
1.0
  0
MTEXT
  5
2DF
330
1F
100
AcDbEntity
  8
F-A_文字
  6
Continuous
 62
     7
370
     0
100
AcDbMText
 10
3689.917643811962
 20
-3946.903115907308
 30
0.0
 40
76.19999999999999
 41
150.0
 46
0.0
 71
     7
 72
     1
  1
{\fＭＳ ゴシック|b0|i0|c128|p49;1/5}
 73
     1
 44
1.0
  0
MTEXT
  5
2E0
330
1F
100
AcDbEntity
  8
F-A_文字
  6
Continuous
 62
     7
370
     5
100
AcDbMText
 10
3269.917643811962
 20
-4145.298907941097
 30
0.0
 40
79.40842105263158
 41
990.0
 46
0.0
 71
     7
 72
     1
  1
{\fＭＳ ゴシック|b0|i0|c128|p49;M07(8)-AO1189Fa_S01}
 73
     1
 44
1.0
  0
ENDSEC
  0
SECTION
  2
OBJECTS
  0
DICTIONARY
  5
C
330
0
100
AcDbDictionary
281
     1
  3
ACAD_GROUP
350
D
  3
ACAD_LAYOUT
350
1A
  3
ACAD_MATERIAL
350
3B
  3
ACAD_MLEADERSTYLE
350
2E2
  3
ACAD_MLINESTYLE
350
17
  3
ACAD_PLOTSETTINGS
350
19
  3
ACAD_PLOTSTYLENAME
350
E
  3
ACAD_TABLESTYLE
350
2E1
  3
ACAD_VISUALSTYLE
350
2A
  0
DICTIONARY
  5
D
102
{ACAD_REACTORS
330
C
102
}
330
C
100
AcDbDictionary
281
     1
  0
DICTIONARY
  5
1A
102
{ACAD_REACTORS
330
C
102
}
330
C
100
AcDbDictionary
281
     1
  3
Layout1
350
1E
  3
Layout2
350
26
  3
Model
350
22
  0
DICTIONARY
  5
3B
102
{ACAD_REACTORS
330
C
102
}
330
C
100
AcDbDictionary
281
     1
  3
ByBlock
350
3D
  3
ByLayer
350
3C
  3
Global
350
3E
  0
DICTIONARY
  5
2E2
102
{ACAD_REACTORS
330
C
102
}
330
C
100
AcDbDictionary
281
     1
  0
DICTIONARY
  5
17
102
{ACAD_REACTORS
330
C
102
}
330
C
100
AcDbDictionary
281
     1
  3
Standard
350
18
  0
DICTIONARY
  5
19
102
{ACAD_REACTORS
330
C
102
}
330
C
100
AcDbDictionary
281
     1
  0
ACDBDICTIONARYWDFLT
  5
E
102
{ACAD_REACTORS
330
C
102
}
330
C
100
AcDbDictionary
281
     1
  3
Normal
350
F
100
AcDbDictionaryWithDefault
340
F
  0
DICTIONARY
  5
2E1
102
{ACAD_REACTORS
330
C
102
}
330
C
100
AcDbDictionary
281
     1
  0
DICTIONARY
  5
2A
102
{ACAD_REACTORS
330
C
102
}
330
C
100
AcDbDictionary
281
     1
  3
2dWireframe
350
2F
  3
3D Hidden
350
31
  3
3dWireframe
350
30
  3
Basic
350
32
  3
Brighten
350
36
  3
ColorChange
350
3A
  3
Conceptual
350
34
  3
Dim
350
35
  3
Facepattern
350
39
  3
Flat
350
2B
  3
FlatWithEdges
350
2C
  3
Gouraud
350
2D
  3
GouraudWithEdges
350
2E
  3
Linepattern
350
38
  3
Realistic
350
33
  3
Thicken
350
37
  0
LAYOUT
  5
1E
102
{ACAD_REACTORS
330
1A
102
}
330
1A
100
AcDbPlotSettings
  1

  2
none_device
  4

  6

 40
0.0
 41
0.0
 42
0.0
 43
0.0
 44
0.0
 45
0.0
 46
0.0
 47
0.0
 48
0.0
 49
0.0
140
0.0
141
0.0
142
1.0
143
1.0
 70
   688
 72
     0
 73
     0
 74
     5
  7

 75
    16
 76
     0
 77
     5
 78
   300
147
1.0
148
0.0
149
0.0
100
AcDbLayout
  1
Layout1
 70
     1
 71
     1
 10
0.0
 20
0.0
 11
420.0
 21
297.0
 12
0.0
 22
0.0
 32
0.0
 14
1.000000000000000E+20
 24
1.000000000000000E+20
 34
1.000000000000000E+20
 15
-1.000000000000000E+20
 25
-1.000000000000000E+20
 35
-1.000000000000000E+20
146
0.0
 13
0.0
 23
0.0
 33
0.0
 16
1.0
 26
0.0
 36
0.0
 17
0.0
 27
1.0
 37
0.0
 76
     0
330
1B
  0
LAYOUT
  5
26
102
{ACAD_REACTORS
330
1A
102
}
330
1A
100
AcDbPlotSettings
  1

  2
none_device
  4

  6

 40
0.0
 41
0.0
 42
0.0
 43
0.0
 44
0.0
 45
0.0
 46
0.0
 47
0.0
 48
0.0
 49
0.0
140
0.0
141
0.0
142
1.0
143
1.0
 70
   688
 72
     0
 73
     0
 74
     5
  7

 75
    16
 76
     0
 77
     5
 78
   300
147
1.0
148
0.0
149
0.0
100
AcDbLayout
  1
Layout2
 70
     1
 71
     2
 10
0.0
 20
0.0
 11
0.0
 21
0.0
 12
0.0
 22
0.0
 32
0.0
 14
0.0
 24
0.0
 34
0.0
 15
0.0
 25
0.0
 35
0.0
146
0.0
 13
0.0
 23
0.0
 33
0.0
 16
1.0
 26
0.0
 36
0.0
 17
0.0
 27
1.0
 37
0.0
 76
     0
330
23
  0
LAYOUT
  5
22
102
{ACAD_REACTORS
330
1A
102
}
330
1A
100
AcDbPlotSettings
  1

  2
none_device
  4

  6

 40
0.0
 41
0.0
 42
0.0
 43
0.0
 44
0.0
 45
0.0
 46
0.0
 47
0.0
 48
0.0
 49
0.0
140
0.0
141
0.0
142
1.0
143
1.0
 70
  1712
 72
     0
 73
     0
 74
     0
  7

 75
     0
 76
     0
 77
     5
 78
   300
147
1.0
148
0.0
149
0.0
100
AcDbLayout
  1
Model
 70
     1
 71
     0
 10
-6300.0
 20
-4455.0
 11
6300.0
 21
4455.0
 12
0.0
 22
0.0
 32
0.0
 14
-6300.0
 24
-4455.0
 34
0.0
 15
6300.0
 25
4455.0
 35
0.0
146
0.0
 13
0.0
 23
0.0
 33
0.0
 16
1.0
 26
0.0
 36
0.0
 17
0.0
 27
1.0
 37
0.0
 76
     0
330
1F
331
29
  0
MATERIAL
  5
3D
102
{ACAD_REACTORS
330
3B
102
}
330
3B
100
AcDbMaterial
  1
ByBlock
 72
     1
 94
      127
  0
MATERIAL
  5
3C
102
{ACAD_REACTORS
330
3B
102
}
330
3B
100
AcDbMaterial
  1
ByLayer
 72
     1
 94
      127
  0
MATERIAL
  5
3E
102
{ACAD_REACTORS
330
3B
102
}
330
3B
100
AcDbMaterial
  1
Global
 72
     1
 94
      127
  0
MLINESTYLE
  5
18
102
{ACAD_REACTORS
330
17
102
}
330
17
100
AcDbMlineStyle
  2
Standard
 70
     0
  3

 62
   256
 51
90.0
 52
90.0
 71
     2
 49
0.5
 62
   256
  6
BYLAYER
 49
-0.5
 62
   256
  6
BYLAYER
  0
ACDBPLACEHOLDER
  5
F
102
{ACAD_REACTORS
330
E
102
}
330
E
  0
VISUALSTYLE
  5
2F
102
{ACAD_REACTORS
330
2A
102
}
330
2A
100
AcDbVisualStyle
  2
2dWireframe
 70
     4
177
     2
291
     0
 71
     0
176
     1
 72
     2
176
     1
 73
     0
176
     1
 90
        0
176
     1
 40
-0.6
176
     1
 41
-30.0
176
     1
 62
     5
 63
     7
421
 16777215
176
     1
 74
     1
176
     1
 91
        4
176
     1
 64
     7
176
     1
 65
   257
176
     1
 75
     1
176
     1
175
     1
176
     1
 42
1.0
176
     1
 92
        0
176
     1
 66
   257
176
     1
 43
1.0
176
     1
 76
     1
176
     1
 77
     6
176
     1
 78
     2
176
     1
 67
     7
176
     1
 79
     5
176
     1
170
     0
176
     1
171
     0
176
     1
290
     0
176
     1
 93
        1
176
     1
 44
0.0
176
     1
173
     0
176
     1
  0
VISUALSTYLE
  5
31
102
{ACAD_REACTORS
330
2A
102
}
330
2A
100
AcDbVisualStyle
  2
3D Hidden
 70
     6
177
     2
291
     0
 71
     1
176
     1
 72
     2
176
     1
 73
     2
176
     1
 90
        0
176
     1
 40
-0.6
176
     1
 41
-30.0
176
     1
 62
     5
 63
     7
421
 16777215
176
     1
 74
     2
176
     1
 91
        2
176
     1
 64
     7
176
     1
 65
   257
176
     1
 75
     2
176
     1
175
     1
176
     1
 42
40.0
176
     1
 92
        0
176
     1
 66
   257
176
     1
 43
1.0
176
     1
 76
     1
176
     1
 77
     6
176
     1
 78
     2
176
     1
 67
     7
176
     1
 79
     3
176
     1
170
     0
176
     1
171
     0
176
     1
290
     0
176
     1
 93
        1
176
     1
 44
0.0
176
     1
173
     0
176
     1
  0
VISUALSTYLE
  5
30
102
{ACAD_REACTORS
330
2A
102
}
330
2A
100
AcDbVisualStyle
  2
3dWireframe
 70
     5
177
     2
291
     0
 71
     0
176
     1
 72
     2
176
     1
 73
     0
176
     1
 90
        0
176
     1
 40
-0.6
176
     1
 41
-30.0
176
     1
 62
     5
 63
     7
421
 16777215
176
     1
 74
     1
176
     1
 91
        4
176
     1
 64
     7
176
     1
 65
   257
176
     1
 75
     1
176
     1
175
     1
176
     1
 42
1.0
176
     1
 92
        0
176
     1
 66
   257
176
     1
 43
1.0
176
     1
 76
     1
176
     1
 77
     6
176
     1
 78
     2
176
     1
 67
     7
176
     1
 79
     5
176
     1
170
     0
176
     1
171
     0
176
     1
290
     0
176
     1
 93
        1
176
     1
 44
0.0
176
     1
173
     0
176
     1
  0
VISUALSTYLE
  5
32
102
{ACAD_REACTORS
330
2A
102
}
330
2A
100
AcDbVisualStyle
  2
Basic
 70
     7
177
     2
291
     1
 71
     1
176
     1
 72
     0
176
     1
 73
     1
176
     1
 90
        0
176
     1
 40
-0.6
176
     1
 41
-30.0
176
     1
 62
     5
 63
     7
421
 16777215
176
     1
 74
     0
176
     1
 91
        4
176
     1
 64
     7
176
     1
 65
   257
176
     1
 75
     1
176
     1
175
     1
176
     1
 42
1.0
176
     1
 92
        8
176
     1
 66
     7
176
     1
 43
1.0
176
     1
 76
     1
176
     1
 77
     6
176
     1
 78
     2
176
     1
 67
     7
176
     1
 79
     5
176
     1
170
     0
176
     1
171
     0
176
     1
290
     0
176
     1
 93
        1
176
     1
 44
0.0
176
     1
173
     0
176
     1
  0
VISUALSTYLE
  5
36
102
{ACAD_REACTORS
330
2A
102
}
330
2A
100
AcDbVisualStyle
  2
Brighten
 70
    12
177
     2
291
     1
 71
     2
176
     1
 72
     2
176
     1
 73
     0
176
     1
 90
        0
176
     1
 40
-0.6
176
     1
 41
-30.0
176
     1
 62
     5
 63
     7
421
 16777215
176
     1
 74
     1
176
     1
 91
        4
176
     1
 64
     7
176
     1
 65
   257
176
     1
 75
     1
176
     1
175
     1
176
     1
 42
1.0
176
     1
 92
        8
176
     1
 66
     7
176
     1
 43
1.0
176
     1
 76
     1
176
     1
 77
     6
176
     1
 78
     2
176
     1
 67
     7
176
     1
 79
     5
176
     1
170
     0
176
     1
171
     0
176
     1
290
     0
176
     1
 93
        1
176
     1
 44
50.0
176
     1
173
     0
176
     1
  0
VISUALSTYLE
  5
3A
102
{ACAD_REACTORS
330
2A
102
}
330
2A
100
AcDbVisualStyle
  2
ColorChange
 70
    16
177
     2
291
     1
 71
     2
176
     1
 72
     2
176
     1
 73
     3
176
     1
 90
        0
176
     1
 40
-0.6
176
     1
 41
-30.0
176
     1
 62
     5
 63
     8
421
  8421504
176
     1
 74
     1
176
     1
 91
        4
176
     1
 64
     7
176
     1
 65
   257
176
     1
 75
     1
176
     1
175
     1
176
     1
 42
1.0
176
     1
 92
        8
176
     1
 66
     8
424
  8421504
176
     1
 43
1.0
176
     1
 76
     1
176
     1
 77
     6
176
     1
 78
     2
176
     1
 67
     7
176
     1
 79
     5
176
     1
170
     0
176
     1
171
     0
176
     1
290
     0
176
     1
 93
        1
176
     1
 44
0.0
176
     1
173
     0
176
     1
  0
VISUALSTYLE
  5
34
102
{ACAD_REACTORS
330
2A
102
}
330
2A
100
AcDbVisualStyle
  2
Conceptual
 70
     9
177
     2
291
     0
 71
     3
176
     1
 72
     2
176
     1
 73
     0
176
     1
 90
        0
176
     1
 40
-0.6
176
     1
 41
-30.0
176
     1
 62
     5
 63
     7
421
 16777215
176
     1
 74
     2
176
     1
 91
        2
176
     1
 64
     7
176
     1
 65
   257
176
     1
 75
     1
176
     1
175
     1
176
     1
 42
40.0
176
     1
 92
        8
176
     1
 66
     7
176
     1
 43
1.0
176
     1
 76
     1
176
     1
 77
     6
176
     1
 78
     2
176
     1
 67
     7
176
     1
 79
     3
176
     1
170
     0
176
     1
171
     0
176
     1
290
     0
176
     1
 93
        1
176
     1
 44
0.0
176
     1
173
     0
176
     1
  0
VISUALSTYLE
  5
35
102
{ACAD_REACTORS
330
2A
102
}
330
2A
100
AcDbVisualStyle
  2
Dim
 70
    11
177
     2
291
     1
 71
     2
176
     1
 72
     2
176
     1
 73
     0
176
     1
 90
        0
176
     1
 40
-0.6
176
     1
 41
-30.0
176
     1
 62
     5
 63
     7
421
 16777215
176
     1
 74
     1
176
     1
 91
        4
176
     1
 64
     7
176
     1
 65
   257
176
     1
 75
     1
176
     1
175
     1
176
     1
 42
1.0
176
     1
 92
        8
176
     1
 66
     7
176
     1
 43
1.0
176
     1
 76
     1
176
     1
 77
     6
176
     1
 78
     2
176
     1
 67
     7
176
     1
 79
     5
176
     1
170
     0
176
     1
171
     0
176
     1
290
     0
176
     1
 93
        1
176
     1
 44
-50.0
176
     1
173
     0
176
     1
  0
VISUALSTYLE
  5
39
102
{ACAD_REACTORS
330
2A
102
}
330
2A
100
AcDbVisualStyle
  2
Facepattern
 70
    15
177
     2
291
     1
 71
     2
176
     1
 72
     2
176
     1
 73
     0
176
     1
 90
        0
176
     1
 40
-0.6
176
     1
 41
-30.0
176
     1
 62
     5
 63
     7
421
 16777215
176
     1
 74
     1
176
     1
 91
        4
176
     1
 64
     7
176
     1
 65
   257
176
     1
 75
     1
176
     1
175
     1
176
     1
 42
1.0
176
     1
 92
        8
176
     1
 66
     7
176
     1
 43
1.0
176
     1
 76
     1
176
     1
 77
     6
176
     1
 78
     2
176
     1
 67
     7
176
     1
 79
     5
176
     1
170
     0
176
     1
171
     0
176
     1
290
     0
176
     1
 93
        1
176
     1
 44
0.0
176
     1
173
     0
176
     1
  0
VISUALSTYLE
  5
2B
102
{ACAD_REACTORS
330
2A
102
}
330
2A
100
AcDbVisualStyle
  2
Flat
 70
     0
177
     2
291
     1
 71
     2
176
     1
 72
     1
176
     1
 73
     1
176
     1
 90
        2
176
     1
 40
-0.6
176
     1
 41
30.0
176
     1
 62
     5
 63
     7
421
 16777215
176
     1
 74
     0
176
     1
 91
        4
176
     1
 64
     7
176
     1
 65
   257
176
     1
 75
     1
176
     1
175
     1
176
     1
 42
1.0
176
     1
 92
        8
176
     1
 66
     7
176
     1
 43
1.0
176
     1
 76
     1
176
     1
 77
     6
176
     1
 78
     2
176
     1
 67
     7
176
     1
 79
     5
176
     1
170
     0
176
     1
171
     0
176
     1
290
     0
176
     1
 93
       13
176
     1
 44
0.0
176
     1
173
     0
176
     1
  0
VISUALSTYLE
  5
2C
102
{ACAD_REACTORS
330
2A
102
}
330
2A
100
AcDbVisualStyle
  2
FlatWithEdges
 70
     1
177
     2
291
     1
 71
     2
176
     1
 72
     1
176
     1
 73
     1
176
     1
 90
        2
176
     1
 40
-0.6
176
     1
 41
30.0
176
     1
 62
     5
 63
     7
421
 16777215
176
     1
 74
     1
176
     1
 91
        4
176
     1
 64
     7
176
     1
 65
   257
176
     1
 75
     1
176
     1
175
     1
176
     1
 42
1.0
176
     1
 92
        0
176
     1
 66
   257
176
     1
 43
1.0
176
     1
 76
     1
176
     1
 77
     6
176
     1
 78
     2
176
     1
 67
     7
176
     1
 79
     5
176
     1
170
     0
176
     1
171
     0
176
     1
290
     0
176
     1
 93
       13
176
     1
 44
0.0
176
     1
173
     0
176
     1
  0
VISUALSTYLE
  5
2D
102
{ACAD_REACTORS
330
2A
102
}
330
2A
100
AcDbVisualStyle
  2
Gouraud
 70
     2
177
     2
291
     1
 71
     2
176
     1
 72
     2
176
     1
 73
     1
176
     1
 90
        2
176
     1
 40
-0.6
176
     1
 41
30.0
176
     1
 62
     5
 63
     7
421
 16777215
176
     1
 74
     0
176
     1
 91
        4
176
     1
 64
     7
176
     1
 65
   257
176
     1
 75
     1
176
     1
175
     1
176
     1
 42
1.0
176
     1
 92
        0
176
     1
 66
     7
176
     1
 43
1.0
176
     1
 76
     1
176
     1
 77
     6
176
     1
 78
     2
176
     1
 67
     7
176
     1
 79
     5
176
     1
170
     0
176
     1
171
     0
176
     1
290
     0
176
     1
 93
       13
176
     1
 44
0.0
176
     1
173
     0
176
     1
  0
VISUALSTYLE
  5
2E
102
{ACAD_REACTORS
330
2A
102
}
330
2A
100
AcDbVisualStyle
  2
GouraudWithEdges
 70
     3
177
     2
291
     1
 71
     2
176
     1
 72
     2
176
     1
 73
     1
176
     1
 90
        2
176
     1
 40
-0.6
176
     1
 41
30.0
176
     1
 62
     5
 63
     7
421
 16777215
176
     1
 74
     1
176
     1
 91
        4
176
     1
 64
     7
176
     1
 65
   257
176
     1
 75
     1
176
     1
175
     1
176
     1
 42
1.0
176
     1
 92
        0
176
     1
 66
   257
176
     1
 43
1.0
176
     1
 76
     1
176
     1
 77
     6
176
     1
 78
     2
176
     1
 67
     7
176
     1
 79
     5
176
     1
170
     0
176
     1
171
     0
176
     1
290
     0
176
     1
 93
       13
176
     1
 44
0.0
176
     1
173
     0
176
     1
  0
VISUALSTYLE
  5
38
102
{ACAD_REACTORS
330
2A
102
}
330
2A
100
AcDbVisualStyle
  2
Linepattern
 70
    14
177
     2
291
     1
 71
     2
176
     1
 72
     2
176
     1
 73
     0
176
     1
 90
        0
176
     1
 40
-0.6
176
     1
 41
-30.0
176
     1
 62
     5
 63
     7
421
 16777215
176
     1
 74
     1
176
     1
 91
        4
176
     1
 64
     7
176
     1
 65
   257
176
     1
 75
     7
176
     1
175
     7
176
     1
 42
1.0
176
     1
 92
        8
176
     1
 66
     7
176
     1
 43
1.0
176
     1
 76
     1
176
     1
 77
     6
176
     1
 78
     2
176
     1
 67
     7
176
     1
 79
     5
176
     1
170
     0
176
     1
171
     0
176
     1
290
     0
176
     1
 93
        1
176
     1
 44
0.0
176
     1
173
     0
176
     1
  0
VISUALSTYLE
  5
33
102
{ACAD_REACTORS
330
2A
102
}
330
2A
100
AcDbVisualStyle
  2
Realistic
 70
     8
177
     2
291
     0
 71
     2
176
     1
 72
     2
176
     1
 73
     0
176
     1
 90
        0
176
     1
 40
-0.6
176
     1
 41
-30.0
176
     1
 62
     5
 63
     7
421
 16777215
176
     1
 74
     1
176
     1
 91
        0
176
     1
 64
     7
176
     1
 65
   257
176
     1
 75
     1
176
     1
175
     1
176
     1
 42
1.0
176
     1
 92
        8
176
     1
 66
     8
424
  7895160
176
     1
 43
1.0
176
     1
 76
     1
176
     1
 77
     6
176
     1
 78
     2
176
     1
 67
     7
176
     1
 79
     5
176
     1
170
     0
176
     1
171
     0
176
     1
290
     0
176
     1
 93
       13
176
     1
 44
0.0
176
     1
173
     0
176
     1
  0
VISUALSTYLE
  5
37
102
{ACAD_REACTORS
330
2A
102
}
330
2A
100
AcDbVisualStyle
  2
Thicken
 70
    13
177
     2
291
     1
 71
     2
176
     1
 72
     2
176
     1
 73
     0
176
     1
 90
        0
176
     1
 40
-0.6
176
     1
 41
-30.0
176
     1
 62
     5
 63
     7
421
 16777215
176
     1
 74
     1
176
     1
 91
        4
176
     1
 64
     7
176
     1
 65
   257
176
     1
 75
     1
176
     1
175
     1
176
     1
 42
1.0
176
     1
 92
       12
176
     1
 66
     7
176
     1
 43
1.0
176
     1
 76
     1
176
     1
 77
     6
176
     1
 78
     2
176
     1
 67
     7
176
     1
 79
     5
176
     1
170
     0
176
     1
171
     0
176
     1
290
     0
176
     1
 93
        1
176
     1
 44
0.0
176
     1
173
     0
176
     1
  0
ENDSEC
  0
EOF
