  0
SECTION
  2
HEADER
  9
$ACADVER
  1
AC1024
  9
$ACADMAINTVER
 70
     6
  9
$DWGCODEPAGE
  3
ANSI_932
  9
$INSBASE
 10
0.0
 20
0.0
 30
0.0
  9
$EXTMIN
 10
-6300.0
 20
-4455.0
 30
0.0
  9
$EXTMAX
 10
6300.0
 20
4455.0
 30
0.0
  9
$LIMMIN
 10
-6300.0
 20
-4455.0
  9
$LIMMAX
 10
6300.0
 20
4455.0
  9
$ORTHOMODE
 70
     0
  9
$REGENMODE
 70
     1
  9
$FILLMODE
 70
     1
  9
$QTEXTMODE
 70
     0
  9
$MIRRTEXT
 70
     1
  9
$LTSCALE
 40
30.0
  9
$ATTMODE
 70
     1
  9
$TEXTSIZE
 40
2.5
  9
$TRACEWID
 40
1.0
  9
$TEXTSTYLE
  7
Standard
  9
$CLAYER
  8
0
  9
$CELTYPE
  6
ByLayer
  9
$CECOLOR
 62
   256
  9
$CELTSCALE
 40
1.0
  9
$DISPSILH
 70
     0
  9
$DIMSCALE
 40
1.0
  9
$DIMASZ
 40
2.5
  9
$DIMEXO
 40
0.625
  9
$DIMDLI
 40
3.75
  9
$DIMRND
 40
0.0
  9
$DIMDLE
 40
0.0
  9
$DIMEXE
 40
1.25
  9
$DIMTP
 40
0.0
  9
$DIMTM
 40
0.0
  9
$DIMTXT
 40
2.5
  9
$DIMCEN
 40
2.5
  9
$DIMTSZ
 40
0.0
  9
$DIMTOL
 70
     0
  9
$DIMLIM
 70
     0
  9
$DIMTIH
 70
     0
  9
$DIMTOH
 70
     0
  9
$DIMSE1
 70
     0
  9
$DIMSE2
 70
     0
  9
$DIMTAD
 70
     1
  9
$DIMZIN
 70
     8
  9
$DIMBLK
  1

  9
$DIMASO
 70
     1
  9
$DIMSHO
 70
     1
  9
$DIMPOST
  1

  9
$DIMAPOST
  1

  9
$DIMALT
 70
     0
  9
$DIMALTD
 70
     3
  9
$DIMALTF
 40
0.03937007874016
  9
$DIMLFAC
 40
1.0
  9
$DIMTOFL
 70
     1
  9
$DIMTVP
 40
0.0
  9
$DIMTIX
 70
     0
  9
$DIMSOXD
 70
     0
  9
$DIMSAH
 70
     0
  9
$DIMBLK1
  1

  9
$DIMBLK2
  1

  9
$DIMSTYLE
  2
ISO-25
  9
$DIMCLRD
 70
     0
  9
$DIMCLRE
 70
     0
  9
$DIMCLRT
 70
     0
  9
$DIMTFAC
 40
1.0
  9
$DIMGAP
 40
0.625
  9
$DIMJUST
 70
     0
  9
$DIMSD1
 70
     0
  9
$DIMSD2
 70
     0
  9
$DIMTOLJ
 70
     0
  9
$DIMTZIN
 70
     8
  9
$DIMALTZ
 70
     0
  9
$DIMALTTZ
 70
     0
  9
$DIMUPT
 70
     0
  9
$DIMDEC
 70
     2
  9
$DIMTDEC
 70
     2
  9
$DIMALTU
 70
     2
  9
$DIMALTTD
 70
     3
  9
$DIMTXSTY
  7
Standard
  9
$DIMAUNIT
 70
     0
  9
$DIMADEC
 70
     0
  9
$DIMALTRND
 40
0.0
  9
$DIMAZIN
 70
     0
  9
$DIMDSEP
 70
    44
  9
$DIMATFIT
 70
     3
  9
$DIMFRAC
 70
     0
  9
$DIMLDRBLK
  1

  9
$DIMLUNIT
 70
     2
  9
$DIMLWD
 70
    -2
  9
$DIMLWE
 70
    -2
  9
$DIMTMOVE
 70
     0
  9
$DIMFXL
 40
1.0
  9
$DIMFXLON
 70
     0
  9
$DIMJOGANG
 40
0.7853981633974483
  9
$DIMTFILL
 70
     0
  9
$DIMTFILLCLR
 70
     0
  9
$DIMARCSYM
 70
     0
  9
$DIMLTYPE
  6

  9
$DIMLTEX1
  6

  9
$DIMLTEX2
  6

  9
$DIMTXTDIRECTION
 70
     0
  9
$LUNITS
 70
     2
  9
$LUPREC
 70
     4
  9
$SKETCHINC
 40
1.0
  9
$FILLETRAD
 40
10.0
  9
$AUNITS
 70
     0
  9
$AUPREC
 70
     0
  9
$MENU
  1
.
  9
$ELEVATION
 40
0.0
  9
$PELEVATION
 40
0.0
  9
$THICKNESS
 40
0.0
  9
$LIMCHECK
 70
     0
  9
$CHAMFERA
 40
10.0
  9
$CHAMFERB
 40
10.0
  9
$CHAMFERC
 40
20.0
  9
$CHAMFERD
 40
0.0
  9
$SKPOLY
 70
     0
  9
$TDCREATE
 40
2457717.640212905
  9
$TDUCREATE
 40
2457717.265212905
  9
$TDUPDATE
 40
2457717.640212917
  9
$TDUUPDATE
 40
2457717.265212917
  9
$TDINDWG
 40
0.0000000116
  9
$TDUSRTIMER
 40
0.0000000116
  9
$USRTIMER
 70
     1
  9
$ANGBASE
 50
0.0
  9
$ANGDIR
 70
     0
  9
$PDMODE
 70
     0
  9
$PDSIZE
 40
0.0
  9
$PLINEWID
 40
0.0
  9
$SPLFRAME
 70
     0
  9
$SPLINETYPE
 70
     6
  9
$SPLINESEGS
 70
     8
  9
$HANDSEED
  5
3E2
  9
$SURFTAB1
 70
     6
  9
$SURFTAB2
 70
     6
  9
$SURFTYPE
 70
     6
  9
$SURFU
 70
     6
  9
$SURFV
 70
     6
  9
$UCSBASE
  2

  9
$UCSNAME
  2

  9
$UCSORG
 10
0.0
 20
0.0
 30
0.0
  9
$UCSXDIR
 10
1.0
 20
0.0
 30
0.0
  9
$UCSYDIR
 10
0.0
 20
1.0
 30
0.0
  9
$UCSORTHOREF
  2

  9
$UCSORTHOVIEW
 70
     0
  9
$UCSORGTOP
 10
0.0
 20
0.0
 30
0.0
  9
$UCSORGBOTTOM
 10
0.0
 20
0.0
 30
0.0
  9
$UCSORGLEFT
 10
0.0
 20
0.0
 30
0.0
  9
$UCSORGRIGHT
 10
0.0
 20
0.0
 30
0.0
  9
$UCSORGFRONT
 10
0.0
 20
0.0
 30
0.0
  9
$UCSORGBACK
 10
0.0
 20
0.0
 30
0.0
  9
$PUCSBASE
  2

  9
$PUCSNAME
  2

  9
$PUCSORG
 10
0.0
 20
0.0
 30
0.0
  9
$PUCSXDIR
 10
1.0
 20
0.0
 30
0.0
  9
$PUCSYDIR
 10
0.0
 20
1.0
 30
0.0
  9
$PUCSORTHOREF
  2

  9
$PUCSORTHOVIEW
 70
     0
  9
$PUCSORGTOP
 10
0.0
 20
0.0
 30
0.0
  9
$PUCSORGBOTTOM
 10
0.0
 20
0.0
 30
0.0
  9
$PUCSORGLEFT
 10
0.0
 20
0.0
 30
0.0
  9
$PUCSORGRIGHT
 10
0.0
 20
0.0
 30
0.0
  9
$PUCSORGFRONT
 10
0.0
 20
0.0
 30
0.0
  9
$PUCSORGBACK
 10
0.0
 20
0.0
 30
0.0
  9
$USERI1
 70
     0
  9
$USERI2
 70
     0
  9
$USERI3
 70
     0
  9
$USERI4
 70
     0
  9
$USERI5
 70
     0
  9
$USERR1
 40
0.0
  9
$USERR2
 40
0.0
  9
$USERR3
 40
0.0
  9
$USERR4
 40
0.0
  9
$USERR5
 40
0.0
  9
$WORLDVIEW
 70
     1
  9
$SHADEDGE
 70
     3
  9
$SHADEDIF
 70
    70
  9
$TILEMODE
 70
     1
  9
$MAXACTVP
 70
    64
  9
$PINSBASE
 10
0.0
 20
0.0
 30
0.0
  9
$PLIMCHECK
 70
     0
  9
$PEXTMIN
 10
1.000000000000000E+20
 20
1.000000000000000E+20
 30
1.000000000000000E+20
  9
$PEXTMAX
 10
-1.000000000000000E+20
 20
-1.000000000000000E+20
 30
-1.000000000000000E+20
  9
$PLIMMIN
 10
0.0
 20
0.0
  9
$PLIMMAX
 10
420.0
 20
297.0
  9
$UNITMODE
 70
     0
  9
$VISRETAIN
 70
     1
  9
$PLINEGEN
 70
     0
  9
$PSLTSCALE
 70
     1
  9
$TREEDEPTH
 70
  3020
  9
$CMLSTYLE
  2
Standard
  9
$CMLJUST
 70
     0
  9
$CMLSCALE
 40
20.0
  9
$PROXYGRAPHICS
 70
     1
  9
$MEASUREMENT
 70
     1
  9
$CELWEIGHT
370
    -1
  9
$ENDCAPS
280
     0
  9
$JOINSTYLE
280
     0
  9
$LWDISPLAY
290
     0
  9
$INSUNITS
 70
     4
  9
$HYPERLINKBASE
  1

  9
$STYLESHEET
  1

  9
$XEDIT
290
     1
  9
$CEPSNTYPE
380
     0
  9
$PSTYLEMODE
290
     1
  9
$FINGERPRINTGUID
  2
{1485A96E-8655-481D-957D-A8FBD0C043AE}
  9
$VERSIONGUID
  2
{FAEB1C32-E019-11D5-929B-00C0DF256EC4}
  9
$EXTNAMES
290
     1
  9
$PSVPSCALE
 40
0.0
  9
$OLESTARTUP
290
     0
  9
$SORTENTS
280
   127
  9
$INDEXCTL
280
     0
  9
$HIDETEXT
280
     1
  9
$XCLIPFRAME
280
     2
  9
$HALOGAP
280
     0
  9
$OBSCOLOR
 70
   257
  9
$OBSLTYPE
280
     0
  9
$INTERSECTIONDISPLAY
280
     0
  9
$INTERSECTIONCOLOR
 70
   257
  9
$DIMASSOC
280
     2
  9
$PROJECTNAME
  1

  9
$CAMERADISPLAY
290
     0
  9
$LENSLENGTH
 40
50.0
  9
$CAMERAHEIGHT
 40
0.0
  9
$STEPSPERSEC
 40
2.0
  9
$STEPSIZE
 40
6.0
  9
$3DDWFPREC
 40
2.0
  9
$PSOLWIDTH
 40
5.0
  9
$PSOLHEIGHT
 40
80.0
  9
$LOFTANG1
 40
1.570796326794897
  9
$LOFTANG2
 40
1.570796326794897
  9
$LOFTMAG1
 40
0.0
  9
$LOFTMAG2
 40
0.0
  9
$LOFTPARAM
 70
     7
  9
$LOFTNORMALS
280
     1
  9
$LATITUDE
 40
37.795
  9
$LONGITUDE
 40
-122.394
  9
$NORTHDIRECTION
 40
0.0
  9
$TIMEZONE
 70
 -8000
  9
$LIGHTGLYPHDISPLAY
280
     1
  9
$TILEMODELIGHTSYNCH
280
     1
  9
$SOLIDHIST
280
     1
  9
$SHOWHIST
280
     1
  9
$DWFFRAME
280
     2
  9
$DGNFRAME
280
     2
  9
$REALWORLDSCALE
290
     1
  9
$INTERFERECOLOR
 62
   256
  9
$CSHADOW
280
     0
  9
$SHADOWPLANELOCATION
 40
0.0
  0
ENDSEC
  0
SECTION
  2
CLASSES
  0
CLASS
  1
ACDBDICTIONARYWDFLT
  2
AcDbDictionaryWithDefault
  3
ObjectDBX Classes
 90
        0
 91
        4
280
     0
281
     0
  0
CLASS
  1
VISUALSTYLE
  2
AcDbVisualStyle
  3
ObjectDBX Classes
 90
     4095
 91
        4
280
     0
281
     0
  0
CLASS
  1
MATERIAL
  2
AcDbMaterial
  3
ObjectDBX Classes
 90
     1153
 91
        4
280
     0
281
     0
  0
ENDSEC
  0
SECTION
  2
TABLES
  0
TABLE
  2
VPORT
  5
8
330
0
100
AcDbSymbolTable
 70
     1
  0
VPORT
  5
29
330
8
100
AcDbSymbolTableRecord
100
AcDbViewportTableRecord
  2
*Active
 70
     0
 10
0.0
 20
0.0
 11
1.0
 21
1.0
 12
0.0
 22
0.0
 13
0.0
 23
0.0
 14
10.0
 24
10.0
 15
10.0
 25
10.0
 16
0.0
 26
0.0
 36
1.0
 17
0.0
 27
0.0
 37
0.0
 40
9801.0
 41
1.414141414141414
 42
50.0
 43
0.0
 44
0.0
 50
0.0
 51
0.0
 71
     0
 72
 10000
 73
     1
 74
     3
 75
     0
 76
     0
 77
     0
 78
     0
281
     0
 65
     1
110
0.0
120
0.0
130
0.0
111
1.0
121
0.0
131
0.0
112
0.0
122
1.0
132
0.0
 79
     0
146
0.0
 60
     3
 61
     5
292
     1
282
     1
141
0.0
142
0.0
 63
   250
  0
ENDTAB
  0
TABLE
  2
LTYPE
  5
5
330
0
100
AcDbSymbolTable
 70
     5
  0
LTYPE
  5
14
330
5
100
AcDbSymbolTableRecord
100
AcDbLinetypeTableRecord
  2
ByBlock
 70
     0
  3

 72
    65
 73
     0
 40
0.0
  0
LTYPE
  5
15
330
5
100
AcDbSymbolTableRecord
100
AcDbLinetypeTableRecord
  2
ByLayer
 70
     0
  3

 72
    65
 73
     0
 40
0.0
  0
LTYPE
  5
16
330
5
100
AcDbSymbolTableRecord
100
AcDbLinetypeTableRecord
  2
Continuous
 70
     0
  3
Solid line
 72
    65
 73
     0
 40
0.0
  0
LTYPE
  5
3F
330
5
100
AcDbSymbolTableRecord
100
AcDbLinetypeTableRecord
  2
JWW_HOJO
 70
     0
  3
  -   -   -   -   -   -   -   - 
 72
    65
 73
     2
 40
1.693333333333333
 49
-1.27
 74
     0
 49
0.4233333333333333
 74
     0
  0
LTYPE
  5
40
330
5
100
AcDbSymbolTableRecord
100
AcDbLinetypeTableRecord
  2
JWW_DASHED2
 70
     0
  3
--    ----    ----    ----    --
 72
    65
 73
     2
 40
3.386666666666667
 49
1.693333333333333
 74
     0
 49
-1.693333333333333
 74
     0
  0
LTYPE
  5
41
330
5
100
AcDbSymbolTableRecord
100
AcDbLinetypeTableRecord
  2
JWW_DASHED1
 70
     0
  3
-  --  --  --  --  --  --  --  -
 72
    65
 73
     2
 40
1.693333333333333
 49
0.8466666666666667
 74
     0
 49
-0.8466666666666667
 74
     0
  0
LTYPE
  5
42
330
5
100
AcDbSymbolTableRecord
100
AcDbLinetypeTableRecord
  2
JWW_CENTER1
 70
     0
  3
-----  --  ----------  --  -----
 72
    65
 73
     4
 40
6.773333333333333
 49
4.233333333333333
 74
     0
 49
-0.8466666666666667
 74
     0
 49
0.8466666666666667
 74
     0
 49
-0.8466666666666667
 74
     0
  0
ENDTAB
  0
TABLE
  2
LAYER
  5
2
330
0
100
AcDbSymbolTable
 70
    27
  0
LAYER
  5
10
330
2
100
AcDbSymbolTableRecord
100
AcDbLayerTableRecord
  2
0
 70
     0
 62
     7
  6
Continuous
370
    -3
390
F
347
3E
  0
LAYER
  5
43
330
2
100
AcDbSymbolTableRecord
100
AcDbLayerTableRecord
  2
F-0_補助線
 70
     0
 62
     7
  6
Continuous
370
    -3
390
F
347
3E
  0
LAYER
  5
44
330
2
100
AcDbSymbolTableRecord
100
AcDbLayerTableRecord
  2
F-1_枠
 70
     0
 62
     7
  6
Continuous
370
    -3
390
F
347
3E
  0
LAYER
  5
45
330
2
100
AcDbSymbolTableRecord
100
AcDbLayerTableRecord
  2
F-A_文字
 70
     0
 62
     7
  6
Continuous
370
    -3
390
F
347
3E
  0
LAYER
  5
46
330
2
100
AcDbSymbolTableRecord
100
AcDbLayerTableRecord
  2
0-A_文字
 70
     0
 62
     7
  6
Continuous
370
    -3
390
F
347
3E
  0
LAYER
  5
47
330
2
100
AcDbSymbolTableRecord
100
AcDbLayerTableRecord
  2
戸当り
 70
     0
 62
     7
  6
Continuous
370
    -3
390
F
347
3E
  0
LAYER
  5
48
330
2
100
AcDbSymbolTableRecord
100
AcDbLayerTableRecord
  2
0-0_補助線
 70
     0
 62
     7
  6
Continuous
370
    -3
390
F
347
3E
  0
LAYER
  5
49
330
2
100
AcDbSymbolTableRecord
100
AcDbLayerTableRecord
  2
0-3_仕上げ
 70
     0
 62
     7
  6
Continuous
370
    -3
390
F
347
3E
  0
LAYER
  5
4A
330
2
100
AcDbSymbolTableRecord
100
AcDbLayerTableRecord
  2
0-7_金物
 70
     0
 62
     7
  6
Continuous
370
    -3
390
F
347
3E
  0
LAYER
  5
4B
330
2
100
AcDbSymbolTableRecord
100
AcDbLayerTableRecord
  2
0-4_枠
 70
     0
 62
     7
  6
Continuous
370
    -3
390
F
347
3E
  0
LAYER
  5
4C
330
2
100
AcDbSymbolTableRecord
100
AcDbLayerTableRecord
  2
0-B_寸法
 70
     0
 62
     7
  6
Continuous
370
    -3
390
F
347
3E
  0
LAYER
  5
4D
330
2
100
AcDbSymbolTableRecord
100
AcDbLayerTableRecord
  2
0-C_ハッチ
 70
     0
 62
     7
  6
Continuous
370
    -3
390
F
347
3E
  0
LAYER
  5
4E
330
2
100
AcDbSymbolTableRecord
100
AcDbLayerTableRecord
  2
2-A_文字
 70
     0
 62
     7
  6
Continuous
370
    -3
390
F
347
3E
  0
LAYER
  5
4F
330
2
100
AcDbSymbolTableRecord
100
AcDbLayerTableRecord
  2
2-4_枠
 70
     0
 62
     7
  6
Continuous
370
    -3
390
F
347
3E
  0
LAYER
  5
50
330
2
100
AcDbSymbolTableRecord
100
AcDbLayerTableRecord
  2
2-B_寸法
 70
     0
 62
     7
  6
Continuous
370
    -3
390
F
347
3E
  0
LAYER
  5
51
330
2
100
AcDbSymbolTableRecord
100
AcDbLayerTableRecord
  2
2-C_ﾊｯﾁ
 70
     0
 62
     7
  6
Continuous
370
    -3
390
F
347
3E
  0
LAYER
  5
52
330
2
100
AcDbSymbolTableRecord
100
AcDbLayerTableRecord
  2
2-0_補助線
 70
     0
 62
     7
  6
Continuous
370
    -3
390
F
347
3E
  0
LAYER
  5
53
330
2
100
AcDbSymbolTableRecord
100
AcDbLayerTableRecord
  2
2-1_通り芯
 70
     0
 62
     7
  6
Continuous
370
    -3
390
F
347
3E
  0
LAYER
  5
54
330
2
100
AcDbSymbolTableRecord
100
AcDbLayerTableRecord
  2
2-6_扉
 70
     0
 62
     7
  6
Continuous
370
    -3
390
F
347
3E
  0
LAYER
  5
55
330
2
100
AcDbSymbolTableRecord
100
AcDbLayerTableRecord
  2
1-A_文字
 70
     0
 62
     7
  6
Continuous
370
    -3
390
F
347
3E
  0
LAYER
  5
56
330
2
100
AcDbSymbolTableRecord
100
AcDbLayerTableRecord
  2
1-3_仕上げ
 70
     0
 62
     7
  6
Continuous
370
    -3
390
F
347
3E
  0
LAYER
  5
57
330
2
100
AcDbSymbolTableRecord
100
AcDbLayerTableRecord
  2
1-0_補助線
 70
     0
 62
     7
  6
Continuous
370
    -3
390
F
347
3E
  0
LAYER
  5
58
330
2
100
AcDbSymbolTableRecord
100
AcDbLayerTableRecord
  2
1-B_寸法
 70
     0
 62
     7
  6
Continuous
370
    -3
390
F
347
3E
  0
LAYER
  5
59
330
2
100
AcDbSymbolTableRecord
100
AcDbLayerTableRecord
  2
1-C_ハッチ
 70
     0
 62
     7
  6
Continuous
370
    -3
390
F
347
3E
  0
LAYER
  5
5A
330
2
100
AcDbSymbolTableRecord
100
AcDbLayerTableRecord
  2
1-7_金物
 70
     0
 62
     7
  6
Continuous
370
    -3
390
F
347
3E
  0
LAYER
  5
5B
330
2
100
AcDbSymbolTableRecord
100
AcDbLayerTableRecord
  2
0-1_通り芯
 70
     0
 62
     7
  6
Continuous
370
    -3
390
F
347
3E
  0
LAYER
  5
5C
330
2
100
AcDbSymbolTableRecord
100
AcDbLayerTableRecord
  2
0-6_扉
 70
     0
 62
     7
  6
Continuous
370
    -3
390
F
347
3E
  0
ENDTAB
  0
TABLE
  2
STYLE
  5
3
330
0
100
AcDbSymbolTable
 70
     1
  0
STYLE
  5
11
330
3
100
AcDbSymbolTableRecord
100
AcDbTextStyleTableRecord
  2
Standard
 70
     0
 40
0.0
 41
1.0
 50
0.0
 71
     0
 42
2.5
  3
txt
  4

  0
ENDTAB
  0
TABLE
  2
VIEW
  5
6
330
0
100
AcDbSymbolTable
 70
     0
  0
ENDTAB
  0
TABLE
  2
UCS
  5
7
330
0
100
AcDbSymbolTable
 70
     0
  0
ENDTAB
  0
TABLE
  2
APPID
  5
9
330
0
100
AcDbSymbolTable
 70
     1
  0
APPID
  5
12
330
9
100
AcDbSymbolTableRecord
100
AcDbRegAppTableRecord
  2
ACAD
 70
     0
  0
ENDTAB
  0
TABLE
  2
DIMSTYLE
  5
A
330
0
100
AcDbSymbolTable
 70
     1
100
AcDbDimStyleTable
  0
DIMSTYLE
105
27
330
A
100
AcDbSymbolTableRecord
100
AcDbDimStyleTableRecord
  2
ISO-25
 70
     0
 41
2.5
 42
0.625
 43
3.75
 44
1.25
 73
     0
 74
     0
 77
     1
 78
     8
140
2.5
141
2.5
143
0.03937007874016
147
0.625
171
     3
172
     1
178
     0
271
     2
272
     2
274
     3
278
    44
283
     0
284
     8
340
11
  0
ENDTAB
  0
TABLE
  2
BLOCK_RECORD
  5
1
330
0
100
AcDbSymbolTable
 70
     1
  0
BLOCK_RECORD
  5
1F
330
1
100
AcDbSymbolTableRecord
100
AcDbBlockTableRecord
  2
*Model_Space
340
22
 70
     0
280
     1
281
     0
  0
BLOCK_RECORD
  5
1B
330
1
100
AcDbSymbolTableRecord
100
AcDbBlockTableRecord
  2
*Paper_Space
340
1E
 70
     0
280
     1
281
     0
  0
BLOCK_RECORD
  5
23
330
1
100
AcDbSymbolTableRecord
100
AcDbBlockTableRecord
  2
*Paper_Space0
340
26
 70
     0
280
     1
281
     0
  0
ENDTAB
  0
ENDSEC
  0
SECTION
  2
BLOCKS
  0
BLOCK
  5
20
330
1F
100
AcDbEntity
  8
0
100
AcDbBlockBegin
  2
*Model_Space
 70
     0
 10
0.0
 20
0.0
 30
0.0
  3
*Model_Space
  1

  0
ENDBLK
  5
21
330
1F
100
AcDbEntity
  8
0
100
AcDbBlockEnd
  0
BLOCK
  5
1C
330
1B
100
AcDbEntity
 67
     1
  8
0
100
AcDbBlockBegin
  2
*Paper_Space
 70
     0
 10
0.0
 20
0.0
 30
0.0
  3
*Paper_Space
  1

  0
ENDBLK
  5
1D
330
1B
100
AcDbEntity
 67
     1
  8
0
100
AcDbBlockEnd
  0
BLOCK
  5
24
330
23
100
AcDbEntity
  8
0
100
AcDbBlockBegin
  2
*Paper_Space0
 70
     0
 10
0.0
 20
0.0
 30
0.0
  3
*Paper_Space0
  1

  0
ENDBLK
  5
25
330
23
100
AcDbEntity
  8
0
100
AcDbBlockEnd
  0
ENDSEC
  0
SECTION
  2
ENTITIES
  0
LINE
  5
5D
330
1F
100
AcDbEntity
  8
F-0_補助線
  6
JWW_HOJO
 62
   120
370
     5
100
AcDbLine
 10
-6140.081333436773
 20
-4455.0
 30
0.0
 11
-6140.081333436773
 21
4424.999604096284
 31
0.0
  0
LINE
  5
5E
330
1F
100
AcDbEntity
  8
F-0_補助線
  6
JWW_HOJO
 62
   120
370
     5
100
AcDbLine
 10
-6140.081333436773
 20
4424.999604096284
 30
0.0
 11
6159.917676803936
 21
4424.999604096284
 31
0.0
  0
LINE
  5
5F
330
1F
100
AcDbEntity
  8
F-0_補助線
  6
JWW_HOJO
 62
   120
370
     5
100
AcDbLine
 10
6159.917676803936
 20
4424.999604096284
 30
0.0
 11
6159.917676803936
 21
-4455.0
 31
0.0
  0
LINE
  5
60
330
1F
100
AcDbEntity
  8
F-0_補助線
  6
JWW_HOJO
 62
   120
370
     5
100
AcDbLine
 10
6159.917676803936
 20
-4455.0
 30
0.0
 11
-6140.081333436773
 21
-4455.0
 31
0.0
  0
LINE
  5
61
330
1F
100
AcDbEntity
  8
F-0_補助線
  6
JWW_HOJO
 62
     7
370
     5
100
AcDbLine
 10
1009.918254163524
 20
-3795.000003092998
 30
0.0
 11
1009.918254163524
 21
-4195.000008247994
 31
0.0
  0
LINE
  5
62
330
1F
100
AcDbEntity
  8
F-0_補助線
  6
JWW_HOJO
 62
     7
370
     5
100
AcDbLine
 10
509.9185840832865
 20
-3795.000003092998
 30
0.0
 11
509.9185840832865
 21
-4195.000008247994
 31
0.0
  0
LINE
  5
63
330
1F
100
AcDbEntity
  8
F-1_枠
  6
Continuous
 62
   200
370
     5
100
AcDbLine
 10
5859.917429364118
 20
4174.999769056166
 30
0.0
 11
5859.917429364118
 21
-4205.000164959882
 31
0.0
  0
LINE
  5
64
330
1F
100
AcDbEntity
  8
F-1_枠
  6
Continuous
 62
   200
370
     5
100
AcDbLine
 10
-5840.081317971782
 20
4174.999769056166
 30
0.0
 11
-5840.081317971782
 21
-4205.000164959882
 31
0.0
  0
LINE
  5
65
330
1F
100
AcDbEntity
  8
F-1_枠
  6
Continuous
 62
   200
370
     5
100
AcDbLine
 10
5859.917429364118
 20
-4205.000002577499
 30
0.0
 11
-5840.081085996952
 21
-4205.000002577499
 31
0.0
  0
LINE
  5
66
330
1F
100
AcDbEntity
  8
F-1_枠
  6
Continuous
 62
   200
370
     5
100
AcDbLine
 10
-5830.081323642278
 20
4174.999769056166
 30
0.0
 11
-5830.081323642278
 21
-4205.000164959882
 31
0.0
  0
LINE
  5
67
330
1F
100
AcDbEntity
  8
F-1_枠
  6
Continuous
 62
   200
370
     5
100
AcDbLine
 10
-5835.081309208292
 20
4174.999769056166
 30
0.0
 11
-5835.081309208292
 21
-4205.000164959882
 31
0.0
  0
LINE
  5
68
330
1F
100
AcDbEntity
  8
F-1_枠
  6
Continuous
 62
   200
370
     5
100
AcDbLine
 10
5854.917165428305
 20
4174.999769056166
 30
0.0
 11
5854.917165428305
 21
-4205.000164959882
 31
0.0
  0
LINE
  5
69
330
1F
100
AcDbEntity
  8
F-1_枠
  6
Continuous
 62
   200
370
     5
100
AcDbLine
 10
5849.917643811961
 20
4174.999769056166
 30
0.0
 11
5849.917643811961
 21
-4205.000164959882
 31
0.0
  0
LINE
  5
6A
330
1F
100
AcDbEntity
  8
F-1_枠
  6
Continuous
 62
   200
370
     5
100
AcDbLine
 10
5859.917429364118
 20
-4199.999993814004
 30
0.0
 11
-5840.081085996952
 21
-4199.999993814004
 31
0.0
  0
LINE
  5
6B
330
1F
100
AcDbEntity
  8
F-1_枠
  6
Continuous
 62
   200
370
     5
100
AcDbLine
 10
5859.917429364118
 20
-4195.000008247994
 30
0.0
 11
-5840.081085996952
 21
-4195.000008247994
 31
0.0
  0
LINE
  5
6C
330
1F
100
AcDbEntity
  8
F-1_枠
  6
Continuous
 62
   200
370
     5
100
AcDbLine
 10
4349.917891251784
 20
-3795.000003092998
 30
0.0
 11
4349.917891251784
 21
-4195.000008247994
 31
0.0
  0
LINE
  5
6D
330
1F
100
AcDbEntity
  8
F-1_枠
  6
Continuous
 62
   200
370
     5
100
AcDbLine
 10
2849.91739637214
 20
-3795.000003092998
 30
0.0
 11
2849.91739637214
 21
-4195.000008247994
 31
0.0
  0
LINE
  5
6E
330
1F
100
AcDbEntity
  8
F-1_枠
  6
Continuous
 62
   200
370
     5
100
AcDbLine
 10
9.918542843317937
 20
-3795.000003092998
 30
0.0
 11
9.918542843317937
 21
-4195.000008247994
 31
0.0
  0
LINE
  5
6F
330
1F
100
AcDbEntity
  8
F-1_枠
  6
Continuous
 62
   200
370
     5
100
AcDbLine
 10
9.918542843317937
 20
-3994.999936078045
 30
0.0
 11
5849.917643811961
 21
-3995.005364289155
 31
0.0
  0
LINE
  5
70
330
1F
100
AcDbEntity
  8
F-1_枠
  6
Continuous
 62
   200
370
     5
100
AcDbLine
 10
-5840.081085996952
 20
4174.999769056166
 30
0.0
 11
5859.917429364118
 21
4174.999769056166
 31
0.0
  0
LINE
  5
71
330
1F
100
AcDbEntity
  8
F-1_枠
  6
Continuous
 62
   200
370
     5
100
AcDbLine
 10
-5840.081085996952
 20
4164.999983504013
 30
0.0
 11
5859.917429364118
 21
4164.999983504013
 31
0.0
  0
LINE
  5
72
330
1F
100
AcDbEntity
  8
F-1_枠
  6
Continuous
 62
   200
370
     5
100
AcDbLine
 10
-5840.081085996952
 20
4169.999505120355
 30
0.0
 11
5859.917429364118
 21
4169.999505120355
 31
0.0
  0
LINE
  5
73
330
1F
100
AcDbEntity
  8
F-0_補助線
  6
JWW_HOJO
 62
     7
370
     5
100
AcDbLine
 10
-5830.081323642278
 20
-3994.99993607839
 30
0.0
 11
9.918542843317937
 21
-3994.99993607839
 31
0.0
  0
LINE
  5
74
330
1F
100
AcDbEntity
  8
F-0_補助線
  6
JWW_HOJO
 62
     7
370
     5
100
AcDbLine
 10
-5830.081323642278
 20
-3904.99993607839
 30
0.0
 11
9.918542843317937
 21
-3904.99993607839
 31
0.0
  0
LINE
  5
75
330
1F
100
AcDbEntity
  8
F-0_補助線
  6
JWW_HOJO
 62
     7
370
     5
100
AcDbLine
 10
-5830.081323642278
 20
-4084.99993607839
 30
0.0
 11
9.918542843317937
 21
-4084.99993607839
 31
0.0
  0
LINE
  5
76
330
1F
100
AcDbEntity
  8
F-0_補助線
  6
JWW_HOJO
 62
     7
370
     5
100
AcDbLine
 10
9.918408067690052
 20
-4139.999739777984
 30
0.0
 11
5849.917509036333
 21
-4140.005167989091
 31
0.0
  0
LINE
  5
77
330
1F
100
AcDbEntity
  8
F-0_補助線
  6
JWW_HOJO
 62
     7
370
     5
100
AcDbLine
 10
9.918491721641658
 20
-4049.999739778022
 30
0.0
 11
5849.917592690285
 21
-4050.005167989132
 31
0.0
  0
LINE
  5
78
330
1F
100
AcDbEntity
  8
F-0_補助線
  6
JWW_HOJO
 62
     7
370
     5
100
AcDbLine
 10
9.91859396535915
 20
-3939.99973721807
 30
0.0
 11
5849.917694934006
 21
-3940.005165429179
 31
0.0
  0
LINE
  5
79
330
1F
100
AcDbEntity
  8
F-0_補助線
  6
JWW_HOJO
 62
     7
370
     5
100
AcDbLine
 10
9.918677619310756
 20
-3849.999737218109
 30
0.0
 11
5849.917778587951
 21
-3850.005165429218
 31
0.0
  0
LINE
  5
7A
330
1F
100
AcDbEntity
  8
F-0_補助線
  6
JWW_HOJO
 62
     7
370
     5
100
AcDbLine
 10
2939.91739637214
 20
-3795.000003092998
 30
0.0
 11
2939.91739637214
 21
-4195.000008247994
 31
0.0
  0
LINE
  5
7B
330
1F
100
AcDbEntity
  8
F-0_補助線
  6
JWW_HOJO
 62
     7
370
     5
100
AcDbLine
 10
99.91854284331794
 20
-3795.000003092998
 30
0.0
 11
99.91854284331794
 21
-4195.000008247994
 31
0.0
  0
LINE
  5
7C
330
1F
100
AcDbEntity
  8
F-0_補助線
  6
JWW_HOJO
 62
     7
370
     5
100
AcDbLine
 10
4439.917891251784
 20
-3795.000003092998
 30
0.0
 11
4439.917891251784
 21
-4195.000008247994
 31
0.0
  0
LINE
  5
7D
330
1F
100
AcDbEntity
  8
F-1_枠
  6
Continuous
 62
   200
370
     5
100
AcDbLine
 10
5859.917429364118
 20
-3795.000003092998
 30
0.0
 11
-5840.081085996952
 21
-3795.000003092998
 31
0.0
  0
LINE
  5
7E
330
1F
100
AcDbEntity
  8
F-1_枠
  6
Continuous
 62
   200
370
     5
100
AcDbLine
 10
5859.917429364118
 20
-3790.000017526988
 30
0.0
 11
-5840.081085996952
 21
-3790.000017526988
 31
0.0
  0
LINE
  5
7F
330
1F
100
AcDbEntity
  8
F-0_補助線
  6
JWW_HOJO
 62
     7
370
     5
100
AcDbLine
 10
-5087.628710189612
 20
-3795.000003093
 30
0.0
 11
-5087.628710189612
 21
-4205.000164959882
 31
0.0
  0
LINE
  5
80
330
1F
100
AcDbEntity
  8
F-0_補助線
  6
JWW_HOJO
 62
     7
370
     5
100
AcDbLine
 10
-50.08145715668206
 20
-3795.000003092998
 30
0.0
 11
-50.08145715668206
 21
-4195.000008247994
 31
0.0
  0
MTEXT
  5
81
330
1F
100
AcDbEntity
  8
F-0_補助線
  6
Continuous
 62
     7
370
     0
100
AcDbMText
 10
509.9185840832865
 20
-3950.199002252998
 30
0.0
 40
71.17657923900997
 41
525.0
 46
0.0
 71
     7
 72
     1
  1
{\fHGP明朝B|b1|i0|c128|p18;ＳＯＦＴＡＲＴ}
 73
     1
 44
1.0
  0
MTEXT
  5
82
330
1F
100
AcDbEntity
  8
F-0_補助線
  6
Continuous
 62
     7
370
     0
100
AcDbMText
 10
1110.209427605312
 20
-3946.734791872503
 30
0.0
 40
78.105
 41
615.0
 46
0.0
 71
     7
 72
     1
  1
{\fＭＳ ゴシック|b0|i0|c128|p49;建具納まり図}
 73
     1
 44
1.0
  0
MTEXT
  5
83
330
1F
100
AcDbEntity
  8
F-A_文字
  6
Continuous
 62
     7
370
     0
100
AcDbMText
 10
99.91854284331794
 20
-3887.139820871936
 30
0.0
 40
45.72
 41
180.0
 46
0.0
 71
     7
 72
     1
  1
{\fＭＳ ゴシック|b0|i0|c128|p49;図面名}
 73
     1
 44
1.0
  0
MTEXT
  5
84
330
1F
100
AcDbEntity
  8
F-A_文字
  6
Continuous
 62
     7
370
     0
100
AcDbMText
 10
2939.91739637214
 20
-3887.142460617775
 30
0.0
 40
45.72
 41
300.0
 46
0.0
 71
     7
 72
     1
  1
{\fＭＳ ゴシック|b0|i0|c128|p49;ＳＣＡＬＥ}
 73
     1
 44
1.0
  0
MTEXT
  5
85
330
1F
100
AcDbEntity
  8
F-A_文字
  6
Continuous
 62
     7
370
     0
100
AcDbMText
 10
4439.917891251784
 20
-3887.143854850754
 30
0.0
 40
45.72
 41
240.0
 46
0.0
 71
     7
 72
     1
  1
{\fＭＳ ゴシック|b0|i0|c128|p49;ＤＡＴＥ}
 73
     1
 44
1.0
  0
MTEXT
  5
86
330
1F
100
AcDbEntity
  8
F-A_文字
  6
Continuous
 62
     7
370
     0
100
AcDbMText
 10
4938.667793092893
 20
-3938.213885139966
 30
0.0
 40
78.58125
 41
412.5
 46
0.0
 71
     7
 72
     1
  1
{\fＭＳ ゴシック|b0|i0|c128|p49;13.02.12}
 73
     1
 44
1.0
  0
MTEXT
  5
87
330
1F
100
AcDbEntity
  8
F-A_文字
  6
Continuous
 62
     7
370
     0
100
AcDbMText
 10
2939.91739637214
 20
-4087.142463177859
 30
0.0
 40
45.72
 41
240.0
 46
0.0
 71
     7
 72
     1
  1
{\fＭＳ ゴシック|b0|i0|c128|p49;ＦＩＬＥ}
 73
     1
 44
1.0
  0
MTEXT
  5
88
330
1F
100
AcDbEntity
  8
F-A_文字
  6
Continuous
 62
     7
370
     0
100
AcDbMText
 10
4439.917891251784
 20
-4087.143857410839
 30
0.0
 40
45.72
 41
180.0
 46
0.0
 71
     7
 72
     1
  1
{\fＭＳ ゴシック|b0|i0|c128|p49;ＮＯ．}
 73
     1
 44
1.0
  0
MTEXT
  5
89
330
1F
100
AcDbEntity
  8
F-A_文字
  6
Continuous
 62
     7
370
     0
100
AcDbMText
 10
1394.917396372136
 20
-4096.140669266148
 30
0.0
 40
45.72
 41
120.0
 46
0.0
 71
     7
 72
     1
  1
{\fＭＳ ゴシック|b0|i0|c128|p49;株式}
 73
     1
 44
1.0
  0
MTEXT
  5
8A
330
1F
100
AcDbEntity
  8
F-A_文字
  6
Continuous
 62
     7
370
     0
100
AcDbMText
 10
1604.917396372136
 20
-4164.281754523929
 30
0.0
 40
101.44125
 41
1065.0
 46
0.0
 71
     7
 72
     1
  1
{\fＭＳ ゴシック|b0|i0|c128|p49;ウッドワン・・・}
 73
     1
 44
1.0
  0
MTEXT
  5
8B
330
1F
100
AcDbEntity
  8
F-A_文字
  6
Continuous
 62
     7
370
     0
100
AcDbMText
 10
1394.917396372136
 20
-4168.140669266188
 30
0.0
 40
45.72
 41
120.0
 46
0.0
 71
     7
 72
     1
  1
{\fＭＳ ゴシック|b0|i0|c128|p49;会社}
 73
     1
 44
1.0
  0
MTEXT
  5
8C
330
1F
100
AcDbEntity
  8
F-A_文字
  6
Continuous
 62
     7
370
     0
100
AcDbMText
 10
5768.321977672936
 20
-4314.841419020918
 30
0.0
 40
68.58
 41
90.0
 46
0.0
 71
     7
 72
     1
  1
{\fＭＳ ゴシック|b0|i0|c128|p49;）}
 73
     1
 44
1.0
  0
MTEXT
  5
8D
330
1F
100
AcDbEntity
  8
F-A_文字
  6
Continuous
 62
     7
370
     0
100
AcDbMText
 10
5350.114617405298
 20
-4316.235443869857
 30
0.0
 40
68.58
 41
45.0
 46
0.0
 71
     7
 72
     1
  1
{\fＭＳ ゴシック|b0|i0|c128|p49;,}
 73
     1
 44
1.0
  0
MTEXT
  5
8E
330
1F
100
AcDbEntity
  8
F-A_文字
  6
Continuous
 62
     7
370
     0
100
AcDbMText
 10
5083.855928478601
 20
-4314.771967288282
 30
0.0
 40
74.295
 41
97.5
 46
0.0
 71
     7
 72
     1
  1
{\fＭＳ ゴシック|b0|i0|c128|p49;$y}
 73
     1
 44
1.0
  0
MTEXT
  5
8F
330
1F
100
AcDbEntity
  8
F-A_文字
  6
Continuous
 62
     7
370
     0
100
AcDbMText
 10
5238.592649517422
 20
-4314.771967288282
 30
0.0
 40
74.295
 41
97.5
 46
0.0
 71
     7
 72
     1
  1
{\fＭＳ ゴシック|b0|i0|c128|p49;$m}
 73
     1
 44
1.0
  0
MTEXT
  5
90
330
1F
100
AcDbEntity
  8
F-A_文字
  6
Continuous
 62
     7
370
     0
100
AcDbMText
 10
5393.32938200033
 20
-4314.771967288282
 30
0.0
 40
74.295
 41
97.5
 46
0.0
 71
     7
 72
     1
  1
{\fＭＳ ゴシック|b0|i0|c128|p49;$d}
 73
     1
 44
1.0
  0
MTEXT
  5
91
330
1F
100
AcDbEntity
  8
F-A_文字
  6
Continuous
 62
     7
370
     0
100
AcDbMText
 10
5548.066114483236
 20
-4314.771967288282
 30
0.0
 40
74.295
 41
195.0
 46
0.0
 71
     7
 72
     1
  1
{\fＭＳ ゴシック|b0|i0|c128|p49;印刷}
 73
     1
 44
1.0
  0
MTEXT
  5
92
330
1F
100
AcDbEntity
  8
F-A_文字
  6
Continuous
 62
     7
370
     0
100
AcDbMText
 10
4943.952040816226
 20
-4319.023493567732
 30
0.0
 40
68.58
 41
90.0
 46
0.0
 71
     7
 72
     1
  1
{\fＭＳ ゴシック|b0|i0|c128|p49;（}
 73
     1
 44
1.0
  0
MTEXT
  5
93
330
1F
100
AcDbEntity
  8
F-A_文字
  6
Continuous
 62
     7
370
     0
100
AcDbMText
 10
5191.195810375571
 20
-4319.023493567732
 30
0.0
 40
68.58
 41
45.0
 46
0.0
 71
     7
 72
     1
  1
{\fＭＳ ゴシック|b0|i0|c128|p49;,}
 73
     1
 44
1.0
  0
MTEXT
  5
94
330
1F
100
AcDbEntity
  8
F-A_文字
  6
Continuous
 62
     7
370
     5
100
AcDbMText
 10
5096.167700144057
 20
-4147.857012699984
 30
0.0
 40
74.295
 41
97.5
 46
0.0
 71
     7
 72
     1
  1
{\fＭＳ ゴシック|b0|i0|c128|p49;03}
 73
     1
 44
1.0
  0
MTEXT
  5
95
330
1F
100
AcDbEntity
  8
F-A_文字
  6
Continuous
 62
     7
370
     0
100
AcDbMText
 10
-5080.081323642278
 20
-4045.060625733562
 30
0.0
 40
79.87862068965512
 41
4560.0
 46
0.0
 71
     7
 72
     1
  1
{\fＭＳ ゴシック|b0|i0|c128|p49;ソフトアート　クローゼットドア  固定枠　３方枠＋埋め込みレール　ドアＨ７尺  枠外Ｗ1,635}
 73
     1
 44
1.0
  0
LINE
  5
96
330
1F
100
AcDbEntity
  8
0-A_文字
  6
Continuous
 62
    92
370
     5
100
AcDbLine
 10
-5659.999495325865
 20
3730.00018145587
 30
0.0
 11
-5659.999495325865
 21
4000.00018145587
 31
0.0
  0
LINE
  5
97
330
1F
100
AcDbEntity
  8
0-A_文字
  6
Continuous
 62
    92
370
     5
100
AcDbLine
 10
-5659.999495325865
 20
3730.00018145587
 30
0.0
 11
-2899.999495325865
 21
3730.00018145587
 31
0.0
  0
LINE
  5
98
330
1F
100
AcDbEntity
  8
0-A_文字
  6
Continuous
 62
    92
370
     5
100
AcDbLine
 10
-5659.999495325865
 20
4000.00018145587
 30
0.0
 11
-2899.999495325865
 21
4000.00018145587
 31
0.0
  0
LINE
  5
99
330
1F
100
AcDbEntity
  8
0-A_文字
  6
Continuous
 62
    92
370
     5
100
AcDbLine
 10
-2899.999495325865
 20
3730.00018145587
 30
0.0
 11
-2899.999495325865
 21
4000.00018145587
 31
0.0
  0
ELLIPSE
  5
9A
330
1F
100
AcDbEntity
  8
戸当り
  6
Continuous
 62
    92
370
     5
100
AcDbEllipse
 10
4855.430917458078
 20
2876.053590301512
 30
0.0
 11
11.36181697857171
 21
42.40287823032828
 31
0.0
210
0.0
220
0.0
230
0.9999999999999999
 40
0.6
 41
1.570796326794897
 42
4.71238898038469
  0
LINE
  5
9B
330
1F
100
AcDbEntity
  8
戸当り
  6
Continuous
 62
    92
370
     5
100
AcDbLine
 10
4880.872644396272
 20
2869.236500114368
 30
0.0
 11
4829.989190519878
 21
2882.870680488653
 31
0.0
  0
LINE
  5
9C
330
1F
100
AcDbEntity
  8
戸当り
  6
Continuous
 62
    92
370
     5
100
AcDbLine
 10
4884.133764364564
 20
2881.40716552561
 30
0.0
 11
4833.25031048817
 21
2895.041345899896
 31
0.0
  0
ELLIPSE
  5
9D
330
1F
100
AcDbEntity
  8
戸当り
  6
Continuous
 62
    92
370
     5
100
AcDbEllipse
 10
4879.604310755758
 20
2966.269922279796
 30
0.0
 11
21.86569797210526
 21
81.6038957748525
 31
0.0
210
0.0
220
0.0
230
1.0
 40
0.5
 41
4.340591432030095
 42
8.225779182329084
  0
ELLIPSE
  5
9E
330
1F
100
AcDbEntity
  8
戸当り
  6
Continuous
 62
    92
370
     5
100
AcDbEllipse
 10
4878.978687882654
 20
2963.935065931004
 30
0.0
 11
26.49533313827761
 21
98.88192943551533
 31
0.0
210
0.0
220
0.0
230
0.9999999999999999
 40
0.4
 41
3.840308517104466
 42
4.432552034522944
  0
ELLIPSE
  5
9F
330
1F
100
AcDbEntity
  8
戸当り
  6
Continuous
 62
    92
370
     5
100
AcDbEllipse
 10
4878.978687882654
 20
2963.935065931004
 30
0.0
 11
26.49533313827761
 21
98.88192943551533
 31
0.0
210
0.0
220
0.0
230
0.9999999999999999
 40
0.4
 41
1.850633272656679
 42
2.442876790075129
  0
ELLIPSE
  5
A0
330
1F
100
AcDbEntity
  8
戸当り
  6
Continuous
 62
    92
370
     5
100
AcDbEllipse
 10
4740.316707711373
 20
2838.28484693721
 30
0.0
 11
-7.622927487939132
 21
43.23177007461331
 31
0.0
210
0.0
220
0.0
230
1.0
 40
0.6000000000000001
 41
1.570796326794897
 42
4.71238898038469
  0
LINE
  5
A1
330
1F
100
AcDbEntity
  8
戸当り
  6
Continuous
 62
    92
370
     5
100
AcDbLine
 10
4766.255769756144
 20
2842.858603429974
 30
0.0
 11
4714.377645666606
 21
2833.711090444447
 31
0.0
  0
LINE
  5
A2
330
1F
100
AcDbEntity
  8
戸当り
  6
Continuous
 62
    92
370
     5
100
AcDbLine
 10
4764.067802717541
 20
2855.267181117928
 30
0.0
 11
4712.189678628002
 21
2846.1196681324
 31
0.0
  0
ELLIPSE
  5
A3
330
1F
100
AcDbEntity
  8
戸当り
  6
Continuous
 62
    92
370
     5
100
AcDbEllipse
 10
4724.098172894875
 20
2930.264728582853
 30
0.0
 11
-14.67024424252691
 21
83.19908946199426
 31
0.0
210
0.0
220
0.0
230
1.0
 40
0.5
 41
4.340591432030095
 42
8.225779182329084
  0
ELLIPSE
  5
A4
330
1F
100
AcDbEntity
  8
戸当り
  6
Continuous
 62
    92
370
     5
100
AcDbEllipse
 10
4724.517918944779
 20
2927.884230441197
 30
0.0
 11
-17.7763823922528
 21
100.8148742797557
 31
0.0
210
0.0
220
0.0
230
1.0
 40
0.4000000000000001
 41
3.840308517104466
 42
4.432552034522944
  0
ELLIPSE
  5
A5
330
1F
100
AcDbEntity
  8
戸当り
  6
Continuous
 62
    92
370
     5
100
AcDbEllipse
 10
4724.517918944779
 20
2927.884230441197
 30
0.0
 11
-17.7763823922528
 21
100.8148742797557
 31
0.0
210
0.0
220
0.0
230
1.0
 40
0.4000000000000001
 41
1.850633272656679
 42
2.442876790075129
  0
LINE
  5
A6
330
1F
100
AcDbEntity
  8
0-A_文字
  6
Continuous
 62
    92
370
     5
100
AcDbLine
 10
5369.917643811961
 20
3684.999983504013
 30
0.0
 11
5369.917643811961
 21
2718.999983504013
 31
0.0
  0
LINE
  5
A7
330
1F
100
AcDbEntity
  8
0-A_文字
  6
Continuous
 62
    92
370
     5
100
AcDbLine
 10
5369.917643811961
 20
2718.999983504013
 30
0.0
 11
4229.917643811961
 21
2718.999983504013
 31
0.0
  0
LINE
  5
A8
330
1F
100
AcDbEntity
  8
0-A_文字
  6
Continuous
 62
    92
370
     5
100
AcDbLine
 10
4229.917643811961
 20
3684.999983504013
 30
0.0
 11
4229.917643811961
 21
2718.999983504013
 31
0.0
  0
LINE
  5
A9
330
1F
100
AcDbEntity
  8
0-0_補助線
  6
JWW_HOJO
 62
   120
370
     5
100
AcDbLine
 10
5339.917643811961
 20
3684.999983504013
 30
0.0
 11
5339.917643811961
 21
2718.999983504013
 31
0.0
  0
LINE
  5
AA
330
1F
100
AcDbEntity
  8
0-0_補助線
  6
JWW_HOJO
 62
   120
370
     5
100
AcDbLine
 10
4259.917643811961
 20
3684.999983504013
 30
0.0
 11
4259.917643811961
 21
2718.999983504013
 31
0.0
  0
LINE
  5
AB
330
1F
100
AcDbEntity
  8
0-0_補助線
  6
JWW_HOJO
 62
   120
370
     5
100
AcDbLine
 10
4799.917643811961
 20
3684.999983504013
 30
0.0
 11
4799.917643811961
 21
2718.999983504013
 31
0.0
  0
CIRCLE
  5
AC
330
1F
100
AcDbEntity
  8
0-0_補助線
  6
JWW_HOJO
 62
   120
370
     5
100
AcDbCircle
 10
5159.917643811961
 20
3385.504011182749
 30
0.0
 40
240.0
  0
CIRCLE
  5
AD
330
1F
100
AcDbEntity
  8
0-0_補助線
  6
JWW_HOJO
 62
   120
370
     5
100
AcDbCircle
 10
4799.917643811961
 20
3385.504011182749
 30
0.0
 40
240.0
  0
CIRCLE
  5
AE
330
1F
100
AcDbEntity
  8
0-0_補助線
  6
JWW_HOJO
 62
   120
370
     5
100
AcDbCircle
 10
4444.047372024825
 20
3385.504011182749
 30
0.0
 40
240.0
  0
LINE
  5
AF
330
1F
100
AcDbEntity
  8
戸当り
  6
Continuous
 62
    40
370
     5
100
AcDbLine
 10
4502.034214636565
 20
3153.681812873372
 30
0.0
 11
4564.150785461171
 21
3385.504011182749
 31
0.0
  0
LINE
  5
B0
330
1F
100
AcDbEntity
  8
戸当り
  6
Continuous
 62
    40
370
     5
100
AcDbLine
 10
4502.034214636565
 20
3153.681812873372
 30
0.0
 11
4439.917643811961
 21
3385.504011182749
 31
0.0
  0
LINE
  5
B1
330
1F
100
AcDbEntity
  8
戸当り
  6
Continuous
 62
    40
370
     5
100
AcDbLine
 10
5035.684502162752
 20
3385.504011182749
 30
0.0
 11
5097.801072987355
 21
3153.681812873372
 31
0.0
  0
LINE
  5
B2
330
1F
100
AcDbEntity
  8
戸当り
  6
Continuous
 62
    40
370
     5
100
AcDbLine
 10
5159.917643811961
 20
3385.504011182749
 30
0.0
 11
5097.801072987355
 21
3153.681812873372
 31
0.0
  0
LINE
  5
B3
330
1F
100
AcDbEntity
  8
戸当り
  6
JWW_DASHED2
 62
     7
370
     5
100
AcDbLine
 10
5159.917643811961
 20
3385.504011182749
 30
0.0
 11
4439.917643811961
 21
3385.504011182749
 31
0.0
  0
LINE
  5
B4
330
1F
100
AcDbEntity
  8
戸当り
  6
Continuous
 62
    40
370
     5
100
AcDbLine
 10
5159.917643811961
 20
3439.504011182748
 30
0.0
 11
5159.917643811961
 21
3385.504011182749
 31
0.0
  0
LINE
  5
B5
330
1F
100
AcDbEntity
  8
戸当り
  6
Continuous
 62
    40
370
     5
100
AcDbLine
 10
5159.917643811961
 20
3439.504011182748
 30
0.0
 11
5339.917643811961
 21
3439.504011182748
 31
0.0
  0
LINE
  5
B6
330
1F
100
AcDbEntity
  8
戸当り
  6
Continuous
 62
    40
370
     5
100
AcDbLine
 10
5159.917643811961
 20
3385.504011182749
 30
0.0
 11
5339.917643811961
 21
3385.504011182749
 31
0.0
  0
LINE
  5
B7
330
1F
100
AcDbEntity
  8
戸当り
  6
Continuous
 62
    40
370
     5
100
AcDbLine
 10
4439.917643811961
 20
3439.504011182748
 30
0.0
 11
4439.917643811961
 21
3385.504011182749
 31
0.0
  0
LINE
  5
B8
330
1F
100
AcDbEntity
  8
戸当り
  6
Continuous
 62
    40
370
     5
100
AcDbLine
 10
4439.917643811961
 20
3439.504011182748
 30
0.0
 11
4259.917643811961
 21
3439.504011182748
 31
0.0
  0
LINE
  5
B9
330
1F
100
AcDbEntity
  8
戸当り
  6
Continuous
 62
    40
370
     5
100
AcDbLine
 10
4439.917643811961
 20
3385.504011182749
 30
0.0
 11
4259.917643811961
 21
3385.504011182749
 31
0.0
  0
LINE
  5
BA
330
1F
100
AcDbEntity
  8
0-A_文字
  6
Continuous
 62
    92
370
     5
100
AcDbLine
 10
5369.917643811961
 20
3540.999983504013
 30
0.0
 11
4229.917643811961
 21
3540.999983504013
 31
0.0
  0
LINE
  5
BB
330
1F
100
AcDbEntity
  8
0-A_文字
  6
Continuous
 62
    92
370
     5
100
AcDbLine
 10
5369.917643811961
 20
3684.999983504013
 30
0.0
 11
4229.917643811961
 21
3684.999983504013
 31
0.0
  0
MTEXT
  5
BC
330
1F
100
AcDbEntity
  8
0-3_仕上げ
  6
Continuous
 62
     7
370
   211
100
AcDbMText
 10
-911.6902140241154
 20
-2721.78143128852
 30
0.0
 40
91.44
 41
120.0
 46
0.0
 71
     7
 72
     1
  1
{\fＭＳ ゴシック|b0|i0|c128|p49;32}
 73
     1
 44
1.0
  0
MTEXT
  5
BD
330
1F
100
AcDbEntity
  8
0-A_文字
  6
Continuous
 62
    92
370
     5
100
AcDbMText
 10
-5592.499495325861
 20
3758.871848122537
 30
0.0
 40
147.7433333333333
 41
2617.5
 46
0.0
 71
     7
 72
     1
  1
{\fＭＳ ゴシック|b0|i0|c128|p49;クローゼット[固定枠]Ｗ＝6尺}
 73
     1
 44
1.0
  0
MTEXT
  5
BE
330
1F
100
AcDbEntity
  8
0-A_文字
  6
Continuous
 62
     7
370
     5
100
AcDbMText
 10
4278.667643811961
 20
3554.775383504014
 30
0.0
 40
63.55080000000001
 41
1042.5
 46
0.0
 71
     7
 72
     1
  1
{\fＭＳ ゴシック|b0|i0|c128|p49;上吊軸固定/フリーオープン}
 73
     1
 44
1.0
  0
LINE
  5
BF
330
1F
100
AcDbEntity
  8
0-A_文字
  6
Continuous
 62
    92
370
     5
100
AcDbLine
 10
3384.248282141382
 20
-1121.000016495987
 30
0.0
 11
5369.917643811961
 21
-1121.000016495987
 31
0.0
  0
LINE
  5
C0
330
1F
100
AcDbEntity
  8
0-A_文字
  6
Continuous
 62
    92
370
     5
100
AcDbLine
 10
3384.248282141382
 20
-1301.000016495987
 30
0.0
 11
5369.917643811961
 21
-1301.000016495987
 31
0.0
  0
LINE
  5
C1
330
1F
100
AcDbEntity
  8
0-7_金物
  6
Continuous
 62
     7
370
     5
100
AcDbLine
 10
4312.877601627017
 20
-2054.825959389264
 30
0.0
 11
4300.87800742833
 21
-2054.825959389264
 31
0.0
  0
LINE
  5
C2
330
1F
100
AcDbEntity
  8
0-7_金物
  6
Continuous
 62
     7
370
     5
100
AcDbLine
 10
4300.87800742833
 20
-2054.825959389264
 30
0.0
 11
4300.87800742833
 21
-1934.825563485547
 31
0.0
  0
LINE
  5
C3
330
1F
100
AcDbEntity
  8
0-7_金物
  6
Continuous
 62
     7
370
     5
100
AcDbLine
 10
4300.87800742833
 20
-1934.825563485547
 30
0.0
 11
4312.877601627017
 21
-1934.825563485547
 31
0.0
  0
LINE
  5
C4
330
1F
100
AcDbEntity
  8
0-7_金物
  6
Continuous
 62
     7
370
     5
100
AcDbLine
 10
4300.87800742833
 20
-2024.825860413334
 30
0.0
 11
4282.877502651092
 21
-2024.825860413334
 31
0.0
  0
LINE
  5
C5
330
1F
100
AcDbEntity
  8
0-7_金物
  6
Continuous
 62
     7
370
     5
100
AcDbLine
 10
4282.877502651092
 20
-1964.825662461476
 30
0.0
 11
4300.87800742833
 21
-1964.825662461476
 31
0.0
  0
LINE
  5
C6
330
1F
100
AcDbEntity
  8
0-7_金物
  6
Continuous
 62
     7
370
     5
100
AcDbLine
 10
4294.877839169256
 20
-2024.825860413334
 30
0.0
 11
4294.877839169256
 21
-1964.825662461476
 31
0.0
  0
MTEXT
  5
C7
330
1F
100
AcDbEntity
  8
0-A_文字
  6
Continuous
 62
     7
370
     0
100
AcDbMText
 10
3657.082962976672
 20
2374.719983504013
 30
0.0
 40
91.43999999999997
 41
1440.0
 46
0.0
 71
     7
 72
     1
  1
{\fＭＳ ゴシック|b0|i0|c128|p49;竪枠下端加工図（S＝1/3）}
 73
     1
 44
1.0
  0
ARC
  5
C8
330
1F
100
AcDbEntity
  8
0-4_枠
  6
Continuous
 62
    92
370
     5
100
AcDbCircle
 10
3502.877898554812
 20
-2225.400526204614
 30
0.0
 40
707.5483889193149
100
AcDbArc
 50
25.9889678955078
 51
32.00529479980467
  0
ARC
  5
C9
330
1F
100
AcDbEntity
  8
0-4_枠
  6
Continuous
 62
    92
370
     5
100
AcDbCircle
 10
3502.877898554812
 20
-1763.400932005922
 30
0.0
 40
707.5483889193149
100
AcDbArc
 50
327.9947052001953
 51
334.0110321044921
  0
LINE
  5
CA
330
1F
100
AcDbEntity
  8
0-4_枠
  6
Continuous
 62
    92
370
     5
100
AcDbLine
 10
4102.878393434456
 20
-1850.401515963903
 30
0.0
 11
4102.878393434456
 21
-1775.403495482485
 31
0.0
  0
LINE
  5
CB
330
1F
100
AcDbEntity
  8
0-4_枠
  6
Continuous
 62
    92
370
     5
100
AcDbLine
 10
4102.878393434456
 20
-2213.403158964327
 30
0.0
 11
4138.877918349992
 21
-2249.403426199335
 31
0.0
  0
LINE
  5
CC
330
1F
100
AcDbEntity
  8
0-4_枠
  6
Continuous
 62
    92
370
     5
100
AcDbLine
 10
4282.877502651092
 20
-2249.403426199335
 30
0.0
 11
4138.877918349992
 21
-2249.403426199335
 31
0.0
  0
LINE
  5
CD
330
1F
100
AcDbEntity
  8
0-4_枠
  6
Continuous
 62
    92
370
     5
100
AcDbLine
 10
4138.877918349992
 20
-1739.403228247477
 30
0.0
 11
4102.878393434456
 21
-1775.403495482485
 31
0.0
  0
LINE
  5
CE
330
1F
100
AcDbEntity
  8
0-4_枠
  6
Continuous
 62
    92
370
     5
100
AcDbLine
 10
4282.877502651092
 20
-1739.403228247477
 30
0.0
 11
4138.877918349992
 21
-1739.403228247477
 31
0.0
  0
LINE
  5
CF
330
1F
100
AcDbEntity
  8
0-4_枠
  6
Continuous
 62
    92
370
     5
100
AcDbLine
 10
4282.877502651092
 20
-2249.403426199335
 30
0.0
 11
4282.877502651092
 21
-1739.403228247477
 31
0.0
  0
LINE
  5
D0
330
1F
100
AcDbEntity
  8
0-4_枠
  6
Continuous
 62
    92
370
     5
100
AcDbLine
 10
4138.877918349992
 20
-1915.354469405629
 30
0.0
 11
4138.877918349992
 21
-2073.447731124379
 31
0.0
  0
LINE
  5
D1
330
1F
100
AcDbEntity
  8
0-4_枠
  6
Continuous
 62
    92
370
     5
100
AcDbLine
 10
4102.878393434456
 20
-2213.403158964327
 30
0.0
 11
4102.878393434456
 21
-2138.399942246631
 31
0.0
  0
LINE
  5
D2
330
1F
100
AcDbEntity
  8
0-4_枠
  6
Continuous
 62
   120
370
     5
100
AcDbLine
 10
3488.084815889229
 20
-1919.82533584091
 30
0.0
 11
4138.877918349992
 21
-1919.82533584091
 31
0.0
  0
LINE
  5
D3
330
1F
100
AcDbEntity
  8
0-4_枠
  6
Continuous
 62
   120
370
     5
100
AcDbLine
 10
3488.084815889229
 20
-2069.82533584091
 30
0.0
 11
4138.877918349992
 21
-2069.82533584091
 31
0.0
  0
LWPOLYLINE
  5
D4
330
1F
100
AcDbEntity
  8
0-B_寸法
  6
Continuous
 62
     7
370
     5
100
AcDbPolyline
 90
        4
 70
     1
 43
3.0
 10
4379.73454421661
 20
-2249.403426199335
 42
0.4142135623731
 10
4378.23454421661
 20
-2247.903426199335
 42
0.4142135623731
 10
4376.734544216609
 20
-2249.403426199335
 42
0.4142135623731
 10
4378.23454421661
 20
-2250.903426199335
 42
0.4142135623731
  0
LINE
  5
D5
330
1F
100
AcDbEntity
  8
0-B_寸法
  6
Continuous
 62
   120
370
     5
100
AcDbLine
 10
4378.23454421661
 20
-2249.403426199335
 30
0.0
 11
4301.044878180066
 21
-2249.403426199335
 31
0.0
  0
LINE
  5
D6
330
1F
100
AcDbEntity
  8
0-0_補助線
  6
JWW_HOJO
 62
   120
370
     5
100
AcDbLine
 10
4930.159034869828
 20
-2102.403426199335
 30
0.0
 11
4930.159034869828
 21
-2177.403426199335
 31
0.0
  0
LINE
  5
D7
330
1F
100
AcDbEntity
  8
0-3_仕上げ
  6
Continuous
 62
    40
370
     5
100
AcDbLine
 10
4282.877502651092
 20
-2177.403426199335
 30
0.0
 11
4930.159034869828
 21
-2177.403426199335
 31
0.0
  0
LINE
  5
D8
330
1F
100
AcDbEntity
  8
0-3_仕上げ
  6
Continuous
 62
    40
370
     5
100
AcDbLine
 10
4282.877502651092
 20
-2102.403426199335
 30
0.0
 11
4930.159034869828
 21
-2102.403426199335
 31
0.0
  0
LWPOLYLINE
  5
D9
330
1F
100
AcDbEntity
  8
0-B_寸法
  6
Continuous
 62
     7
370
     5
100
AcDbPolyline
 90
        4
 70
     1
 43
3.0
 10
4379.73454421661
 20
-2177.403426199335
 42
0.4142135623731
 10
4378.23454421661
 20
-2175.903426199335
 42
0.4142135623731
 10
4376.734544216609
 20
-2177.403426199335
 42
0.4142135623731
 10
4378.23454421661
 20
-2178.903426199335
 42
0.4142135623731
  0
LINE
  5
DA
330
1F
100
AcDbEntity
  8
0-B_寸法
  6
Continuous
 62
   120
370
     5
100
AcDbLine
 10
4378.23454421661
 20
-2177.403426199335
 30
0.0
 11
4301.044878180066
 21
-2177.403426199335
 31
0.0
  0
LINE
  5
DB
330
1F
100
AcDbEntity
  8
0-B_寸法
  6
Continuous
 62
   120
370
     5
100
AcDbLine
 10
4378.23454421661
 20
-2177.403426199335
 30
0.0
 11
4378.23454421661
 21
-2249.403426199335
 31
0.0
  0
LINE
  5
DC
330
1F
100
AcDbEntity
  8
0-3_仕上げ
  6
Continuous
 62
    92
370
     5
100
AcDbLine
 10
4312.877601627017
 20
-1865.825316045725
 30
0.0
 11
4312.877601627017
 21
-2102.403426199335
 31
0.0
  0
LINE
  5
DD
330
1F
100
AcDbEntity
  8
0-C_ハッチ
  6
Continuous
 62
   120
370
     5
100
AcDbLine
 10
4282.877502651092
 20
-2207.820916565679
 30
0.0
 11
4138.877918349992
 21
-2063.822816903516
 31
0.0
  0
LINE
  5
DE
330
1F
100
AcDbEntity
  8
0-C_ハッチ
  6
Continuous
 62
   120
370
     5
100
AcDbLine
 10
4282.877502651092
 20
-2250.247443434344
 30
0.0
 11
4127.812904361392
 21
-2095.184329783585
 31
0.0
  0
LINE
  5
DF
330
1F
100
AcDbEntity
  8
0-C_ハッチ
  6
Continuous
 62
   120
370
     5
100
AcDbLine
 10
4239.607700866893
 20
-2249.403426199335
 30
0.0
 11
4112.592385991467
 21
-2122.389595962849
 31
0.0
  0
LINE
  5
E0
330
1F
100
AcDbEntity
  8
0-C_ハッチ
  6
Continuous
 62
   120
370
     5
100
AcDbLine
 10
4154.754275969824
 20
-2249.403426199335
 30
0.0
 11
4102.878393434456
 21
-2197.527914823702
 31
0.0
  0
LINE
  5
E1
330
1F
100
AcDbEntity
  8
0-C_ハッチ
  6
Continuous
 62
   120
370
     5
100
AcDbLine
 10
4282.877502651092
 20
-2122.969347467283
 30
0.0
 11
4138.877918349992
 21
-1978.969020846716
 31
0.0
  0
LINE
  5
E2
330
1F
100
AcDbEntity
  8
0-C_ハッチ
  6
Continuous
 62
   120
370
     5
100
AcDbLine
 10
4282.877502651092
 20
-2165.395132016482
 30
0.0
 11
4138.877918349992
 21
-2021.397032354319
 31
0.0
  0
LINE
  5
E3
330
1F
100
AcDbEntity
  8
0-C_ハッチ
  6
Continuous
 62
   120
370
     5
100
AcDbLine
 10
4282.877502651092
 20
-2080.542820598617
 30
0.0
 11
4138.877918349992
 21
-1936.542493978052
 31
0.0
  0
LINE
  5
E4
330
1F
100
AcDbEntity
  8
0-C_ハッチ
  6
Continuous
 62
   120
370
     5
100
AcDbLine
 10
4282.877502651092
 20
-1783.55713251796
 30
0.0
 11
4238.724340700081
 21
-1739.403228247477
 31
0.0
  0
LINE
  5
E5
330
1F
100
AcDbEntity
  8
0-C_ハッチ
  6
Continuous
 62
   120
370
     5
100
AcDbLine
 10
4282.877502651092
 20
-1825.983659386625
 30
0.0
 11
4196.297442671686
 21
-1739.403228247477
 31
0.0
  0
LINE
  5
E6
330
1F
100
AcDbEntity
  8
0-C_ハッチ
  6
Continuous
 62
   120
370
     5
100
AcDbLine
 10
4282.877502651092
 20
-1868.410186255289
 30
0.0
 11
4153.871286962756
 21
-1739.403228247477
 31
0.0
  0
LINE
  5
E7
330
1F
100
AcDbEntity
  8
0-C_ハッチ
  6
Continuous
 62
   120
370
     5
100
AcDbLine
 10
4282.877502651092
 20
-1910.836713123955
 30
0.0
 11
4125.161339222042
 21
-1753.119807375433
 31
0.0
  0
LINE
  5
E8
330
1F
100
AcDbEntity
  8
0-C_ハッチ
  6
Continuous
 62
   120
370
     5
100
AcDbLine
 10
4282.877502651092
 20
-1953.263239992621
 30
0.0
 11
4103.948818107181
 21
-1774.333070809766
 31
0.0
  0
LINE
  5
E9
330
1F
100
AcDbEntity
  8
0-C_ハッチ
  6
Continuous
 62
   120
370
     5
100
AcDbLine
 10
4282.877502651092
 20
-1995.689766861286
 30
0.0
 11
4102.878393434456
 21
-1815.689173005713
 31
0.0
  0
LINE
  5
EA
330
1F
100
AcDbEntity
  8
0-C_ハッチ
  6
Continuous
 62
   120
370
     5
100
AcDbLine
 10
4282.877502651092
 20
-2038.116293729952
 30
0.0
 11
4114.877245313681
 21
-1870.115294073069
 31
0.0
  0
LINE
  5
EB
330
1F
100
AcDbEntity
  8
0-C_ハッチ
  6
Continuous
 62
   120
370
     5
100
AcDbLine
 10
4197.180060519024
 20
-2249.403426199335
 30
0.0
 11
4102.878393434456
 21
-2155.102130274503
 31
0.0
  0
LINE
  5
EC
330
1F
100
AcDbEntity
  8
0-C_ハッチ
  6
JWW_DASHED1
 62
   120
370
     5
100
AcDbLine
 10
4282.877502651107
 20
-2136.228146608027
 30
0.0
 11
4316.702223059781
 21
-2102.403426199346
 31
0.0
  0
LINE
  5
ED
330
1F
100
AcDbEntity
  8
0-C_ハッチ
  6
JWW_DASHED1
 62
   120
370
     5
100
AcDbLine
 10
4284.128629930981
 20
-2177.403426199346
 30
0.0
 11
4359.128629930994
 21
-2102.403426199335
 31
0.0
  0
LINE
  5
EE
330
1F
100
AcDbEntity
  8
0-C_ハッチ
  6
JWW_DASHED1
 62
   120
370
     5
100
AcDbLine
 10
4326.555036802194
 20
-2177.403426199335
 30
0.0
 11
4401.555036802209
 21
-2102.403426199325
 31
0.0
  0
LINE
  5
EF
330
1F
100
AcDbEntity
  8
0-C_ハッチ
  6
JWW_DASHED1
 62
   120
370
     5
100
AcDbLine
 10
4368.981443673394
 20
-2177.403426199337
 30
0.0
 11
4443.981443673409
 21
-2102.403426199325
 31
0.0
  0
LINE
  5
F0
330
1F
100
AcDbEntity
  8
0-C_ハッチ
  6
JWW_DASHED1
 62
   120
370
     5
100
AcDbLine
 10
4411.407850544609
 20
-2177.403426199323
 30
0.0
 11
4486.407850544609
 21
-2102.403426199327
 31
0.0
  0
LINE
  5
F1
330
1F
100
AcDbEntity
  8
0-C_ハッチ
  6
JWW_DASHED1
 62
   120
370
     5
100
AcDbLine
 10
4453.83425741574
 20
-2177.403426199332
 30
0.0
 11
4528.83425741574
 21
-2102.403426199335
 31
0.0
  0
LINE
  5
F2
330
1F
100
AcDbEntity
  8
0-C_ハッチ
  6
JWW_DASHED1
 62
   120
370
     5
100
AcDbLine
 10
4496.26066428694
 20
-2177.403426199334
 30
0.0
 11
4571.26066428694
 21
-2102.403426199337
 31
0.0
  0
LINE
  5
F3
330
1F
100
AcDbEntity
  8
0-C_ハッチ
  6
JWW_DASHED1
 62
   120
370
     5
100
AcDbLine
 10
4538.68707115814
 20
-2177.403426199337
 30
0.0
 11
4613.687071158127
 21
-2102.40342619934
 31
0.0
  0
LINE
  5
F4
330
1F
100
AcDbEntity
  8
0-C_ハッチ
  6
JWW_DASHED1
 62
   120
370
     5
100
AcDbLine
 10
4581.113478029327
 20
-2177.403426199339
 30
0.0
 11
4656.113478029327
 21
-2102.403426199342
 31
0.0
  0
LINE
  5
F5
330
1F
100
AcDbEntity
  8
0-C_ハッチ
  6
JWW_DASHED1
 62
   120
370
     5
100
AcDbLine
 10
4623.53988490054
 20
-2177.403426199335
 30
0.0
 11
4698.539884900554
 21
-2102.403426199325
 31
0.0
  0
LINE
  5
F6
330
1F
100
AcDbEntity
  8
0-C_ハッチ
  6
JWW_DASHED1
 62
   120
370
     5
100
AcDbLine
 10
4665.966291771727
 20
-2177.403426199339
 30
0.0
 11
4740.96629177174
 21
-2102.403426199328
 31
0.0
  0
LINE
  5
F7
330
1F
100
AcDbEntity
  8
0-C_ハッチ
  6
JWW_DASHED1
 62
   120
370
     5
100
AcDbLine
 10
4708.39269864294
 20
-2177.403426199332
 30
0.0
 11
4783.392698642954
 21
-2102.40342619932
 31
0.0
  0
LINE
  5
F8
330
1F
100
AcDbEntity
  8
0-C_ハッチ
  6
JWW_DASHED1
 62
   120
370
     5
100
AcDbLine
 10
4750.8191055141
 20
-2177.403426199325
 30
0.0
 11
4825.819105514085
 21
-2102.403426199328
 31
0.0
  0
LINE
  5
F9
330
1F
100
AcDbEntity
  8
0-C_ハッチ
  6
JWW_DASHED1
 62
   120
370
     5
100
AcDbLine
 10
4793.245512385285
 20
-2177.403426199327
 30
0.0
 11
4868.245512385285
 21
-2102.40342619933
 31
0.0
  0
LINE
  5
FA
330
1F
100
AcDbEntity
  8
0-C_ハッチ
  6
JWW_DASHED1
 62
   120
370
     5
100
AcDbLine
 10
4835.671919256485
 20
-2177.40342619933
 30
0.0
 11
4910.671919256485
 21
-2102.403426199332
 31
0.0
  0
LINE
  5
FB
330
1F
100
AcDbEntity
  8
0-C_ハッチ
  6
JWW_DASHED1
 62
   120
370
     5
100
AcDbLine
 10
4878.098326127685
 20
-2177.403426199332
 30
0.0
 11
4930.159034869828
 21
-2125.342717457193
 31
0.0
  0
LINE
  5
FC
330
1F
100
AcDbEntity
  8
0-C_ハッチ
  6
JWW_DASHED1
 62
   120
370
     5
100
AcDbLine
 10
4920.524732998885
 20
-2177.403426199335
 30
0.0
 11
4930.159034869828
 21
-2167.769124328392
 31
0.0
  0
LINE
  5
FD
330
1F
100
AcDbEntity
  8
0-A_文字
  6
Continuous
 62
    92
370
     5
100
AcDbLine
 10
3384.248282141382
 20
2358.999983504013
 30
0.0
 11
5369.917643811961
 21
2358.999983504013
 31
0.0
  0
LINE
  5
FE
330
1F
100
AcDbEntity
  8
0-A_文字
  6
Continuous
 62
    92
370
     5
100
AcDbLine
 10
3384.248282141382
 20
2538.999983504013
 30
0.0
 11
5369.917643811961
 21
2538.999983504013
 31
0.0
  0
LINE
  5
FF
330
1F
100
AcDbEntity
  8
0-A_文字
  6
Continuous
 62
    92
370
     5
100
AcDbLine
 10
3384.248282141382
 20
558.9999835040129
 30
0.0
 11
5369.917643811961
 21
558.9999835040129
 31
0.0
  0
LINE
  5
100
330
1F
100
AcDbEntity
  8
0-A_文字
  6
Continuous
 62
    92
370
     5
100
AcDbLine
 10
3384.248282141382
 20
378.9999835040129
 30
0.0
 11
5369.917643811961
 21
378.9999835040129
 31
0.0
  0
LINE
  5
101
330
1F
100
AcDbEntity
  8
0-B_寸法
  6
Continuous
 62
   120
370
     5
100
AcDbLine
 10
3824.692746275
 20
-2069.403228247477
 30
0.0
 11
3939.31940033927
 21
-2069.403228247477
 31
0.0
  0
LINE
  5
102
330
1F
100
AcDbEntity
  8
0-B_寸法
  6
Continuous
 62
   120
370
     5
100
AcDbLine
 10
3824.692746275
 20
-1919.403228247477
 30
0.0
 11
3939.31940033927
 21
-1919.403228247477
 31
0.0
  0
LWPOLYLINE
  5
103
330
1F
100
AcDbEntity
  8
0-B_寸法
  6
Continuous
 62
     7
370
     5
100
AcDbPolyline
 90
        4
 70
     1
 43
3.0
 10
3826.192746275
 20
-2069.403228247477
 42
0.4142135623731
 10
3824.692746275
 20
-2067.903228247477
 42
0.4142135623731
 10
3823.192746275
 20
-2069.403228247477
 42
0.4142135623731
 10
3824.692746275
 20
-2070.903228247477
 42
0.4142135623731
  0
LWPOLYLINE
  5
104
330
1F
100
AcDbEntity
  8
0-B_寸法
  6
Continuous
 62
     7
370
     5
100
AcDbPolyline
 90
        4
 70
     1
 43
3.0
 10
3826.192746275
 20
-1919.403228247477
 42
0.4142135623731
 10
3824.692746275
 20
-1917.903228247477
 42
0.4142135623731
 10
3823.192746275
 20
-1919.403228247477
 42
0.4142135623731
 10
3824.692746275
 20
-1920.903228247477
 42
0.4142135623731
  0
LINE
  5
105
330
1F
100
AcDbEntity
  8
0-B_寸法
  6
Continuous
 62
   120
370
     5
100
AcDbLine
 10
3680.348070786656
 20
-1739.403228247477
 30
0.0
 11
3939.31940033927
 21
-1739.403228247477
 31
0.0
  0
LWPOLYLINE
  5
106
330
1F
100
AcDbEntity
  8
0-B_寸法
  6
Continuous
 62
     7
370
     5
100
AcDbPolyline
 90
        4
 70
     1
 43
3.0
 10
3826.192746275
 20
-1739.403228247477
 42
0.4142135623731
 10
3824.692746275
 20
-1737.903228247477
 42
0.4142135623731
 10
3823.192746275
 20
-1739.403228247477
 42
0.4142135623731
 10
3824.692746275
 20
-1740.903228247477
 42
0.4142135623731
  0
LWPOLYLINE
  5
107
330
1F
100
AcDbEntity
  8
0-B_寸法
  6
Continuous
 62
     7
370
     5
100
AcDbPolyline
 90
        4
 70
     1
 43
3.0
 10
3681.848070786656
 20
-1739.403228247477
 42
0.4142135623731
 10
3680.348070786656
 20
-1737.903228247477
 42
0.4142135623731
 10
3678.848070786656
 20
-1739.403228247477
 42
0.4142135623731
 10
3680.348070786656
 20
-1740.903228247477
 42
0.4142135623731
  0
MTEXT
  5
108
330
1F
100
AcDbEntity
  8
0-A_文字
  6
Continuous
 62
     7
370
     5
100
AcDbMText
 10
-1802.690214024124
 20
414.2912972119836
 30
0.0
 40
91.44
 41
600.0
 46
0.0
 71
     7
 72
     1
  1
{\fＭＳ ゴシック|b0|i0|c128|p49;■縦断面図}
 73
     1
 44
1.0
  0
LINE
  5
109
330
1F
100
AcDbEntity
  8
0-B_寸法
  6
Continuous
 62
   120
370
     5
100
AcDbLine
 10
3824.692746275
 20
-2249.403228247477
 30
0.0
 11
3824.692746275
 21
-1739.403228247477
 31
0.0
  0
LINE
  5
10A
330
1F
100
AcDbEntity
  8
0-B_寸法
  6
Continuous
 62
   120
370
     5
100
AcDbLine
 10
3680.348070786656
 20
-2249.403228247477
 30
0.0
 11
3939.31940033927
 21
-2249.403228247477
 31
0.0
  0
LWPOLYLINE
  5
10B
330
1F
100
AcDbEntity
  8
0-B_寸法
  6
Continuous
 62
     7
370
     5
100
AcDbPolyline
 90
        4
 70
     1
 43
3.0
 10
3826.192746275
 20
-2249.403228247477
 42
0.4142135623731
 10
3824.692746275
 20
-2247.903228247477
 42
0.4142135623731
 10
3823.192746275
 20
-2249.403228247477
 42
0.4142135623731
 10
3824.692746275
 20
-2250.903228247477
 42
0.4142135623731
  0
LWPOLYLINE
  5
10C
330
1F
100
AcDbEntity
  8
0-B_寸法
  6
Continuous
 62
     7
370
     5
100
AcDbPolyline
 90
        4
 70
     1
 43
3.0
 10
3681.848070786656
 20
-2249.403228247477
 42
0.4142135623731
 10
3680.348070786656
 20
-2247.903228247477
 42
0.4142135623731
 10
3678.848070786656
 20
-2249.403228247477
 42
0.4142135623731
 10
3680.348070786656
 20
-2250.903228247477
 42
0.4142135623731
  0
LINE
  5
10D
330
1F
100
AcDbEntity
  8
0-B_寸法
  6
Continuous
 62
   120
370
     5
100
AcDbLine
 10
3680.348070786656
 20
-2249.403228247477
 30
0.0
 11
3680.348070786656
 21
-1739.403228247477
 31
0.0
  0
MTEXT
  5
10E
330
1F
100
AcDbEntity
  8
0-A_文字
  6
Continuous
 62
     7
370
     5
100
AcDbMText
 10
3717.082962976672
 20
394.7199835040129
 30
0.0
 40
91.44
 41
1320.0
 46
0.0
 71
     7
 72
     1
  1
{\fＭＳ ゴシック|b0|i0|c128|p49;レール拡大図（S＝1/2）}
 73
     1
 44
1.0
  0
LINE
  5
10F
330
1F
100
AcDbEntity
  8
2-A_文字
  6
Continuous
 62
     7
370
     5
100
AcDbLine
 10
3440.473681805663
 20
1426.625220415767
 30
0.0
 11
4490.519765499273
 21
1426.625220415767
 31
0.0
  0
LINE
  5
110
330
1F
100
AcDbEntity
  8
2-4_枠
  6
Continuous
 62
    92
370
     5
100
AcDbLine
 10
3950.041437722555
 20
1209.336301666119
 30
0.0
 11
4260.042229529983
 21
1209.336301666119
 31
0.0
  0
LINE
  5
111
330
1F
100
AcDbEntity
  8
2-4_枠
  6
Continuous
 62
    92
370
     5
100
AcDbLine
 10
4490.042493465797
 20
1209.336301666119
 30
0.0
 11
4800.041800634301
 21
1209.336301666119
 31
0.0
  0
LINE
  5
112
330
1F
100
AcDbEntity
  8
2-4_枠
  6
Continuous
 62
    92
370
     5
100
AcDbLine
 10
4490.042493465797
 20
1159.336817165745
 30
0.0
 11
4490.042493465797
 21
1209.336301666119
 31
0.0
  0
LINE
  5
113
330
1F
100
AcDbEntity
  8
2-4_枠
  6
Continuous
 62
    92
370
     5
100
AcDbLine
 10
4260.042229529983
 20
1159.336817165745
 30
0.0
 11
4260.042229529983
 21
1209.336301666119
 31
0.0
  0
LINE
  5
114
330
1F
100
AcDbEntity
  8
2-4_枠
  6
Continuous
 62
    92
370
     5
100
AcDbLine
 10
4275.041536698483
 20
1139.33650374197
 30
0.0
 11
4475.041701658372
 21
1139.33650374197
 31
0.0
  0
LINE
  5
115
330
1F
100
AcDbEntity
  8
2-4_枠
  6
Continuous
 62
    92
370
     5
100
AcDbLine
 10
4260.042229529983
 20
1159.336817165745
 30
0.0
 11
4275.041536698483
 21
1159.336817165745
 31
0.0
  0
LINE
  5
116
330
1F
100
AcDbEntity
  8
2-4_枠
  6
Continuous
 62
    92
370
     5
100
AcDbLine
 10
4275.041536698483
 20
1139.33650374197
 30
0.0
 11
4275.041536698483
 21
1159.336817165745
 31
0.0
  0
LINE
  5
117
330
1F
100
AcDbEntity
  8
2-4_枠
  6
Continuous
 62
    92
370
     5
100
AcDbLine
 10
4475.041701658372
 20
1139.33650374197
 30
0.0
 11
4475.041701658372
 21
1159.336817165745
 31
0.0
  0
LINE
  5
118
330
1F
100
AcDbEntity
  8
2-4_枠
  6
Continuous
 62
    92
370
     5
100
AcDbLine
 10
4490.042493465797
 20
1159.336817165745
 30
0.0
 11
4475.041701658372
 21
1159.336817165745
 31
0.0
  0
LINE
  5
119
330
1F
100
AcDbEntity
  8
2-A_文字
  6
Continuous
 62
     7
370
     5
100
AcDbLine
 10
4097.54143772255
 20
1116.00074828739
 30
0.0
 11
3966.201561955515
 21
1426.625220415767
 31
0.0
  0
LINE
  5
11A
330
1F
100
AcDbEntity
  8
2-B_寸法
  6
Continuous
 62
   120
370
     5
100
AcDbLine
 10
3950.041437722555
 20
2143.169528146961
 30
0.0
 11
4800.041800634301
 21
2143.169528146961
 31
0.0
  0
LWPOLYLINE
  5
11B
330
1F
100
AcDbEntity
  8
2-B_寸法
  6
Continuous
 62
     7
370
     5
100
AcDbPolyline
 90
        4
 70
     1
 43
3.0
 10
3951.541437722555
 20
2143.169528146961
 42
0.4142135623731
 10
3950.041437722555
 20
2144.669528146961
 42
0.4142135623731
 10
3948.541437722554
 20
2143.169528146961
 42
0.4142135623731
 10
3950.041437722555
 20
2141.669528146962
 42
0.4142135623731
  0
LWPOLYLINE
  5
11C
330
1F
100
AcDbEntity
  8
2-B_寸法
  6
Continuous
 62
     7
370
     5
100
AcDbPolyline
 90
        4
 70
     1
 43
3.0
 10
4801.541800634302
 20
2143.169528146961
 42
0.4142135623731
 10
4800.041800634301
 20
2144.669528146961
 42
0.4142135623731
 10
4798.541800634301
 20
2143.169528146961
 42
0.4142135623731
 10
4800.041800634301
 20
2141.669528146962
 42
0.4142135623731
  0
LINE
  5
11D
330
1F
100
AcDbEntity
  8
2-B_寸法
  6
Continuous
 62
   120
370
     5
100
AcDbLine
 10
3950.041437722555
 20
2143.169528146961
 30
0.0
 11
3950.041437722555
 21
1999.627478346963
 31
0.0
  0
LINE
  5
11E
330
1F
100
AcDbEntity
  8
2-B_寸法
  6
Continuous
 62
   120
370
     5
100
AcDbLine
 10
4800.041800634301
 20
2143.169528146961
 30
0.0
 11
4800.041800634301
 21
1999.627478346963
 31
0.0
  0
MTEXT
  5
11F
330
1F
100
AcDbEntity
  8
0-A_文字
  6
Continuous
 62
     7
370
     5
100
AcDbMText
 10
-1802.690214024124
 20
265.7710320445403
 30
0.0
 40
91.44
 41
1800.0
 46
0.0
 71
     7
 72
     1
  1
{\fＭＳ ゴシック|b0|i0|c128|p49;　[３方枠＋レール(レール埋込)]}
 73
     1
 44
1.0
  0
LINE
  5
120
330
1F
100
AcDbEntity
  8
2-C_ﾊｯﾁ
  6
JWW_DASHED1
 62
   120
370
     5
100
AcDbLine
 10
4505.041800634297
 20
1156.381828943883
 30
0.0
 11
4557.997386835734
 21
1209.336301666119
 31
0.0
  0
LINE
  5
121
330
1F
100
AcDbEntity
  8
2-C_ﾊｯﾁ
  6
JWW_DASHED1
 62
   120
370
     5
100
AcDbLine
 10
4505.041800634297
 20
1113.954745335617
 30
0.0
 11
4600.423913704397
 21
1209.336301666119
 31
0.0
  0
LINE
  5
122
330
1F
100
AcDbEntity
  8
2-C_ﾊｯﾁ
  6
JWW_DASHED1
 62
   120
370
     5
100
AcDbLine
 10
4505.041800634297
 20
1081.52818959897
 30
0.0
 11
4632.850655020909
 21
1209.336301666119
 31
0.0
  0
LINE
  5
123
330
1F
100
AcDbEntity
  8
2-C_ﾊｯﾁ
  6
JWW_DASHED1
 62
   120
370
     5
100
AcDbLine
 10
3950.041437722555
 20
1195.35029706004
 30
0.0
 11
3964.027495313346
 21
1209.336301666119
 31
0.0
  0
LINE
  5
124
330
1F
100
AcDbEntity
  8
2-C_ﾊｯﾁ
  6
JWW_DASHED1
 62
   120
370
     5
100
AcDbLine
 10
3950.041437722555
 20
1162.923714353166
 30
0.0
 11
3996.454236629859
 21
1209.336301666119
 31
0.0
  0
LINE
  5
125
330
1F
100
AcDbEntity
  8
2-C_ﾊｯﾁ
  6
JWW_DASHED1
 62
   120
370
     5
100
AcDbLine
 10
3950.041437722555
 20
1120.497242150384
 30
0.0
 11
4038.880763498521
 21
1209.336301666119
 31
0.0
  0
LINE
  5
126
330
1F
100
AcDbEntity
  8
2-C_ﾊｯﾁ
  6
JWW_DASHED1
 62
   120
370
     5
100
AcDbLine
 10
3950.041437722555
 20
1078.070449021482
 30
0.0
 11
4081.307290367183
 21
1209.336301666119
 31
0.0
  0
LINE
  5
127
330
1F
100
AcDbEntity
  8
2-4_枠
  6
Continuous
 62
    92
370
     5
100
AcDbLine
 10
4505.041800634297
 20
1209.336301666119
 30
0.0
 11
4505.041800634297
 21
1074.336272798136
 31
0.0
  0
LINE
  5
128
330
1F
100
AcDbEntity
  8
2-4_枠
  6
Continuous
 62
    92
370
     5
100
AcDbLine
 10
4245.041437722559
 20
1209.336301666119
 30
0.0
 11
4245.041437722559
 21
1074.336272798136
 31
0.0
  0
LINE
  5
129
330
1F
100
AcDbEntity
  8
2-B_寸法
  6
Continuous
 62
   120
370
     5
100
AcDbLine
 10
4260.042229529983
 20
1011.826849464889
 30
0.0
 11
4260.042229529983
 21
831.826849464889
 31
0.0
  0
LINE
  5
12A
330
1F
100
AcDbEntity
  8
2-B_寸法
  6
Continuous
 62
   120
370
     5
100
AcDbLine
 10
4275.041536698483
 20
1011.826849464889
 30
0.0
 11
4275.041536698483
 21
831.826849464889
 31
0.0
  0
LINE
  5
12B
330
1F
100
AcDbEntity
  8
2-B_寸法
  6
Continuous
 62
   120
370
     5
100
AcDbLine
 10
4475.041701658372
 20
1011.826849464889
 30
0.0
 11
4475.041701658372
 21
831.826849464889
 31
0.0
  0
LINE
  5
12C
330
1F
100
AcDbEntity
  8
2-B_寸法
  6
Continuous
 62
   120
370
     5
100
AcDbLine
 10
4490.042493465797
 20
1011.826849464889
 30
0.0
 11
4490.042493465797
 21
831.826849464889
 31
0.0
  0
LINE
  5
12D
330
1F
100
AcDbEntity
  8
2-B_寸法
  6
Continuous
 62
   120
370
     5
100
AcDbLine
 10
4245.041437722559
 20
1011.826849464889
 30
0.0
 11
4245.041437722559
 21
831.826849464889
 31
0.0
  0
LINE
  5
12E
330
1F
100
AcDbEntity
  8
2-B_寸法
  6
Continuous
 62
   120
370
     5
100
AcDbLine
 10
4505.041800634297
 20
1011.826849464889
 30
0.0
 11
4505.041800634297
 21
831.826849464889
 31
0.0
  0
LWPOLYLINE
  5
12F
330
1F
100
AcDbEntity
  8
2-B_寸法
  6
Continuous
 62
     7
370
     5
100
AcDbPolyline
 90
        4
 70
     1
 43
3.0
 10
4246.54143772256
 20
831.826849464889
 42
0.4142135623731
 10
4245.041437722559
 20
833.326849464889
 42
0.4142135623731
 10
4243.541437722559
 20
831.826849464889
 42
0.4142135623731
 10
4245.041437722559
 20
830.326849464889
 42
0.4142135623731
  0
LWPOLYLINE
  5
130
330
1F
100
AcDbEntity
  8
2-B_寸法
  6
Continuous
 62
     7
370
     5
100
AcDbPolyline
 90
        4
 70
     1
 43
3.0
 10
4261.542229529984
 20
831.826849464889
 42
0.4142135623731
 10
4260.042229529983
 20
833.326849464889
 42
0.4142135623731
 10
4258.542229529983
 20
831.826849464889
 42
0.4142135623731
 10
4260.042229529983
 20
830.326849464889
 42
0.4142135623731
  0
LWPOLYLINE
  5
131
330
1F
100
AcDbEntity
  8
2-B_寸法
  6
Continuous
 62
     7
370
     5
100
AcDbPolyline
 90
        4
 70
     1
 43
3.0
 10
4276.541536698484
 20
831.826849464889
 42
0.4142135623731
 10
4275.041536698483
 20
833.326849464889
 42
0.4142135623731
 10
4273.541536698483
 20
831.826849464889
 42
0.4142135623731
 10
4275.041536698483
 20
830.326849464889
 42
0.4142135623731
  0
LWPOLYLINE
  5
132
330
1F
100
AcDbEntity
  8
2-B_寸法
  6
Continuous
 62
     7
370
     5
100
AcDbPolyline
 90
        4
 70
     1
 43
3.0
 10
4476.541701658372
 20
831.826849464889
 42
0.4142135623731
 10
4475.041701658372
 20
833.326849464889
 42
0.4142135623731
 10
4473.541701658371
 20
831.826849464889
 42
0.4142135623731
 10
4475.041701658372
 20
830.326849464889
 42
0.4142135623731
  0
LWPOLYLINE
  5
133
330
1F
100
AcDbEntity
  8
2-B_寸法
  6
Continuous
 62
     7
370
     5
100
AcDbPolyline
 90
        4
 70
     1
 43
3.0
 10
4491.542493465797
 20
831.826849464889
 42
0.4142135623731
 10
4490.042493465797
 20
833.326849464889
 42
0.4142135623731
 10
4488.542493465796
 20
831.826849464889
 42
0.4142135623731
 10
4490.042493465797
 20
830.326849464889
 42
0.4142135623731
  0
LWPOLYLINE
  5
134
330
1F
100
AcDbEntity
  8
2-B_寸法
  6
Continuous
 62
     7
370
     5
100
AcDbPolyline
 90
        4
 70
     1
 43
3.0
 10
4506.541800634297
 20
831.826849464889
 42
0.4142135623731
 10
4505.041800634297
 20
833.326849464889
 42
0.4142135623731
 10
4503.541800634296
 20
831.826849464889
 42
0.4142135623731
 10
4505.041800634297
 20
830.326849464889
 42
0.4142135623731
  0
MTEXT
  5
135
330
1F
100
AcDbEntity
  8
0-A_文字
  6
Continuous
 62
     7
370
     5
100
AcDbMText
 10
3507.082962976672
 20
-1285.280016495987
 30
0.0
 40
91.43999999999994
 41
1740.0
 46
0.0
 71
     7
 72
     1
  1
{\fＭＳ ゴシック|b0|i0|c128|p49;レール埋込時 フロアー貼込位置}
 73
     1
 44
1.0
  0
MTEXT
  5
136
330
1F
100
AcDbEntity
  8
0-A_文字
  6
Continuous
 62
     7
370
     5
100
AcDbMText
 10
3449.68269448616
 20
-1553.1061870339
 30
0.0
 40
91.44
 41
360.0
 46
0.0
 71
     7
 72
     1
  1
{\fＭＳ ゴシック|b0|i0|c128|p49;収納側}
 73
     1
 44
1.0
  0
MTEXT
  5
137
330
1F
100
AcDbEntity
  8
0-A_文字
  6
Continuous
 62
     7
370
   211
100
AcDbMText
 10
4509.905742332401
 20
-2526.016560832303
 30
0.0
 40
91.4399999999986
 41
899.9999999999864
 46
0.0
 71
     7
 72
     1
  1
{\fＭＳ ゴシック|b0|i0|c128|p49;チリ寸法(任意）}
 73
     1
 44
1.0
  0
LINE
  5
138
330
1F
100
AcDbEntity
  8
2-B_寸法
  6
Continuous
 62
   120
370
     5
100
AcDbLine
 10
4252.541833626272
 20
831.826849464889
 30
0.0
 11
4183.259801323513
 21
951.826849464889
 31
0.0
  0
LINE
  5
139
330
1F
100
AcDbEntity
  8
2-B_寸法
  6
Continuous
 62
   120
370
     5
100
AcDbLine
 10
4497.542147050046
 20
831.826849464889
 30
0.0
 11
4566.824179352805
 21
951.826849464889
 31
0.0
  0
LINE
  5
13A
330
1F
100
AcDbEntity
  8
2-B_寸法
  6
Continuous
 62
   120
370
     5
100
AcDbLine
 10
4711.679414608205
 20
951.826849464889
 30
0.0
 11
4566.824179352805
 21
951.826849464889
 31
0.0
  0
LINE
  5
13B
330
1F
100
AcDbEntity
  8
2-B_寸法
  6
Continuous
 62
   120
370
     5
100
AcDbLine
 10
4061.484171550439
 20
951.826849464889
 30
0.0
 11
4183.259801323513
 21
951.826849464889
 31
0.0
  0
LINE
  5
13C
330
1F
100
AcDbEntity
  8
2-4_枠
  6
Continuous
 62
    92
370
     5
100
AcDbLine
 10
3950.041437722555
 20
1074.336272798136
 30
0.0
 11
4245.041437722559
 21
1074.336272798136
 31
0.0
  0
LINE
  5
13D
330
1F
100
AcDbEntity
  8
2-4_枠
  6
Continuous
 62
    92
370
     5
100
AcDbLine
 10
4800.041800634301
 20
1074.336272798136
 30
0.0
 11
4505.041800634297
 21
1074.336272798136
 31
0.0
  0
LWPOLYLINE
  5
13E
330
1F
100
AcDbEntity
  8
2-B_寸法
  6
Continuous
 62
     7
370
     5
100
AcDbPolyline
 90
        4
 70
     1
 43
3.0
 10
3951.541437722555
 20
831.826849464889
 42
0.4142135623731
 10
3950.041437722555
 20
833.326849464889
 42
0.4142135623731
 10
3948.541437722554
 20
831.826849464889
 42
0.4142135623731
 10
3950.041437722555
 20
830.326849464889
 42
0.4142135623731
  0
LINE
  5
13F
330
1F
100
AcDbEntity
  8
2-B_寸法
  6
Continuous
 62
   120
370
     5
100
AcDbLine
 10
3950.041437722555
 20
831.826849464889
 30
0.0
 11
3950.041437722555
 21
1011.826849464889
 31
0.0
  0
MTEXT
  5
140
330
1F
100
AcDbEntity
  8
0-A_文字
  6
Continuous
 62
     7
370
     5
100
AcDbMText
 10
3464.900085790505
 20
-2555.105335840911
 30
0.0
 40
91.44
 41
360.0
 46
0.0
 71
     7
 72
     1
  1
{\fＭＳ ゴシック|b0|i0|c128|p49;室内側}
 73
     1
 44
1.0
  0
LINE
  5
141
330
1F
100
AcDbEntity
  8
2-B_寸法
  6
Continuous
 62
   120
370
     5
100
AcDbLine
 10
3950.041437722555
 20
831.826849464889
 30
0.0
 11
4800.041800634301
 21
831.826849464889
 31
0.0
  0
LWPOLYLINE
  5
142
330
1F
100
AcDbEntity
  8
2-B_寸法
  6
Continuous
 62
     7
370
     5
100
AcDbPolyline
 90
        4
 70
     1
 43
3.0
 10
4801.541800634302
 20
831.826849464889
 42
0.4142135623731
 10
4800.041800634301
 20
833.326849464889
 42
0.4142135623731
 10
4798.541800634301
 20
831.826849464889
 42
0.4142135623731
 10
4800.041800634301
 20
830.326849464889
 42
0.4142135623731
  0
LINE
  5
143
330
1F
100
AcDbEntity
  8
2-B_寸法
  6
Continuous
 62
   120
370
     5
100
AcDbLine
 10
4800.041800634301
 20
831.826849464889
 30
0.0
 11
4800.041800634301
 21
1011.826849464889
 31
0.0
  0
LINE
  5
144
330
1F
100
AcDbEntity
  8
2-C_ﾊｯﾁ
  6
JWW_DASHED1
 62
   120
370
     5
100
AcDbLine
 10
3988.73378836787
 20
1074.336272798136
 30
0.0
 11
4123.73381723586
 21
1209.336301666119
 31
0.0
  0
LINE
  5
145
330
1F
100
AcDbEntity
  8
2-C_ﾊｯﾁ
  6
JWW_DASHED1
 62
   120
370
     5
100
AcDbLine
 10
4200.866328629529
 20
1074.336272798136
 30
0.0
 11
4245.041437722559
 21
1118.51165896922
 31
0.0
  0
LINE
  5
146
330
1F
100
AcDbEntity
  8
2-C_ﾊｯﾁ
  6
JWW_DASHED1
 62
   120
370
     5
100
AcDbLine
 10
4031.160315236546
 20
1074.336272798136
 30
0.0
 11
4166.160344104521
 21
1209.336301666119
 31
0.0
  0
LINE
  5
147
330
1F
100
AcDbEntity
  8
2-C_ﾊｯﾁ
  6
JWW_DASHED1
 62
   120
370
     5
100
AcDbLine
 10
4073.586842105208
 20
1074.336272798136
 30
0.0
 11
4208.586870973184
 21
1209.336301666119
 31
0.0
  0
LINE
  5
148
330
1F
100
AcDbEntity
  8
2-C_ﾊｯﾁ
  6
JWW_DASHED1
 62
   120
370
     5
100
AcDbLine
 10
4158.439841047219
 20
1074.336272798136
 30
0.0
 11
4245.041437722559
 21
1160.938185837886
 31
0.0
  0
LINE
  5
149
330
1F
100
AcDbEntity
  8
2-C_ﾊｯﾁ
  6
JWW_DASHED1
 62
   120
370
     5
100
AcDbLine
 10
4116.013349646748
 20
1074.336272798136
 30
0.0
 11
4245.041437722559
 21
1203.364527126684
 31
0.0
  0
LINE
  5
14A
330
1F
100
AcDbEntity
  8
2-C_ﾊｯﾁ
  6
JWW_DASHED1
 62
   120
370
     5
100
AcDbLine
 10
4540.276484932821
 20
1074.336272798136
 30
0.0
 11
4675.277181889571
 21
1209.336301666119
 31
0.0
  0
LINE
  5
14B
330
1F
100
AcDbEntity
  8
2-C_ﾊｯﾁ
  6
JWW_DASHED1
 62
   120
370
     5
100
AcDbLine
 10
4794.836162965183
 20
1074.336272798136
 30
0.0
 11
4800.041800634301
 21
1079.541962965304
 31
0.0
  0
LINE
  5
14C
330
1F
100
AcDbEntity
  8
2-C_ﾊｯﾁ
  6
JWW_DASHED1
 62
   120
370
     5
100
AcDbLine
 10
4582.703011801485
 20
1074.336272798136
 30
0.0
 11
4717.703708758234
 21
1209.336301666119
 31
0.0
  0
LINE
  5
14D
330
1F
100
AcDbEntity
  8
2-C_ﾊｯﾁ
  6
JWW_DASHED1
 62
   120
370
     5
100
AcDbLine
 10
4625.12953867016
 20
1074.336272798136
 30
0.0
 11
4760.130235626895
 21
1209.336301666119
 31
0.0
  0
LINE
  5
14E
330
1F
100
AcDbEntity
  8
2-C_ﾊｯﾁ
  6
JWW_DASHED1
 62
   120
370
     5
100
AcDbLine
 10
4752.40910206843
 20
1074.336272798136
 30
0.0
 11
4800.041800634301
 21
1121.968790284127
 31
0.0
  0
LINE
  5
14F
330
1F
100
AcDbEntity
  8
2-C_ﾊｯﾁ
  6
JWW_DASHED1
 62
   120
370
     5
100
AcDbLine
 10
4709.982538051579
 20
1074.336272798136
 30
0.0
 11
4800.041800634301
 21
1164.395416051543
 31
0.0
  0
LINE
  5
150
330
1F
100
AcDbEntity
  8
2-C_ﾊｯﾁ
  6
JWW_DASHED1
 62
   120
370
     5
100
AcDbLine
 10
4667.556065538822
 20
1074.336272798136
 30
0.0
 11
4800.041800634301
 21
1206.821352250835
 31
0.0
  0
LINE
  5
151
330
1F
100
AcDbEntity
  8
2-0_補助線
  6
JWW_HOJO
 62
   120
370
     5
100
AcDbLine
 10
3931.872011759699
 20
1011.826849464889
 30
0.0
 11
5075.04214703429
 21
1011.826849464889
 31
0.0
  0
LINE
  5
152
330
1F
100
AcDbEntity
  8
2-0_補助線
  6
JWW_HOJO
 62
   120
370
     5
100
AcDbLine
 10
3931.872011759699
 20
831.826849464889
 30
0.0
 11
5255.04214703429
 21
831.826849464889
 31
0.0
  0
LINE
  5
153
330
1F
100
AcDbEntity
  8
2-0_補助線
  6
JWW_HOJO
 62
   120
370
     5
100
AcDbLine
 10
3915.041091306796
 20
1999.627478346963
 30
0.0
 11
5075.04214703429
 21
1999.627478346963
 31
0.0
  0
LINE
  5
154
330
1F
100
AcDbEntity
  8
2-0_補助線
  6
JWW_HOJO
 62
   120
370
     5
100
AcDbLine
 10
3915.041091306796
 20
2143.169528146961
 30
0.0
 11
5255.04214703429
 21
2143.169528146961
 31
0.0
  0
LINE
  5
155
330
1F
100
AcDbEntity
  8
0-A_文字
  6
Continuous
 62
    92
370
     5
100
AcDbLine
 10
3384.248282141382
 20
-2741.000016495987
 30
0.0
 11
5369.917643811961
 21
-2741.000016495987
 31
0.0
  0
LINE
  5
156
330
1F
100
AcDbEntity
  8
0-A_文字
  6
Continuous
 62
    92
370
     5
100
AcDbLine
 10
3384.248282141382
 20
2538.999983504013
 30
0.0
 11
3384.248282141382
 21
-2741.000016495987
 31
0.0
  0
LINE
  5
157
330
1F
100
AcDbEntity
  8
0-A_文字
  6
Continuous
 62
    92
370
     5
100
AcDbLine
 10
5369.917643811961
 20
2538.999983504013
 30
0.0
 11
5369.917643811961
 21
-2741.000016495987
 31
0.0
  0
LINE
  5
158
330
1F
100
AcDbEntity
  8
0-A_文字
  6
Continuous
 62
     7
370
     5
100
AcDbLine
 10
4378.23454421661
 20
-2221.030391503438
 30
0.0
 11
4509.262474388959
 21
-2520.648174145296
 31
0.0
  0
LINE
  5
159
330
1F
100
AcDbEntity
  8
0-A_文字
  6
Continuous
 62
     7
370
     5
100
AcDbLine
 10
4509.262474388959
 20
-2520.648174145296
 30
0.0
 11
5335.44106562579
 21
-2520.648174145296
 31
0.0
  0
LINE
  5
15A
330
1F
100
AcDbEntity
  8
2-A_文字
  6
Continuous
 62
     7
370
     5
100
AcDbLine
 10
4621.859641266308
 20
1116.00074828739
 30
0.0
 11
4490.519765499273
 21
1426.625220415767
 31
0.0
  0
LINE
  5
15B
330
1F
100
AcDbEntity
  8
2-0_補助線
  6
JWW_HOJO
 62
     7
370
     5
100
AcDbLine
 10
4375.041619178421
 20
982.5497696507017
 30
0.0
 11
4375.041619178421
 21
1331.72195560008
 31
0.0
  0
LINE
  5
15C
330
1F
100
AcDbEntity
  8
2-0_補助線
  6
JWW_HOJO
 62
   120
370
     5
100
AcDbLine
 10
3915.041091306796
 20
1949.627478346963
 30
0.0
 11
5075.04214703429
 21
1949.627478346963
 31
0.0
  0
LINE
  5
15D
330
1F
100
AcDbEntity
  8
2-4_枠
  6
Continuous
 62
    92
370
     5
100
AcDbLine
 10
3950.041437722555
 20
1949.627478346963
 30
0.0
 11
3950.041437722555
 21
1074.336272798136
 31
0.0
  0
LINE
  5
15E
330
1F
100
AcDbEntity
  8
2-4_枠
  6
Continuous
 62
    92
370
     5
100
AcDbLine
 10
4800.041800634301
 20
1949.627478346963
 30
0.0
 11
4800.041800634301
 21
1074.336272798136
 31
0.0
  0
LINE
  5
15F
330
1F
100
AcDbEntity
  8
2-1_通り芯
  6
JWW_CENTER1
 62
   120
370
     5
100
AcDbLine
 10
4375.041619178421
 20
1949.627478346963
 30
0.0
 11
4375.041619178421
 21
629.4883781811029
 31
0.0
  0
LINE
  5
160
330
1F
100
AcDbEntity
  8
2-6_扉
  6
JWW_DASHED1
 62
    40
370
     5
100
AcDbLine
 10
4240.041619178421
 20
1949.627478346963
 30
0.0
 11
4240.041619178421
 21
1294.336301666118
 31
0.0
  0
LINE
  5
161
330
1F
100
AcDbEntity
  8
2-6_扉
  6
JWW_DASHED1
 62
    40
370
     5
100
AcDbLine
 10
4240.041619178421
 20
1294.336301666118
 30
0.0
 11
4510.041619178421
 21
1294.336301666118
 31
0.0
  0
LINE
  5
162
330
1F
100
AcDbEntity
  8
2-6_扉
  6
JWW_DASHED1
 62
    40
370
     5
100
AcDbLine
 10
4510.041619178421
 20
1949.627478346963
 30
0.0
 11
4510.041619178421
 21
1294.336301666118
 31
0.0
  0
LINE
  5
163
330
1F
100
AcDbEntity
  8
1-A_文字
  6
Continuous
 62
     7
370
     5
100
AcDbLine
 10
4406.159087925636
 20
-624.019370892164
 30
0.0
 11
4532.83365267808
 21
-766.7049313746423
 31
0.0
  0
LINE
  5
164
330
1F
100
AcDbEntity
  8
1-3_仕上げ
  6
Continuous
 62
    40
370
     5
100
AcDbLine
 10
3765.553297335398
 20
-655.487430563229
 30
0.0
 11
4845.553297335398
 21
-655.487430563229
 31
0.0
  0
LINE
  5
165
330
1F
100
AcDbEntity
  8
1-0_補助線
  6
JWW_HOJO
 62
   120
370
     5
100
AcDbLine
 10
3765.553297335398
 20
-834.9754549614653
 30
0.0
 11
4845.553297335398
 21
-834.9754549614653
 31
0.0
  0
LINE
  5
166
330
1F
100
AcDbEntity
  8
1-B_寸法
  6
Continuous
 62
   120
370
     5
100
AcDbLine
 10
4875.553297335398
 20
-655.487430563229
 30
0.0
 11
5145.553297335398
 21
-655.487430563229
 31
0.0
  0
LWPOLYLINE
  5
167
330
1F
100
AcDbEntity
  8
1-B_寸法
  6
Continuous
 62
     7
370
     5
100
AcDbPolyline
 90
        4
 70
     1
 43
3.0
 10
5147.053297335398
 20
-655.487430563229
 42
0.4142135623731
 10
5145.553297335398
 20
-653.987430563229
 42
0.4142135623731
 10
5144.053297335397
 20
-655.487430563229
 42
0.4142135623731
 10
5145.553297335398
 20
-656.987430563229
 42
0.4142135623731
  0
LINE
  5
168
330
1F
100
AcDbEntity
  8
1-B_寸法
  6
Continuous
 62
   120
370
     5
100
AcDbLine
 10
4118.053297335398
 20
-714.975454961293
 30
0.0
 11
4118.053297335398
 21
-834.975454961293
 31
0.0
  0
LWPOLYLINE
  5
169
330
1F
100
AcDbEntity
  8
1-B_寸法
  6
Continuous
 62
     7
370
     5
100
AcDbPolyline
 90
        4
 70
     1
 43
3.0
 10
4119.553297335398
 20
-834.975454961293
 42
0.4142135623731
 10
4118.053297335398
 20
-833.475454961293
 42
0.4142135623731
 10
4116.553297335397
 20
-834.975454961293
 42
0.4142135623731
 10
4118.053297335398
 20
-836.475454961293
 42
0.4142135623731
  0
LINE
  5
16A
330
1F
100
AcDbEntity
  8
1-B_寸法
  6
Continuous
 62
   120
370
     5
100
AcDbLine
 10
4493.053297335398
 20
-714.975454961293
 30
0.0
 11
4493.053297335398
 21
-834.975454961293
 31
0.0
  0
LWPOLYLINE
  5
16B
330
1F
100
AcDbEntity
  8
1-B_寸法
  6
Continuous
 62
     7
370
     5
100
AcDbPolyline
 90
        4
 70
     1
 43
3.0
 10
4494.553297335398
 20
-834.975454961293
 42
0.4142135623731
 10
4493.053297335398
 20
-833.475454961293
 42
0.4142135623731
 10
4491.553297335397
 20
-834.975454961293
 42
0.4142135623731
 10
4493.053297335398
 20
-836.475454961293
 42
0.4142135623731
  0
LINE
  5
16C
330
1F
100
AcDbEntity
  8
1-B_寸法
  6
Continuous
 62
   120
370
     5
100
AcDbLine
 10
4118.053297335398
 20
-834.975454961293
 30
0.0
 11
4493.053297335398
 21
-834.975454961293
 31
0.0
  0
LINE
  5
16D
330
1F
100
AcDbEntity
  8
1-B_寸法
  6
Continuous
 62
   120
370
     5
100
AcDbLine
 10
4478.053297335398
 20
-714.975454961293
 30
0.0
 11
4478.053297335398
 21
-834.975454961293
 31
0.0
  0
LWPOLYLINE
  5
16E
330
1F
100
AcDbEntity
  8
1-B_寸法
  6
Continuous
 62
     7
370
     5
100
AcDbPolyline
 90
        4
 70
     1
 43
3.0
 10
4479.553297335398
 20
-834.975454961293
 42
0.4142135623731
 10
4478.053297335398
 20
-833.475454961293
 42
0.4142135623731
 10
4476.553297335397
 20
-834.975454961293
 42
0.4142135623731
 10
4478.053297335398
 20
-836.475454961293
 42
0.4142135623731
  0
LINE
  5
16F
330
1F
100
AcDbEntity
  8
1-B_寸法
  6
Continuous
 62
   120
370
     5
100
AcDbLine
 10
4133.053443135561
 20
-714.975454961293
 30
0.0
 11
4133.053443135561
 21
-834.975454961293
 31
0.0
  0
LWPOLYLINE
  5
170
330
1F
100
AcDbEntity
  8
1-B_寸法
  6
Continuous
 62
     7
370
     5
100
AcDbPolyline
 90
        4
 70
     1
 43
3.0
 10
4134.553443135562
 20
-834.975454961293
 42
0.4142135623731
 10
4133.053443135561
 20
-833.475454961293
 42
0.4142135623731
 10
4131.553443135561
 20
-834.975454961293
 42
0.4142135623731
 10
4133.053443135561
 20
-836.475454961293
 42
0.4142135623731
  0
LINE
  5
171
330
1F
100
AcDbEntity
  8
1-B_寸法
  6
Continuous
 62
   120
370
     5
100
AcDbLine
 10
4875.553297335398
 20
-580.487430563229
 30
0.0
 11
5145.553297335398
 21
-580.487430563229
 31
0.0
  0
LWPOLYLINE
  5
172
330
1F
100
AcDbEntity
  8
1-B_寸法
  6
Continuous
 62
     7
370
     5
100
AcDbPolyline
 90
        4
 70
     1
 43
3.0
 10
5147.053297335398
 20
-580.487430563229
 42
0.4142135623731
 10
5145.553297335398
 20
-578.987430563229
 42
0.4142135623731
 10
5144.053297335397
 20
-580.487430563229
 42
0.4142135623731
 10
5145.553297335398
 20
-581.987430563229
 42
0.4142135623731
  0
LINE
  5
173
330
1F
100
AcDbEntity
  8
1-B_寸法
  6
Continuous
 62
   120
370
     5
100
AcDbLine
 10
4065.553297335398
 20
-393.6474936108959
 30
0.0
 11
4065.553297335398
 21
-33.64749361089594
 31
0.0
  0
LWPOLYLINE
  5
174
330
1F
100
AcDbEntity
  8
1-B_寸法
  6
Continuous
 62
     7
370
     5
100
AcDbPolyline
 90
        4
 70
     1
 43
3.0
 10
4067.053297335398
 20
-273.6474936108959
 42
0.4142135623731
 10
4065.553297335398
 20
-272.1474936108959
 42
0.4142135623731
 10
4064.053297335397
 20
-273.6474936108959
 42
0.4142135623731
 10
4065.553297335398
 20
-275.1474936108959
 42
0.4142135623731
  0
LWPOLYLINE
  5
175
330
1F
100
AcDbEntity
  8
1-B_寸法
  6
Continuous
 62
     7
370
     5
100
AcDbPolyline
 90
        4
 70
     1
 43
3.0
 10
4067.053297335398
 20
-153.6474936108959
 42
0.4142135623731
 10
4065.553297335398
 20
-152.1474936108959
 42
0.4142135623731
 10
4064.053297335397
 20
-153.6474936108959
 42
0.4142135623731
 10
4065.553297335398
 20
-155.1474936108959
 42
0.4142135623731
  0
LWPOLYLINE
  5
176
330
1F
100
AcDbEntity
  8
1-B_寸法
  6
Continuous
 62
     7
370
     5
100
AcDbPolyline
 90
        4
 70
     1
 43
3.0
 10
4067.053297335398
 20
-33.64749361089594
 42
0.4142135623731
 10
4065.553297335398
 20
-32.14749361089594
 42
0.4142135623731
 10
4064.053297335397
 20
-33.64749361089594
 42
0.4142135623731
 10
4065.553297335398
 20
-35.14749361089594
 42
0.4142135623731
  0
LINE
  5
177
330
1F
100
AcDbEntity
  8
1-0_補助線
  6
JWW_HOJO
 62
   120
370
     5
100
AcDbLine
 10
3765.553297335398
 20
-33.64749361089594
 30
0.0
 11
3765.553297335398
 21
-834.9754549614653
 31
0.0
  0
LINE
  5
178
330
1F
100
AcDbEntity
  8
1-0_補助線
  6
JWW_HOJO
 62
   120
370
     5
100
AcDbLine
 10
4065.553297335398
 20
-273.6474936108959
 30
0.0
 11
4545.553297335398
 21
-273.6474936108959
 31
0.0
  0
LINE
  5
179
330
1F
100
AcDbEntity
  8
1-0_補助線
  6
JWW_HOJO
 62
   120
370
     5
100
AcDbLine
 10
4065.553297335398
 20
-153.6474936108959
 30
0.0
 11
4545.553297335398
 21
-153.6474936108959
 31
0.0
  0
LINE
  5
17A
330
1F
100
AcDbEntity
  8
1-B_寸法
  6
Continuous
 62
   120
370
     5
100
AcDbLine
 10
4065.553297335398
 20
-153.6474936108959
 30
0.0
 11
4545.553297335398
 21
-153.6474936108959
 31
0.0
  0
LINE
  5
17B
330
1F
100
AcDbEntity
  8
1-B_寸法
  6
Continuous
 62
   120
370
     5
100
AcDbLine
 10
4065.553297335398
 20
-33.64749361089594
 30
0.0
 11
4545.553297335398
 21
-33.64749361089594
 31
0.0
  0
LWPOLYLINE
  5
17C
330
1F
100
AcDbEntity
  8
1-B_寸法
  6
Continuous
 62
     7
370
     5
100
AcDbPolyline
 90
        4
 70
     1
 43
3.0
 10
4547.053297335398
 20
-273.6474936108959
 42
0.4142135623731
 10
4545.553297335398
 20
-272.1474936108959
 42
0.4142135623731
 10
4544.053297335397
 20
-273.6474936108959
 42
0.4142135623731
 10
4545.553297335398
 20
-275.1474936108959
 42
0.4142135623731
  0
LWPOLYLINE
  5
17D
330
1F
100
AcDbEntity
  8
1-B_寸法
  6
Continuous
 62
     7
370
     5
100
AcDbPolyline
 90
        4
 70
     1
 43
3.0
 10
4547.053297335398
 20
-153.6474936108959
 42
0.4142135623731
 10
4545.553297335398
 20
-152.1474936108959
 42
0.4142135623731
 10
4544.053297335397
 20
-153.6474936108959
 42
0.4142135623731
 10
4545.553297335398
 20
-155.1474936108959
 42
0.4142135623731
  0
LWPOLYLINE
  5
17E
330
1F
100
AcDbEntity
  8
1-B_寸法
  6
Continuous
 62
     7
370
     5
100
AcDbPolyline
 90
        4
 70
     1
 43
3.0
 10
4547.053297335398
 20
-33.64749361089594
 42
0.4142135623731
 10
4545.553297335398
 20
-32.14749361089594
 42
0.4142135623731
 10
4544.053297335397
 20
-33.64749361089594
 42
0.4142135623731
 10
4545.553297335398
 20
-35.14749361089594
 42
0.4142135623731
  0
LINE
  5
17F
330
1F
100
AcDbEntity
  8
1-B_寸法
  6
Continuous
 62
   120
370
     5
100
AcDbLine
 10
4545.553297335398
 20
-393.6474936108959
 30
0.0
 11
4545.553297335398
 21
-33.64749361089594
 31
0.0
  0
LINE
  5
180
330
1F
100
AcDbEntity
  8
1-0_補助線
  6
JWW_HOJO
 62
   120
370
     5
100
AcDbLine
 10
3765.553297335398
 20
-33.64749361089594
 30
0.0
 11
4845.553297335398
 21
-33.64749361089594
 31
0.0
  0
LINE
  5
181
330
1F
100
AcDbEntity
  8
1-0_補助線
  6
JWW_HOJO
 62
   120
370
     5
100
AcDbLine
 10
4845.553297335398
 20
-33.64749361089594
 30
0.0
 11
4845.553297335398
 21
-834.9754549614653
 31
0.0
  0
LINE
  5
182
330
1F
100
AcDbEntity
  8
1-B_寸法
  6
Continuous
 62
   120
370
     5
100
AcDbLine
 10
4875.553297335398
 20
-475.4874305632291
 30
0.0
 11
5145.553297335398
 21
-475.4874305632291
 31
0.0
  0
LWPOLYLINE
  5
183
330
1F
100
AcDbEntity
  8
1-B_寸法
  6
Continuous
 62
     7
370
     5
100
AcDbPolyline
 90
        4
 70
     1
 43
3.0
 10
5147.053297335398
 20
-475.4874305632291
 42
0.4142135623731
 10
5145.553297335398
 20
-473.9874305632291
 42
0.4142135623731
 10
5144.053297335397
 20
-475.4874305632291
 42
0.4142135623731
 10
5145.553297335398
 20
-476.9874305632291
 42
0.4142135623731
  0
LWPOLYLINE
  5
184
330
1F
100
AcDbEntity
  8
1-B_寸法
  6
Continuous
 62
     7
370
     5
100
AcDbPolyline
 90
        4
 70
     1
 43
3.0
 10
4224.553297335398
 20
-153.6474936108959
 42
0.4142135623731
 10
4223.053297335398
 20
-152.1474936108959
 42
0.4142135623731
 10
4221.553297335397
 20
-153.6474936108959
 42
0.4142135623731
 10
4223.053297335398
 20
-155.1474936108959
 42
0.4142135623731
  0
LINE
  5
185
330
1F
100
AcDbEntity
  8
1-B_寸法
  6
Continuous
 62
   120
370
     5
100
AcDbLine
 10
4223.053297335398
 20
-153.6474936108959
 30
0.0
 11
4223.053297335398
 21
-393.6474936108959
 31
0.0
  0
LWPOLYLINE
  5
186
330
1F
100
AcDbEntity
  8
1-B_寸法
  6
Continuous
 62
     7
370
     5
100
AcDbPolyline
 90
        4
 70
     1
 43
3.0
 10
4389.553297335398
 20
-153.6474936108959
 42
0.4142135623731
 10
4388.053297335398
 20
-152.1474936108959
 42
0.4142135623731
 10
4386.553297335397
 20
-153.6474936108959
 42
0.4142135623731
 10
4388.053297335398
 20
-155.1474936108959
 42
0.4142135623731
  0
LINE
  5
187
330
1F
100
AcDbEntity
  8
1-B_寸法
  6
Continuous
 62
   120
370
     5
100
AcDbLine
 10
4388.053297335398
 20
-153.6474936108959
 30
0.0
 11
4388.053297335398
 21
-393.6474936108959
 31
0.0
  0
LINE
  5
188
330
1F
100
AcDbEntity
  8
1-3_仕上げ
  6
Continuous
 62
    40
370
     5
100
AcDbLine
 10
4118.268801862467
 20
-475.4874305632291
 30
0.0
 11
3765.553297335398
 21
-475.4874305632291
 31
0.0
  0
LINE
  5
189
330
1F
100
AcDbEntity
  8
1-3_仕上げ
  6
Continuous
 62
    40
370
     5
100
AcDbLine
 10
4492.83779280833
 20
-475.4874305632291
 30
0.0
 11
4845.553297335398
 21
-475.4874305632291
 31
0.0
  0
LINE
  5
18A
330
1F
100
AcDbEntity
  8
1-3_仕上げ
  6
Continuous
 62
     7
370
     5
100
AcDbLine
 10
4118.053297335398
 20
-511.4874305632287
 30
0.0
 11
3765.553297335398
 21
-511.4874305632287
 31
0.0
  0
LINE
  5
18B
330
1F
100
AcDbEntity
  8
1-3_仕上げ
  6
Continuous
 62
     7
370
     5
100
AcDbLine
 10
4118.053297335398
 20
-547.4874305632284
 30
0.0
 11
3765.553297335398
 21
-547.4874305632284
 31
0.0
  0
LINE
  5
18C
330
1F
100
AcDbEntity
  8
1-3_仕上げ
  6
Continuous
 62
     7
370
     5
100
AcDbLine
 10
4118.053297335398
 20
-583.487430563228
 30
0.0
 11
3765.553297335398
 21
-583.487430563228
 31
0.0
  0
LINE
  5
18D
330
1F
100
AcDbEntity
  8
1-3_仕上げ
  6
Continuous
 62
     7
370
     5
100
AcDbLine
 10
4118.053297335398
 20
-619.4874305632294
 30
0.0
 11
3765.553297335398
 21
-619.4874305632294
 31
0.0
  0
LINE
  5
18E
330
1F
100
AcDbEntity
  8
1-3_仕上げ
  6
Continuous
 62
     7
370
     5
100
AcDbLine
 10
4845.553297335398
 20
-511.9154008011805
 30
0.0
 11
4493.053297335398
 21
-511.9154008011805
 31
0.0
  0
LINE
  5
18F
330
1F
100
AcDbEntity
  8
1-3_仕上げ
  6
Continuous
 62
     7
370
     5
100
AcDbLine
 10
4845.553297335398
 20
-547.9154008011801
 30
0.0
 11
4493.053297335398
 21
-547.9154008011801
 31
0.0
  0
LINE
  5
190
330
1F
100
AcDbEntity
  8
1-3_仕上げ
  6
Continuous
 62
     7
370
     5
100
AcDbLine
 10
4845.553297335398
 20
-583.9154008011798
 30
0.0
 11
4493.053297335398
 21
-583.9154008011798
 31
0.0
  0
LINE
  5
191
330
1F
100
AcDbEntity
  8
1-3_仕上げ
  6
Continuous
 62
     7
370
     5
100
AcDbLine
 10
4845.553297335398
 20
-619.9154008011794
 30
0.0
 11
4493.053297335398
 21
-619.9154008011794
 31
0.0
  0
LINE
  5
192
330
1F
100
AcDbEntity
  8
1-B_寸法
  6
Continuous
 62
   120
370
     5
100
AcDbLine
 10
5145.553297335398
 20
-655.487430563229
 30
0.0
 11
5145.553297335398
 21
-457.4874305632284
 31
0.0
  0
LINE
  5
193
330
1F
100
AcDbEntity
  8
1-B_寸法
  6
Continuous
 62
   120
370
     5
100
AcDbLine
 10
4875.553297335398
 20
-457.4874305632284
 30
0.0
 11
5145.553297335398
 21
-457.4874305632284
 31
0.0
  0
LWPOLYLINE
  5
194
330
1F
100
AcDbEntity
  8
1-B_寸法
  6
Continuous
 62
     7
370
     5
100
AcDbPolyline
 90
        4
 70
     1
 43
3.0
 10
5147.053297335398
 20
-457.4874305632284
 42
0.4142135623731
 10
5145.553297335398
 20
-455.9874305632284
 42
0.4142135623731
 10
5144.053297335397
 20
-457.4874305632284
 42
0.4142135623731
 10
5145.553297335398
 20
-458.9874305632284
 42
0.4142135623731
  0
LINE
  5
195
330
1F
100
AcDbEntity
  8
1-B_寸法
  6
Continuous
 62
   120
370
     5
100
AcDbLine
 10
4451.053297335395
 20
-273.6474936108959
 30
0.0
 11
4545.553297335398
 21
-273.6474936108959
 31
0.0
  0
LWPOLYLINE
  5
196
330
1F
100
AcDbEntity
  8
1-B_寸法
  6
Continuous
 62
     7
370
     5
100
AcDbPolyline
 90
        4
 70
     1
 43
3.0
 10
4452.553297335396
 20
-273.6474936108959
 42
0.4142135623731
 10
4451.053297335395
 20
-272.1474936108959
 42
0.4142135623731
 10
4449.553297335395
 20
-273.6474936108959
 42
0.4142135623731
 10
4451.053297335395
 20
-275.1474936108959
 42
0.4142135623731
  0
LINE
  5
197
330
1F
100
AcDbEntity
  8
1-B_寸法
  6
Continuous
 62
   120
370
     5
100
AcDbLine
 10
4451.053297335395
 20
-273.6474936108959
 30
0.0
 11
4451.053297335395
 21
-393.6474936108959
 31
0.0
  0
LINE
  5
198
330
1F
100
AcDbEntity
  8
1-B_寸法
  6
Continuous
 62
   120
370
     5
100
AcDbLine
 10
4065.553297335398
 20
-273.6474936108959
 30
0.0
 11
4160.0532973354
 21
-273.6474936108959
 31
0.0
  0
LINE
  5
199
330
1F
100
AcDbEntity
  8
1-B_寸法
  6
Continuous
 62
   120
370
     5
100
AcDbLine
 10
4160.0532973354
 20
-273.6474936108959
 30
0.0
 11
4160.0532973354
 21
-393.6474936108959
 31
0.0
  0
LWPOLYLINE
  5
19A
330
1F
100
AcDbEntity
  8
1-B_寸法
  6
Continuous
 62
     7
370
     5
100
AcDbPolyline
 90
        4
 70
     1
 43
3.0
 10
4161.553297335401
 20
-273.6474936108959
 42
0.4142135623731
 10
4160.0532973354
 20
-272.1474936108959
 42
0.4142135623731
 10
4158.5532973354
 20
-273.6474936108959
 42
0.4142135623731
 10
4160.0532973354
 20
-275.1474936108959
 42
0.4142135623731
  0
LINE
  5
19B
330
1F
100
AcDbEntity
  8
1-C_ハッチ
  6
Continuous
 62
   120
370
     5
100
AcDbLine
 10
4133.053297335398
 20
-600.7867097415021
 30
0.0
 11
4155.553297335398
 21
-578.2867097415021
 31
0.0
  0
LINE
  5
19C
330
1F
100
AcDbEntity
  8
1-7_金物
  6
Continuous
 62
    92
370
     5
100
AcDbLine
 10
4155.553297335398
 20
-580.487430563229
 30
0.0
 11
4455.553297335398
 21
-580.487430563229
 31
0.0
  0
LINE
  5
19D
330
1F
100
AcDbEntity
  8
1-7_金物
  6
Continuous
 62
    92
370
     5
100
AcDbLine
 10
4155.553297335398
 20
-550.487430563229
 30
0.0
 11
4155.553297335398
 21
-580.487430563229
 31
0.0
  0
LINE
  5
19E
330
1F
100
AcDbEntity
  8
1-7_金物
  6
Continuous
 62
    92
370
     5
100
AcDbLine
 10
4155.553297335398
 20
-550.487430563229
 30
0.0
 11
4133.053151535234
 21
-550.487430563229
 31
0.0
  0
LINE
  5
19F
330
1F
100
AcDbEntity
  8
1-7_金物
  6
Continuous
 62
    92
370
     5
100
AcDbLine
 10
4455.553297335398
 20
-550.487430563229
 30
0.0
 11
4477.580585634512
 21
-550.487430563229
 31
0.0
  0
LINE
  5
1A0
330
1F
100
AcDbEntity
  8
1-7_金物
  6
Continuous
 62
    92
370
     5
100
AcDbLine
 10
4455.553297335398
 20
-550.487430563229
 30
0.0
 11
4455.553297335398
 21
-580.487430563229
 31
0.0
  0
LINE
  5
1A1
330
1F
100
AcDbEntity
  8
1-7_金物
  6
Continuous
 62
    92
370
     5
100
AcDbLine
 10
4477.580439834348
 20
-550.4868747374803
 30
0.0
 11
4477.580439834348
 21
-655.487430563229
 31
0.0
  0
LINE
  5
1A2
330
1F
100
AcDbEntity
  8
1-7_金物
  6
Continuous
 62
    92
370
     5
100
AcDbLine
 10
4133.053297335398
 20
-550.4868747374803
 30
0.0
 11
4133.053297335398
 21
-655.487430563229
 31
0.0
  0
LINE
  5
1A3
330
1F
100
AcDbEntity
  8
1-7_金物
  6
Continuous
 62
    92
370
     5
100
AcDbLine
 10
4133.053297335398
 20
-655.487430563229
 30
0.0
 11
4477.580439834348
 21
-655.487430563229
 31
0.0
  0
LINE
  5
1A4
330
1F
100
AcDbEntity
  8
1-C_ハッチ
  6
Continuous
 62
   120
370
     5
100
AcDbLine
 10
4460.190238354424
 20
-655.487430563229
 30
0.0
 11
4477.580439834348
 21
-638.0972290833023
 31
0.0
  0
LINE
  5
1A5
330
1F
100
AcDbEntity
  8
1-C_ハッチ
  6
Continuous
 62
   120
370
     5
100
AcDbLine
 10
4141.992186820478
 20
-655.487430563229
 30
0.0
 11
4216.992186820478
 21
-580.487430563229
 31
0.0
  0
LINE
  5
1A6
330
1F
100
AcDbEntity
  8
1-C_ハッチ
  6
Continuous
 62
   120
370
     5
100
AcDbLine
 10
4332.911017740824
 20
-655.487430563229
 30
0.0
 11
4407.911017740824
 21
-580.487430563229
 31
0.0
  0
LINE
  5
1A7
330
1F
100
AcDbEntity
  8
1-C_ハッチ
  6
Continuous
 62
   120
370
     5
100
AcDbLine
 10
4269.271407434024
 20
-655.487430563229
 30
0.0
 11
4344.271407434024
 21
-580.4874305632239
 31
0.0
  0
LINE
  5
1A8
330
1F
100
AcDbEntity
  8
1-C_ハッチ
  6
Continuous
 62
   120
370
     5
100
AcDbLine
 10
4205.631797127224
 20
-655.487430563229
 30
0.0
 11
4280.631797127224
 21
-580.4874305632188
 31
0.0
  0
LINE
  5
1A9
330
1F
100
AcDbEntity
  8
1-C_ハッチ
  6
Continuous
 62
   120
370
     5
100
AcDbLine
 10
4396.550628047624
 20
-655.487430563229
 30
0.0
 11
4477.580439834348
 21
-574.457618776504
 31
0.0
  0
LINE
  5
1AA
330
1F
100
AcDbEntity
  8
1-0_補助線
  6
JWW_HOJO
 62
   120
370
     5
100
AcDbLine
 10
4305.553297335398
 20
-460.9984229759021
 30
0.0
 11
4305.553297335398
 21
-615.2062061595421
 31
0.0
  0
LINE
  5
1AB
330
1F
100
AcDbEntity
  8
1-7_金物
  6
Continuous
 62
     7
370
     5
100
AcDbLine
 10
4178.053297335398
 20
-562.4874305632284
 30
0.0
 11
4208.053297335398
 21
-562.4874305632284
 31
0.0
  0
LINE
  5
1AC
330
1F
100
AcDbEntity
  8
1-7_金物
  6
Continuous
 62
     7
370
     5
100
AcDbLine
 10
4223.053297335398
 20
-562.4874305632284
 30
0.0
 11
4301.053297335395
 21
-562.4874305632284
 31
0.0
  0
LINE
  5
1AD
330
1F
100
AcDbEntity
  8
1-7_金物
  6
Continuous
 62
     7
370
     5
100
AcDbLine
 10
4301.053297335395
 20
-562.4874305632284
 30
0.0
 11
4305.553297335398
 21
-566.9874305632294
 31
0.0
  0
LINE
  5
1AE
330
1F
100
AcDbEntity
  8
1-7_金物
  6
Continuous
 62
     7
370
     5
100
AcDbLine
 10
4305.553297335398
 20
-566.9874305632294
 30
0.0
 11
4310.0532973354
 21
-562.4874305632284
 31
0.0
  0
LINE
  5
1AF
330
1F
100
AcDbEntity
  8
1-7_金物
  6
Continuous
 62
     7
370
     5
100
AcDbLine
 10
4310.0532973354
 20
-562.4874305632284
 30
0.0
 11
4388.053297335398
 21
-562.4874305632284
 31
0.0
  0
LINE
  5
1B0
330
1F
100
AcDbEntity
  8
1-7_金物
  6
Continuous
 62
     7
370
     5
100
AcDbLine
 10
4403.053297335398
 20
-562.4874305632284
 30
0.0
 11
4433.053297335398
 21
-562.4874305632284
 31
0.0
  0
LINE
  5
1B1
330
1F
100
AcDbEntity
  8
1-7_金物
  6
Continuous
 62
     7
370
     5
100
AcDbLine
 10
4541.053297335395
 20
-475.4874305632291
 30
0.0
 11
4451.053297335395
 21
-475.4874305632291
 31
0.0
  0
LINE
  5
1B2
330
1F
100
AcDbEntity
  8
1-7_金物
  6
Continuous
 62
     7
370
     5
100
AcDbLine
 10
4160.0532973354
 20
-475.4874305632291
 30
0.0
 11
4070.053297335401
 21
-475.4874305632291
 31
0.0
  0
LINE
  5
1B3
330
1F
100
AcDbEntity
  8
1-7_金物
  6
Continuous
 62
     7
370
     5
100
AcDbLine
 10
4160.0532973354
 20
-457.4874305632284
 30
0.0
 11
4070.053297335401
 21
-466.4874305632287
 31
0.0
  0
ARC
  5
1B4
330
1F
100
AcDbEntity
  8
1-7_金物
  6
Continuous
 62
     7
370
     5
100
AcDbCircle
 10
4070.053297335401
 20
-470.9874305632297
 30
0.0
 40
4.500000000000001
100
AcDbArc
 50
90.0
 51
270.0
  0
ARC
  5
1B5
330
1F
100
AcDbEntity
  8
1-7_金物
  6
Continuous
 62
     7
370
     5
100
AcDbCircle
 10
4541.053297335395
 20
-470.9874305632297
 30
0.0
 40
4.500000000000001
100
AcDbArc
 50
270.0
 51
89.99999999999997
  0
LINE
  5
1B6
330
1F
100
AcDbEntity
  8
1-7_金物
  6
Continuous
 62
     7
370
     5
100
AcDbLine
 10
4541.053297335395
 20
-466.4874305632287
 30
0.0
 11
4451.053297335395
 21
-457.4874305632284
 31
0.0
  0
LINE
  5
1B7
330
1F
100
AcDbEntity
  8
1-7_金物
  6
Continuous
 62
     7
370
     5
100
AcDbLine
 10
4214.053297335406
 20
-457.4874305632284
 30
0.0
 11
4160.0532973354
 21
-457.4874305632284
 31
0.0
  0
ARC
  5
1B8
330
1F
100
AcDbEntity
  8
1-7_金物
  6
Continuous
 62
     7
370
     5
100
AcDbCircle
 10
4214.053297335406
 20
-466.4874305632287
 30
0.0
 40
9.000000000000002
100
AcDbArc
 50
0.0
 51
90.0
  0
ARC
  5
1B9
330
1F
100
AcDbEntity
  8
1-7_金物
  6
Continuous
 62
     7
370
     5
100
AcDbCircle
 10
4214.053297335406
 20
-466.4874305632287
 30
0.0
 40
9.000000000000002
100
AcDbArc
 50
270.0
 51
0.0
  0
ARC
  5
1BA
330
1F
100
AcDbEntity
  8
1-7_金物
  6
Continuous
 62
     7
370
     5
100
AcDbCircle
 10
4397.053297335404
 20
-466.4874305632287
 30
0.0
 40
9.000000000000002
100
AcDbArc
 50
180.0
 51
270.0
  0
LINE
  5
1BB
330
1F
100
AcDbEntity
  8
1-7_金物
  6
Continuous
 62
     7
370
     5
100
AcDbLine
 10
4397.053297335404
 20
-457.4874305632284
 30
0.0
 11
4451.053297335395
 21
-457.4874305632284
 31
0.0
  0
ARC
  5
1BC
330
1F
100
AcDbEntity
  8
1-7_金物
  6
Continuous
 62
     7
370
     5
100
AcDbCircle
 10
4397.053297335404
 20
-466.4874305632287
 30
0.0
 40
9.000000000000002
100
AcDbArc
 50
90.0
 51
180.0
  0
LINE
  5
1BD
330
1F
100
AcDbEntity
  8
1-7_金物
  6
Continuous
 62
     7
370
     5
100
AcDbLine
 10
4451.053297335395
 20
-557.987430563229
 30
0.0
 11
4451.053297335395
 21
-475.4874305632291
 31
0.0
  0
ARC
  5
1BE
330
1F
100
AcDbEntity
  8
1-7_金物
  6
Continuous
 62
     7
370
     5
100
AcDbCircle
 10
4428.553297335395
 20
-557.987430563229
 30
0.0
 40
22.5
100
AcDbArc
 50
270.0
 51
0.0
  0
LINE
  5
1BF
330
1F
100
AcDbEntity
  8
1-7_金物
  6
Continuous
 62
     7
370
     5
100
AcDbLine
 10
4160.0532973354
 20
-557.987430563229
 30
0.0
 11
4160.0532973354
 21
-475.4874305632291
 31
0.0
  0
LINE
  5
1C0
330
1F
100
AcDbEntity
  8
1-7_金物
  6
Continuous
 62
     7
370
     5
100
AcDbLine
 10
4182.5532973354
 20
-580.487430563229
 30
0.0
 11
4428.553297335395
 21
-580.487430563229
 31
0.0
  0
ARC
  5
1C1
330
1F
100
AcDbEntity
  8
1-7_金物
  6
Continuous
 62
     7
370
     5
100
AcDbCircle
 10
4182.5532973354
 20
-557.987430563229
 30
0.0
 40
22.5
100
AcDbArc
 50
180.0
 51
270.0
  0
LINE
  5
1C2
330
1F
100
AcDbEntity
  8
1-7_金物
  6
Continuous
 62
     7
370
     5
100
AcDbLine
 10
4185.553297335398
 20
-475.4874305632291
 30
0.0
 11
4214.053297335406
 21
-475.4874305632291
 31
0.0
  0
LINE
  5
1C3
330
1F
100
AcDbEntity
  8
1-7_金物
  6
Continuous
 62
     7
370
     5
100
AcDbLine
 10
4178.053297335398
 20
-482.9874305632291
 30
0.0
 11
4178.053297335398
 21
-562.4874305632284
 31
0.0
  0
ARC
  5
1C4
330
1F
100
AcDbEntity
  8
1-7_金物
  6
Continuous
 62
     7
370
     5
100
AcDbCircle
 10
4185.553297335398
 20
-482.9874305632291
 30
0.0
 40
7.5
100
AcDbArc
 50
90.0
 51
180.0
  0
LINE
  5
1C5
330
1F
100
AcDbEntity
  8
1-7_金物
  6
Continuous
 62
     7
370
     5
100
AcDbLine
 10
4425.553297335398
 20
-475.4874305632291
 30
0.0
 11
4397.053297335404
 21
-475.4874305632291
 31
0.0
  0
LINE
  5
1C6
330
1F
100
AcDbEntity
  8
1-7_金物
  6
Continuous
 62
     7
370
     5
100
AcDbLine
 10
4433.053297335398
 20
-482.9874305632291
 30
0.0
 11
4433.053297335398
 21
-562.4874305632284
 31
0.0
  0
ARC
  5
1C7
330
1F
100
AcDbEntity
  8
1-7_金物
  6
Continuous
 62
     7
370
     5
100
AcDbCircle
 10
4425.553297335398
 20
-482.9874305632291
 30
0.0
 40
7.5
100
AcDbArc
 50
0.0
 51
90.0
  0
LINE
  5
1C8
330
1F
100
AcDbEntity
  8
1-7_金物
  6
Continuous
 62
     7
370
     5
100
AcDbLine
 10
4208.053297335398
 20
-550.487430563229
 30
0.0
 11
4208.053297335398
 21
-562.4874305632284
 31
0.0
  0
ARC
  5
1C9
330
1F
100
AcDbEntity
  8
1-7_金物
  6
Continuous
 62
     7
370
     5
100
AcDbCircle
 10
4211.053297335395
 20
-550.487430563229
 30
0.0
 40
3.0
100
AcDbArc
 50
90.0
 51
180.0
  0
LINE
  5
1CA
330
1F
100
AcDbEntity
  8
1-7_金物
  6
Continuous
 62
     7
370
     5
100
AcDbLine
 10
4220.0532973354
 20
-547.4874305632284
 30
0.0
 11
4211.053297335395
 21
-547.4874305632284
 31
0.0
  0
LINE
  5
1CB
330
1F
100
AcDbEntity
  8
1-7_金物
  6
Continuous
 62
     7
370
     5
100
AcDbLine
 10
4223.053297335398
 20
-550.487430563229
 30
0.0
 11
4223.053297335398
 21
-562.4874305632284
 31
0.0
  0
ARC
  5
1CC
330
1F
100
AcDbEntity
  8
1-7_金物
  6
Continuous
 62
     7
370
     5
100
AcDbCircle
 10
4220.0532973354
 20
-550.487430563229
 30
0.0
 40
3.0
100
AcDbArc
 50
0.0
 51
90.0
  0
LINE
  5
1CD
330
1F
100
AcDbEntity
  8
1-7_金物
  6
Continuous
 62
     7
370
     5
100
AcDbLine
 10
4388.053297335398
 20
-550.487430563229
 30
0.0
 11
4388.053297335398
 21
-562.4874305632284
 31
0.0
  0
ARC
  5
1CE
330
1F
100
AcDbEntity
  8
1-7_金物
  6
Continuous
 62
     7
370
     5
100
AcDbCircle
 10
4391.053297335395
 20
-550.487430563229
 30
0.0
 40
3.0
100
AcDbArc
 50
90.0
 51
180.0
  0
LINE
  5
1CF
330
1F
100
AcDbEntity
  8
1-7_金物
  6
Continuous
 62
     7
370
     5
100
AcDbLine
 10
4400.0532973354
 20
-547.4874305632284
 30
0.0
 11
4391.053297335395
 21
-547.4874305632284
 31
0.0
  0
LINE
  5
1D0
330
1F
100
AcDbEntity
  8
1-7_金物
  6
Continuous
 62
     7
370
     5
100
AcDbLine
 10
4403.053297335398
 20
-550.487430563229
 30
0.0
 11
4403.053297335398
 21
-562.4874305632284
 31
0.0
  0
ARC
  5
1D1
330
1F
100
AcDbEntity
  8
1-7_金物
  6
Continuous
 62
     7
370
     5
100
AcDbCircle
 10
4400.0532973354
 20
-550.487430563229
 30
0.0
 40
3.0
100
AcDbArc
 50
0.0
 51
90.0
  0
ARC
  5
1D2
330
1F
100
AcDbEntity
  8
1-7_金物
  6
JWW_DASHED1
 62
     7
370
     5
100
AcDbCircle
 10
4070.053297335401
 20
-470.9874305632297
 30
0.0
 40
4.500000000000001
100
AcDbArc
 50
270.0
 51
90.0
  0
ARC
  5
1D3
330
1F
100
AcDbEntity
  8
1-7_金物
  6
JWW_DASHED1
 62
     7
370
     5
100
AcDbCircle
 10
4541.053297335395
 20
-470.9874305632297
 30
0.0
 40
4.500000000000001
100
AcDbArc
 50
90.0
 51
270.0
  0
LINE
  5
1D4
330
1F
100
AcDbEntity
  8
1-3_仕上げ
  6
Continuous
 62
    40
370
     5
100
AcDbLine
 10
4493.053297335398
 20
-475.4874305632291
 30
0.0
 11
4493.053297335398
 21
-655.487430563229
 31
0.0
  0
LINE
  5
1D5
330
1F
100
AcDbEntity
  8
1-3_仕上げ
  6
Continuous
 62
    40
370
     5
100
AcDbLine
 10
4118.053297335398
 20
-475.4874305632291
 30
0.0
 11
4118.053297335398
 21
-655.487430563229
 31
0.0
  0
LINE
  5
1D6
330
1F
100
AcDbEntity
  8
1-A_文字
  6
Continuous
 62
     7
370
     5
100
AcDbLine
 10
4532.83365267808
 20
-766.7049313746423
 30
0.0
 11
4599.386277155028
 21
-766.7049313746423
 31
0.0
  0
MTEXT
  5
1D7
330
1F
100
AcDbEntity
  8
0-B_寸法
  6
Continuous
 62
     7
370
   211
100
AcDbMText
 10
516.795765520028
 20
-78.71664122671521
 30
0.0
 40
91.44
 41
60.0
 46
0.0
 71
     7
 72
     1
  1
{\fＭＳ ゴシック|b0|i0|c128|p49;8}
 11
6.123031769111886E-17
 21
1.0
 31
0.0
 73
     1
 44
1.0
  0
LWPOLYLINE
  5
1D8
330
1F
100
AcDbEntity
  8
2-B_寸法
  6
Continuous
 62
     7
370
     5
100
AcDbPolyline
 90
        4
 70
     1
 43
3.0
 10
5076.542147050047
 20
1219.336272798136
 42
0.4142135623731
 10
5075.042147050046
 20
1220.836272798136
 42
0.4142135623731
 10
5073.542147050046
 20
1219.336272798136
 42
0.4142135623731
 10
5075.042147050046
 20
1217.836272798136
 42
0.4142135623731
  0
LINE
  5
1D9
330
1F
100
AcDbEntity
  8
2-B_寸法
  6
Continuous
 62
   120
370
     5
100
AcDbLine
 10
4895.042147050046
 20
1219.336272798136
 30
0.0
 11
5075.042147050046
 21
1219.336272798136
 31
0.0
  0
LWPOLYLINE
  5
1DA
330
1F
100
AcDbEntity
  8
2-B_寸法
  6
Continuous
 62
     7
370
     5
100
AcDbPolyline
 90
        4
 70
     1
 43
3.0
 10
5076.542147050047
 20
1074.336272798136
 42
0.4142135623731
 10
5075.042147050046
 20
1075.836272798136
 42
0.4142135623731
 10
5073.542147050046
 20
1074.336272798136
 42
0.4142135623731
 10
5075.042147050046
 20
1072.836272798136
 42
0.4142135623731
  0
LINE
  5
1DB
330
1F
100
AcDbEntity
  8
2-0_補助線
  6
JWW_HOJO
 62
   120
370
     5
100
AcDbLine
 10
5075.04214703429
 20
1011.826849464889
 30
0.0
 11
5075.04214703429
 21
1999.627478346963
 31
0.0
  0
LINE
  5
1DC
330
1F
100
AcDbEntity
  8
2-0_補助線
  6
JWW_HOJO
 62
   120
370
     5
100
AcDbLine
 10
5255.04214703429
 20
831.826849464889
 30
0.0
 11
5255.04214703429
 21
2143.169528146961
 31
0.0
  0
LINE
  5
1DD
330
1F
100
AcDbEntity
  8
2-B_寸法
  6
Continuous
 62
   120
370
     5
100
AcDbLine
 10
5075.042147050046
 20
1074.336272798136
 30
0.0
 11
5075.042147050046
 21
1219.336272798136
 31
0.0
  0
LINE
  5
1DE
330
1F
100
AcDbEntity
  8
2-B_寸法
  6
Continuous
 62
   120
370
     5
100
AcDbLine
 10
4895.042147050046
 20
1074.336272798136
 30
0.0
 11
5075.042147050046
 21
1074.336272798136
 31
0.0
  0
MTEXT
  5
1DF
330
1F
100
AcDbEntity
  8
0-B_寸法
  6
Continuous
 62
     7
370
     0
100
AcDbMText
 10
336.7964583515277
 20
-300.2794434666009
 30
0.0
 40
91.44
 41
120.0
 46
0.0
 71
     7
 72
     1
  1
{\fＭＳ ゴシック|b0|i0|c128|p49;36}
 11
6.123031769111886E-17
 21
1.0
 31
0.0
 73
     1
 44
1.0
  0
MTEXT
  5
1E0
330
1F
100
AcDbEntity
  8
0-B_寸法
  6
Continuous
 62
     7
370
     0
100
AcDbMText
 10
157.3679829397224
 20
-571.2356859272268
 30
0.0
 40
91.44
 41
180.0
 46
0.0
 71
     7
 72
     1
  1
{\fＭＳ ゴシック|b0|i0|c128|p49;7.5}
 11
6.123031769111886E-17
 21
1.0
 31
0.0
 73
     1
 44
1.0
  0
MTEXT
  5
1E1
330
1F
100
AcDbEntity
  8
0-B_寸法
  6
Continuous
 62
     7
370
     0
100
AcDbMText
 10
-911.6907633405299
 20
-628.7622652783932
 30
0.0
 40
91.44
 41
120.0
 46
0.0
 71
     7
 72
     1
  1
{\fＭＳ ゴシック|b0|i0|c128|p49;77}
 73
     1
 44
1.0
  0
MTEXT
  5
1E2
330
1F
100
AcDbEntity
  8
0-B_寸法
  6
Continuous
 62
     7
370
     0
100
AcDbMText
 10
-915.4407685981132
 20
-980.2702552013903
 30
0.0
 40
91.4400000000083
 41
120.0000000000109
 46
0.0
 71
     7
 72
     1
  1
{\fＭＳ ゴシック|b0|i0|c128|p49;21}
 11
0.9999999999914964
 21
4.124000501093031E-6
 31
0.0
 73
     1
 44
1.0
  0
MTEXT
  5
1E3
330
1F
100
AcDbEntity
  8
0-B_寸法
  6
Continuous
 62
     7
370
   211
100
AcDbMText
 10
3809.692746275
 20
-1893.183653843973
 30
0.0
 40
91.44
 41
120.0
 46
0.0
 71
     7
 72
     1
  1
{\fＭＳ ゴシック|b0|i0|c128|p49;30}
 11
6.123031769111886E-17
 21
1.0
 31
0.0
 73
     1
 44
1.0
  0
MTEXT
  5
1E4
330
1F
100
AcDbEntity
  8
0-B_寸法
  6
Continuous
 62
     7
370
   211
100
AcDbMText
 10
3809.692746275
 20
-2068.683228247477
 30
0.0
 40
91.44
 41
120.0
 46
0.0
 71
     7
 72
     1
  1
{\fＭＳ ゴシック|b0|i0|c128|p49;25}
 11
6.123031769111886E-17
 21
1.0
 31
0.0
 73
     1
 44
1.0
  0
MTEXT
  5
1E5
330
1F
100
AcDbEntity
  8
0-B_寸法
  6
Continuous
 62
     7
370
   211
100
AcDbMText
 10
3665.348070786656
 20
-2068.683653843972
 30
0.0
 40
91.44
 41
120.0
 46
0.0
 71
     7
 72
     1
  1
{\fＭＳ ゴシック|b0|i0|c128|p49;85}
 11
6.123031769111886E-17
 21
1.0
 31
0.0
 73
     1
 44
1.0
  0
MTEXT
  5
1E6
330
1F
100
AcDbEntity
  8
0-B_寸法
  6
Continuous
 62
     7
370
   211
100
AcDbMText
 10
3809.692746275
 20
-2233.683228247477
 30
0.0
 40
91.44
 41
120.0
 46
0.0
 71
     7
 72
     1
  1
{\fＭＳ ゴシック|b0|i0|c128|p49;30}
 11
6.123031769111886E-17
 21
1.0
 31
0.0
 73
     1
 44
1.0
  0
MTEXT
  5
1E7
330
1F
100
AcDbEntity
  8
0-B_寸法
  6
Continuous
 62
     7
370
     0
100
AcDbMText
 10
157.3292702726076
 20
-3011.412100971977
 30
0.0
 40
91.44
 41
180.0
 46
0.0
 71
     7
 72
     1
  1
{\fＭＳ ゴシック|b0|i0|c128|p49;8.5}
 11
6.123031769111886E-17
 21
1.0
 31
0.0
 73
     1
 44
1.0
  0
MTEXT
  5
1E8
330
1F
100
AcDbEntity
  8
0-B_寸法
  6
Continuous
 62
     7
370
     0
100
AcDbMText
 10
336.7964583515277
 20
-3260.006540481251
 30
0.0
 40
91.44
 41
120.0
 46
0.0
 71
     7
 72
     1
  1
{\fＭＳ ゴシック|b0|i0|c128|p49;12}
 11
6.123031769111886E-17
 21
1.0
 31
0.0
 73
     1
 44
1.0
  0
MTEXT
  5
1E9
330
1F
100
AcDbEntity
  8
1-A_文字
  6
Continuous
 62
     7
370
     0
100
AcDbMText
 10
4586.444883182019
 20
-841.3259501574453
 30
0.0
 40
91.44
 41
600.0
 46
0.0
 71
     7
 72
     1
  1
{\fＭＳ ゴシック|b0|i0|c128|p49;下地ベース}
 73
     1
 44
1.0
  0
MTEXT
  5
1EA
330
1F
100
AcDbEntity
  8
1-B_寸法
  6
Continuous
 62
     7
370
     0
100
AcDbMText
 10
4245.553297335398
 20
-47.66845895162308
 30
0.0
 40
91.44
 41
120.0
 46
0.0
 71
     7
 72
     1
  1
{\fＭＳ ゴシック|b0|i0|c128|p49;32}
 73
     1
 44
1.0
  0
MTEXT
  5
1EB
330
1F
100
AcDbEntity
  8
1-B_寸法
  6
Continuous
 62
     7
370
   211
100
AcDbMText
 10
3829.8721818077
 20
-167.6685490197194
 30
0.0
 40
91.4400000000026
 41
240.0000000000068
 46
0.0
 71
     7
 72
     1
  1
{\fＭＳ ゴシック|b0|i0|c128|p49;10.5}
 73
     1
 44
1.0
  0
MTEXT
  5
1EC
330
1F
100
AcDbEntity
  8
1-B_寸法
  6
Continuous
 62
     7
370
   211
100
AcDbMText
 10
4245.553297335398
 20
-167.6685490197207
 30
0.0
 40
91.44
 41
120.0
 46
0.0
 71
     7
 72
     1
  1
{\fＭＳ ゴシック|b0|i0|c128|p49;11}
 73
     1
 44
1.0
  0
MTEXT
  5
1ED
330
1F
100
AcDbEntity
  8
1-B_寸法
  6
Continuous
 62
     7
370
   211
100
AcDbMText
 10
4546.805387820379
 20
-167.6685490197207
 30
0.0
 40
91.44
 41
240.0
 46
0.0
 71
     7
 72
     1
  1
{\fＭＳ ゴシック|b0|i0|c128|p49;10.5}
 73
     1
 44
1.0
  0
MTEXT
  5
1EE
330
1F
100
AcDbEntity
  8
1-B_寸法
  6
Continuous
 62
     7
370
   211
100
AcDbMText
 10
4460.953792709923
 20
-287.6685490197207
 30
0.0
 40
91.44
 41
180.0
 46
0.0
 71
     7
 72
     1
  1
{\fＭＳ ゴシック|b0|i0|c128|p49;6.3}
 73
     1
 44
1.0
  0
MTEXT
  5
1EF
330
1F
100
AcDbEntity
  8
1-B_寸法
  6
Continuous
 62
     7
370
   211
100
AcDbMText
 10
3967.399038412352
 20
-290.3761254647605
 30
0.0
 40
91.44
 41
180.0
 46
0.0
 71
     7
 72
     1
  1
{\fＭＳ ゴシック|b0|i0|c128|p49;6.3}
 73
     1
 44
1.0
  0
LINE
  5
1F0
330
1F
100
AcDbEntity
  8
0-3_仕上げ
  6
Continuous
 62
    40
370
     5
100
AcDbLine
 10
-1442.690214024124
 20
-3118.000311980379
 30
0.0
 11
-98.204234479972
 21
-3118.000311980379
 31
0.0
  0
LWPOLYLINE
  5
1F1
330
1F
100
AcDbEntity
  8
0-B_寸法
  6
Continuous
 62
     7
370
     5
100
AcDbPolyline
 90
        4
 70
     1
 43
3.0
 10
-1801.190214024124
 20
-3118.000311980379
 42
0.4142135623731
 10
-1802.690214024124
 20
-3116.500311980379
 42
0.4142135623731
 10
-1804.190214024124
 20
-3118.000311980379
 42
0.4142135623731
 10
-1802.690214024124
 20
-3119.500311980379
 42
0.4142135623731
  0
LINE
  5
1F2
330
1F
100
AcDbEntity
  8
0-B_寸法
  6
Continuous
 62
   120
370
     5
100
AcDbLine
 10
-1442.690214024124
 20
-3118.000311980379
 30
0.0
 11
-1802.690214024124
 21
-3118.000311980379
 31
0.0
  0
LINE
  5
1F3
330
1F
100
AcDbEntity
  8
0-0_補助線
  6
JWW_HOJO
 62
   120
370
     5
100
AcDbLine
 10
-98.204234479972
 20
-3117.999940974257
 30
0.0
 11
-1802.690214024124
 21
-3117.999940974257
 31
0.0
  0
LINE
  5
1F4
330
1F
100
AcDbEntity
  8
0-0_補助線
  6
JWW_HOJO
 62
   120
370
     5
100
AcDbLine
 10
-1267.461499988317
 20
-1582.000084335741
 30
0.0
 11
-459.9185160726256
 21
-1582.000084335741
 31
0.0
  0
LINE
  5
1F5
330
1F
100
AcDbEntity
  8
0-0_補助線
  6
JWW_HOJO
 62
   120
370
     5
100
AcDbLine
 10
-1267.461499988317
 20
-1702.000084335741
 30
0.0
 11
-459.9185160726256
 21
-1702.000084335741
 31
0.0
  0
MTEXT
  5
1F6
330
1F
100
AcDbEntity
  8
1-B_寸法
  6
Continuous
 62
     7
370
     0
100
AcDbMText
 10
5139.466558511156
 20
-472.2524976146747
 30
0.0
 40
91.44
 41
180.0
 46
0.0
 71
     7
 72
     1
  1
{\fＭＳ ゴシック|b0|i0|c128|p49;1.2}
 11
6.123031769111886E-17
 21
1.0
 31
0.0
 73
     1
 44
1.0
  0
LINE
  5
1F7
330
1F
100
AcDbEntity
  8
0-7_金物
  6
Continuous
 62
     7
370
     5
100
AcDbLine
 10
-786.6947535138615
 20
-339.9998344215203
 30
0.0
 11
-749.6908663373506
 21
-339.9998344215203
 31
0.0
  0
LINE
  5
1F8
330
1F
100
AcDbEntity
  8
0-7_金物
  6
Continuous
 62
     7
370
     5
100
AcDbLine
 10
-821.6891726117728
 20
-333.9997428687866
 30
0.0
 11
-881.6908606153129
 21
-333.9997428687866
 31
0.0
  0
LINE
  5
1F9
330
1F
100
AcDbEntity
  8
0-7_金物
  6
Continuous
 62
     7
370
     5
100
AcDbLine
 10
-785.8707789044865
 20
-320.7874931129265
 30
0.0
 11
-821.6891726117728
 21
-320.7874931129265
 31
0.0
  0
LINE
  5
1FA
330
1F
100
AcDbEntity
  8
0-7_金物
  6
Continuous
 62
     7
370
     5
100
AcDbLine
 10
-881.6908606153129
 20
-320.7874931129265
 30
0.0
 11
-917.8700264554618
 21
-320.7874931129265
 31
0.0
  0
LINE
  5
1FB
330
1F
100
AcDbEntity
  8
0-7_金物
  6
Continuous
 62
     7
370
     5
100
AcDbLine
 10
-863.6911009412324
 20
-378.9998344215223
 30
0.0
 11
-863.6911009412324
 21
-333.9997428687866
 31
0.0
  0
LINE
  5
1FC
330
1F
100
AcDbEntity
  8
0-7_金物
  6
Continuous
 62
     7
370
     5
100
AcDbLine
 10
-839.6904200177732
 20
-333.9997428687866
 30
0.0
 11
-839.6904200177732
 21
-378.9998344215223
 31
0.0
  0
LINE
  5
1FD
330
1F
100
AcDbEntity
  8
0-7_金物
  6
Continuous
 62
     7
370
     5
100
AcDbLine
 10
-839.6904200177732
 20
-378.9998344215223
 30
0.0
 11
-863.6911009412324
 21
-378.9998344215223
 31
0.0
  0
LINE
  5
1FE
330
1F
100
AcDbEntity
  8
0-7_金物
  6
Continuous
 62
     7
370
     5
100
AcDbLine
 10
-953.6891683202384
 20
-333.9997428687866
 30
0.0
 11
-953.6891683202384
 21
-339.9998344215203
 31
0.0
  0
LINE
  5
1FF
330
1F
100
AcDbEntity
  8
0-7_金物
  6
Continuous
 62
     7
370
     5
100
AcDbLine
 10
-915.9043663602415
 20
-339.9998344215203
 30
0.0
 11
-953.6891683202384
 21
-339.9998344215203
 31
0.0
  0
LINE
  5
200
330
1F
100
AcDbEntity
  8
0-7_金物
  6
Continuous
 62
     7
370
     5
100
AcDbLine
 10
-749.6908663373506
 20
-333.9997428687866
 30
0.0
 11
-749.6908663373506
 21
-339.9998344215203
 31
0.0
  0
LINE
  5
201
330
1F
100
AcDbEntity
  8
0-7_金物
  6
Continuous
 62
     7
370
     5
100
AcDbLine
 10
-915.9043663602415
 20
-333.9997428687866
 30
0.0
 11
-923.6912969213154
 21
-333.9997428687866
 31
0.0
  0
LINE
  5
202
330
1F
100
AcDbEntity
  8
0-7_金物
  6
Continuous
 62
     7
370
     5
100
AcDbLine
 10
-915.9043663602415
 20
-339.9998344215203
 30
0.0
 11
-915.9043663602415
 21
-333.9997428687866
 31
0.0
  0
LINE
  5
203
330
1F
100
AcDbEntity
  8
0-7_金物
  6
Continuous
 62
     7
370
     5
100
AcDbLine
 10
-935.6908902984287
 20
-333.9997428687866
 30
0.0
 11
-953.6891683202384
 21
-333.9997428687866
 31
0.0
  0
LINE
  5
204
330
1F
100
AcDbEntity
  8
0-7_金物
  6
Continuous
 62
     7
370
     5
100
AcDbLine
 10
-779.690969334174
 20
-333.9997428687866
 30
0.0
 11
-786.6947535138615
 21
-333.9997428687866
 31
0.0
  0
LINE
  5
205
330
1F
100
AcDbEntity
  8
0-7_金物
  6
Continuous
 62
     7
370
     5
100
AcDbLine
 10
-786.6947535138615
 20
-339.9998344215203
 30
0.0
 11
-786.6947535138615
 21
-333.9997428687866
 31
0.0
  0
LINE
  5
206
330
1F
100
AcDbEntity
  8
0-7_金物
  6
Continuous
 62
     7
370
     5
100
AcDbLine
 10
-767.6906374555119
 20
-333.9997428687866
 30
0.0
 11
-749.6908663373506
 21
-333.9997428687866
 31
0.0
  0
LINE
  5
207
330
1F
100
AcDbEntity
  8
0-7_金物
  6
Continuous
 62
     7
370
     5
100
AcDbLine
 10
-821.6891726117728
 20
-254.7874931129286
 30
0.0
 11
-785.8707789044865
 21
-254.7874931129286
 31
0.0
  0
LINE
  5
208
330
1F
100
AcDbEntity
  8
0-7_金物
  6
Continuous
 62
     7
370
     5
100
AcDbLine
 10
-785.8707789044865
 20
-254.7874931129286
 30
0.0
 11
-785.8707789044865
 21
-320.7874931129265
 31
0.0
  0
LINE
  5
209
330
1F
100
AcDbEntity
  8
0-7_金物
  6
Continuous
 62
     7
370
     5
100
AcDbLine
 10
-821.6891726117728
 20
-237.9992851051168
 30
0.0
 11
-821.6891726117728
 21
-333.9997428687866
 31
0.0
  0
LINE
  5
20A
330
1F
100
AcDbEntity
  8
0-7_金物
  6
Continuous
 62
     7
370
     5
100
AcDbLine
 10
-881.6908606153129
 20
-237.9992851051168
 30
0.0
 11
-821.6891726117728
 21
-237.9992851051168
 31
0.0
  0
LINE
  5
20B
330
1F
100
AcDbEntity
  8
0-7_金物
  6
Continuous
 62
     7
370
     5
100
AcDbLine
 10
-881.6908606153129
 20
-333.9997428687866
 30
0.0
 11
-881.6908606153129
 21
-237.9992851051168
 31
0.0
  0
LINE
  5
20C
330
1F
100
AcDbEntity
  8
0-7_金物
  6
Continuous
 62
     7
370
     5
100
AcDbLine
 10
-917.8700264554618
 20
-254.7874931129286
 30
0.0
 11
-881.6908606153129
 21
-254.7874931129286
 31
0.0
  0
LINE
  5
20D
330
1F
100
AcDbEntity
  8
0-7_金物
  6
Continuous
 62
     7
370
     5
100
AcDbLine
 10
-917.8700264554618
 20
-320.7874931129265
 30
0.0
 11
-917.8700264554618
 21
-254.7874931129286
 31
0.0
  0
LINE
  5
20E
330
1F
100
AcDbEntity
  8
0-7_金物
  6
Continuous
 62
     7
370
     5
100
AcDbLine
 10
-923.6912969213154
 20
-333.9997428687866
 30
0.0
 11
-923.6912969213154
 21
-225.9996513160536
 31
0.0
  0
LINE
  5
20F
330
1F
100
AcDbEntity
  8
0-7_金物
  6
Continuous
 62
     7
370
     5
100
AcDbLine
 10
-923.6912969213154
 20
-225.9996513160536
 30
0.0
 11
-779.690969334174
 21
-225.9996513160536
 31
0.0
  0
LINE
  5
210
330
1F
100
AcDbEntity
  8
0-7_金物
  6
Continuous
 62
     7
370
     5
100
AcDbLine
 10
-779.690969334174
 20
-225.9996513160536
 30
0.0
 11
-779.690969334174
 21
-333.9997428687866
 31
0.0
  0
LINE
  5
211
330
1F
100
AcDbEntity
  8
0-4_枠
  6
Continuous
 62
    92
370
     5
100
AcDbLine
 10
-767.6906374555119
 20
-213.9992851051147
 30
0.0
 11
-767.6906374555119
 21
-333.9997428687866
 31
0.0
  0
LINE
  5
212
330
1F
100
AcDbEntity
  8
0-4_枠
  6
Continuous
 62
    92
370
     5
100
AcDbLine
 10
-935.6908902984287
 20
-213.9992851051147
 30
0.0
 11
-767.6906374555119
 21
-213.9992851051147
 31
0.0
  0
LINE
  5
213
330
1F
100
AcDbEntity
  8
0-4_枠
  6
Continuous
 62
    92
370
     5
100
AcDbLine
 10
-935.6908902984287
 20
-333.9997428687866
 30
0.0
 11
-935.6908902984287
 21
-213.9992851051147
 31
0.0
  0
LINE
  5
214
330
1F
100
AcDbEntity
  8
0-4_枠
  6
Continuous
 62
    92
370
     5
100
AcDbLine
 10
-620.6902140241209
 20
-333.9997428687866
 30
0.0
 11
-767.6906374555119
 21
-333.9997428687866
 31
0.0
  0
LINE
  5
215
330
1F
100
AcDbEntity
  8
0-4_枠
  6
Continuous
 62
    92
370
     5
100
AcDbLine
 10
-1082.690214024124
 20
-333.9997428687866
 30
0.0
 11
-935.6908902984287
 21
-333.9997428687866
 31
0.0
  0
LINE
  5
216
330
1F
100
AcDbEntity
  8
0-4_枠
  6
Continuous
 62
    92
370
     5
100
AcDbLine
 10
-620.6902140241209
 20
-117.9999259742567
 30
0.0
 11
-620.6902140241209
 21
-333.9997428687866
 31
0.0
  0
LINE
  5
217
330
1F
100
AcDbEntity
  8
0-4_枠
  6
Continuous
 62
    92
370
     5
100
AcDbLine
 10
-1082.690214024124
 20
-117.9999259742567
 30
0.0
 11
-1082.690214024124
 21
-333.9997428687866
 31
0.0
  0
LINE
  5
218
330
1F
100
AcDbEntity
  8
0-4_枠
  6
Continuous
 62
    92
370
     5
100
AcDbLine
 10
-1082.690214024124
 20
-117.9999259742567
 30
0.0
 11
-620.6902140241209
 21
-117.9999259742567
 31
0.0
  0
LINE
  5
219
330
1F
100
AcDbEntity
  8
0-B_寸法
  6
Continuous
 62
   120
370
     5
100
AcDbLine
 10
-620.6902140241209
 20
-629.4822652783932
 30
0.0
 11
-620.6902140241209
 21
-475.7713178564973
 31
0.0
  0
LWPOLYLINE
  5
21A
330
1F
100
AcDbEntity
  8
0-B_寸法
  6
Continuous
 62
     7
370
     5
100
AcDbPolyline
 90
        4
 70
     1
 43
3.0
 10
-619.1902140241209
 20
-629.4822652783932
 42
0.4142135623731
 10
-620.6902140241209
 20
-627.9822652783932
 42
0.4142135623731
 10
-622.1902140241209
 20
-629.4822652783932
 42
0.4142135623731
 10
-620.6902140241209
 20
-630.9822652783932
 42
0.4142135623731
  0
LINE
  5
21B
330
1F
100
AcDbEntity
  8
0-B_寸法
  6
Continuous
 62
   120
370
     5
100
AcDbLine
 10
-1082.690214024124
 20
-629.4822652783932
 30
0.0
 11
-1082.690214024124
 21
-475.7713178564973
 31
0.0
  0
LWPOLYLINE
  5
21C
330
1F
100
AcDbEntity
  8
0-B_寸法
  6
Continuous
 62
     7
370
     5
100
AcDbPolyline
 90
        4
 70
     1
 43
3.0
 10
-1081.190214024124
 20
-629.4822652783932
 42
0.4142135623731
 10
-1082.690214024124
 20
-627.9822652783932
 42
0.4142135623731
 10
-1084.190214024124
 20
-629.4822652783932
 42
0.4142135623731
 10
-1082.690214024124
 20
-630.9822652783932
 42
0.4142135623731
  0
LINE
  5
21D
330
1F
100
AcDbEntity
  8
0-B_寸法
  6
Continuous
 62
   120
370
     5
100
AcDbLine
 10
-620.6902140241209
 20
-629.4822652783932
 30
0.0
 11
-1082.690214024124
 21
-629.4822652783932
 31
0.0
  0
MTEXT
  5
21E
330
1F
100
AcDbEntity
  8
1-B_寸法
  6
Continuous
 62
     7
370
     0
100
AcDbMText
 10
5136.945578860579
 20
-572.267430563229
 30
0.0
 40
91.44
 41
60.0
 46
0.0
 71
     7
 72
     1
  1
{\fＭＳ ゴシック|b0|i0|c128|p49;7}
 11
6.123031769111886E-17
 21
1.0
 31
0.0
 73
     1
 44
1.0
  0
LINE
  5
21F
330
1F
100
AcDbEntity
  8
0-C_ハッチ
  6
Continuous
 62
   120
370
     5
100
AcDbLine
 10
-1077.391402789285
 20
-333.9997428687934
 30
0.0
 11
-1082.690214024124
 21
-328.7009316339481
 31
0.0
  0
LINE
  5
220
330
1F
100
AcDbEntity
  8
0-C_ハッチ
  6
Continuous
 62
   120
370
     5
100
AcDbLine
 10
-1017.994433169583
 20
-333.99974286879
 30
0.0
 11
-1082.690214024124
 21
-269.3039620142497
 31
0.0
  0
LINE
  5
221
330
1F
100
AcDbEntity
  8
0-C_ハッチ
  6
Continuous
 62
   120
370
     5
100
AcDbLine
 10
-958.5974635499497
 20
-333.9997428687832
 30
0.0
 11
-1082.690214024124
 21
-209.906992394599
 31
0.0
  0
LINE
  5
222
330
1F
100
AcDbEntity
  8
0-C_ハッチ
  6
Continuous
 62
   120
370
     5
100
AcDbLine
 10
-935.6908902984151
 20
-297.5093465006091
 30
0.0
 11
-1082.690214024137
 21
-150.5100227748937
 31
0.0
  0
LINE
  5
223
330
1F
100
AcDbEntity
  8
0-C_ハッチ
  6
Continuous
 62
   120
370
     5
100
AcDbLine
 10
-935.6908902984287
 20
-238.1123768809516
 30
0.0
 11
-1055.803341205124
 21
-117.9999259742567
 31
0.0
  0
LINE
  5
224
330
1F
100
AcDbEntity
  8
0-C_ハッチ
  6
Continuous
 62
   120
370
     5
100
AcDbLine
 10
-900.4070124546115
 20
-213.9992851051147
 30
0.0
 11
-996.4063715854627
 21
-117.9999259742678
 31
0.0
  0
LINE
  5
225
330
1F
100
AcDbEntity
  8
0-C_ハッチ
  6
Continuous
 62
   120
370
     5
100
AcDbLine
 10
-721.0095850712378
 20
-333.99974286879
 30
0.0
 11
-767.6906374555119
 21
-287.318690484509
 31
0.0
  0
LINE
  5
226
330
1F
100
AcDbEntity
  8
0-C_ハッチ
  6
Continuous
 62
   120
370
     5
100
AcDbLine
 10
-841.0100428349097
 20
-213.9992851051147
 30
0.0
 11
-937.0094019657745
 21
-117.9999259742533
 31
0.0
  0
LINE
  5
227
330
1F
100
AcDbEntity
  8
0-C_ハッチ
  6
Continuous
 62
   120
370
     5
100
AcDbLine
 10
-661.6126154515905
 20
-333.9997428687866
 30
0.0
 11
-767.6906374555119
 21
-227.9217208648656
 31
0.0
  0
LINE
  5
228
330
1F
100
AcDbEntity
  8
0-C_ハッチ
  6
Continuous
 62
   120
370
     5
100
AcDbLine
 10
-781.613073215276
 20
-213.9992851051113
 30
0.0
 11
-877.6124323461136
 21
-117.9999259742635
 31
0.0
  0
LINE
  5
229
330
1F
100
AcDbEntity
  8
0-C_ハッチ
  6
Continuous
 62
   120
370
     5
100
AcDbLine
 10
-620.6902140241209
 20
-315.5251746765578
 30
0.0
 11
-818.2154627264254
 21
-117.9999259742533
 31
0.0
  0
LINE
  5
22A
330
1F
100
AcDbEntity
  8
0-C_ハッチ
  6
Continuous
 62
   120
370
     5
100
AcDbLine
 10
-620.6902140241345
 20
-256.1282050569037
 30
0.0
 11
-758.8184931067781
 21
-117.9999259742567
 31
0.0
  0
LINE
  5
22B
330
1F
100
AcDbEntity
  8
0-C_ハッチ
  6
Continuous
 62
   120
370
     5
100
AcDbLine
 10
-620.6902140241345
 20
-196.731235437253
 30
0.0
 11
-699.4215234871172
 21
-117.9999259742678
 31
0.0
  0
LINE
  5
22C
330
1F
100
AcDbEntity
  8
0-C_ハッチ
  6
Continuous
 62
   120
370
     5
100
AcDbLine
 10
-620.6902140241209
 20
-137.3342658175648
 30
0.0
 11
-640.024553867429
 21
-117.9999259742507
 31
0.0
  0
LINE
  5
22D
330
1F
100
AcDbEntity
  8
0-4_枠
  6
Continuous
 62
   120
370
     5
100
AcDbLine
 10
-620.6902140241209
 20
-117.9999259742567
 30
0.0
 11
-596.6902140241154
 21
-117.9999259742567
 31
0.0
  0
LINE
  5
22E
330
1F
100
AcDbEntity
  8
0-4_枠
  6
Continuous
 62
   120
370
     5
100
AcDbLine
 10
-1082.690214024124
 20
-117.9999259742567
 30
0.0
 11
-1106.690214024129
 21
-117.9999259742567
 31
0.0
  0
LINE
  5
22F
330
1F
100
AcDbEntity
  8
0-4_枠
  6
Continuous
 62
   120
370
     5
100
AcDbLine
 10
-596.6902140241154
 20
-3046.000334249962
 30
0.0
 11
-596.6902140241154
 21
-1702.000084335741
 31
0.0
  0
LINE
  5
230
330
1F
100
AcDbEntity
  8
0-4_枠
  6
Continuous
 62
   120
370
     5
100
AcDbLine
 10
-596.6902140241154
 20
-1582.000084335741
 30
0.0
 11
-596.6902140241154
 21
-117.9999259742567
 31
0.0
  0
LINE
  5
231
330
1F
100
AcDbEntity
  8
0-4_枠
  6
Continuous
 62
   120
370
     5
100
AcDbLine
 10
-1106.690214024129
 20
-3046.000334249962
 30
0.0
 11
-1106.690214024129
 21
-1702.000084335741
 31
0.0
  0
LINE
  5
232
330
1F
100
AcDbEntity
  8
0-4_枠
  6
Continuous
 62
   120
370
     5
100
AcDbLine
 10
-1106.690214024129
 20
-1582.000084335741
 30
0.0
 11
-1106.690214024129
 21
-117.9999259742567
 31
0.0
  0
LINE
  5
233
330
1F
100
AcDbEntity
  8
0-C_ハッチ
  6
JWW_DASHED1
 62
   120
370
     5
100
AcDbLine
 10
-682.8773218334618
 20
-117.9999259742567
 30
0.0
 11
-701.6902140241291
 21
-99.18703378358941
 31
0.0
  0
LINE
  5
234
330
1F
100
AcDbEntity
  8
0-C_ハッチ
  6
JWW_DASHED1
 62
   120
370
     5
100
AcDbLine
 10
-640.4509149622618
 20
-117.9999259742465
 30
0.0
 11
-701.6902140241154
 21
-56.76062691239281
 31
0.0
  0
LINE
  5
235
330
1F
100
AcDbEntity
  8
0-C_ハッチ
  6
JWW_DASHED1
 62
   120
370
     5
100
AcDbLine
 10
-626.6902140241154
 20
-89.3342200411928
 30
0.0
 11
-701.6902140241154
 21
-14.3342200411962
 31
0.0
  0
LINE
  5
236
330
1F
100
AcDbEntity
  8
0-C_ハッチ
  6
JWW_DASHED1
 62
   120
370
     5
100
AcDbLine
 10
-626.6902140241154
 20
-46.90781316999619
 30
0.0
 11
-701.6902140241154
 21
28.0921868300004
 31
0.0
  0
LINE
  5
237
330
1F
100
AcDbEntity
  8
0-C_ハッチ
  6
JWW_DASHED1
 62
   120
370
     5
100
AcDbLine
 10
-626.6902140241154
 20
-4.481406298799584
 30
0.0
 11
-701.6902140241154
 21
70.518593701197
 31
0.0
  0
LINE
  5
238
330
1F
100
AcDbEntity
  8
0-C_ハッチ
  6
JWW_DASHED1
 62
   120
370
     5
100
AcDbLine
 10
-626.6902140241154
 20
37.94500057239702
 30
0.0
 11
-701.6902140241154
 21
112.9450005723936
 31
0.0
  0
LINE
  5
239
330
1F
100
AcDbEntity
  8
0-C_ハッチ
  6
JWW_DASHED1
 62
   120
370
     5
100
AcDbLine
 10
-626.6902140241154
 20
80.37140744354588
 30
0.0
 11
-701.6902140241154
 21
155.3714074435416
 31
0.0
  0
LINE
  5
23A
330
1F
100
AcDbEntity
  8
0-3_仕上げ
  6
Continuous
 62
    40
370
     5
100
AcDbLine
 10
-626.6902140241154
 20
-117.9999259742567
 30
0.0
 11
-626.6902140241154
 21
182.0000740257433
 31
0.0
  0
LINE
  5
23B
330
1F
100
AcDbEntity
  8
0-3_仕上げ
  6
Continuous
 62
    40
370
     5
100
AcDbLine
 10
-701.6902140241154
 20
-117.9999259742567
 30
0.0
 11
-701.6902140241154
 21
182.0000740257433
 31
0.0
  0
LINE
  5
23C
330
1F
100
AcDbEntity
  8
0-C_ハッチ
  6
JWW_DASHED1
 62
   120
370
     5
100
AcDbLine
 10
-626.6902140241154
 20
122.7978143147493
 30
0.0
 11
-685.8924737351163
 21
182.0000740257433
 31
0.0
  0
LINE
  5
23D
330
1F
100
AcDbEntity
  8
0-C_ハッチ
  6
JWW_DASHED1
 62
   120
370
     5
100
AcDbLine
 10
-626.6902140241154
 20
165.2242211859459
 30
0.0
 11
-643.4660668639162
 21
182.0000740257433
 31
0.0
  0
LWPOLYLINE
  5
23E
330
1F
100
AcDbEntity
  8
0-B_寸法
  6
Continuous
 62
     7
370
     5
100
AcDbPolyline
 90
        4
 70
     1
 43
3.0
 10
353.295765520028
 20
-3045.999963090228
 42
0.4142135623731
 10
351.795765520028
 20
-3044.499963090228
 42
0.4142135623731
 10
350.295765520028
 20
-3045.999963090228
 42
0.4142135623731
 10
351.795765520028
 20
-3047.499963090228
 42
0.4142135623731
  0
LWPOLYLINE
  5
23F
330
1F
100
AcDbEntity
  8
0-B_寸法
  6
Continuous
 62
     7
370
     5
100
AcDbPolyline
 90
        4
 70
     1
 43
3.0
 10
353.295765520028
 20
-3117.999940820646
 42
0.4142135623731
 10
351.795765520028
 20
-3116.499940820646
 42
0.4142135623731
 10
350.295765520028
 20
-3117.999940820646
 42
0.4142135623731
 10
351.795765520028
 20
-3119.499940820646
 42
0.4142135623731
  0
LINE
  5
240
330
1F
100
AcDbEntity
  8
0-B_寸法
  6
Continuous
 62
   120
370
     5
100
AcDbLine
 10
-98.204234479972
 20
-3045.999963090228
 30
0.0
 11
351.795765520028
 21
-3045.999963090228
 31
0.0
  0
LINE
  5
241
330
1F
100
AcDbEntity
  8
0-B_寸法
  6
Continuous
 62
   120
370
     5
100
AcDbLine
 10
171.795765520028
 20
-3117.999940820646
 30
0.0
 11
351.795765520028
 21
-3117.999940820646
 31
0.0
  0
LINE
  5
242
330
1F
100
AcDbEntity
  8
0-B_寸法
  6
Continuous
 62
   120
370
     5
100
AcDbLine
 10
351.795765520028
 20
-3117.999940820646
 30
0.0
 11
351.795765520028
 21
-117.9999408206447
 31
0.0
  0
LINE
  5
243
330
1F
100
AcDbEntity
  8
0-B_寸法
  6
Continuous
 62
   120
370
     5
100
AcDbLine
 10
171.795765520028
 20
-3045.999963090228
 30
0.0
 11
171.795765520028
 21
-333.9993172722916
 31
0.0
  0
LINE
  5
244
330
1F
100
AcDbEntity
  8
0-B_寸法
  6
Continuous
 62
   120
370
     5
100
AcDbLine
 10
-98.204234479972
 20
-2994.999831947123
 30
0.0
 11
171.795765520028
 21
-2994.999831947123
 31
0.0
  0
MTEXT
  5
245
330
1F
100
AcDbEntity
  8
1-B_寸法
  6
Continuous
 62
     7
370
     0
100
AcDbMText
 10
5138.206068685875
 20
-662.267430563229
 30
0.0
 40
91.44
 41
60.0
 46
0.0
 71
     7
 72
     1
  1
{\fＭＳ ゴシック|b0|i0|c128|p49;5}
 11
6.123031769111886E-17
 21
1.0
 31
0.0
 73
     1
 44
1.0
  0
LWPOLYLINE
  5
246
330
1F
100
AcDbEntity
  8
0-B_寸法
  6
Continuous
 62
     7
370
     5
100
AcDbPolyline
 90
        4
 70
     1
 43
3.0
 10
173.295765520028
 20
-3045.999963090228
 42
0.4142135623731
 10
171.795765520028
 20
-3044.499963090228
 42
0.4142135623731
 10
170.295765520028
 20
-3045.999963090228
 42
0.4142135623731
 10
171.795765520028
 20
-3047.499963090228
 42
0.4142135623731
  0
LWPOLYLINE
  5
247
330
1F
100
AcDbEntity
  8
0-B_寸法
  6
Continuous
 62
     7
370
     5
100
AcDbPolyline
 90
        4
 70
     1
 43
3.0
 10
173.295765520028
 20
-2994.999831947123
 42
0.4142135623731
 10
171.795765520028
 20
-2993.499831947123
 42
0.4142135623731
 10
170.295765520028
 20
-2994.999831947123
 42
0.4142135623731
 10
171.795765520028
 20
-2996.499831947123
 42
0.4142135623731
  0
LWPOLYLINE
  5
248
330
1F
100
AcDbEntity
  8
0-B_寸法
  6
Continuous
 62
     7
370
     5
100
AcDbPolyline
 90
        4
 70
     1
 43
3.0
 10
533.295765520028
 20
-3118.000311980379
 42
0.4142135623731
 10
531.795765520028
 20
-3116.500311980379
 42
0.4142135623731
 10
530.295765520028
 20
-3118.000311980379
 42
0.4142135623731
 10
531.795765520028
 20
-3119.500311980379
 42
0.4142135623731
  0
LINE
  5
249
330
1F
100
AcDbEntity
  8
0-B_寸法
  6
Continuous
 62
   120
370
     5
100
AcDbLine
 10
-98.204234479972
 20
-3118.000311980379
 30
0.0
 11
531.795765520028
 21
-3118.000311980379
 31
0.0
  0
LWPOLYLINE
  5
24A
330
1F
100
AcDbEntity
  8
0-B_寸法
  6
Continuous
 62
     7
370
     5
100
AcDbPolyline
 90
        4
 70
     1
 43
3.0
 10
353.295765520028
 20
-117.9999408206447
 42
0.4142135623731
 10
351.795765520028
 20
-116.4999408206447
 42
0.4142135623731
 10
350.295765520028
 20
-117.9999408206447
 42
0.4142135623731
 10
351.795765520028
 20
-119.4999408206447
 42
0.4142135623731
  0
LWPOLYLINE
  5
24B
330
1F
100
AcDbEntity
  8
0-B_寸法
  6
Continuous
 62
     7
370
     5
100
AcDbPolyline
 90
        4
 70
     1
 43
3.0
 10
353.295765520028
 20
-333.9989461125572
 42
0.4142135623731
 10
351.795765520028
 20
-332.4989461125572
 42
0.4142135623731
 10
350.295765520028
 20
-333.9989461125572
 42
0.4142135623731
 10
351.795765520028
 20
-335.4989461125572
 42
0.4142135623731
  0
LINE
  5
24C
330
1F
100
AcDbEntity
  8
0-B_寸法
  6
Continuous
 62
   120
370
     5
100
AcDbLine
 10
171.795765520028
 20
-333.9989461125572
 30
0.0
 11
351.795765520028
 21
-333.9989461125572
 31
0.0
  0
LINE
  5
24D
330
1F
100
AcDbEntity
  8
0-B_寸法
  6
Continuous
 62
   120
370
     5
100
AcDbLine
 10
-98.204234479972
 20
-378.9994657361854
 30
0.0
 11
171.795765520028
 21
-378.9994657361854
 31
0.0
  0
LINE
  5
24E
330
1F
100
AcDbEntity
  8
0-B_寸法
  6
Continuous
 62
   120
370
     5
100
AcDbLine
 10
-98.204234479972
 20
-333.9993172722916
 30
0.0
 11
171.795765520028
 21
-333.9993172722916
 31
0.0
  0
LWPOLYLINE
  5
24F
330
1F
100
AcDbEntity
  8
0-B_寸法
  6
Continuous
 62
     7
370
     5
100
AcDbPolyline
 90
        4
 70
     1
 43
3.0
 10
173.295765520028
 20
-378.9994657361854
 42
0.4142135623731
 10
171.795765520028
 20
-377.4994657361854
 42
0.4142135623731
 10
170.295765520028
 20
-378.9994657361854
 42
0.4142135623731
 10
171.795765520028
 20
-380.4994657361854
 42
0.4142135623731
  0
LWPOLYLINE
  5
250
330
1F
100
AcDbEntity
  8
0-B_寸法
  6
Continuous
 62
     7
370
     5
100
AcDbPolyline
 90
        4
 70
     1
 43
3.0
 10
173.295765520028
 20
-333.9993172722916
 42
0.4142135623731
 10
171.795765520028
 20
-332.4993172722916
 42
0.4142135623731
 10
170.295765520028
 20
-333.9993172722916
 42
0.4142135623731
 10
171.795765520028
 20
-335.4993172722916
 42
0.4142135623731
  0
LWPOLYLINE
  5
251
330
1F
100
AcDbEntity
  8
0-B_寸法
  6
Continuous
 62
     7
370
     5
100
AcDbPolyline
 90
        4
 70
     1
 43
3.0
 10
533.295765520028
 20
-117.9999408206447
 42
0.4142135623731
 10
531.795765520028
 20
-116.4999408206447
 42
0.4142135623731
 10
530.295765520028
 20
-117.9999408206447
 42
0.4142135623731
 10
531.795765520028
 20
-119.4999408206447
 42
0.4142135623731
  0
LINE
  5
252
330
1F
100
AcDbEntity
  8
0-B_寸法
  6
Continuous
 62
   120
370
     5
100
AcDbLine
 10
-98.204234479972
 20
-117.9999408206447
 30
0.0
 11
531.795765520028
 21
-117.9999408206447
 31
0.0
  0
MTEXT
  5
253
330
1F
100
AcDbEntity
  8
1-B_寸法
  6
Continuous
 62
     7
370
     0
100
AcDbMText
 10
4245.553370235486
 20
-839.8623215704077
 30
0.0
 40
91.44
 41
120.0
 46
0.0
 71
     7
 72
     1
  1
{\fＭＳ ゴシック|b0|i0|c128|p49;23}
 73
     1
 44
1.0
  0
MTEXT
  5
254
330
1F
100
AcDbEntity
  8
1-B_寸法
  6
Continuous
 62
     7
370
     0
100
AcDbMText
 10
4108.547616941871
 20
-959.6827402045216
 30
0.0
 40
91.44
 41
60.0
 46
0.0
 71
     7
 72
     1
  1
{\fＭＳ ゴシック|b0|i0|c128|p49;1}
 73
     1
 44
1.0
  0
MTEXT
  5
255
330
1F
100
AcDbEntity
  8
1-B_寸法
  6
Continuous
 62
     7
370
     0
100
AcDbMText
 10
4459.013067744234
 20
-959.6827402045216
 30
0.0
 40
91.44
 41
60.0
 46
0.0
 71
     7
 72
     1
  1
{\fＭＳ ゴシック|b0|i0|c128|p49;1}
 73
     1
 44
1.0
  0
MTEXT
  5
256
330
1F
100
AcDbEntity
  8
2-A_文字
  6
Continuous
 62
     7
370
     0
100
AcDbMText
 10
3440.473681805663
 20
1538.115953918065
 30
0.0
 40
57.15
 41
600.0
 46
0.0
 71
     7
 72
     1
  1
{\fＭＳ ゴシック|b0|i0|c128|p49;レール埋め込み時}
 73
     1
 44
1.0
  0
LINE
  5
257
330
1F
100
AcDbEntity
  8
0-3_仕上げ
  6
Continuous
 62
   120
370
     5
100
AcDbLine
 10
-947.6897686324492
 20
-2722.50143128852
 30
0.0
 11
-755.690659415809
 21
-2722.50143128852
 31
0.0
  0
LWPOLYLINE
  5
258
330
1F
100
AcDbEntity
  8
0-3_仕上げ
  6
Continuous
 62
     7
370
     5
100
AcDbPolyline
 90
        4
 70
     1
 43
3.0
 10
-946.1897686324492
 20
-2722.50143128852
 42
0.4142135623731
 10
-947.6897686324492
 20
-2721.00143128852
 42
0.4142135623731
 10
-949.1897686324492
 20
-2722.50143128852
 42
0.4142135623731
 10
-947.6897686324492
 20
-2724.00143128852
 42
0.4142135623731
  0
LWPOLYLINE
  5
259
330
1F
100
AcDbEntity
  8
0-3_仕上げ
  6
Continuous
 62
     7
370
     5
100
AcDbPolyline
 90
        4
 70
     1
 43
3.0
 10
-754.190659415809
 20
-2722.50143128852
 42
0.4142135623731
 10
-755.690659415809
 20
-2721.00143128852
 42
0.4142135623731
 10
-757.190659415809
 20
-2722.50143128852
 42
0.4142135623731
 10
-755.690659415809
 20
-2724.00143128852
 42
0.4142135623731
  0
LINE
  5
25A
330
1F
100
AcDbEntity
  8
0-3_仕上げ
  6
Continuous
 62
   120
370
     5
100
AcDbLine
 10
-947.6897686324492
 20
-2722.50143128852
 30
0.0
 11
-947.6897686324492
 21
-2831.209140661786
 31
0.0
  0
LINE
  5
25B
330
1F
100
AcDbEntity
  8
0-3_仕上げ
  6
Continuous
 62
   120
370
     5
100
AcDbLine
 10
-755.690659415809
 20
-2722.50143128852
 30
0.0
 11
-755.690659415809
 21
-2831.209140661786
 31
0.0
  0
LINE
  5
25C
330
1F
100
AcDbEntity
  8
0-3_仕上げ
  6
Continuous
 62
     7
370
     5
100
AcDbLine
 10
-1442.690214024124
 20
-3058.000114028518
 30
0.0
 11
-926.6898719385654
 21
-3058.000114028518
 31
0.0
  0
LINE
  5
25D
330
1F
100
AcDbEntity
  8
0-3_仕上げ
  6
Continuous
 62
     7
370
     5
100
AcDbLine
 10
-1442.690214024124
 20
-3070.000264966812
 30
0.0
 11
-926.6898719385654
 21
-3070.000264966812
 31
0.0
  0
LINE
  5
25E
330
1F
100
AcDbEntity
  8
0-3_仕上げ
  6
Continuous
 62
     7
370
     5
100
AcDbLine
 10
-1442.690214024124
 20
-3082.000230325237
 30
0.0
 11
-926.6898719385654
 21
-3082.000230325237
 31
0.0
  0
LINE
  5
25F
330
1F
100
AcDbEntity
  8
0-3_仕上げ
  6
Continuous
 62
     7
370
     5
100
AcDbLine
 10
-1442.690214024124
 20
-3094.000195683662
 30
0.0
 11
-926.6898719385654
 21
-3094.000195683662
 31
0.0
  0
LINE
  5
260
330
1F
100
AcDbEntity
  8
0-3_仕上げ
  6
Continuous
 62
     7
370
     5
100
AcDbLine
 10
-1442.690214024124
 20
-3106.000346621954
 30
0.0
 11
-926.6898719385654
 21
-3106.000346621954
 31
0.0
  0
LINE
  5
261
330
1F
100
AcDbEntity
  8
0-3_仕上げ
  6
Continuous
 62
    40
370
     5
100
AcDbLine
 10
-1442.690214024124
 20
-3046.000334249962
 30
0.0
 11
-926.6898719385654
 21
-3046.000334249962
 31
0.0
  0
LINE
  5
262
330
1F
100
AcDbEntity
  8
0-3_仕上げ
  6
Continuous
 62
     7
370
     5
100
AcDbLine
 10
-776.6898719385654
 20
-3058.000114028518
 30
0.0
 11
-98.204234479972
 21
-3058.000114028518
 31
0.0
  0
LINE
  5
263
330
1F
100
AcDbEntity
  8
0-3_仕上げ
  6
Continuous
 62
     7
370
     5
100
AcDbLine
 10
-776.6898719385654
 20
-3070.000264966812
 30
0.0
 11
-98.204234479972
 21
-3070.000264966812
 31
0.0
  0
LINE
  5
264
330
1F
100
AcDbEntity
  8
0-3_仕上げ
  6
Continuous
 62
     7
370
     5
100
AcDbLine
 10
-776.6898719385654
 20
-3082.000230325237
 30
0.0
 11
-98.204234479972
 21
-3082.000230325237
 31
0.0
  0
LINE
  5
265
330
1F
100
AcDbEntity
  8
0-3_仕上げ
  6
Continuous
 62
     7
370
     5
100
AcDbLine
 10
-776.6898719385654
 20
-3094.000195683662
 30
0.0
 11
-98.204234479972
 21
-3094.000195683662
 31
0.0
  0
LINE
  5
266
330
1F
100
AcDbEntity
  8
0-3_仕上げ
  6
Continuous
 62
     7
370
     5
100
AcDbLine
 10
-776.6898719385654
 20
-3106.000346621954
 30
0.0
 11
-98.204234479972
 21
-3106.000346621954
 31
0.0
  0
LINE
  5
267
330
1F
100
AcDbEntity
  8
0-3_仕上げ
  6
Continuous
 62
    40
370
     5
100
AcDbLine
 10
-98.204234479972
 20
-3046.000334249962
 30
0.0
 11
-776.6898719385654
 21
-3046.000334249962
 31
0.0
  0
LINE
  5
268
330
1F
100
AcDbEntity
  8
0-3_仕上げ
  6
Continuous
 62
    40
370
     5
100
AcDbLine
 10
-926.6902140241291
 20
-3118.000497560246
 30
0.0
 11
-926.6902140241291
 21
-3046.000705409696
 31
0.0
  0
LINE
  5
269
330
1F
100
AcDbEntity
  8
0-3_仕上げ
  6
Continuous
 62
    40
370
     5
100
AcDbLine
 10
-776.6902140241154
 20
-3118.000497560246
 30
0.0
 11
-776.6902140241154
 21
-3046.000705409696
 31
0.0
  0
LINE
  5
26A
330
1F
100
AcDbEntity
  8
0-C_ハッチ
  6
Continuous
 62
   120
370
     5
100
AcDbLine
 10
-920.6902140241209
 20
-3096.120416927395
 30
0.0
 11
-911.6902140241291
 21
-3087.120416927396
 31
0.0
  0
LINE
  5
26B
330
1F
100
AcDbEntity
  8
0-7_金物
  6
Continuous
 62
    92
370
     5
100
AcDbLine
 10
-911.6902140241291
 20
-3088.000705256085
 30
0.0
 11
-791.6902140241154
 21
-3088.000705256085
 31
0.0
  0
LINE
  5
26C
330
1F
100
AcDbEntity
  8
0-7_金物
  6
Continuous
 62
    92
370
     5
100
AcDbLine
 10
-911.6902140241291
 20
-3076.000705256086
 30
0.0
 11
-911.6902140241291
 21
-3088.000705256085
 31
0.0
  0
LINE
  5
26D
330
1F
100
AcDbEntity
  8
0-7_金物
  6
Continuous
 62
    92
370
     5
100
AcDbLine
 10
-911.6902140241291
 20
-3076.000705256086
 30
0.0
 11
-920.6902723441863
 21
-3076.000705256086
 31
0.0
  0
LINE
  5
26E
330
1F
100
AcDbEntity
  8
0-7_金物
  6
Continuous
 62
    92
370
     5
100
AcDbLine
 10
-791.6902140241154
 20
-3076.000705256086
 30
0.0
 11
-782.8792987044835
 21
-3076.000705256086
 31
0.0
  0
LINE
  5
26F
330
1F
100
AcDbEntity
  8
0-7_金物
  6
Continuous
 62
    92
370
     5
100
AcDbLine
 10
-791.6902140241154
 20
-3076.000705256086
 30
0.0
 11
-791.6902140241154
 21
-3088.000705256085
 31
0.0
  0
LINE
  5
270
330
1F
100
AcDbEntity
  8
0-7_金物
  6
Continuous
 62
    92
370
     5
100
AcDbLine
 10
-782.8793570245489
 20
-3076.000482925787
 30
0.0
 11
-782.8793570245489
 21
-3118.000705256085
 31
0.0
  0
LINE
  5
271
330
1F
100
AcDbEntity
  8
0-7_金物
  6
Continuous
 62
    92
370
     5
100
AcDbLine
 10
-920.6902140241209
 20
-3076.000482925787
 30
0.0
 11
-920.6902140241209
 21
-3118.000705256085
 31
0.0
  0
LINE
  5
272
330
1F
100
AcDbEntity
  8
0-7_金物
  6
Continuous
 62
    92
370
     5
100
AcDbLine
 10
-920.6902140241209
 20
-3118.000705256085
 30
0.0
 11
-782.8793570245489
 21
-3118.000705256085
 31
0.0
  0
LINE
  5
273
330
1F
100
AcDbEntity
  8
0-C_ハッチ
  6
Continuous
 62
   120
370
     5
100
AcDbLine
 10
-789.8354376165162
 20
-3118.000705256085
 30
0.0
 11
-782.8793570245489
 21
-3111.044624664115
 31
0.0
  0
LINE
  5
274
330
1F
100
AcDbEntity
  8
0-C_ハッチ
  6
Continuous
 62
   120
370
     5
100
AcDbLine
 10
-917.1146582300889
 20
-3118.000705256085
 30
0.0
 11
-887.1146582300889
 21
-3088.000705256085
 31
0.0
  0
LINE
  5
275
330
1F
100
AcDbEntity
  8
0-C_ハッチ
  6
Continuous
 62
   120
370
     5
100
AcDbLine
 10
-840.7471258619535
 20
-3118.000705256085
 30
0.0
 11
-810.7471258619535
 21
-3088.000705256085
 31
0.0
  0
LINE
  5
276
330
1F
100
AcDbEntity
  8
0-C_ハッチ
  6
Continuous
 62
   120
370
     5
100
AcDbLine
 10
-866.2029699846789
 20
-3118.000705256085
 30
0.0
 11
-836.2029699846789
 21
-3088.000705256085
 31
0.0
  0
LINE
  5
277
330
1F
100
AcDbEntity
  8
0-C_ハッチ
  6
Continuous
 62
   120
370
     5
100
AcDbLine
 10
-891.6588141073908
 20
-3118.000705256085
 30
0.0
 11
-861.6588141073908
 21
-3088.000705256082
 31
0.0
  0
LINE
  5
278
330
1F
100
AcDbEntity
  8
0-C_ハッチ
  6
Continuous
 62
   120
370
     5
100
AcDbLine
 10
-815.2912817392416
 20
-3118.000705256085
 30
0.0
 11
-782.8793570245489
 21
-3085.588780541396
 31
0.0
  0
LINE
  5
279
330
1F
100
AcDbEntity
  8
0-7_金物
  6
Continuous
 62
     7
370
     5
100
AcDbLine
 10
-809.689578413072
 20
-3049.36774589031
 30
0.0
 11
-893.690449401247
 21
-3049.36774589031
 31
0.0
  0
LINE
  5
27A
330
1F
100
AcDbEntity
  8
0-7_金物
  6
Continuous
 62
     7
370
     5
100
AcDbLine
 10
-842.6901326782854
 20
-2995.000705256085
 30
0.0
 11
-842.6901326782854
 21
-3049.36774589031
 31
0.0
  0
LINE
  5
27B
330
1F
100
AcDbEntity
  8
0-7_金物
  6
Continuous
 62
     7
370
     5
100
AcDbLine
 10
-860.6898951360472
 20
-2995.000705256085
 30
0.0
 11
-860.6898951360472
 21
-3049.36774589031
 31
0.0
  0
LINE
  5
27C
330
1F
100
AcDbEntity
  8
0-7_金物
  6
Continuous
 62
     7
370
     5
100
AcDbLine
 10
-827.6908255097851
 20
-3061.367745890309
 30
0.0
 11
-875.6906869434852
 21
-3061.367745890309
 31
0.0
  0
LINE
  5
27D
330
1F
100
AcDbEntity
  8
0-7_金物
  6
Continuous
 62
     7
370
     5
100
AcDbLine
 10
-842.6901326782854
 20
-3066.065143483216
 30
0.0
 11
-860.6898951360472
 21
-3066.065143483216
 31
0.0
  0
LINE
  5
27E
330
1F
100
AcDbEntity
  8
0-7_金物
  6
Continuous
 62
     7
370
     5
100
AcDbLine
 10
-842.6901326782854
 20
-3061.367745890309
 30
0.0
 11
-842.6901326782854
 21
-3066.065143483216
 31
0.0
  0
LINE
  5
27F
330
1F
100
AcDbEntity
  8
0-7_金物
  6
Continuous
 62
     7
370
     5
100
AcDbLine
 10
-860.6898951360472
 20
-3061.367745890309
 30
0.0
 11
-860.6898951360472
 21
-3066.065143483216
 31
0.0
  0
LINE
  5
280
330
1F
100
AcDbEntity
  8
0-7_金物
  6
Continuous
 62
     7
370
     5
100
AcDbLine
 10
-827.6908255097851
 20
-3061.367745890309
 30
0.0
 11
-827.6908255097851
 21
-3073.367745890312
 31
0.0
  0
LINE
  5
281
330
1F
100
AcDbEntity
  8
0-7_金物
  6
Continuous
 62
     7
370
     5
100
AcDbLine
 10
-809.689578413072
 20
-3049.36774589031
 30
0.0
 11
-809.689578413072
 21
-3073.367745890312
 31
0.0
  0
LINE
  5
282
330
1F
100
AcDbEntity
  8
0-7_金物
  6
Continuous
 62
     7
370
     5
100
AcDbLine
 10
-875.6906869434852
 20
-3061.367745890309
 30
0.0
 11
-875.6906869434852
 21
-3073.367745890312
 31
0.0
  0
LINE
  5
283
330
1F
100
AcDbEntity
  8
0-7_金物
  6
Continuous
 62
     7
370
     5
100
AcDbLine
 10
-893.690449401247
 20
-3049.36774589031
 30
0.0
 11
-893.690449401247
 21
-3073.367745890312
 31
0.0
  0
LINE
  5
284
330
1F
100
AcDbEntity
  8
0-7_金物
  6
Continuous
 62
     7
370
     5
100
AcDbLine
 10
-893.690449401247
 20
-3073.367745890312
 30
0.0
 11
-809.689578413072
 21
-3073.367745890312
 31
0.0
  0
LINE
  5
285
330
1F
100
AcDbEntity
  8
0-7_金物
  6
Continuous
 62
     7
370
     5
100
AcDbLine
 10
-902.6902140241236
 20
-3080.800705256085
 30
0.0
 11
-890.6902140241209
 21
-3080.800705256085
 31
0.0
  0
LINE
  5
286
330
1F
100
AcDbEntity
  8
0-7_金物
  6
Continuous
 62
     7
370
     5
100
AcDbLine
 10
-884.6902140241264
 20
-3080.800705256085
 30
0.0
 11
-853.4902140241275
 21
-3080.800705256085
 31
0.0
  0
LINE
  5
287
330
1F
100
AcDbEntity
  8
0-7_金物
  6
Continuous
 62
     7
370
     5
100
AcDbLine
 10
-853.4902140241275
 20
-3080.800705256085
 30
0.0
 11
-851.6902140241154
 21
-3082.600705256087
 31
0.0
  0
LINE
  5
288
330
1F
100
AcDbEntity
  8
0-7_金物
  6
Continuous
 62
     7
370
     5
100
AcDbLine
 10
-851.6902140241154
 20
-3082.600705256087
 30
0.0
 11
-849.8902140241307
 21
-3080.800705256085
 31
0.0
  0
LINE
  5
289
330
1F
100
AcDbEntity
  8
0-7_金物
  6
Continuous
 62
     7
370
     5
100
AcDbLine
 10
-849.8902140241307
 20
-3080.800705256085
 30
0.0
 11
-818.6902140241182
 21
-3080.800705256085
 31
0.0
  0
LINE
  5
28A
330
1F
100
AcDbEntity
  8
0-7_金物
  6
Continuous
 62
     7
370
     5
100
AcDbLine
 10
-812.6902140241236
 20
-3080.800705256085
 30
0.0
 11
-800.6902140241209
 21
-3080.800705256085
 31
0.0
  0
LINE
  5
28B
330
1F
100
AcDbEntity
  8
0-7_金物
  6
Continuous
 62
     7
370
     5
100
AcDbLine
 10
-757.4902140241193
 20
-3046.000705256086
 30
0.0
 11
-793.4902140241275
 21
-3046.000705256086
 31
0.0
  0
LINE
  5
28C
330
1F
100
AcDbEntity
  8
0-7_金物
  6
Continuous
 62
     7
370
     5
100
AcDbLine
 10
-909.8902140241307
 20
-3046.000705256086
 30
0.0
 11
-945.8902140241253
 21
-3046.000705256086
 31
0.0
  0
LINE
  5
28D
330
1F
100
AcDbEntity
  8
0-7_金物
  6
Continuous
 62
     7
370
     5
100
AcDbLine
 10
-909.8902140241307
 20
-3038.800705256086
 30
0.0
 11
-945.8902140241253
 21
-3042.400705256086
 31
0.0
  0
ARC
  5
28E
330
1F
100
AcDbEntity
  8
0-7_金物
  6
Continuous
 62
     7
370
     5
100
AcDbCircle
 10
-945.8902140241253
 20
-3044.200705256088
 30
0.0
 40
1.8
100
AcDbArc
 50
90.0
 51
270.0
  0
ARC
  5
28F
330
1F
100
AcDbEntity
  8
0-7_金物
  6
Continuous
 62
     7
370
     5
100
AcDbCircle
 10
-757.4902140241193
 20
-3044.200705256088
 30
0.0
 40
1.8
100
AcDbArc
 50
270.0
 51
89.99999999999997
  0
LINE
  5
290
330
1F
100
AcDbEntity
  8
0-7_金物
  6
Continuous
 62
     7
370
     5
100
AcDbLine
 10
-757.4902140241193
 20
-3042.400705256086
 30
0.0
 11
-793.4902140241275
 21
-3038.800705256086
 31
0.0
  0
LINE
  5
291
330
1F
100
AcDbEntity
  8
0-7_金物
  6
Continuous
 62
     7
370
     5
100
AcDbLine
 10
-888.2902140241231
 20
-3038.800705256086
 30
0.0
 11
-909.8902140241307
 21
-3038.800705256086
 31
0.0
  0
ARC
  5
292
330
1F
100
AcDbEntity
  8
0-7_金物
  6
Continuous
 62
     7
370
     5
100
AcDbCircle
 10
-888.2902140241231
 20
-3042.400705256086
 30
0.0
 40
3.600000000000001
100
AcDbArc
 50
0.0
 51
90.0
  0
ARC
  5
293
330
1F
100
AcDbEntity
  8
0-7_金物
  6
Continuous
 62
     7
370
     5
100
AcDbCircle
 10
-888.2902140241231
 20
-3042.400705256086
 30
0.0
 40
3.600000000000001
100
AcDbArc
 50
270.0
 51
0.0
  0
ARC
  5
294
330
1F
100
AcDbEntity
  8
0-7_金物
  6
Continuous
 62
     7
370
     5
100
AcDbCircle
 10
-815.0902140241215
 20
-3042.400705256086
 30
0.0
 40
3.600000000000001
100
AcDbArc
 50
180.0
 51
270.0
  0
LINE
  5
295
330
1F
100
AcDbEntity
  8
0-7_金物
  6
Continuous
 62
     7
370
     5
100
AcDbLine
 10
-815.0902140241215
 20
-3038.800705256086
 30
0.0
 11
-793.4902140241275
 21
-3038.800705256086
 31
0.0
  0
ARC
  5
296
330
1F
100
AcDbEntity
  8
0-7_金物
  6
Continuous
 62
     7
370
     5
100
AcDbCircle
 10
-815.0902140241215
 20
-3042.400705256086
 30
0.0
 40
3.600000000000001
100
AcDbArc
 50
90.0
 51
180.0
  0
LINE
  5
297
330
1F
100
AcDbEntity
  8
0-7_金物
  6
Continuous
 62
     7
370
     5
100
AcDbLine
 10
-793.4902140241275
 20
-3079.000705256087
 30
0.0
 11
-793.4902140241275
 21
-3046.000705256086
 31
0.0
  0
ARC
  5
298
330
1F
100
AcDbEntity
  8
0-7_金物
  6
Continuous
 62
     7
370
     5
100
AcDbCircle
 10
-802.4902140241193
 20
-3079.000705256087
 30
0.0
 40
9.000000000000002
100
AcDbArc
 50
270.0
 51
0.0
  0
LINE
  5
299
330
1F
100
AcDbEntity
  8
0-7_金物
  6
Continuous
 62
     7
370
     5
100
AcDbLine
 10
-909.8902140241307
 20
-3079.000705256087
 30
0.0
 11
-909.8902140241307
 21
-3046.000705256086
 31
0.0
  0
LINE
  5
29A
330
1F
100
AcDbEntity
  8
0-7_金物
  6
Continuous
 62
     7
370
     5
100
AcDbLine
 10
-900.8902140241253
 20
-3088.000705256085
 30
0.0
 11
-802.4902140241193
 21
-3088.000705256085
 31
0.0
  0
ARC
  5
29B
330
1F
100
AcDbEntity
  8
0-7_金物
  6
Continuous
 62
     7
370
     5
100
AcDbCircle
 10
-900.8902140241253
 20
-3079.000705256087
 30
0.0
 40
9.000000000000002
100
AcDbArc
 50
180.0
 51
270.0
  0
LINE
  5
29C
330
1F
100
AcDbEntity
  8
0-7_金物
  6
Continuous
 62
     7
370
     5
100
AcDbLine
 10
-899.6902140241264
 20
-3046.000705256086
 30
0.0
 11
-888.2902140241231
 21
-3046.000705256086
 31
0.0
  0
LINE
  5
29D
330
1F
100
AcDbEntity
  8
0-7_金物
  6
Continuous
 62
     7
370
     5
100
AcDbLine
 10
-902.6902140241236
 20
-3049.000705256087
 30
0.0
 11
-902.6902140241236
 21
-3080.800705256085
 31
0.0
  0
ARC
  5
29E
330
1F
100
AcDbEntity
  8
0-7_金物
  6
Continuous
 62
     7
370
     5
100
AcDbCircle
 10
-899.6902140241264
 20
-3049.000705256087
 30
0.0
 40
3.0
100
AcDbArc
 50
90.0
 51
180.0
  0
LINE
  5
29F
330
1F
100
AcDbEntity
  8
0-7_金物
  6
Continuous
 62
     7
370
     5
100
AcDbLine
 10
-803.6902140241182
 20
-3046.000705256086
 30
0.0
 11
-815.0902140241215
 21
-3046.000705256086
 31
0.0
  0
LINE
  5
2A0
330
1F
100
AcDbEntity
  8
0-7_金物
  6
Continuous
 62
     7
370
     5
100
AcDbLine
 10
-800.6902140241209
 20
-3049.000705256087
 30
0.0
 11
-800.6902140241209
 21
-3080.800705256085
 31
0.0
  0
ARC
  5
2A1
330
1F
100
AcDbEntity
  8
0-7_金物
  6
Continuous
 62
     7
370
     5
100
AcDbCircle
 10
-803.6902140241182
 20
-3049.000705256087
 30
0.0
 40
3.0
100
AcDbArc
 50
0.0
 51
90.0
  0
LINE
  5
2A2
330
1F
100
AcDbEntity
  8
0-7_金物
  6
Continuous
 62
     7
370
     5
100
AcDbLine
 10
-890.6902140241209
 20
-3076.000705256086
 30
0.0
 11
-890.6902140241209
 21
-3080.800705256085
 31
0.0
  0
ARC
  5
2A3
330
1F
100
AcDbEntity
  8
0-7_金物
  6
Continuous
 62
     7
370
     5
100
AcDbCircle
 10
-889.490214024122
 20
-3076.000705256086
 30
0.0
 40
1.2
100
AcDbArc
 50
90.0
 51
180.0
  0
LINE
  5
2A4
330
1F
100
AcDbEntity
  8
0-7_金物
  6
Continuous
 62
     7
370
     5
100
AcDbLine
 10
-885.8902140241253
 20
-3074.800705256087
 30
0.0
 11
-889.490214024122
 21
-3074.800705256087
 31
0.0
  0
LINE
  5
2A5
330
1F
100
AcDbEntity
  8
0-7_金物
  6
Continuous
 62
     7
370
     5
100
AcDbLine
 10
-884.6902140241264
 20
-3076.000705256086
 30
0.0
 11
-884.6902140241264
 21
-3080.800705256085
 31
0.0
  0
ARC
  5
2A6
330
1F
100
AcDbEntity
  8
0-7_金物
  6
Continuous
 62
     7
370
     5
100
AcDbCircle
 10
-885.8902140241253
 20
-3076.000705256086
 30
0.0
 40
1.2
100
AcDbArc
 50
0.0
 51
90.0
  0
LINE
  5
2A7
330
1F
100
AcDbEntity
  8
0-7_金物
  6
Continuous
 62
     7
370
     5
100
AcDbLine
 10
-818.6902140241182
 20
-3076.000705256086
 30
0.0
 11
-818.6902140241182
 21
-3080.800705256085
 31
0.0
  0
ARC
  5
2A8
330
1F
100
AcDbEntity
  8
0-7_金物
  6
Continuous
 62
     7
370
     5
100
AcDbCircle
 10
-817.4902140241193
 20
-3076.000705256086
 30
0.0
 40
1.2
100
AcDbArc
 50
90.0
 51
180.0
  0
LINE
  5
2A9
330
1F
100
AcDbEntity
  8
0-7_金物
  6
Continuous
 62
     7
370
     5
100
AcDbLine
 10
-813.8902140241225
 20
-3074.800705256087
 30
0.0
 11
-817.4902140241193
 21
-3074.800705256087
 31
0.0
  0
LINE
  5
2AA
330
1F
100
AcDbEntity
  8
0-7_金物
  6
Continuous
 62
     7
370
     5
100
AcDbLine
 10
-812.6902140241236
 20
-3076.000705256086
 30
0.0
 11
-812.6902140241236
 21
-3080.800705256085
 31
0.0
  0
ARC
  5
2AB
330
1F
100
AcDbEntity
  8
0-7_金物
  6
Continuous
 62
     7
370
     5
100
AcDbCircle
 10
-813.8902140241225
 20
-3076.000705256086
 30
0.0
 40
1.2
100
AcDbArc
 50
0.0
 51
90.0
  0
ARC
  5
2AC
330
1F
100
AcDbEntity
  8
0-7_金物
  6
JWW_DASHED1
 62
     7
370
     5
100
AcDbCircle
 10
-945.8902140241253
 20
-3044.200705256088
 30
0.0
 40
1.8
100
AcDbArc
 50
270.0
 51
90.0
  0
ARC
  5
2AD
330
1F
100
AcDbEntity
  8
0-7_金物
  6
JWW_DASHED1
 62
     7
370
     5
100
AcDbCircle
 10
-757.4902140241193
 20
-3044.200705256088
 30
0.0
 40
1.8
100
AcDbArc
 50
90.0
 51
270.0
  0
LINE
  5
2AE
330
1F
100
AcDbEntity
  8
0-B_寸法
  6
Continuous
 62
   120
370
     5
100
AcDbLine
 10
531.795765520028
 20
-69.99994082064745
 30
0.0
 11
-98.204234479972
 21
-69.99994082064745
 31
0.0
  0
LINE
  5
2AF
330
1F
100
AcDbEntity
  8
0-0_補助線
  6
JWW_HOJO
 62
   120
370
     5
100
AcDbLine
 10
-1802.690214024124
 20
170.000074025744
 30
0.0
 11
-1802.690214024124
 21
-3117.999940974257
 31
0.0
  0
LINE
  5
2B0
330
1F
100
AcDbEntity
  8
0-0_補助線
  6
JWW_HOJO
 62
   120
370
     5
100
AcDbLine
 10
-1442.690214024124
 20
-3117.999940974257
 30
0.0
 11
-1442.690214024124
 21
170.000074025744
 31
0.0
  0
LINE
  5
2B1
330
1F
100
AcDbEntity
  8
0-0_補助線
  6
JWW_HOJO
 62
   120
370
     5
100
AcDbLine
 10
-98.204234479972
 20
-3117.999940974257
 30
0.0
 11
-98.204234479972
 21
170.000074025744
 31
0.0
  0
LINE
  5
2B2
330
1F
100
AcDbEntity
  8
0-0_補助線
  6
JWW_HOJO
 62
   120
370
     5
100
AcDbLine
 10
-1802.690214024124
 20
170.000074025744
 30
0.0
 11
-98.204234479972
 21
170.000074025744
 31
0.0
  0
LINE
  5
2B3
330
1F
100
AcDbEntity
  8
0-7_金物
  6
Continuous
 62
     7
370
     5
100
AcDbLine
 10
-797.6901796918401
 20
-117.9999259742567
 30
0.0
 11
-797.6901796918401
 21
-93.99985730970798
 31
0.0
  0
LINE
  5
2B4
330
1F
100
AcDbEntity
  8
0-7_金物
  6
Continuous
 62
     7
370
     5
100
AcDbLine
 10
-905.6902483564045
 20
-93.99985730970798
 30
0.0
 11
-905.6902483564045
 21
-117.9999259742567
 31
0.0
  0
LINE
  5
2B5
330
1F
100
AcDbEntity
  8
0-7_金物
  6
Continuous
 62
     7
370
     5
100
AcDbLine
 10
-911.6904142957355
 20
-93.99985730970798
 30
0.0
 11
-791.6907576184758
 21
-93.99985730970798
 31
0.0
  0
LINE
  5
2B6
330
1F
100
AcDbEntity
  8
0-7_金物
  6
Continuous
 62
     7
370
     5
100
AcDbLine
 10
-791.6907576184758
 20
-82.0002635749654
 30
0.0
 11
-791.6907576184758
 21
-93.99985730970798
 31
0.0
  0
LINE
  5
2B7
330
1F
100
AcDbEntity
  8
0-7_金物
  6
Continuous
 62
     7
370
     5
100
AcDbLine
 10
-911.6904142957355
 20
-82.0002635749654
 30
0.0
 11
-911.6904142957355
 21
-93.99985730970798
 31
0.0
  0
LINE
  5
2B8
330
1F
100
AcDbEntity
  8
0-7_金物
  6
Continuous
 62
     7
370
     5
100
AcDbLine
 10
-941.690517292559
 20
-69.99992597425688
 30
0.0
 11
-941.690517292559
 21
-82.0002635749654
 31
0.0
  0
LINE
  5
2B9
330
1F
100
AcDbEntity
  8
0-7_金物
  6
Continuous
 62
     7
370
     5
100
AcDbLine
 10
-761.6906546216524
 20
-69.99992597425688
 30
0.0
 11
-761.6906546216524
 21
-82.0002635749654
 31
0.0
  0
LINE
  5
2BA
330
1F
100
AcDbEntity
  8
0-7_金物
  6
Continuous
 62
     7
370
     5
100
AcDbLine
 10
-941.690517292559
 20
-82.0002635749654
 30
0.0
 11
-761.6906546216524
 21
-82.0002635749654
 31
0.0
  0
LINE
  5
2BB
330
1F
100
AcDbEntity
  8
0-7_金物
  6
Continuous
 62
     7
370
     5
100
AcDbLine
 10
-1001.690517292559
 20
-69.99992597425688
 30
0.0
 11
-821.690654621666
 21
-69.99992597425688
 31
0.0
  0
LINE
  5
2BC
330
1F
100
AcDbEntity
  8
0-3_仕上げ
  6
Continuous
 62
   120
370
     5
100
AcDbLine
 10
-1121.690214024129
 20
-69.99992597425688
 30
0.0
 11
-701.6902140241154
 21
-69.99992597425688
 31
0.0
  0
LINE
  5
2BD
330
1F
100
AcDbEntity
  8
0-3_仕上げ
  6
Continuous
 62
   120
370
     5
100
AcDbLine
 10
-701.6902140241154
 20
110.0000740257431
 30
0.0
 11
-1121.690214024129
 21
110.0000740257431
 31
0.0
  0
LINE
  5
2BE
330
1F
100
AcDbEntity
  8
0-3_仕上げ
  6
Continuous
 62
   120
370
     5
100
AcDbLine
 10
-1121.690214024129
 20
110.0000740257431
 30
0.0
 11
-1121.690214024129
 21
-69.99992597425688
 31
0.0
  0
LINE
  5
2BF
330
1F
100
AcDbEntity
  8
0-3_仕上げ
  6
Continuous
 62
   120
370
     5
100
AcDbLine
 10
-701.6902140241154
 20
110.0000740257431
 30
0.0
 11
-1121.690214024129
 21
-69.99992597425688
 31
0.0
  0
LINE
  5
2C0
330
1F
100
AcDbEntity
  8
0-B_寸法
  6
Continuous
 62
   120
370
     5
100
AcDbLine
 10
-1802.690214024124
 20
-69.99992597425688
 30
0.0
 11
-1802.690214024124
 21
-3118.000311980379
 31
0.0
  0
LWPOLYLINE
  5
2C1
330
1F
100
AcDbEntity
  8
0-B_寸法
  6
Continuous
 62
     7
370
     5
100
AcDbPolyline
 90
        4
 70
     1
 43
3.0
 10
-1801.190214024124
 20
-69.99992597425688
 42
0.4142135623731
 10
-1802.690214024124
 20
-68.49992597425688
 42
0.4142135623731
 10
-1804.190214024124
 20
-69.99992597425688
 42
0.4142135623731
 10
-1802.690214024124
 20
-71.49992597425688
 42
0.4142135623731
  0
LINE
  5
2C2
330
1F
100
AcDbEntity
  8
0-B_寸法
  6
Continuous
 62
   120
370
     5
100
AcDbLine
 10
-1802.690214024124
 20
-69.99992597425688
 30
0.0
 11
-1442.690214024124
 21
-69.99992597425688
 31
0.0
  0
LWPOLYLINE
  5
2C3
330
1F
100
AcDbEntity
  8
0-B_寸法
  6
Continuous
 62
     7
370
     5
100
AcDbPolyline
 90
        4
 70
     1
 43
3.0
 10
533.295765520028
 20
-69.99994082064745
 42
0.4142135623731
 10
531.795765520028
 20
-68.49994082064745
 42
0.4142135623731
 10
530.295765520028
 20
-69.99994082064745
 42
0.4142135623731
 10
531.795765520028
 20
-71.49994082064745
 42
0.4142135623731
  0
LINE
  5
2C4
330
1F
100
AcDbEntity
  8
0-B_寸法
  6
Continuous
 62
   120
370
     5
100
AcDbLine
 10
531.795765520028
 20
-69.99994082064745
 30
0.0
 11
531.795765520028
 21
-3118.000311980379
 31
0.0
  0
LINE
  5
2C5
330
1F
100
AcDbEntity
  8
0-1_通り芯
  6
JWW_CENTER1
 62
   120
370
     5
100
AcDbLine
 10
-851.6902140241154
 20
-3211.070445315379
 30
0.0
 11
-851.6902140241154
 21
170.000074025744
 31
0.0
  0
MTEXT
  5
2C6
330
1F
100
AcDbEntity
  8
2-A_文字
  6
Continuous
 62
     7
370
     0
100
AcDbMText
 10
3440.473681805663
 20
1439.850300975566
 30
0.0
 40
57.15
 41
375.0
 46
0.0
 71
     7
 72
     1
  1
{\fＭＳ ゴシック|b0|i0|c128|p49;現場カット}
 73
     1
 44
1.0
  0
LINE
  5
2C7
330
1F
100
AcDbEntity
  8
0-B_寸法
  6
Continuous
 62
   120
370
     5
100
AcDbLine
 10
-788.6902140241182
 20
-896.7529430904893
 30
0.0
 11
-788.6902140241182
 21
-980.9898716694614
 31
0.0
  0
LWPOLYLINE
  5
2C8
330
1F
100
AcDbEntity
  8
0-B_寸法
  6
Continuous
 62
     7
370
     5
100
AcDbPolyline
 90
        4
 70
     1
 43
3.0
 10
-787.1902140241182
 20
-980.9898716694614
 42
0.4142135623731
 10
-788.6902140241182
 20
-979.4898716694615
 42
0.4142135623731
 10
-790.1902140241182
 20
-980.9898716694614
 42
0.4142135623731
 10
-788.6902140241182
 20
-982.4898716694613
 42
0.4142135623731
  0
LINE
  5
2C9
330
1F
100
AcDbEntity
  8
0-6_扉
  6
Continuous
 62
   200
370
     5
100
AcDbLine
 10
-788.6902140241182
 20
-1582.000084335741
 30
0.0
 11
-788.6902140241182
 21
-378.9998344215223
 31
0.0
  0
LINE
  5
2CA
330
1F
100
AcDbEntity
  8
0-6_扉
  6
Continuous
 62
   200
370
     5
100
AcDbLine
 10
-788.6902140241182
 20
-2995.00033424996
 30
0.0
 11
-788.6902140241182
 21
-1702.000084335741
 31
0.0
  0
MTEXT
  5
2CB
330
1F
100
AcDbEntity
  8
2-B_寸法
  6
Continuous
 62
     7
370
   211
100
AcDbMText
 10
4315.041619178421
 20
2143.889528146961
 30
0.0
 40
91.44
 41
120.0
 46
0.0
 71
     7
 72
     1
  1
{\fＭＳ ゴシック|b0|i0|c128|p49;85}
 73
     1
 44
1.0
  0
LINE
  5
2CC
330
1F
100
AcDbEntity
  8
0-B_寸法
  6
Continuous
 62
   120
370
     5
100
AcDbLine
 10
-914.6902140241264
 20
-896.7529430904893
 30
0.0
 11
-914.6902140241264
 21
-980.9898716694614
 31
0.0
  0
LWPOLYLINE
  5
2CD
330
1F
100
AcDbEntity
  8
0-B_寸法
  6
Continuous
 62
     7
370
     5
100
AcDbPolyline
 90
        4
 70
     1
 43
3.0
 10
-913.1902140241264
 20
-980.9898716694614
 42
0.4142135623731
 10
-914.6902140241264
 20
-979.4898716694615
 42
0.4142135623731
 10
-916.1902140241264
 20
-980.9898716694614
 42
0.4142135623731
 10
-914.6902140241264
 20
-982.4898716694613
 42
0.4142135623731
  0
LINE
  5
2CE
330
1F
100
AcDbEntity
  8
0-6_扉
  6
Continuous
 62
   200
370
     5
100
AcDbLine
 10
-914.6902140241264
 20
-1582.000084335741
 30
0.0
 11
-914.6902140241264
 21
-378.9998344215223
 31
0.0
  0
LINE
  5
2CF
330
1F
100
AcDbEntity
  8
0-6_扉
  6
Continuous
 62
   200
370
     5
100
AcDbLine
 10
-914.6902140241264
 20
-2995.00033424996
 30
0.0
 11
-914.6902140241264
 21
-1702.000084335741
 31
0.0
  0
LINE
  5
2D0
330
1F
100
AcDbEntity
  8
0-6_扉
  6
Continuous
 62
   200
370
     5
100
AcDbLine
 10
-914.6902140241264
 20
-378.9998344215223
 30
0.0
 11
-788.6902140241182
 21
-378.9998344215223
 31
0.0
  0
LINE
  5
2D1
330
1F
100
AcDbEntity
  8
0-B_寸法
  6
Continuous
 62
   120
370
     5
100
AcDbLine
 10
-914.6902140241264
 20
-980.9898716694614
 30
0.0
 11
-788.6902140241182
 21
-980.9898716694614
 31
0.0
  0
LINE
  5
2D2
330
1F
100
AcDbEntity
  8
0-6_扉
  6
Continuous
 62
   200
370
     5
100
AcDbLine
 10
-788.6902140241182
 20
-2995.00033424996
 30
0.0
 11
-914.6902140241264
 21
-2995.00033424996
 31
0.0
  0
MTEXT
  5
2D3
330
1F
100
AcDbEntity
  8
2-B_寸法
  6
Continuous
 62
     7
370
     0
100
AcDbMText
 10
5066.666678270747
 20
1003.785373475691
 30
0.0
 40
91.44
 41
240.0
 46
0.0
 71
     7
 72
     1
  1
{\fＭＳ ゴシック|b0|i0|c128|p49;14.5}
 11
6.123031769111886E-17
 21
1.0
 31
0.0
 73
     1
 44
1.0
  0
MTEXT
  5
2D4
330
1F
100
AcDbEntity
  8
2-B_寸法
  6
Continuous
 62
     7
370
     0
100
AcDbMText
 10
4025.868532029251
 20
943.308193603159
 30
0.0
 40
91.44
 41
180.0
 46
0.0
 71
     7
 72
     1
  1
{\fＭＳ ゴシック|b0|i0|c128|p49;1.5}
 73
     1
 44
1.0
  0
MTEXT
  5
2D5
330
1F
100
AcDbEntity
  8
2-B_寸法
  6
Continuous
 62
     7
370
     0
100
AcDbMText
 10
4545.541309937873
 20
942.0996522591823
 30
0.0
 40
91.43999999999308
 41
179.9999999999864
 46
0.0
 71
     7
 72
     1
  1
{\fＭＳ ゴシック|b0|i0|c128|p49;1.5}
 73
     1
 44
1.0
  0
MTEXT
  5
2D6
330
1F
100
AcDbEntity
  8
2-B_寸法
  6
Continuous
 62
     7
370
     0
100
AcDbMText
 10
4321.117504023234
 20
833.3309313015684
 30
0.0
 40
91.44
 41
120.0
 46
0.0
 71
     7
 72
     1
  1
{\fＭＳ ゴシック|b0|i0|c128|p49;20}
 73
     1
 44
1.0
  0
MTEXT
  5
2D7
330
1F
100
AcDbEntity
  8
2-B_寸法
  6
Continuous
 62
     7
370
   211
100
AcDbMText
 10
3977.54143772255
 20
832.5468494648891
 30
0.0
 40
91.44
 41
240.0
 46
0.0
 71
     7
 72
     1
  1
{\fＭＳ ゴシック|b0|i0|c128|p49;29.5}
 73
     1
 44
1.0
  0
MTEXT
  5
2D8
330
1F
100
AcDbEntity
  8
2-B_寸法
  6
Continuous
 62
     7
370
   211
100
AcDbMText
 10
4532.541800634306
 20
832.5468494648865
 30
0.0
 40
91.43999999999481
 41
239.9999999999864
 46
0.0
 71
     7
 72
     1
  1
{\fＭＳ ゴシック|b0|i0|c128|p49;29.5}
 73
     1
 44
1.0
  0
MTEXT
  5
2D9
330
1F
100
AcDbEntity
  8
2-B_寸法
  6
Continuous
 62
     7
370
     0
100
AcDbMText
 10
4393.265100597198
 20
689.8738071448935
 30
0.0
 40
91.44
 41
180.0
 46
0.0
 71
     7
 72
     1
  1
{\fＭＳ ゴシック|b0|i0|c128|p49;1.5}
 73
     1
 44
1.0
  0
MTEXT
  5
2DA
330
1F
100
AcDbEntity
  8
2-B_寸法
  6
Continuous
 62
     7
370
     0
100
AcDbMText
 10
4184.187448089777
 20
686.248183112973
 30
0.0
 40
91.44
 41
180.0
 46
0.0
 71
     7
 72
     1
  1
{\fＭＳ ゴシック|b0|i0|c128|p49;1.5}
 73
     1
 44
1.0
  0
MTEXT
  5
2DB
330
1F
100
AcDbEntity
  8
0-B_寸法
  6
Continuous
 62
     7
370
   211
100
AcDbMText
 10
-1817.690214024124
 20
-2046.280084335741
 30
0.0
 40
91.43999999999997
 41
780.0
 46
0.0
 71
     7
 72
     1
  1
{\fＭＳ ゴシック|b0|i0|c128|p49;ＲＯＨ＝2,055}
 11
6.123031769111886E-17
 21
1.0
 31
0.0
 73
     1
 44
1.0
  0
MTEXT
  5
2DC
330
1F
100
AcDbEntity
  8
0-B_寸法
  6
Continuous
 62
     7
370
     0
100
AcDbMText
 10
156.7964583515277
 20
-1986.280084335741
 30
0.0
 40
91.43999999999997
 41
660.0
 46
0.0
 71
     7
 72
     1
  1
{\fＭＳ ゴシック|b0|i0|c128|p49;ＤＨ＝1,983}
 11
6.123031769111886E-17
 21
1.0
 31
0.0
 73
     1
 44
1.0
  0
MTEXT
  5
2DD
330
1F
100
AcDbEntity
  8
0-B_寸法
  6
Continuous
 62
     7
370
     0
100
AcDbMText
 10
336.7964583515277
 20
-1986.280084335741
 30
0.0
 40
91.43999999999997
 41
660.0
 46
0.0
 71
     7
 72
     1
  1
{\fＭＳ ゴシック|b0|i0|c128|p49;枠内＝1,999}
 11
6.123031769111886E-17
 21
1.0
 31
0.0
 73
     1
 44
1.0
  0
MTEXT
  5
2DE
330
1F
100
AcDbEntity
  8
0-B_寸法
  6
Continuous
 62
     7
370
     0
100
AcDbMText
 10
516.79497371259
 20
-1986.280084335741
 30
0.0
 40
91.43999999999997
 41
660.0
 46
0.0
 71
     7
 72
     1
  1
{\fＭＳ ゴシック|b0|i0|c128|p49;枠外＝2,047}
 11
6.123031769111886E-17
 21
1.0
 31
0.0
 73
     1
 44
1.0
  0
LINE
  5
2DF
330
1F
100
AcDbEntity
  8
0-0_補助線
  6
JWW_HOJO
 62
     7
370
     5
100
AcDbLine
 10
-851.6902140241154
 20
1086.945146596839
 30
0.0
 11
-851.6902140241154
 21
3321.94514659684
 31
0.0
  0
MTEXT
  5
2E0
330
1F
100
AcDbEntity
  8
0-A_文字
  6
Continuous
 62
     7
370
     5
100
AcDbMText
 10
-1499.690486207916
 20
1006.738479930173
 30
0.0
 40
79.58666666666667
 41
2820.0
 46
0.0
 71
     7
 72
     1
  1
{\fＭＳ ゴシック|b0|i0|c128|p49;※有効開口寸法は扉の厚さや調整によって若干異なります。}
 73
     1
 44
1.0
  0
LINE
  5
2E1
330
1F
100
AcDbEntity
  8
0-6_扉
  6
Continuous
 62
   200
370
     5
100
AcDbLine
 10
-2858.690214024115
 20
2424.94514659684
 30
0.0
 11
-2858.690214024115
 21
2298.945146596839
 31
0.0
  0
LINE
  5
2E2
330
1F
100
AcDbEntity
  8
0-0_補助線
  6
JWW_HOJO
 62
   120
370
     5
100
AcDbLine
 10
-3623.690016072255
 20
1266.945146596839
 30
0.0
 11
-3623.690016072255
 21
3141.94514659684
 31
0.0
  0
LINE
  5
2E3
330
1F
100
AcDbEntity
  8
0-6_扉
  6
Continuous
 62
   200
370
     5
100
AcDbLine
 10
1155.309785975889
 20
2424.94514659684
 30
0.0
 11
1155.309785975889
 21
2298.945146596839
 31
0.0
  0
LINE
  5
2E4
330
1F
100
AcDbEntity
  8
0-0_補助線
  6
JWW_HOJO
 62
   120
370
     5
100
AcDbLine
 10
1920.309588024032
 20
1266.945146596839
 30
0.0
 11
1920.309588024032
 21
3141.94514659684
 31
0.0
  0
LINE
  5
2E5
330
1F
100
AcDbEntity
  8
0-0_補助線
  6
JWW_HOJO
 62
   120
370
     5
100
AcDbLine
 10
1920.309588024032
 20
2781.94514659684
 30
0.0
 11
-3623.690016072255
 21
2781.94514659684
 31
0.0
  0
LINE
  5
2E6
330
1F
100
AcDbEntity
  8
0-0_補助線
  6
JWW_HOJO
 62
   120
370
     5
100
AcDbLine
 10
1920.309588024032
 20
1626.945146596839
 30
0.0
 11
-3623.690016072255
 21
1626.945146596839
 31
0.0
  0
LINE
  5
2E7
330
1F
100
AcDbEntity
  8
0-0_補助線
  6
JWW_HOJO
 62
   120
370
     5
100
AcDbLine
 10
1920.309588024032
 20
1446.945146596839
 30
0.0
 11
-3623.690016072255
 21
1446.945146596839
 31
0.0
  0
LINE
  5
2E8
330
1F
100
AcDbEntity
  8
0-0_補助線
  6
JWW_HOJO
 62
   120
370
     5
100
AcDbLine
 10
1920.309588024032
 20
1266.945146596839
 30
0.0
 11
-3623.690016072255
 21
1266.945146596839
 31
0.0
  0
LINE
  5
2E9
330
1F
100
AcDbEntity
  8
0-0_補助線
  6
JWW_HOJO
 62
   120
370
     5
100
AcDbLine
 10
1920.309588024032
 20
3141.94514659684
 30
0.0
 11
-3623.690016072255
 21
3141.94514659684
 31
0.0
  0
LINE
  5
2EA
330
1F
100
AcDbEntity
  8
0-0_補助線
  6
JWW_HOJO
 62
   120
370
     5
100
AcDbLine
 10
1920.309588024032
 20
2961.94514659684
 30
0.0
 11
-3623.690016072255
 21
2961.94514659684
 31
0.0
  0
LINE
  5
2EB
330
1F
100
AcDbEntity
  8
0-0_補助線
  6
JWW_HOJO
 62
     7
370
     5
100
AcDbLine
 10
-2843.690214024115
 20
1086.945146596839
 30
0.0
 11
-2843.690214024115
 21
3321.94514659684
 31
0.0
  0
LINE
  5
2EC
330
1F
100
AcDbEntity
  8
0-0_補助線
  6
JWW_HOJO
 62
     7
370
     5
100
AcDbLine
 10
1140.309785975885
 20
1086.945146596839
 30
0.0
 11
1140.309785975885
 21
3321.94514659684
 31
0.0
  0
LINE
  5
2ED
330
1F
100
AcDbEntity
  8
0-1_通り芯
  6
JWW_CENTER1
 62
   120
370
     5
100
AcDbLine
 10
1920.309588024032
 20
2361.94514659684
 30
0.0
 11
-3623.690016072255
 21
2361.94514659684
 31
0.0
  0
LINE
  5
2EE
330
1F
100
AcDbEntity
  8
0-C_ハッチ
  6
Continuous
 62
   120
370
     5
100
AcDbLine
 10
-3023.690214024128
 20
2565.455682251506
 30
0.0
 11
-2972.200749678789
 21
2616.945146596849
 31
0.0
  0
LINE
  5
2EF
330
1F
100
AcDbEntity
  8
0-C_ハッチ
  6
Continuous
 62
   120
370
     5
100
AcDbLine
 10
-3023.690214024111
 20
2506.058712631877
 30
0.0
 11
-2912.803780059158
 21
2616.945146596829
 31
0.0
  0
LINE
  5
2F0
330
1F
100
AcDbEntity
  8
0-C_ハッチ
  6
Continuous
 62
   120
370
     5
100
AcDbLine
 10
-3023.690214024125
 20
2446.661743012163
 30
0.0
 11
-2857.548512231781
 21
2612.803444804507
 31
0.0
  0
LINE
  5
2F1
330
1F
100
AcDbEntity
  8
0-C_ハッチ
  6
Continuous
 62
   120
370
     5
100
AcDbLine
 10
-3023.690214024111
 20
2387.26477339253
 30
0.0
 11
-2843.690214024115
 21
2567.264773392527
 31
0.0
  0
LINE
  5
2F2
330
1F
100
AcDbEntity
  8
0-C_ハッチ
  6
Continuous
 62
   120
370
     5
100
AcDbLine
 10
-3023.690214024118
 20
2327.867803772821
 30
0.0
 11
-2843.690214024125
 21
2507.867803772811
 31
0.0
  0
LINE
  5
2F3
330
1F
100
AcDbEntity
  8
0-C_ハッチ
  6
Continuous
 62
   120
370
     5
100
AcDbLine
 10
-3023.690214024115
 20
2268.470834153178
 30
0.0
 11
-2874.592197264866
 21
2417.568850912423
 31
0.0
  0
LINE
  5
2F4
330
1F
100
AcDbEntity
  8
0-C_ハッチ
  6
Continuous
 62
   120
370
     5
100
AcDbLine
 10
-3023.690214024108
 20
2209.073864533536
 30
0.0
 11
-2879.565193245286
 21
2353.198885312356
 31
0.0
  0
LINE
  5
2F5
330
1F
100
AcDbEntity
  8
0-C_ハッチ
  6
Continuous
 62
   120
370
     5
100
AcDbLine
 10
-3023.690214024125
 20
2149.676894913818
 30
0.0
 11
-2873.356818160479
 21
2300.010290777461
 31
0.0
  0
LINE
  5
2F6
330
1F
100
AcDbEntity
  8
0-C_ハッチ
  6
Continuous
 62
   120
370
     5
100
AcDbLine
 10
-3007.02499272145
 20
2106.945146596843
 30
0.0
 11
-2860.005204617988
 21
2253.964934700305
 31
0.0
  0
LINE
  5
2F7
330
1F
100
AcDbEntity
  8
0-C_ハッチ
  6
Continuous
 62
   120
370
     5
100
AcDbLine
 10
-2947.628023101752
 20
2106.945146596842
 30
0.0
 11
-2843.690214024115
 21
2210.882955674476
 31
0.0
  0
LINE
  5
2F8
330
1F
100
AcDbEntity
  8
0-C_ハッチ
  6
Continuous
 62
   120
370
     5
100
AcDbLine
 10
-2888.231053482111
 20
2106.945146596835
 30
0.0
 11
-2843.690214024122
 21
2151.485986054826
 31
0.0
  0
ARC
  5
2F9
330
1F
100
AcDbEntity
  8
0-4_枠
  6
Continuous
 62
    92
370
     5
100
AcDbCircle
 10
-2573.690214024111
 20
2361.94514659684
 30
0.0
 40
306.0000000000022
100
AcDbArc
 50
151.9275130641473
 51
208.0724869358527
  0
LINE
  5
2FA
330
1F
100
AcDbEntity
  8
0-4_枠
  6
Continuous
 62
    92
370
     5
100
AcDbLine
 10
-2843.690214024115
 20
2505.94514659684
 30
0.0
 11
-2843.690214024115
 21
2598.94514659684
 31
0.0
  0
LINE
  5
2FB
330
1F
100
AcDbEntity
  8
0-4_枠
  6
Continuous
 62
    92
370
     5
100
AcDbLine
 10
-2843.690214024115
 20
2124.94514659684
 30
0.0
 11
-2843.690214024115
 21
2217.945146596839
 31
0.0
  0
LINE
  5
2FC
330
1F
100
AcDbEntity
  8
0-4_枠
  6
Continuous
 62
    92
370
     5
100
AcDbLine
 10
-2843.690214024115
 20
2124.94514659684
 30
0.0
 11
-2861.690214024115
 21
2106.94514659684
 31
0.0
  0
LINE
  5
2FD
330
1F
100
AcDbEntity
  8
0-4_枠
  6
Continuous
 62
    92
370
     5
100
AcDbLine
 10
-2861.690214024115
 20
2106.94514659684
 30
0.0
 11
-3023.690214024115
 21
2106.94514659684
 31
0.0
  0
LINE
  5
2FE
330
1F
100
AcDbEntity
  8
0-4_枠
  6
Continuous
 62
    92
370
     5
100
AcDbLine
 10
-2861.690214024115
 20
2616.94514659684
 30
0.0
 11
-2843.690214024115
 21
2598.94514659684
 31
0.0
  0
LINE
  5
2FF
330
1F
100
AcDbEntity
  8
0-4_枠
  6
Continuous
 62
    92
370
     5
100
AcDbLine
 10
-2861.690214024115
 20
2616.94514659684
 30
0.0
 11
-3023.690214024115
 21
2616.94514659684
 31
0.0
  0
LINE
  5
300
330
1F
100
AcDbEntity
  8
0-4_枠
  6
Continuous
 62
    92
370
     5
100
AcDbLine
 10
-3023.690214024115
 20
2106.94514659684
 30
0.0
 11
-3023.690214024115
 21
2616.94514659684
 31
0.0
  0
LINE
  5
301
330
1F
100
AcDbEntity
  8
0-0_補助線
  6
Continuous
 62
   120
370
     5
100
AcDbLine
 10
-2843.690214024115
 20
2324.359196304378
 30
0.0
 11
-2858.690214024115
 21
2324.359196304378
 31
0.0
  0
LWPOLYLINE
  5
302
330
1F
100
AcDbEntity
  8
0-0_補助線
  6
Continuous
 62
     7
370
     5
100
AcDbPolyline
 90
        4
 70
     1
 43
3.0
 10
-2842.190214024115
 20
2324.359196304378
 42
0.4142135623731
 10
-2843.690214024115
 20
2325.859196304378
 42
0.4142135623731
 10
-2845.190214024115
 20
2324.359196304378
 42
0.4142135623731
 10
-2843.690214024115
 20
2322.859196304378
 42
0.4142135623731
  0
LWPOLYLINE
  5
303
330
1F
100
AcDbEntity
  8
0-0_補助線
  6
Continuous
 62
     7
370
     5
100
AcDbPolyline
 90
        4
 70
     1
 43
3.0
 10
-2857.190214024115
 20
2324.359196304378
 42
0.4142135623731
 10
-2858.690214024115
 20
2325.859196304378
 42
0.4142135623731
 10
-2860.190214024115
 20
2324.359196304378
 42
0.4142135623731
 10
-2858.690214024115
 20
2322.859196304378
 42
0.4142135623731
  0
LINE
  5
304
330
1F
100
AcDbEntity
  8
0-0_補助線
  6
Continuous
 62
   120
370
     5
100
AcDbLine
 10
-2843.690214024115
 20
2324.359196304378
 30
0.0
 11
-2843.690214024115
 21
2405.688459527564
 31
0.0
  0
LINE
  5
305
330
1F
100
AcDbEntity
  8
0-0_補助線
  6
Continuous
 62
   120
370
     5
100
AcDbLine
 10
-2858.690214024115
 20
2324.359196304378
 30
0.0
 11
-2858.690214024115
 21
2405.688459527564
 31
0.0
  0
LINE
  5
306
330
1F
100
AcDbEntity
  8
0-0_補助線
  6
Continuous
 62
   120
370
     5
100
AcDbLine
 10
-2858.690214024115
 20
2324.359196304378
 30
0.0
 11
-2879.690214024113
 21
2324.359196304378
 31
0.0
  0
LWPOLYLINE
  5
307
330
1F
100
AcDbEntity
  8
0-0_補助線
  6
Continuous
 62
     7
370
     5
100
AcDbPolyline
 90
        4
 70
     1
 43
3.0
 10
-2878.190214024113
 20
2324.359196304378
 42
0.4142135623731
 10
-2879.690214024113
 20
2325.859196304378
 42
0.4142135623731
 10
-2881.190214024113
 20
2324.359196304378
 42
0.4142135623731
 10
-2879.690214024113
 20
2322.859196304378
 42
0.4142135623731
  0
LINE
  5
308
330
1F
100
AcDbEntity
  8
0-0_補助線
  6
Continuous
 62
   120
370
     5
100
AcDbLine
 10
-2879.690214024113
 20
2324.359196304378
 30
0.0
 11
-2879.690214024113
 21
2405.688459527564
 31
0.0
  0
MTEXT
  5
309
330
1F
100
AcDbEntity
  8
0-0_補助線
  6
Continuous
 62
     7
370
   211
100
AcDbMText
 10
-2833.303759111765
 20
2325.079196304378
 30
0.0
 40
91.44
 41
180.0
 46
0.0
 71
     7
 72
     1
  1
{\fＭＳ ゴシック|b0|i0|c128|p49;2.5}
 73
     1
 44
1.0
  0
LINE
  5
30A
330
1F
100
AcDbEntity
  8
0-C_ハッチ
  6
Continuous
 62
   120
370
     5
100
AcDbLine
 10
1140.30978597587
 20
2547.831580561769
 30
0.0
 11
1209.423352010945
 21
2616.945146596845
 31
0.0
  0
LINE
  5
30B
330
1F
100
AcDbEntity
  8
0-C_ハッチ
  6
Continuous
 62
   120
370
     5
100
AcDbLine
 10
1146.195359096245
 20
2494.320184062498
 30
0.0
 11
1268.82032163058
 21
2616.945146596832
 31
0.0
  0
LINE
  5
30C
330
1F
100
AcDbEntity
  8
0-C_ハッチ
  6
Continuous
 62
   120
370
     5
100
AcDbLine
 10
1162.879043153739
 20
2451.60689850029
 30
0.0
 11
1320.30978597588
 21
2609.037641322429
 31
0.0
  0
LINE
  5
30D
330
1F
100
AcDbEntity
  8
0-C_ハッチ
  6
Continuous
 62
   120
370
     5
100
AcDbLine
 10
1173.558190180433
 20
2402.889075907337
 30
0.0
 11
1320.309785975898
 21
2549.640671702802
 31
0.0
  0
LINE
  5
30E
330
1F
100
AcDbEntity
  8
0-C_ハッチ
  6
Continuous
 62
   120
370
     5
100
AcDbLine
 10
1175.884539234662
 20
2345.818455341918
 30
0.0
 11
1320.309785975888
 21
2490.243702083145
 31
0.0
  0
LINE
  5
30F
330
1F
100
AcDbEntity
  8
0-C_ハッチ
  6
Continuous
 62
   120
370
     5
100
AcDbLine
 10
1163.372405268746
 20
2273.909351756301
 30
0.0
 11
1320.309785975875
 21
2430.846732463428
 31
0.0
  0
LINE
  5
310
330
1F
100
AcDbEntity
  8
0-C_ハッチ
  6
Continuous
 62
   120
370
     5
100
AcDbLine
 10
1140.309785975887
 20
2191.449762843794
 30
0.0
 11
1320.309785975887
 21
2371.449762843794
 31
0.0
  0
LINE
  5
311
330
1F
100
AcDbEntity
  8
0-C_ハッチ
  6
Continuous
 62
   120
370
     5
100
AcDbLine
 10
1140.309785975874
 20
2132.05279322408
 30
0.0
 11
1320.30978597588
 21
2312.052793224084
 31
0.0
  0
LINE
  5
312
330
1F
100
AcDbEntity
  8
0-C_ハッチ
  6
Continuous
 62
   120
370
     5
100
AcDbLine
 10
1174.599108968288
 20
2106.945146596846
 30
0.0
 11
1320.309785975888
 21
2252.655823604447
 31
0.0
  0
LINE
  5
313
330
1F
100
AcDbEntity
  8
0-C_ハッチ
  6
Continuous
 62
   120
370
     5
100
AcDbLine
 10
1233.996078587978
 20
2106.945146596836
 30
0.0
 11
1320.309785975885
 21
2193.258853984741
 31
0.0
  0
LINE
  5
314
330
1F
100
AcDbEntity
  8
0-C_ハッチ
  6
Continuous
 62
   120
370
     5
100
AcDbLine
 10
1293.393048207641
 20
2106.94514659685
 30
0.0
 11
1320.309785975874
 21
2133.861884365082
 31
0.0
  0
ARC
  5
315
330
1F
100
AcDbEntity
  8
0-4_枠
  6
Continuous
 62
    92
370
     5
100
AcDbCircle
 10
870.3097859758822
 20
2361.94514659684
 30
0.0
 40
306.0000000000022
100
AcDbArc
 50
331.9275130641473
 51
28.07248693585271
  0
LINE
  5
316
330
1F
100
AcDbEntity
  8
0-4_枠
  6
Continuous
 62
    92
370
     5
100
AcDbLine
 10
1140.309785975885
 20
2505.94514659684
 30
0.0
 11
1140.309785975885
 21
2598.94514659684
 31
0.0
  0
LINE
  5
317
330
1F
100
AcDbEntity
  8
0-4_枠
  6
Continuous
 62
    92
370
     5
100
AcDbLine
 10
1140.309785975885
 20
2124.94514659684
 30
0.0
 11
1140.309785975885
 21
2217.945146596839
 31
0.0
  0
LINE
  5
318
330
1F
100
AcDbEntity
  8
0-4_枠
  6
Continuous
 62
    92
370
     5
100
AcDbLine
 10
1140.309785975885
 20
2124.94514659684
 30
0.0
 11
1158.309785975885
 21
2106.94514659684
 31
0.0
  0
LINE
  5
319
330
1F
100
AcDbEntity
  8
0-4_枠
  6
Continuous
 62
    92
370
     5
100
AcDbLine
 10
1158.309785975885
 20
2106.94514659684
 30
0.0
 11
1320.309785975886
 21
2106.94514659684
 31
0.0
  0
LINE
  5
31A
330
1F
100
AcDbEntity
  8
0-4_枠
  6
Continuous
 62
    92
370
     5
100
AcDbLine
 10
1158.309785975885
 20
2616.94514659684
 30
0.0
 11
1140.309785975885
 21
2598.94514659684
 31
0.0
  0
LINE
  5
31B
330
1F
100
AcDbEntity
  8
0-4_枠
  6
Continuous
 62
    92
370
     5
100
AcDbLine
 10
1158.309785975885
 20
2616.94514659684
 30
0.0
 11
1320.309785975886
 21
2616.94514659684
 31
0.0
  0
LINE
  5
31C
330
1F
100
AcDbEntity
  8
0-4_枠
  6
Continuous
 62
    92
370
     5
100
AcDbLine
 10
1320.309785975886
 20
2106.94514659684
 30
0.0
 11
1320.309785975886
 21
2616.94514659684
 31
0.0
  0
LINE
  5
31D
330
1F
100
AcDbEntity
  8
0-7_金物
  6
Continuous
 62
     7
370
     5
100
AcDbLine
 10
1338.309449457727
 20
2271.945220828786
 30
0.0
 11
1338.309449457727
 21
2451.945072364892
 31
0.0
  0
LINE
  5
31E
330
1F
100
AcDbEntity
  8
0-7_金物
  6
Continuous
 62
     7
370
     5
100
AcDbLine
 10
1350.309785975886
 20
2451.945072364892
 30
0.0
 11
1338.309449457727
 21
2451.945072364892
 31
0.0
  0
LINE
  5
31F
330
1F
100
AcDbEntity
  8
0-7_金物
  6
Continuous
 62
     7
370
     5
100
AcDbLine
 10
1350.309785975886
 20
2271.945220828786
 30
0.0
 11
1338.309449457727
 21
2271.945220828786
 31
0.0
  0
LINE
  5
320
330
1F
100
AcDbEntity
  8
0-7_金物
  6
Continuous
 62
     7
370
     5
100
AcDbLine
 10
1338.309449457727
 20
2301.945319804715
 30
0.0
 11
1326.309855259036
 21
2301.945319804715
 31
0.0
  0
LINE
  5
321
330
1F
100
AcDbEntity
  8
0-7_金物
  6
Continuous
 62
     7
370
     5
100
AcDbLine
 10
1338.309449457727
 20
2421.944973388963
 30
0.0
 11
1326.309855259036
 21
2421.944973388963
 31
0.0
  0
LINE
  5
322
330
1F
100
AcDbEntity
  8
0-7_金物
  6
Continuous
 62
     7
370
     5
100
AcDbLine
 10
1326.309855259036
 20
2301.945319804715
 30
0.0
 11
1326.309855259036
 21
2421.944973388963
 31
0.0
  0
LINE
  5
323
330
1F
100
AcDbEntity
  8
0-7_金物
  6
Continuous
 62
     7
370
     5
100
AcDbLine
 10
1326.309855259036
 20
2415.945547449352
 30
0.0
 11
1320.309785975886
 21
2415.945547449352
 31
0.0
  0
LINE
  5
324
330
1F
100
AcDbEntity
  8
0-7_金物
  6
Continuous
 62
     7
370
     5
100
AcDbLine
 10
1326.309855259036
 20
2307.945488063794
 30
0.0
 11
1320.309785975886
 21
2307.945488063794
 31
0.0
  0
LINE
  5
325
330
1F
100
AcDbEntity
  8
0-7_金物
  6
Continuous
 62
     7
370
     5
100
AcDbLine
 10
1350.309785975886
 20
2271.945220828786
 30
0.0
 11
1350.309785975886
 21
2451.945072364892
 31
0.0
  0
LINE
  5
326
330
1F
100
AcDbEntity
  8
0-3_仕上げ
  6
Continuous
 62
    40
370
     5
100
AcDbLine
 10
1320.309785975886
 20
2178.94514659684
 30
0.0
 11
1920.309588024032
 21
2178.94514659684
 31
0.0
  0
LINE
  5
327
330
1F
100
AcDbEntity
  8
0-3_仕上げ
  6
Continuous
 62
    40
370
     5
100
AcDbLine
 10
1320.309785975886
 20
2253.94514659684
 30
0.0
 11
1920.309588024032
 21
2253.94514659684
 31
0.0
  0
LINE
  5
328
330
1F
100
AcDbEntity
  8
0-C_ハッチ
  6
JWW_DASHED1
 62
   120
370
     5
100
AcDbLine
 10
1908.289850182835
 20
2178.945146596847
 30
0.0
 11
1920.309588024025
 21
2190.964884438035
 31
0.0
  0
LINE
  5
329
330
1F
100
AcDbEntity
  8
0-C_ハッチ
  6
JWW_DASHED1
 62
   120
370
     5
100
AcDbLine
 10
1865.863443311639
 20
2178.945146596851
 30
0.0
 11
1920.309588024015
 21
2233.391291309228
 31
0.0
  0
LINE
  5
32A
330
1F
100
AcDbEntity
  8
0-C_ハッチ
  6
JWW_DASHED1
 62
   120
370
     5
100
AcDbLine
 10
1823.437036440442
 20
2178.945146596854
 30
0.0
 11
1898.437036440452
 21
2253.945146596865
 31
0.0
  0
LINE
  5
32B
330
1F
100
AcDbEntity
  8
0-C_ハッチ
  6
JWW_DASHED1
 62
   120
370
     5
100
AcDbLine
 10
1781.010629569234
 20
2178.945146596845
 30
0.0
 11
1856.010629569227
 21
2253.945146596839
 31
0.0
  0
LINE
  5
32C
330
1F
100
AcDbEntity
  8
0-C_ハッチ
  6
JWW_DASHED1
 62
   120
370
     5
100
AcDbLine
 10
1738.584222698034
 20
2178.945146596845
 30
0.0
 11
1813.584222698028
 21
2253.94514659684
 31
0.0
  0
LINE
  5
32D
330
1F
100
AcDbEntity
  8
0-C_ハッチ
  6
JWW_DASHED1
 62
   120
370
     5
100
AcDbLine
 10
1696.157815826838
 20
2178.945146596849
 30
0.0
 11
1771.157815826832
 21
2253.945146596845
 31
0.0
  0
LINE
  5
32E
330
1F
100
AcDbEntity
  8
0-C_ハッチ
  6
JWW_DASHED1
 62
   120
370
     5
100
AcDbLine
 10
1653.7314089557
 20
2178.945146596858
 30
0.0
 11
1728.731408955695
 21
2253.945146596852
 31
0.0
  0
LINE
  5
32F
330
1F
100
AcDbEntity
  8
0-C_ハッチ
  6
JWW_DASHED1
 62
   120
370
     5
100
AcDbLine
 10
1611.305002084503
 20
2178.945146596861
 30
0.0
 11
1686.305002084499
 21
2253.945146596856
 31
0.0
  0
LINE
  5
330
330
1F
100
AcDbEntity
  8
0-C_ハッチ
  6
JWW_DASHED1
 62
   120
370
     5
100
AcDbLine
 10
1568.878595213292
 20
2178.945146596849
 30
0.0
 11
1643.878595213303
 21
2253.945146596859
 31
0.0
  0
LINE
  5
331
330
1F
100
AcDbEntity
  8
0-C_ハッチ
  6
JWW_DASHED1
 62
   120
370
     5
100
AcDbLine
 10
1526.452188342096
 20
2178.945146596852
 30
0.0
 11
1601.452188342107
 21
2253.945146596863
 31
0.0
  0
LINE
  5
332
330
1F
100
AcDbEntity
  8
0-C_ハッチ
  6
JWW_DASHED1
 62
   120
370
     5
100
AcDbLine
 10
1484.025781470899
 20
2178.945146596856
 30
0.0
 11
1559.025781470895
 21
2253.945146596851
 31
0.0
  0
LINE
  5
333
330
1F
100
AcDbEntity
  8
0-C_ハッチ
  6
JWW_DASHED1
 62
   120
370
     5
100
AcDbLine
 10
1441.599374599686
 20
2178.945146596845
 30
0.0
 11
1516.599374599683
 21
2253.945146596839
 31
0.0
  0
LINE
  5
334
330
1F
100
AcDbEntity
  8
0-C_ハッチ
  6
JWW_DASHED1
 62
   120
370
     5
100
AcDbLine
 10
1399.17296772849
 20
2178.945146596847
 30
0.0
 11
1474.172967728486
 21
2253.945146596843
 31
0.0
  0
LINE
  5
335
330
1F
100
AcDbEntity
  8
0-C_ハッチ
  6
JWW_DASHED1
 62
   120
370
     5
100
AcDbLine
 10
1356.746560857295
 20
2178.945146596851
 30
0.0
 11
1431.74656085729
 21
2253.945146596847
 31
0.0
  0
LINE
  5
336
330
1F
100
AcDbEntity
  8
0-C_ハッチ
  6
JWW_DASHED1
 62
   120
370
     5
100
AcDbLine
 10
1320.309785975868
 20
2184.934778586571
 30
0.0
 11
1389.320153986153
 21
2253.945146596854
 31
0.0
  0
LINE
  5
337
330
1F
100
AcDbEntity
  8
0-C_ハッチ
  6
JWW_DASHED1
 62
   120
370
     5
100
AcDbLine
 10
1320.309785975873
 20
2227.361185457776
 30
0.0
 11
1346.893747114956
 21
2253.945146596858
 31
0.0
  0
LINE
  5
338
330
1F
100
AcDbEntity
  8
0-3_仕上げ
  6
Continuous
 62
    40
370
     5
100
AcDbLine
 10
-3623.690016072242
 20
2178.94514659684
 30
0.0
 11
-3023.690214024098
 21
2178.94514659684
 31
0.0
  0
LINE
  5
339
330
1F
100
AcDbEntity
  8
0-3_仕上げ
  6
Continuous
 62
    40
370
     5
100
AcDbLine
 10
-3623.690016072242
 20
2253.94514659684
 30
0.0
 11
-3023.690214024098
 21
2253.94514659684
 31
0.0
  0
LINE
  5
33A
330
1F
100
AcDbEntity
  8
0-C_ハッチ
  6
JWW_DASHED1
 62
   120
370
     5
100
AcDbLine
 10
-3035.709951865294
 20
2178.945146596847
 30
0.0
 11
-3023.690214024105
 21
2190.964884438035
 31
0.0
  0
LINE
  5
33B
330
1F
100
AcDbEntity
  8
0-C_ハッチ
  6
JWW_DASHED1
 62
   120
370
     5
100
AcDbLine
 10
-3078.136358736491
 20
2178.945146596851
 30
0.0
 11
-3023.690214024115
 21
2233.391291309228
 31
0.0
  0
LINE
  5
33C
330
1F
100
AcDbEntity
  8
0-C_ハッチ
  6
JWW_DASHED1
 62
   120
370
     5
100
AcDbLine
 10
-3120.562765607688
 20
2178.945146596854
 30
0.0
 11
-3045.562765607678
 21
2253.945146596865
 31
0.0
  0
LINE
  5
33D
330
1F
100
AcDbEntity
  8
0-C_ハッチ
  6
JWW_DASHED1
 62
   120
370
     5
100
AcDbLine
 10
-3162.989172478894
 20
2178.945146596845
 30
0.0
 11
-3087.989172478901
 21
2253.945146596839
 31
0.0
  0
LINE
  5
33E
330
1F
100
AcDbEntity
  8
0-C_ハッチ
  6
JWW_DASHED1
 62
   120
370
     5
100
AcDbLine
 10
-3205.415579350095
 20
2178.945146596845
 30
0.0
 11
-3130.415579350101
 21
2253.94514659684
 31
0.0
  0
LINE
  5
33F
330
1F
100
AcDbEntity
  8
0-C_ハッチ
  6
JWW_DASHED1
 62
   120
370
     5
100
AcDbLine
 10
-3247.841986221291
 20
2178.945146596849
 30
0.0
 11
-3172.841986221298
 21
2253.945146596845
 31
0.0
  0
LINE
  5
340
330
1F
100
AcDbEntity
  8
0-C_ハッチ
  6
JWW_DASHED1
 62
   120
370
     5
100
AcDbLine
 10
-3290.26839309243
 20
2178.945146596858
 30
0.0
 11
-3215.268393092433
 21
2253.945146596852
 31
0.0
  0
LINE
  5
341
330
1F
100
AcDbEntity
  8
0-C_ハッチ
  6
JWW_DASHED1
 62
   120
370
     5
100
AcDbLine
 10
-3332.694799963626
 20
2178.945146596861
 30
0.0
 11
-3257.69479996363
 21
2253.945146596856
 31
0.0
  0
LINE
  5
342
330
1F
100
AcDbEntity
  8
0-C_ハッチ
  6
JWW_DASHED1
 62
   120
370
     5
100
AcDbLine
 10
-3375.121206834837
 20
2178.945146596849
 30
0.0
 11
-3300.121206834826
 21
2253.945146596859
 31
0.0
  0
LINE
  5
343
330
1F
100
AcDbEntity
  8
0-C_ハッチ
  6
JWW_DASHED1
 62
   120
370
     5
100
AcDbLine
 10
-3417.547613706033
 20
2178.945146596852
 30
0.0
 11
-3342.547613706023
 21
2253.945146596863
 31
0.0
  0
LINE
  5
344
330
1F
100
AcDbEntity
  8
0-C_ハッチ
  6
JWW_DASHED1
 62
   120
370
     5
100
AcDbLine
 10
-3459.97402057723
 20
2178.945146596856
 30
0.0
 11
-3384.974020577237
 21
2253.945146596851
 31
0.0
  0
LINE
  5
345
330
1F
100
AcDbEntity
  8
0-C_ハッチ
  6
JWW_DASHED1
 62
   120
370
     5
100
AcDbLine
 10
-3502.400427448443
 20
2178.945146596845
 30
0.0
 11
-3427.400427448447
 21
2253.945146596839
 31
0.0
  0
LINE
  5
346
330
1F
100
AcDbEntity
  8
0-C_ハッチ
  6
JWW_DASHED1
 62
   120
370
     5
100
AcDbLine
 10
-3544.82683431964
 20
2178.945146596847
 30
0.0
 11
-3469.826834319643
 21
2253.945146596843
 31
0.0
  0
LINE
  5
347
330
1F
100
AcDbEntity
  8
0-C_ハッチ
  6
JWW_DASHED1
 62
   120
370
     5
100
AcDbLine
 10
-3587.253241190833
 20
2178.945146596851
 30
0.0
 11
-3512.25324119084
 21
2253.945146596847
 31
0.0
  0
LINE
  5
348
330
1F
100
AcDbEntity
  8
0-C_ハッチ
  6
JWW_DASHED1
 62
   120
370
     5
100
AcDbLine
 10
-3623.690016072262
 20
2184.934778586571
 30
0.0
 11
-3554.679648061979
 21
2253.945146596854
 31
0.0
  0
LINE
  5
349
330
1F
100
AcDbEntity
  8
0-C_ハッチ
  6
JWW_DASHED1
 62
   120
370
     5
100
AcDbLine
 10
-3623.690016072255
 20
2227.361185457776
 30
0.0
 11
-3597.106054933172
 21
2253.945146596858
 31
0.0
  0
LINE
  5
34A
330
1F
100
AcDbEntity
  8
0-7_金物
  6
Continuous
 62
     7
370
     5
100
AcDbLine
 10
-3041.689877505955
 20
2271.945220828786
 30
0.0
 11
-3041.689877505955
 21
2451.945072364892
 31
0.0
  0
LINE
  5
34B
330
1F
100
AcDbEntity
  8
0-7_金物
  6
Continuous
 62
     7
370
     5
100
AcDbLine
 10
-3053.690214024115
 20
2451.945072364892
 30
0.0
 11
-3041.689877505955
 21
2451.945072364892
 31
0.0
  0
LINE
  5
34C
330
1F
100
AcDbEntity
  8
0-7_金物
  6
Continuous
 62
     7
370
     5
100
AcDbLine
 10
-3053.690214024115
 20
2271.945220828786
 30
0.0
 11
-3041.689877505955
 21
2271.945220828786
 31
0.0
  0
LINE
  5
34D
330
1F
100
AcDbEntity
  8
0-7_金物
  6
Continuous
 62
     7
370
     5
100
AcDbLine
 10
-3041.689877505955
 20
2301.945319804715
 30
0.0
 11
-3029.690283307265
 21
2301.945319804715
 31
0.0
  0
LINE
  5
34E
330
1F
100
AcDbEntity
  8
0-7_金物
  6
Continuous
 62
     7
370
     5
100
AcDbLine
 10
-3041.689877505955
 20
2421.944973388963
 30
0.0
 11
-3029.690283307265
 21
2421.944973388963
 31
0.0
  0
LINE
  5
34F
330
1F
100
AcDbEntity
  8
0-7_金物
  6
Continuous
 62
     7
370
     5
100
AcDbLine
 10
-3029.690283307265
 20
2301.945319804715
 30
0.0
 11
-3029.690283307265
 21
2421.944973388963
 31
0.0
  0
LINE
  5
350
330
1F
100
AcDbEntity
  8
0-7_金物
  6
Continuous
 62
     7
370
     5
100
AcDbLine
 10
-3029.690283307265
 20
2415.945547449352
 30
0.0
 11
-3023.690214024115
 21
2415.945547449352
 31
0.0
  0
LINE
  5
351
330
1F
100
AcDbEntity
  8
0-7_金物
  6
Continuous
 62
     7
370
     5
100
AcDbLine
 10
-3029.690283307265
 20
2307.945488063794
 30
0.0
 11
-3023.690214024115
 21
2307.945488063794
 31
0.0
  0
LINE
  5
352
330
1F
100
AcDbEntity
  8
0-7_金物
  6
Continuous
 62
     7
370
     5
100
AcDbLine
 10
-3053.690214024115
 20
2271.945220828786
 30
0.0
 11
-3053.690214024115
 21
2451.945072364892
 31
0.0
  0
MTEXT
  5
353
330
1F
100
AcDbEntity
  8
0-0_補助線
  6
Continuous
 62
     7
370
   211
100
AcDbMText
 10
-3037.09543571546
 20
2325.079196304378
 30
0.0
 40
91.44
 41
180.0
 46
0.0
 71
     7
 72
     1
  1
{\fＭＳ ゴシック|b0|i0|c128|p49;3.5}
 73
     1
 44
1.0
  0
LINE
  5
354
330
1F
100
AcDbEntity
  8
0-B_寸法
  6
Continuous
 62
   120
370
     5
100
AcDbLine
 10
-2414.488886602363
 20
2616.945146596829
 30
0.0
 11
-2414.488886602363
 21
2106.945146596842
 31
0.0
  0
LWPOLYLINE
  5
355
330
1F
100
AcDbEntity
  8
0-B_寸法
  6
Continuous
 62
     7
370
     5
100
AcDbPolyline
 90
        4
 70
     1
 43
3.0
 10
-2412.988886602363
 20
2616.945146596829
 42
0.4142135623731
 10
-2414.488886602363
 20
2618.445146596829
 42
0.4142135623731
 10
-2415.988886602363
 20
2616.945146596829
 42
0.4142135623731
 10
-2414.488886602363
 20
2615.445146596829
 42
0.4142135623731
  0
LWPOLYLINE
  5
356
330
1F
100
AcDbEntity
  8
0-B_寸法
  6
Continuous
 62
     7
370
     5
100
AcDbPolyline
 90
        4
 70
     1
 43
3.0
 10
-2412.988886602363
 20
2106.945146596842
 42
0.4142135623731
 10
-2414.488886602363
 20
2108.445146596842
 42
0.4142135623731
 10
-2415.988886602363
 20
2106.945146596842
 42
0.4142135623731
 10
-2414.488886602363
 20
2105.445146596842
 42
0.4142135623731
  0
LINE
  5
357
330
1F
100
AcDbEntity
  8
0-B_寸法
  6
Continuous
 62
   120
370
     5
100
AcDbLine
 10
-2414.488886602363
 20
2616.945146596829
 30
0.0
 11
-2533.264455384035
 21
2616.945146596829
 31
0.0
  0
LINE
  5
358
330
1F
100
AcDbEntity
  8
0-B_寸法
  6
Continuous
 62
   120
370
     5
100
AcDbLine
 10
-2414.488886602363
 20
2106.945146596842
 30
0.0
 11
-2533.264455384035
 21
2106.945146596842
 31
0.0
  0
MTEXT
  5
359
330
1F
100
AcDbEntity
  8
0-B_寸法
  6
Continuous
 62
     7
370
   211
100
AcDbMText
 10
-2429.488886602363
 20
2287.665146596835
 30
0.0
 40
91.44
 41
120.0
 46
0.0
 71
     7
 72
     1
  1
{\fＭＳ ゴシック|b0|i0|c128|p49;85}
 11
6.123031769111886E-17
 21
1.0
 31
0.0
 73
     1
 44
1.0
  0
LINE
  5
35A
330
1F
100
AcDbEntity
  8
0-B_寸法
  6
Continuous
 62
   120
370
     5
100
AcDbLine
 10
-2032.879799117021
 20
2424.94514659684
 30
0.0
 11
-2032.879799117021
 21
2298.945146596839
 31
0.0
  0
LWPOLYLINE
  5
35B
330
1F
100
AcDbEntity
  8
0-B_寸法
  6
Continuous
 62
     7
370
     5
100
AcDbPolyline
 90
        4
 70
     1
 43
3.0
 10
-2031.379799117021
 20
2424.94514659684
 42
0.4142135623731
 10
-2032.879799117021
 20
2426.44514659684
 42
0.4142135623731
 10
-2034.379799117021
 20
2424.94514659684
 42
0.4142135623731
 10
-2032.879799117021
 20
2423.44514659684
 42
0.4142135623731
  0
LWPOLYLINE
  5
35C
330
1F
100
AcDbEntity
  8
0-B_寸法
  6
Continuous
 62
     7
370
     5
100
AcDbPolyline
 90
        4
 70
     1
 43
3.0
 10
-2031.379799117021
 20
2298.945146596839
 42
0.4142135623731
 10
-2032.879799117021
 20
2300.445146596839
 42
0.4142135623731
 10
-2034.379799117021
 20
2298.945146596839
 42
0.4142135623731
 10
-2032.879799117021
 20
2297.445146596839
 42
0.4142135623731
  0
MTEXT
  5
35D
330
1F
100
AcDbEntity
  8
0-B_寸法
  6
Continuous
 62
     7
370
   211
100
AcDbMText
 10
-2047.879799117021
 20
2287.66514659684
 30
0.0
 40
91.44
 41
120.0
 46
0.0
 71
     7
 72
     1
  1
{\fＭＳ ゴシック|b0|i0|c128|p49;21}
 11
6.123031769111886E-17
 21
1.0
 31
0.0
 73
     1
 44
1.0
  0
LINE
  5
35E
330
1F
100
AcDbEntity
  8
0-0_補助線
  6
JWW_HOJO
 62
   120
370
     5
100
AcDbLine
 10
1920.309588024032
 20
1806.945146596839
 30
0.0
 11
-3623.690016072255
 21
1806.945146596839
 31
0.0
  0
LINE
  5
35F
330
1F
100
AcDbEntity
  8
0-0_補助線
  6
JWW_HOJO
 62
   120
370
     5
100
AcDbLine
 10
1920.309588024032
 20
1986.945146596839
 30
0.0
 11
-3623.690016072255
 21
1986.945146596839
 31
0.0
  0
LINE
  5
360
330
1F
100
AcDbEntity
  8
0-B_寸法
  6
Continuous
 62
   120
370
     5
100
AcDbLine
 10
-3023.690214024115
 20
1446.945146596839
 30
0.0
 11
-2843.690214024115
 21
1446.945146596839
 31
0.0
  0
LWPOLYLINE
  5
361
330
1F
100
AcDbEntity
  8
0-B_寸法
  6
Continuous
 62
     7
370
     5
100
AcDbPolyline
 90
        4
 70
     1
 43
3.0
 10
-3022.190214024115
 20
1446.945146596839
 42
0.4142135623731
 10
-3023.690214024115
 20
1448.445146596839
 42
0.4142135623731
 10
-3025.190214024115
 20
1446.945146596839
 42
0.4142135623731
 10
-3023.690214024115
 20
1445.445146596839
 42
0.4142135623731
  0
LWPOLYLINE
  5
362
330
1F
100
AcDbEntity
  8
0-B_寸法
  6
Continuous
 62
     7
370
     5
100
AcDbPolyline
 90
        4
 70
     1
 43
3.0
 10
-2842.190214024115
 20
1446.945146596839
 42
0.4142135623731
 10
-2843.690214024115
 20
1448.445146596839
 42
0.4142135623731
 10
-2845.190214024115
 20
1446.945146596839
 42
0.4142135623731
 10
-2843.690214024115
 20
1445.445146596839
 42
0.4142135623731
  0
LINE
  5
363
330
1F
100
AcDbEntity
  8
0-B_寸法
  6
Continuous
 62
   120
370
     5
100
AcDbLine
 10
-3023.690214024115
 20
1446.945146596839
 30
0.0
 11
-3023.690214024115
 21
1806.945146596839
 31
0.0
  0
LINE
  5
364
330
1F
100
AcDbEntity
  8
0-B_寸法
  6
Continuous
 62
   120
370
     5
100
AcDbLine
 10
-2843.690214024115
 20
1446.945146596839
 30
0.0
 11
-2843.690214024115
 21
1806.945146596839
 31
0.0
  0
MTEXT
  5
365
330
1F
100
AcDbEntity
  8
0-B_寸法
  6
Continuous
 62
     7
370
   211
100
AcDbMText
 10
-2993.690214024115
 20
1447.665146596839
 30
0.0
 40
91.44
 41
120.0
 46
0.0
 71
     7
 72
     1
  1
{\fＭＳ ゴシック|b0|i0|c128|p49;30}
 73
     1
 44
1.0
  0
LINE
  5
366
330
1F
100
AcDbEntity
  8
0-B_寸法
  6
Continuous
 62
   120
370
     5
100
AcDbLine
 10
-2843.690214024115
 20
1446.945146596839
 30
0.0
 11
1140.309785975885
 21
1446.945146596839
 31
0.0
  0
LWPOLYLINE
  5
367
330
1F
100
AcDbEntity
  8
0-B_寸法
  6
Continuous
 62
     7
370
     5
100
AcDbPolyline
 90
        4
 70
     1
 43
3.0
 10
1141.809785975885
 20
1446.945146596839
 42
0.4142135623731
 10
1140.309785975885
 20
1448.445146596839
 42
0.4142135623731
 10
1138.809785975886
 20
1446.945146596839
 42
0.4142135623731
 10
1140.309785975885
 20
1445.445146596839
 42
0.4142135623731
  0
LINE
  5
368
330
1F
100
AcDbEntity
  8
0-B_寸法
  6
Continuous
 62
   120
370
     5
100
AcDbLine
 10
1140.309785975885
 20
1446.945146596839
 30
0.0
 11
1140.309785975885
 21
1806.945146596839
 31
0.0
  0
LINE
  5
369
330
1F
100
AcDbEntity
  8
0-B_寸法
  6
Continuous
 62
   120
370
     5
100
AcDbLine
 10
1140.309785975885
 20
1446.945146596839
 30
0.0
 11
1320.309785975886
 21
1446.945146596839
 31
0.0
  0
LWPOLYLINE
  5
36A
330
1F
100
AcDbEntity
  8
0-B_寸法
  6
Continuous
 62
     7
370
     5
100
AcDbPolyline
 90
        4
 70
     1
 43
3.0
 10
1321.809785975886
 20
1446.945146596839
 42
0.4142135623731
 10
1320.309785975886
 20
1448.445146596839
 42
0.4142135623731
 10
1318.809785975887
 20
1446.945146596839
 42
0.4142135623731
 10
1320.309785975886
 20
1445.445146596839
 42
0.4142135623731
  0
LINE
  5
36B
330
1F
100
AcDbEntity
  8
0-B_寸法
  6
Continuous
 62
   120
370
     5
100
AcDbLine
 10
1320.309785975886
 20
1446.945146596839
 30
0.0
 11
1320.309785975886
 21
1806.945146596839
 31
0.0
  0
MTEXT
  5
36C
330
1F
100
AcDbEntity
  8
0-B_寸法
  6
Continuous
 62
     7
370
   211
100
AcDbMText
 10
1170.309785975886
 20
1447.665146596839
 30
0.0
 40
91.44
 41
120.0
 46
0.0
 71
     7
 72
     1
  1
{\fＭＳ ゴシック|b0|i0|c128|p49;30}
 73
     1
 44
1.0
  0
LINE
  5
36D
330
1F
100
AcDbEntity
  8
0-B_寸法
  6
Continuous
 62
   120
370
     5
100
AcDbLine
 10
-3023.690214024115
 20
1266.945146596839
 30
0.0
 11
1320.309785975886
 21
1266.945146596839
 31
0.0
  0
LWPOLYLINE
  5
36E
330
1F
100
AcDbEntity
  8
0-B_寸法
  6
Continuous
 62
     7
370
     5
100
AcDbPolyline
 90
        4
 70
     1
 43
3.0
 10
-3022.190214024115
 20
1266.945146596839
 42
0.4142135623731
 10
-3023.690214024115
 20
1268.445146596839
 42
0.4142135623731
 10
-3025.190214024115
 20
1266.945146596839
 42
0.4142135623731
 10
-3023.690214024115
 20
1265.445146596839
 42
0.4142135623731
  0
LWPOLYLINE
  5
36F
330
1F
100
AcDbEntity
  8
0-B_寸法
  6
Continuous
 62
     7
370
     5
100
AcDbPolyline
 90
        4
 70
     1
 43
3.0
 10
1321.809785975886
 20
1266.945146596839
 42
0.4142135623731
 10
1320.309785975886
 20
1268.445146596839
 42
0.4142135623731
 10
1318.809785975887
 20
1266.945146596839
 42
0.4142135623731
 10
1320.309785975886
 20
1265.445146596839
 42
0.4142135623731
  0
LINE
  5
370
330
1F
100
AcDbEntity
  8
0-B_寸法
  6
Continuous
 62
   120
370
     5
100
AcDbLine
 10
-3023.690214024115
 20
1266.945146596839
 30
0.0
 11
-3023.690214024115
 21
1446.945146596839
 31
0.0
  0
LINE
  5
371
330
1F
100
AcDbEntity
  8
0-B_寸法
  6
Continuous
 62
   120
370
     5
100
AcDbLine
 10
1320.309785975886
 20
1266.945146596839
 30
0.0
 11
1320.309785975886
 21
1446.945146596839
 31
0.0
  0
LINE
  5
372
330
1F
100
AcDbEntity
  8
0-B_寸法
  6
Continuous
 62
   120
370
     5
100
AcDbLine
 10
-3053.690214024115
 20
3141.94514659684
 30
0.0
 11
1350.309785975886
 21
3141.94514659684
 31
0.0
  0
LWPOLYLINE
  5
373
330
1F
100
AcDbEntity
  8
0-B_寸法
  6
Continuous
 62
     7
370
     5
100
AcDbPolyline
 90
        4
 70
     1
 43
3.0
 10
-3052.190214024115
 20
3141.94514659684
 42
0.4142135623731
 10
-3053.690214024115
 20
3143.44514659684
 42
0.4142135623731
 10
-3055.190214024115
 20
3141.94514659684
 42
0.4142135623731
 10
-3053.690214024115
 20
3140.44514659684
 42
0.4142135623731
  0
LWPOLYLINE
  5
374
330
1F
100
AcDbEntity
  8
0-B_寸法
  6
Continuous
 62
     7
370
     5
100
AcDbPolyline
 90
        4
 70
     1
 43
3.0
 10
1351.809785975886
 20
3141.94514659684
 42
0.4142135623731
 10
1350.309785975886
 20
3143.44514659684
 42
0.4142135623731
 10
1348.809785975887
 20
3141.94514659684
 42
0.4142135623731
 10
1350.309785975886
 20
3140.44514659684
 42
0.4142135623731
  0
LINE
  5
375
330
1F
100
AcDbEntity
  8
0-B_寸法
  6
Continuous
 62
   120
370
     5
100
AcDbLine
 10
-3053.690214024115
 20
3141.94514659684
 30
0.0
 11
-3053.690214024115
 21
2781.94514659684
 31
0.0
  0
LINE
  5
376
330
1F
100
AcDbEntity
  8
0-B_寸法
  6
Continuous
 62
   120
370
     5
100
AcDbLine
 10
1350.309785975886
 20
3141.94514659684
 30
0.0
 11
1350.309785975886
 21
2781.94514659684
 31
0.0
  0
ARC
  5
377
330
1F
100
AcDbEntity
  8
0-6_扉
  6
JWW_DASHED2
 62
    40
370
     5
100
AcDbCircle
 10
859.2264258655325
 20
2557.71252056702
 30
0.0
 40
18.0
100
AcDbArc
 50
85.6539792783598
 51
175.65397927836
  0
LINE
  5
378
330
1F
100
AcDbEntity
  8
0-6_扉
  6
JWW_DASHED2
 62
    40
370
     5
100
AcDbLine
 10
950.3316725677666
 20
2568.840594224459
 30
0.0
 11
860.590459650727
 21
2575.660763150428
 31
0.0
  0
ARC
  5
379
330
1F
100
AcDbEntity
  8
0-6_扉
  6
JWW_DASHED2
 62
    40
370
     5
100
AcDbCircle
 10
948.9676387825739
 20
2550.89235164105
 30
0.0
 40
18.0
100
AcDbArc
 50
355.6539792783599
 51
85.6539792783597
  0
ARC
  5
37A
330
1F
100
AcDbEntity
  8
0-6_扉
  6
JWW_DASHED2
 62
    40
370
     5
100
AcDbCircle
 10
515.9992414763306
 20
2557.712520567022
 30
0.0
 40
18.0
100
AcDbArc
 50
4.346020721638975
 51
94.34602072163908
  0
LINE
  5
37B
330
1F
100
AcDbEntity
  8
0-6_扉
  6
JWW_DASHED2
 62
    40
370
     5
100
AcDbLine
 10
424.8939947740999
 20
2568.840594224464
 30
0.0
 11
514.6352076911378
 21
2575.660763150431
 31
0.0
  0
ARC
  5
37C
330
1F
100
AcDbEntity
  8
0-6_扉
  6
JWW_DASHED2
 62
    40
370
     5
100
AcDbCircle
 10
426.2580285592927
 20
2550.892351641055
 30
0.0
 40
18.0
100
AcDbArc
 50
94.34602072163908
 51
184.3460207216391
  0
LINE
  5
37D
330
1F
100
AcDbEntity
  8
0-6_扉
  6
JWW_DASHED2
 62
    40
370
     5
100
AcDbLine
 10
966.9158813659794
 20
2549.528317855859
 30
0.0
 11
933.2803654902614
 21
2106.94514659684
 31
0.0
  0
LINE
  5
37E
330
1F
100
AcDbEntity
  8
0-6_扉
  6
JWW_DASHED2
 62
    40
370
     5
100
AcDbLine
 10
408.3097859758871
 20
2549.528317855865
 30
0.0
 11
441.9453018515983
 21
2106.94514659684
 31
0.0
  0
LINE
  5
37F
330
1F
100
AcDbEntity
  8
0-6_扉
  6
JWW_DASHED2
 62
    40
370
     5
100
AcDbLine
 10
533.9474840597395
 20
2559.076554352217
 30
0.0
 11
568.3086485391791
 21
2106.94514659684
 31
0.0
  0
LINE
  5
380
330
1F
100
AcDbEntity
  8
0-6_扉
  6
JWW_DASHED2
 62
    40
370
     5
100
AcDbLine
 10
841.278183282127
 20
2559.076554352213
 30
0.0
 11
806.9170188026771
 21
2106.94514659684
 31
0.0
  0
LINE
  5
381
330
1F
100
AcDbEntity
  8
0-1_通り芯
  6
JWW_CENTER1
 62
   120
370
     5
100
AcDbLine
 10
408.3097859758837
 20
2781.94514659684
 30
0.0
 11
408.3097859758837
 21
2549.528317855865
 31
0.0
  0
LWPOLYLINE
  5
382
330
1F
100
AcDbEntity
  8
0-B_寸法
  6
Continuous
 62
     7
370
     5
100
AcDbPolyline
 90
        4
 70
     1
 43
3.0
 10
409.8097859758837
 20
2961.94514659684
 42
0.4142135623731
 10
408.3097859758837
 20
2963.44514659684
 42
0.4142135623731
 10
406.8097859758837
 20
2961.94514659684
 42
0.4142135623731
 10
408.3097859758837
 20
2960.44514659684
 42
0.4142135623731
  0
LINE
  5
383
330
1F
100
AcDbEntity
  8
0-B_寸法
  6
Continuous
 62
   120
370
     5
100
AcDbLine
 10
408.3097859758837
 20
2961.94514659684
 30
0.0
 11
408.3097859758837
 21
2781.94514659684
 31
0.0
  0
LINE
  5
384
330
1F
100
AcDbEntity
  8
0-6_扉
  6
Continuous
 62
   200
370
     5
100
AcDbLine
 10
-857.6902140241134
 20
2424.94514659684
 30
0.0
 11
-857.6902140241134
 21
2298.945146596839
 31
0.0
  0
LINE
  5
385
330
1F
100
AcDbEntity
  8
0-6_扉
  6
Continuous
 62
   200
370
     5
100
AcDbLine
 10
-845.6902140241141
 20
2424.94514659684
 30
0.0
 11
-845.6902140241141
 21
2298.945146596839
 31
0.0
  0
LINE
  5
386
330
1F
100
AcDbEntity
  8
0-6_扉
  6
Continuous
 62
   200
370
     5
100
AcDbLine
 10
-1861.190214024115
 20
2424.94514659684
 30
0.0
 11
-1861.190214024115
 21
2298.945146596839
 31
0.0
  0
LINE
  5
387
330
1F
100
AcDbEntity
  8
0-6_扉
  6
Continuous
 62
   200
370
     5
100
AcDbLine
 10
-1855.190214024113
 20
2424.94514659684
 30
0.0
 11
-1855.190214024113
 21
2298.945146596839
 31
0.0
  0
LINE
  5
388
330
1F
100
AcDbEntity
  8
0-6_扉
  6
Continuous
 62
   200
370
     5
100
AcDbLine
 10
157.8097859758864
 20
2424.94514659684
 30
0.0
 11
157.8097859758864
 21
2298.945146596839
 31
0.0
  0
LINE
  5
389
330
1F
100
AcDbEntity
  8
0-6_扉
  6
Continuous
 62
   200
370
     5
100
AcDbLine
 10
151.8097859758851
 20
2424.94514659684
 30
0.0
 11
151.8097859758851
 21
2298.945146596839
 31
0.0
  0
LINE
  5
38A
330
1F
100
AcDbEntity
  8
0-0_補助線
  6
JWW_HOJO
 62
     7
370
     5
100
AcDbLine
 10
-1858.190214024114
 20
1086.945146596839
 30
0.0
 11
-1858.190214024114
 21
3321.94514659684
 31
0.0
  0
LINE
  5
38B
330
1F
100
AcDbEntity
  8
0-0_補助線
  6
JWW_HOJO
 62
     7
370
     5
100
AcDbLine
 10
154.8097859758857
 20
1086.945146596839
 30
0.0
 11
154.8097859758857
 21
3321.94514659684
 31
0.0
  0
LINE
  5
38C
330
1F
100
AcDbEntity
  8
0-B_寸法
  6
Continuous
 62
   120
370
     5
100
AcDbLine
 10
-2858.690214024115
 20
1806.945146596839
 30
0.0
 11
-1861.190214024115
 21
1806.945146596839
 31
0.0
  0
LWPOLYLINE
  5
38D
330
1F
100
AcDbEntity
  8
0-B_寸法
  6
Continuous
 62
     7
370
     5
100
AcDbPolyline
 90
        4
 70
     1
 43
3.0
 10
-2857.190214024115
 20
1806.945146596839
 42
0.4142135623731
 10
-2858.690214024115
 20
1808.445146596839
 42
0.4142135623731
 10
-2860.190214024115
 20
1806.945146596839
 42
0.4142135623731
 10
-2858.690214024115
 20
1805.445146596839
 42
0.4142135623731
  0
LWPOLYLINE
  5
38E
330
1F
100
AcDbEntity
  8
0-B_寸法
  6
Continuous
 62
     7
370
     5
100
AcDbPolyline
 90
        4
 70
     1
 43
3.0
 10
-1859.690214024115
 20
1806.945146596839
 42
0.4142135623731
 10
-1861.190214024115
 20
1808.445146596839
 42
0.4142135623731
 10
-1862.690214024115
 20
1806.945146596839
 42
0.4142135623731
 10
-1861.190214024115
 20
1805.445146596839
 42
0.4142135623731
  0
LINE
  5
38F
330
1F
100
AcDbEntity
  8
0-B_寸法
  6
Continuous
 62
   120
370
     5
100
AcDbLine
 10
-2858.690214024115
 20
1626.945146596839
 30
0.0
 11
-2858.690214024115
 21
1986.945146596839
 31
0.0
  0
LINE
  5
390
330
1F
100
AcDbEntity
  8
0-B_寸法
  6
Continuous
 62
   120
370
     5
100
AcDbLine
 10
-1861.190214024115
 20
1806.945146596839
 30
0.0
 11
-1861.190214024115
 21
1986.945146596839
 31
0.0
  0
LINE
  5
391
330
1F
100
AcDbEntity
  8
0-B_寸法
  6
Continuous
 62
   120
370
     5
100
AcDbLine
 10
-1855.190214024113
 20
1806.945146596839
 30
0.0
 11
-857.6902140241134
 21
1806.945146596839
 31
0.0
  0
LWPOLYLINE
  5
392
330
1F
100
AcDbEntity
  8
0-B_寸法
  6
Continuous
 62
     7
370
     5
100
AcDbPolyline
 90
        4
 70
     1
 43
3.0
 10
-1853.690214024113
 20
1806.945146596839
 42
0.4142135623731
 10
-1855.190214024113
 20
1808.445146596839
 42
0.4142135623731
 10
-1856.690214024113
 20
1806.945146596839
 42
0.4142135623731
 10
-1855.190214024113
 20
1805.445146596839
 42
0.4142135623731
  0
LWPOLYLINE
  5
393
330
1F
100
AcDbEntity
  8
0-B_寸法
  6
Continuous
 62
     7
370
     5
100
AcDbPolyline
 90
        4
 70
     1
 43
3.0
 10
-856.1902140241134
 20
1806.945146596839
 42
0.4142135623731
 10
-857.6902140241134
 20
1808.445146596839
 42
0.4142135623731
 10
-859.1902140241134
 20
1806.945146596839
 42
0.4142135623731
 10
-857.6902140241134
 20
1805.445146596839
 42
0.4142135623731
  0
LINE
  5
394
330
1F
100
AcDbEntity
  8
0-B_寸法
  6
Continuous
 62
   120
370
     5
100
AcDbLine
 10
-1855.190214024113
 20
1806.945146596839
 30
0.0
 11
-1855.190214024113
 21
1986.945146596839
 31
0.0
  0
LINE
  5
395
330
1F
100
AcDbEntity
  8
0-B_寸法
  6
Continuous
 62
   120
370
     5
100
AcDbLine
 10
-857.6902140241134
 20
1626.945146596839
 30
0.0
 11
-857.6902140241134
 21
1986.945146596839
 31
0.0
  0
LINE
  5
396
330
1F
100
AcDbEntity
  8
0-B_寸法
  6
Continuous
 62
   120
370
     5
100
AcDbLine
 10
-845.6902140241141
 20
1806.945146596839
 30
0.0
 11
151.8097859758851
 21
1806.945146596839
 31
0.0
  0
LWPOLYLINE
  5
397
330
1F
100
AcDbEntity
  8
0-B_寸法
  6
Continuous
 62
     7
370
     5
100
AcDbPolyline
 90
        4
 70
     1
 43
3.0
 10
-844.1902140241141
 20
1806.945146596839
 42
0.4142135623731
 10
-845.6902140241141
 20
1808.445146596839
 42
0.4142135623731
 10
-847.1902140241141
 20
1806.945146596839
 42
0.4142135623731
 10
-845.6902140241141
 20
1805.445146596839
 42
0.4142135623731
  0
LWPOLYLINE
  5
398
330
1F
100
AcDbEntity
  8
0-B_寸法
  6
Continuous
 62
     7
370
     5
100
AcDbPolyline
 90
        4
 70
     1
 43
3.0
 10
153.3097859758851
 20
1806.945146596839
 42
0.4142135623731
 10
151.8097859758851
 20
1808.445146596839
 42
0.4142135623731
 10
150.3097859758851
 20
1806.945146596839
 42
0.4142135623731
 10
151.8097859758851
 20
1805.445146596839
 42
0.4142135623731
  0
LINE
  5
399
330
1F
100
AcDbEntity
  8
0-B_寸法
  6
Continuous
 62
   120
370
     5
100
AcDbLine
 10
-845.6902140241141
 20
1626.945146596839
 30
0.0
 11
-845.6902140241141
 21
1986.945146596839
 31
0.0
  0
LINE
  5
39A
330
1F
100
AcDbEntity
  8
0-B_寸法
  6
Continuous
 62
   120
370
     5
100
AcDbLine
 10
151.8097859758851
 20
1806.945146596839
 30
0.0
 11
151.8097859758851
 21
1986.945146596839
 31
0.0
  0
LINE
  5
39B
330
1F
100
AcDbEntity
  8
0-B_寸法
  6
Continuous
 62
   120
370
     5
100
AcDbLine
 10
157.8097859758864
 20
1806.945146596839
 30
0.0
 11
1155.309785975889
 21
1806.945146596839
 31
0.0
  0
LWPOLYLINE
  5
39C
330
1F
100
AcDbEntity
  8
0-B_寸法
  6
Continuous
 62
     7
370
     5
100
AcDbPolyline
 90
        4
 70
     1
 43
3.0
 10
159.3097859758864
 20
1806.945146596839
 42
0.4142135623731
 10
157.8097859758864
 20
1808.445146596839
 42
0.4142135623731
 10
156.3097859758864
 20
1806.945146596839
 42
0.4142135623731
 10
157.8097859758864
 20
1805.445146596839
 42
0.4142135623731
  0
LWPOLYLINE
  5
39D
330
1F
100
AcDbEntity
  8
0-B_寸法
  6
Continuous
 62
     7
370
     5
100
AcDbPolyline
 90
        4
 70
     1
 43
3.0
 10
1156.809785975889
 20
1806.945146596839
 42
0.4142135623731
 10
1155.309785975889
 20
1808.445146596839
 42
0.4142135623731
 10
1153.809785975889
 20
1806.945146596839
 42
0.4142135623731
 10
1155.309785975889
 20
1805.445146596839
 42
0.4142135623731
  0
LINE
  5
39E
330
1F
100
AcDbEntity
  8
0-B_寸法
  6
Continuous
 62
   120
370
     5
100
AcDbLine
 10
157.8097859758864
 20
1806.945146596839
 30
0.0
 11
157.8097859758864
 21
1986.945146596839
 31
0.0
  0
LINE
  5
39F
330
1F
100
AcDbEntity
  8
0-B_寸法
  6
Continuous
 62
   120
370
     5
100
AcDbLine
 10
1155.309785975889
 20
1626.945146596839
 30
0.0
 11
1155.309785975889
 21
1986.945146596839
 31
0.0
  0
LINE
  5
3A0
330
1F
100
AcDbEntity
  8
0-B_寸法
  6
Continuous
 62
   120
370
     5
100
AcDbLine
 10
-2858.690214024115
 20
1626.945146596839
 30
0.0
 11
-857.6902140241134
 21
1626.945146596839
 31
0.0
  0
LWPOLYLINE
  5
3A1
330
1F
100
AcDbEntity
  8
0-B_寸法
  6
Continuous
 62
     7
370
     5
100
AcDbPolyline
 90
        4
 70
     1
 43
3.0
 10
-2857.190214024115
 20
1626.945146596839
 42
0.4142135623731
 10
-2858.690214024115
 20
1628.445146596839
 42
0.4142135623731
 10
-2860.190214024115
 20
1626.945146596839
 42
0.4142135623731
 10
-2858.690214024115
 20
1625.445146596839
 42
0.4142135623731
  0
LWPOLYLINE
  5
3A2
330
1F
100
AcDbEntity
  8
0-B_寸法
  6
Continuous
 62
     7
370
     5
100
AcDbPolyline
 90
        4
 70
     1
 43
3.0
 10
-856.1902140241134
 20
1626.945146596839
 42
0.4142135623731
 10
-857.6902140241134
 20
1628.445146596839
 42
0.4142135623731
 10
-859.1902140241134
 20
1626.945146596839
 42
0.4142135623731
 10
-857.6902140241134
 20
1625.445146596839
 42
0.4142135623731
  0
LINE
  5
3A3
330
1F
100
AcDbEntity
  8
0-B_寸法
  6
Continuous
 62
   120
370
     5
100
AcDbLine
 10
-857.6902140241134
 20
1626.945146596839
 30
0.0
 11
-845.6902140241141
 21
1626.945146596839
 31
0.0
  0
LWPOLYLINE
  5
3A4
330
1F
100
AcDbEntity
  8
0-B_寸法
  6
Continuous
 62
     7
370
     5
100
AcDbPolyline
 90
        4
 70
     1
 43
3.0
 10
-844.1902140241141
 20
1626.945146596839
 42
0.4142135623731
 10
-845.6902140241141
 20
1628.445146596839
 42
0.4142135623731
 10
-847.1902140241141
 20
1626.945146596839
 42
0.4142135623731
 10
-845.6902140241141
 20
1625.445146596839
 42
0.4142135623731
  0
LINE
  5
3A5
330
1F
100
AcDbEntity
  8
0-B_寸法
  6
Continuous
 62
   120
370
     5
100
AcDbLine
 10
-845.6902140241141
 20
1626.945146596839
 30
0.0
 11
1155.309785975889
 21
1626.945146596839
 31
0.0
  0
LWPOLYLINE
  5
3A6
330
1F
100
AcDbEntity
  8
0-B_寸法
  6
Continuous
 62
     7
370
     5
100
AcDbPolyline
 90
        4
 70
     1
 43
3.0
 10
1156.809785975889
 20
1626.945146596839
 42
0.4142135623731
 10
1155.309785975889
 20
1628.445146596839
 42
0.4142135623731
 10
1153.809785975889
 20
1626.945146596839
 42
0.4142135623731
 10
1155.309785975889
 20
1625.445146596839
 42
0.4142135623731
  0
MTEXT
  5
3A7
330
1F
100
AcDbEntity
  8
0-A_文字
  6
Continuous
 62
     7
370
     5
100
AcDbMText
 10
-974.6904862079157
 20
1111.690373869567
 30
0.0
 40
79.49045454545455
 41
2295.0
 46
0.0
 71
     7
 72
     1
  1
{\fＭＳ ゴシック|b0|i0|c128|p49;※有効開口寸法にはハンドルの突出は含まない。}
 73
     1
 44
1.0
  0
ARC
  5
3A8
330
1F
100
AcDbEntity
  8
0-6_扉
  6
JWW_DASHED2
 62
    40
370
     5
100
AcDbCircle
 10
-2562.606853913763
 20
2557.71252056702
 30
0.0
 40
18.0
100
AcDbArc
 50
4.346020721640005
 51
94.34602072164022
  0
LINE
  5
3A9
330
1F
100
AcDbEntity
  8
0-6_扉
  6
JWW_DASHED2
 62
    40
370
     5
100
AcDbLine
 10
-2653.712100615998
 20
2568.840594224459
 30
0.0
 11
-2563.970887698956
 21
2575.660763150428
 31
0.0
  0
ARC
  5
3AA
330
1F
100
AcDbEntity
  8
0-6_扉
  6
JWW_DASHED2
 62
    40
370
     5
100
AcDbCircle
 10
-2652.348066830801
 20
2550.89235164105
 30
0.0
 40
18.0
100
AcDbArc
 50
94.3460207216403
 51
184.3460207216401
  0
ARC
  5
3AB
330
1F
100
AcDbEntity
  8
0-6_扉
  6
JWW_DASHED2
 62
    40
370
     5
100
AcDbCircle
 10
-2219.379669524562
 20
2557.712520567022
 30
0.0
 40
18.0
100
AcDbArc
 50
85.65397927836092
 51
175.653979278361
  0
LINE
  5
3AC
330
1F
100
AcDbEntity
  8
0-6_扉
  6
JWW_DASHED2
 62
    40
370
     5
100
AcDbLine
 10
-2128.274422822328
 20
2568.840594224464
 30
0.0
 11
-2218.015635739366
 21
2575.660763150431
 31
0.0
  0
ARC
  5
3AD
330
1F
100
AcDbEntity
  8
0-6_扉
  6
JWW_DASHED2
 62
    40
370
     5
100
AcDbCircle
 10
-2129.638456607521
 20
2550.892351641055
 30
0.0
 40
18.0
100
AcDbArc
 50
355.653979278361
 51
85.65397927836094
  0
LINE
  5
3AE
330
1F
100
AcDbEntity
  8
0-6_扉
  6
JWW_DASHED2
 62
    40
370
     5
100
AcDbLine
 10
-2670.296309414211
 20
2549.528317855859
 30
0.0
 11
-2636.660793538489
 21
2106.94514659684
 31
0.0
  0
LINE
  5
3AF
330
1F
100
AcDbEntity
  8
0-6_扉
  6
JWW_DASHED2
 62
    40
370
     5
100
AcDbLine
 10
-2111.690214024115
 20
2549.528317855865
 30
0.0
 11
-2145.325729899827
 21
2106.94514659684
 31
0.0
  0
LINE
  5
3B0
330
1F
100
AcDbEntity
  8
0-6_扉
  6
JWW_DASHED2
 62
    40
370
     5
100
AcDbLine
 10
-2237.327912107968
 20
2559.076554352217
 30
0.0
 11
-2271.689076587408
 21
2106.94514659684
 31
0.0
  0
LINE
  5
3B1
330
1F
100
AcDbEntity
  8
0-6_扉
  6
JWW_DASHED2
 62
    40
370
     5
100
AcDbLine
 10
-2544.658611330355
 20
2559.076554352213
 30
0.0
 11
-2510.297446850908
 21
2106.94514659684
 31
0.0
  0
LINE
  5
3B2
330
1F
100
AcDbEntity
  8
0-1_通り芯
  6
JWW_CENTER1
 62
   120
370
     5
100
AcDbLine
 10
-2111.690214024115
 20
2781.94514659684
 30
0.0
 11
-2111.690214024115
 21
2549.528317855865
 31
0.0
  0
LWPOLYLINE
  5
3B3
330
1F
100
AcDbEntity
  8
0-B_寸法
  6
Continuous
 62
     7
370
     5
100
AcDbPolyline
 90
        4
 70
     1
 43
3.0
 10
-2110.190214024115
 20
2961.94514659684
 42
0.4142135623731
 10
-2111.690214024115
 20
2963.44514659684
 42
0.4142135623731
 10
-2113.190214024115
 20
2961.94514659684
 42
0.4142135623731
 10
-2111.690214024115
 20
2960.44514659684
 42
0.4142135623731
  0
LINE
  5
3B4
330
1F
100
AcDbEntity
  8
0-B_寸法
  6
Continuous
 62
   120
370
     5
100
AcDbLine
 10
-2111.690214024115
 20
2961.94514659684
 30
0.0
 11
-2111.690214024115
 21
2781.94514659684
 31
0.0
  0
LINE
  5
3B5
330
1F
100
AcDbEntity
  8
0-B_寸法
  6
Continuous
 62
   120
370
     5
100
AcDbLine
 10
-2111.690214024115
 20
2961.94514659684
 30
0.0
 11
408.3097859758837
 21
2961.94514659684
 31
0.0
  0
LINE
  5
3B6
330
1F
100
AcDbEntity
  8
0-0_補助線
  6
JWW_HOJO
 62
     7
370
     5
100
AcDbLine
 10
-2389.940214024115
 20
2442.945146596839
 30
0.0
 11
-2389.940214024115
 21
2280.9445032533
 31
0.0
  0
LINE
  5
3B7
330
1F
100
AcDbEntity
  8
0-0_補助線
  6
JWW_HOJO
 62
     7
370
     5
100
AcDbLine
 10
-2329.940214024115
 20
2442.945146596839
 30
0.0
 11
-2329.940214024115
 21
2280.9445032533
 31
0.0
  0
LINE
  5
3B8
330
1F
100
AcDbEntity
  8
0-6_扉
  6
Continuous
 62
   200
370
     5
100
AcDbLine
 10
-2858.690214024115
 20
2424.94514659684
 30
0.0
 11
-2389.940214024115
 21
2424.94514659684
 31
0.0
  0
LINE
  5
3B9
330
1F
100
AcDbEntity
  8
0-6_扉
  6
Continuous
 62
   200
370
     5
100
AcDbLine
 10
-2329.940214024115
 20
2424.94514659684
 30
0.0
 11
-1861.190214024115
 21
2424.94514659684
 31
0.0
  0
LINE
  5
3BA
330
1F
100
AcDbEntity
  8
0-6_扉
  6
Continuous
 62
   200
370
     5
100
AcDbLine
 10
-2858.690214024115
 20
2298.945146596839
 30
0.0
 11
-2389.940214024115
 21
2298.945146596839
 31
0.0
  0
LINE
  5
3BB
330
1F
100
AcDbEntity
  8
0-6_扉
  6
Continuous
 62
   200
370
     5
100
AcDbLine
 10
-2329.940214024115
 20
2298.945146596839
 30
0.0
 11
-1861.190214024115
 21
2298.945146596839
 31
0.0
  0
LINE
  5
3BC
330
1F
100
AcDbEntity
  8
0-0_補助線
  6
JWW_HOJO
 62
     7
370
     5
100
AcDbLine
 10
-1386.440214024113
 20
2442.945146596839
 30
0.0
 11
-1386.440214024113
 21
2280.9445032533
 31
0.0
  0
LINE
  5
3BD
330
1F
100
AcDbEntity
  8
0-0_補助線
  6
JWW_HOJO
 62
     7
370
     5
100
AcDbLine
 10
-1326.440214024117
 20
2442.945146596839
 30
0.0
 11
-1326.440214024117
 21
2280.9445032533
 31
0.0
  0
LINE
  5
3BE
330
1F
100
AcDbEntity
  8
0-0_補助線
  6
JWW_HOJO
 62
     7
370
     5
100
AcDbLine
 10
-376.9402140241115
 20
2442.945146596839
 30
0.0
 11
-376.9402140241115
 21
2280.9445032533
 31
0.0
  0
LINE
  5
3BF
330
1F
100
AcDbEntity
  8
0-0_補助線
  6
JWW_HOJO
 62
     7
370
     5
100
AcDbLine
 10
-316.9402140241115
 20
2442.945146596839
 30
0.0
 11
-316.9402140241115
 21
2280.9445032533
 31
0.0
  0
LINE
  5
3C0
330
1F
100
AcDbEntity
  8
0-0_補助線
  6
JWW_HOJO
 62
     7
370
     5
100
AcDbLine
 10
626.5597859758864
 20
2442.945146596839
 30
0.0
 11
626.5597859758864
 21
2280.9445032533
 31
0.0
  0
LINE
  5
3C1
330
1F
100
AcDbEntity
  8
0-0_補助線
  6
JWW_HOJO
 62
     7
370
     5
100
AcDbLine
 10
686.5597859758873
 20
2442.945146596839
 30
0.0
 11
686.5597859758873
 21
2280.9445032533
 31
0.0
  0
LINE
  5
3C2
330
1F
100
AcDbEntity
  8
0-6_扉
  6
Continuous
 62
   200
370
     5
100
AcDbLine
 10
-1855.190214024113
 20
2424.94514659684
 30
0.0
 11
-1386.440214024113
 21
2424.94514659684
 31
0.0
  0
LINE
  5
3C3
330
1F
100
AcDbEntity
  8
0-6_扉
  6
Continuous
 62
   200
370
     5
100
AcDbLine
 10
-1326.440214024117
 20
2424.94514659684
 30
0.0
 11
-857.6902140241134
 21
2424.94514659684
 31
0.0
  0
LINE
  5
3C4
330
1F
100
AcDbEntity
  8
0-6_扉
  6
Continuous
 62
   200
370
     5
100
AcDbLine
 10
-1855.190214024113
 20
2298.945146596839
 30
0.0
 11
-1386.440214024113
 21
2298.945146596839
 31
0.0
  0
LINE
  5
3C5
330
1F
100
AcDbEntity
  8
0-6_扉
  6
Continuous
 62
   200
370
     5
100
AcDbLine
 10
-1326.440214024117
 20
2298.945146596839
 30
0.0
 11
-857.6902140241134
 21
2298.945146596839
 31
0.0
  0
LINE
  5
3C6
330
1F
100
AcDbEntity
  8
0-6_扉
  6
Continuous
 62
   200
370
     5
100
AcDbLine
 10
-845.6902140241107
 20
2424.94514659684
 30
0.0
 11
-376.9402140241115
 21
2424.94514659684
 31
0.0
  0
LINE
  5
3C7
330
1F
100
AcDbEntity
  8
0-6_扉
  6
Continuous
 62
   200
370
     5
100
AcDbLine
 10
-316.9402140241115
 20
2424.94514659684
 30
0.0
 11
151.8097859758851
 21
2424.94514659684
 31
0.0
  0
LINE
  5
3C8
330
1F
100
AcDbEntity
  8
0-6_扉
  6
Continuous
 62
   200
370
     5
100
AcDbLine
 10
-845.6902140241107
 20
2298.945146596839
 30
0.0
 11
-376.9402140241115
 21
2298.945146596839
 31
0.0
  0
LINE
  5
3C9
330
1F
100
AcDbEntity
  8
0-6_扉
  6
Continuous
 62
   200
370
     5
100
AcDbLine
 10
-316.9402140241115
 20
2298.945146596839
 30
0.0
 11
151.8097859758851
 21
2298.945146596839
 31
0.0
  0
LINE
  5
3CA
330
1F
100
AcDbEntity
  8
0-6_扉
  6
Continuous
 62
   200
370
     5
100
AcDbLine
 10
157.8097859758864
 20
2424.94514659684
 30
0.0
 11
626.5597859758864
 21
2424.94514659684
 31
0.0
  0
LINE
  5
3CB
330
1F
100
AcDbEntity
  8
0-6_扉
  6
Continuous
 62
   200
370
     5
100
AcDbLine
 10
686.5597859758873
 20
2424.94514659684
 30
0.0
 11
1155.309785975889
 21
2424.94514659684
 31
0.0
  0
LINE
  5
3CC
330
1F
100
AcDbEntity
  8
0-6_扉
  6
Continuous
 62
   200
370
     5
100
AcDbLine
 10
157.8097859758864
 20
2298.945146596839
 30
0.0
 11
626.5597859758864
 21
2298.945146596839
 31
0.0
  0
LINE
  5
3CD
330
1F
100
AcDbEntity
  8
0-6_扉
  6
Continuous
 62
   200
370
     5
100
AcDbLine
 10
686.5597859758873
 20
2298.945146596839
 30
0.0
 11
1155.309785975889
 21
2298.945146596839
 31
0.0
  0
CIRCLE
  5
3CE
330
1F
100
AcDbEntity
  8
0-7_金物
  6
Continuous
 62
     7
370
     5
100
AcDbCircle
 10
-1858.190214024114
 20
2454.945146596816
 30
0.0
 40
21.00000000000001
  0
CIRCLE
  5
3CF
330
1F
100
AcDbEntity
  8
0-7_金物
  6
Continuous
 62
     7
370
     5
100
AcDbCircle
 10
-1858.190214024114
 20
2454.945146596816
 30
0.0
 40
30.0
  0
CIRCLE
  5
3D0
330
1F
100
AcDbEntity
  8
0-7_金物
  6
Continuous
 62
     7
370
     5
100
AcDbCircle
 10
154.8097859758857
 20
2454.945146596816
 30
0.0
 40
21.00000000000001
  0
CIRCLE
  5
3D1
330
1F
100
AcDbEntity
  8
0-7_金物
  6
Continuous
 62
     7
370
     5
100
AcDbCircle
 10
154.8097859758857
 20
2454.945146596816
 30
0.0
 40
30.0
  0
MTEXT
  5
3D2
330
1F
100
AcDbEntity
  8
0-B_寸法
  6
Continuous
 62
     7
370
   211
100
AcDbMText
 10
-2629.940214024115
 20
1807.665146596839
 30
0.0
 40
91.43999999999998
 41
540.0
 46
0.0
 71
     7
 72
     1
  1
{\fＭＳ ゴシック|b0|i0|c128|p49;ＤＷ＝394}
 73
     1
 44
1.0
  0
MTEXT
  5
3D3
330
1F
100
AcDbEntity
  8
0-B_寸法
  6
Continuous
 62
     7
370
   211
100
AcDbMText
 10
-1626.440214024113
 20
1807.665146596839
 30
0.0
 40
91.43999999999942
 41
539.9999999999966
 46
0.0
 71
     7
 72
     1
  1
{\fＭＳ ゴシック|b0|i0|c128|p49;ＤＷ＝394}
 73
     1
 44
1.0
  0
MTEXT
  5
3D4
330
1F
100
AcDbEntity
  8
0-B_寸法
  6
Continuous
 62
     7
370
   211
100
AcDbMText
 10
-616.9402140241141
 20
1807.665146596839
 30
0.0
 40
91.43999999999984
 41
539.9999999999991
 46
0.0
 71
     7
 72
     1
  1
{\fＭＳ ゴシック|b0|i0|c128|p49;ＤＷ＝394}
 73
     1
 44
1.0
  0
MTEXT
  5
3D5
330
1F
100
AcDbEntity
  8
0-B_寸法
  6
Continuous
 62
     7
370
   211
100
AcDbMText
 10
386.5597859758865
 20
1807.665146596839
 30
0.0
 40
91.44000000000015
 41
540.0000000000009
 46
0.0
 71
     7
 72
     1
  1
{\fＭＳ ゴシック|b0|i0|c128|p49;ＤＷ＝394}
 73
     1
 44
1.0
  0
MTEXT
  5
3D6
330
1F
100
AcDbEntity
  8
0-B_寸法
  6
Continuous
 62
     7
370
   211
100
AcDbMText
 10
-2308.190214024114
 20
1627.665146596839
 30
0.0
 40
91.43999999999998
 41
900.0
 46
0.0
 71
     7
 72
     1
  1
{\fＭＳ ゴシック|b0|i0|c128|p49;折戸：ＤＷ＝789}
 73
     1
 44
1.0
  0
MTEXT
  5
3D7
330
1F
100
AcDbEntity
  8
0-B_寸法
  6
Continuous
 62
     7
370
   211
100
AcDbMText
 10
-295.1902140241143
 20
1627.665146596839
 30
0.0
 40
91.43999999999998
 41
900.0
 46
0.0
 71
     7
 72
     1
  1
{\fＭＳ ゴシック|b0|i0|c128|p49;折戸：ＤＷ＝789}
 73
     1
 44
1.0
  0
MTEXT
  5
3D8
330
1F
100
AcDbEntity
  8
0-B_寸法
  6
Continuous
 62
     7
370
   211
100
AcDbMText
 10
-1181.690214024115
 20
1447.665146596839
 30
0.0
 40
91.43999999999997
 41
660.0
 46
0.0
 71
     7
 72
     1
  1
{\fＭＳ ゴシック|b0|i0|c128|p49;枠内＝1,575}
 73
     1
 44
1.0
  0
MTEXT
  5
3D9
330
1F
100
AcDbEntity
  8
0-B_寸法
  6
Continuous
 62
     7
370
   211
100
AcDbMText
 10
-1181.690214024115
 20
1267.665146596839
 30
0.0
 40
91.43999999999997
 41
660.0
 46
0.0
 71
     7
 72
     1
  1
{\fＭＳ ゴシック|b0|i0|c128|p49;枠外＝1,635}
 73
     1
 44
1.0
  0
MTEXT
  5
3DA
330
1F
100
AcDbEntity
  8
0-B_寸法
  6
Continuous
 62
     7
370
   211
100
AcDbMText
 10
-1241.690214024115
 20
3142.66514659684
 30
0.0
 40
91.43999999999997
 41
780.0
 46
0.0
 71
     7
 72
     1
  1
{\fＭＳ ゴシック|b0|i0|c128|p49;ＲＯＷ＝1,645}
 73
     1
 44
1.0
  0
MTEXT
  5
3DB
330
1F
100
AcDbEntity
  8
0-B_寸法
  6
Continuous
 62
     7
370
   211
100
AcDbMText
 10
-821.6902140241154
 20
1627.665146596839
 30
0.0
 40
91.44
 41
60.0
 46
0.0
 71
     7
 72
     1
  1
{\fＭＳ ゴシック|b0|i0|c128|p49;2}
 73
     1
 44
1.0
  0
MTEXT
  5
3DC
330
1F
100
AcDbEntity
  8
0-B_寸法
  6
Continuous
 62
     7
370
   211
100
AcDbMText
 10
-1405.791799731589
 20
2962.66514659684
 30
0.0
 40
91.43999999999991
 41
1139.999999999999
 46
0.0
 71
     7
 72
     1
  1
{\fＭＳ ゴシック|b0|i0|c128|p49;有効開口寸法＝1,331}
 73
     1
 44
1.0
  0
MTEXT
  5
3DD
330
1F
100
AcDbEntity
  8
0-A_文字
  6
Continuous
 62
     7
370
     5
100
AcDbMText
 10
-3590.223429306707
 20
3310.355192580246
 30
0.0
 40
100.584
 41
660.0
 46
0.0
 71
     7
 72
     1
  1
{\fＭＳ ゴシック|b0|i0|c128|p49;■横断面図}
 73
     1
 44
1.0
  0
MTEXT
  5
3DE
330
1F
100
AcDbEntity
  8
F-A_文字
  6
Continuous
 62
     7
370
     0
100
AcDbMText
 10
3689.917643811962
 20
-3946.903115907308
 30
0.0
 40
76.19999999999999
 41
150.0
 46
0.0
 71
     7
 72
     1
  1
{\fＭＳ ゴシック|b0|i0|c128|p49;1/5}
 73
     1
 44
1.0
  0
MTEXT
  5
3DF
330
1F
100
AcDbEntity
  8
F-A_文字
  6
Continuous
 62
     7
370
     5
100
AcDbMText
 10
3269.917643811962
 20
-4145.298907941097
 30
0.0
 40
79.40842105263158
 41
990.0
 46
0.0
 71
     7
 72
     1
  1
{\fＭＳ ゴシック|b0|i0|c128|p49;M07(7)-AO1635Da_S01}
 73
     1
 44
1.0
  0
ENDSEC
  0
SECTION
  2
OBJECTS
  0
DICTIONARY
  5
C
330
0
100
AcDbDictionary
281
     1
  3
ACAD_GROUP
350
D
  3
ACAD_LAYOUT
350
1A
  3
ACAD_MATERIAL
350
3B
  3
ACAD_MLEADERSTYLE
350
3E1
  3
ACAD_MLINESTYLE
350
17
  3
ACAD_PLOTSETTINGS
350
19
  3
ACAD_PLOTSTYLENAME
350
E
  3
ACAD_TABLESTYLE
350
3E0
  3
ACAD_VISUALSTYLE
350
2A
  0
DICTIONARY
  5
D
102
{ACAD_REACTORS
330
C
102
}
330
C
100
AcDbDictionary
281
     1
  0
DICTIONARY
  5
1A
102
{ACAD_REACTORS
330
C
102
}
330
C
100
AcDbDictionary
281
     1
  3
Layout1
350
1E
  3
Layout2
350
26
  3
Model
350
22
  0
DICTIONARY
  5
3B
102
{ACAD_REACTORS
330
C
102
}
330
C
100
AcDbDictionary
281
     1
  3
ByBlock
350
3D
  3
ByLayer
350
3C
  3
Global
350
3E
  0
DICTIONARY
  5
3E1
102
{ACAD_REACTORS
330
C
102
}
330
C
100
AcDbDictionary
281
     1
  0
DICTIONARY
  5
17
102
{ACAD_REACTORS
330
C
102
}
330
C
100
AcDbDictionary
281
     1
  3
Standard
350
18
  0
DICTIONARY
  5
19
102
{ACAD_REACTORS
330
C
102
}
330
C
100
AcDbDictionary
281
     1
  0
ACDBDICTIONARYWDFLT
  5
E
102
{ACAD_REACTORS
330
C
102
}
330
C
100
AcDbDictionary
281
     1
  3
Normal
350
F
100
AcDbDictionaryWithDefault
340
F
  0
DICTIONARY
  5
3E0
102
{ACAD_REACTORS
330
C
102
}
330
C
100
AcDbDictionary
281
     1
  0
DICTIONARY
  5
2A
102
{ACAD_REACTORS
330
C
102
}
330
C
100
AcDbDictionary
281
     1
  3
2dWireframe
350
2F
  3
3D Hidden
350
31
  3
3dWireframe
350
30
  3
Basic
350
32
  3
Brighten
350
36
  3
ColorChange
350
3A
  3
Conceptual
350
34
  3
Dim
350
35
  3
Facepattern
350
39
  3
Flat
350
2B
  3
FlatWithEdges
350
2C
  3
Gouraud
350
2D
  3
GouraudWithEdges
350
2E
  3
Linepattern
350
38
  3
Realistic
350
33
  3
Thicken
350
37
  0
LAYOUT
  5
1E
102
{ACAD_REACTORS
330
1A
102
}
330
1A
100
AcDbPlotSettings
  1

  2
none_device
  4

  6

 40
0.0
 41
0.0
 42
0.0
 43
0.0
 44
0.0
 45
0.0
 46
0.0
 47
0.0
 48
0.0
 49
0.0
140
0.0
141
0.0
142
1.0
143
1.0
 70
   688
 72
     0
 73
     0
 74
     5
  7

 75
    16
 76
     0
 77
     5
 78
   300
147
1.0
148
0.0
149
0.0
100
AcDbLayout
  1
Layout1
 70
     1
 71
     1
 10
0.0
 20
0.0
 11
420.0
 21
297.0
 12
0.0
 22
0.0
 32
0.0
 14
1.000000000000000E+20
 24
1.000000000000000E+20
 34
1.000000000000000E+20
 15
-1.000000000000000E+20
 25
-1.000000000000000E+20
 35
-1.000000000000000E+20
146
0.0
 13
0.0
 23
0.0
 33
0.0
 16
1.0
 26
0.0
 36
0.0
 17
0.0
 27
1.0
 37
0.0
 76
     0
330
1B
  0
LAYOUT
  5
26
102
{ACAD_REACTORS
330
1A
102
}
330
1A
100
AcDbPlotSettings
  1

  2
none_device
  4

  6

 40
0.0
 41
0.0
 42
0.0
 43
0.0
 44
0.0
 45
0.0
 46
0.0
 47
0.0
 48
0.0
 49
0.0
140
0.0
141
0.0
142
1.0
143
1.0
 70
   688
 72
     0
 73
     0
 74
     5
  7

 75
    16
 76
     0
 77
     5
 78
   300
147
1.0
148
0.0
149
0.0
100
AcDbLayout
  1
Layout2
 70
     1
 71
     2
 10
0.0
 20
0.0
 11
0.0
 21
0.0
 12
0.0
 22
0.0
 32
0.0
 14
0.0
 24
0.0
 34
0.0
 15
0.0
 25
0.0
 35
0.0
146
0.0
 13
0.0
 23
0.0
 33
0.0
 16
1.0
 26
0.0
 36
0.0
 17
0.0
 27
1.0
 37
0.0
 76
     0
330
23
  0
LAYOUT
  5
22
102
{ACAD_REACTORS
330
1A
102
}
330
1A
100
AcDbPlotSettings
  1

  2
none_device
  4

  6

 40
0.0
 41
0.0
 42
0.0
 43
0.0
 44
0.0
 45
0.0
 46
0.0
 47
0.0
 48
0.0
 49
0.0
140
0.0
141
0.0
142
1.0
143
1.0
 70
  1712
 72
     0
 73
     0
 74
     0
  7

 75
     0
 76
     0
 77
     5
 78
   300
147
1.0
148
0.0
149
0.0
100
AcDbLayout
  1
Model
 70
     1
 71
     0
 10
-6300.0
 20
-4455.0
 11
6300.0
 21
4455.0
 12
0.0
 22
0.0
 32
0.0
 14
-6300.0
 24
-4455.0
 34
0.0
 15
6300.0
 25
4455.0
 35
0.0
146
0.0
 13
0.0
 23
0.0
 33
0.0
 16
1.0
 26
0.0
 36
0.0
 17
0.0
 27
1.0
 37
0.0
 76
     0
330
1F
331
29
  0
MATERIAL
  5
3D
102
{ACAD_REACTORS
330
3B
102
}
330
3B
100
AcDbMaterial
  1
ByBlock
 72
     1
 94
      127
  0
MATERIAL
  5
3C
102
{ACAD_REACTORS
330
3B
102
}
330
3B
100
AcDbMaterial
  1
ByLayer
 72
     1
 94
      127
  0
MATERIAL
  5
3E
102
{ACAD_REACTORS
330
3B
102
}
330
3B
100
AcDbMaterial
  1
Global
 72
     1
 94
      127
  0
MLINESTYLE
  5
18
102
{ACAD_REACTORS
330
17
102
}
330
17
100
AcDbMlineStyle
  2
Standard
 70
     0
  3

 62
   256
 51
90.0
 52
90.0
 71
     2
 49
0.5
 62
   256
  6
BYLAYER
 49
-0.5
 62
   256
  6
BYLAYER
  0
ACDBPLACEHOLDER
  5
F
102
{ACAD_REACTORS
330
E
102
}
330
E
  0
VISUALSTYLE
  5
2F
102
{ACAD_REACTORS
330
2A
102
}
330
2A
100
AcDbVisualStyle
  2
2dWireframe
 70
     4
177
     2
291
     0
 71
     0
176
     1
 72
     2
176
     1
 73
     0
176
     1
 90
        0
176
     1
 40
-0.6
176
     1
 41
-30.0
176
     1
 62
     5
 63
     7
421
 16777215
176
     1
 74
     1
176
     1
 91
        4
176
     1
 64
     7
176
     1
 65
   257
176
     1
 75
     1
176
     1
175
     1
176
     1
 42
1.0
176
     1
 92
        0
176
     1
 66
   257
176
     1
 43
1.0
176
     1
 76
     1
176
     1
 77
     6
176
     1
 78
     2
176
     1
 67
     7
176
     1
 79
     5
176
     1
170
     0
176
     1
171
     0
176
     1
290
     0
176
     1
 93
        1
176
     1
 44
0.0
176
     1
173
     0
176
     1
  0
VISUALSTYLE
  5
31
102
{ACAD_REACTORS
330
2A
102
}
330
2A
100
AcDbVisualStyle
  2
3D Hidden
 70
     6
177
     2
291
     0
 71
     1
176
     1
 72
     2
176
     1
 73
     2
176
     1
 90
        0
176
     1
 40
-0.6
176
     1
 41
-30.0
176
     1
 62
     5
 63
     7
421
 16777215
176
     1
 74
     2
176
     1
 91
        2
176
     1
 64
     7
176
     1
 65
   257
176
     1
 75
     2
176
     1
175
     1
176
     1
 42
40.0
176
     1
 92
        0
176
     1
 66
   257
176
     1
 43
1.0
176
     1
 76
     1
176
     1
 77
     6
176
     1
 78
     2
176
     1
 67
     7
176
     1
 79
     3
176
     1
170
     0
176
     1
171
     0
176
     1
290
     0
176
     1
 93
        1
176
     1
 44
0.0
176
     1
173
     0
176
     1
  0
VISUALSTYLE
  5
30
102
{ACAD_REACTORS
330
2A
102
}
330
2A
100
AcDbVisualStyle
  2
3dWireframe
 70
     5
177
     2
291
     0
 71
     0
176
     1
 72
     2
176
     1
 73
     0
176
     1
 90
        0
176
     1
 40
-0.6
176
     1
 41
-30.0
176
     1
 62
     5
 63
     7
421
 16777215
176
     1
 74
     1
176
     1
 91
        4
176
     1
 64
     7
176
     1
 65
   257
176
     1
 75
     1
176
     1
175
     1
176
     1
 42
1.0
176
     1
 92
        0
176
     1
 66
   257
176
     1
 43
1.0
176
     1
 76
     1
176
     1
 77
     6
176
     1
 78
     2
176
     1
 67
     7
176
     1
 79
     5
176
     1
170
     0
176
     1
171
     0
176
     1
290
     0
176
     1
 93
        1
176
     1
 44
0.0
176
     1
173
     0
176
     1
  0
VISUALSTYLE
  5
32
102
{ACAD_REACTORS
330
2A
102
}
330
2A
100
AcDbVisualStyle
  2
Basic
 70
     7
177
     2
291
     1
 71
     1
176
     1
 72
     0
176
     1
 73
     1
176
     1
 90
        0
176
     1
 40
-0.6
176
     1
 41
-30.0
176
     1
 62
     5
 63
     7
421
 16777215
176
     1
 74
     0
176
     1
 91
        4
176
     1
 64
     7
176
     1
 65
   257
176
     1
 75
     1
176
     1
175
     1
176
     1
 42
1.0
176
     1
 92
        8
176
     1
 66
     7
176
     1
 43
1.0
176
     1
 76
     1
176
     1
 77
     6
176
     1
 78
     2
176
     1
 67
     7
176
     1
 79
     5
176
     1
170
     0
176
     1
171
     0
176
     1
290
     0
176
     1
 93
        1
176
     1
 44
0.0
176
     1
173
     0
176
     1
  0
VISUALSTYLE
  5
36
102
{ACAD_REACTORS
330
2A
102
}
330
2A
100
AcDbVisualStyle
  2
Brighten
 70
    12
177
     2
291
     1
 71
     2
176
     1
 72
     2
176
     1
 73
     0
176
     1
 90
        0
176
     1
 40
-0.6
176
     1
 41
-30.0
176
     1
 62
     5
 63
     7
421
 16777215
176
     1
 74
     1
176
     1
 91
        4
176
     1
 64
     7
176
     1
 65
   257
176
     1
 75
     1
176
     1
175
     1
176
     1
 42
1.0
176
     1
 92
        8
176
     1
 66
     7
176
     1
 43
1.0
176
     1
 76
     1
176
     1
 77
     6
176
     1
 78
     2
176
     1
 67
     7
176
     1
 79
     5
176
     1
170
     0
176
     1
171
     0
176
     1
290
     0
176
     1
 93
        1
176
     1
 44
50.0
176
     1
173
     0
176
     1
  0
VISUALSTYLE
  5
3A
102
{ACAD_REACTORS
330
2A
102
}
330
2A
100
AcDbVisualStyle
  2
ColorChange
 70
    16
177
     2
291
     1
 71
     2
176
     1
 72
     2
176
     1
 73
     3
176
     1
 90
        0
176
     1
 40
-0.6
176
     1
 41
-30.0
176
     1
 62
     5
 63
     8
421
  8421504
176
     1
 74
     1
176
     1
 91
        4
176
     1
 64
     7
176
     1
 65
   257
176
     1
 75
     1
176
     1
175
     1
176
     1
 42
1.0
176
     1
 92
        8
176
     1
 66
     8
424
  8421504
176
     1
 43
1.0
176
     1
 76
     1
176
     1
 77
     6
176
     1
 78
     2
176
     1
 67
     7
176
     1
 79
     5
176
     1
170
     0
176
     1
171
     0
176
     1
290
     0
176
     1
 93
        1
176
     1
 44
0.0
176
     1
173
     0
176
     1
  0
VISUALSTYLE
  5
34
102
{ACAD_REACTORS
330
2A
102
}
330
2A
100
AcDbVisualStyle
  2
Conceptual
 70
     9
177
     2
291
     0
 71
     3
176
     1
 72
     2
176
     1
 73
     0
176
     1
 90
        0
176
     1
 40
-0.6
176
     1
 41
-30.0
176
     1
 62
     5
 63
     7
421
 16777215
176
     1
 74
     2
176
     1
 91
        2
176
     1
 64
     7
176
     1
 65
   257
176
     1
 75
     1
176
     1
175
     1
176
     1
 42
40.0
176
     1
 92
        8
176
     1
 66
     7
176
     1
 43
1.0
176
     1
 76
     1
176
     1
 77
     6
176
     1
 78
     2
176
     1
 67
     7
176
     1
 79
     3
176
     1
170
     0
176
     1
171
     0
176
     1
290
     0
176
     1
 93
        1
176
     1
 44
0.0
176
     1
173
     0
176
     1
  0
VISUALSTYLE
  5
35
102
{ACAD_REACTORS
330
2A
102
}
330
2A
100
AcDbVisualStyle
  2
Dim
 70
    11
177
     2
291
     1
 71
     2
176
     1
 72
     2
176
     1
 73
     0
176
     1
 90
        0
176
     1
 40
-0.6
176
     1
 41
-30.0
176
     1
 62
     5
 63
     7
421
 16777215
176
     1
 74
     1
176
     1
 91
        4
176
     1
 64
     7
176
     1
 65
   257
176
     1
 75
     1
176
     1
175
     1
176
     1
 42
1.0
176
     1
 92
        8
176
     1
 66
     7
176
     1
 43
1.0
176
     1
 76
     1
176
     1
 77
     6
176
     1
 78
     2
176
     1
 67
     7
176
     1
 79
     5
176
     1
170
     0
176
     1
171
     0
176
     1
290
     0
176
     1
 93
        1
176
     1
 44
-50.0
176
     1
173
     0
176
     1
  0
VISUALSTYLE
  5
39
102
{ACAD_REACTORS
330
2A
102
}
330
2A
100
AcDbVisualStyle
  2
Facepattern
 70
    15
177
     2
291
     1
 71
     2
176
     1
 72
     2
176
     1
 73
     0
176
     1
 90
        0
176
     1
 40
-0.6
176
     1
 41
-30.0
176
     1
 62
     5
 63
     7
421
 16777215
176
     1
 74
     1
176
     1
 91
        4
176
     1
 64
     7
176
     1
 65
   257
176
     1
 75
     1
176
     1
175
     1
176
     1
 42
1.0
176
     1
 92
        8
176
     1
 66
     7
176
     1
 43
1.0
176
     1
 76
     1
176
     1
 77
     6
176
     1
 78
     2
176
     1
 67
     7
176
     1
 79
     5
176
     1
170
     0
176
     1
171
     0
176
     1
290
     0
176
     1
 93
        1
176
     1
 44
0.0
176
     1
173
     0
176
     1
  0
VISUALSTYLE
  5
2B
102
{ACAD_REACTORS
330
2A
102
}
330
2A
100
AcDbVisualStyle
  2
Flat
 70
     0
177
     2
291
     1
 71
     2
176
     1
 72
     1
176
     1
 73
     1
176
     1
 90
        2
176
     1
 40
-0.6
176
     1
 41
30.0
176
     1
 62
     5
 63
     7
421
 16777215
176
     1
 74
     0
176
     1
 91
        4
176
     1
 64
     7
176
     1
 65
   257
176
     1
 75
     1
176
     1
175
     1
176
     1
 42
1.0
176
     1
 92
        8
176
     1
 66
     7
176
     1
 43
1.0
176
     1
 76
     1
176
     1
 77
     6
176
     1
 78
     2
176
     1
 67
     7
176
     1
 79
     5
176
     1
170
     0
176
     1
171
     0
176
     1
290
     0
176
     1
 93
       13
176
     1
 44
0.0
176
     1
173
     0
176
     1
  0
VISUALSTYLE
  5
2C
102
{ACAD_REACTORS
330
2A
102
}
330
2A
100
AcDbVisualStyle
  2
FlatWithEdges
 70
     1
177
     2
291
     1
 71
     2
176
     1
 72
     1
176
     1
 73
     1
176
     1
 90
        2
176
     1
 40
-0.6
176
     1
 41
30.0
176
     1
 62
     5
 63
     7
421
 16777215
176
     1
 74
     1
176
     1
 91
        4
176
     1
 64
     7
176
     1
 65
   257
176
     1
 75
     1
176
     1
175
     1
176
     1
 42
1.0
176
     1
 92
        0
176
     1
 66
   257
176
     1
 43
1.0
176
     1
 76
     1
176
     1
 77
     6
176
     1
 78
     2
176
     1
 67
     7
176
     1
 79
     5
176
     1
170
     0
176
     1
171
     0
176
     1
290
     0
176
     1
 93
       13
176
     1
 44
0.0
176
     1
173
     0
176
     1
  0
VISUALSTYLE
  5
2D
102
{ACAD_REACTORS
330
2A
102
}
330
2A
100
AcDbVisualStyle
  2
Gouraud
 70
     2
177
     2
291
     1
 71
     2
176
     1
 72
     2
176
     1
 73
     1
176
     1
 90
        2
176
     1
 40
-0.6
176
     1
 41
30.0
176
     1
 62
     5
 63
     7
421
 16777215
176
     1
 74
     0
176
     1
 91
        4
176
     1
 64
     7
176
     1
 65
   257
176
     1
 75
     1
176
     1
175
     1
176
     1
 42
1.0
176
     1
 92
        0
176
     1
 66
     7
176
     1
 43
1.0
176
     1
 76
     1
176
     1
 77
     6
176
     1
 78
     2
176
     1
 67
     7
176
     1
 79
     5
176
     1
170
     0
176
     1
171
     0
176
     1
290
     0
176
     1
 93
       13
176
     1
 44
0.0
176
     1
173
     0
176
     1
  0
VISUALSTYLE
  5
2E
102
{ACAD_REACTORS
330
2A
102
}
330
2A
100
AcDbVisualStyle
  2
GouraudWithEdges
 70
     3
177
     2
291
     1
 71
     2
176
     1
 72
     2
176
     1
 73
     1
176
     1
 90
        2
176
     1
 40
-0.6
176
     1
 41
30.0
176
     1
 62
     5
 63
     7
421
 16777215
176
     1
 74
     1
176
     1
 91
        4
176
     1
 64
     7
176
     1
 65
   257
176
     1
 75
     1
176
     1
175
     1
176
     1
 42
1.0
176
     1
 92
        0
176
     1
 66
   257
176
     1
 43
1.0
176
     1
 76
     1
176
     1
 77
     6
176
     1
 78
     2
176
     1
 67
     7
176
     1
 79
     5
176
     1
170
     0
176
     1
171
     0
176
     1
290
     0
176
     1
 93
       13
176
     1
 44
0.0
176
     1
173
     0
176
     1
  0
VISUALSTYLE
  5
38
102
{ACAD_REACTORS
330
2A
102
}
330
2A
100
AcDbVisualStyle
  2
Linepattern
 70
    14
177
     2
291
     1
 71
     2
176
     1
 72
     2
176
     1
 73
     0
176
     1
 90
        0
176
     1
 40
-0.6
176
     1
 41
-30.0
176
     1
 62
     5
 63
     7
421
 16777215
176
     1
 74
     1
176
     1
 91
        4
176
     1
 64
     7
176
     1
 65
   257
176
     1
 75
     7
176
     1
175
     7
176
     1
 42
1.0
176
     1
 92
        8
176
     1
 66
     7
176
     1
 43
1.0
176
     1
 76
     1
176
     1
 77
     6
176
     1
 78
     2
176
     1
 67
     7
176
     1
 79
     5
176
     1
170
     0
176
     1
171
     0
176
     1
290
     0
176
     1
 93
        1
176
     1
 44
0.0
176
     1
173
     0
176
     1
  0
VISUALSTYLE
  5
33
102
{ACAD_REACTORS
330
2A
102
}
330
2A
100
AcDbVisualStyle
  2
Realistic
 70
     8
177
     2
291
     0
 71
     2
176
     1
 72
     2
176
     1
 73
     0
176
     1
 90
        0
176
     1
 40
-0.6
176
     1
 41
-30.0
176
     1
 62
     5
 63
     7
421
 16777215
176
     1
 74
     1
176
     1
 91
        0
176
     1
 64
     7
176
     1
 65
   257
176
     1
 75
     1
176
     1
175
     1
176
     1
 42
1.0
176
     1
 92
        8
176
     1
 66
     8
424
  7895160
176
     1
 43
1.0
176
     1
 76
     1
176
     1
 77
     6
176
     1
 78
     2
176
     1
 67
     7
176
     1
 79
     5
176
     1
170
     0
176
     1
171
     0
176
     1
290
     0
176
     1
 93
       13
176
     1
 44
0.0
176
     1
173
     0
176
     1
  0
VISUALSTYLE
  5
37
102
{ACAD_REACTORS
330
2A
102
}
330
2A
100
AcDbVisualStyle
  2
Thicken
 70
    13
177
     2
291
     1
 71
     2
176
     1
 72
     2
176
     1
 73
     0
176
     1
 90
        0
176
     1
 40
-0.6
176
     1
 41
-30.0
176
     1
 62
     5
 63
     7
421
 16777215
176
     1
 74
     1
176
     1
 91
        4
176
     1
 64
     7
176
     1
 65
   257
176
     1
 75
     1
176
     1
175
     1
176
     1
 42
1.0
176
     1
 92
       12
176
     1
 66
     7
176
     1
 43
1.0
176
     1
 76
     1
176
     1
 77
     6
176
     1
 78
     2
176
     1
 67
     7
176
     1
 79
     5
176
     1
170
     0
176
     1
171
     0
176
     1
290
     0
176
     1
 93
        1
176
     1
 44
0.0
176
     1
173
     0
176
     1
  0
ENDSEC
  0
EOF
