  0
SECTION
  2
HEADER
  9
$ACADVER
  1
AC1024
  9
$ACADMAINTVER
 70
     6
  9
$DWGCODEPAGE
  3
ANSI_932
  9
$INSBASE
 10
0.0
 20
0.0
 30
0.0
  9
$EXTMIN
 10
0.0
 20
0.0
 30
0.0
  9
$EXTMAX
 10
210.0015627369349
 20
152.9997242307662
 30
0.0
  9
$LIMMIN
 10
0.0
 20
0.0
  9
$LIMMAX
 10
210.0015627369349
 20
152.9997242307662
  9
$ORTHOMODE
 70
     0
  9
$REGENMODE
 70
     1
  9
$FILLMODE
 70
     1
  9
$QTEXTMODE
 70
     0
  9
$MIRRTEXT
 70
     1
  9
$LTSCALE
 40
1.0
  9
$ATTMODE
 70
     1
  9
$TEXTSIZE
 40
2.5
  9
$TRACEWID
 40
1.0
  9
$TEXTSTYLE
  7
Standard
  9
$CLAYER
  8
0
  9
$CELTYPE
  6
ByLayer
  9
$CECOLOR
 62
   256
  9
$CELTSCALE
 40
1.0
  9
$DISPSILH
 70
     0
  9
$DIMSCALE
 40
1.0
  9
$DIMASZ
 40
2.5
  9
$DIMEXO
 40
0.625
  9
$DIMDLI
 40
3.75
  9
$DIMRND
 40
0.0
  9
$DIMDLE
 40
0.0
  9
$DIMEXE
 40
1.25
  9
$DIMTP
 40
0.0
  9
$DIMTM
 40
0.0
  9
$DIMTXT
 40
2.5
  9
$DIMCEN
 40
2.5
  9
$DIMTSZ
 40
0.0
  9
$DIMTOL
 70
     0
  9
$DIMLIM
 70
     0
  9
$DIMTIH
 70
     0
  9
$DIMTOH
 70
     0
  9
$DIMSE1
 70
     0
  9
$DIMSE2
 70
     0
  9
$DIMTAD
 70
     1
  9
$DIMZIN
 70
     8
  9
$DIMBLK
  1

  9
$DIMASO
 70
     1
  9
$DIMSHO
 70
     1
  9
$DIMPOST
  1

  9
$DIMAPOST
  1

  9
$DIMALT
 70
     0
  9
$DIMALTD
 70
     3
  9
$DIMALTF
 40
0.03937007874016
  9
$DIMLFAC
 40
1.0
  9
$DIMTOFL
 70
     1
  9
$DIMTVP
 40
0.0
  9
$DIMTIX
 70
     0
  9
$DIMSOXD
 70
     0
  9
$DIMSAH
 70
     0
  9
$DIMBLK1
  1

  9
$DIMBLK2
  1

  9
$DIMSTYLE
  2
ISO-25
  9
$DIMCLRD
 70
     0
  9
$DIMCLRE
 70
     0
  9
$DIMCLRT
 70
     0
  9
$DIMTFAC
 40
1.0
  9
$DIMGAP
 40
0.625
  9
$DIMJUST
 70
     0
  9
$DIMSD1
 70
     0
  9
$DIMSD2
 70
     0
  9
$DIMTOLJ
 70
     0
  9
$DIMTZIN
 70
     8
  9
$DIMALTZ
 70
     0
  9
$DIMALTTZ
 70
     0
  9
$DIMUPT
 70
     0
  9
$DIMDEC
 70
     2
  9
$DIMTDEC
 70
     2
  9
$DIMALTU
 70
     2
  9
$DIMALTTD
 70
     3
  9
$DIMTXSTY
  7
Standard
  9
$DIMAUNIT
 70
     0
  9
$DIMADEC
 70
     0
  9
$DIMALTRND
 40
0.0
  9
$DIMAZIN
 70
     0
  9
$DIMDSEP
 70
    44
  9
$DIMATFIT
 70
     3
  9
$DIMFRAC
 70
     0
  9
$DIMLDRBLK
  1

  9
$DIMLUNIT
 70
     2
  9
$DIMLWD
 70
    -2
  9
$DIMLWE
 70
    -2
  9
$DIMTMOVE
 70
     0
  9
$DIMFXL
 40
1.0
  9
$DIMFXLON
 70
     0
  9
$DIMJOGANG
 40
0.7853981633974483
  9
$DIMTFILL
 70
     0
  9
$DIMTFILLCLR
 70
     0
  9
$DIMARCSYM
 70
     0
  9
$DIMLTYPE
  6

  9
$DIMLTEX1
  6

  9
$DIMLTEX2
  6

  9
$DIMTXTDIRECTION
 70
     0
  9
$LUNITS
 70
     2
  9
$LUPREC
 70
     4
  9
$SKETCHINC
 40
1.0
  9
$FILLETRAD
 40
10.0
  9
$AUNITS
 70
     0
  9
$AUPREC
 70
     0
  9
$MENU
  1
.
  9
$ELEVATION
 40
0.0
  9
$PELEVATION
 40
0.0
  9
$THICKNESS
 40
0.0
  9
$LIMCHECK
 70
     0
  9
$CHAMFERA
 40
0.0
  9
$CHAMFERB
 40
0.0
  9
$CHAMFERC
 40
0.0
  9
$CHAMFERD
 40
0.0
  9
$SKPOLY
 70
     0
  9
$TDCREATE
 40
2458500.717842396
  9
$TDUCREATE
 40
2458500.342842396
  9
$TDUPDATE
 40
2458500.717842581
  9
$TDUUPDATE
 40
2458500.342842581
  9
$TDINDWG
 40
0.0000000116
  9
$TDUSRTIMER
 40
0.0000000116
  9
$USRTIMER
 70
     1
  9
$ANGBASE
 50
0.0
  9
$ANGDIR
 70
     0
  9
$PDMODE
 70
     0
  9
$PDSIZE
 40
0.0
  9
$PLINEWID
 40
0.0
  9
$SPLFRAME
 70
     0
  9
$SPLINETYPE
 70
     6
  9
$SPLINESEGS
 70
     8
  9
$HANDSEED
  5
2C4
  9
$SURFTAB1
 70
     6
  9
$SURFTAB2
 70
     6
  9
$SURFTYPE
 70
     6
  9
$SURFU
 70
     6
  9
$SURFV
 70
     6
  9
$UCSBASE
  2

  9
$UCSNAME
  2

  9
$UCSORG
 10
0.0
 20
0.0
 30
0.0
  9
$UCSXDIR
 10
1.0
 20
0.0
 30
0.0
  9
$UCSYDIR
 10
0.0
 20
1.0
 30
0.0
  9
$UCSORTHOREF
  2

  9
$UCSORTHOVIEW
 70
     0
  9
$UCSORGTOP
 10
0.0
 20
0.0
 30
0.0
  9
$UCSORGBOTTOM
 10
0.0
 20
0.0
 30
0.0
  9
$UCSORGLEFT
 10
0.0
 20
0.0
 30
0.0
  9
$UCSORGRIGHT
 10
0.0
 20
0.0
 30
0.0
  9
$UCSORGFRONT
 10
0.0
 20
0.0
 30
0.0
  9
$UCSORGBACK
 10
0.0
 20
0.0
 30
0.0
  9
$PUCSBASE
  2

  9
$PUCSNAME
  2

  9
$PUCSORG
 10
0.0
 20
0.0
 30
0.0
  9
$PUCSXDIR
 10
1.0
 20
0.0
 30
0.0
  9
$PUCSYDIR
 10
0.0
 20
1.0
 30
0.0
  9
$PUCSORTHOREF
  2

  9
$PUCSORTHOVIEW
 70
     0
  9
$PUCSORGTOP
 10
0.0
 20
0.0
 30
0.0
  9
$PUCSORGBOTTOM
 10
0.0
 20
0.0
 30
0.0
  9
$PUCSORGLEFT
 10
0.0
 20
0.0
 30
0.0
  9
$PUCSORGRIGHT
 10
0.0
 20
0.0
 30
0.0
  9
$PUCSORGFRONT
 10
0.0
 20
0.0
 30
0.0
  9
$PUCSORGBACK
 10
0.0
 20
0.0
 30
0.0
  9
$USERI1
 70
     0
  9
$USERI2
 70
     0
  9
$USERI3
 70
     0
  9
$USERI4
 70
     0
  9
$USERI5
 70
     0
  9
$USERR1
 40
0.0
  9
$USERR2
 40
0.0
  9
$USERR3
 40
0.0
  9
$USERR4
 40
0.0
  9
$USERR5
 40
0.0
  9
$WORLDVIEW
 70
     1
  9
$SHADEDGE
 70
     3
  9
$SHADEDIF
 70
    70
  9
$TILEMODE
 70
     1
  9
$MAXACTVP
 70
    64
  9
$PINSBASE
 10
0.0
 20
0.0
 30
0.0
  9
$PLIMCHECK
 70
     0
  9
$PEXTMIN
 10
1.000000000000000E+20
 20
1.000000000000000E+20
 30
1.000000000000000E+20
  9
$PEXTMAX
 10
-1.000000000000000E+20
 20
-1.000000000000000E+20
 30
-1.000000000000000E+20
  9
$PLIMMIN
 10
0.0
 20
0.0
  9
$PLIMMAX
 10
420.0
 20
297.0
  9
$UNITMODE
 70
     0
  9
$VISRETAIN
 70
     1
  9
$PLINEGEN
 70
     0
  9
$PSLTSCALE
 70
     1
  9
$TREEDEPTH
 70
  3020
  9
$CMLSTYLE
  2
Standard
  9
$CMLJUST
 70
     0
  9
$CMLSCALE
 40
20.0
  9
$PROXYGRAPHICS
 70
     1
  9
$MEASUREMENT
 70
     1
  9
$CELWEIGHT
370
    -1
  9
$ENDCAPS
280
     0
  9
$JOINSTYLE
280
     0
  9
$LWDISPLAY
290
     0
  9
$INSUNITS
 70
     4
  9
$HYPERLINKBASE
  1

  9
$STYLESHEET
  1

  9
$XEDIT
290
     1
  9
$CEPSNTYPE
380
     0
  9
$PSTYLEMODE
290
     1
  9
$FINGERPRINTGUID
  2
{629B4B99-A384-4E22-B259-444A3DF8E33B}
  9
$VERSIONGUID
  2
{FAEB1C32-E019-11D5-929B-00C0DF256EC4}
  9
$EXTNAMES
290
     1
  9
$PSVPSCALE
 40
0.0
  9
$OLESTARTUP
290
     0
  9
$SORTENTS
280
   127
  9
$INDEXCTL
280
     0
  9
$HIDETEXT
280
     1
  9
$XCLIPFRAME
280
     2
  9
$HALOGAP
280
     0
  9
$OBSCOLOR
 70
   257
  9
$OBSLTYPE
280
     0
  9
$INTERSECTIONDISPLAY
280
     0
  9
$INTERSECTIONCOLOR
 70
   257
  9
$DIMASSOC
280
     2
  9
$PROJECTNAME
  1

  9
$CAMERADISPLAY
290
     0
  9
$LENSLENGTH
 40
50.0
  9
$CAMERAHEIGHT
 40
0.0
  9
$STEPSPERSEC
 40
2.0
  9
$STEPSIZE
 40
6.0
  9
$3DDWFPREC
 40
2.0
  9
$PSOLWIDTH
 40
5.0
  9
$PSOLHEIGHT
 40
80.0
  9
$LOFTANG1
 40
1.570796326794897
  9
$LOFTANG2
 40
1.570796326794897
  9
$LOFTMAG1
 40
0.0
  9
$LOFTMAG2
 40
0.0
  9
$LOFTPARAM
 70
     7
  9
$LOFTNORMALS
280
     1
  9
$LATITUDE
 40
37.795
  9
$LONGITUDE
 40
-122.394
  9
$NORTHDIRECTION
 40
0.0
  9
$TIMEZONE
 70
 -8000
  9
$LIGHTGLYPHDISPLAY
280
     1
  9
$TILEMODELIGHTSYNCH
280
     1
  9
$CMATERIAL
347
44
  9
$SOLIDHIST
280
     0
  9
$SHOWHIST
280
     1
  9
$DWFFRAME
280
     2
  9
$DGNFRAME
280
     2
  9
$REALWORLDSCALE
290
     1
  9
$INTERFERECOLOR
 62
   256
  9
$CSHADOW
280
     0
  9
$SHADOWPLANELOCATION
 40
0.0
  0
ENDSEC
  0
SECTION
  2
CLASSES
  0
CLASS
  1
ACDBDICTIONARYWDFLT
  2
AcDbDictionaryWithDefault
  3
ObjectDBX Classes
 90
        0
 91
        4
280
     0
281
     0
  0
CLASS
  1
VISUALSTYLE
  2
AcDbVisualStyle
  3
ObjectDBX Classes
 90
     4095
 91
        4
280
     0
281
     0
  0
CLASS
  1
MATERIAL
  2
AcDbMaterial
  3
ObjectDBX Classes
 90
     1153
 91
        4
280
     0
281
     0
  0
CLASS
  1
SCALE
  2
AcDbScale
  3
ObjectDBX Classes
 90
     1153
 91
        4
280
     0
281
     0
  0
CLASS
  1
TABLESTYLE
  2
AcDbTableStyle
  3
ObjectDBX Classes
 90
     4095
 91
        4
280
     0
281
     0
  0
CLASS
  1
MLEADERSTYLE
  2
AcDbMLeaderStyle
  3
ACDB_MLEADERSTYLE_CLASS
 90
     4095
 91
        4
280
     0
281
     0
  0
CLASS
  1
SUN
  2
AcDbSun
  3
SCENEOE
 90
     1153
 91
        4
280
     0
281
     0
  0
CLASS
  1
DICTIONARYVAR
  2
AcDbDictionaryVar
  3
ObjectDBX Classes
 90
        0
 91
        4
280
     0
281
     0
  0
CLASS
  1
CELLSTYLEMAP
  2
AcDbCellStyleMap
  3
ObjectDBX Classes
 90
     1152
 91
        4
280
     0
281
     0
  0
ENDSEC
  0
SECTION
  2
TABLES
  0
TABLE
  2
VPORT
  5
8
330
0
100
AcDbSymbolTable
 70
     1
  0
VPORT
  5
29
330
8
100
AcDbSymbolTableRecord
100
AcDbViewportTableRecord
  2
*Active
 70
     0
 10
0.0
 20
0.0
 11
1.0
 21
1.0
 12
105.0007813684675
 22
76.49986211538311
 13
0.0
 23
0.0
 14
10.0
 24
10.0
 15
10.0
 25
10.0
 16
0.0
 26
0.0
 36
1.0
 17
0.0
 27
0.0
 37
0.0
 40
168.2996966538429
 41
1.372561707498205
 42
50.0
 43
0.0
 44
0.0
 50
0.0
 51
0.0
 71
     0
 72
 10000
 73
     1
 74
     3
 75
     0
 76
     0
 77
     0
 78
     0
281
     0
 65
     1
110
0.0
120
0.0
130
0.0
111
1.0
121
0.0
131
0.0
112
0.0
122
1.0
132
0.0
 79
     0
146
0.0
348
2F
 60
     3
 61
     5
292
     1
282
     1
141
0.0
142
0.0
 63
   250
361
6D
  0
ENDTAB
  0
TABLE
  2
LTYPE
  5
5
330
0
100
AcDbSymbolTable
 70
     1
  0
LTYPE
  5
14
330
5
100
AcDbSymbolTableRecord
100
AcDbLinetypeTableRecord
  2
ByBlock
 70
     0
  3

 72
    65
 73
     0
 40
0.0
  0
LTYPE
  5
15
330
5
100
AcDbSymbolTableRecord
100
AcDbLinetypeTableRecord
  2
ByLayer
 70
     0
  3

 72
    65
 73
     0
 40
0.0
  0
LTYPE
  5
16
330
5
100
AcDbSymbolTableRecord
100
AcDbLinetypeTableRecord
  2
Continuous
 70
     0
  3
Solid line
 72
    65
 73
     0
 40
0.0
  0
ENDTAB
  0
TABLE
  2
LAYER
  5
2
330
0
100
AcDbSymbolTable
 70
     2
  0
LAYER
  5
10
330
2
100
AcDbSymbolTableRecord
100
AcDbLayerTableRecord
  2
0
 70
     0
 62
     7
  6
Continuous
370
    -3
390
F
347
46
  0
LAYER
  5
6F
330
2
100
AcDbSymbolTableRecord
100
AcDbLayerTableRecord
  2
layer0
 70
     0
 62
     7
  6
Continuous
370
    -3
390
F
347
46
  0
ENDTAB
  0
TABLE
  2
STYLE
  5
3
330
0
100
AcDbSymbolTable
 70
     2
  0
STYLE
  5
11
330
3
100
AcDbSymbolTableRecord
100
AcDbTextStyleTableRecord
  2
Standard
 70
     0
 40
0.0
 41
1.0
 50
0.0
 71
     0
 42
2.5
  3
txt
  4

  0
STYLE
  5
6E
330
3
100
AcDbSymbolTableRecord
100
AcDbTextStyleTableRecord
  2
MS Gothic
 70
     0
 40
1.0
 41
1.0
 50
0.0
 71
     0
 42
2.5
  3

  4

1001
ACAD
1000
MS Gothic
1071
    32817
  0
ENDTAB
  0
TABLE
  2
VIEW
  5
6
330
0
100
AcDbSymbolTable
 70
     0
  0
ENDTAB
  0
TABLE
  2
UCS
  5
7
330
0
100
AcDbSymbolTable
 70
     0
  0
ENDTAB
  0
TABLE
  2
APPID
  5
9
330
0
100
AcDbSymbolTable
 70
     1
  0
APPID
  5
12
330
9
100
AcDbSymbolTableRecord
100
AcDbRegAppTableRecord
  2
ACAD
 70
     0
  0
ENDTAB
  0
TABLE
  2
DIMSTYLE
  5
A
330
0
100
AcDbSymbolTable
 70
     1
100
AcDbDimStyleTable
  0
DIMSTYLE
105
27
330
A
100
AcDbSymbolTableRecord
100
AcDbDimStyleTableRecord
  2
ISO-25
 70
     0
 41
2.5
 42
0.625
 43
3.75
 44
1.25
 73
     0
 74
     0
 77
     1
 78
     8
140
2.5
141
2.5
143
0.03937007874016
147
0.625
171
     3
172
     1
178
     0
271
     2
272
     2
274
     3
278
    44
283
     0
284
     8
340
11
  0
ENDTAB
  0
TABLE
  2
BLOCK_RECORD
  5
1
330
0
100
AcDbSymbolTable
 70
     1
  0
BLOCK_RECORD
  5
1F
330
1
100
AcDbSymbolTableRecord
100
AcDbBlockTableRecord
  2
*Model_Space
340
22
 70
     0
280
     1
281
     0
  0
BLOCK_RECORD
  5
1B
330
1
100
AcDbSymbolTableRecord
100
AcDbBlockTableRecord
  2
*Paper_Space
340
1E
 70
     0
280
     1
281
     0
  0
BLOCK_RECORD
  5
23
330
1
100
AcDbSymbolTableRecord
100
AcDbBlockTableRecord
  2
*Paper_Space0
340
26
 70
     0
280
     1
281
     0
  0
ENDTAB
  0
ENDSEC
  0
SECTION
  2
BLOCKS
  0
BLOCK
  5
20
330
1F
100
AcDbEntity
  8
0
100
AcDbBlockBegin
  2
*Model_Space
 70
     0
 10
0.0
 20
0.0
 30
0.0
  3
*Model_Space
  1

  0
ENDBLK
  5
21
330
1F
100
AcDbEntity
  8
0
100
AcDbBlockEnd
  0
BLOCK
  5
1C
330
1B
100
AcDbEntity
 67
     1
  8
0
100
AcDbBlockBegin
  2
*Paper_Space
 70
     0
 10
0.0
 20
0.0
 30
0.0
  3
*Paper_Space
  1

  0
ENDBLK
  5
1D
330
1B
100
AcDbEntity
 67
     1
  8
0
100
AcDbBlockEnd
  0
BLOCK
  5
24
330
23
100
AcDbEntity
  8
0
100
AcDbBlockBegin
  2
*Paper_Space0
 70
     0
 10
0.0
 20
0.0
 30
0.0
  3
*Paper_Space0
  1

  0
ENDBLK
  5
25
330
23
100
AcDbEntity
  8
0
100
AcDbBlockEnd
  0
ENDSEC
  0
SECTION
  2
ENTITIES
  0
LINE
  5
70
330
1F
100
AcDbEntity
  8
layer0
  6
Continuous
 62
    18
420
        0
370
     5
100
AcDbLine
 10
104.9161073822446
 20
50.04152917941408
 30
0.0
 11
69.41608379803762
 21
50.04152917941408
 31
0.0
  0
LINE
  5
71
330
1F
100
AcDbEntity
  8
layer0
  6
Continuous
 62
    18
420
        0
370
     5
100
AcDbLine
 10
104.9161073822446
 20
37.02050030528173
 30
0.0
 11
69.41608379803762
 21
37.02050030528173
 31
0.0
  0
LINE
  5
72
330
1F
100
AcDbEntity
  8
layer0
  6
Continuous
 62
    18
420
        0
370
     5
100
AcDbLine
 10
104.9161073822446
 20
47.43802749596701
 30
0.0
 11
69.41608379803762
 21
47.43802749596701
 31
0.0
  0
LINE
  5
73
330
1F
100
AcDbEntity
  8
layer0
  6
Continuous
 62
    18
420
        0
370
     5
100
AcDbLine
 10
104.9161073822446
 20
44.83452581251994
 30
0.0
 11
69.41608379803762
 21
44.83452581251994
 31
0.0
  0
LINE
  5
74
330
1F
100
AcDbEntity
  8
layer0
  6
Continuous
 62
    18
420
        0
370
     5
100
AcDbLine
 10
104.9161073822446
 20
42.22749828921425
 30
0.0
 11
69.41608379803762
 21
42.22749828921425
 31
0.0
  0
LINE
  5
75
330
1F
100
AcDbEntity
  8
layer0
  6
Continuous
 62
    18
420
        0
370
     5
100
AcDbLine
 10
104.9161073822446
 20
39.62399929724799
 30
0.0
 11
69.41608379803762
 21
39.62399929724799
 31
0.0
  0
LINE
  5
76
330
1F
100
AcDbEntity
  8
layer0
  6
Continuous
 62
    18
420
        0
370
     5
100
AcDbLine
 10
122.5832134910161
 20
146.3357469409837
 30
0.0
 11
122.5832134910161
 21
13.50080551428265
 31
0.0
  0
LINE
  5
77
330
1F
100
AcDbEntity
  8
layer0
  6
Continuous
 62
    18
420
        0
370
     9
100
AcDbLine
 10
7.500055523660446
 20
146.1664097344611
 30
0.0
 11
202.5015038489235
 21
146.1664097344611
 31
0.0
  0
LINE
  5
78
330
1F
100
AcDbEntity
  8
layer0
  6
Continuous
 62
    18
420
        0
370
     9
100
AcDbLine
 10
202.5015038489235
 20
138.58168762615
 30
0.0
 11
7.500055523660446
 21
138.58168762615
 31
0.0
  0
LINE
  5
79
330
1F
100
AcDbEntity
  8
layer0
  6
Continuous
 62
    18
420
        0
370
     9
100
AcDbLine
 10
7.500055523660446
 20
146.3322157181635
 30
0.0
 11
202.5015038489235
 21
146.3322157181635
 31
0.0
  0
LINE
  5
7A
330
1F
100
AcDbEntity
  8
layer0
  6
Continuous
 62
    18
420
        0
370
     9
100
AcDbLine
 10
202.5015038489235
 20
146.3322157181635
 30
0.0
 11
202.5015038489235
 21
6.667499765290156
 31
0.0
  0
LINE
  5
7B
330
1F
100
AcDbEntity
  8
layer0
  6
Continuous
 62
    18
420
        0
370
     9
100
AcDbLine
 10
7.500055523660446
 20
146.3322157181635
 30
0.0
 11
7.500055523660446
 21
6.667499765290156
 31
0.0
  0
LINE
  5
7C
330
1F
100
AcDbEntity
  8
layer0
  6
Continuous
 62
    18
420
        0
370
     9
100
AcDbLine
 10
7.665861507362782
 20
146.3322157181635
 30
0.0
 11
7.665861507362782
 21
6.667499765290156
 31
0.0
  0
LINE
  5
7D
330
1F
100
AcDbEntity
  8
layer0
  6
Continuous
 62
    18
420
        0
370
     9
100
AcDbLine
 10
7.500055523660446
 20
146.251083720684
 30
0.0
 11
202.5015038489235
 21
146.251083720684
 31
0.0
  0
LINE
  5
7E
330
1F
100
AcDbEntity
  8
layer0
  6
Continuous
 62
    18
420
        0
370
     9
100
AcDbLine
 10
7.584722108311123
 20
146.3322157181635
 30
0.0
 11
7.584722108311123
 21
6.667499765290156
 31
0.0
  0
LINE
  5
7F
330
1F
100
AcDbEntity
  8
layer0
  6
Continuous
 62
    18
420
        0
370
     9
100
AcDbLine
 10
202.4168406286238
 20
146.3322157181635
 30
0.0
 11
202.4168406286238
 21
6.667499765290156
 31
0.0
  0
LINE
  5
80
330
1F
100
AcDbEntity
  8
layer0
  6
Continuous
 62
    18
420
        0
370
     9
100
AcDbLine
 10
202.3321558764777
 20
146.3322157181635
 30
0.0
 11
202.3321558764777
 21
6.667499765290156
 31
0.0
  0
LINE
  5
81
330
1F
100
AcDbEntity
  8
layer0
  6
Continuous
 62
    18
420
        0
370
     5
100
AcDbLine
 10
164.8318937341901
 20
146.3322157181635
 30
0.0
 11
164.8318937341901
 21
13.5819442404641
 31
0.0
  0
LINE
  5
82
330
1F
100
AcDbEntity
  8
layer0
  6
Continuous
 62
    18
420
        0
370
     9
100
AcDbLine
 10
105.0007813684675
 20
146.3322157181635
 30
0.0
 11
105.0007813684675
 21
13.50080551428265
 31
0.0
  0
LINE
  5
83
330
1F
100
AcDbEntity
  8
layer0
  6
Continuous
 62
    18
420
        0
370
     5
100
AcDbLine
 10
96.9151100862291
 20
146.3357469409837
 30
0.0
 11
96.9151100862291
 21
13.50080551428265
 31
0.0
  0
LINE
  5
84
330
1F
100
AcDbEntity
  8
layer0
  6
Continuous
 62
    18
420
        0
370
     5
100
AcDbLine
 10
164.8318937341901
 20
142.5398546640079
 30
0.0
 11
179.8320007442898
 21
142.5398546640079
 31
0.0
  0
LINE
  5
85
330
1F
100
AcDbEntity
  8
layer0
  6
Continuous
 62
    18
420
        0
370
     5
100
AcDbLine
 10
179.8320007442898
 20
146.3322157181635
 30
0.0
 11
179.8320007442898
 21
13.50080551428265
 31
0.0
  0
LINE
  5
86
330
1F
100
AcDbEntity
  8
layer0
  6
Continuous
 62
    18
420
        0
370
     5
100
AcDbLine
 10
194.3346898032825
 20
146.3322157181635
 30
0.0
 11
194.3346898032825
 21
13.50080551428265
 31
0.0
  0
LINE
  5
87
330
1F
100
AcDbEntity
  8
layer0
  6
Continuous
 62
    18
420
        0
370
     5
100
AcDbLine
 10
25.16716768826377
 20
146.3322157181635
 30
0.0
 11
25.16716768826377
 21
13.5819442404641
 31
0.0
  0
LINE
  5
88
330
1F
100
AcDbEntity
  8
layer0
  6
Continuous
 62
    18
420
        0
370
     9
100
AcDbLine
 10
202.5015038489235
 20
138.7510248326726
 30
0.0
 11
7.500055523660446
 21
138.7510248326726
 31
0.0
  0
LINE
  5
89
330
1F
100
AcDbEntity
  8
layer0
  6
Continuous
 62
    18
420
        0
370
     9
100
AcDbLine
 10
104.9161073822446
 20
146.3322157181635
 30
0.0
 11
104.9161073822446
 21
13.50080551428265
 31
0.0
  0
LINE
  5
8A
330
1F
100
AcDbEntity
  8
layer0
  6
Continuous
 62
    18
420
        0
370
     9
100
AcDbLine
 10
105.0819133659469
 20
146.3322157181635
 30
0.0
 11
105.0819133659469
 21
13.50080551428265
 31
0.0
  0
LINE
  5
8B
330
1F
100
AcDbEntity
  8
layer0
  6
Continuous
 62
    18
420
        0
370
     5
100
AcDbLine
 10
83.16735986206267
 20
146.3357469409837
 30
0.0
 11
83.16735986206267
 21
13.50080551428265
 31
0.0
  0
LINE
  5
8C
330
1F
100
AcDbEntity
  8
layer0
  6
Continuous
 62
    18
420
        0
370
     5
100
AcDbLine
 10
104.9161073822446
 20
133.3746950251791
 30
0.0
 11
69.41608379803762
 21
133.3746950251791
 31
0.0
  0
LINE
  5
8D
330
1F
100
AcDbEntity
  8
layer0
  6
Continuous
 62
    18
420
        0
370
     5
100
AcDbLine
 10
104.9161073822446
 20
120.3536661510467
 30
0.0
 11
69.41608379803762
 21
120.3536661510467
 31
0.0
  0
LINE
  5
8E
330
1F
100
AcDbEntity
  8
layer0
  6
Continuous
 62
    18
420
        0
370
     5
100
AcDbLine
 10
104.9161073822446
 20
130.771193341732
 30
0.0
 11
69.41608379803762
 21
130.771193341732
 31
0.0
  0
LINE
  5
8F
330
1F
100
AcDbEntity
  8
layer0
  6
Continuous
 62
    18
420
        0
370
     5
100
AcDbLine
 10
104.9161073822446
 20
128.1676916582849
 30
0.0
 11
69.41608379803762
 21
128.1676916582849
 31
0.0
  0
LINE
  5
90
330
1F
100
AcDbEntity
  8
layer0
  6
Continuous
 62
    18
420
        0
370
     5
100
AcDbLine
 10
104.9161073822446
 20
125.5641899748379
 30
0.0
 11
69.41608379803762
 21
125.5641899748379
 31
0.0
  0
LINE
  5
91
330
1F
100
AcDbEntity
  8
layer0
  6
Continuous
 62
    18
420
        0
370
     5
100
AcDbLine
 10
104.9161073822446
 20
122.9571678344938
 30
0.0
 11
69.41608379803762
 21
122.9571678344938
 31
0.0
  0
LINE
  5
92
330
1F
100
AcDbEntity
  8
layer0
  6
Continuous
 62
    18
420
        0
370
     5
100
AcDbLine
 10
104.9161073822446
 20
135.9781859427029
 30
0.0
 11
83.16735986206267
 21
135.9781859427029
 31
0.0
  0
LINE
  5
93
330
1F
100
AcDbEntity
  8
layer0
  6
Continuous
 62
    18
420
        0
370
     5
100
AcDbLine
 10
83.16735986206267
 20
142.5433858868281
 30
0.0
 11
69.41608379803762
 21
142.5433858868281
 31
0.0
  0
LINE
  5
94
330
1F
100
AcDbEntity
  8
layer0
  6
Continuous
 62
    18
420
        0
370
     5
100
AcDbLine
 10
69.41608379803762
 20
146.3357469409837
 30
0.0
 11
69.41608379803762
 21
13.50080551428265
 31
0.0
  0
LINE
  5
95
330
1F
100
AcDbEntity
  8
layer0
  6
Continuous
 62
    18
420
        0
370
     5
100
AcDbLine
 10
104.9161073822446
 20
112.5431611007055
 30
0.0
 11
69.41608379803762
 21
112.5431611007055
 31
0.0
  0
LINE
  5
96
330
1F
100
AcDbEntity
  8
layer0
  6
Continuous
 62
    18
420
        0
370
     5
100
AcDbLine
 10
104.9161073822446
 20
99.52214299249641
 30
0.0
 11
69.41608379803762
 21
99.52214299249641
 31
0.0
  0
LINE
  5
97
330
1F
100
AcDbEntity
  8
layer0
  6
Continuous
 62
    18
420
        0
370
     5
100
AcDbLine
 10
104.9161073822446
 20
109.9361389603615
 30
0.0
 11
69.41608379803762
 21
109.9361389603615
 31
0.0
  0
LINE
  5
98
330
1F
100
AcDbEntity
  8
layer0
  6
Continuous
 62
    18
420
        0
370
     5
100
AcDbLine
 10
104.9161073822446
 20
107.3326372769144
 30
0.0
 11
69.41608379803762
 21
107.3326372769144
 31
0.0
  0
LINE
  5
99
330
1F
100
AcDbEntity
  8
layer0
  6
Continuous
 62
    18
420
        0
370
     5
100
AcDbLine
 10
104.9161073822446
 20
104.7291355934673
 30
0.0
 11
69.41608379803762
 21
104.7291355934673
 31
0.0
  0
LINE
  5
9A
330
1F
100
AcDbEntity
  8
layer0
  6
Continuous
 62
    18
420
        0
370
     5
100
AcDbLine
 10
104.9161073822446
 20
102.1256339100203
 30
0.0
 11
69.41608379803762
 21
102.1256339100203
 31
0.0
  0
LINE
  5
9B
330
1F
100
AcDbEntity
  8
layer0
  6
Continuous
 62
    18
420
        0
370
     5
100
AcDbLine
 10
104.9161073822446
 20
115.1466627841526
 30
0.0
 11
83.16735986206267
 21
115.1466627841526
 31
0.0
  0
LINE
  5
9C
330
1F
100
AcDbEntity
  8
layer0
  6
Continuous
 62
    18
420
        0
370
     5
100
AcDbLine
 10
104.9161073822446
 20
91.70810671933496
 30
0.0
 11
69.41608379803762
 21
91.70810671933496
 31
0.0
  0
LINE
  5
9D
330
1F
100
AcDbEntity
  8
layer0
  6
Continuous
 62
    18
420
        0
370
     5
100
AcDbLine
 10
104.9161073822446
 20
78.68708322816423
 30
0.0
 11
69.41608379803762
 21
78.68708322816423
 31
0.0
  0
LINE
  5
9E
330
1F
100
AcDbEntity
  8
layer0
  6
Continuous
 62
    18
420
        0
370
     5
100
AcDbLine
 10
104.9161073822446
 20
89.10461041884952
 30
0.0
 11
69.41608379803762
 21
89.10461041884952
 31
0.0
  0
LINE
  5
9F
330
1F
100
AcDbEntity
  8
layer0
  6
Continuous
 62
    18
420
        0
370
     5
100
AcDbLine
 10
104.9161073822446
 20
86.50110873540244
 30
0.0
 11
69.41608379803762
 21
86.50110873540244
 31
0.0
  0
LINE
  5
A0
330
1F
100
AcDbEntity
  8
layer0
  6
Continuous
 62
    18
420
        0
370
     5
100
AcDbLine
 10
104.9161073822446
 20
83.89408121209675
 30
0.0
 11
69.41608379803762
 21
83.89408121209675
 31
0.0
  0
LINE
  5
A1
330
1F
100
AcDbEntity
  8
layer0
  6
Continuous
 62
    18
420
        0
370
     5
100
AcDbLine
 10
104.9161073822446
 20
81.29057952864969
 30
0.0
 11
69.41608379803762
 21
81.29057952864969
 31
0.0
  0
LINE
  5
A2
330
1F
100
AcDbEntity
  8
layer0
  6
Continuous
 62
    18
420
        0
370
     5
100
AcDbLine
 10
104.9161073822446
 20
29.21000063790214
 30
0.0
 11
69.41608379803762
 21
29.21000063790214
 31
0.0
  0
LINE
  5
A3
330
1F
100
AcDbEntity
  8
layer0
  6
Continuous
 62
    18
420
        0
370
     5
100
AcDbLine
 10
104.9161073822446
 20
16.18897176376979
 30
0.0
 11
69.41608379803762
 21
16.18897176376979
 31
0.0
  0
LINE
  5
A4
330
1F
100
AcDbEntity
  8
layer0
  6
Continuous
 62
    18
420
        0
370
     5
100
AcDbLine
 10
104.9161073822446
 20
26.60297311459645
 30
0.0
 11
69.41608379803762
 21
26.60297311459645
 31
0.0
  0
LINE
  5
A5
330
1F
100
AcDbEntity
  8
layer0
  6
Continuous
 62
    18
420
        0
370
     5
100
AcDbLine
 10
104.9161073822446
 20
23.99947143114938
 30
0.0
 11
69.41608379803762
 21
23.99947143114938
 31
0.0
  0
LINE
  5
A6
330
1F
100
AcDbEntity
  8
layer0
  6
Continuous
 62
    18
420
        0
370
     5
100
AcDbLine
 10
104.9161073822446
 20
21.39597109344272
 30
0.0
 11
69.41608379803762
 21
21.39597109344272
 31
0.0
  0
LINE
  5
A7
330
1F
100
AcDbEntity
  8
layer0
  6
Continuous
 62
    18
420
        0
370
     5
100
AcDbLine
 10
104.9161073822446
 20
18.79247210147646
 30
0.0
 11
69.41608379803762
 21
18.79247210147646
 31
0.0
  0
LINE
  5
A8
330
1F
100
AcDbEntity
  8
layer0
  6
Continuous
 62
    18
420
        0
370
     5
100
AcDbLine
 10
202.3321558764777
 20
16.18897176376979
 30
0.0
 11
164.8318937341901
 21
16.18897176376979
 31
0.0
  0
LINE
  5
A9
330
1F
100
AcDbEntity
  8
layer0
  6
Continuous
 62
    18
420
        0
370
     5
100
AcDbLine
 10
202.3321558764777
 20
91.70810671933496
 30
0.0
 11
164.8318937341901
 21
91.70810671933496
 31
0.0
  0
LINE
  5
AA
330
1F
100
AcDbEntity
  8
layer0
  6
Continuous
 62
    18
420
        0
370
     5
100
AcDbLine
 10
202.3321558764777
 20
78.68708322816423
 30
0.0
 11
164.8318937341901
 21
78.68708322816423
 31
0.0
  0
LINE
  5
AB
330
1F
100
AcDbEntity
  8
layer0
  6
Continuous
 62
    18
420
        0
370
     5
100
AcDbLine
 10
202.3321558764777
 20
89.10461041884952
 30
0.0
 11
164.8318937341901
 21
89.10461041884952
 31
0.0
  0
LINE
  5
AC
330
1F
100
AcDbEntity
  8
layer0
  6
Continuous
 62
    18
420
        0
370
     5
100
AcDbLine
 10
202.3321558764777
 20
86.50110873540244
 30
0.0
 11
164.8318937341901
 21
86.50110873540244
 31
0.0
  0
LINE
  5
AD
330
1F
100
AcDbEntity
  8
layer0
  6
Continuous
 62
    18
420
        0
370
     5
100
AcDbLine
 10
202.3321558764777
 20
83.89408121209675
 30
0.0
 11
164.8318937341901
 21
83.89408121209675
 31
0.0
  0
LINE
  5
AE
330
1F
100
AcDbEntity
  8
layer0
  6
Continuous
 62
    18
420
        0
370
     5
100
AcDbLine
 10
202.3321558764777
 20
81.29057952864969
 30
0.0
 11
164.8318937341901
 21
81.29057952864969
 31
0.0
  0
LINE
  5
AF
330
1F
100
AcDbEntity
  8
layer0
  6
Continuous
 62
    18
420
        0
370
     5
100
AcDbLine
 10
202.3321558764777
 20
70.87657817782302
 30
0.0
 11
164.8318937341901
 21
70.87657817782302
 31
0.0
  0
LINE
  5
B0
330
1F
100
AcDbEntity
  8
layer0
  6
Continuous
 62
    18
420
        0
370
     5
100
AcDbLine
 10
202.3321558764777
 20
57.85555468665229
 30
0.0
 11
164.8318937341901
 21
57.85555468665229
 31
0.0
  0
LINE
  5
B1
330
1F
100
AcDbEntity
  8
layer0
  6
Continuous
 62
    18
420
        0
370
     5
100
AcDbLine
 10
202.3321558764777
 20
68.26955603747896
 30
0.0
 11
164.8318937341901
 21
68.26955603747896
 31
0.0
  0
LINE
  5
B2
330
1F
100
AcDbEntity
  8
layer0
  6
Continuous
 62
    18
420
        0
370
     5
100
AcDbLine
 10
202.3321558764777
 20
65.66605435403189
 30
0.0
 11
164.8318937341901
 21
65.66605435403189
 31
0.0
  0
LINE
  5
B3
330
1F
100
AcDbEntity
  8
layer0
  6
Continuous
 62
    18
420
        0
370
     5
100
AcDbLine
 10
202.3321558764777
 20
63.06255267058481
 30
0.0
 11
164.8318937341901
 21
63.06255267058481
 31
0.0
  0
LINE
  5
B4
330
1F
100
AcDbEntity
  8
layer0
  6
Continuous
 62
    18
420
        0
370
     5
100
AcDbLine
 10
202.3321558764777
 20
60.45905637009935
 30
0.0
 11
164.8318937341901
 21
60.45905637009935
 31
0.0
  0
LINE
  5
B5
330
1F
100
AcDbEntity
  8
layer0
  6
Continuous
 62
    18
420
        0
370
     5
100
AcDbLine
 10
202.3321558764777
 20
50.04152917941408
 30
0.0
 11
164.8318937341901
 21
50.04152917941408
 31
0.0
  0
LINE
  5
B6
330
1F
100
AcDbEntity
  8
layer0
  6
Continuous
 62
    18
420
        0
370
     5
100
AcDbLine
 10
202.3321558764777
 20
37.02050030528173
 30
0.0
 11
164.8318937341901
 21
37.02050030528173
 31
0.0
  0
LINE
  5
B7
330
1F
100
AcDbEntity
  8
layer0
  6
Continuous
 62
    18
420
        0
370
     5
100
AcDbLine
 10
202.3321558764777
 20
47.43802749596701
 30
0.0
 11
164.8318937341901
 21
47.43802749596701
 31
0.0
  0
LINE
  5
B8
330
1F
100
AcDbEntity
  8
layer0
  6
Continuous
 62
    18
420
        0
370
     5
100
AcDbLine
 10
202.3321558764777
 20
44.83452581251994
 30
0.0
 11
164.8318937341901
 21
44.83452581251994
 31
0.0
  0
LINE
  5
B9
330
1F
100
AcDbEntity
  8
layer0
  6
Continuous
 62
    18
420
        0
370
     5
100
AcDbLine
 10
202.3321558764777
 20
42.22749828921425
 30
0.0
 11
164.8318937341901
 21
42.22749828921425
 31
0.0
  0
LINE
  5
BA
330
1F
100
AcDbEntity
  8
layer0
  6
Continuous
 62
    18
420
        0
370
     5
100
AcDbLine
 10
202.3321558764777
 20
39.62399929724799
 30
0.0
 11
164.8318937341901
 21
39.62399929724799
 31
0.0
  0
LINE
  5
BB
330
1F
100
AcDbEntity
  8
layer0
  6
Continuous
 62
    18
420
        0
370
     5
100
AcDbLine
 10
202.3321558764777
 20
29.21000063790214
 30
0.0
 11
164.8318937341901
 21
29.21000063790214
 31
0.0
  0
LINE
  5
BC
330
1F
100
AcDbEntity
  8
layer0
  6
Continuous
 62
    18
420
        0
370
     5
100
AcDbLine
 10
202.3321558764777
 20
26.60297311459645
 30
0.0
 11
164.8318937341901
 21
26.60297311459645
 31
0.0
  0
LINE
  5
BD
330
1F
100
AcDbEntity
  8
layer0
  6
Continuous
 62
    18
420
        0
370
     5
100
AcDbLine
 10
202.3321558764777
 20
23.99947143114938
 30
0.0
 11
164.8318937341901
 21
23.99947143114938
 31
0.0
  0
LINE
  5
BE
330
1F
100
AcDbEntity
  8
layer0
  6
Continuous
 62
    18
420
        0
370
     5
100
AcDbLine
 10
202.3321558764777
 20
21.39597109344272
 30
0.0
 11
164.8318937341901
 21
21.39597109344272
 31
0.0
  0
LINE
  5
BF
330
1F
100
AcDbEntity
  8
layer0
  6
Continuous
 62
    18
420
        0
370
     5
100
AcDbLine
 10
202.3321558764777
 20
18.79247210147646
 30
0.0
 11
164.8318937341901
 21
18.79247210147646
 31
0.0
  0
LINE
  5
C0
330
1F
100
AcDbEntity
  8
layer0
  6
Continuous
 62
    18
420
        0
370
     5
100
AcDbLine
 10
202.4168406286238
 20
34.41699862183467
 30
0.0
 11
105.0819133659469
 21
34.41699862183467
 31
0.0
  0
LINE
  5
C1
330
1F
100
AcDbEntity
  8
layer0
  6
Continuous
 62
    18
420
        0
370
     5
100
AcDbLine
 10
202.3321558764777
 20
52.64502547989954
 30
0.0
 11
164.8318937341901
 21
52.64502547989954
 31
0.0
  0
LINE
  5
C2
330
1F
100
AcDbEntity
  8
layer0
  6
Continuous
 62
    18
420
        0
370
     5
100
AcDbLine
 10
202.3321558764777
 20
31.8134996298684
 30
0.0
 11
164.8318937341901
 21
31.8134996298684
 31
0.0
  0
LINE
  5
C3
330
1F
100
AcDbEntity
  8
layer0
  6
Continuous
 62
    18
420
        0
370
     5
100
AcDbLine
 10
25.16716768826377
 20
117.7501644675997
 30
0.0
 11
104.9161073822446
 21
117.7501644675997
 31
0.0
  0
LINE
  5
C4
330
1F
100
AcDbEntity
  8
layer0
  6
Continuous
 62
    18
420
        0
370
     9
100
AcDbLine
 10
202.5015038489235
 20
6.667499765290156
 30
0.0
 11
7.500055523660446
 21
6.667499765290156
 31
0.0
  0
LINE
  5
C5
330
1F
100
AcDbEntity
  8
layer0
  6
Continuous
 62
    18
420
        0
370
     9
100
AcDbLine
 10
202.5015038489235
 20
6.748639164341815
 30
0.0
 11
7.500055523660446
 21
6.748639164341815
 31
0.0
  0
LINE
  5
C6
330
1F
100
AcDbEntity
  8
layer0
  6
Continuous
 62
    18
420
        0
370
     9
100
AcDbLine
 10
202.5015038489235
 20
6.83330507612229
 30
0.0
 11
7.500055523660446
 21
6.83330507612229
 31
0.0
  0
LINE
  5
C7
330
1F
100
AcDbEntity
  8
layer0
  6
Continuous
 62
    18
420
        0
370
     9
100
AcDbLine
 10
177.3343280862173
 20
13.50080551428265
 30
0.0
 11
177.3343280862173
 21
6.83330507612229
 31
0.0
  0
LINE
  5
C8
330
1F
100
AcDbEntity
  8
layer0
  6
Continuous
 62
    18
420
        0
370
     9
100
AcDbLine
 10
152.3329690731367
 20
13.50080551428265
 30
0.0
 11
152.3329690731367
 21
6.83330507612229
 31
0.0
  0
LINE
  5
C9
330
1F
100
AcDbEntity
  8
layer0
  6
Continuous
 62
    18
420
        0
370
     9
100
AcDbLine
 10
105.0007813684675
 20
13.50080551428265
 30
0.0
 11
105.0007813684675
 21
6.83330507612229
 31
0.0
  0
LINE
  5
CA
330
1F
100
AcDbEntity
  8
layer0
  6
Continuous
 62
    18
420
        0
370
     9
100
AcDbLine
 10
105.0007813684675
 20
10.16705529520247
 30
0.0
 11
202.3321558764777
 21
10.16705529520247
 31
0.0
  0
LINE
  5
CB
330
1F
100
AcDbEntity
  8
layer0
  6
Continuous
 62
    18
420
        0
370
     9
100
AcDbLine
 10
202.5015038489235
 20
13.50080551428265
 30
0.0
 11
7.500055523660446
 21
13.50080551428265
 31
0.0
  0
LINE
  5
CC
330
1F
100
AcDbEntity
  8
layer0
  6
Continuous
 62
    18
420
        0
370
     9
100
AcDbLine
 10
202.5015038489235
 20
13.5819442404641
 30
0.0
 11
7.500055523660446
 21
13.5819442404641
 31
0.0
  0
TEXT
  5
CD
330
1F
100
AcDbEntity
  8
layer0
  6
Continuous
 62
    18
420
        0
100
AcDbText
 10
74.16799544101296
 20
143.5154522200454
 30
0.0
 40
1.524190497618039
  1
寸
 41
0.8239988185875998
  7
MS Gothic
100
AcDbText
  0
TEXT
  5
CE
330
1F
100
AcDbEntity
  8
layer0
  6
Continuous
 62
    18
420
        0
100
AcDbText
 10
76.41519351212183
 20
143.5154522200454
 30
0.0
 40
1.524190497618039
  1
法
 41
0.8870012005868038
  7
MS Gothic
100
AcDbText
  0
TEXT
  5
CF
330
1F
100
AcDbEntity
  8
layer0
  6
Continuous
 62
    18
420
        0
100
AcDbText
 10
98.79189041964209
 20
143.5154522200454
 30
0.0
 40
1.524190497618039
  1
発
 41
0.9020016395797372
  7
MS Gothic
100
AcDbText
  0
TEXT
  5
D0
330
1F
100
AcDbEntity
  8
layer0
  6
Continuous
 62
    18
420
        0
100
AcDbText
 10
101.0426035646863
 20
143.5154522200454
 30
0.0
 40
1.524190497618039
  1
注
 41
0.8939981760768697
  7
MS Gothic
100
AcDbText
  0
TEXT
  5
D1
330
1F
100
AcDbEntity
  8
layer0
  6
Continuous
 62
    18
420
        0
100
AcDbText
 10
170.2082127757603
 20
143.5154522200454
 30
0.0
 40
1.524190497618039
  1
寸
 41
0.824001509732019
  7
MS Gothic
100
AcDbText
  0
TEXT
  5
D2
330
1F
100
AcDbEntity
  8
layer0
  6
Continuous
 62
    18
420
        0
100
AcDbText
 10
172.4589366867278
 20
143.5154522200454
 30
0.0
 40
1.524190497618039
  1
法
 41
0.8869958182979654
  7
MS Gothic
100
AcDbText
  0
TEXT
  5
D3
330
1F
100
AcDbEntity
  8
layer0
  6
Continuous
 62
    18
420
        0
100
AcDbText
 10
196.2079389138752
 20
143.5154522200454
 30
0.0
 40
1.524190497618039
  1
発
 41
0.9020070218685758
  7
MS Gothic
100
AcDbText
  0
TEXT
  5
D4
330
1F
100
AcDbEntity
  8
layer0
  6
Continuous
 62
    18
420
        0
100
AcDbText
 10
198.4586628248427
 20
143.5154522200454
 30
0.0
 40
1.524190497618039
  1
注
 41
0.8940089406545467
  7
MS Gothic
100
AcDbText
  0
TEXT
  5
D5
330
1F
100
AcDbEntity
  8
layer0
  6
Continuous
 62
    18
420
        0
100
AcDbText
 10
13.16566636127896
 20
141.7021800677804
 30
0.0
 40
1.524190497618039
  1
部
 41
0.8860000948628406
  7
MS Gothic
100
AcDbText
  0
TEXT
  5
D6
330
1F
100
AcDbEntity
  8
layer0
  6
Continuous
 62
    18
420
        0
100
AcDbText
 10
15.41638892650604
 20
141.7021800677804
 30
0.0
 40
1.524190497618039
  1
材
 41
0.9030000541592814
  7
MS Gothic
100
AcDbText
  0
TEXT
  5
D7
330
1F
100
AcDbEntity
  8
layer0
  6
Continuous
 62
    18
420
        0
100
AcDbText
 10
17.66711149173312
 20
141.7021800677804
 30
0.0
 40
1.524190497618039
  1
名
 41
0.7580005200636588
  7
MS Gothic
100
AcDbText
  0
TEXT
  5
D8
330
1F
100
AcDbEntity
  8
layer0
  6
Continuous
 62
    18
420
        0
100
AcDbText
 10
87.9157456651794
 20
141.7021800677804
 30
0.0
 40
1.524190497618039
  1
品
 41
0.7899988999947185
  7
MS Gothic
100
AcDbText
  0
TEXT
  5
D9
330
1F
100
AcDbEntity
  8
layer0
  6
Continuous
 62
    18
420
        0
100
AcDbText
 10
90.16646957614688
 20
141.7021800677804
 30
0.0
 40
1.524190497618039
  1
番
 41
0.8980025989727228
  7
MS Gothic
100
AcDbText
  0
TEXT
  5
DA
330
1F
100
AcDbEntity
  8
layer0
  6
Continuous
 62
    18
420
        0
100
AcDbText
 10
110.54290639374
 20
141.7021800677804
 30
0.0
 40
1.524190497618039
  1
部
 41
0.8860000948628406
  7
MS Gothic
100
AcDbText
  0
TEXT
  5
DB
330
1F
100
AcDbEntity
  8
layer0
  6
Continuous
 62
    18
420
        0
100
AcDbText
 10
112.7901098478105
 20
141.7021800677804
 30
0.0
 40
1.524190497618039
  1
材
 41
0.902997363014862
  7
MS Gothic
100
AcDbText
  0
TEXT
  5
DC
330
1F
100
AcDbEntity
  8
layer0
  6
Continuous
 62
    18
420
        0
100
AcDbText
 10
115.040833758778
 20
141.7021800677804
 30
0.0
 40
1.524190497618039
  1
名
 41
0.7579985017053444
  7
MS Gothic
100
AcDbText
  0
TEXT
  5
DD
330
1F
100
AcDbEntity
  8
layer0
  6
Continuous
 62
    18
420
        0
100
AcDbText
 10
41.91705481836532
 20
141.7021800677804
 30
0.0
 40
1.524190497618039
  1
断
 41
0.8589998429044444
  7
MS Gothic
100
AcDbText
  0
TEXT
  5
DE
330
1F
100
AcDbEntity
  8
layer0
  6
Continuous
 62
    18
420
        0
100
AcDbText
 10
44.16777603785199
 20
141.7021800677804
 30
0.0
 40
1.524190497618039
  1
面
 41
0.8479997900907352
  7
MS Gothic
100
AcDbText
  0
TEXT
  5
DF
330
1F
100
AcDbEntity
  8
layer0
  6
Continuous
 62
    18
420
        0
100
AcDbText
 10
46.41497410896086
 20
141.7021800677804
 30
0.0
 40
1.524190497618039
  1
形
 41
0.8990010135522667
  7
MS Gothic
100
AcDbText
  0
TEXT
  5
E0
330
1F
100
AcDbEntity
  8
layer0
  6
Continuous
 62
    18
420
        0
100
AcDbText
 10
48.66569263696672
 20
141.7021800677804
 30
0.0
 40
1.524190497618039
  1
状
 41
0.8900018266142744
  7
MS Gothic
100
AcDbText
  0
TEXT
  5
E1
330
1F
100
AcDbEntity
  8
layer0
  6
Continuous
 62
    18
420
        0
100
AcDbText
 10
139.3331060040792
 20
141.7021800677804
 30
0.0
 40
1.524190497618039
  1
断
 41
0.8589971517600251
  7
MS Gothic
100
AcDbText
  0
TEXT
  5
E2
330
1F
100
AcDbEntity
  8
layer0
  6
Continuous
 62
    18
420
        0
100
AcDbText
 10
141.5838299150467
 20
141.7021800677804
 30
0.0
 40
1.524190497618039
  1
面
 41
0.8480011356629448
  7
MS Gothic
100
AcDbText
  0
TEXT
  5
E3
330
1F
100
AcDbEntity
  8
layer0
  6
Continuous
 62
    18
420
        0
100
AcDbText
 10
143.8345538260142
 20
141.7021800677804
 30
0.0
 40
1.524190497618039
  1
形
 41
0.8989983224078475
  7
MS Gothic
100
AcDbText
  0
TEXT
  5
E4
330
1F
100
AcDbEntity
  8
layer0
  6
Continuous
 62
    18
420
        0
100
AcDbText
 10
146.0817465141615
 20
141.7021800677804
 30
0.0
 40
1.524190497618039
  1
状
 41
0.8899991354698552
  7
MS Gothic
100
AcDbText
  0
TEXT
  5
E5
330
1F
100
AcDbEntity
  8
layer0
  6
Continuous
 62
    18
420
        0
100
AcDbText
 10
184.9578721137045
 20
141.7021800677804
 30
0.0
 40
1.524190497618039
  1
品
 41
0.7900015911391377
  7
MS Gothic
100
AcDbText
  0
TEXT
  5
E6
330
1F
100
AcDbEntity
  8
layer0
  6
Continuous
 62
    18
420
        0
100
AcDbText
 10
187.2085744928255
 20
141.7021800677804
 30
0.0
 40
1.524190497618039
  1
番
 41
0.8979918343950457
  7
MS Gothic
100
AcDbText
  0
TEXT
  5
E7
330
1F
100
AcDbEntity
  8
layer0
  6
Continuous
 62
    18
420
        0
100
AcDbText
 10
165.5833013461961
 20
139.8888971495922
 30
0.0
 40
1.524190497618039
  1
長
 41
0.6592496483851619
  7
MS Gothic
100
AcDbText
  0
TEXT
  5
E8
330
1F
100
AcDbEntity
  8
layer0
  6
Continuous
 62
    18
420
        0
100
AcDbText
 10
167.0826068792343
 20
139.8888971495922
 30
0.0
 40
1.524190497618039
  1
さ
 41
0.5810019332508721
  7
MS Gothic
100
AcDbText
  0
TEXT
  5
E9
330
1F
100
AcDbEntity
  8
layer0
  6
Continuous
 62
    18
420
        0
100
AcDbText
 10
168.5819124122726
 20
139.8888971495922
 30
0.0
 40
1.524190497618039
  1
×
 41
0.4550007434286458
  7
MS Gothic
100
AcDbText
  0
TEXT
  5
EA
330
1F
100
AcDbEntity
  8
layer0
  6
Continuous
 62
    18
420
        0
100
AcDbText
 10
170.0847491681311
 20
139.8888971495922
 30
0.0
 40
1.524190497618039
  1
幅
 41
0.6675006971746009
  7
MS Gothic
100
AcDbText
  0
TEXT
  5
EB
330
1F
100
AcDbEntity
  8
layer0
  6
Continuous
 62
    18
420
        0
100
AcDbText
 10
171.5840439352461
 20
139.8888971495922
 30
0.0
 40
1.524190497618039
  1
×
 41
0.4550007434286458
  7
MS Gothic
100
AcDbText
  0
TEXT
  5
EC
330
1F
100
AcDbEntity
  8
layer0
  6
Continuous
 62
    18
420
        0
100
AcDbText
 10
173.0833602342075
 20
139.8888971495922
 30
0.0
 40
1.524190497618039
  1
厚
 41
0.673501949229542
  7
MS Gothic
100
AcDbText
  0
TEXT
  5
ED
330
1F
100
AcDbEntity
  8
layer0
  6
Continuous
 62
    18
420
        0
100
AcDbText
 10
174.5826550013226
 20
139.8888971495922
 30
0.0
 40
1.524190497618039
  1
さ
 41
0.5810019332508721
  7
MS Gothic
100
AcDbText
  0
TEXT
  5
EE
330
1F
100
AcDbEntity
  8
layer0
  6
Continuous
 62
    18
420
        0
100
AcDbText
 10
176.081971300284
 20
139.8888971495922
 30
0.0
 40
1.524190497618039
  1
(
 41
0.5974878839632348
  7
MS Gothic
100
AcDbText
  0
TEXT
  5
EF
330
1F
100
AcDbEntity
  8
layer0
  6
Continuous
 62
    18
420
        0
100
AcDbText
 10
176.8333896782133
 20
139.8888971495922
 30
0.0
 40
1.524190497618039
  1
㎜
 41
0.6704986320576521
  7
MS Gothic
100
AcDbText
  0
TEXT
  5
F0
330
1F
100
AcDbEntity
  8
layer0
  6
Continuous
 62
    18
420
        0
100
AcDbText
 10
178.3326952112515
 20
139.8888971495922
 30
0.0
 40
1.524190497618039
  1
)
 41
0.5975058389424069
  7
MS Gothic
100
AcDbText
  0
TEXT
  5
F1
330
1F
100
AcDbEntity
  8
layer0
  6
Continuous
 62
    18
420
        0
100
AcDbText
 10
196.2079389138752
 20
139.8888971495922
 30
0.0
 40
1.524190497618039
  1
単
 41
0.8900045177586936
  7
MS Gothic
100
AcDbText
  0
TEXT
  5
F2
330
1F
100
AcDbEntity
  8
layer0
  6
Continuous
 62
    18
420
        0
100
AcDbText
 10
198.4586628248427
 20
139.8888971495922
 30
0.0
 40
1.524190497618039
  1
位
 41
0.9019962572908988
  7
MS Gothic
100
AcDbText
  0
TEXT
  5
F3
330
1F
100
AcDbEntity
  8
layer0
  6
Continuous
 62
    18
420
        0
100
AcDbText
 10
98.79189041964209
 20
139.8077543861895
 30
0.0
 40
1.524190497618039
  1
単
 41
0.8899991354698552
  7
MS Gothic
100
AcDbText
  0
TEXT
  5
F4
330
1F
100
AcDbEntity
  8
layer0
  6
Continuous
 62
    18
420
        0
100
AcDbText
 10
101.0426035646863
 20
139.8077543861895
 30
0.0
 40
1.524190497618039
  1
位
 41
0.9020016395797372
  7
MS Gothic
100
AcDbText
  0
TEXT
  5
F5
330
1F
100
AcDbEntity
  8
layer0
  6
Continuous
 62
    18
420
        0
100
AcDbText
 10
69.99110790676545
 20
139.7231019318131
 30
0.0
 40
1.524190497618039
  1
長
 41
0.6153005688742907
  7
MS Gothic
100
AcDbText
  0
TEXT
  5
F6
330
1F
100
AcDbEntity
  8
layer0
  6
Continuous
 62
    18
420
        0
100
AcDbText
 10
71.39164147710795
 20
139.7231019318131
 30
0.0
 40
1.524190497618039
  1
さ
 41
0.5422678290840722
  7
MS Gothic
100
AcDbText
  0
TEXT
  5
F7
330
1F
100
AcDbEntity
  8
layer0
  6
Continuous
 62
    18
420
        0
100
AcDbText
 10
72.79216428152722
 20
139.7231019318131
 30
0.0
 40
1.524190497618039
  1
×
 41
0.4246652805030287
  7
MS Gothic
100
AcDbText
  0
TEXT
  5
F8
330
1F
100
AcDbEntity
  8
layer0
  6
Continuous
 62
    18
420
        0
100
AcDbText
 10
74.19269246890812
 20
139.7231019318131
 30
0.0
 40
1.524190497618039
  1
幅
 41
0.6229999330577825
  7
MS Gothic
100
AcDbText
  0
TEXT
  5
F9
330
1F
100
AcDbEntity
  8
layer0
  6
Continuous
 62
    18
420
        0
100
AcDbText
 10
75.59322065628899
 20
139.7231019318131
 30
0.0
 40
1.524190497618039
  1
×
 41
0.4246652805030287
  7
MS Gothic
100
AcDbText
  0
TEXT
  5
FA
330
1F
100
AcDbEntity
  8
layer0
  6
Continuous
 62
    18
420
        0
100
AcDbText
 10
76.99021762084966
 20
139.7231019318131
 30
0.0
 40
1.524190497618039
  1
厚
 41
0.6286002045942544
  7
MS Gothic
100
AcDbText
  0
TEXT
  5
FB
330
1F
100
AcDbEntity
  8
layer0
  6
Continuous
 62
    18
420
        0
100
AcDbText
 10
78.39074580823055
 20
139.7231019318131
 30
0.0
 40
1.524190497618039
  1
さ
 41
0.5422678290840722
  7
MS Gothic
100
AcDbText
  0
TEXT
  5
FC
330
1F
100
AcDbEntity
  8
layer0
  6
Continuous
 62
    18
420
        0
100
AcDbText
 10
79.79127937857305
 20
139.7231019318131
 30
0.0
 40
1.524190497618039
  1
(
 41
0.5576679030232652
  7
MS Gothic
100
AcDbText
  0
TEXT
  5
FD
330
1F
100
AcDbEntity
  8
layer0
  6
Continuous
 62
    18
420
        0
100
AcDbText
 10
80.49330908367361
 20
139.7231019318131
 30
0.0
 40
1.524190497618039
  1
㎜
 41
0.6257987232538088
  7
MS Gothic
100
AcDbText
  0
TEXT
  5
FE
330
1F
100
AcDbEntity
  8
layer0
  6
Continuous
 62
    18
420
        0
100
AcDbText
 10
81.89030604823428
 20
139.7231019318131
 30
0.0
 40
1.524190497618039
  1
)
 41
0.5576679030232652
  7
MS Gothic
100
AcDbText
  0
TEXT
  5
FF
330
1F
100
AcDbEntity
  8
layer0
  6
Continuous
 62
    18
420
        0
100
AcDbText
 10
106.5000761355825
 20
12.3645192654714
 30
0.0
 40
0.7607511347322468
  1
図
 41
0.7960019814859122
  7
MS Gothic
100
AcDbText
  0
TEXT
  5
100
330
1F
100
AcDbEntity
  8
layer0
  6
Continuous
 62
    18
420
        0
100
AcDbText
 10
107.4984432606167
 20
12.3645192654714
 30
0.0
 40
0.7607511347322468
  1
面
 41
0.8480004852618559
  7
MS Gothic
100
AcDbText
  0
TEXT
  5
101
330
1F
100
AcDbEntity
  8
layer0
  6
Continuous
 62
    18
420
        0
100
AcDbText
 10
108.500330842548
 20
12.3645192654714
 30
0.0
 40
0.7607511347322468
  1
名
 41
0.758000586358076
  7
MS Gothic
100
AcDbText
  0
TEXT
  5
102
330
1F
100
AcDbEntity
  8
layer0
  6
Continuous
 62
    18
420
        0
100
AcDbText
 10
153.8322746061749
 20
12.3645192654714
 30
0.0
 40
0.7607511347322468
  1
Ｓ
 41
0.6010022005277222
  7
MS Gothic
100
AcDbText
  0
TEXT
  5
103
330
1F
100
AcDbEntity
  8
layer0
  6
Continuous
 62
    18
420
        0
100
AcDbText
 10
154.8341621881061
 20
12.3645192654714
 30
0.0
 40
0.7607511347322468
  1
Ｃ
 41
0.6449992754770898
  7
MS Gothic
100
AcDbText
  0
TEXT
  5
104
330
1F
100
AcDbEntity
  8
layer0
  6
Continuous
 62
    18
420
        0
100
AcDbText
 10
155.8325293131404
 20
12.3645192654714
 30
0.0
 40
0.7607511347322468
  1
Ａ
 41
0.6880042595207364
  7
MS Gothic
100
AcDbText
  0
TEXT
  5
105
330
1F
100
AcDbEntity
  8
layer0
  6
Continuous
 62
    18
420
        0
100
AcDbText
 10
156.8344168950716
 20
12.3645192654714
 30
0.0
 40
0.7607511347322468
  1
Ｌ
 41
0.5319979645961037
  7
MS Gothic
100
AcDbText
  0
TEXT
  5
106
330
1F
100
AcDbEntity
  8
layer0
  6
Continuous
 62
    18
420
        0
100
AcDbText
 10
157.8327732541827
 20
12.3645192654714
 30
0.0
 40
0.7607511347322468
  1
Ｅ
 41
0.5859914337802908
  7
MS Gothic
100
AcDbText
  0
TEXT
  5
107
330
1F
100
AcDbEntity
  8
layer0
  6
Continuous
 62
    18
420
        0
100
AcDbText
 10
178.8336336192555
 20
12.3645192654714
 30
0.0
 40
0.7607511347322468
  1
Ｄ
 41
0.608992845757497
  7
MS Gothic
100
AcDbText
  0
TEXT
  5
108
330
1F
100
AcDbEntity
  8
layer0
  6
Continuous
 62
    18
420
        0
100
AcDbText
 10
179.8320007442898
 20
12.3645192654714
 30
0.0
 40
0.7607511347322468
  1
Ａ
 41
0.6880150431175378
  7
MS Gothic
100
AcDbText
  0
TEXT
  5
109
330
1F
100
AcDbEntity
  8
layer0
  6
Continuous
 62
    18
420
        0
100
AcDbText
 10
180.8338775602978
 20
12.3645192654714
 30
0.0
 40
0.7607511347322468
  1
Ｔ
 41
0.5900137153871815
  7
MS Gothic
100
AcDbText
  0
TEXT
  5
10A
330
1F
100
AcDbEntity
  8
layer0
  6
Continuous
 62
    18
420
        0
100
AcDbText
 10
181.8322662171785
 20
12.3645192654714
 30
0.0
 40
0.7607511347322468
  1
Ｅ
 41
0.5860022173770922
  7
MS Gothic
100
AcDbText
  0
TEXT
  5
10B
330
1F
100
AcDbEntity
  8
layer0
  6
Continuous
 62
    18
420
        0
100
AcDbText
 10
127.1728557560709
 20
11.13252013318406
 30
0.0
 40
1.142470816175143
  1
洋
 41
0.8859935087316176
  7
MS Gothic
100
AcDbText
  0
TEXT
  5
10C
330
1F
100
AcDbEntity
  8
layer0
  6
Continuous
 62
    18
420
        0
100
AcDbText
 10
128.9226304931112
 20
11.13252013318406
 30
0.0
 40
1.142470816175143
  1
風
 41
0.9260038488051471
  7
MS Gothic
100
AcDbText
  0
TEXT
  5
10D
330
1F
100
AcDbEntity
  8
layer0
  6
Continuous
 62
    18
420
        0
100
AcDbText
 10
130.6724159960747
 20
11.13252013318406
 30
0.0
 40
1.142470816175143
  1
造
 41
0.8979994829963236
  7
MS Gothic
100
AcDbText
  0
TEXT
  5
10E
330
1F
100
AcDbEntity
  8
layer0
  6
Continuous
 62
    18
420
        0
100
AcDbText
 10
132.4221907331149
 20
11.13252013318406
 30
0.0
 40
1.142470816175143
  1
作
 41
0.8750000000000001
  7
MS Gothic
100
AcDbText
  0
TEXT
  5
10F
330
1F
100
AcDbEntity
  8
layer0
  6
Continuous
 62
    18
420
        0
100
AcDbText
 10
134.1719654701552
 20
11.13252013318406
 30
0.0
 40
1.142470816175143
  1
材
 41
0.9030043658088236
  7
MS Gothic
100
AcDbText
  0
TEXT
  5
110
330
1F
100
AcDbEntity
  8
layer0
  6
Continuous
 62
    18
420
        0
100
AcDbText
 10
164.3344650171599
 20
11.13252013318406
 30
0.0
 40
1.142470816175143
  1
1
 41
0.6210075827205883
  7
MS Gothic
100
AcDbText
  0
TEXT
  5
111
330
1F
100
AcDbEntity
  8
layer0
  6
Continuous
 62
    18
420
        0
100
AcDbText
 10
165.2093577686416
 20
11.13252013318406
 30
0.0
 40
1.142470816175143
  1
/
 41
0.9060058593750001
  7
MS Gothic
100
AcDbText
  0
TEXT
  5
112
330
1F
100
AcDbEntity
  8
layer0
  6
Continuous
 62
    18
420
        0
100
AcDbText
 10
166.0842505201233
 20
11.13252013318406
 30
0.0
 40
1.142470816175143
  1
2
 41
0.7959989659926472
  7
MS Gothic
100
AcDbText
  0
TEXT
  5
113
330
1F
100
AcDbEntity
  8
layer0
  6
Continuous
 62
    18
420
        0
100
AcDbText
 10
113.3333906318876
 20
11.11840869930718
 30
0.0
 40
1.142470816175143
  1
Ｓ
 41
0.6242550120634192
  7
MS Gothic
100
AcDbText
  0
TEXT
  5
114
330
1F
100
AcDbEntity
  8
layer0
  6
Continuous
 62
    18
420
        0
100
AcDbText
 10
114.5786957381036
 20
11.11840869930718
 30
0.0
 40
1.142470816175143
  1
Ｏ
 41
0.7861058852251838
  7
MS Gothic
100
AcDbText
  0
TEXT
  5
115
330
1F
100
AcDbEntity
  8
layer0
  6
Continuous
 62
    18
420
        0
100
AcDbText
 10
115.8239900783964
 20
11.11840869930718
 30
0.0
 40
1.142470816175143
  1
Ｆ
 41
0.5741038602941176
  7
MS Gothic
100
AcDbText
  0
TEXT
  5
116
330
1F
100
AcDbEntity
  8
layer0
  6
Continuous
 62
    18
420
        0
100
AcDbText
 10
117.0692951846124
 20
11.11840869930718
 30
0.0
 40
1.142470816175143
  1
Ｔ
 41
0.7829912971047795
  7
MS Gothic
100
AcDbText
  0
TEXT
  5
117
330
1F
100
AcDbEntity
  8
layer0
  6
Continuous
 62
    18
420
        0
100
AcDbText
 10
118.3146002908284
 20
11.11840869930718
 30
0.0
 40
1.142470816175143
  1
Ａ
 41
0.8639167336856618
  7
MS Gothic
100
AcDbText
  0
TEXT
  5
118
330
1F
100
AcDbEntity
  8
layer0
  6
Continuous
 62
    18
420
        0
100
AcDbText
 10
119.5599161629677
 20
11.11840869930718
 30
0.0
 40
1.142470816175143
  1
Ｒ
 41
0.6488037109375001
  7
MS Gothic
100
AcDbText
  0
TEXT
  5
119
330
1F
100
AcDbEntity
  8
layer0
  6
Continuous
 62
    18
420
        0
100
AcDbText
 10
120.8016900463634
 20
11.11840869930718
 30
0.0
 40
1.142470816175143
  1
Ｔ
 41
0.7829912971047795
  7
MS Gothic
100
AcDbText
  0
TEXT
  5
11A
330
1F
100
AcDbEntity
  8
layer0
  6
Continuous
 62
    18
420
        0
100
AcDbText
 10
153.8322746061749
 20
9.030768373521015
 30
0.0
 40
0.7607511347322468
  1
Ｆ
 41
0.5319979645961037
  7
MS Gothic
100
AcDbText
  0
TEXT
  5
11B
330
1F
100
AcDbEntity
  8
layer0
  6
Continuous
 62
    18
420
        0
100
AcDbText
 10
154.8341621881061
 20
9.030768373521015
 30
0.0
 40
0.7607511347322468
  1
Ｉ
 41
0.2000033698740004
  7
MS Gothic
100
AcDbText
  0
TEXT
  5
11C
330
1F
100
AcDbEntity
  8
layer0
  6
Continuous
 62
    18
420
        0
100
AcDbText
 10
155.8325293131404
 20
9.030768373521015
 30
0.0
 40
0.7607511347322468
  1
Ｌ
 41
0.5319979645961037
  7
MS Gothic
100
AcDbText
  0
TEXT
  5
11D
330
1F
100
AcDbEntity
  8
layer0
  6
Continuous
 62
    18
420
        0
100
AcDbText
 10
156.8344168950716
 20
9.030768373521015
 30
0.0
 40
0.7607511347322468
  1
Ｅ
 41
0.5859914337802908
  7
MS Gothic
100
AcDbText
  0
TEXT
  5
11E
330
1F
100
AcDbEntity
  8
layer0
  6
Continuous
 62
    18
420
        0
100
AcDbText
 10
178.8336336192555
 20
9.030768373521015
 30
0.0
 40
0.7607511347322468
  1
Ｎ
 41
0.5860022173770922
  7
MS Gothic
100
AcDbText
  0
TEXT
  5
11F
330
1F
100
AcDbEntity
  8
layer0
  6
Continuous
 62
    18
420
        0
100
AcDbText
 10
179.8320007442898
 20
9.030768373521015
 30
0.0
 40
0.7607511347322468
  1
Ｏ
 41
0.6920049739340245
  7
MS Gothic
100
AcDbText
  0
TEXT
  5
120
330
1F
100
AcDbEntity
  8
layer0
  6
Continuous
 62
    18
420
        0
100
AcDbText
 10
180.8338775602978
 20
9.030768373521015
 30
0.0
 40
0.7607511347322468
  1
．
 41
0.08999989890378
  7
MS Gothic
100
AcDbText
  0
TEXT
  5
121
330
1F
100
AcDbEntity
  8
layer0
  6
Continuous
 62
    18
420
        0
100
AcDbText
 10
128.0830284379853
 20
8.88260168216478
 30
0.0
 40
0.7607511347322468
  1
株
 41
0.9339996697523478
  7
MS Gothic
100
AcDbText
  0
TEXT
  5
122
330
1F
100
AcDbEntity
  8
layer0
  6
Continuous
 62
    18
420
        0
100
AcDbText
 10
129.0849160199165
 20
8.88260168216478
 30
0.0
 40
0.7607511347322468
  1
式
 41
0.8480004852618559
  7
MS Gothic
100
AcDbText
  0
TEXT
  5
123
330
1F
100
AcDbEntity
  8
layer0
  6
Continuous
 62
    18
420
        0
100
AcDbText
 10
131.5825779120658
 20
7.660734595063165
 30
0.0
 40
1.524190497618039
  1
ウ
 41
0.7379979163814333
  7
MS Gothic
100
AcDbText
  0
TEXT
  5
124
330
1F
100
AcDbEntity
  8
layer0
  6
Continuous
 62
    18
420
        0
100
AcDbText
 10
135.5195791448488
 20
7.660734595063165
 30
0.0
 40
1.524190497618039
  1
ッ
 41
0.7746629930302723
  7
MS Gothic
100
AcDbText
  0
TEXT
  5
125
330
1F
100
AcDbEntity
  8
layer0
  6
Continuous
 62
    18
420
        0
100
AcDbText
 10
139.4565803776317
 20
7.660734595063165
 30
0.0
 40
1.524190497618039
  1
ド
 41
0.6614967539752408
  7
MS Gothic
100
AcDbText
  0
TEXT
  5
126
330
1F
100
AcDbEntity
  8
layer0
  6
Continuous
 62
    18
420
        0
100
AcDbText
 10
143.3971020673117
 20
7.660734595063165
 30
0.0
 40
1.524190497618039
  1
ワ
 41
0.6880018353604939
  7
MS Gothic
100
AcDbText
  0
TEXT
  5
127
330
1F
100
AcDbEntity
  8
layer0
  6
Continuous
 62
    18
420
        0
100
AcDbText
 10
147.3341140660179
 20
7.660734595063165
 30
0.0
 40
1.524190497618039
  1
ン
 41
0.8936689313768263
  7
MS Gothic
100
AcDbText
  0
TEXT
  5
128
330
1F
100
AcDbEntity
  8
layer0
  6
Continuous
 62
    18
420
        0
100
AcDbText
 10
128.0830284379853
 20
7.683157390308226
 30
0.0
 40
0.7607511347322468
  1
会
 41
0.8910054693055025
  7
MS Gothic
100
AcDbText
  0
TEXT
  5
129
330
1F
100
AcDbEntity
  8
layer0
  6
Continuous
 62
    18
420
        0
100
AcDbText
 10
129.0849160199165
 20
7.683157390308226
 30
0.0
 40
0.7607511347322468
  1
社
 41
0.9029968289485655
  7
MS Gothic
100
AcDbText
  0
TEXT
  5
12A
330
1F
100
AcDbEntity
  8
layer0
  6
Continuous
 62
    18
420
        0
100
AcDbText
 10
200.9739700651699
 20
5.061214655352961
 30
0.0
 40
1.142470816175143
  1
）
 41
0.2380083869485294
  7
MS Gothic
100
AcDbText
  0
TEXT
  5
12B
330
1F
100
AcDbEntity
  8
layer0
  6
Continuous
 62
    18
420
        0
100
AcDbText
 10
194.0030993677242
 20
5.040048177407843
 30
0.0
 40
1.142470816175143
  1
,
 41
0.2700051700367647
  7
MS Gothic
100
AcDbText
  0
TEXT
  5
12C
330
1F
100
AcDbEntity
  8
layer0
  6
Continuous
 62
    18
420
        0
100
AcDbText
 10
189.5651274291675
 20
5.015353504558402
 30
0.0
 40
1.142470816175143
  1
1
 41
0.6210075827205883
  7
MS Gothic
100
AcDbText
  0
TEXT
  5
12D
330
1F
100
AcDbEntity
  8
layer0
  6
Continuous
 62
    18
420
        0
100
AcDbText
 10
190.4400309465725
 20
5.015353504558402
 30
0.0
 40
1.142470816175143
  1
9
 41
0.7800149356617647
  7
MS Gothic
100
AcDbText
  0
TEXT
  5
12E
330
1F
100
AcDbEntity
  8
layer0
  6
Continuous
 62
    18
420
        0
100
AcDbText
 10
192.1439320847195
 20
5.015353504558402
 30
0.0
 40
1.142470816175143
  1
1
 41
0.6210075827205883
  7
MS Gothic
100
AcDbText
  0
TEXT
  5
12F
330
1F
100
AcDbEntity
  8
layer0
  6
Continuous
 62
    18
420
        0
100
AcDbText
 10
194.7227582721179
 20
5.015353504558402
 30
0.0
 40
1.142470816175143
  1
1
 41
0.6210075827205883
  7
MS Gothic
100
AcDbText
  0
TEXT
  5
130
330
1F
100
AcDbEntity
  8
layer0
  6
Continuous
 62
    18
420
        0
100
AcDbText
 10
195.5976402576764
 20
5.015353504558402
 30
0.0
 40
1.142470816175143
  1
6
 41
0.7799862132352943
  7
MS Gothic
100
AcDbText
  0
TEXT
  5
131
330
1F
100
AcDbEntity
  8
layer0
  6
Continuous
 62
    18
420
        0
100
AcDbText
 10
197.3015629276698
 20
5.015353504558402
 30
0.0
 40
1.142470816175143
  1
印
 41
0.7820111443014706
  7
MS Gothic
100
AcDbText
  0
TEXT
  5
132
330
1F
100
AcDbEntity
  8
layer0
  6
Continuous
 62
    18
420
        0
100
AcDbText
 10
199.0513268987868
 20
5.015353504558402
 30
0.0
 40
1.142470816175143
  1
刷
 41
0.8989975873161765
  7
MS Gothic
100
AcDbText
  0
TEXT
  5
133
330
1F
100
AcDbEntity
  8
layer0
  6
Continuous
 62
    18
420
        0
100
AcDbText
 10
187.2332715207206
 20
4.994187026613283
 30
0.0
 40
1.142470816175143
  1
（
 41
0.4164895450367648
  7
MS Gothic
100
AcDbText
  0
TEXT
  5
134
330
1F
100
AcDbEntity
  8
layer0
  6
Continuous
 62
    18
420
        0
100
AcDbText
 10
191.3537348513071
 20
4.994187026613283
 30
0.0
 40
1.142470816175143
  1
,
 41
0.2700051700367647
  7
MS Gothic
100
AcDbText
  0
TEXT
  5
135
330
1F
100
AcDbEntity
  8
layer0
  6
Continuous
 62
    18
420
        0
100
AcDbText
 10
160.8349155430794
 20
7.798769914103881
 30
0.0
 40
1.142470816175143
  1
F
 41
0.8200109145220588
  7
MS Gothic
100
AcDbText
  0
TEXT
  5
136
330
1F
100
AcDbEntity
  8
layer0
  6
Continuous
 62
    18
420
        0
100
AcDbText
 10
161.7097975286379
 20
7.798769914103881
 30
0.0
 40
1.142470816175143
  1
Y
 41
0.9140050551470589
  7
MS Gothic
100
AcDbText
  0
TEXT
  5
137
330
1F
100
AcDbEntity
  8
layer0
  6
Continuous
 62
    18
420
        0
100
AcDbText
 10
162.5846902801196
 20
7.798769914103881
 30
0.0
 40
1.142470816175143
  1
Z
 41
0.8360093060661766
  7
MS Gothic
100
AcDbText
  0
TEXT
  5
138
330
1F
100
AcDbEntity
  8
layer0
  6
Continuous
 62
    18
420
        0
100
AcDbText
 10
163.4595722656781
 20
7.798769914103881
 30
0.0
 40
1.142470816175143
  1
G
 41
0.8200109145220588
  7
MS Gothic
100
AcDbText
  0
TEXT
  5
139
330
1F
100
AcDbEntity
  8
layer0
  6
Continuous
 62
    18
420
        0
100
AcDbText
 10
164.3344650171599
 20
7.798769914103881
 30
0.0
 40
1.142470816175143
  1
W
 41
0.9520048253676472
  7
MS Gothic
100
AcDbText
  0
TEXT
  5
13A
330
1F
100
AcDbEntity
  8
layer0
  6
Continuous
 62
    18
420
        0
100
AcDbText
 10
165.2093577686416
 20
7.798769914103881
 30
0.0
 40
1.142470816175143
  1
0
 41
0.860006893382353
  7
MS Gothic
100
AcDbText
  0
TEXT
  5
13B
330
1F
100
AcDbEntity
  8
layer0
  6
Continuous
 62
    18
420
        0
100
AcDbText
 10
166.0842505201233
 20
7.798769914103881
 30
0.0
 40
1.142470816175143
  1
2
 41
0.7959989659926472
  7
MS Gothic
100
AcDbText
  0
TEXT
  5
13C
330
1F
100
AcDbEntity
  8
layer0
  6
Continuous
 62
    18
420
        0
100
AcDbText
 10
166.9591432716051
 20
7.798769914103881
 30
0.0
 40
1.142470816175143
  1
_
 41
0.9920008042279412
  7
MS Gothic
100
AcDbText
  0
TEXT
  5
13D
330
1F
100
AcDbEntity
  8
layer0
  6
Continuous
 62
    18
420
        0
100
AcDbText
 10
167.8340252571636
 20
7.798769914103881
 30
0.0
 40
1.142470816175143
  1
A
 41
0.9360064338235294
  7
MS Gothic
100
AcDbText
  0
TEXT
  5
13E
330
1F
100
AcDbEntity
  8
layer0
  6
Continuous
 62
    18
420
        0
100
AcDbText
 10
168.7089180086453
 20
7.798769914103881
 30
0.0
 40
1.142470816175143
  1
0
 41
0.860006893382353
  7
MS Gothic
100
AcDbText
  0
TEXT
  5
13F
330
1F
100
AcDbEntity
  8
layer0
  6
Continuous
 62
    18
420
        0
100
AcDbText
 10
169.5838107601271
 20
7.798769914103881
 30
0.0
 40
1.142470816175143
  1
3
 41
0.7959989659926472
  7
MS Gothic
100
AcDbText
  0
LINE
  5
140
330
1F
100
AcDbEntity
  8
layer0
  6
Continuous
 62
    18
420
        0
370
     5
100
AcDbLine
 10
59.08674566751062
 20
123.5145519780053
 30
0.0
 11
59.08674566751062
 21
129.5153053329785
 31
0.0
  0
LINE
  5
141
330
1F
100
AcDbEntity
  8
layer0
  6
Continuous
 62
    18
420
        0
370
     5
100
AcDbLine
 10
62.08888795640734
 20
123.5145519780053
 30
0.0
 11
59.08674566751062
 21
123.5145519780053
 31
0.0
  0
LINE
  5
142
330
1F
100
AcDbEntity
  8
layer0
  6
Continuous
 62
    18
420
        0
370
     5
100
AcDbLine
 10
34.33586124139361
 20
132.5174476218752
 30
0.0
 11
34.33586124139361
 21
129.5153053329785
 31
0.0
  0
LINE
  5
143
330
1F
100
AcDbEntity
  8
layer0
  6
Continuous
 62
    18
420
        0
370
     5
100
AcDbLine
 10
49.23013922611871
 20
130.704164703687
 30
0.0
 11
50.11914071999652
 21
130.704164703687
 31
0.0
  0
LINE
  5
144
330
1F
100
AcDbEntity
  8
layer0
  6
Continuous
 62
    18
420
        0
370
     5
100
AcDbLine
 10
50.09444369210137
 20
131.205103111691
 30
0.0
 11
50.9869710258378
 21
131.205103111691
 31
0.0
  0
LINE
  5
145
330
1F
100
AcDbEntity
  8
layer0
  6
Continuous
 62
    18
420
        0
370
     5
100
AcDbLine
 10
50.99755392837525
 20
133.7662731849883
 30
0.0
 11
49.23013922611871
 21
130.704164703687
 31
0.0
  0
LINE
  5
146
330
1F
100
AcDbEntity
  8
layer0
  6
Continuous
 62
    18
420
        0
370
     5
100
AcDbLine
 10
51.57610925992332
 20
133.7662731849883
 30
0.0
 11
50.09444369210137
 21
131.205103111691
 31
0.0
  0
LINE
  5
147
330
1F
100
AcDbEntity
  8
layer0
  6
Continuous
 62
    18
420
        0
370
     5
100
AcDbLine
 10
50.9869710258378
 20
131.205103111691
 30
0.0
 11
49.29011080148484
 21
128.2664690039423
 31
0.0
  0
LINE
  5
148
330
1F
100
AcDbEntity
  8
layer0
  6
Continuous
 62
    18
420
        0
370
     5
100
AcDbLine
 10
50.11914071999652
 20
130.704164703687
 30
0.0
 11
48.71155546993678
 21
128.2664690039423
 31
0.0
  0
LINE
  5
149
330
1F
100
AcDbEntity
  8
layer0
  6
Continuous
 62
    18
420
        0
370
     5
100
AcDbLine
 10
34.33586124139361
 20
132.3904420255025
 30
0.0
 11
50.20380394029618
 21
132.3904420255025
 31
0.0
  0
LINE
  5
14A
330
1F
100
AcDbEntity
  8
layer0
  6
Continuous
 62
    18
420
        0
370
     5
100
AcDbLine
 10
34.33586124139361
 20
132.5174476218752
 30
0.0
 11
50.27435841819978
 21
132.5174476218752
 31
0.0
  0
LINE
  5
14B
330
1F
100
AcDbEntity
  8
layer0
  6
Continuous
 62
    18
420
        0
370
     5
100
AcDbLine
 10
34.33586124139361
 20
129.5153053329785
 30
0.0
 11
49.43475098011226
 21
129.5153053329785
 31
0.0
  0
LINE
  5
14C
330
1F
100
AcDbEntity
  8
layer0
  6
Continuous
 62
    18
420
        0
370
     5
100
AcDbLine
 10
50.00977508884009
 20
129.5153053329785
 30
0.0
 11
59.08674566751062
 21
129.5153053329785
 31
0.0
  0
LINE
  5
14D
330
1F
100
AcDbEntity
  8
layer0
  6
Continuous
 62
    18
420
        0
370
     5
100
AcDbLine
 10
35.33774882332484
 20
111.7000278227594
 30
0.0
 11
35.33774882332484
 21
108.7014167566829
 31
0.0
  0
LINE
  5
14E
330
1F
100
AcDbEntity
  8
layer0
  6
Continuous
 62
    18
420
        0
370
     5
100
AcDbLine
 10
62.08888795640734
 20
102.7006634017097
 30
0.0
 11
60.08863863240347
 21
102.7006634017097
 31
0.0
  0
LINE
  5
14F
330
1F
100
AcDbEntity
  8
layer0
  6
Continuous
 62
    18
420
        0
370
     5
100
AcDbLine
 10
60.08863863240347
 20
102.7006634017097
 30
0.0
 11
60.08863863240347
 21
108.7014167566829
 31
0.0
  0
LINE
  5
150
330
1F
100
AcDbEntity
  8
layer0
  6
Continuous
 62
    18
420
        0
370
     5
100
AcDbLine
 10
49.73108301708433
 20
109.8902761273914
 30
0.0
 11
50.62007912800053
 21
109.8902761273914
 31
0.0
  0
LINE
  5
151
330
1F
100
AcDbEntity
  8
layer0
  6
Continuous
 62
    18
420
        0
370
     5
100
AcDbLine
 10
50.59538748306699
 20
110.3876940784984
 30
0.0
 11
51.48438359398319
 21
110.3876940784984
 31
0.0
  0
LINE
  5
152
330
1F
100
AcDbEntity
  8
layer0
  6
Continuous
 62
    18
420
        0
370
     5
100
AcDbLine
 10
51.49849771934088
 20
112.9523846086926
 30
0.0
 11
49.73108301708433
 21
109.8902761273914
 31
0.0
  0
LINE
  5
153
330
1F
100
AcDbEntity
  8
layer0
  6
Continuous
 62
    18
420
        0
370
     5
100
AcDbLine
 10
52.07352721103032
 20
112.9523846086926
 30
0.0
 11
50.59538748306699
 21
110.3876940784984
 31
0.0
  0
LINE
  5
154
330
1F
100
AcDbEntity
  8
layer0
  6
Continuous
 62
    18
420
        0
370
     5
100
AcDbLine
 10
51.48438359398319
 20
110.3876940784984
 30
0.0
 11
49.79105459245046
 21
107.4525804276467
 31
0.0
  0
LINE
  5
155
330
1F
100
AcDbEntity
  8
layer0
  6
Continuous
 62
    18
420
        0
370
     5
100
AcDbLine
 10
50.62007912800053
 20
109.8902761273914
 30
0.0
 11
49.2124992609024
 21
107.4525804276467
 31
0.0
  0
LINE
  5
156
330
1F
100
AcDbEntity
  8
layer0
  6
Continuous
 62
    18
420
        0
370
     5
100
AcDbLine
 10
35.33774882332484
 20
111.5765534492069
 30
0.0
 11
50.7047477312618
 21
111.5765534492069
 31
0.0
  0
LINE
  5
157
330
1F
100
AcDbEntity
  8
layer0
  6
Continuous
 62
    18
420
        0
370
     5
100
AcDbLine
 10
35.33774882332484
 20
111.7000278227594
 30
0.0
 11
50.7753022091654
 21
111.7000278227594
 31
0.0
  0
LINE
  5
158
330
1F
100
AcDbEntity
  8
layer0
  6
Continuous
 62
    18
420
        0
370
     5
100
AcDbLine
 10
35.33774882332484
 20
108.7014167566829
 30
0.0
 11
49.93216354825765
 21
108.7014167566829
 31
0.0
  0
LINE
  5
159
330
1F
100
AcDbEntity
  8
layer0
  6
Continuous
 62
    18
420
        0
370
     5
100
AcDbLine
 10
50.51072426276733
 20
108.7014167566829
 30
0.0
 11
60.08863863240347
 21
108.7014167566829
 31
0.0
  0
LINE
  5
15A
330
1F
100
AcDbEntity
  8
layer0
  6
Continuous
 62
    18
420
        0
370
     5
100
AcDbLine
 10
61.60910997051663
 20
111.5765534492069
 30
0.0
 11
51.27977722295125
 21
111.5765534492069
 31
0.0
  0
LINE
  5
15B
330
1F
100
AcDbEntity
  8
layer0
  6
Continuous
 62
    18
420
        0
370
     5
100
AcDbLine
 10
61.96188774299622
 20
111.2237756767273
 30
0.0
 11
61.96188774299622
 21
102.7006634017097
 31
0.0
  0
LINE
  5
15C
330
1F
100
AcDbEntity
  8
layer0
  6
Continuous
 62
    18
420
        0
370
     5
100
AcDbLine
 10
61.60910997051663
 20
111.5765534492069
 30
0.0
 11
61.96188774299622
 21
111.2237756767273
 31
0.0
  0
LINE
  5
15D
330
1F
100
AcDbEntity
  8
layer0
  6
Continuous
 62
    18
420
        0
370
     5
100
AcDbLine
 10
61.73257896110752
 20
111.7000278227594
 30
0.0
 11
51.35386292367507
 21
111.7000278227594
 31
0.0
  0
LINE
  5
15E
330
1F
100
AcDbEntity
  8
layer0
  6
Continuous
 62
    18
420
        0
370
     5
100
AcDbLine
 10
62.08888795640734
 20
111.3472500502798
 30
0.0
 11
62.08888795640734
 21
102.7006634017097
 31
0.0
  0
LINE
  5
15F
330
1F
100
AcDbEntity
  8
layer0
  6
Continuous
 62
    18
420
        0
370
     5
100
AcDbLine
 10
61.73257896110752
 20
111.7000278227594
 30
0.0
 11
62.08888795640734
 21
111.3472500502798
 31
0.0
  0
LINE
  5
160
330
1F
100
AcDbEntity
  8
layer0
  6
Continuous
 62
    18
420
        0
370
     0
100
AcDbLine
 10
34.33586124139361
 20
135.0151095140245
 30
0.0
 11
62.08888795640734
 21
135.0151095140245
 31
0.0
  0
LINE
  5
161
330
1F
100
AcDbEntity
  8
layer0
  6
Continuous
 62
    18
420
        0
370
     0
100
AcDbLine
 10
62.08888795640734
 20
121.0168900858561
 30
0.0
 11
62.08888795640734
 21
122.2657156489691
 31
0.0
  0
LINE
  5
162
330
1F
100
AcDbEntity
  8
layer0
  6
Continuous
 62
    18
420
        0
370
     0
100
AcDbLine
 10
59.08674566751062
 20
121.0168900858561
 30
0.0
 11
59.08674566751062
 21
122.2657156489691
 31
0.0
  0
LINE
  5
163
330
1F
100
AcDbEntity
  8
layer0
  6
Continuous
 62
    18
420
        0
370
     9
100
AcDbLine
 10
62.08888795640734
 20
121.0168900858561
 30
0.0
 11
62.09241379626595
 21
121.0168900858561
 31
0.0
  0
LINE
  5
164
330
1F
100
AcDbEntity
  8
layer0
  6
Continuous
 62
    18
420
        0
370
     9
100
AcDbLine
 10
59.08674566751062
 20
121.0168900858561
 30
0.0
 11
59.09027689033084
 21
121.0168900858561
 31
0.0
  0
LINE
  5
165
330
1F
100
AcDbEntity
  8
layer0
  6
Continuous
 62
    18
420
        0
370
     0
100
AcDbLine
 10
59.08674566751062
 20
121.0168900858561
 30
0.0
 11
62.08888795640734
 21
121.0168900858561
 31
0.0
  0
LINE
  5
166
330
1F
100
AcDbEntity
  8
layer0
  6
Continuous
 62
    18
420
        0
370
     9
100
AcDbLine
 10
66.33632996855846
 20
123.5145519780053
 30
0.0
 11
66.33986119137867
 21
123.5145519780053
 31
0.0
  0
LINE
  5
167
330
1F
100
AcDbEntity
  8
layer0
  6
Continuous
 62
    18
420
        0
370
     9
100
AcDbLine
 10
66.33632996855846
 20
132.5174476218752
 30
0.0
 11
66.33986119137867
 21
132.5174476218752
 31
0.0
  0
LINE
  5
168
330
1F
100
AcDbEntity
  8
layer0
  6
Continuous
 62
    18
420
        0
370
     0
100
AcDbLine
 10
66.33632996855846
 20
132.5174476218752
 30
0.0
 11
66.33632996855846
 21
123.5145519780053
 31
0.0
  0
LINE
  5
169
330
1F
100
AcDbEntity
  8
layer0
  6
Continuous
 62
    18
420
        0
370
     0
100
AcDbLine
 10
62.08888795640734
 20
135.0151095140245
 30
0.0
 11
62.08888795640734
 21
133.7662731849883
 31
0.0
  0
LINE
  5
16A
330
1F
100
AcDbEntity
  8
layer0
  6
Continuous
 62
    18
420
        0
370
     9
100
AcDbLine
 10
62.08888795640734
 20
135.0151095140245
 30
0.0
 11
62.09241379626595
 21
135.0151095140245
 31
0.0
  0
LINE
  5
16B
330
1F
100
AcDbEntity
  8
layer0
  6
Continuous
 62
    18
420
        0
370
     0
100
AcDbLine
 10
31.83819396628274
 20
129.5153053329785
 30
0.0
 11
33.08702491235736
 21
129.5153053329785
 31
0.0
  0
LINE
  5
16C
330
1F
100
AcDbEntity
  8
layer0
  6
Continuous
 62
    18
420
        0
370
     0
100
AcDbLine
 10
31.83819396628274
 20
132.5174476218752
 30
0.0
 11
33.08702491235736
 21
132.5174476218752
 31
0.0
  0
LINE
  5
16D
330
1F
100
AcDbEntity
  8
layer0
  6
Continuous
 62
    18
420
        0
370
     9
100
AcDbLine
 10
31.83819396628274
 20
129.5153053329785
 30
0.0
 11
31.84171980614135
 21
129.5153053329785
 31
0.0
  0
LINE
  5
16E
330
1F
100
AcDbEntity
  8
layer0
  6
Continuous
 62
    18
420
        0
370
     9
100
AcDbLine
 10
31.83819396628274
 20
132.5174476218752
 30
0.0
 11
31.84171980614135
 21
132.5174476218752
 31
0.0
  0
LINE
  5
16F
330
1F
100
AcDbEntity
  8
layer0
  6
Continuous
 62
    18
420
        0
370
     0
100
AcDbLine
 10
31.83819396628274
 20
132.5174476218752
 30
0.0
 11
31.83819396628274
 21
129.5153053329785
 31
0.0
  0
LINE
  5
170
330
1F
100
AcDbEntity
  8
layer0
  6
Continuous
 62
    18
420
        0
370
     0
100
AcDbLine
 10
34.33586124139361
 20
135.0151095140245
 30
0.0
 11
34.33586124139361
 21
133.7662731849883
 31
0.0
  0
LINE
  5
171
330
1F
100
AcDbEntity
  8
layer0
  6
Continuous
 62
    18
420
        0
370
     9
100
AcDbLine
 10
34.33586124139361
 20
135.0151095140245
 30
0.0
 11
34.33938977273303
 21
135.0151095140245
 31
0.0
  0
LINE
  5
172
330
1F
100
AcDbEntity
  8
layer0
  6
Continuous
 62
    18
420
        0
370
     9
100
AcDbLine
 10
35.33774882332484
 20
114.2012209377289
 30
0.0
 11
35.34127735466427
 21
114.2012209377289
 31
0.0
  0
LINE
  5
173
330
1F
100
AcDbEntity
  8
layer0
  6
Continuous
 62
    18
420
        0
370
     0
100
AcDbLine
 10
35.33774882332484
 20
114.2012209377289
 30
0.0
 11
35.33774882332484
 21
112.9523846086926
 31
0.0
  0
LINE
  5
174
330
1F
100
AcDbEntity
  8
layer0
  6
Continuous
 62
    18
420
        0
370
     0
100
AcDbLine
 10
32.83655570835536
 20
111.7000278227594
 30
0.0
 11
32.83655570835536
 21
108.7014167566829
 31
0.0
  0
LINE
  5
175
330
1F
100
AcDbEntity
  8
layer0
  6
Continuous
 62
    18
420
        0
370
     9
100
AcDbLine
 10
32.83655570835536
 20
111.7000278227594
 30
0.0
 11
32.84008154821397
 21
111.7000278227594
 31
0.0
  0
LINE
  5
176
330
1F
100
AcDbEntity
  8
layer0
  6
Continuous
 62
    18
420
        0
370
     9
100
AcDbLine
 10
32.83655570835536
 20
108.7014167566829
 30
0.0
 11
32.84008154821397
 21
108.7014167566829
 31
0.0
  0
LINE
  5
177
330
1F
100
AcDbEntity
  8
layer0
  6
Continuous
 62
    18
420
        0
370
     0
100
AcDbLine
 10
32.83655570835536
 20
111.7000278227594
 30
0.0
 11
34.08538665443
 21
111.7000278227594
 31
0.0
  0
LINE
  5
178
330
1F
100
AcDbEntity
  8
layer0
  6
Continuous
 62
    18
420
        0
370
     0
100
AcDbLine
 10
32.83655570835536
 20
108.7014167566829
 30
0.0
 11
34.08538665443
 21
108.7014167566829
 31
0.0
  0
LINE
  5
179
330
1F
100
AcDbEntity
  8
layer0
  6
Continuous
 62
    18
420
        0
370
     9
100
AcDbLine
 10
62.08888795640734
 20
114.2012209377289
 30
0.0
 11
62.09241379626595
 21
114.2012209377289
 31
0.0
  0
LINE
  5
17A
330
1F
100
AcDbEntity
  8
layer0
  6
Continuous
 62
    18
420
        0
370
     0
100
AcDbLine
 10
62.08888795640734
 20
114.2012209377289
 30
0.0
 11
62.08888795640734
 21
112.9523846086926
 31
0.0
  0
LINE
  5
17B
330
1F
100
AcDbEntity
  8
layer0
  6
Continuous
 62
    18
420
        0
370
     0
100
AcDbLine
 10
60.08863863240347
 20
100.2030015095604
 30
0.0
 11
62.08888795640734
 21
100.2030015095604
 31
0.0
  0
LINE
  5
17C
330
1F
100
AcDbEntity
  8
layer0
  6
Continuous
 62
    18
420
        0
370
     9
100
AcDbLine
 10
60.08863863240347
 20
100.2030015095604
 30
0.0
 11
60.09216447226208
 21
100.2030015095604
 31
0.0
  0
LINE
  5
17D
330
1F
100
AcDbEntity
  8
layer0
  6
Continuous
 62
    18
420
        0
370
     9
100
AcDbLine
 10
62.08888795640734
 20
100.2030015095604
 30
0.0
 11
62.09241379626595
 21
100.2030015095604
 31
0.0
  0
LINE
  5
17E
330
1F
100
AcDbEntity
  8
layer0
  6
Continuous
 62
    18
420
        0
370
     0
100
AcDbLine
 10
60.08863863240347
 20
100.2030015095604
 30
0.0
 11
60.08863863240347
 21
101.4518270726734
 31
0.0
  0
LINE
  5
17F
330
1F
100
AcDbEntity
  8
layer0
  6
Continuous
 62
    18
420
        0
370
     0
100
AcDbLine
 10
62.08888795640734
 20
100.2030015095604
 30
0.0
 11
62.08888795640734
 21
101.4518270726734
 31
0.0
  0
LINE
  5
180
330
1F
100
AcDbEntity
  8
layer0
  6
Continuous
 62
    18
420
        0
370
     0
100
AcDbLine
 10
35.33774882332484
 20
114.2012209377289
 30
0.0
 11
62.08888795640734
 21
114.2012209377289
 31
0.0
  0
LINE
  5
181
330
1F
100
AcDbEntity
  8
layer0
  6
Continuous
 62
    18
420
        0
370
     0
100
AcDbLine
 10
62.16296827416954
 20
112.1304063698982
 30
0.0
 11
62.51574604664913
 21
111.7776285974186
 31
0.0
  0
LINE
  5
182
330
1F
100
AcDbEntity
  8
layer0
  6
Continuous
 62
    18
420
        0
370
     9
100
AcDbLine
 10
62.16296827416954
 20
112.1304063698982
 30
0.0
 11
62.16649949698978
 21
112.1304063698982
 31
0.0
  0
LINE
  5
183
330
1F
100
AcDbEntity
  8
layer0
  6
Continuous
 62
    18
420
        0
370
     9
100
AcDbLine
 10
62.51574604664913
 20
111.7776285974186
 30
0.0
 11
62.51927726946936
 21
111.7776285974186
 31
0.0
  0
LINE
  5
184
330
1F
100
AcDbEntity
  8
layer0
  6
Continuous
 62
    18
420
        0
370
     0
100
AcDbLine
 10
62.16296827416954
 20
112.1304063698982
 30
0.0
 11
62.79444350136651
 21
112.7618923630184
 31
0.0
  0
LINE
  5
185
330
1F
100
AcDbEntity
  8
layer0
  6
Continuous
 62
    18
420
        0
370
     0
100
AcDbLine
 10
62.51574604664913
 20
111.7776285974186
 30
0.0
 11
63.1472212738461
 21
112.4091145905388
 31
0.0
  0
LINE
  5
186
330
1F
100
AcDbEntity
  8
layer0
  6
Continuous
 62
    18
420
        0
370
     0
100
AcDbLine
 10
66.33632996855846
 20
111.7000278227594
 30
0.0
 11
66.33632996855846
 21
102.7006634017097
 31
0.0
  0
LINE
  5
187
330
1F
100
AcDbEntity
  8
layer0
  6
Continuous
 62
    18
420
        0
370
     9
100
AcDbLine
 10
66.33632996855846
 20
111.7000278227594
 30
0.0
 11
66.33986119137867
 21
111.7000278227594
 31
0.0
  0
LINE
  5
188
330
1F
100
AcDbEntity
  8
layer0
  6
Continuous
 62
    18
420
        0
370
     9
100
AcDbLine
 10
66.33632996855846
 20
102.7006634017097
 30
0.0
 11
66.33986119137867
 21
102.7006634017097
 31
0.0
  0
LINE
  5
189
330
1F
100
AcDbEntity
  8
layer0
  6
Continuous
 62
    18
420
        0
370
     0
100
AcDbLine
 10
66.33632996855846
 20
111.7000278227594
 30
0.0
 11
63.33771890248196
 21
111.7000278227594
 31
0.0
  0
LINE
  5
18A
330
1F
100
AcDbEntity
  8
layer0
  6
Continuous
 62
    18
420
        0
370
     0
100
AcDbLine
 10
66.33632996855846
 20
102.7006634017097
 30
0.0
 11
63.33771890248196
 21
102.7006634017097
 31
0.0
  0
LINE
  5
18B
330
1F
100
AcDbEntity
  8
layer0
  6
Continuous
 62
    18
420
        0
370
     9
100
AcDbLine
 10
49.52999710294939
 20
90.90377382871844
 30
0.0
 11
49.53352294280801
 21
90.90377382871844
 31
0.0
  0
LINE
  5
18C
330
1F
100
AcDbEntity
  8
layer0
  6
Continuous
 62
    18
420
        0
370
     0
100
AcDbLine
 10
49.52999710294939
 20
90.90377382871844
 30
0.0
 11
48.28116615687476
 21
90.90377382871844
 31
0.0
  0
LINE
  5
18D
330
1F
100
AcDbEntity
  8
layer0
  6
Continuous
 62
    18
420
        0
370
     5
100
AcDbLine
 10
47.03233521080013
 20
90.90377382871844
 30
0.0
 11
47.03233521080013
 21
81.90088895077173
 31
0.0
  0
LINE
  5
18E
330
1F
100
AcDbEntity
  8
layer0
  6
Continuous
 62
    18
420
        0
370
     9
100
AcDbLine
 10
47.03233521080013
 20
79.40322167566086
 30
0.0
 11
47.03586105065875
 21
79.40322167566086
 31
0.0
  0
LINE
  5
18F
330
1F
100
AcDbEntity
  8
layer0
  6
Continuous
 62
    18
420
        0
370
     0
100
AcDbLine
 10
47.03233521080013
 20
79.40322167566086
 30
0.0
 11
47.03233521080013
 21
80.65205800469711
 31
0.0
  0
LINE
  5
190
330
1F
100
AcDbEntity
  8
layer0
  6
Continuous
 62
    18
420
        0
370
     5
100
AcDbLine
 10
47.03233521080013
 20
81.90088895077173
 30
0.0
 11
44.03019561338422
 21
81.90088895077173
 31
0.0
  0
LINE
  5
191
330
1F
100
AcDbEntity
  8
layer0
  6
Continuous
 62
    18
420
        0
370
     0
100
AcDbLine
 10
44.03019561338422
 20
79.40322167566086
 30
0.0
 11
47.03233521080013
 21
79.40322167566086
 31
0.0
  0
LINE
  5
192
330
1F
100
AcDbEntity
  8
layer0
  6
Continuous
 62
    18
420
        0
370
     9
100
AcDbLine
 10
44.03019561338422
 20
79.40322167566086
 30
0.0
 11
44.03372145324283
 21
79.40322167566086
 31
0.0
  0
LINE
  5
193
330
1F
100
AcDbEntity
  8
layer0
  6
Continuous
 62
    18
420
        0
370
     0
100
AcDbLine
 10
44.03019561338422
 20
79.40322167566086
 30
0.0
 11
44.03019561338422
 21
80.65205800469711
 31
0.0
  0
LINE
  5
194
330
1F
100
AcDbEntity
  8
layer0
  6
Continuous
 62
    18
420
        0
370
     0
100
AcDbLine
 10
49.52999710294939
 20
90.90377382871844
 30
0.0
 11
49.52999710294939
 21
81.90088895077173
 31
0.0
  0
LINE
  5
195
330
1F
100
AcDbEntity
  8
layer0
  6
Continuous
 62
    18
420
        0
370
     9
100
AcDbLine
 10
49.52999710294939
 20
81.90088895077173
 30
0.0
 11
49.53352294280801
 21
81.90088895077173
 31
0.0
  0
LINE
  5
196
330
1F
100
AcDbEntity
  8
layer0
  6
Continuous
 62
    18
420
        0
370
     0
100
AcDbLine
 10
49.52999710294939
 20
81.90088895077173
 30
0.0
 11
48.28116615687476
 21
81.90088895077173
 31
0.0
  0
LINE
  5
197
330
1F
100
AcDbEntity
  8
layer0
  6
Continuous
 62
    18
420
        0
370
     0
100
AcDbLine
 10
66.33632996855846
 20
123.5145519780053
 30
0.0
 11
63.33771890248196
 21
123.5145519780053
 31
0.0
  0
LINE
  5
198
330
1F
100
AcDbEntity
  8
layer0
  6
Continuous
 62
    18
420
        0
370
     0
100
AcDbLine
 10
66.33632996855846
 20
132.5174476218752
 30
0.0
 11
63.33771890248196
 21
132.5174476218752
 31
0.0
  0
LINE
  5
199
330
1F
100
AcDbEntity
  8
layer0
  6
Continuous
 62
    18
420
        0
370
     5
100
AcDbLine
 10
61.20341230238814
 20
132.5174476218752
 30
0.0
 11
50.85291913270945
 21
132.5174476218752
 31
0.0
  0
LINE
  5
19A
330
1F
100
AcDbEntity
  8
layer0
  6
Continuous
 62
    18
420
        0
370
     5
100
AcDbLine
 10
62.08888795640734
 20
131.6319719678561
 30
0.0
 11
62.08888795640734
 21
123.5145519780053
 31
0.0
  0
LINE
  5
19B
330
1F
100
AcDbEntity
  8
layer0
  6
Continuous
 62
    18
420
        0
370
     5
100
AcDbLine
 10
61.20341230238814
 20
132.5174476218752
 30
0.0
 11
62.08888795640734
 21
131.6319719678561
 31
0.0
  0
LINE
  5
19C
330
1F
100
AcDbEntity
  8
layer0
  6
Continuous
 62
    18
420
        0
370
     5
100
AcDbLine
 10
50.78235927184424
 20
132.3904420255025
 30
0.0
 11
61.15049778970084
 21
132.3904420255025
 31
0.0
  0
LINE
  5
19D
330
1F
100
AcDbEntity
  8
layer0
  6
Continuous
 62
    18
420
        0
370
     5
100
AcDbLine
 10
61.15049778970084
 20
132.3904420255025
 30
0.0
 11
61.96188774299622
 21
131.5790466892456
 31
0.0
  0
LINE
  5
19E
330
1F
100
AcDbEntity
  8
layer0
  6
Continuous
 62
    18
420
        0
370
     5
100
AcDbLine
 10
61.96188774299622
 20
123.5145519780053
 30
0.0
 11
61.96188774299622
 21
131.5790466892456
 31
0.0
  0
LINE
  5
19F
330
1F
100
AcDbEntity
  8
layer0
  6
Continuous
 62
    18
420
        0
370
     0
100
AcDbLine
 10
62.9708323876063
 20
134.2848569411702
 30
0.0
 11
63.85630265866389
 21
133.3993920530742
 31
0.0
  0
LINE
  5
1A0
330
1F
100
AcDbEntity
  8
layer0
  6
Continuous
 62
    18
420
        0
370
     9
100
AcDbLine
 10
62.9708323876063
 20
134.2848569411702
 30
0.0
 11
62.97435822746491
 21
134.2848569411702
 31
0.0
  0
LINE
  5
1A1
330
1F
100
AcDbEntity
  8
layer0
  6
Continuous
 62
    18
420
        0
370
     9
100
AcDbLine
 10
63.85630265866389
 20
133.3993920530742
 30
0.0
 11
63.85983388148411
 21
133.3993920530742
 31
0.0
  0
LINE
  5
1A2
330
1F
100
AcDbEntity
  8
layer0
  6
Continuous
 62
    18
420
        0
370
     0
100
AcDbLine
 10
62.9708323876063
 20
134.2848569411702
 30
0.0
 11
62.08888795640734
 21
133.3993920530742
 31
0.0
  0
LINE
  5
1A3
330
1F
100
AcDbEntity
  8
layer0
  6
Continuous
 62
    18
420
        0
370
     0
100
AcDbLine
 10
63.85630265866389
 20
133.3993920530742
 30
0.0
 11
62.9708323876063
 21
132.5174476218752
 31
0.0
  0
LINE
  5
1A4
330
1F
100
AcDbEntity
  8
layer0
  6
Continuous
 62
    18
420
        0
370
     5
100
AcDbLine
 10
44.9156658844418
 20
90.90377382871844
 30
0.0
 11
47.03233521080013
 21
90.90377382871844
 31
0.0
  0
LINE
  5
1A5
330
1F
100
AcDbEntity
  8
layer0
  6
Continuous
 62
    18
420
        0
370
     5
100
AcDbLine
 10
44.03019561338422
 20
90.01830894062246
 30
0.0
 11
44.03019561338422
 21
81.90088895077173
 31
0.0
  0
LINE
  5
1A6
330
1F
100
AcDbEntity
  8
layer0
  6
Continuous
 62
    18
420
        0
370
     5
100
AcDbLine
 10
44.9156658844418
 20
90.90377382871844
 30
0.0
 11
44.03019561338422
 21
90.01830894062246
 31
0.0
  0
LINE
  5
1A7
330
1F
100
AcDbEntity
  8
layer0
  6
Continuous
 62
    18
420
        0
370
     0
100
AcDbLine
 10
42.26277821964686
 20
91.7857182599174
 30
0.0
 11
43.14825118218525
 21
92.6711939139366
 31
0.0
  0
LINE
  5
1A8
330
1F
100
AcDbEntity
  8
layer0
  6
Continuous
 62
    18
420
        0
370
     9
100
AcDbLine
 10
42.26277821964686
 20
91.7857182599174
 30
0.0
 11
42.26630675098629
 21
91.7857182599174
 31
0.0
  0
LINE
  5
1A9
330
1F
100
AcDbEntity
  8
layer0
  6
Continuous
 62
    18
420
        0
370
     9
100
AcDbLine
 10
43.14825118218525
 20
92.6711939139366
 30
0.0
 11
43.15177702204387
 21
92.6711939139366
 31
0.0
  0
LINE
  5
1AA
330
1F
100
AcDbEntity
  8
layer0
  6
Continuous
 62
    18
420
        0
370
     0
100
AcDbLine
 10
42.26277821964686
 20
91.7857182599174
 30
0.0
 11
43.14825118218525
 21
90.90377382871844
 31
0.0
  0
LINE
  5
1AB
330
1F
100
AcDbEntity
  8
layer0
  6
Continuous
 62
    18
420
        0
370
     0
100
AcDbLine
 10
43.14825118218525
 20
92.6711939139366
 30
0.0
 11
44.03019561338422
 21
91.7857182599174
 31
0.0
  0
TEXT
  5
1AC
330
1F
100
AcDbEntity
  8
layer0
  6
Continuous
 62
    18
420
        0
100
AcDbText
 10
98.29094124571485
 20
136.5802941428887
 30
0.0
 40
1.142470816175143
  1
2
 41
0.7959989659926472
  7
MS Gothic
100
AcDbText
  0
TEXT
  5
1AD
330
1F
100
AcDbEntity
  8
layer0
  6
Continuous
 62
    18
420
        0
100
AcDbText
 10
99.04235962364409
 20
136.5802941428887
 30
0.0
 40
1.142470816175143
  1
(
 41
0.716997931985294
  7
MS Gothic
100
AcDbText
  0
TEXT
  5
1AE
330
1F
100
AcDbEntity
  8
layer0
  6
Continuous
 62
    18
420
        0
100
AcDbText
 10
99.7902467787531
 20
136.5802941428887
 30
0.0
 40
1.142470816175143
  1
偶
 41
0.8869987936580883
  7
MS Gothic
100
AcDbText
  0
TEXT
  5
1AF
330
1F
100
AcDbEntity
  8
layer0
  6
Continuous
 62
    18
420
        0
100
AcDbText
 10
101.2930835346116
 20
136.5802941428887
 30
0.0
 40
1.142470816175143
  1
数
 41
0.8939998851102942
  7
MS Gothic
100
AcDbText
  0
TEXT
  5
1B0
330
1F
100
AcDbEntity
  8
layer0
  6
Continuous
 62
    18
420
        0
100
AcDbText
 10
102.7923783017266
 20
136.5802941428887
 30
0.0
 40
1.142470816175143
  1
)
 41
0.716997931985294
  7
MS Gothic
100
AcDbText
  0
TEXT
  5
1B1
330
1F
100
AcDbEntity
  8
layer0
  6
Continuous
 62
    18
420
        0
100
AcDbText
 10
100.5416651566823
 20
133.9768032253648
 30
0.0
 40
1.142470816175143
  1
1
 41
0.6210075827205883
  7
MS Gothic
100
AcDbText
  0
TEXT
  5
1B2
330
1F
100
AcDbEntity
  8
layer0
  6
Continuous
 62
    18
420
        0
100
AcDbText
 10
25.91505484337277
 20
129.5771989842815
 30
0.0
 40
1.524190497618039
  1
縦
 41
0.9180004931522147
  7
MS Gothic
100
AcDbText
  0
TEXT
  5
1B3
330
1F
100
AcDbEntity
  8
layer0
  6
Continuous
 62
    18
420
        0
100
AcDbText
 10
25.91505484337277
 20
127.3264858392372
 30
0.0
 40
1.524190497618039
  1
　
 41
0.0
  7
MS Gothic
100
AcDbText
  0
TEXT
  5
1B4
330
1F
100
AcDbEntity
  8
layer0
  6
Continuous
 62
    18
420
        0
100
AcDbText
 10
25.91505484337277
 20
125.0757619282698
 30
0.0
 40
1.524190497618039
  1
用
 41
0.827999204766824
  7
MS Gothic
100
AcDbText
  0
TEXT
  5
1B5
330
1F
100
AcDbEntity
  8
layer0
  6
Continuous
 62
    18
420
        0
100
AcDbText
 10
98.29094124571485
 20
115.7452397615181
 30
0.0
 40
1.142470816175143
  1
2
 41
0.7959989659926472
  7
MS Gothic
100
AcDbText
  0
TEXT
  5
1B6
330
1F
100
AcDbEntity
  8
layer0
  6
Continuous
 62
    18
420
        0
100
AcDbText
 10
99.04235962364409
 20
115.7452397615181
 30
0.0
 40
1.142470816175143
  1
(
 41
0.716997931985294
  7
MS Gothic
100
AcDbText
  0
TEXT
  5
1B7
330
1F
100
AcDbEntity
  8
layer0
  6
Continuous
 62
    18
420
        0
100
AcDbText
 10
99.7902467787531
 20
115.7452397615181
 30
0.0
 40
1.142470816175143
  1
偶
 41
0.8869987936580883
  7
MS Gothic
100
AcDbText
  0
TEXT
  5
1B8
330
1F
100
AcDbEntity
  8
layer0
  6
Continuous
 62
    18
420
        0
100
AcDbText
 10
101.2930835346116
 20
115.7452397615181
 30
0.0
 40
1.142470816175143
  1
数
 41
0.8939998851102942
  7
MS Gothic
100
AcDbText
  0
TEXT
  5
1B9
330
1F
100
AcDbEntity
  8
layer0
  6
Continuous
 62
    18
420
        0
100
AcDbText
 10
102.7923783017266
 20
115.7452397615181
 30
0.0
 40
1.142470816175143
  1
)
 41
0.716997931985294
  7
MS Gothic
100
AcDbText
  0
TEXT
  5
1BA
330
1F
100
AcDbEntity
  8
layer0
  6
Continuous
 62
    18
420
        0
100
AcDbText
 10
100.5416651566823
 20
113.1417380780711
 30
0.0
 40
1.142470816175143
  1
1
 41
0.6210075827205883
  7
MS Gothic
100
AcDbText
  0
TEXT
  5
1BB
330
1F
100
AcDbEntity
  8
layer0
  6
Continuous
 62
    18
420
        0
100
AcDbText
 10
25.91505484337277
 20
108.7456758257311
 30
0.0
 40
1.524190497618039
  1
横
 41
0.9219995337592292
  7
MS Gothic
100
AcDbText
  0
TEXT
  5
1BC
330
1F
100
AcDbEntity
  8
layer0
  6
Continuous
 62
    18
420
        0
100
AcDbText
 10
25.91505484337277
 20
106.4949519147637
 30
0.0
 40
1.524190497618039
  1
　
 41
0.0
  7
MS Gothic
100
AcDbText
  0
TEXT
  5
1BD
330
1F
100
AcDbEntity
  8
layer0
  6
Continuous
 62
    18
420
        0
100
AcDbText
 10
25.91505484337277
 20
104.2442387697194
 30
0.0
 40
1.524190497618039
  1
用
 41
0.827999204766824
  7
MS Gothic
100
AcDbText
  0
TEXT
  5
1BE
330
1F
100
AcDbEntity
  8
layer0
  6
Continuous
 62
    18
420
        0
100
AcDbText
 10
100.1042241639031
 20
94.9137166029678
 30
0.0
 40
1.142470816175143
  1
4
 41
0.8680060891544119
  7
MS Gothic
100
AcDbText
  0
TEXT
  5
1BF
330
1F
100
AcDbEntity
  8
layer0
  6
Continuous
 62
    18
420
        0
100
AcDbText
 10
100.9791169153848
 20
94.9137166029678
 30
0.0
 40
1.142470816175143
  1
0
 41
0.860006893382353
  7
MS Gothic
100
AcDbText
  0
TEXT
  5
1C0
330
1F
100
AcDbEntity
  8
layer0
  6
Continuous
 62
    18
420
        0
100
AcDbText
 10
26.09144372961257
 20
94.2465179895587
 30
0.0
 40
1.524190497618039
  1
窓
 41
0.8439994039115111
  7
MS Gothic
100
AcDbText
  0
TEXT
  5
1C1
330
1F
100
AcDbEntity
  8
layer0
  6
Continuous
 62
    18
420
        0
100
AcDbText
 10
28.09169305361644
 20
94.2465179895587
 30
0.0
 40
1.524190497618039
  1
枠
 41
0.8979999078283035
  7
MS Gothic
100
AcDbText
  0
TEXT
  5
1C2
330
1F
100
AcDbEntity
  8
layer0
  6
Continuous
 62
    18
420
        0
100
AcDbText
 10
30.0919450691011
 20
94.2465179895587
 30
0.0
 40
1.524190497618039
  1
Ｌ
 41
0.6206669210919452
  7
MS Gothic
100
AcDbText
  0
TEXT
  5
1C3
330
1F
100
AcDbEntity
  8
layer0
  6
Continuous
 62
    18
420
        0
100
AcDbText
 10
32.09219439310498
 20
94.2465179895587
 30
0.0
 40
1.524190497618039
  1
型
 41
0.859999603056198
  7
MS Gothic
100
AcDbText
  0
TEXT
  5
1C4
330
1F
100
AcDbEntity
  8
layer0
  6
Continuous
 62
    18
420
        0
100
AcDbText
 10
34.09244371710884
 20
94.2465179895587
 30
0.0
 40
1.524190497618039
  1
専
 41
0.8899991354698552
  7
MS Gothic
100
AcDbText
  0
TEXT
  5
1C5
330
1F
100
AcDbEntity
  8
layer0
  6
Continuous
 62
    18
420
        0
100
AcDbText
 10
36.09269573259351
 20
94.2465179895587
 30
0.0
 40
1.524190497618039
  1
用
 41
0.827999204766824
  7
MS Gothic
100
AcDbText
  0
TEXT
  5
1C6
330
1F
100
AcDbEntity
  8
layer0
  6
Continuous
 62
    18
420
        0
100
AcDbText
 10
97.16557929023111
 20
92.31021491952072
 30
0.0
 40
1.142470816175143
  1
[
 41
0.4919864430147059
  7
MS Gothic
100
AcDbText
  0
TEXT
  5
1C7
330
1F
100
AcDbEntity
  8
layer0
  6
Continuous
 62
    18
420
        0
100
AcDbText
 10
97.91699766816035
 20
92.31021491952072
 30
0.0
 40
1.142470816175143
  1
梱
 41
0.8869987936580883
  7
MS Gothic
100
AcDbText
  0
TEXT
  5
1C8
330
1F
100
AcDbEntity
  8
layer0
  6
Continuous
 62
    18
420
        0
100
AcDbText
 10
99.41630320119859
 20
92.31021491952072
 30
0.0
 40
1.142470816175143
  1
包
 41
0.8980066636029412
  7
MS Gothic
100
AcDbText
  0
TEXT
  5
1C9
330
1F
100
AcDbEntity
  8
layer0
  6
Continuous
 62
    18
420
        0
100
AcDbText
 10
100.9156087342368
 20
92.31021491952072
 30
0.0
 40
1.142470816175143
  1
入
 41
0.8750000000000001
  7
MS Gothic
100
AcDbText
  0
TEXT
  5
1CA
330
1F
100
AcDbEntity
  8
layer0
  6
Continuous
 62
    18
420
        0
100
AcDbText
 10
102.4149142672751
 20
92.31021491952072
 30
0.0
 40
1.142470816175143
  1
数
 41
0.8939998851102942
  7
MS Gothic
100
AcDbText
  0
TEXT
  5
1CB
330
1F
100
AcDbEntity
  8
layer0
  6
Continuous
 62
    18
420
        0
100
AcDbText
 10
103.9177510231336
 20
92.31021491952072
 30
0.0
 40
1.142470816175143
  1
]
 41
0.7380012063419117
  7
MS Gothic
100
AcDbText
  0
TEXT
  5
1CC
330
1F
100
AcDbEntity
  8
layer0
  6
Continuous
 62
    18
420
        0
100
AcDbText
 10
11.23597151517869
 20
88.13287316357045
 30
0.0
 40
1.524190497618039
  1
木
 41
0.8860000948628406
  7
MS Gothic
100
AcDbText
  0
TEXT
  5
1CD
330
1F
100
AcDbEntity
  8
layer0
  6
Continuous
 62
    18
420
        0
100
AcDbText
 10
13.23622218492296
 20
88.13287316357045
 30
0.0
 40
1.524190497618039
  1
口
 41
0.6679999044643731
  7
MS Gothic
100
AcDbText
  0
TEXT
  5
1CE
330
1F
100
AcDbEntity
  8
layer0
  6
Continuous
 62
    18
420
        0
100
AcDbText
 10
15.23647150892682
 20
88.13287316357045
 30
0.0
 40
1.524190497618039
  1
テ
 41
0.7999998654427789
  7
MS Gothic
100
AcDbText
  0
TEXT
  5
1CF
330
1F
100
AcDbEntity
  8
layer0
  6
Continuous
 62
    18
420
        0
100
AcDbText
 10
17.23672217867109
 20
88.13287316357045
 30
0.0
 40
1.524190497618039
  1
ー
 41
0.8710003286560121
  7
MS Gothic
100
AcDbText
  0
TEXT
  5
1D0
330
1F
100
AcDbEntity
  8
layer0
  6
Continuous
 62
    18
420
        0
100
AcDbText
 10
19.23697150267495
 20
88.13287316357045
 30
0.0
 40
1.524190497618039
  1
プ
 41
0.9438330407274431
  7
MS Gothic
100
AcDbText
  0
TEXT
  5
1D1
330
1F
100
AcDbEntity
  8
layer0
  6
Continuous
 62
    18
420
        0
100
AcDbText
 10
8.738305585808222
 20
84.3828383366031
 30
0.0
 40
1.524190497618039
  1
（
 41
0.3569996498148324
  7
MS Gothic
100
AcDbText
  0
TEXT
  5
1D2
330
1F
100
AcDbEntity
  8
layer0
  6
Continuous
 62
    18
420
        0
100
AcDbText
 10
10.73855558268229
 20
84.3828383366031
 30
0.0
 40
1.524190497618039
  1
縦
 41
0.9180001567591621
  7
MS Gothic
100
AcDbText
  0
TEXT
  5
1D3
330
1F
100
AcDbEntity
  8
layer0
  6
Continuous
 62
    18
420
        0
100
AcDbText
 10
12.73527704821693
 20
84.3828383366031
 30
0.0
 40
1.524190497618039
  1
用
 41
0.8279998775529288
  7
MS Gothic
100
AcDbText
  0
TEXT
  5
1D4
330
1F
100
AcDbEntity
  8
layer0
  6
Continuous
 62
    18
420
        0
100
AcDbText
 10
14.7355277179612
 20
84.3828383366031
 30
0.0
 40
1.524190497618039
  1
･
 41
0.4433346323711707
  7
MS Gothic
100
AcDbText
  0
TEXT
  5
1D5
330
1F
100
AcDbEntity
  8
layer0
  6
Continuous
 62
    18
420
        0
100
AcDbText
 10
15.73741529989244
 20
84.3828383366031
 30
0.0
 40
1.524190497618039
  1
窓
 41
0.8440000766976158
  7
MS Gothic
100
AcDbText
  0
TEXT
  5
1D6
330
1F
100
AcDbEntity
  8
layer0
  6
Continuous
 62
    18
420
        0
100
AcDbText
 10
17.73766731537712
 20
84.3828383366031
 30
0.0
 40
1.524190497618039
  1
枠
 41
0.8979999078283035
  7
MS Gothic
100
AcDbText
  0
TEXT
  5
1D7
330
1F
100
AcDbEntity
  8
layer0
  6
Continuous
 62
    18
420
        0
100
AcDbText
 10
19.73791663938098
 20
84.3828383366031
 30
0.0
 40
1.524190497618039
  1
用
 41
0.8279998775529288
  7
MS Gothic
100
AcDbText
  0
TEXT
  5
1D8
330
1F
100
AcDbEntity
  8
layer0
  6
Continuous
 62
    18
420
        0
100
AcDbText
 10
21.73816596338484
 20
84.3828383366031
 30
0.0
 40
1.524190497618039
  1
）
 41
0.238000102936274
  7
MS Gothic
100
AcDbText
  0
TEXT
  5
1D9
330
1F
100
AcDbEntity
  8
layer0
  6
Continuous
 62
    18
420
        0
100
AcDbText
 10
46.96178073289654
 20
135.3138232315978
 30
0.0
 40
1.142470816175143
  1
1
 41
0.6209968118106618
  7
MS Gothic
100
AcDbText
  0
TEXT
  5
1DA
330
1F
100
AcDbEntity
  8
layer0
  6
Continuous
 62
    18
420
        0
100
AcDbText
 10
47.71319372786416
 20
135.3138232315978
 30
0.0
 40
1.142470816175143
  1
9
 41
0.7800005744485294
  7
MS Gothic
100
AcDbText
  0
TEXT
  5
1DB
330
1F
100
AcDbEntity
  8
layer0
  6
Continuous
 62
    18
420
        0
100
AcDbText
 10
48.46108626593478
 20
135.3138232315978
 30
0.0
 40
1.142470816175143
  1
5
 41
0.7959989659926472
  7
MS Gothic
100
AcDbText
  0
TEXT
  5
1DC
330
1F
100
AcDbEntity
  8
layer0
  6
Continuous
 62
    18
420
        0
100
AcDbText
 10
63.35785886578769
 20
134.3191111294381
 30
0.0
 40
1.147145349090626
  1
5
 50
315.0000190109573
 41
0.7960020399214962
  7
MS Gothic
100
AcDbText
  0
TEXT
  5
1DD
330
1F
100
AcDbEntity
  8
layer0
  6
Continuous
 62
    18
420
        0
100
AcDbText
 10
31.53948024870951
 20
130.2032155205191
 30
0.0
 40
1.142470816175143
  1
1
 50
90.00000250447816
 41
0.6210075827205883
  7
MS Gothic
100
AcDbText
  0
TEXT
  5
1DE
330
1F
100
AcDbEntity
  8
layer0
  6
Continuous
 62
    18
420
        0
100
AcDbText
 10
31.53948024870951
 20
130.9546446643716
 30
0.0
 40
1.142470816175143
  1
2
 50
90.00000250447816
 41
0.7959989659926472
  7
MS Gothic
100
AcDbText
  0
TEXT
  5
1DF
330
1F
100
AcDbEntity
  8
layer0
  6
Continuous
 62
    18
420
        0
100
AcDbText
 10
66.03761625098522
 20
127.2046044544426
 30
0.0
 40
1.142470816175143
  1
3
 50
90.00000250447816
 41
0.7959989659926472
  7
MS Gothic
100
AcDbText
  0
TEXT
  5
1E0
330
1F
100
AcDbEntity
  8
layer0
  6
Continuous
 62
    18
420
        0
100
AcDbText
 10
66.03761625098522
 20
127.9525023754749
 30
0.0
 40
1.142470816175143
  1
6
 50
90.00000250447816
 41
0.7799862132352943
  7
MS Gothic
100
AcDbText
  0
TEXT
  5
1E1
330
1F
100
AcDbEntity
  8
layer0
  6
Continuous
 62
    18
420
        0
100
AcDbText
 10
59.77466124725348
 20
121.3156038034293
 30
0.0
 40
1.142470816175143
  1
1
 41
0.6209968118106618
  7
MS Gothic
100
AcDbText
  0
TEXT
  5
1E2
330
1F
100
AcDbEntity
  8
layer0
  6
Continuous
 62
    18
420
        0
100
AcDbText
 10
60.52608500814434
 20
121.3156038034293
 30
0.0
 40
1.142470816175143
  1
2
 41
0.7959989659926472
  7
MS Gothic
100
AcDbText
  0
TEXT
  5
1E3
330
1F
100
AcDbEntity
  8
layer0
  6
Continuous
 62
    18
420
        0
100
AcDbText
 10
47.46271914090055
 20
114.4999346553021
 30
0.0
 40
1.142470816175143
  1
1
 41
0.6209968118106618
  7
MS Gothic
100
AcDbText
  0
TEXT
  5
1E4
330
1F
100
AcDbEntity
  8
layer0
  6
Continuous
 62
    18
420
        0
100
AcDbText
 10
48.21061167897116
 20
114.4999346553021
 30
0.0
 40
1.142470816175143
  1
9
 41
0.7800005744485294
  7
MS Gothic
100
AcDbText
  0
TEXT
  5
1E5
330
1F
100
AcDbEntity
  8
layer0
  6
Continuous
 62
    18
420
        0
100
AcDbText
 10
48.96202467393879
 20
114.4999346553021
 30
0.0
 40
1.142470816175143
  1
1
 41
0.6209968118106618
  7
MS Gothic
100
AcDbText
  0
TEXT
  5
1E6
330
1F
100
AcDbEntity
  8
layer0
  6
Continuous
 62
    18
420
        0
100
AcDbText
 10
62.28541142299124
 20
112.429254653449
 30
0.0
 40
1.147145349090626
  1
2
 50
315.0000190109573
 41
0.7959984642484093
  7
MS Gothic
100
AcDbText
  0
TEXT
  5
1E7
330
1F
100
AcDbEntity
  8
layer0
  6
Continuous
 62
    18
420
        0
100
AcDbText
 10
32.53784199078213
 20
109.3893269442235
 30
0.0
 40
1.142470816175143
  1
1
 50
90.00000250447816
 41
0.6210075827205883
  7
MS Gothic
100
AcDbText
  0
TEXT
  5
1E8
330
1F
100
AcDbEntity
  8
layer0
  6
Continuous
 62
    18
420
        0
100
AcDbText
 10
32.53784199078213
 20
110.1407560880759
 30
0.0
 40
1.142470816175143
  1
2
 50
90.00000250447816
 41
0.7959989659926472
  7
MS Gothic
100
AcDbText
  0
TEXT
  5
1E9
330
1F
100
AcDbEntity
  8
layer0
  6
Continuous
 62
    18
420
        0
100
AcDbText
 10
66.03761625098522
 20
106.390715878147
 30
0.0
 40
1.142470816175143
  1
3
 50
90.00000250447816
 41
0.7959989659926472
  7
MS Gothic
100
AcDbText
  0
TEXT
  5
1EA
330
1F
100
AcDbEntity
  8
layer0
  6
Continuous
 62
    18
420
        0
100
AcDbText
 10
66.03761625098522
 20
107.1386137991792
 30
0.0
 40
1.142470816175143
  1
6
 50
90.00000250447816
 41
0.7799862132352943
  7
MS Gothic
100
AcDbText
  0
TEXT
  5
1EB
330
1F
100
AcDbEntity
  8
layer0
  6
Continuous
 62
    18
420
        0
100
AcDbText
 10
60.71305679692159
 20
100.4981947702367
 30
0.0
 40
1.142470816175143
  1
8
 41
0.8119973575367646
  7
MS Gothic
100
AcDbText
  0
TEXT
  5
1EC
330
1F
100
AcDbEntity
  8
layer0
  6
Continuous
 62
    18
420
        0
100
AcDbText
 10
42.22852407790075
 20
92.17275016758221
 30
0.0
 40
1.147145349090626
  1
5
 50
45.00000125223908
 41
0.7960020399214962
  7
MS Gothic
100
AcDbText
  0
TEXT
  5
1ED
330
1F
100
AcDbEntity
  8
layer0
  6
Continuous
 62
    18
420
        0
100
AcDbText
 10
49.23128338537616
 20
85.39338673589432
 30
0.0
 40
1.142470816175143
  1
3
 50
90.00000250447816
 41
0.7959989659926472
  7
MS Gothic
100
AcDbText
  0
TEXT
  5
1EE
330
1F
100
AcDbEntity
  8
layer0
  6
Continuous
 62
    18
420
        0
100
AcDbText
 10
49.23128338537616
 20
86.26827410441444
 30
0.0
 40
1.142470816175143
  1
6
 50
90.00000250447816
 41
0.7800005744485294
  7
MS Gothic
100
AcDbText
  0
TEXT
  5
1EF
330
1F
100
AcDbEntity
  8
layer0
  6
Continuous
 62
    18
420
        0
100
AcDbText
 10
44.80277710490756
 20
79.4514661892321
 30
0.0
 40
1.142470816175143
  1
1
 41
0.621002197265625
  7
MS Gothic
100
AcDbText
  0
TEXT
  5
1F0
330
1F
100
AcDbEntity
  8
layer0
  6
Continuous
 62
    18
420
        0
100
AcDbText
 10
45.67766447342769
 20
79.4514661892321
 30
0.0
 40
1.142470816175143
  1
2
 41
0.7959989659926472
  7
MS Gothic
100
AcDbText
  0
TEXT
  5
1F1
330
1F
100
AcDbEntity
  8
layer0
  6
Continuous
 62
    18
420
        0
100
AcDbText
 10
13.16566636127896
 20
119.6782663157014
 30
0.0
 40
1.524190497618039
  1
窓
 41
0.8440000766976158
  7
MS Gothic
100
AcDbText
  0
TEXT
  5
1F2
330
1F
100
AcDbEntity
  8
layer0
  6
Continuous
 62
    18
420
        0
100
AcDbText
 10
17.66711149173312
 20
119.6782663157014
 30
0.0
 40
1.524190497618039
  1
枠
 41
0.8979999078283035
  7
MS Gothic
100
AcDbText
  0
TEXT
  5
1F3
330
1F
100
AcDbEntity
  8
layer0
  6
Continuous
 62
    18
420
        0
100
AcDbText
 10
13.16566636127896
 20
114.6794005426594
 30
0.0
 40
1.524190497618039
  1
Ｌ
 41
0.6206661642075774
  7
MS Gothic
100
AcDbText
  0
TEXT
  5
1F4
330
1F
100
AcDbEntity
  8
layer0
  6
Continuous
 62
    18
420
        0
100
AcDbText
 10
17.66711149173312
 20
114.6794005426594
 30
0.0
 40
1.524190497618039
  1
型
 41
0.859999603056198
  7
MS Gothic
100
AcDbText
  0
TEXT
  5
1F5
330
1F
100
AcDbEntity
  8
layer0
  6
Continuous
 62
    18
420
        0
100
AcDbText
 10
71.04238954448698
 20
135.2785433011651
 30
0.0
 40
1.142470816175143
  1
3
 41
0.7959989659926472
  7
MS Gothic
100
AcDbText
  0
TEXT
  5
1F6
330
1F
100
AcDbEntity
  8
layer0
  6
Continuous
 62
    18
420
        0
100
AcDbText
 10
71.79027669959598
 20
135.2785433011651
 30
0.0
 40
1.142470816175143
  1
,
 41
0.2700051700367647
  7
MS Gothic
100
AcDbText
  0
TEXT
  5
1F7
330
1F
100
AcDbEntity
  8
layer0
  6
Continuous
 62
    18
420
        0
100
AcDbText
 10
72.54169507752522
 20
135.2785433011651
 30
0.0
 40
1.142470816175143
  1
9
 41
0.7800005744485294
  7
MS Gothic
100
AcDbText
  0
TEXT
  5
1F8
330
1F
100
AcDbEntity
  8
layer0
  6
Continuous
 62
    18
420
        0
100
AcDbText
 10
73.29310807249284
 20
135.2785433011651
 30
0.0
 40
1.142470816175143
  1
0
 41
0.8599997127757353
  7
MS Gothic
100
AcDbText
  0
TEXT
  5
1F9
330
1F
100
AcDbEntity
  8
layer0
  6
Continuous
 62
    18
420
        0
100
AcDbText
 10
74.04100061056346
 20
135.2785433011651
 30
0.0
 40
1.142470816175143
  1
0
 41
0.8599997127757353
  7
MS Gothic
100
AcDbText
  0
TEXT
  5
1FA
330
1F
100
AcDbEntity
  8
layer0
  6
Continuous
 62
    18
420
        0
100
AcDbText
 10
74.7924136055311
 20
135.2785433011651
 30
0.0
 40
1.142470816175143
  1
×
 41
0.6499974867876839
  7
MS Gothic
100
AcDbText
  0
TEXT
  5
1FB
330
1F
100
AcDbEntity
  8
layer0
  6
Continuous
 62
    18
420
        0
100
AcDbText
 10
76.29171913856933
 20
135.2785433011651
 30
0.0
 40
1.142470816175143
  1
1
 41
0.6209968118106618
  7
MS Gothic
100
AcDbText
  0
TEXT
  5
1FC
330
1F
100
AcDbEntity
  8
layer0
  6
Continuous
 62
    18
420
        0
100
AcDbText
 10
77.04313751649858
 20
135.2785433011651
 30
0.0
 40
1.142470816175143
  1
9
 41
0.7800005744485294
  7
MS Gothic
100
AcDbText
  0
TEXT
  5
1FD
330
1F
100
AcDbEntity
  8
layer0
  6
Continuous
 62
    18
420
        0
100
AcDbText
 10
77.79102467160757
 20
135.2785433011651
 30
0.0
 40
1.142470816175143
  1
5
 41
0.7959989659926472
  7
MS Gothic
100
AcDbText
  0
TEXT
  5
1FE
330
1F
100
AcDbEntity
  8
layer0
  6
Continuous
 62
    18
420
        0
100
AcDbText
 10
78.54244304953681
 20
135.2785433011651
 30
0.0
 40
1.142470816175143
  1
×
 41
0.6499974867876839
  7
MS Gothic
100
AcDbText
  0
TEXT
  5
1FF
330
1F
100
AcDbEntity
  8
layer0
  6
Continuous
 62
    18
420
        0
100
AcDbText
 10
80.04174858257505
 20
135.2785433011651
 30
0.0
 40
1.142470816175143
  1
3
 41
0.7959989659926472
  7
MS Gothic
100
AcDbText
  0
TEXT
  5
200
330
1F
100
AcDbEntity
  8
layer0
  6
Continuous
 62
    18
420
        0
100
AcDbText
 10
80.7931669605043
 20
135.2785433011651
 30
0.0
 40
1.142470816175143
  1
6
 41
0.7800005744485294
  7
MS Gothic
100
AcDbText
  0
TEXT
  5
201
330
1F
100
AcDbEntity
  8
layer0
  6
Continuous
 62
    18
420
        0
100
AcDbText
 10
71.04238954448698
 20
114.4434996857178
 30
0.0
 40
1.142470816175143
  1
3
 41
0.7959989659926472
  7
MS Gothic
100
AcDbText
  0
TEXT
  5
202
330
1F
100
AcDbEntity
  8
layer0
  6
Continuous
 62
    18
420
        0
100
AcDbText
 10
71.79027669959598
 20
114.4434996857178
 30
0.0
 40
1.142470816175143
  1
,
 41
0.2700051700367647
  7
MS Gothic
100
AcDbText
  0
TEXT
  5
203
330
1F
100
AcDbEntity
  8
layer0
  6
Continuous
 62
    18
420
        0
100
AcDbText
 10
72.54169507752522
 20
114.4434996857178
 30
0.0
 40
1.142470816175143
  1
9
 41
0.7800005744485294
  7
MS Gothic
100
AcDbText
  0
TEXT
  5
204
330
1F
100
AcDbEntity
  8
layer0
  6
Continuous
 62
    18
420
        0
100
AcDbText
 10
73.29310807249284
 20
114.4434996857178
 30
0.0
 40
1.142470816175143
  1
0
 41
0.8599997127757353
  7
MS Gothic
100
AcDbText
  0
TEXT
  5
205
330
1F
100
AcDbEntity
  8
layer0
  6
Continuous
 62
    18
420
        0
100
AcDbText
 10
74.04100061056346
 20
114.4434996857178
 30
0.0
 40
1.142470816175143
  1
0
 41
0.8599997127757353
  7
MS Gothic
100
AcDbText
  0
TEXT
  5
206
330
1F
100
AcDbEntity
  8
layer0
  6
Continuous
 62
    18
420
        0
100
AcDbText
 10
74.7924136055311
 20
114.4434996857178
 30
0.0
 40
1.142470816175143
  1
×
 41
0.6499974867876839
  7
MS Gothic
100
AcDbText
  0
TEXT
  5
207
330
1F
100
AcDbEntity
  8
layer0
  6
Continuous
 62
    18
420
        0
100
AcDbText
 10
76.29171913856933
 20
114.4434996857178
 30
0.0
 40
1.142470816175143
  1
1
 41
0.6209968118106618
  7
MS Gothic
100
AcDbText
  0
TEXT
  5
208
330
1F
100
AcDbEntity
  8
layer0
  6
Continuous
 62
    18
420
        0
100
AcDbText
 10
77.04313751649858
 20
114.4434996857178
 30
0.0
 40
1.142470816175143
  1
9
 41
0.7800005744485294
  7
MS Gothic
100
AcDbText
  0
TEXT
  5
209
330
1F
100
AcDbEntity
  8
layer0
  6
Continuous
 62
    18
420
        0
100
AcDbText
 10
77.79102467160757
 20
114.4434996857178
 30
0.0
 40
1.142470816175143
  1
1
 41
0.6209968118106618
  7
MS Gothic
100
AcDbText
  0
TEXT
  5
20A
330
1F
100
AcDbEntity
  8
layer0
  6
Continuous
 62
    18
420
        0
100
AcDbText
 10
78.54244304953681
 20
114.4434996857178
 30
0.0
 40
1.142470816175143
  1
×
 41
0.6499974867876839
  7
MS Gothic
100
AcDbText
  0
TEXT
  5
20B
330
1F
100
AcDbEntity
  8
layer0
  6
Continuous
 62
    18
420
        0
100
AcDbText
 10
80.04174858257505
 20
114.4434996857178
 30
0.0
 40
1.142470816175143
  1
3
 41
0.7959989659926472
  7
MS Gothic
100
AcDbText
  0
TEXT
  5
20C
330
1F
100
AcDbEntity
  8
layer0
  6
Continuous
 62
    18
420
        0
100
AcDbText
 10
80.7931669605043
 20
114.4434996857178
 30
0.0
 40
1.142470816175143
  1
6
 41
0.7800005744485294
  7
MS Gothic
100
AcDbText
  0
TEXT
  5
20D
330
1F
100
AcDbEntity
  8
layer0
  6
Continuous
 62
    18
420
        0
100
AcDbText
 10
73.7305544482337
 20
94.9137166029678
 30
0.0
 40
1.142470816175143
  1
1
 41
0.6209968118106618
  7
MS Gothic
100
AcDbText
  0
TEXT
  5
20E
330
1F
100
AcDbEntity
  8
layer0
  6
Continuous
 62
    18
420
        0
100
AcDbText
 10
74.60544181675382
 20
94.9137166029678
 30
0.0
 40
1.142470816175143
  1
2
 41
0.7959989659926472
  7
MS Gothic
100
AcDbText
  0
TEXT
  5
20F
330
1F
100
AcDbEntity
  8
layer0
  6
Continuous
 62
    18
420
        0
100
AcDbText
 10
75.48032918527396
 20
94.9137166029678
 30
0.0
 40
1.142470816175143
  1
×
 41
0.6499974867876839
  7
MS Gothic
100
AcDbText
  0
TEXT
  5
210
330
1F
100
AcDbEntity
  8
layer0
  6
Continuous
 62
    18
420
        0
100
AcDbText
 10
77.23010930527582
 20
94.9137166029678
 30
0.0
 40
1.142470816175143
  1
3
 41
0.7959989659926472
  7
MS Gothic
100
AcDbText
  0
TEXT
  5
211
330
1F
100
AcDbEntity
  8
layer0
  6
Continuous
 62
    18
420
        0
100
AcDbText
 10
78.10499667379594
 20
94.9137166029678
 30
0.0
 40
1.142470816175143
  1
6
 41
0.7800005744485294
  7
MS Gothic
100
AcDbText
  0
TEXT
  5
212
330
1F
100
AcDbEntity
  8
layer0
  6
Continuous
 62
    18
420
        0
100
AcDbText
 10
84.16572160413529
 20
136.5802941428887
 30
0.0
 40
1.142470816175143
  1
Ｇ
 41
0.8149988511029412
  7
MS Gothic
100
AcDbText
  0
TEXT
  5
213
330
1F
100
AcDbEntity
  8
layer0
  6
Continuous
 62
    18
420
        0
100
AcDbText
 10
85.66502713717354
 20
136.5802941428887
 30
0.0
 40
1.142470816175143
  1
Ｗ
 41
0.9599968405330882
  7
MS Gothic
100
AcDbText
  0
TEXT
  5
214
330
1F
100
AcDbEntity
  8
layer0
  6
Continuous
 62
    18
420
        0
100
AcDbText
 10
87.1678585100704
 20
136.5802941428887
 30
0.0
 40
1.142470816175143
  1
Ｆ
 41
0.532000373391544
  7
MS Gothic
100
AcDbText
  0
TEXT
  5
215
330
1F
100
AcDbEntity
  8
layer0
  6
Continuous
 62
    18
420
        0
100
AcDbText
 10
88.66716404310864
 20
136.5802941428887
 30
0.0
 40
1.142470816175143
  1
Ｔ
 41
0.7375021541819853
  7
MS Gothic
100
AcDbText
  0
TEXT
  5
216
330
1F
100
AcDbEntity
  8
layer0
  6
Continuous
 62
    18
420
        0
100
AcDbText
 10
90.16646957614688
 20
136.5802941428887
 30
0.0
 40
1.142470816175143
  1
1
 41
0.6210075827205883
  7
MS Gothic
100
AcDbText
  0
TEXT
  5
217
330
1F
100
AcDbEntity
  8
layer0
  6
Continuous
 62
    18
420
        0
100
AcDbText
 10
90.91788795407612
 20
136.5802941428887
 30
0.0
 40
1.142470816175143
  1
9
 41
0.7800005744485294
  7
MS Gothic
100
AcDbText
  0
TEXT
  5
218
330
1F
100
AcDbEntity
  8
layer0
  6
Continuous
 62
    18
420
        0
100
AcDbText
 10
91.66577510918513
 20
136.5802941428887
 30
0.0
 40
1.142470816175143
  1
5
 41
0.7959989659926472
  7
MS Gothic
100
AcDbText
  0
TEXT
  5
219
330
1F
100
AcDbEntity
  8
layer0
  6
Continuous
 62
    18
420
        0
100
AcDbText
 10
92.41719348711436
 20
136.5802941428887
 30
0.0
 40
1.142470816175143
  1
-
 41
0.8920036764705882
  7
MS Gothic
100
AcDbText
  0
TEXT
  5
21A
330
1F
100
AcDbEntity
  8
layer0
  6
Continuous
 62
    18
420
        0
100
AcDbText
 10
93.16508064222339
 20
136.5802941428887
 30
0.0
 40
1.142470816175143
  1
□
 41
0.7460004021139707
  7
MS Gothic
100
AcDbText
  0
TEXT
  5
21B
330
1F
100
AcDbEntity
  8
layer0
  6
Continuous
 62
    18
420
        0
100
AcDbText
 10
84.16572160413529
 20
133.9768032253648
 30
0.0
 40
1.142470816175143
  1
Ｇ
 41
0.8149988511029412
  7
MS Gothic
100
AcDbText
  0
TEXT
  5
21C
330
1F
100
AcDbEntity
  8
layer0
  6
Continuous
 62
    18
420
        0
100
AcDbText
 10
85.66502713717354
 20
133.9768032253648
 30
0.0
 40
1.142470816175143
  1
Ｗ
 41
0.9599968405330882
  7
MS Gothic
100
AcDbText
  0
TEXT
  5
21D
330
1F
100
AcDbEntity
  8
layer0
  6
Continuous
 62
    18
420
        0
100
AcDbText
 10
87.1678585100704
 20
133.9768032253648
 30
0.0
 40
1.142470816175143
  1
Ｆ
 41
0.532000373391544
  7
MS Gothic
100
AcDbText
  0
TEXT
  5
21E
330
1F
100
AcDbEntity
  8
layer0
  6
Continuous
 62
    18
420
        0
100
AcDbText
 10
88.66716404310864
 20
133.9768032253648
 30
0.0
 40
1.142470816175143
  1
Ｔ
 41
0.7375021541819853
  7
MS Gothic
100
AcDbText
  0
TEXT
  5
21F
330
1F
100
AcDbEntity
  8
layer0
  6
Continuous
 62
    18
420
        0
100
AcDbText
 10
90.16646957614688
 20
133.9768032253648
 30
0.0
 40
1.142470816175143
  1
1
 41
0.6210075827205883
  7
MS Gothic
100
AcDbText
  0
TEXT
  5
220
330
1F
100
AcDbEntity
  8
layer0
  6
Continuous
 62
    18
420
        0
100
AcDbText
 10
90.91788795407612
 20
133.9768032253648
 30
0.0
 40
1.142470816175143
  1
9
 41
0.7800005744485294
  7
MS Gothic
100
AcDbText
  0
TEXT
  5
221
330
1F
100
AcDbEntity
  8
layer0
  6
Continuous
 62
    18
420
        0
100
AcDbText
 10
91.66577510918513
 20
133.9768032253648
 30
0.0
 40
1.142470816175143
  1
5
 41
0.7959989659926472
  7
MS Gothic
100
AcDbText
  0
TEXT
  5
222
330
1F
100
AcDbEntity
  8
layer0
  6
Continuous
 62
    18
420
        0
100
AcDbText
 10
92.41719348711436
 20
133.9768032253648
 30
0.0
 40
1.142470816175143
  1
-
 41
0.8920036764705882
  7
MS Gothic
100
AcDbText
  0
TEXT
  5
223
330
1F
100
AcDbEntity
  8
layer0
  6
Continuous
 62
    18
420
        0
100
AcDbText
 10
93.16508064222339
 20
133.9768032253648
 30
0.0
 40
1.142470816175143
  1
1
 41
0.6210075827205883
  7
MS Gothic
100
AcDbText
  0
TEXT
  5
224
330
1F
100
AcDbEntity
  8
layer0
  6
Continuous
 62
    18
420
        0
100
AcDbText
 10
93.91649902015261
 20
133.9768032253648
 30
0.0
 40
1.142470816175143
  1
-
 41
0.8920036764705882
  7
MS Gothic
100
AcDbText
  0
TEXT
  5
225
330
1F
100
AcDbEntity
  8
layer0
  6
Continuous
 62
    18
420
        0
100
AcDbText
 10
94.66790663215862
 20
133.9768032253648
 30
0.0
 40
1.142470816175143
  1
□
 41
0.7460004021139707
  7
MS Gothic
100
AcDbText
  0
TEXT
  5
226
330
1F
100
AcDbEntity
  8
layer0
  6
Continuous
 62
    18
420
        0
100
AcDbText
 10
84.16572160413529
 20
115.7452397615181
 30
0.0
 40
1.142470816175143
  1
Ｇ
 41
0.8149988511029412
  7
MS Gothic
100
AcDbText
  0
TEXT
  5
227
330
1F
100
AcDbEntity
  8
layer0
  6
Continuous
 62
    18
420
        0
100
AcDbText
 10
85.66502713717354
 20
115.7452397615181
 30
0.0
 40
1.142470816175143
  1
Ｗ
 41
0.9599968405330882
  7
MS Gothic
100
AcDbText
  0
TEXT
  5
228
330
1F
100
AcDbEntity
  8
layer0
  6
Continuous
 62
    18
420
        0
100
AcDbText
 10
87.1678585100704
 20
115.7452397615181
 30
0.0
 40
1.142470816175143
  1
Ｆ
 41
0.532000373391544
  7
MS Gothic
100
AcDbText
  0
TEXT
  5
229
330
1F
100
AcDbEntity
  8
layer0
  6
Continuous
 62
    18
420
        0
100
AcDbText
 10
88.66716404310864
 20
115.7452397615181
 30
0.0
 40
1.142470816175143
  1
Ｙ
 41
0.7862494973575368
  7
MS Gothic
100
AcDbText
  0
TEXT
  5
22A
330
1F
100
AcDbEntity
  8
layer0
  6
Continuous
 62
    18
420
        0
100
AcDbText
 10
90.16646957614688
 20
115.7452397615181
 30
0.0
 40
1.142470816175143
  1
1
 41
0.6210075827205883
  7
MS Gothic
100
AcDbText
  0
TEXT
  5
22B
330
1F
100
AcDbEntity
  8
layer0
  6
Continuous
 62
    18
420
        0
100
AcDbText
 10
90.91788795407612
 20
115.7452397615181
 30
0.0
 40
1.142470816175143
  1
9
 41
0.7800005744485294
  7
MS Gothic
100
AcDbText
  0
TEXT
  5
22C
330
1F
100
AcDbEntity
  8
layer0
  6
Continuous
 62
    18
420
        0
100
AcDbText
 10
91.66577510918513
 20
115.7452397615181
 30
0.0
 40
1.142470816175143
  1
1
 41
0.6210075827205883
  7
MS Gothic
100
AcDbText
  0
TEXT
  5
22D
330
1F
100
AcDbEntity
  8
layer0
  6
Continuous
 62
    18
420
        0
100
AcDbText
 10
92.41719348711436
 20
115.7452397615181
 30
0.0
 40
1.142470816175143
  1
-
 41
0.8920036764705882
  7
MS Gothic
100
AcDbText
  0
TEXT
  5
22E
330
1F
100
AcDbEntity
  8
layer0
  6
Continuous
 62
    18
420
        0
100
AcDbText
 10
93.16508064222339
 20
115.7452397615181
 30
0.0
 40
1.142470816175143
  1
□
 41
0.7460004021139707
  7
MS Gothic
100
AcDbText
  0
TEXT
  5
22F
330
1F
100
AcDbEntity
  8
layer0
  6
Continuous
 62
    18
420
        0
100
AcDbText
 10
84.16572160413529
 20
113.1417380780711
 30
0.0
 40
1.142470816175143
  1
Ｇ
 41
0.8149988511029412
  7
MS Gothic
100
AcDbText
  0
TEXT
  5
230
330
1F
100
AcDbEntity
  8
layer0
  6
Continuous
 62
    18
420
        0
100
AcDbText
 10
85.66502713717354
 20
113.1417380780711
 30
0.0
 40
1.142470816175143
  1
Ｗ
 41
0.9599968405330882
  7
MS Gothic
100
AcDbText
  0
TEXT
  5
231
330
1F
100
AcDbEntity
  8
layer0
  6
Continuous
 62
    18
420
        0
100
AcDbText
 10
87.1678585100704
 20
113.1417380780711
 30
0.0
 40
1.142470816175143
  1
Ｆ
 41
0.532000373391544
  7
MS Gothic
100
AcDbText
  0
TEXT
  5
232
330
1F
100
AcDbEntity
  8
layer0
  6
Continuous
 62
    18
420
        0
100
AcDbText
 10
88.66716404310864
 20
113.1417380780711
 30
0.0
 40
1.142470816175143
  1
Ｙ
 41
0.7862494973575368
  7
MS Gothic
100
AcDbText
  0
TEXT
  5
233
330
1F
100
AcDbEntity
  8
layer0
  6
Continuous
 62
    18
420
        0
100
AcDbText
 10
90.16646957614688
 20
113.1417380780711
 30
0.0
 40
1.142470816175143
  1
1
 41
0.6210075827205883
  7
MS Gothic
100
AcDbText
  0
TEXT
  5
234
330
1F
100
AcDbEntity
  8
layer0
  6
Continuous
 62
    18
420
        0
100
AcDbText
 10
90.91788795407612
 20
113.1417380780711
 30
0.0
 40
1.142470816175143
  1
9
 41
0.7800005744485294
  7
MS Gothic
100
AcDbText
  0
TEXT
  5
235
330
1F
100
AcDbEntity
  8
layer0
  6
Continuous
 62
    18
420
        0
100
AcDbText
 10
91.66577510918513
 20
113.1417380780711
 30
0.0
 40
1.142470816175143
  1
1
 41
0.6210075827205883
  7
MS Gothic
100
AcDbText
  0
TEXT
  5
236
330
1F
100
AcDbEntity
  8
layer0
  6
Continuous
 62
    18
420
        0
100
AcDbText
 10
92.41719348711436
 20
113.1417380780711
 30
0.0
 40
1.142470816175143
  1
-
 41
0.8920036764705882
  7
MS Gothic
100
AcDbText
  0
TEXT
  5
237
330
1F
100
AcDbEntity
  8
layer0
  6
Continuous
 62
    18
420
        0
100
AcDbText
 10
93.16508064222339
 20
113.1417380780711
 30
0.0
 40
1.142470816175143
  1
1
 41
0.6210075827205883
  7
MS Gothic
100
AcDbText
  0
TEXT
  5
238
330
1F
100
AcDbEntity
  8
layer0
  6
Continuous
 62
    18
420
        0
100
AcDbText
 10
93.91649902015261
 20
113.1417380780711
 30
0.0
 40
1.142470816175143
  1
-
 41
0.8920036764705882
  7
MS Gothic
100
AcDbText
  0
TEXT
  5
239
330
1F
100
AcDbEntity
  8
layer0
  6
Continuous
 62
    18
420
        0
100
AcDbText
 10
94.66790663215862
 20
113.1417380780711
 30
0.0
 40
1.142470816175143
  1
□
 41
0.7460004021139707
  7
MS Gothic
100
AcDbText
  0
TEXT
  5
23A
330
1F
100
AcDbEntity
  8
layer0
  6
Continuous
 62
    18
420
        0
100
AcDbText
 10
84.16572160413529
 20
94.9137166029678
 30
0.0
 40
1.142470816175143
  1
Ｚ
 41
0.7324981689453125
  7
MS Gothic
100
AcDbText
  0
TEXT
  5
23B
330
1F
100
AcDbEntity
  8
layer0
  6
Continuous
 62
    18
420
        0
100
AcDbText
 10
85.66502713717354
 20
94.9137166029678
 30
0.0
 40
1.142470816175143
  1
Ｙ
 41
0.7862494973575368
  7
MS Gothic
100
AcDbText
  0
TEXT
  5
23C
330
1F
100
AcDbEntity
  8
layer0
  6
Continuous
 62
    18
420
        0
100
AcDbText
 10
87.1678585100704
 20
94.9137166029678
 30
0.0
 40
1.142470816175143
  1
Ｗ
 41
0.9599968405330882
  7
MS Gothic
100
AcDbText
  0
TEXT
  5
23D
330
1F
100
AcDbEntity
  8
layer0
  6
Continuous
 62
    18
420
        0
100
AcDbText
 10
88.66716404310864
 20
94.9137166029678
 30
0.0
 40
1.142470816175143
  1
Ｔ
 41
0.7375021541819853
  7
MS Gothic
100
AcDbText
  0
TEXT
  5
23E
330
1F
100
AcDbEntity
  8
layer0
  6
Continuous
 62
    18
420
        0
100
AcDbText
 10
90.16646957614688
 20
94.9137166029678
 30
0.0
 40
1.142470816175143
  1
4
 41
0.8680060891544119
  7
MS Gothic
100
AcDbText
  0
TEXT
  5
23F
330
1F
100
AcDbEntity
  8
layer0
  6
Continuous
 62
    18
420
        0
100
AcDbText
 10
90.91788795407612
 20
94.9137166029678
 30
0.0
 40
1.142470816175143
  1
3
 41
0.7959989659926472
  7
MS Gothic
100
AcDbText
  0
TEXT
  5
240
330
1F
100
AcDbEntity
  8
layer0
  6
Continuous
 62
    18
420
        0
100
AcDbText
 10
91.66577510918513
 20
94.9137166029678
 30
0.0
 40
1.142470816175143
  1
-
 41
0.8920036764705882
  7
MS Gothic
100
AcDbText
  0
TEXT
  5
241
330
1F
100
AcDbEntity
  8
layer0
  6
Continuous
 62
    18
420
        0
100
AcDbText
 10
92.41719348711436
 20
94.9137166029678
 30
0.0
 40
1.142470816175143
  1
□
 41
0.7460004021139707
  7
MS Gothic
100
AcDbText
  0
LINE
  5
242
330
1F
100
AcDbEntity
  8
layer0
  6
Continuous
 62
    18
420
        0
370
     5
100
AcDbLine
 10
105.0007813684675
 20
96.9151100862291
 30
0.0
 11
7.665861507362782
 21
96.9151100862291
 31
0.0
  0
LINE
  5
243
330
1F
100
AcDbEntity
  8
layer0
  6
Continuous
 62
    18
420
        0
370
     5
100
AcDbLine
 10
7.665861507362782
 20
76.08358692767878
 30
0.0
 11
104.9161073822446
 21
76.08358692767878
 31
0.0
  0
LINE
  5
244
330
1F
100
AcDbEntity
  8
layer0
  6
Continuous
 62
    18
420
        0
370
     5
100
AcDbLine
 10
28.66671985382507
 20
138.58168762615
 30
0.0
 11
28.66671985382507
 21
96.9151100862291
 31
0.0
  0
LINE
  5
245
330
1F
100
AcDbEntity
  8
layer0
  6
Continuous
 62
    18
420
        0
370
     5
100
AcDbLine
 10
104.9161073822446
 20
73.4800798612701
 30
0.0
 11
69.41608379803762
 21
73.4800798612701
 31
0.0
  0
LINE
  5
246
330
1F
100
AcDbEntity
  8
layer0
  6
Continuous
 62
    18
420
        0
370
     5
100
AcDbLine
 10
104.9161073822446
 20
52.64502547989954
 30
0.0
 11
69.41608379803762
 21
52.64502547989954
 31
0.0
  0
LINE
  5
247
330
1F
100
AcDbEntity
  8
layer0
  6
Continuous
 62
    18
420
        0
370
     5
100
AcDbLine
 10
104.9161073822446
 20
70.87657817782302
 30
0.0
 11
69.41608379803762
 21
70.87657817782302
 31
0.0
  0
LINE
  5
248
330
1F
100
AcDbEntity
  8
layer0
  6
Continuous
 62
    18
420
        0
370
     5
100
AcDbLine
 10
104.9161073822446
 20
57.85555468665229
 30
0.0
 11
69.41608379803762
 21
57.85555468665229
 31
0.0
  0
LINE
  5
249
330
1F
100
AcDbEntity
  8
layer0
  6
Continuous
 62
    18
420
        0
370
     5
100
AcDbLine
 10
104.9161073822446
 20
68.26955603747896
 30
0.0
 11
69.41608379803762
 21
68.26955603747896
 31
0.0
  0
LINE
  5
24A
330
1F
100
AcDbEntity
  8
layer0
  6
Continuous
 62
    18
420
        0
370
     5
100
AcDbLine
 10
104.9161073822446
 20
65.66605435403189
 30
0.0
 11
69.41608379803762
 21
65.66605435403189
 31
0.0
  0
LINE
  5
24B
330
1F
100
AcDbEntity
  8
layer0
  6
Continuous
 62
    18
420
        0
370
     5
100
AcDbLine
 10
104.9161073822446
 20
63.06255267058481
 30
0.0
 11
69.41608379803762
 21
63.06255267058481
 31
0.0
  0
LINE
  5
24C
330
1F
100
AcDbEntity
  8
layer0
  6
Continuous
 62
    18
420
        0
370
     5
100
AcDbLine
 10
104.9161073822446
 20
60.45905637009935
 30
0.0
 11
69.41608379803762
 21
60.45905637009935
 31
0.0
  0
LINE
  5
24D
330
1F
100
AcDbEntity
  8
layer0
  6
Continuous
 62
    18
420
        0
370
     5
100
AcDbLine
 10
104.9161073822446
 20
31.8134996298684
 30
0.0
 11
69.41608379803762
 21
31.8134996298684
 31
0.0
  0
LINE
  5
24E
330
1F
100
AcDbEntity
  8
layer0
  6
Continuous
 62
    18
420
        0
370
     5
100
AcDbLine
 10
104.9161073822446
 20
94.31160840278204
 30
0.0
 11
69.41608379803762
 21
94.31160840278204
 31
0.0
  0
LINE
  5
24F
330
1F
100
AcDbEntity
  8
layer0
  6
Continuous
 62
    18
420
        0
370
     5
100
AcDbLine
 10
202.3321558764777
 20
135.9781859427029
 30
0.0
 11
164.8318937341901
 21
135.9781859427029
 31
0.0
  0
LINE
  5
250
330
1F
100
AcDbEntity
  8
layer0
  6
Continuous
 62
    18
420
        0
370
     5
100
AcDbLine
 10
202.3321558764777
 20
94.31160840278204
 30
0.0
 11
164.8318937341901
 21
94.31160840278204
 31
0.0
  0
LINE
  5
251
330
1F
100
AcDbEntity
  8
layer0
  6
Continuous
 62
    18
420
        0
370
     5
100
AcDbLine
 10
202.3321558764777
 20
133.3746950251791
 30
0.0
 11
164.8318937341901
 21
133.3746950251791
 31
0.0
  0
LINE
  5
252
330
1F
100
AcDbEntity
  8
layer0
  6
Continuous
 62
    18
420
        0
370
     5
100
AcDbLine
 10
202.3321558764777
 20
120.3536661510467
 30
0.0
 11
164.8318937341901
 21
120.3536661510467
 31
0.0
  0
LINE
  5
253
330
1F
100
AcDbEntity
  8
layer0
  6
Continuous
 62
    18
420
        0
370
     5
100
AcDbLine
 10
202.3321558764777
 20
130.771193341732
 30
0.0
 11
164.8318937341901
 21
130.771193341732
 31
0.0
  0
LINE
  5
254
330
1F
100
AcDbEntity
  8
layer0
  6
Continuous
 62
    18
420
        0
370
     5
100
AcDbLine
 10
202.3321558764777
 20
128.1676916582849
 30
0.0
 11
164.8318937341901
 21
128.1676916582849
 31
0.0
  0
LINE
  5
255
330
1F
100
AcDbEntity
  8
layer0
  6
Continuous
 62
    18
420
        0
370
     5
100
AcDbLine
 10
202.3321558764777
 20
125.5641899748379
 30
0.0
 11
164.8318937341901
 21
125.5641899748379
 31
0.0
  0
LINE
  5
256
330
1F
100
AcDbEntity
  8
layer0
  6
Continuous
 62
    18
420
        0
370
     5
100
AcDbLine
 10
202.3321558764777
 20
122.9571678344938
 30
0.0
 11
164.8318937341901
 21
122.9571678344938
 31
0.0
  0
LINE
  5
257
330
1F
100
AcDbEntity
  8
layer0
  6
Continuous
 62
    18
420
        0
370
     5
100
AcDbLine
 10
202.3321558764777
 20
112.5431611007055
 30
0.0
 11
164.8318937341901
 21
112.5431611007055
 31
0.0
  0
LINE
  5
258
330
1F
100
AcDbEntity
  8
layer0
  6
Continuous
 62
    18
420
        0
370
     5
100
AcDbLine
 10
202.3321558764777
 20
99.52214299249641
 30
0.0
 11
164.8318937341901
 21
99.52214299249641
 31
0.0
  0
LINE
  5
259
330
1F
100
AcDbEntity
  8
layer0
  6
Continuous
 62
    18
420
        0
370
     5
100
AcDbLine
 10
202.3321558764777
 20
109.9361389603615
 30
0.0
 11
164.8318937341901
 21
109.9361389603615
 31
0.0
  0
LINE
  5
25A
330
1F
100
AcDbEntity
  8
layer0
  6
Continuous
 62
    18
420
        0
370
     5
100
AcDbLine
 10
202.3321558764777
 20
107.3326372769144
 30
0.0
 11
164.8318937341901
 21
107.3326372769144
 31
0.0
  0
LINE
  5
25B
330
1F
100
AcDbEntity
  8
layer0
  6
Continuous
 62
    18
420
        0
370
     5
100
AcDbLine
 10
202.3321558764777
 20
104.7291355934673
 30
0.0
 11
164.8318937341901
 21
104.7291355934673
 31
0.0
  0
LINE
  5
25C
330
1F
100
AcDbEntity
  8
layer0
  6
Continuous
 62
    18
420
        0
370
     5
100
AcDbLine
 10
202.3321558764777
 20
102.1256339100203
 30
0.0
 11
164.8318937341901
 21
102.1256339100203
 31
0.0
  0
LINE
  5
25D
330
1F
100
AcDbEntity
  8
layer0
  6
Continuous
 62
    18
420
        0
370
     5
100
AcDbLine
 10
202.3321558764777
 20
115.1466627841526
 30
0.0
 11
164.8318937341901
 21
115.1466627841526
 31
0.0
  0
LINE
  5
25E
330
1F
100
AcDbEntity
  8
layer0
  6
Continuous
 62
    18
420
        0
370
     5
100
AcDbLine
 10
202.3321558764777
 20
73.4800798612701
 30
0.0
 11
164.8318937341901
 21
73.4800798612701
 31
0.0
  0
LINE
  5
25F
330
1F
100
AcDbEntity
  8
layer0
  6
Continuous
 62
    18
420
        0
370
     5
100
AcDbLine
 10
202.4168406286238
 20
55.24852716334661
 30
0.0
 11
7.665861507362782
 21
55.24852716334661
 31
0.0
  0
LINE
  5
260
330
1F
100
AcDbEntity
  8
layer0
  6
Continuous
 62
    18
420
        0
370
     5
100
AcDbLine
 10
7.665861507362782
 20
34.41699862183467
 30
0.0
 11
104.9161073822446
 21
34.41699862183467
 31
0.0
  0
LINE
  5
261
330
1F
100
AcDbEntity
  8
layer0
  6
Continuous
 62
    18
420
        0
370
     5
100
AcDbLine
 10
105.0819133659469
 20
117.7501644675997
 30
0.0
 11
202.3321558764777
 21
117.7501644675997
 31
0.0
  0
LINE
  5
262
330
1F
100
AcDbEntity
  8
layer0
  6
Continuous
 62
    18
420
        0
370
     5
100
AcDbLine
 10
105.0819133659469
 20
76.08358692767878
 30
0.0
 11
202.3321558764777
 21
76.08358692767878
 31
0.0
  0
LINE
  5
263
330
1F
100
AcDbEntity
  8
layer0
  6
Continuous
 62
    18
420
        0
370
     5
100
AcDbLine
 10
202.4168406286238
 20
96.9151100862291
 30
0.0
 11
105.0819133659469
 21
96.9151100862291
 31
0.0
  0
TEXT
  5
264
330
1F
100
AcDbEntity
  8
layer0
  6
Continuous
 62
    18
420
        0
100
AcDbText
 10
187.1450986094472
 20
11.25599181525575
 30
0.0
 40
1.142470816175143
  1
1
 41
0.6210075827205883
  7
MS Gothic
100
AcDbText
  0
TEXT
  5
265
330
1F
100
AcDbEntity
  8
layer0
  6
Continuous
 62
    18
420
        0
100
AcDbText
 10
188.0199805950057
 20
11.25599181525575
 30
0.0
 40
1.142470816175143
  1
7
 41
0.7419864430147061
  7
MS Gothic
100
AcDbText
  0
TEXT
  5
266
330
1F
100
AcDbEntity
  8
layer0
  6
Continuous
 62
    18
420
        0
100
AcDbText
 10
188.8948625805642
 20
11.25599181525575
 30
0.0
 40
1.142470816175143
  1
.
 41
0.2700051700367647
  7
MS Gothic
100
AcDbText
  0
TEXT
  5
267
330
1F
100
AcDbEntity
  8
layer0
  6
Continuous
 62
    18
420
        0
100
AcDbText
 10
189.7697660979692
 20
11.25599181525575
 30
0.0
 40
1.142470816175143
  1
0
 41
0.8599781709558825
  7
MS Gothic
100
AcDbText
  0
TEXT
  5
268
330
1F
100
AcDbEntity
  8
layer0
  6
Continuous
 62
    18
420
        0
100
AcDbText
 10
190.6446480835277
 20
11.25599181525575
 30
0.0
 40
1.142470816175143
  1
4
 41
0.8679917279411765
  7
MS Gothic
100
AcDbText
  0
TEXT
  5
269
330
1F
100
AcDbEntity
  8
layer0
  6
Continuous
 62
    18
420
        0
100
AcDbText
 10
191.5195300690862
 20
11.25599181525575
 30
0.0
 40
1.142470816175143
  1
.
 41
0.2700051700367647
  7
MS Gothic
100
AcDbText
  0
TEXT
  5
26A
330
1F
100
AcDbEntity
  8
layer0
  6
Continuous
 62
    18
420
        0
100
AcDbText
 10
192.3944120546447
 20
11.25599181525575
 30
0.0
 40
1.142470816175143
  1
1
 41
0.6210075827205883
  7
MS Gothic
100
AcDbText
  0
TEXT
  5
26B
330
1F
100
AcDbEntity
  8
layer0
  6
Continuous
 62
    18
420
        0
100
AcDbText
 10
193.2692940402032
 20
11.25599181525575
 30
0.0
 40
1.142470816175143
  1
3
 41
0.7960133272058825
  7
MS Gothic
100
AcDbText
  0
TEXT
  5
26C
330
1F
100
AcDbEntity
  8
layer0
  6
Continuous
 62
    18
420
        0
100
AcDbText
 10
189.7697660979692
 20
7.798769914103881
 30
0.0
 40
1.142470816175143
  1
0
 41
0.8599781709558825
  7
MS Gothic
100
AcDbText
  0
TEXT
  5
26D
330
1F
100
AcDbEntity
  8
layer0
  6
Continuous
 62
    18
420
        0
100
AcDbText
 10
190.6446480835277
 20
7.798769914103881
 30
0.0
 40
1.142470816175143
  1
1
 41
0.6210075827205883
  7
MS Gothic
100
AcDbText
  0
TEXT
  5
26E
330
1F
100
AcDbEntity
  8
layer0
  6
Continuous
 62
    18
420
        0
100
AcDbText
 10
20.1683046067026
 20
9.463881430844463
 30
0.0
 40
1.142470816175143
  1
ソ
 41
0.8887504128848805
  7
MS Gothic
100
AcDbText
  0
TEXT
  5
26F
330
1F
100
AcDbEntity
  8
layer0
  6
Continuous
 62
    18
420
        0
100
AcDbText
 10
21.91808203522366
 20
9.463881430844463
 30
0.0
 40
1.142470816175143
  1
フ
 41
0.8637495601878448
  7
MS Gothic
100
AcDbText
  0
TEXT
  5
270
330
1F
100
AcDbEntity
  8
layer0
  6
Continuous
 62
    18
420
        0
100
AcDbText
 10
23.66785946374471
 20
9.463881430844463
 30
0.0
 40
1.142470816175143
  1
ト
 41
0.5950007719152114
  7
MS Gothic
100
AcDbText
  0
TEXT
  5
271
330
1F
100
AcDbEntity
  8
layer0
  6
Continuous
 62
    18
420
        0
100
AcDbText
 10
25.41763958374658
 20
9.463881430844463
 30
0.0
 40
1.142470816175143
  1
ア
 41
0.8079995548023898
  7
MS Gothic
100
AcDbText
  0
TEXT
  5
272
330
1F
100
AcDbEntity
  8
layer0
  6
Continuous
 62
    18
420
        0
100
AcDbText
 10
27.16741701226763
 20
9.463881430844463
 30
0.0
 40
1.142470816175143
  1
ー
 41
0.8709986069623162
  7
MS Gothic
100
AcDbText
  0
TEXT
  5
273
330
1F
100
AcDbEntity
  8
layer0
  6
Continuous
 62
    18
420
        0
100
AcDbText
 10
28.91719444078869
 20
9.463881430844463
 30
0.0
 40
1.142470816175143
  1
ト
 41
0.5950007719152114
  7
MS Gothic
100
AcDbText
  0
TEXT
  5
274
330
1F
100
AcDbEntity
  8
layer0
  6
Continuous
 62
    18
420
        0
100
AcDbText
 10
30.66697186930974
 20
9.463881430844463
 30
0.0
 40
1.142470816175143
  1
　
 41
0.0
  7
MS Gothic
100
AcDbText
  0
TEXT
  5
275
330
1F
100
AcDbEntity
  8
layer0
  6
Continuous
 62
    18
420
        0
100
AcDbText
 10
32.4167492978308
 20
9.463881430844463
 30
0.0
 40
1.142470816175143
  1
洋
 41
0.8860006893382353
  7
MS Gothic
100
AcDbText
  0
TEXT
  5
276
330
1F
100
AcDbEntity
  8
layer0
  6
Continuous
 62
    18
420
        0
100
AcDbText
 10
34.16652941783266
 20
9.463881430844463
 30
0.0
 40
1.142470816175143
  1
風
 41
0.9260002585018383
  7
MS Gothic
100
AcDbText
  0
TEXT
  5
277
330
1F
100
AcDbEntity
  8
layer0
  6
Continuous
 62
    18
420
        0
100
AcDbText
 10
35.91630684635372
 20
9.463881430844463
 30
0.0
 40
1.142470816175143
  1
造
 41
0.8979994829963236
  7
MS Gothic
100
AcDbText
  0
TEXT
  5
278
330
1F
100
AcDbEntity
  8
layer0
  6
Continuous
 62
    18
420
        0
100
AcDbText
 10
37.66608158339396
 20
9.463881430844463
 30
0.0
 40
1.142470816175143
  1
作
 41
0.8750000000000001
  7
MS Gothic
100
AcDbText
  0
TEXT
  5
279
330
1F
100
AcDbEntity
  8
layer0
  6
Continuous
 62
    18
420
        0
100
AcDbText
 10
39.41585901191502
 20
9.463881430844463
 30
0.0
 40
1.142470816175143
  1
材
 41
0.9030007755055148
  7
MS Gothic
100
AcDbText
  0
TEXT
  5
27A
330
1F
100
AcDbEntity
  8
layer0
  6
Continuous
 62
    18
420
        0
100
AcDbText
 10
41.16563644043607
 20
9.463881430844463
 30
0.0
 40
1.142470816175143
  1
　
 41
0.0
  7
MS Gothic
100
AcDbText
  0
TEXT
  5
27B
330
1F
100
AcDbEntity
  8
layer0
  6
Continuous
 62
    18
420
        0
100
AcDbText
 10
42.91541656043793
 20
9.463881430844463
 30
0.0
 40
1.142470816175143
  1
窓
 41
0.8440013212316176
  7
MS Gothic
100
AcDbText
  0
TEXT
  5
27C
330
1F
100
AcDbEntity
  8
layer0
  6
Continuous
 62
    18
420
        0
100
AcDbText
 10
44.66519398895899
 20
9.463881430844463
 30
0.0
 40
1.142470816175143
  1
枠
 41
0.8979994829963236
  7
MS Gothic
100
AcDbText
  0
TEXT
  5
27D
330
1F
100
AcDbEntity
  8
layer0
  6
Continuous
 62
    18
420
        0
100
AcDbText
 10
46.41497410896086
 20
9.463881430844463
 30
0.0
 40
1.142470816175143
  1
Ｌ
 41
0.532000373391544
  7
MS Gothic
100
AcDbText
  0
TEXT
  5
27E
330
1F
100
AcDbEntity
  8
layer0
  6
Continuous
 62
    18
420
        0
100
AcDbText
 10
48.16827468585971
 20
9.463881430844463
 30
0.0
 40
1.142470816175143
  1
型
 41
0.8599997127757353
  7
MS Gothic
100
AcDbText
  0
TEXT
  5
27F
330
1F
100
AcDbEntity
  8
layer0
  6
Continuous
 62
    18
420
        0
100
AcDbText
 10
49.91805480586158
 20
9.463881430844463
 30
0.0
 40
1.142470816175143
  1
　
 41
0.0
  7
MS Gothic
100
AcDbText
  0
TEXT
  5
280
330
1F
100
AcDbEntity
  8
layer0
  6
Continuous
 62
    18
420
        0
100
AcDbText
 10
51.66782954290182
 20
9.463881430844463
 30
0.0
 40
1.142470816175143
  1
1
 41
0.6209968118106618
  7
MS Gothic
100
AcDbText
  0
TEXT
  5
281
330
1F
100
AcDbEntity
  8
layer0
  6
Continuous
 62
    18
420
        0
100
AcDbText
 10
52.54271691142196
 20
9.463881430844463
 30
0.0
 40
1.142470816175143
  1
9
 41
0.7800005744485294
  7
MS Gothic
100
AcDbText
  0
TEXT
  5
282
330
1F
100
AcDbEntity
  8
layer0
  6
Continuous
 62
    18
420
        0
100
AcDbText
 10
53.41760966290369
 20
9.463881430844463
 30
0.0
 40
1.142470816175143
  1
5
 41
0.7959989659926472
  7
MS Gothic
100
AcDbText
  0
TEXT
  5
283
330
1F
100
AcDbEntity
  8
layer0
  6
Continuous
 62
    18
420
        0
100
AcDbText
 10
54.29249703142381
 20
9.463881430844463
 30
0.0
 40
1.142470816175143
  1
幅
 41
0.8900002872242647
  7
MS Gothic
100
AcDbText
  0
TEXT
  5
284
330
1F
100
AcDbEntity
  8
layer0
  6
Continuous
 62
    18
420
        0
100
AcDbText
 10
56.04227715142568
 20
9.463881430844463
 30
0.0
 40
1.142470816175143
  1
－
 41
0.9075030158547794
  7
MS Gothic
100
AcDbText
  0
TEXT
  5
285
330
1F
100
AcDbEntity
  8
layer0
  6
Continuous
 62
    18
420
        0
100
AcDbText
 10
57.79205727142755
 20
9.463881430844463
 30
0.0
 40
1.142470816175143
  1
1
 41
0.6209968118106618
  7
MS Gothic
100
AcDbText
  0
TEXT
  5
286
330
1F
100
AcDbEntity
  8
layer0
  6
Continuous
 62
    18
420
        0
100
AcDbText
 10
58.66694463994767
 20
9.463881430844463
 30
0.0
 40
1.142470816175143
  1
9
 41
0.7800005744485294
  7
MS Gothic
100
AcDbText
  0
TEXT
  5
287
330
1F
100
AcDbEntity
  8
layer0
  6
Continuous
 62
    18
420
        0
100
AcDbText
 10
59.54183200846779
 20
9.463881430844463
 30
0.0
 40
1.142470816175143
  1
1
 41
0.6209968118106618
  7
MS Gothic
100
AcDbText
  0
TEXT
  5
288
330
1F
100
AcDbEntity
  8
layer0
  6
Continuous
 62
    18
420
        0
100
AcDbText
 10
60.41671937698791
 20
9.463881430844463
 30
0.0
 40
1.142470816175143
  1
幅
 41
0.8900002872242647
  7
MS Gothic
100
AcDbText
  0
ENDSEC
  0
SECTION
  2
OBJECTS
  0
DICTIONARY
  5
C
330
0
100
AcDbDictionary
281
     1
  3
ACAD_DETAILVIEWSTYLE
350
2C0
  3
ACAD_GROUP
350
D
  3
ACAD_LAYOUT
350
1A
  3
ACAD_MATERIAL
350
43
  3
ACAD_MLEADERSTYLE
350
6B
  3
ACAD_MLINESTYLE
350
17
  3
ACAD_PLOTSETTINGS
350
19
  3
ACAD_PLOTSTYLENAME
350
E
  3
ACAD_SCALELIST
350
47
  3
ACAD_SECTIONVIEWSTYLE
350
2C1
  3
ACAD_TABLESTYLE
350
69
  3
ACAD_VISUALSTYLE
350
2A
  3
ACDB_RECOMPOSE_DATA
350
2BD
  3
AcDbVariableDictionary
350
289
  0
SUN
  5
6D
330
29
100
AcDbSun
 90
        1
290
     0
 63
     7
421
 16777215
 40
1.0
291
     1
 91
  2455826
 92
 54000000
292
     0
 70
     2
 71
   256
280
     1
  0
DICTIONARY
  5
2C0
102
{ACAD_REACTORS
330
C
102
}
330
C
100
AcDbDictionary
281
     1
  0
DICTIONARY
  5
D
102
{ACAD_REACTORS
330
C
102
}
330
C
100
AcDbDictionary
281
     1
  0
DICTIONARY
  5
1A
102
{ACAD_REACTORS
330
C
102
}
330
C
100
AcDbDictionary
281
     1
  3
Layout1
350
1E
  3
Layout2
350
26
  3
Model
350
22
  0
DICTIONARY
  5
43
102
{ACAD_REACTORS
330
C
102
}
330
C
100
AcDbDictionary
281
     1
  3
ByBlock
350
45
  3
ByLayer
350
44
  3
Global
350
46
  0
DICTIONARY
  5
6B
102
{ACAD_REACTORS
330
C
102
}
330
C
100
AcDbDictionary
281
     1
  3
Standard
350
6C
  0
DICTIONARY
  5
17
102
{ACAD_REACTORS
330
C
102
}
330
C
100
AcDbDictionary
281
     1
  3
Standard
350
18
  0
DICTIONARY
  5
19
102
{ACAD_REACTORS
330
C
102
}
330
C
100
AcDbDictionary
281
     1
  0
ACDBDICTIONARYWDFLT
  5
E
102
{ACAD_REACTORS
330
C
102
}
330
C
100
AcDbDictionary
281
     1
  3
Normal
350
F
100
AcDbDictionaryWithDefault
340
F
  0
DICTIONARY
  5
47
102
{ACAD_REACTORS
330
C
102
}
330
C
100
AcDbDictionary
281
     1
  3
A0
350
48
  3
A1
350
49
  3
A2
350
4A
  3
A3
350
4B
  3
A4
350
4C
  3
A5
350
4D
  3
A6
350
4E
  3
A7
350
4F
  3
A8
350
50
  3
A9
350
51
  3
B0
350
52
  3
B1
350
53
  3
B2
350
54
  3
B3
350
55
  3
B4
350
56
  3
B5
350
57
  3
B6
350
58
  3
B7
350
59
  3
B8
350
5A
  3
B9
350
5B
  3
C0
350
5C
  3
C1
350
5D
  3
C2
350
5E
  3
C3
350
5F
  3
C4
350
60
  3
C5
350
61
  3
C6
350
62
  3
C7
350
63
  3
C8
350
64
  3
C9
350
65
  3
D0
350
66
  3
D1
350
67
  3
D2
350
68
  0
DICTIONARY
  5
2C1
102
{ACAD_REACTORS
330
C
102
}
330
C
100
AcDbDictionary
281
     1
  0
DICTIONARY
  5
69
102
{ACAD_REACTORS
330
C
102
}
330
C
100
AcDbDictionary
281
     1
  3
Standard
350
6A
  0
DICTIONARY
  5
2A
102
{ACAD_REACTORS
330
C
102
}
330
C
100
AcDbDictionary
281
     1
  3
2dWireframe
350
2F
  3
Basic
350
32
  3
Brighten
350
36
  3
ColorChange
350
3A
  3
Conceptual
350
34
  3
Dim
350
35
  3
EdgeColorOff
350
3D
  3
Facepattern
350
39
  3
Flat
350
2B
  3
FlatWithEdges
350
2C
  3
Gouraud
350
2D
  3
GouraudWithEdges
350
2E
  3
Hidden
350
31
  3
JitterOff
350
3B
  3
Linepattern
350
38
  3
OverhangOff
350
3C
  3
Realistic
350
33
  3
Shaded
350
42
  3
Shaded with edges
350
41
  3
Shades of Gray
350
3E
  3
Sketchy
350
3F
  3
Thicken
350
37
  3
Wireframe
350
30
  3
X-Ray
350
40
  0
XRECORD
  5
2BD
102
{ACAD_REACTORS
330
C
102
}
330
C
100
AcDbXrecord
280
     1
 90
        1
330
6A
  0
DICTIONARY
  5
289
102
{ACAD_REACTORS
330
C
102
}
330
C
100
AcDbDictionary
281
     1
  3
CANNOSCALE
350
28A
  3
CENTEREXE
350
2C2
  3
CENTERLTYPEFILE
350
2C3
  3
CMLEADERSTYLE
350
2BF
  3
CTABLESTYLE
350
2BE
  0
LAYOUT
  5
1E
102
{ACAD_REACTORS
330
1A
102
}
330
1A
100
AcDbPlotSettings
  1

  2
none_device
  4

  6

 40
0.0
 41
0.0
 42
0.0
 43
0.0
 44
0.0
 45
0.0
 46
0.0
 47
0.0
 48
0.0
 49
0.0
140
0.0
141
0.0
142
1.0
143
1.0
 70
   688
 72
     1
 73
     0
 74
     5
  7

 75
    16
 76
     0
 77
     5
 78
   300
147
1.0
148
0.0
149
0.0
100
AcDbLayout
  1
Layout1
 70
     1
 71
     1
 10
0.0
 20
0.0
 11
420.0
 21
297.0
 12
0.0
 22
0.0
 32
0.0
 14
1.000000000000000E+20
 24
1.000000000000000E+20
 34
1.000000000000000E+20
 15
-1.000000000000000E+20
 25
-1.000000000000000E+20
 35
-1.000000000000000E+20
146
0.0
 13
0.0
 23
0.0
 33
0.0
 16
1.0
 26
0.0
 36
0.0
 17
0.0
 27
1.0
 37
0.0
 76
     0
330
1B
  0
LAYOUT
  5
26
102
{ACAD_REACTORS
330
1A
102
}
330
1A
100
AcDbPlotSettings
  1

  2
none_device
  4

  6

 40
0.0
 41
0.0
 42
0.0
 43
0.0
 44
0.0
 45
0.0
 46
0.0
 47
0.0
 48
0.0
 49
0.0
140
0.0
141
0.0
142
1.0
143
1.0
 70
   688
 72
     1
 73
     0
 74
     5
  7

 75
    16
 76
     0
 77
     5
 78
   300
147
1.0
148
0.0
149
0.0
100
AcDbLayout
  1
Layout2
 70
     1
 71
     2
 10
0.0
 20
0.0
 11
0.0
 21
0.0
 12
0.0
 22
0.0
 32
0.0
 14
0.0
 24
0.0
 34
0.0
 15
0.0
 25
0.0
 35
0.0
146
0.0
 13
0.0
 23
0.0
 33
0.0
 16
1.0
 26
0.0
 36
0.0
 17
0.0
 27
1.0
 37
0.0
 76
     0
330
23
  0
LAYOUT
  5
22
102
{ACAD_REACTORS
330
1A
102
}
330
1A
100
AcDbPlotSettings
  1

  2
none_device
  4
Letter_(8.50_x_11.00_Inches)
  6

 40
6.35
 41
6.35
 42
6.35000508
 43
6.35000508
 44
215.9
 45
279.4
 46
0.0
 47
0.0
 48
0.0
 49
0.0
140
0.0
141
0.0
142
1.0
143
1.0
 70
  1712
 72
     1
 73
     0
 74
     0
  7

 75
     0
 76
     0
 77
     5
 78
   300
147
1.0
148
0.0
149
0.0
100
AcDbLayout
  1
Model
 70
     1
 71
     0
 10
0.0
 20
0.0
 11
210.0015627369349
 21
152.9997242307662
 12
0.0
 22
0.0
 32
0.0
 14
0.0
 24
0.0
 34
0.0
 15
210.0015627369349
 25
152.9997242307662
 35
0.0
146
0.0
 13
0.0
 23
0.0
 33
0.0
 16
1.0
 26
0.0
 36
0.0
 17
0.0
 27
1.0
 37
0.0
 76
     0
330
1F
331
29
  0
MATERIAL
  5
45
102
{ACAD_REACTORS
330
43
102
}
330
43
100
AcDbMaterial
  1
ByBlock
 72
     1
 94
      127
  0
MATERIAL
  5
44
102
{ACAD_REACTORS
330
43
102
}
330
43
100
AcDbMaterial
  1
ByLayer
 72
     1
 94
      127
  0
MATERIAL
  5
46
102
{ACAD_REACTORS
330
43
102
}
330
43
100
AcDbMaterial
  1
Global
 72
     1
 94
      127
  0
MLEADERSTYLE
  5
6C
102
{ACAD_REACTORS
330
6B
102
}
330
6B
100
AcDbMLeaderStyle
179
     2
170
     2
171
     1
172
     0
 90
        2
 40
0.0
 41
0.0
173
     1
 91
-1056964608
340
14
 92
       -2
290
     1
 42
2.0
291
     1
 43
8.0
  3
Standard
341
0
 44
4.0
300

342
11
174
     1
178
     6
175
     1
176
     0
 93
-1056964608
 45
4.0
292
     0
297
     0
 46
4.0
343
0
 94
-1056964608
 47
1.0
 49
1.0
140
1.0
293
     1
141
0.0
294
     1
177
     0
142
1.0
295
     0
296
     0
143
3.75
271
     0
272
     9
273
     9
  0
MLINESTYLE
  5
18
102
{ACAD_REACTORS
330
17
102
}
330
17
100
AcDbMlineStyle
  2
Standard
 70
     0
  3

 62
   256
 51
90.0
 52
90.0
 71
     2
 49
0.5
 62
   256
  6
BYLAYER
 49
-0.5
 62
   256
  6
BYLAYER
  0
ACDBPLACEHOLDER
  5
F
102
{ACAD_REACTORS
330
E
102
}
330
E
  0
SCALE
  5
48
102
{ACAD_REACTORS
330
47
102
}
330
47
100
AcDbScale
 70
     0
300
1:1
140
1.0
141
1.0
290
     1
  0
SCALE
  5
49
102
{ACAD_REACTORS
330
47
102
}
330
47
100
AcDbScale
 70
     0
300
1:2
140
1.0
141
2.0
290
     0
  0
SCALE
  5
4A
102
{ACAD_REACTORS
330
47
102
}
330
47
100
AcDbScale
 70
     0
300
1:4
140
1.0
141
4.0
290
     0
  0
SCALE
  5
4B
102
{ACAD_REACTORS
330
47
102
}
330
47
100
AcDbScale
 70
     0
300
1:5
140
1.0
141
5.0
290
     0
  0
SCALE
  5
4C
102
{ACAD_REACTORS
330
47
102
}
330
47
100
AcDbScale
 70
     0
300
1:8
140
1.0
141
8.0
290
     0
  0
SCALE
  5
4D
102
{ACAD_REACTORS
330
47
102
}
330
47
100
AcDbScale
 70
     0
300
1:10
140
1.0
141
10.0
290
     0
  0
SCALE
  5
4E
102
{ACAD_REACTORS
330
47
102
}
330
47
100
AcDbScale
 70
     0
300
1:16
140
1.0
141
16.0
290
     0
  0
SCALE
  5
4F
102
{ACAD_REACTORS
330
47
102
}
330
47
100
AcDbScale
 70
     0
300
1:20
140
1.0
141
20.0
290
     0
  0
SCALE
  5
50
102
{ACAD_REACTORS
330
47
102
}
330
47
100
AcDbScale
 70
     0
300
1:30
140
1.0
141
30.0
290
     0
  0
SCALE
  5
51
102
{ACAD_REACTORS
330
47
102
}
330
47
100
AcDbScale
 70
     0
300
1:40
140
1.0
141
40.0
290
     0
  0
SCALE
  5
52
102
{ACAD_REACTORS
330
47
102
}
330
47
100
AcDbScale
 70
     0
300
1:50
140
1.0
141
50.0
290
     0
  0
SCALE
  5
53
102
{ACAD_REACTORS
330
47
102
}
330
47
100
AcDbScale
 70
     0
300
1:100
140
1.0
141
100.0
290
     0
  0
SCALE
  5
54
102
{ACAD_REACTORS
330
47
102
}
330
47
100
AcDbScale
 70
     0
300
2:1
140
2.0
141
1.0
290
     0
  0
SCALE
  5
55
102
{ACAD_REACTORS
330
47
102
}
330
47
100
AcDbScale
 70
     0
300
4:1
140
4.0
141
1.0
290
     0
  0
SCALE
  5
56
102
{ACAD_REACTORS
330
47
102
}
330
47
100
AcDbScale
 70
     0
300
8:1
140
8.0
141
1.0
290
     0
  0
SCALE
  5
57
102
{ACAD_REACTORS
330
47
102
}
330
47
100
AcDbScale
 70
     0
300
10:1
140
10.0
141
1.0
290
     0
  0
SCALE
  5
58
102
{ACAD_REACTORS
330
47
102
}
330
47
100
AcDbScale
 70
     0
300
100:1
140
100.0
141
1.0
290
     0
  0
SCALE
  5
59
102
{ACAD_REACTORS
330
47
102
}
330
47
100
AcDbScale
 70
     0
300
1/128" = 1'-0"
140
0.0078125
141
12.0
290
     0
  0
SCALE
  5
5A
102
{ACAD_REACTORS
330
47
102
}
330
47
100
AcDbScale
 70
     0
300
1/64" = 1'-0"
140
0.015625
141
12.0
290
     0
  0
SCALE
  5
5B
102
{ACAD_REACTORS
330
47
102
}
330
47
100
AcDbScale
 70
     0
300
1/32" = 1'-0"
140
0.03125
141
12.0
290
     0
  0
SCALE
  5
5C
102
{ACAD_REACTORS
330
47
102
}
330
47
100
AcDbScale
 70
     0
300
1/16" = 1'-0"
140
0.0625
141
12.0
290
     0
  0
SCALE
  5
5D
102
{ACAD_REACTORS
330
47
102
}
330
47
100
AcDbScale
 70
     0
300
3/32" = 1'-0"
140
0.09375
141
12.0
290
     0
  0
SCALE
  5
5E
102
{ACAD_REACTORS
330
47
102
}
330
47
100
AcDbScale
 70
     0
300
1/8" = 1'-0"
140
0.125
141
12.0
290
     0
  0
SCALE
  5
5F
102
{ACAD_REACTORS
330
47
102
}
330
47
100
AcDbScale
 70
     0
300
3/16" = 1'-0"
140
0.1875
141
12.0
290
     0
  0
SCALE
  5
60
102
{ACAD_REACTORS
330
47
102
}
330
47
100
AcDbScale
 70
     0
300
1/4" = 1'-0"
140
0.25
141
12.0
290
     0
  0
SCALE
  5
61
102
{ACAD_REACTORS
330
47
102
}
330
47
100
AcDbScale
 70
     0
300
3/8" = 1'-0"
140
0.375
141
12.0
290
     0
  0
SCALE
  5
62
102
{ACAD_REACTORS
330
47
102
}
330
47
100
AcDbScale
 70
     0
300
1/2" = 1'-0"
140
0.5
141
12.0
290
     0
  0
SCALE
  5
63
102
{ACAD_REACTORS
330
47
102
}
330
47
100
AcDbScale
 70
     0
300
3/4" = 1'-0"
140
0.75
141
12.0
290
     0
  0
SCALE
  5
64
102
{ACAD_REACTORS
330
47
102
}
330
47
100
AcDbScale
 70
     0
300
1" = 1'-0"
140
1.0
141
12.0
290
     0
  0
SCALE
  5
65
102
{ACAD_REACTORS
330
47
102
}
330
47
100
AcDbScale
 70
     0
300
1-1/2" = 1'-0"
140
1.5
141
12.0
290
     0
  0
SCALE
  5
66
102
{ACAD_REACTORS
330
47
102
}
330
47
100
AcDbScale
 70
     0
300
3" = 1'-0"
140
3.0
141
12.0
290
     0
  0
SCALE
  5
67
102
{ACAD_REACTORS
330
47
102
}
330
47
100
AcDbScale
 70
     0
300
6" = 1'-0"
140
6.0
141
12.0
290
     0
  0
SCALE
  5
68
102
{ACAD_REACTORS
330
47
102
}
330
47
100
AcDbScale
 70
     0
300
1'-0" = 1'-0"
140
12.0
141
12.0
290
     0
  0
TABLESTYLE
  5
6A
102
{ACAD_REACTORS
330
69
102
}
102
{ACAD_XDICTIONARY
360
2BB
102
}
330
69
100
AcDbTableStyle
  3
Standard
 70
     0
 71
     0
 40
0.06
 41
0.06
280
     0
281
     0
  7
Standard
140
4.5
170
     2
 62
     0
 63
   257
283
     0
 90
        4
 91
        0
  1

274
    -2
284
     1
 64
     0
275
    -2
285
     1
 65
     0
276
    -2
286
     1
 66
     0
277
    -2
287
     1
 67
     0
278
    -2
288
     1
 68
     0
279
    -2
289
     1
 69
     0
  7
Standard
140
6.0
170
     5
 62
     0
 63
   257
283
     0
 90
        4
 91
        0
  1

274
    -2
284
     1
 64
     0
275
    -2
285
     1
 65
     0
276
    -2
286
     1
 66
     0
277
    -2
287
     1
 67
     0
278
    -2
288
     1
 68
     0
279
    -2
289
     1
 69
     0
  7
Standard
140
4.5
170
     5
 62
     0
 63
   257
283
     0
 90
        4
 91
        0
  1

274
    -2
284
     1
 64
     0
275
    -2
285
     1
 65
     0
276
    -2
286
     1
 66
     0
277
    -2
287
     1
 67
     0
278
    -2
288
     1
 68
     0
279
    -2
289
     1
 69
     0
  0
VISUALSTYLE
  5
2F
102
{ACAD_REACTORS
330
2A
102
}
102
{ACAD_XDICTIONARY
360
293
102
}
330
2A
100
AcDbVisualStyle
  2
2dWireframe
 70
     4
177
     2
291
     0
 71
     0
176
     1
 72
     2
176
     1
 73
     0
176
     1
 90
        0
176
     1
 40
0.6
176
     1
 41
30.0
176
     1
 62
     5
 63
     7
421
 16777215
176
     1
 74
     1
176
     1
 91
        4
176
     1
 64
     7
176
     1
 65
   257
176
     1
 75
     1
176
     1
175
     1
176
     1
 42
1.0
176
     1
 92
        0
176
     1
 66
   257
176
     1
 43
1.0
176
     1
 76
     1
176
     1
 77
     6
176
     1
 78
     2
176
     1
 67
     7
176
     1
 79
     5
176
     1
170
     0
176
     1
171
     0
176
     1
290
     0
176
     1
 93
        1
176
     1
 44
0.0
176
     1
173
     0
176
     1
  0
VISUALSTYLE
  5
32
102
{ACAD_REACTORS
330
2A
102
}
102
{ACAD_XDICTIONARY
360
299
102
}
330
2A
100
AcDbVisualStyle
  2
Basic
 70
     7
177
     2
291
     1
 71
     1
176
     1
 72
     0
176
     1
 73
     1
176
     1
 90
        0
176
     1
 40
0.6
176
     1
 41
30.0
176
     1
 62
     5
 63
     7
421
 16777215
176
     1
 74
     0
176
     1
 91
        4
176
     1
 64
     7
176
     1
 65
   257
176
     1
 75
     1
176
     1
175
     1
176
     1
 42
1.0
176
     1
 92
        8
176
     1
 66
     7
176
     1
 43
1.0
176
     1
 76
     1
176
     1
 77
     6
176
     1
 78
     2
176
     1
 67
     7
176
     1
 79
     5
176
     1
170
     0
176
     1
171
     0
176
     1
290
     0
176
     1
 93
        1
176
     1
 44
0.0
176
     1
173
     0
176
     1
  0
VISUALSTYLE
  5
36
102
{ACAD_REACTORS
330
2A
102
}
102
{ACAD_XDICTIONARY
360
2A1
102
}
330
2A
100
AcDbVisualStyle
  2
Brighten
 70
    12
177
     2
291
     1
 71
     2
176
     1
 72
     2
176
     1
 73
     0
176
     1
 90
        0
176
     1
 40
0.6
176
     1
 41
30.0
176
     1
 62
     5
 63
     7
421
 16777215
176
     1
 74
     1
176
     1
 91
        4
176
     1
 64
     7
176
     1
 65
   257
176
     1
 75
     1
176
     1
175
     1
176
     1
 42
1.0
176
     1
 92
        8
176
     1
 66
     7
176
     1
 43
1.0
176
     1
 76
     1
176
     1
 77
     6
176
     1
 78
     2
176
     1
 67
     7
176
     1
 79
     5
176
     1
170
     0
176
     1
171
     0
176
     1
290
     0
176
     1
 93
        1
176
     1
 44
50.0
176
     1
173
     0
176
     1
  0
VISUALSTYLE
  5
3A
102
{ACAD_REACTORS
330
2A
102
}
102
{ACAD_XDICTIONARY
360
2A9
102
}
330
2A
100
AcDbVisualStyle
  2
ColorChange
 70
    16
177
     2
291
     1
 71
     2
176
     1
 72
     2
176
     1
 73
     3
176
     1
 90
        0
176
     1
 40
0.6
176
     1
 41
30.0
176
     1
 62
     5
 63
     8
421
  8421504
176
     1
 74
     1
176
     1
 91
        4
176
     1
 64
     7
176
     1
 65
   257
176
     1
 75
     1
176
     1
175
     1
176
     1
 42
1.0
176
     1
 92
        8
176
     1
 66
     8
424
  8421504
176
     1
 43
1.0
176
     1
 76
     1
176
     1
 77
     6
176
     1
 78
     2
176
     1
 67
     7
176
     1
 79
     5
176
     1
170
     0
176
     1
171
     0
176
     1
290
     0
176
     1
 93
        1
176
     1
 44
0.0
176
     1
173
     0
176
     1
  0
VISUALSTYLE
  5
34
102
{ACAD_REACTORS
330
2A
102
}
102
{ACAD_XDICTIONARY
360
29D
102
}
330
2A
100
AcDbVisualStyle
  2
Conceptual
 70
     9
177
     2
291
     0
 71
     3
176
     1
 72
     2
176
     1
 73
     0
176
     1
 90
        0
176
     1
 40
0.6
176
     1
 41
30.0
176
     1
 62
     5
 63
     7
421
 16777215
176
     1
 74
     2
176
     1
 91
        2
176
     1
 64
     7
176
     1
 65
   257
176
     1
 75
     1
176
     1
175
     1
176
     1
 42
179.0
176
     1
 92
        8
176
     1
 66
     7
176
     1
 43
1.0
176
     1
 76
     1
176
     1
 77
     6
176
     1
 78
     2
176
     1
 67
     7
176
     1
 79
     3
176
     1
170
     0
176
     1
171
     0
176
     1
290
     0
176
     1
 93
        1
176
     1
 44
0.0
176
     1
173
     0
176
     1
  0
VISUALSTYLE
  5
35
102
{ACAD_REACTORS
330
2A
102
}
102
{ACAD_XDICTIONARY
360
29F
102
}
330
2A
100
AcDbVisualStyle
  2
Dim
 70
    11
177
     2
291
     1
 71
     2
176
     1
 72
     2
176
     1
 73
     0
176
     1
 90
        0
176
     1
 40
0.6
176
     1
 41
30.0
176
     1
 62
     5
 63
     7
421
 16777215
176
     1
 74
     1
176
     1
 91
        4
176
     1
 64
     7
176
     1
 65
   257
176
     1
 75
     1
176
     1
175
     1
176
     1
 42
1.0
176
     1
 92
        8
176
     1
 66
     7
176
     1
 43
1.0
176
     1
 76
     1
176
     1
 77
     6
176
     1
 78
     2
176
     1
 67
     7
176
     1
 79
     5
176
     1
170
     0
176
     1
171
     0
176
     1
290
     0
176
     1
 93
        1
176
     1
 44
-50.0
176
     1
173
     0
176
     1
  0
VISUALSTYLE
  5
3D
102
{ACAD_REACTORS
330
2A
102
}
102
{ACAD_XDICTIONARY
360
2AF
102
}
330
2A
100
AcDbVisualStyle
  2
EdgeColorOff
 70
    22
177
     2
291
     1
 71
     2
176
     0
 72
     2
176
     0
 73
     0
176
     0
 90
        0
176
     0
 40
0.6
176
     0
 41
30.0
176
     0
 62
     5
 63
     7
421
 16777215
176
     0
 74
     1
176
     0
 91
        4
176
     0
 64
     7
176
     0
 65
   257
176
     0
 75
     1
176
     0
175
     1
176
     0
 42
1.0
176
     0
 92
        8
176
     2
 66
     7
176
     0
 43
1.0
176
     0
 76
     1
176
     0
 77
     6
176
     0
 78
     2
176
     0
 67
     7
176
     0
 79
     5
176
     0
170
     0
176
     0
171
     0
176
     0
290
     0
176
     0
 93
        1
176
     0
 44
0.0
176
     0
173
     0
176
     0
  0
VISUALSTYLE
  5
39
102
{ACAD_REACTORS
330
2A
102
}
102
{ACAD_XDICTIONARY
360
2A7
102
}
330
2A
100
AcDbVisualStyle
  2
Facepattern
 70
    15
177
     2
291
     1
 71
     2
176
     1
 72
     2
176
     1
 73
     0
176
     1
 90
        0
176
     1
 40
0.6
176
     1
 41
30.0
176
     1
 62
     5
 63
     7
421
 16777215
176
     1
 74
     1
176
     1
 91
        4
176
     1
 64
     7
176
     1
 65
   257
176
     1
 75
     1
176
     1
175
     1
176
     1
 42
1.0
176
     1
 92
        8
176
     1
 66
     7
176
     1
 43
1.0
176
     1
 76
     1
176
     1
 77
     6
176
     1
 78
     2
176
     1
 67
     7
176
     1
 79
     5
176
     1
170
     0
176
     1
171
     0
176
     1
290
     0
176
     1
 93
        1
176
     1
 44
0.0
176
     1
173
     0
176
     1
  0
VISUALSTYLE
  5
2B
102
{ACAD_REACTORS
330
2A
102
}
102
{ACAD_XDICTIONARY
360
28B
102
}
330
2A
100
AcDbVisualStyle
  2
Flat
 70
     0
177
     2
291
     1
 71
     2
176
     1
 72
     1
176
     1
 73
     1
176
     1
 90
        2
176
     1
 40
0.6
176
     1
 41
30.0
176
     1
 62
     5
 63
     7
421
 16777215
176
     1
 74
     0
176
     1
 91
        0
176
     1
 64
     7
176
     1
 65
   257
176
     1
 75
     1
176
     1
175
     1
176
     1
 42
1.0
176
     1
 92
        8
176
     1
 66
     7
176
     1
 43
1.0
176
     1
 76
     1
176
     1
 77
     6
176
     1
 78
     2
176
     1
 67
     7
176
     1
 79
     5
176
     1
170
     0
176
     1
171
     0
176
     1
290
     0
176
     1
 93
       13
176
     1
 44
0.0
176
     1
173
     0
176
     1
  0
VISUALSTYLE
  5
2C
102
{ACAD_REACTORS
330
2A
102
}
102
{ACAD_XDICTIONARY
360
28D
102
}
330
2A
100
AcDbVisualStyle
  2
FlatWithEdges
 70
     1
177
     2
291
     1
 71
     2
176
     1
 72
     1
176
     1
 73
     1
176
     1
 90
        2
176
     1
 40
0.6
176
     1
 41
30.0
176
     1
 62
     5
 63
     7
421
 16777215
176
     1
 74
     1
176
     1
 91
        0
176
     1
 64
     7
176
     1
 65
   257
176
     1
 75
     1
176
     1
175
     1
176
     1
 42
1.0
176
     1
 92
        0
176
     1
 66
   257
176
     1
 43
1.0
176
     1
 76
     1
176
     1
 77
     6
176
     1
 78
     2
176
     1
 67
     7
176
     1
 79
     5
176
     1
170
     0
176
     1
171
     0
176
     1
290
     0
176
     1
 93
       13
176
     1
 44
0.0
176
     1
173
     0
176
     1
  0
VISUALSTYLE
  5
2D
102
{ACAD_REACTORS
330
2A
102
}
102
{ACAD_XDICTIONARY
360
28F
102
}
330
2A
100
AcDbVisualStyle
  2
Gouraud
 70
     2
177
     2
291
     1
 71
     2
176
     1
 72
     2
176
     1
 73
     1
176
     1
 90
        2
176
     1
 40
0.6
176
     1
 41
30.0
176
     1
 62
     5
 63
     7
421
 16777215
176
     1
 74
     0
176
     1
 91
        0
176
     1
 64
     7
176
     1
 65
   257
176
     1
 75
     1
176
     1
175
     1
176
     1
 42
1.0
176
     1
 92
        0
176
     1
 66
     7
176
     1
 43
1.0
176
     1
 76
     1
176
     1
 77
     6
176
     1
 78
     2
176
     1
 67
     7
176
     1
 79
     5
176
     1
170
     0
176
     1
171
     0
176
     1
290
     0
176
     1
 93
       13
176
     1
 44
0.0
176
     1
173
     0
176
     1
  0
VISUALSTYLE
  5
2E
102
{ACAD_REACTORS
330
2A
102
}
102
{ACAD_XDICTIONARY
360
291
102
}
330
2A
100
AcDbVisualStyle
  2
GouraudWithEdges
 70
     3
177
     2
291
     1
 71
     2
176
     1
 72
     2
176
     1
 73
     1
176
     1
 90
        2
176
     1
 40
0.6
176
     1
 41
30.0
176
     1
 62
     5
 63
     7
421
 16777215
176
     1
 74
     1
176
     1
 91
        0
176
     1
 64
     7
176
     1
 65
   257
176
     1
 75
     1
176
     1
175
     1
176
     1
 42
1.0
176
     1
 92
        0
176
     1
 66
   257
176
     1
 43
1.0
176
     1
 76
     1
176
     1
 77
     6
176
     1
 78
     2
176
     1
 67
     7
176
     1
 79
     5
176
     1
170
     0
176
     1
171
     0
176
     1
290
     0
176
     1
 93
       13
176
     1
 44
0.0
176
     1
173
     0
176
     1
  0
VISUALSTYLE
  5
31
102
{ACAD_REACTORS
330
2A
102
}
102
{ACAD_XDICTIONARY
360
297
102
}
330
2A
100
AcDbVisualStyle
  2
Hidden
 70
     6
177
     2
291
     0
 71
     1
176
     1
 72
     2
176
     1
 73
     2
176
     1
 90
        0
176
     1
 40
0.6
176
     1
 41
30.0
176
     1
 62
     5
 63
     7
421
 16777215
176
     1
 74
     2
176
     1
 91
        2
176
     1
 64
     7
176
     1
 65
   257
176
     1
 75
     2
176
     1
175
     1
176
     1
 42
40.0
176
     1
 92
        0
176
     1
 66
   257
176
     1
 43
1.0
176
     1
 76
     1
176
     1
 77
     6
176
     1
 78
     2
176
     1
 67
     7
176
     1
 79
     3
176
     1
170
     0
176
     1
171
     0
176
     1
290
     0
176
     1
 93
        1
176
     1
 44
0.0
176
     1
173
     0
176
     1
  0
VISUALSTYLE
  5
3B
102
{ACAD_REACTORS
330
2A
102
}
102
{ACAD_XDICTIONARY
360
2AB
102
}
330
2A
100
AcDbVisualStyle
  2
JitterOff
 70
    20
177
     2
291
     1
 71
     2
176
     0
 72
     2
176
     0
 73
     0
176
     0
 90
        0
176
     0
 40
0.6
176
     0
 41
30.0
176
     0
 62
     5
 63
     7
421
 16777215
176
     0
 74
     1
176
     0
 91
        4
176
     0
 64
     7
176
     0
 65
   257
176
     0
 75
     1
176
     0
175
     1
176
     0
 42
1.0
176
     0
 92
       10
176
     2
 66
     7
176
     0
 43
1.0
176
     0
 76
     1
176
     0
 77
     6
176
     0
 78
     2
176
     0
 67
     7
176
     0
 79
     5
176
     0
170
     0
176
     0
171
     0
176
     0
290
     0
176
     0
 93
        1
176
     0
 44
0.0
176
     0
173
     0
176
     0
  0
VISUALSTYLE
  5
38
102
{ACAD_REACTORS
330
2A
102
}
102
{ACAD_XDICTIONARY
360
2A5
102
}
330
2A
100
AcDbVisualStyle
  2
Linepattern
 70
    14
177
     2
291
     1
 71
     2
176
     1
 72
     2
176
     1
 73
     0
176
     1
 90
        0
176
     1
 40
0.6
176
     1
 41
30.0
176
     1
 62
     5
 63
     7
421
 16777215
176
     1
 74
     1
176
     1
 91
        4
176
     1
 64
     7
176
     1
 65
   257
176
     1
 75
     7
176
     1
175
     7
176
     1
 42
1.0
176
     1
 92
        8
176
     1
 66
     7
176
     1
 43
1.0
176
     1
 76
     1
176
     1
 77
     6
176
     1
 78
     2
176
     1
 67
     7
176
     1
 79
     5
176
     1
170
     0
176
     1
171
     0
176
     1
290
     0
176
     1
 93
        1
176
     1
 44
0.0
176
     1
173
     0
176
     1
  0
VISUALSTYLE
  5
3C
102
{ACAD_REACTORS
330
2A
102
}
102
{ACAD_XDICTIONARY
360
2AD
102
}
330
2A
100
AcDbVisualStyle
  2
OverhangOff
 70
    21
177
     2
291
     1
 71
     2
176
     0
 72
     2
176
     0
 73
     0
176
     0
 90
        0
176
     0
 40
0.6
176
     0
 41
30.0
176
     0
 62
     5
 63
     7
421
 16777215
176
     0
 74
     1
176
     0
 91
        4
176
     0
 64
     7
176
     0
 65
   257
176
     0
 75
     1
176
     0
175
     1
176
     0
 42
1.0
176
     0
 92
        9
176
     2
 66
     7
176
     0
 43
1.0
176
     0
 76
     1
176
     0
 77
     6
176
     0
 78
     2
176
     0
 67
     7
176
     0
 79
     5
176
     0
170
     0
176
     0
171
     0
176
     0
290
     0
176
     0
 93
        1
176
     0
 44
0.0
176
     0
173
     0
176
     0
  0
VISUALSTYLE
  5
33
102
{ACAD_REACTORS
330
2A
102
}
102
{ACAD_XDICTIONARY
360
29B
102
}
330
2A
100
AcDbVisualStyle
  2
Realistic
 70
     8
177
     2
291
     0
 71
     2
176
     1
 72
     3
176
     1
 73
     0
176
     1
 90
        2
176
     1
 40
0.6
176
     1
 41
30.0
176
     1
 62
     5
 63
     7
421
 16777215
176
     1
 74
     0
176
     1
 91
        0
176
     1
 64
     7
176
     1
 65
   257
176
     1
 75
     1
176
     1
175
     1
176
     1
 42
1.0
176
     1
 92
        8
176
     1
 66
   257
176
     1
 43
1.0
176
     1
 76
     1
176
     1
 77
     6
176
     1
 78
     2
176
     1
 67
     7
176
     1
 79
     3
176
     1
170
     0
176
     1
171
     0
176
     1
290
     0
176
     1
 93
       13
176
     1
 44
0.0
176
     1
173
     0
176
     1
  0
VISUALSTYLE
  5
42
102
{ACAD_REACTORS
330
2A
102
}
102
{ACAD_XDICTIONARY
360
2B9
102
}
330
2A
100
AcDbVisualStyle
  2
Shaded
 70
    27
177
     2
291
     0
 71
     2
176
     1
 72
     2
176
     1
 73
     1
176
     1
 90
        2
176
     1
 40
0.6
176
     1
 41
30.0
176
     1
 62
     5
 63
     7
421
 16777215
176
     1
 74
     0
176
     1
 91
        4
176
     1
 64
     7
176
     1
 65
   257
176
     1
 75
     1
176
     1
175
     1
176
     1
 42
1.0
176
     1
 92
        8
176
     1
 66
   257
176
     1
 43
1.0
176
     1
 76
     1
176
     1
 77
     6
176
     1
 78
     2
176
     1
 67
     8
425
  7895160
176
     1
 79
     3
176
     1
170
     0
176
     1
171
     0
176
     1
290
     0
176
     1
 93
        5
176
     1
 44
0.0
176
     1
173
     0
176
     1
  0
VISUALSTYLE
  5
41
102
{ACAD_REACTORS
330
2A
102
}
102
{ACAD_XDICTIONARY
360
2B7
102
}
330
2A
100
AcDbVisualStyle
  2
Shaded with edges
 70
    26
177
     2
291
     0
 71
     2
176
     1
 72
     2
176
     1
 73
     1
176
     1
 90
        2
176
     1
 40
0.6
176
     1
 41
30.0
176
     1
 62
     5
 63
     7
421
 16777215
176
     1
 74
     1
176
     1
 91
       10
176
     1
 64
     7
176
     1
 65
   257
176
     1
 75
     2
176
     1
175
     1
176
     1
 42
1.0
176
     1
 92
        8
176
     1
 66
   257
176
     1
 43
1.0
176
     1
 76
     1
176
     1
 77
     6
176
     1
 78
     2
176
     1
 67
     7
176
     1
 79
     3
176
     1
170
     0
176
     1
171
     0
176
     1
290
     0
176
     1
 93
        5
176
     1
 44
0.0
176
     1
173
     0
176
     1
  0
VISUALSTYLE
  5
3E
102
{ACAD_REACTORS
330
2A
102
}
102
{ACAD_XDICTIONARY
360
2B1
102
}
330
2A
100
AcDbVisualStyle
  2
Shades of Gray
 70
    23
177
     2
291
     0
 71
     2
176
     1
 72
     2
176
     1
 73
     3
176
     1
 90
        0
176
     1
 40
0.6
176
     1
 41
30.0
176
     1
 62
     5
 63
     7
421
 16777215
176
     1
 74
     2
176
     1
 91
        2
176
     1
 64
     7
176
     1
 65
     7
176
     1
 75
     1
176
     1
175
     1
176
     1
 42
40.0
176
     1
 92
        8
176
     1
 66
     7
176
     1
 43
1.0
176
     1
 76
     1
176
     1
 77
     6
176
     1
 78
     2
176
     1
 67
     7
176
     1
 79
     3
176
     1
170
     0
176
     1
171
     0
176
     1
290
     0
176
     1
 93
        1
176
     1
 44
0.0
176
     1
173
     0
176
     1
  0
VISUALSTYLE
  5
3F
102
{ACAD_REACTORS
330
2A
102
}
102
{ACAD_XDICTIONARY
360
2B3
102
}
330
2A
100
AcDbVisualStyle
  2
Sketchy
 70
    24
177
     2
291
     0
 71
     1
176
     1
 72
     2
176
     1
 73
     2
176
     1
 90
        0
176
     1
 40
0.6
176
     1
 41
30.0
176
     1
 62
     5
 63
     7
421
 16777215
176
     1
 74
     2
176
     1
 91
        2
176
     1
 64
     7
176
     1
 65
     7
176
     1
 75
     1
176
     1
175
     1
176
     1
 42
40.0
176
     1
 92
       11
176
     1
 66
     7
176
     1
 43
1.0
176
     1
 76
     1
176
     1
 77
     6
176
     1
 78
     2
176
     1
 67
     7
176
     1
 79
     6
176
     1
170
     0
176
     1
171
     0
176
     1
290
     0
176
     1
 93
        1
176
     1
 44
0.0
176
     1
173
     0
176
     1
  0
VISUALSTYLE
  5
37
102
{ACAD_REACTORS
330
2A
102
}
102
{ACAD_XDICTIONARY
360
2A3
102
}
330
2A
100
AcDbVisualStyle
  2
Thicken
 70
    13
177
     2
291
     1
 71
     2
176
     1
 72
     2
176
     1
 73
     0
176
     1
 90
        0
176
     1
 40
0.6
176
     1
 41
30.0
176
     1
 62
     5
 63
     7
421
 16777215
176
     1
 74
     1
176
     1
 91
        4
176
     1
 64
     7
176
     1
 65
   257
176
     1
 75
     1
176
     1
175
     1
176
     1
 42
1.0
176
     1
 92
       12
176
     1
 66
     7
176
     1
 43
1.0
176
     1
 76
     1
176
     1
 77
     6
176
     1
 78
     2
176
     1
 67
     7
176
     1
 79
     5
176
     1
170
     0
176
     1
171
     0
176
     1
290
     0
176
     1
 93
        1
176
     1
 44
0.0
176
     1
173
     0
176
     1
  0
VISUALSTYLE
  5
30
102
{ACAD_REACTORS
330
2A
102
}
102
{ACAD_XDICTIONARY
360
295
102
}
330
2A
100
AcDbVisualStyle
  2
Wireframe
 70
     5
177
     2
291
     0
 71
     0
176
     1
 72
     2
176
     1
 73
     0
176
     1
 90
        0
176
     1
 40
0.6
176
     1
 41
30.0
176
     1
 62
     5
 63
     7
421
 16777215
176
     1
 74
     1
176
     1
 91
        4
176
     1
 64
     7
176
     1
 65
   257
176
     1
 75
     1
176
     1
175
     1
176
     1
 42
1.0
176
     1
 92
        0
176
     1
 66
   257
176
     1
 43
1.0
176
     1
 76
     1
176
     1
 77
     6
176
     1
 78
     2
176
     1
 67
     7
176
     1
 79
     3
176
     1
170
     0
176
     1
171
     0
176
     1
290
     0
176
     1
 93
        1
176
     1
 44
0.0
176
     1
173
     0
176
     1
  0
VISUALSTYLE
  5
40
102
{ACAD_REACTORS
330
2A
102
}
102
{ACAD_XDICTIONARY
360
2B5
102
}
330
2A
100
AcDbVisualStyle
  2
X-Ray
 70
    25
177
     2
291
     0
 71
     2
176
     1
 72
     2
176
     1
 73
     1
176
     1
 90
        1
176
     1
 40
0.5
176
     1
 41
30.0
176
     1
 62
     5
 63
     7
421
 16777215
176
     1
 74
     1
176
     1
 91
        0
176
     1
 64
     7
176
     1
 65
   257
176
     1
 75
     1
176
     1
175
     1
176
     1
 42
1.0
176
     1
 92
        8
176
     1
 66
     7
176
     1
 43
1.0
176
     1
 76
     1
176
     1
 77
     6
176
     1
 78
     2
176
     1
 67
     7
176
     1
 79
     3
176
     1
170
     0
176
     1
171
     0
176
     1
290
     0
176
     1
 93
       13
176
     1
 44
0.0
176
     1
173
     0
176
     1
  0
DICTIONARYVAR
  5
28A
102
{ACAD_REACTORS
330
289
102
}
330
289
100
DictionaryVariables
280
     0
  1
1:1
  0
DICTIONARYVAR
  5
2C2
102
{ACAD_REACTORS
330
289
102
}
330
289
100
DictionaryVariables
280
     0
  1
3.500000
  0
DICTIONARYVAR
  5
2C3
102
{ACAD_REACTORS
330
289
102
}
330
289
100
DictionaryVariables
280
     0
  1
acadiso.lin
  0
DICTIONARYVAR
  5
2BF
102
{ACAD_REACTORS
330
289
102
}
330
289
100
DictionaryVariables
280
     0
  1
Standard
  0
DICTIONARYVAR
  5
2BE
102
{ACAD_REACTORS
330
289
102
}
330
289
100
DictionaryVariables
280
     0
  1
Standard
  0
DICTIONARY
  5
2BB
330
6A
100
AcDbDictionary
280
     1
281
     1
  3
ACAD_ROUNDTRIP_2008_TABLESTYLE_CELLSTYLEMAP
360
2BC
  0
DICTIONARY
  5
293
330
2F
100
AcDbDictionary
280
     1
281
     1
  3
ACAD_XREC_ROUNDTRIP
360
294
  0
DICTIONARY
  5
299
330
32
100
AcDbDictionary
280
     1
281
     1
  3
ACAD_XREC_ROUNDTRIP
360
29A
  0
DICTIONARY
  5
2A1
330
36
100
AcDbDictionary
280
     1
281
     1
  3
ACAD_XREC_ROUNDTRIP
360
2A2
  0
DICTIONARY
  5
2A9
330
3A
100
AcDbDictionary
280
     1
281
     1
  3
ACAD_XREC_ROUNDTRIP
360
2AA
  0
DICTIONARY
  5
29D
330
34
100
AcDbDictionary
280
     1
281
     1
  3
ACAD_XREC_ROUNDTRIP
360
29E
  0
DICTIONARY
  5
29F
330
35
100
AcDbDictionary
280
     1
281
     1
  3
ACAD_XREC_ROUNDTRIP
360
2A0
  0
DICTIONARY
  5
2AF
330
3D
100
AcDbDictionary
280
     1
281
     1
  3
ACAD_XREC_ROUNDTRIP
360
2B0
  0
DICTIONARY
  5
2A7
330
39
100
AcDbDictionary
280
     1
281
     1
  3
ACAD_XREC_ROUNDTRIP
360
2A8
  0
DICTIONARY
  5
28B
330
2B
100
AcDbDictionary
280
     1
281
     1
  3
ACAD_XREC_ROUNDTRIP
360
28C
  0
DICTIONARY
  5
28D
330
2C
100
AcDbDictionary
280
     1
281
     1
  3
ACAD_XREC_ROUNDTRIP
360
28E
  0
DICTIONARY
  5
28F
330
2D
100
AcDbDictionary
280
     1
281
     1
  3
ACAD_XREC_ROUNDTRIP
360
290
  0
DICTIONARY
  5
291
330
2E
100
AcDbDictionary
280
     1
281
     1
  3
ACAD_XREC_ROUNDTRIP
360
292
  0
DICTIONARY
  5
297
330
31
100
AcDbDictionary
280
     1
281
     1
  3
ACAD_XREC_ROUNDTRIP
360
298
  0
DICTIONARY
  5
2AB
330
3B
100
AcDbDictionary
280
     1
281
     1
  3
ACAD_XREC_ROUNDTRIP
360
2AC
  0
DICTIONARY
  5
2A5
330
38
100
AcDbDictionary
280
     1
281
     1
  3
ACAD_XREC_ROUNDTRIP
360
2A6
  0
DICTIONARY
  5
2AD
330
3C
100
AcDbDictionary
280
     1
281
     1
  3
ACAD_XREC_ROUNDTRIP
360
2AE
  0
DICTIONARY
  5
29B
330
33
100
AcDbDictionary
280
     1
281
     1
  3
ACAD_XREC_ROUNDTRIP
360
29C
  0
DICTIONARY
  5
2B9
330
42
100
AcDbDictionary
280
     1
281
     1
  3
ACAD_XREC_ROUNDTRIP
360
2BA
  0
DICTIONARY
  5
2B7
330
41
100
AcDbDictionary
280
     1
281
     1
  3
ACAD_XREC_ROUNDTRIP
360
2B8
  0
DICTIONARY
  5
2B1
330
3E
100
AcDbDictionary
280
     1
281
     1
  3
ACAD_XREC_ROUNDTRIP
360
2B2
  0
DICTIONARY
  5
2B3
330
3F
100
AcDbDictionary
280
     1
281
     1
  3
ACAD_XREC_ROUNDTRIP
360
2B4
  0
DICTIONARY
  5
2A3
330
37
100
AcDbDictionary
280
     1
281
     1
  3
ACAD_XREC_ROUNDTRIP
360
2A4
  0
DICTIONARY
  5
295
330
30
100
AcDbDictionary
280
     1
281
     1
  3
ACAD_XREC_ROUNDTRIP
360
296
  0
DICTIONARY
  5
2B5
330
40
100
AcDbDictionary
280
     1
281
     1
  3
ACAD_XREC_ROUNDTRIP
360
2B6
  0
CELLSTYLEMAP
  5
2BC
102
{ACAD_REACTORS
330
2BB
102
}
330
2BB
100
AcDbCellStyleMap
 90
        3
300
CELLSTYLE
  1
TABLEFORMAT_BEGIN
 90
        5
170
     1
 91
        0
 92
    32768
 62
   257
 93
        1
300
CONTENTFORMAT
  1
CONTENTFORMAT_BEGIN
 90
        0
 91
        0
 92
        4
 93
        0
300

 40
0.0
140
1.0
 94
        5
 62
     0
340
11
144
6.0
309
CONTENTFORMAT_END
171
     1
301
MARGIN
  1
CELLMARGIN_BEGIN
 40
1.5
 40
1.5
 40
1.5
 40
1.5
 40
1.5
 40
1.5
309
CELLMARGIN_END
 94
        6
 95
        1
302
GRIDFORMAT
  1
GRIDFORMAT_BEGIN
 90
        0
 91
        1
 62
     0
 92
       -2
340
14
 93
        0
 40
0.045
309
GRIDFORMAT_END
 95
        2
302
GRIDFORMAT
  1
GRIDFORMAT_BEGIN
 90
        0
 91
        1
 62
     0
 92
       -2
340
14
 93
        0
 40
0.045
309
GRIDFORMAT_END
 95
        4
302
GRIDFORMAT
  1
GRIDFORMAT_BEGIN
 90
        0
 91
        1
 62
     0
 92
       -2
340
14
 93
        0
 40
0.045
309
GRIDFORMAT_END
 95
        8
302
GRIDFORMAT
  1
GRIDFORMAT_BEGIN
 90
        0
 91
        1
 62
     0
 92
       -2
340
14
 93
        0
 40
0.045
309
GRIDFORMAT_END
 95
       16
302
GRIDFORMAT
  1
GRIDFORMAT_BEGIN
 90
        0
 91
        1
 62
     0
 92
       -2
340
14
 93
        0
 40
0.045
309
GRIDFORMAT_END
 95
       32
302
GRIDFORMAT
  1
GRIDFORMAT_BEGIN
 90
        0
 91
        1
 62
     0
 92
       -2
340
14
 93
        0
 40
0.045
309
GRIDFORMAT_END
309
TABLEFORMAT_END
  1
CELLSTYLE_BEGIN
 90
        1
 91
        1
300
_TITLE
309
CELLSTYLE_END
300
CELLSTYLE
  1
TABLEFORMAT_BEGIN
 90
        5
170
     1
 91
        0
 92
        0
 62
   257
 93
        1
300
CONTENTFORMAT
  1
CONTENTFORMAT_BEGIN
 90
        0
 91
        0
 92
        4
 93
        0
300

 40
0.0
140
1.0
 94
        5
 62
     0
340
11
144
4.5
309
CONTENTFORMAT_END
171
     1
301
MARGIN
  1
CELLMARGIN_BEGIN
 40
1.5
 40
1.5
 40
1.5
 40
1.5
 40
1.5
 40
1.5
309
CELLMARGIN_END
 94
        6
 95
        1
302
GRIDFORMAT
  1
GRIDFORMAT_BEGIN
 90
        0
 91
        1
 62
     0
 92
       -2
340
14
 93
        0
 40
0.045
309
GRIDFORMAT_END
 95
        2
302
GRIDFORMAT
  1
GRIDFORMAT_BEGIN
 90
        0
 91
        1
 62
     0
 92
       -2
340
14
 93
        0
 40
0.045
309
GRIDFORMAT_END
 95
        4
302
GRIDFORMAT
  1
GRIDFORMAT_BEGIN
 90
        0
 91
        1
 62
     0
 92
       -2
340
14
 93
        0
 40
0.045
309
GRIDFORMAT_END
 95
        8
302
GRIDFORMAT
  1
GRIDFORMAT_BEGIN
 90
        0
 91
        1
 62
     0
 92
       -2
340
14
 93
        0
 40
0.045
309
GRIDFORMAT_END
 95
       16
302
GRIDFORMAT
  1
GRIDFORMAT_BEGIN
 90
        0
 91
        1
 62
     0
 92
       -2
340
14
 93
        0
 40
0.045
309
GRIDFORMAT_END
 95
       32
302
GRIDFORMAT
  1
GRIDFORMAT_BEGIN
 90
        0
 91
        1
 62
     0
 92
       -2
340
14
 93
        0
 40
0.045
309
GRIDFORMAT_END
309
TABLEFORMAT_END
  1
CELLSTYLE_BEGIN
 90
        2
 91
        1
300
_HEADER
309
CELLSTYLE_END
300
CELLSTYLE
  1
TABLEFORMAT_BEGIN
 90
        5
170
     1
 91
        0
 92
        0
 62
   257
 93
        1
300
CONTENTFORMAT
  1
CONTENTFORMAT_BEGIN
 90
        0
 91
        0
 92
        4
 93
        0
300

 40
0.0
140
1.0
 94
        2
 62
     0
340
11
144
4.5
309
CONTENTFORMAT_END
171
     1
301
MARGIN
  1
CELLMARGIN_BEGIN
 40
1.5
 40
1.5
 40
1.5
 40
1.5
 40
1.5
 40
1.5
309
CELLMARGIN_END
 94
        6
 95
        1
302
GRIDFORMAT
  1
GRIDFORMAT_BEGIN
 90
        0
 91
        1
 62
     0
 92
       -2
340
14
 93
        0
 40
0.045
309
GRIDFORMAT_END
 95
        2
302
GRIDFORMAT
  1
GRIDFORMAT_BEGIN
 90
        0
 91
        1
 62
     0
 92
       -2
340
14
 93
        0
 40
0.045
309
GRIDFORMAT_END
 95
        4
302
GRIDFORMAT
  1
GRIDFORMAT_BEGIN
 90
        0
 91
        1
 62
     0
 92
       -2
340
14
 93
        0
 40
0.045
309
GRIDFORMAT_END
 95
        8
302
GRIDFORMAT
  1
GRIDFORMAT_BEGIN
 90
        0
 91
        1
 62
     0
 92
       -2
340
14
 93
        0
 40
0.045
309
GRIDFORMAT_END
 95
       16
302
GRIDFORMAT
  1
GRIDFORMAT_BEGIN
 90
        0
 91
        1
 62
     0
 92
       -2
340
14
 93
        0
 40
0.045
309
GRIDFORMAT_END
 95
       32
302
GRIDFORMAT
  1
GRIDFORMAT_BEGIN
 90
        0
 91
        1
 62
     0
 92
       -2
340
14
 93
        0
 40
0.045
309
GRIDFORMAT_END
309
TABLEFORMAT_END
  1
CELLSTYLE_BEGIN
 90
        3
 91
        2
300
_DATA
309
CELLSTYLE_END
  0
XRECORD
  5
294
102
{ACAD_REACTORS
330
293
102
}
330
293
100
AcDbXrecord
280
     1
102
RTVSPost2010Prop28
280
     1
102
RTVSPost2010PropOp28
 70
     1
102
RTVSPost2010Prop29
280
     1
102
RTVSPost2010PropOp29
 70
     1
102
RTVSPost2010Prop30
280
     0
102
RTVSPost2010PropOp30
 70
     1
102
RTVSPost2010Prop31
280
     0
102
RTVSPost2010PropOp31
 70
     1
102
RTVSPost2010Prop32
280
     0
102
RTVSPost2010PropOp32
 70
     1
102
RTVSPost2010Prop33
280
     0
102
RTVSPost2010PropOp33
 70
     1
102
RTVSPost2010Prop34
280
     0
102
RTVSPost2010PropOp34
 70
     1
102
RTVSPost2010Prop35
280
     0
102
RTVSPost2010PropOp35
 70
     1
102
RTVSPost2010Prop36
280
     0
102
RTVSPost2010PropOp36
 70
     1
102
RTVSPost2010Prop37
 90
       50
102
RTVSPost2010PropOp37
 70
     1
102
RTVSPost2010Prop38
140
0.0
102
RTVSPost2010PropOp38
 70
     1
102
RTVSPost2010Prop39
140
1.0
102
RTVSPost2010PropOp39
 70
     1
102
RTVSPost2010Prop40
 90
        0
102
RTVSPost2010PropOp40
 70
     1
102
RTVSPost2010Prop41ColorIndex
 90
       18
102
RTVSPost2010Prop41ColorRGB
 90
        0
102
RTVSPost2010PropOp41
 70
     1
102
RTVSPost2010Prop42
 90
       50
102
RTVSPost2010PropOp42
 70
     1
102
RTVSPost2010Prop43
 90
        3
102
RTVSPost2010PropOp43
 70
     1
102
RTVSPost2010Prop44ColorIndex
 90
        5
102
RTVSPost2010Prop44ColorRGB
 90
      255
102
RTVSPost2010PropOp44
 70
     1
102
RTVSPost2010Prop45
280
     0
102
RTVSPost2010PropOp45
 70
     1
102
RTVSPost2010Prop46
 90
       50
102
RTVSPost2010PropOp46
 70
     1
102
RTVSPost2010Prop47
 90
       50
102
RTVSPost2010PropOp47
 70
     1
102
RTVSPost2010Prop48
 90
       50
102
RTVSPost2010PropOp48
 70
     1
102
RTVSPost2010Prop49
280
     0
102
RTVSPost2010PropOp49
 70
     1
102
RTVSPost2010Prop50
 90
       50
102
RTVSPost2010PropOp50
 70
     1
102
RTVSPost2010Prop51ColorIndex
 90
      256
102
RTVSPost2010Prop51ColorRGB
 90
-16777216
102
RTVSPost2010PropOp51
 70
     0
102
RTVSPost2010Prop52
140
1.0
102
RTVSPost2010PropOp52
 70
     0
102
RTVSPost2010Prop53
 90
        2
102
RTVSPost2010PropOp53
 70
     1
102
RTVSPost2010Prop54
  1
strokes_ogs.tif
102
RTVSPost2010PropOp54
 70
     1
102
RTVSPost2010Prop55
280
     0
102
RTVSPost2010PropOp55
 70
     1
102
RTVSPost2010Prop56
140
1.0
102
RTVSPost2010PropOp56
 70
     1
102
RTVSPost2010Prop57
140
1.0
102
RTVSPost2010PropOp57
 70
     1
  0
XRECORD
  5
29A
102
{ACAD_REACTORS
330
299
102
}
330
299
100
AcDbXrecord
280
     1
102
RTVSPost2010Prop28
280
     0
102
RTVSPost2010PropOp28
 70
     1
102
RTVSPost2010Prop29
280
     1
102
RTVSPost2010PropOp29
 70
     1
102
RTVSPost2010Prop30
280
     1
102
RTVSPost2010PropOp30
 70
     1
102
RTVSPost2010Prop31
280
     0
102
RTVSPost2010PropOp31
 70
     1
102
RTVSPost2010Prop32
280
     0
102
RTVSPost2010PropOp32
 70
     1
102
RTVSPost2010Prop33
280
     0
102
RTVSPost2010PropOp33
 70
     1
102
RTVSPost2010Prop34
280
     0
102
RTVSPost2010PropOp34
 70
     1
102
RTVSPost2010Prop35
280
     0
102
RTVSPost2010PropOp35
 70
     1
102
RTVSPost2010Prop36
280
     0
102
RTVSPost2010PropOp36
 70
     1
102
RTVSPost2010Prop37
 90
       50
102
RTVSPost2010PropOp37
 70
     1
102
RTVSPost2010Prop38
140
0.0
102
RTVSPost2010PropOp38
 70
     1
102
RTVSPost2010Prop39
140
1.0
102
RTVSPost2010PropOp39
 70
     1
102
RTVSPost2010Prop40
 90
        0
102
RTVSPost2010PropOp40
 70
     1
102
RTVSPost2010Prop41ColorIndex
 90
       18
102
RTVSPost2010Prop41ColorRGB
 90
        0
102
RTVSPost2010PropOp41
 70
     1
102
RTVSPost2010Prop42
 90
       50
102
RTVSPost2010PropOp42
 70
     1
102
RTVSPost2010Prop43
 90
        3
102
RTVSPost2010PropOp43
 70
     1
102
RTVSPost2010Prop44ColorIndex
 90
        5
102
RTVSPost2010Prop44ColorRGB
 90
      255
102
RTVSPost2010PropOp44
 70
     1
102
RTVSPost2010Prop45
280
     0
102
RTVSPost2010PropOp45
 70
     1
102
RTVSPost2010Prop46
 90
       50
102
RTVSPost2010PropOp46
 70
     1
102
RTVSPost2010Prop47
 90
       50
102
RTVSPost2010PropOp47
 70
     1
102
RTVSPost2010Prop48
 90
       50
102
RTVSPost2010PropOp48
 70
     1
102
RTVSPost2010Prop49
280
     0
102
RTVSPost2010PropOp49
 70
     1
102
RTVSPost2010Prop50
 90
       50
102
RTVSPost2010PropOp50
 70
     1
102
RTVSPost2010Prop51ColorIndex
 90
      256
102
RTVSPost2010Prop51ColorRGB
 90
-16777216
102
RTVSPost2010PropOp51
 70
     0
102
RTVSPost2010Prop52
140
1.0
102
RTVSPost2010PropOp52
 70
     0
102
RTVSPost2010Prop53
 90
        2
102
RTVSPost2010PropOp53
 70
     1
102
RTVSPost2010Prop54
  1
strokes_ogs.tif
102
RTVSPost2010PropOp54
 70
     1
102
RTVSPost2010Prop55
280
     0
102
RTVSPost2010PropOp55
 70
     1
102
RTVSPost2010Prop56
140
1.0
102
RTVSPost2010PropOp56
 70
     1
102
RTVSPost2010Prop57
140
1.0
102
RTVSPost2010PropOp57
 70
     1
  0
XRECORD
  5
2A2
102
{ACAD_REACTORS
330
2A1
102
}
330
2A1
100
AcDbXrecord
280
     1
102
RTVSPost2010Prop28
280
     0
102
RTVSPost2010PropOp28
 70
     1
102
RTVSPost2010Prop29
280
     1
102
RTVSPost2010PropOp29
 70
     1
102
RTVSPost2010Prop30
280
     1
102
RTVSPost2010PropOp30
 70
     1
102
RTVSPost2010Prop31
280
     0
102
RTVSPost2010PropOp31
 70
     1
102
RTVSPost2010Prop32
280
     0
102
RTVSPost2010PropOp32
 70
     1
102
RTVSPost2010Prop33
280
     0
102
RTVSPost2010PropOp33
 70
     1
102
RTVSPost2010Prop34
280
     0
102
RTVSPost2010PropOp34
 70
     1
102
RTVSPost2010Prop35
280
     0
102
RTVSPost2010PropOp35
 70
     1
102
RTVSPost2010Prop36
280
     0
102
RTVSPost2010PropOp36
 70
     1
102
RTVSPost2010Prop37
 90
       50
102
RTVSPost2010PropOp37
 70
     1
102
RTVSPost2010Prop38
140
0.0
102
RTVSPost2010PropOp38
 70
     1
102
RTVSPost2010Prop39
140
1.0
102
RTVSPost2010PropOp39
 70
     1
102
RTVSPost2010Prop40
 90
        0
102
RTVSPost2010PropOp40
 70
     1
102
RTVSPost2010Prop41ColorIndex
 90
       18
102
RTVSPost2010Prop41ColorRGB
 90
        0
102
RTVSPost2010PropOp41
 70
     1
102
RTVSPost2010Prop42
 90
       50
102
RTVSPost2010PropOp42
 70
     1
102
RTVSPost2010Prop43
 90
        3
102
RTVSPost2010PropOp43
 70
     1
102
RTVSPost2010Prop44ColorIndex
 90
        5
102
RTVSPost2010Prop44ColorRGB
 90
      255
102
RTVSPost2010PropOp44
 70
     1
102
RTVSPost2010Prop45
280
     0
102
RTVSPost2010PropOp45
 70
     1
102
RTVSPost2010Prop46
 90
       50
102
RTVSPost2010PropOp46
 70
     1
102
RTVSPost2010Prop47
 90
       50
102
RTVSPost2010PropOp47
 70
     1
102
RTVSPost2010Prop48
 90
       50
102
RTVSPost2010PropOp48
 70
     1
102
RTVSPost2010Prop49
280
     0
102
RTVSPost2010PropOp49
 70
     1
102
RTVSPost2010Prop50
 90
       50
102
RTVSPost2010PropOp50
 70
     1
102
RTVSPost2010Prop51ColorIndex
 90
      256
102
RTVSPost2010Prop51ColorRGB
 90
-16777216
102
RTVSPost2010PropOp51
 70
     0
102
RTVSPost2010Prop52
140
1.0
102
RTVSPost2010PropOp52
 70
     0
102
RTVSPost2010Prop53
 90
        2
102
RTVSPost2010PropOp53
 70
     1
102
RTVSPost2010Prop54
  1
strokes_ogs.tif
102
RTVSPost2010PropOp54
 70
     1
102
RTVSPost2010Prop55
280
     0
102
RTVSPost2010PropOp55
 70
     1
102
RTVSPost2010Prop56
140
1.0
102
RTVSPost2010PropOp56
 70
     1
102
RTVSPost2010Prop57
140
1.0
102
RTVSPost2010PropOp57
 70
     1
  0
XRECORD
  5
2AA
102
{ACAD_REACTORS
330
2A9
102
}
330
2A9
100
AcDbXrecord
280
     1
102
RTVSPost2010Prop28
280
     0
102
RTVSPost2010PropOp28
 70
     1
102
RTVSPost2010Prop29
280
     1
102
RTVSPost2010PropOp29
 70
     1
102
RTVSPost2010Prop30
280
     1
102
RTVSPost2010PropOp30
 70
     1
102
RTVSPost2010Prop31
280
     0
102
RTVSPost2010PropOp31
 70
     1
102
RTVSPost2010Prop32
280
     0
102
RTVSPost2010PropOp32
 70
     1
102
RTVSPost2010Prop33
280
     0
102
RTVSPost2010PropOp33
 70
     1
102
RTVSPost2010Prop34
280
     0
102
RTVSPost2010PropOp34
 70
     1
102
RTVSPost2010Prop35
280
     0
102
RTVSPost2010PropOp35
 70
     1
102
RTVSPost2010Prop36
280
     0
102
RTVSPost2010PropOp36
 70
     1
102
RTVSPost2010Prop37
 90
       50
102
RTVSPost2010PropOp37
 70
     1
102
RTVSPost2010Prop38
140
0.0
102
RTVSPost2010PropOp38
 70
     1
102
RTVSPost2010Prop39
140
1.0
102
RTVSPost2010PropOp39
 70
     1
102
RTVSPost2010Prop40
 90
        0
102
RTVSPost2010PropOp40
 70
     1
102
RTVSPost2010Prop41ColorIndex
 90
       18
102
RTVSPost2010Prop41ColorRGB
 90
        0
102
RTVSPost2010PropOp41
 70
     1
102
RTVSPost2010Prop42
 90
       50
102
RTVSPost2010PropOp42
 70
     1
102
RTVSPost2010Prop43
 90
        3
102
RTVSPost2010PropOp43
 70
     1
102
RTVSPost2010Prop44ColorIndex
 90
        5
102
RTVSPost2010Prop44ColorRGB
 90
      255
102
RTVSPost2010PropOp44
 70
     1
102
RTVSPost2010Prop45
280
     0
102
RTVSPost2010PropOp45
 70
     1
102
RTVSPost2010Prop46
 90
       50
102
RTVSPost2010PropOp46
 70
     1
102
RTVSPost2010Prop47
 90
       50
102
RTVSPost2010PropOp47
 70
     1
102
RTVSPost2010Prop48
 90
       50
102
RTVSPost2010PropOp48
 70
     1
102
RTVSPost2010Prop49
280
     0
102
RTVSPost2010PropOp49
 70
     1
102
RTVSPost2010Prop50
 90
       50
102
RTVSPost2010PropOp50
 70
     1
102
RTVSPost2010Prop51ColorIndex
 90
      256
102
RTVSPost2010Prop51ColorRGB
 90
-16777216
102
RTVSPost2010PropOp51
 70
     0
102
RTVSPost2010Prop52
140
1.0
102
RTVSPost2010PropOp52
 70
     0
102
RTVSPost2010Prop53
 90
        2
102
RTVSPost2010PropOp53
 70
     1
102
RTVSPost2010Prop54
  1
strokes_ogs.tif
102
RTVSPost2010PropOp54
 70
     1
102
RTVSPost2010Prop55
280
     0
102
RTVSPost2010PropOp55
 70
     1
102
RTVSPost2010Prop56
140
1.0
102
RTVSPost2010PropOp56
 70
     1
102
RTVSPost2010Prop57
140
1.0
102
RTVSPost2010PropOp57
 70
     1
  0
XRECORD
  5
29E
102
{ACAD_REACTORS
330
29D
102
}
330
29D
100
AcDbXrecord
280
     1
102
RTVSPost2010Prop28
280
     0
102
RTVSPost2010PropOp28
 70
     1
102
RTVSPost2010Prop29
280
     1
102
RTVSPost2010PropOp29
 70
     1
102
RTVSPost2010Prop30
280
     1
102
RTVSPost2010PropOp30
 70
     1
102
RTVSPost2010Prop31
280
     0
102
RTVSPost2010PropOp31
 70
     1
102
RTVSPost2010Prop32
280
     0
102
RTVSPost2010PropOp32
 70
     1
102
RTVSPost2010Prop33
280
     0
102
RTVSPost2010PropOp33
 70
     1
102
RTVSPost2010Prop34
280
     0
102
RTVSPost2010PropOp34
 70
     1
102
RTVSPost2010Prop35
280
     0
102
RTVSPost2010PropOp35
 70
     1
102
RTVSPost2010Prop36
280
     0
102
RTVSPost2010PropOp36
 70
     1
102
RTVSPost2010Prop37
 90
       50
102
RTVSPost2010PropOp37
 70
     1
102
RTVSPost2010Prop38
140
0.0
102
RTVSPost2010PropOp38
 70
     1
102
RTVSPost2010Prop39
140
1.0
102
RTVSPost2010PropOp39
 70
     1
102
RTVSPost2010Prop40
 90
        0
102
RTVSPost2010PropOp40
 70
     1
102
RTVSPost2010Prop41ColorIndex
 90
       18
102
RTVSPost2010Prop41ColorRGB
 90
        0
102
RTVSPost2010PropOp41
 70
     1
102
RTVSPost2010Prop42
 90
       50
102
RTVSPost2010PropOp42
 70
     1
102
RTVSPost2010Prop43
 90
        3
102
RTVSPost2010PropOp43
 70
     1
102
RTVSPost2010Prop44ColorIndex
 90
        5
102
RTVSPost2010Prop44ColorRGB
 90
      255
102
RTVSPost2010PropOp44
 70
     1
102
RTVSPost2010Prop45
280
     0
102
RTVSPost2010PropOp45
 70
     1
102
RTVSPost2010Prop46
 90
       50
102
RTVSPost2010PropOp46
 70
     1
102
RTVSPost2010Prop47
 90
       50
102
RTVSPost2010PropOp47
 70
     1
102
RTVSPost2010Prop48
 90
       50
102
RTVSPost2010PropOp48
 70
     1
102
RTVSPost2010Prop49
280
     0
102
RTVSPost2010PropOp49
 70
     1
102
RTVSPost2010Prop50
 90
       50
102
RTVSPost2010PropOp50
 70
     1
102
RTVSPost2010Prop51ColorIndex
 90
      256
102
RTVSPost2010Prop51ColorRGB
 90
-16777216
102
RTVSPost2010PropOp51
 70
     0
102
RTVSPost2010Prop52
140
1.0
102
RTVSPost2010PropOp52
 70
     0
102
RTVSPost2010Prop53
 90
        2
102
RTVSPost2010PropOp53
 70
     1
102
RTVSPost2010Prop54
  1
strokes_ogs.tif
102
RTVSPost2010PropOp54
 70
     1
102
RTVSPost2010Prop55
280
     0
102
RTVSPost2010PropOp55
 70
     1
102
RTVSPost2010Prop56
140
1.0
102
RTVSPost2010PropOp56
 70
     1
102
RTVSPost2010Prop57
140
1.0
102
RTVSPost2010PropOp57
 70
     1
  0
XRECORD
  5
2A0
102
{ACAD_REACTORS
330
29F
102
}
330
29F
100
AcDbXrecord
280
     1
102
RTVSPost2010Prop28
280
     0
102
RTVSPost2010PropOp28
 70
     1
102
RTVSPost2010Prop29
280
     1
102
RTVSPost2010PropOp29
 70
     1
102
RTVSPost2010Prop30
280
     1
102
RTVSPost2010PropOp30
 70
     1
102
RTVSPost2010Prop31
280
     0
102
RTVSPost2010PropOp31
 70
     1
102
RTVSPost2010Prop32
280
     0
102
RTVSPost2010PropOp32
 70
     1
102
RTVSPost2010Prop33
280
     0
102
RTVSPost2010PropOp33
 70
     1
102
RTVSPost2010Prop34
280
     0
102
RTVSPost2010PropOp34
 70
     1
102
RTVSPost2010Prop35
280
     0
102
RTVSPost2010PropOp35
 70
     1
102
RTVSPost2010Prop36
280
     0
102
RTVSPost2010PropOp36
 70
     1
102
RTVSPost2010Prop37
 90
       50
102
RTVSPost2010PropOp37
 70
     1
102
RTVSPost2010Prop38
140
0.0
102
RTVSPost2010PropOp38
 70
     1
102
RTVSPost2010Prop39
140
1.0
102
RTVSPost2010PropOp39
 70
     1
102
RTVSPost2010Prop40
 90
        0
102
RTVSPost2010PropOp40
 70
     1
102
RTVSPost2010Prop41ColorIndex
 90
       18
102
RTVSPost2010Prop41ColorRGB
 90
        0
102
RTVSPost2010PropOp41
 70
     1
102
RTVSPost2010Prop42
 90
       50
102
RTVSPost2010PropOp42
 70
     1
102
RTVSPost2010Prop43
 90
        3
102
RTVSPost2010PropOp43
 70
     1
102
RTVSPost2010Prop44ColorIndex
 90
        5
102
RTVSPost2010Prop44ColorRGB
 90
      255
102
RTVSPost2010PropOp44
 70
     1
102
RTVSPost2010Prop45
280
     0
102
RTVSPost2010PropOp45
 70
     1
102
RTVSPost2010Prop46
 90
       50
102
RTVSPost2010PropOp46
 70
     1
102
RTVSPost2010Prop47
 90
       50
102
RTVSPost2010PropOp47
 70
     1
102
RTVSPost2010Prop48
 90
       50
102
RTVSPost2010PropOp48
 70
     1
102
RTVSPost2010Prop49
280
     0
102
RTVSPost2010PropOp49
 70
     1
102
RTVSPost2010Prop50
 90
       50
102
RTVSPost2010PropOp50
 70
     1
102
RTVSPost2010Prop51ColorIndex
 90
      256
102
RTVSPost2010Prop51ColorRGB
 90
-16777216
102
RTVSPost2010PropOp51
 70
     0
102
RTVSPost2010Prop52
140
1.0
102
RTVSPost2010PropOp52
 70
     0
102
RTVSPost2010Prop53
 90
        2
102
RTVSPost2010PropOp53
 70
     1
102
RTVSPost2010Prop54
  1
strokes_ogs.tif
102
RTVSPost2010PropOp54
 70
     1
102
RTVSPost2010Prop55
280
     0
102
RTVSPost2010PropOp55
 70
     1
102
RTVSPost2010Prop56
140
1.0
102
RTVSPost2010PropOp56
 70
     1
102
RTVSPost2010Prop57
140
1.0
102
RTVSPost2010PropOp57
 70
     1
  0
XRECORD
  5
2B0
102
{ACAD_REACTORS
330
2AF
102
}
330
2AF
100
AcDbXrecord
280
     1
102
RTVSPost2010Prop28
280
     0
102
RTVSPost2010PropOp28
 70
     0
102
RTVSPost2010Prop29
280
     1
102
RTVSPost2010PropOp29
 70
     0
102
RTVSPost2010Prop30
280
     1
102
RTVSPost2010PropOp30
 70
     0
102
RTVSPost2010Prop31
280
     0
102
RTVSPost2010PropOp31
 70
     0
102
RTVSPost2010Prop32
280
     0
102
RTVSPost2010PropOp32
 70
     0
102
RTVSPost2010Prop33
280
     0
102
RTVSPost2010PropOp33
 70
     0
102
RTVSPost2010Prop34
280
     0
102
RTVSPost2010PropOp34
 70
     0
102
RTVSPost2010Prop35
280
     0
102
RTVSPost2010PropOp35
 70
     0
102
RTVSPost2010Prop36
280
     0
102
RTVSPost2010PropOp36
 70
     0
102
RTVSPost2010Prop37
 90
       50
102
RTVSPost2010PropOp37
 70
     0
102
RTVSPost2010Prop38
140
0.0
102
RTVSPost2010PropOp38
 70
     0
102
RTVSPost2010Prop39
140
1.0
102
RTVSPost2010PropOp39
 70
     0
102
RTVSPost2010Prop40
 90
        0
102
RTVSPost2010PropOp40
 70
     0
102
RTVSPost2010Prop41ColorIndex
 90
       18
102
RTVSPost2010Prop41ColorRGB
 90
        0
102
RTVSPost2010PropOp41
 70
     0
102
RTVSPost2010Prop42
 90
       50
102
RTVSPost2010PropOp42
 70
     0
102
RTVSPost2010Prop43
 90
        3
102
RTVSPost2010PropOp43
 70
     0
102
RTVSPost2010Prop44ColorIndex
 90
        5
102
RTVSPost2010Prop44ColorRGB
 90
      255
102
RTVSPost2010PropOp44
 70
     0
102
RTVSPost2010Prop45
280
     0
102
RTVSPost2010PropOp45
 70
     0
102
RTVSPost2010Prop46
 90
       50
102
RTVSPost2010PropOp46
 70
     0
102
RTVSPost2010Prop47
 90
       50
102
RTVSPost2010PropOp47
 70
     0
102
RTVSPost2010Prop48
 90
       50
102
RTVSPost2010PropOp48
 70
     0
102
RTVSPost2010Prop49
280
     0
102
RTVSPost2010PropOp49
 70
     0
102
RTVSPost2010Prop50
 90
       50
102
RTVSPost2010PropOp50
 70
     0
102
RTVSPost2010Prop51ColorIndex
 90
      256
102
RTVSPost2010Prop51ColorRGB
 90
-16777216
102
RTVSPost2010PropOp51
 70
     0
102
RTVSPost2010Prop52
140
1.0
102
RTVSPost2010PropOp52
 70
     0
102
RTVSPost2010Prop53
 90
        2
102
RTVSPost2010PropOp53
 70
     0
102
RTVSPost2010Prop54
  1
strokes_ogs.tif
102
RTVSPost2010PropOp54
 70
     0
102
RTVSPost2010Prop55
280
     0
102
RTVSPost2010PropOp55
 70
     0
102
RTVSPost2010Prop56
140
1.0
102
RTVSPost2010PropOp56
 70
     0
102
RTVSPost2010Prop57
140
1.0
102
RTVSPost2010PropOp57
 70
     0
  0
XRECORD
  5
2A8
102
{ACAD_REACTORS
330
2A7
102
}
330
2A7
100
AcDbXrecord
280
     1
102
RTVSPost2010Prop28
280
     0
102
RTVSPost2010PropOp28
 70
     1
102
RTVSPost2010Prop29
280
     1
102
RTVSPost2010PropOp29
 70
     1
102
RTVSPost2010Prop30
280
     1
102
RTVSPost2010PropOp30
 70
     1
102
RTVSPost2010Prop31
280
     0
102
RTVSPost2010PropOp31
 70
     1
102
RTVSPost2010Prop32
280
     0
102
RTVSPost2010PropOp32
 70
     1
102
RTVSPost2010Prop33
280
     0
102
RTVSPost2010PropOp33
 70
     1
102
RTVSPost2010Prop34
280
     0
102
RTVSPost2010PropOp34
 70
     1
102
RTVSPost2010Prop35
280
     0
102
RTVSPost2010PropOp35
 70
     1
102
RTVSPost2010Prop36
280
     0
102
RTVSPost2010PropOp36
 70
     1
102
RTVSPost2010Prop37
 90
       50
102
RTVSPost2010PropOp37
 70
     1
102
RTVSPost2010Prop38
140
0.0
102
RTVSPost2010PropOp38
 70
     1
102
RTVSPost2010Prop39
140
1.0
102
RTVSPost2010PropOp39
 70
     1
102
RTVSPost2010Prop40
 90
        0
102
RTVSPost2010PropOp40
 70
     1
102
RTVSPost2010Prop41ColorIndex
 90
       18
102
RTVSPost2010Prop41ColorRGB
 90
        0
102
RTVSPost2010PropOp41
 70
     1
102
RTVSPost2010Prop42
 90
       50
102
RTVSPost2010PropOp42
 70
     1
102
RTVSPost2010Prop43
 90
        3
102
RTVSPost2010PropOp43
 70
     1
102
RTVSPost2010Prop44ColorIndex
 90
        5
102
RTVSPost2010Prop44ColorRGB
 90
      255
102
RTVSPost2010PropOp44
 70
     1
102
RTVSPost2010Prop45
280
     0
102
RTVSPost2010PropOp45
 70
     1
102
RTVSPost2010Prop46
 90
       50
102
RTVSPost2010PropOp46
 70
     1
102
RTVSPost2010Prop47
 90
       50
102
RTVSPost2010PropOp47
 70
     1
102
RTVSPost2010Prop48
 90
       50
102
RTVSPost2010PropOp48
 70
     1
102
RTVSPost2010Prop49
280
     0
102
RTVSPost2010PropOp49
 70
     1
102
RTVSPost2010Prop50
 90
       50
102
RTVSPost2010PropOp50
 70
     1
102
RTVSPost2010Prop51ColorIndex
 90
      256
102
RTVSPost2010Prop51ColorRGB
 90
-16777216
102
RTVSPost2010PropOp51
 70
     0
102
RTVSPost2010Prop52
140
1.0
102
RTVSPost2010PropOp52
 70
     0
102
RTVSPost2010Prop53
 90
        2
102
RTVSPost2010PropOp53
 70
     1
102
RTVSPost2010Prop54
  1
strokes_ogs.tif
102
RTVSPost2010PropOp54
 70
     1
102
RTVSPost2010Prop55
280
     0
102
RTVSPost2010PropOp55
 70
     1
102
RTVSPost2010Prop56
140
1.0
102
RTVSPost2010PropOp56
 70
     1
102
RTVSPost2010Prop57
140
1.0
102
RTVSPost2010PropOp57
 70
     1
  0
XRECORD
  5
28C
102
{ACAD_REACTORS
330
28B
102
}
330
28B
100
AcDbXrecord
280
     1
102
RTVSPost2010Prop28
280
     0
102
RTVSPost2010PropOp28
 70
     1
102
RTVSPost2010Prop29
280
     1
102
RTVSPost2010PropOp29
 70
     1
102
RTVSPost2010Prop30
280
     1
102
RTVSPost2010PropOp30
 70
     1
102
RTVSPost2010Prop31
280
     0
102
RTVSPost2010PropOp31
 70
     1
102
RTVSPost2010Prop32
280
     0
102
RTVSPost2010PropOp32
 70
     1
102
RTVSPost2010Prop33
280
     0
102
RTVSPost2010PropOp33
 70
     1
102
RTVSPost2010Prop34
280
     0
102
RTVSPost2010PropOp34
 70
     1
102
RTVSPost2010Prop35
280
     0
102
RTVSPost2010PropOp35
 70
     1
102
RTVSPost2010Prop36
280
     0
102
RTVSPost2010PropOp36
 70
     1
102
RTVSPost2010Prop37
 90
       50
102
RTVSPost2010PropOp37
 70
     1
102
RTVSPost2010Prop38
140
0.0
102
RTVSPost2010PropOp38
 70
     1
102
RTVSPost2010Prop39
140
1.0
102
RTVSPost2010PropOp39
 70
     1
102
RTVSPost2010Prop40
 90
        0
102
RTVSPost2010PropOp40
 70
     1
102
RTVSPost2010Prop41ColorIndex
 90
       18
102
RTVSPost2010Prop41ColorRGB
 90
        0
102
RTVSPost2010PropOp41
 70
     1
102
RTVSPost2010Prop42
 90
       50
102
RTVSPost2010PropOp42
 70
     1
102
RTVSPost2010Prop43
 90
        3
102
RTVSPost2010PropOp43
 70
     1
102
RTVSPost2010Prop44ColorIndex
 90
        5
102
RTVSPost2010Prop44ColorRGB
 90
      255
102
RTVSPost2010PropOp44
 70
     1
102
RTVSPost2010Prop45
280
     0
102
RTVSPost2010PropOp45
 70
     1
102
RTVSPost2010Prop46
 90
       50
102
RTVSPost2010PropOp46
 70
     1
102
RTVSPost2010Prop47
 90
       50
102
RTVSPost2010PropOp47
 70
     1
102
RTVSPost2010Prop48
 90
       50
102
RTVSPost2010PropOp48
 70
     1
102
RTVSPost2010Prop49
280
     0
102
RTVSPost2010PropOp49
 70
     1
102
RTVSPost2010Prop50
 90
       50
102
RTVSPost2010PropOp50
 70
     1
102
RTVSPost2010Prop51ColorIndex
 90
      256
102
RTVSPost2010Prop51ColorRGB
 90
-16777216
102
RTVSPost2010PropOp51
 70
     0
102
RTVSPost2010Prop52
140
1.0
102
RTVSPost2010PropOp52
 70
     0
102
RTVSPost2010Prop53
 90
        2
102
RTVSPost2010PropOp53
 70
     1
102
RTVSPost2010Prop54
  1
strokes_ogs.tif
102
RTVSPost2010PropOp54
 70
     1
102
RTVSPost2010Prop55
280
     0
102
RTVSPost2010PropOp55
 70
     1
102
RTVSPost2010Prop56
140
1.0
102
RTVSPost2010PropOp56
 70
     1
102
RTVSPost2010Prop57
140
1.0
102
RTVSPost2010PropOp57
 70
     1
  0
XRECORD
  5
28E
102
{ACAD_REACTORS
330
28D
102
}
330
28D
100
AcDbXrecord
280
     1
102
RTVSPost2010Prop28
280
     0
102
RTVSPost2010PropOp28
 70
     1
102
RTVSPost2010Prop29
280
     1
102
RTVSPost2010PropOp29
 70
     1
102
RTVSPost2010Prop30
280
     1
102
RTVSPost2010PropOp30
 70
     1
102
RTVSPost2010Prop31
280
     0
102
RTVSPost2010PropOp31
 70
     1
102
RTVSPost2010Prop32
280
     0
102
RTVSPost2010PropOp32
 70
     1
102
RTVSPost2010Prop33
280
     0
102
RTVSPost2010PropOp33
 70
     1
102
RTVSPost2010Prop34
280
     0
102
RTVSPost2010PropOp34
 70
     1
102
RTVSPost2010Prop35
280
     0
102
RTVSPost2010PropOp35
 70
     1
102
RTVSPost2010Prop36
280
     0
102
RTVSPost2010PropOp36
 70
     1
102
RTVSPost2010Prop37
 90
       50
102
RTVSPost2010PropOp37
 70
     1
102
RTVSPost2010Prop38
140
0.0
102
RTVSPost2010PropOp38
 70
     1
102
RTVSPost2010Prop39
140
1.0
102
RTVSPost2010PropOp39
 70
     1
102
RTVSPost2010Prop40
 90
        0
102
RTVSPost2010PropOp40
 70
     1
102
RTVSPost2010Prop41ColorIndex
 90
       18
102
RTVSPost2010Prop41ColorRGB
 90
        0
102
RTVSPost2010PropOp41
 70
     1
102
RTVSPost2010Prop42
 90
       50
102
RTVSPost2010PropOp42
 70
     1
102
RTVSPost2010Prop43
 90
        3
102
RTVSPost2010PropOp43
 70
     1
102
RTVSPost2010Prop44ColorIndex
 90
        5
102
RTVSPost2010Prop44ColorRGB
 90
      255
102
RTVSPost2010PropOp44
 70
     1
102
RTVSPost2010Prop45
280
     0
102
RTVSPost2010PropOp45
 70
     1
102
RTVSPost2010Prop46
 90
       50
102
RTVSPost2010PropOp46
 70
     1
102
RTVSPost2010Prop47
 90
       50
102
RTVSPost2010PropOp47
 70
     1
102
RTVSPost2010Prop48
 90
       50
102
RTVSPost2010PropOp48
 70
     1
102
RTVSPost2010Prop49
280
     0
102
RTVSPost2010PropOp49
 70
     1
102
RTVSPost2010Prop50
 90
       50
102
RTVSPost2010PropOp50
 70
     1
102
RTVSPost2010Prop51ColorIndex
 90
      256
102
RTVSPost2010Prop51ColorRGB
 90
-16777216
102
RTVSPost2010PropOp51
 70
     0
102
RTVSPost2010Prop52
140
1.0
102
RTVSPost2010PropOp52
 70
     0
102
RTVSPost2010Prop53
 90
        2
102
RTVSPost2010PropOp53
 70
     1
102
RTVSPost2010Prop54
  1
strokes_ogs.tif
102
RTVSPost2010PropOp54
 70
     1
102
RTVSPost2010Prop55
280
     0
102
RTVSPost2010PropOp55
 70
     1
102
RTVSPost2010Prop56
140
1.0
102
RTVSPost2010PropOp56
 70
     1
102
RTVSPost2010Prop57
140
1.0
102
RTVSPost2010PropOp57
 70
     1
  0
XRECORD
  5
290
102
{ACAD_REACTORS
330
28F
102
}
330
28F
100
AcDbXrecord
280
     1
102
RTVSPost2010Prop28
280
     0
102
RTVSPost2010PropOp28
 70
     1
102
RTVSPost2010Prop29
280
     1
102
RTVSPost2010PropOp29
 70
     1
102
RTVSPost2010Prop30
280
     1
102
RTVSPost2010PropOp30
 70
     1
102
RTVSPost2010Prop31
280
     0
102
RTVSPost2010PropOp31
 70
     1
102
RTVSPost2010Prop32
280
     0
102
RTVSPost2010PropOp32
 70
     1
102
RTVSPost2010Prop33
280
     0
102
RTVSPost2010PropOp33
 70
     1
102
RTVSPost2010Prop34
280
     0
102
RTVSPost2010PropOp34
 70
     1
102
RTVSPost2010Prop35
280
     0
102
RTVSPost2010PropOp35
 70
     1
102
RTVSPost2010Prop36
280
     0
102
RTVSPost2010PropOp36
 70
     1
102
RTVSPost2010Prop37
 90
       50
102
RTVSPost2010PropOp37
 70
     1
102
RTVSPost2010Prop38
140
0.0
102
RTVSPost2010PropOp38
 70
     1
102
RTVSPost2010Prop39
140
1.0
102
RTVSPost2010PropOp39
 70
     1
102
RTVSPost2010Prop40
 90
        0
102
RTVSPost2010PropOp40
 70
     1
102
RTVSPost2010Prop41ColorIndex
 90
       18
102
RTVSPost2010Prop41ColorRGB
 90
        0
102
RTVSPost2010PropOp41
 70
     1
102
RTVSPost2010Prop42
 90
       50
102
RTVSPost2010PropOp42
 70
     1
102
RTVSPost2010Prop43
 90
        3
102
RTVSPost2010PropOp43
 70
     1
102
RTVSPost2010Prop44ColorIndex
 90
        5
102
RTVSPost2010Prop44ColorRGB
 90
      255
102
RTVSPost2010PropOp44
 70
     1
102
RTVSPost2010Prop45
280
     0
102
RTVSPost2010PropOp45
 70
     1
102
RTVSPost2010Prop46
 90
       50
102
RTVSPost2010PropOp46
 70
     1
102
RTVSPost2010Prop47
 90
       50
102
RTVSPost2010PropOp47
 70
     1
102
RTVSPost2010Prop48
 90
       50
102
RTVSPost2010PropOp48
 70
     1
102
RTVSPost2010Prop49
280
     0
102
RTVSPost2010PropOp49
 70
     1
102
RTVSPost2010Prop50
 90
       50
102
RTVSPost2010PropOp50
 70
     1
102
RTVSPost2010Prop51ColorIndex
 90
      256
102
RTVSPost2010Prop51ColorRGB
 90
-16777216
102
RTVSPost2010PropOp51
 70
     0
102
RTVSPost2010Prop52
140
1.0
102
RTVSPost2010PropOp52
 70
     0
102
RTVSPost2010Prop53
 90
        2
102
RTVSPost2010PropOp53
 70
     1
102
RTVSPost2010Prop54
  1
strokes_ogs.tif
102
RTVSPost2010PropOp54
 70
     1
102
RTVSPost2010Prop55
280
     0
102
RTVSPost2010PropOp55
 70
     1
102
RTVSPost2010Prop56
140
1.0
102
RTVSPost2010PropOp56
 70
     1
102
RTVSPost2010Prop57
140
1.0
102
RTVSPost2010PropOp57
 70
     1
  0
XRECORD
  5
292
102
{ACAD_REACTORS
330
291
102
}
330
291
100
AcDbXrecord
280
     1
102
RTVSPost2010Prop28
280
     0
102
RTVSPost2010PropOp28
 70
     1
102
RTVSPost2010Prop29
280
     1
102
RTVSPost2010PropOp29
 70
     1
102
RTVSPost2010Prop30
280
     1
102
RTVSPost2010PropOp30
 70
     1
102
RTVSPost2010Prop31
280
     0
102
RTVSPost2010PropOp31
 70
     1
102
RTVSPost2010Prop32
280
     0
102
RTVSPost2010PropOp32
 70
     1
102
RTVSPost2010Prop33
280
     0
102
RTVSPost2010PropOp33
 70
     1
102
RTVSPost2010Prop34
280
     0
102
RTVSPost2010PropOp34
 70
     1
102
RTVSPost2010Prop35
280
     0
102
RTVSPost2010PropOp35
 70
     1
102
RTVSPost2010Prop36
280
     0
102
RTVSPost2010PropOp36
 70
     1
102
RTVSPost2010Prop37
 90
       50
102
RTVSPost2010PropOp37
 70
     1
102
RTVSPost2010Prop38
140
0.0
102
RTVSPost2010PropOp38
 70
     1
102
RTVSPost2010Prop39
140
1.0
102
RTVSPost2010PropOp39
 70
     1
102
RTVSPost2010Prop40
 90
        0
102
RTVSPost2010PropOp40
 70
     1
102
RTVSPost2010Prop41ColorIndex
 90
       18
102
RTVSPost2010Prop41ColorRGB
 90
        0
102
RTVSPost2010PropOp41
 70
     1
102
RTVSPost2010Prop42
 90
       50
102
RTVSPost2010PropOp42
 70
     1
102
RTVSPost2010Prop43
 90
        3
102
RTVSPost2010PropOp43
 70
     1
102
RTVSPost2010Prop44ColorIndex
 90
        5
102
RTVSPost2010Prop44ColorRGB
 90
      255
102
RTVSPost2010PropOp44
 70
     1
102
RTVSPost2010Prop45
280
     0
102
RTVSPost2010PropOp45
 70
     1
102
RTVSPost2010Prop46
 90
       50
102
RTVSPost2010PropOp46
 70
     1
102
RTVSPost2010Prop47
 90
       50
102
RTVSPost2010PropOp47
 70
     1
102
RTVSPost2010Prop48
 90
       50
102
RTVSPost2010PropOp48
 70
     1
102
RTVSPost2010Prop49
280
     0
102
RTVSPost2010PropOp49
 70
     1
102
RTVSPost2010Prop50
 90
       50
102
RTVSPost2010PropOp50
 70
     1
102
RTVSPost2010Prop51ColorIndex
 90
      256
102
RTVSPost2010Prop51ColorRGB
 90
-16777216
102
RTVSPost2010PropOp51
 70
     0
102
RTVSPost2010Prop52
140
1.0
102
RTVSPost2010PropOp52
 70
     0
102
RTVSPost2010Prop53
 90
        2
102
RTVSPost2010PropOp53
 70
     1
102
RTVSPost2010Prop54
  1
strokes_ogs.tif
102
RTVSPost2010PropOp54
 70
     1
102
RTVSPost2010Prop55
280
     0
102
RTVSPost2010PropOp55
 70
     1
102
RTVSPost2010Prop56
140
1.0
102
RTVSPost2010PropOp56
 70
     1
102
RTVSPost2010Prop57
140
1.0
102
RTVSPost2010PropOp57
 70
     1
  0
XRECORD
  5
298
102
{ACAD_REACTORS
330
297
102
}
330
297
100
AcDbXrecord
280
     1
102
RTVSPost2010Prop28
280
     0
102
RTVSPost2010PropOp28
 70
     1
102
RTVSPost2010Prop29
280
     1
102
RTVSPost2010PropOp29
 70
     1
102
RTVSPost2010Prop30
280
     1
102
RTVSPost2010PropOp30
 70
     1
102
RTVSPost2010Prop31
280
     0
102
RTVSPost2010PropOp31
 70
     1
102
RTVSPost2010Prop32
280
     0
102
RTVSPost2010PropOp32
 70
     1
102
RTVSPost2010Prop33
280
     0
102
RTVSPost2010PropOp33
 70
     1
102
RTVSPost2010Prop34
280
     0
102
RTVSPost2010PropOp34
 70
     1
102
RTVSPost2010Prop35
280
     0
102
RTVSPost2010PropOp35
 70
     1
102
RTVSPost2010Prop36
280
     0
102
RTVSPost2010PropOp36
 70
     1
102
RTVSPost2010Prop37
 90
       50
102
RTVSPost2010PropOp37
 70
     1
102
RTVSPost2010Prop38
140
0.0
102
RTVSPost2010PropOp38
 70
     1
102
RTVSPost2010Prop39
140
1.0
102
RTVSPost2010PropOp39
 70
     1
102
RTVSPost2010Prop40
 90
        0
102
RTVSPost2010PropOp40
 70
     1
102
RTVSPost2010Prop41ColorIndex
 90
       18
102
RTVSPost2010Prop41ColorRGB
 90
        0
102
RTVSPost2010PropOp41
 70
     1
102
RTVSPost2010Prop42
 90
       50
102
RTVSPost2010PropOp42
 70
     1
102
RTVSPost2010Prop43
 90
        3
102
RTVSPost2010PropOp43
 70
     1
102
RTVSPost2010Prop44ColorIndex
 90
        5
102
RTVSPost2010Prop44ColorRGB
 90
      255
102
RTVSPost2010PropOp44
 70
     1
102
RTVSPost2010Prop45
280
     0
102
RTVSPost2010PropOp45
 70
     1
102
RTVSPost2010Prop46
 90
       50
102
RTVSPost2010PropOp46
 70
     1
102
RTVSPost2010Prop47
 90
       50
102
RTVSPost2010PropOp47
 70
     1
102
RTVSPost2010Prop48
 90
       50
102
RTVSPost2010PropOp48
 70
     1
102
RTVSPost2010Prop49
280
     0
102
RTVSPost2010PropOp49
 70
     1
102
RTVSPost2010Prop50
 90
       50
102
RTVSPost2010PropOp50
 70
     1
102
RTVSPost2010Prop51ColorIndex
 90
      256
102
RTVSPost2010Prop51ColorRGB
 90
-16777216
102
RTVSPost2010PropOp51
 70
     0
102
RTVSPost2010Prop52
140
1.0
102
RTVSPost2010PropOp52
 70
     0
102
RTVSPost2010Prop53
 90
        2
102
RTVSPost2010PropOp53
 70
     1
102
RTVSPost2010Prop54
  1
strokes_ogs.tif
102
RTVSPost2010PropOp54
 70
     1
102
RTVSPost2010Prop55
280
     0
102
RTVSPost2010PropOp55
 70
     1
102
RTVSPost2010Prop56
140
1.0
102
RTVSPost2010PropOp56
 70
     1
102
RTVSPost2010Prop57
140
1.0
102
RTVSPost2010PropOp57
 70
     1
  0
XRECORD
  5
2AC
102
{ACAD_REACTORS
330
2AB
102
}
330
2AB
100
AcDbXrecord
280
     1
102
RTVSPost2010Prop28
280
     0
102
RTVSPost2010PropOp28
 70
     0
102
RTVSPost2010Prop29
280
     1
102
RTVSPost2010PropOp29
 70
     0
102
RTVSPost2010Prop30
280
     1
102
RTVSPost2010PropOp30
 70
     0
102
RTVSPost2010Prop31
280
     0
102
RTVSPost2010PropOp31
 70
     0
102
RTVSPost2010Prop32
280
     0
102
RTVSPost2010PropOp32
 70
     0
102
RTVSPost2010Prop33
280
     0
102
RTVSPost2010PropOp33
 70
     0
102
RTVSPost2010Prop34
280
     0
102
RTVSPost2010PropOp34
 70
     0
102
RTVSPost2010Prop35
280
     0
102
RTVSPost2010PropOp35
 70
     0
102
RTVSPost2010Prop36
280
     0
102
RTVSPost2010PropOp36
 70
     0
102
RTVSPost2010Prop37
 90
       50
102
RTVSPost2010PropOp37
 70
     0
102
RTVSPost2010Prop38
140
0.0
102
RTVSPost2010PropOp38
 70
     0
102
RTVSPost2010Prop39
140
1.0
102
RTVSPost2010PropOp39
 70
     0
102
RTVSPost2010Prop40
 90
        0
102
RTVSPost2010PropOp40
 70
     0
102
RTVSPost2010Prop41ColorIndex
 90
       18
102
RTVSPost2010Prop41ColorRGB
 90
        0
102
RTVSPost2010PropOp41
 70
     0
102
RTVSPost2010Prop42
 90
       50
102
RTVSPost2010PropOp42
 70
     0
102
RTVSPost2010Prop43
 90
        3
102
RTVSPost2010PropOp43
 70
     0
102
RTVSPost2010Prop44ColorIndex
 90
        5
102
RTVSPost2010Prop44ColorRGB
 90
      255
102
RTVSPost2010PropOp44
 70
     0
102
RTVSPost2010Prop45
280
     0
102
RTVSPost2010PropOp45
 70
     0
102
RTVSPost2010Prop46
 90
       50
102
RTVSPost2010PropOp46
 70
     0
102
RTVSPost2010Prop47
 90
       50
102
RTVSPost2010PropOp47
 70
     0
102
RTVSPost2010Prop48
 90
       50
102
RTVSPost2010PropOp48
 70
     0
102
RTVSPost2010Prop49
280
     0
102
RTVSPost2010PropOp49
 70
     0
102
RTVSPost2010Prop50
 90
       50
102
RTVSPost2010PropOp50
 70
     0
102
RTVSPost2010Prop51ColorIndex
 90
      256
102
RTVSPost2010Prop51ColorRGB
 90
-16777216
102
RTVSPost2010PropOp51
 70
     0
102
RTVSPost2010Prop52
140
1.0
102
RTVSPost2010PropOp52
 70
     0
102
RTVSPost2010Prop53
 90
        2
102
RTVSPost2010PropOp53
 70
     0
102
RTVSPost2010Prop54
  1
strokes_ogs.tif
102
RTVSPost2010PropOp54
 70
     0
102
RTVSPost2010Prop55
280
     0
102
RTVSPost2010PropOp55
 70
     0
102
RTVSPost2010Prop56
140
1.0
102
RTVSPost2010PropOp56
 70
     0
102
RTVSPost2010Prop57
140
1.0
102
RTVSPost2010PropOp57
 70
     0
  0
XRECORD
  5
2A6
102
{ACAD_REACTORS
330
2A5
102
}
330
2A5
100
AcDbXrecord
280
     1
102
RTVSPost2010Prop28
280
     0
102
RTVSPost2010PropOp28
 70
     1
102
RTVSPost2010Prop29
280
     1
102
RTVSPost2010PropOp29
 70
     1
102
RTVSPost2010Prop30
280
     1
102
RTVSPost2010PropOp30
 70
     1
102
RTVSPost2010Prop31
280
     0
102
RTVSPost2010PropOp31
 70
     1
102
RTVSPost2010Prop32
280
     0
102
RTVSPost2010PropOp32
 70
     1
102
RTVSPost2010Prop33
280
     0
102
RTVSPost2010PropOp33
 70
     1
102
RTVSPost2010Prop34
280
     0
102
RTVSPost2010PropOp34
 70
     1
102
RTVSPost2010Prop35
280
     0
102
RTVSPost2010PropOp35
 70
     1
102
RTVSPost2010Prop36
280
     0
102
RTVSPost2010PropOp36
 70
     1
102
RTVSPost2010Prop37
 90
       50
102
RTVSPost2010PropOp37
 70
     1
102
RTVSPost2010Prop38
140
0.0
102
RTVSPost2010PropOp38
 70
     1
102
RTVSPost2010Prop39
140
1.0
102
RTVSPost2010PropOp39
 70
     1
102
RTVSPost2010Prop40
 90
        0
102
RTVSPost2010PropOp40
 70
     1
102
RTVSPost2010Prop41ColorIndex
 90
       18
102
RTVSPost2010Prop41ColorRGB
 90
        0
102
RTVSPost2010PropOp41
 70
     1
102
RTVSPost2010Prop42
 90
       50
102
RTVSPost2010PropOp42
 70
     1
102
RTVSPost2010Prop43
 90
        3
102
RTVSPost2010PropOp43
 70
     1
102
RTVSPost2010Prop44ColorIndex
 90
        5
102
RTVSPost2010Prop44ColorRGB
 90
      255
102
RTVSPost2010PropOp44
 70
     1
102
RTVSPost2010Prop45
280
     0
102
RTVSPost2010PropOp45
 70
     1
102
RTVSPost2010Prop46
 90
       50
102
RTVSPost2010PropOp46
 70
     1
102
RTVSPost2010Prop47
 90
       50
102
RTVSPost2010PropOp47
 70
     1
102
RTVSPost2010Prop48
 90
       50
102
RTVSPost2010PropOp48
 70
     1
102
RTVSPost2010Prop49
280
     0
102
RTVSPost2010PropOp49
 70
     1
102
RTVSPost2010Prop50
 90
       50
102
RTVSPost2010PropOp50
 70
     1
102
RTVSPost2010Prop51ColorIndex
 90
      256
102
RTVSPost2010Prop51ColorRGB
 90
-16777216
102
RTVSPost2010PropOp51
 70
     0
102
RTVSPost2010Prop52
140
1.0
102
RTVSPost2010PropOp52
 70
     0
102
RTVSPost2010Prop53
 90
        2
102
RTVSPost2010PropOp53
 70
     1
102
RTVSPost2010Prop54
  1
strokes_ogs.tif
102
RTVSPost2010PropOp54
 70
     1
102
RTVSPost2010Prop55
280
     0
102
RTVSPost2010PropOp55
 70
     1
102
RTVSPost2010Prop56
140
1.0
102
RTVSPost2010PropOp56
 70
     1
102
RTVSPost2010Prop57
140
1.0
102
RTVSPost2010PropOp57
 70
     1
  0
XRECORD
  5
2AE
102
{ACAD_REACTORS
330
2AD
102
}
330
2AD
100
AcDbXrecord
280
     1
102
RTVSPost2010Prop28
280
     0
102
RTVSPost2010PropOp28
 70
     0
102
RTVSPost2010Prop29
280
     1
102
RTVSPost2010PropOp29
 70
     0
102
RTVSPost2010Prop30
280
     1
102
RTVSPost2010PropOp30
 70
     0
102
RTVSPost2010Prop31
280
     0
102
RTVSPost2010PropOp31
 70
     0
102
RTVSPost2010Prop32
280
     0
102
RTVSPost2010PropOp32
 70
     0
102
RTVSPost2010Prop33
280
     0
102
RTVSPost2010PropOp33
 70
     0
102
RTVSPost2010Prop34
280
     0
102
RTVSPost2010PropOp34
 70
     0
102
RTVSPost2010Prop35
280
     0
102
RTVSPost2010PropOp35
 70
     0
102
RTVSPost2010Prop36
280
     0
102
RTVSPost2010PropOp36
 70
     0
102
RTVSPost2010Prop37
 90
       50
102
RTVSPost2010PropOp37
 70
     0
102
RTVSPost2010Prop38
140
0.0
102
RTVSPost2010PropOp38
 70
     0
102
RTVSPost2010Prop39
140
1.0
102
RTVSPost2010PropOp39
 70
     0
102
RTVSPost2010Prop40
 90
        0
102
RTVSPost2010PropOp40
 70
     0
102
RTVSPost2010Prop41ColorIndex
 90
       18
102
RTVSPost2010Prop41ColorRGB
 90
        0
102
RTVSPost2010PropOp41
 70
     0
102
RTVSPost2010Prop42
 90
       50
102
RTVSPost2010PropOp42
 70
     0
102
RTVSPost2010Prop43
 90
        3
102
RTVSPost2010PropOp43
 70
     0
102
RTVSPost2010Prop44ColorIndex
 90
        5
102
RTVSPost2010Prop44ColorRGB
 90
      255
102
RTVSPost2010PropOp44
 70
     0
102
RTVSPost2010Prop45
280
     0
102
RTVSPost2010PropOp45
 70
     0
102
RTVSPost2010Prop46
 90
       50
102
RTVSPost2010PropOp46
 70
     0
102
RTVSPost2010Prop47
 90
       50
102
RTVSPost2010PropOp47
 70
     0
102
RTVSPost2010Prop48
 90
       50
102
RTVSPost2010PropOp48
 70
     0
102
RTVSPost2010Prop49
280
     0
102
RTVSPost2010PropOp49
 70
     0
102
RTVSPost2010Prop50
 90
       50
102
RTVSPost2010PropOp50
 70
     0
102
RTVSPost2010Prop51ColorIndex
 90
      256
102
RTVSPost2010Prop51ColorRGB
 90
-16777216
102
RTVSPost2010PropOp51
 70
     0
102
RTVSPost2010Prop52
140
1.0
102
RTVSPost2010PropOp52
 70
     0
102
RTVSPost2010Prop53
 90
        2
102
RTVSPost2010PropOp53
 70
     0
102
RTVSPost2010Prop54
  1
strokes_ogs.tif
102
RTVSPost2010PropOp54
 70
     0
102
RTVSPost2010Prop55
280
     0
102
RTVSPost2010PropOp55
 70
     0
102
RTVSPost2010Prop56
140
1.0
102
RTVSPost2010PropOp56
 70
     0
102
RTVSPost2010Prop57
140
1.0
102
RTVSPost2010PropOp57
 70
     0
  0
XRECORD
  5
29C
102
{ACAD_REACTORS
330
29B
102
}
330
29B
100
AcDbXrecord
280
     1
102
RTVSPost2010Prop28
280
     0
102
RTVSPost2010PropOp28
 70
     1
102
RTVSPost2010Prop29
280
     1
102
RTVSPost2010PropOp29
 70
     1
102
RTVSPost2010Prop30
280
     1
102
RTVSPost2010PropOp30
 70
     1
102
RTVSPost2010Prop31
280
     0
102
RTVSPost2010PropOp31
 70
     1
102
RTVSPost2010Prop32
280
     0
102
RTVSPost2010PropOp32
 70
     1
102
RTVSPost2010Prop33
280
     0
102
RTVSPost2010PropOp33
 70
     1
102
RTVSPost2010Prop34
280
     0
102
RTVSPost2010PropOp34
 70
     1
102
RTVSPost2010Prop35
280
     0
102
RTVSPost2010PropOp35
 70
     1
102
RTVSPost2010Prop36
280
     0
102
RTVSPost2010PropOp36
 70
     1
102
RTVSPost2010Prop37
 90
       50
102
RTVSPost2010PropOp37
 70
     1
102
RTVSPost2010Prop38
140
0.0
102
RTVSPost2010PropOp38
 70
     1
102
RTVSPost2010Prop39
140
1.0
102
RTVSPost2010PropOp39
 70
     1
102
RTVSPost2010Prop40
 90
        0
102
RTVSPost2010PropOp40
 70
     1
102
RTVSPost2010Prop41ColorIndex
 90
       18
102
RTVSPost2010Prop41ColorRGB
 90
        0
102
RTVSPost2010PropOp41
 70
     1
102
RTVSPost2010Prop42
 90
       50
102
RTVSPost2010PropOp42
 70
     1
102
RTVSPost2010Prop43
 90
        3
102
RTVSPost2010PropOp43
 70
     1
102
RTVSPost2010Prop44ColorIndex
 90
        5
102
RTVSPost2010Prop44ColorRGB
 90
      255
102
RTVSPost2010PropOp44
 70
     1
102
RTVSPost2010Prop45
280
     0
102
RTVSPost2010PropOp45
 70
     1
102
RTVSPost2010Prop46
 90
       50
102
RTVSPost2010PropOp46
 70
     1
102
RTVSPost2010Prop47
 90
       50
102
RTVSPost2010PropOp47
 70
     1
102
RTVSPost2010Prop48
 90
       50
102
RTVSPost2010PropOp48
 70
     1
102
RTVSPost2010Prop49
280
     0
102
RTVSPost2010PropOp49
 70
     1
102
RTVSPost2010Prop50
 90
       50
102
RTVSPost2010PropOp50
 70
     1
102
RTVSPost2010Prop51ColorIndex
 90
      256
102
RTVSPost2010Prop51ColorRGB
 90
-16777216
102
RTVSPost2010PropOp51
 70
     0
102
RTVSPost2010Prop52
140
1.0
102
RTVSPost2010PropOp52
 70
     0
102
RTVSPost2010Prop53
 90
        2
102
RTVSPost2010PropOp53
 70
     1
102
RTVSPost2010Prop54
  1
strokes_ogs.tif
102
RTVSPost2010PropOp54
 70
     1
102
RTVSPost2010Prop55
280
     0
102
RTVSPost2010PropOp55
 70
     1
102
RTVSPost2010Prop56
140
1.0
102
RTVSPost2010PropOp56
 70
     1
102
RTVSPost2010Prop57
140
1.0
102
RTVSPost2010PropOp57
 70
     1
  0
XRECORD
  5
2BA
102
{ACAD_REACTORS
330
2B9
102
}
330
2B9
100
AcDbXrecord
280
     1
102
RTVSPost2010Prop28
280
     0
102
RTVSPost2010PropOp28
 70
     1
102
RTVSPost2010Prop29
280
     1
102
RTVSPost2010PropOp29
 70
     1
102
RTVSPost2010Prop30
280
     1
102
RTVSPost2010PropOp30
 70
     1
102
RTVSPost2010Prop31
280
     0
102
RTVSPost2010PropOp31
 70
     1
102
RTVSPost2010Prop32
280
     0
102
RTVSPost2010PropOp32
 70
     1
102
RTVSPost2010Prop33
280
     0
102
RTVSPost2010PropOp33
 70
     1
102
RTVSPost2010Prop34
280
     0
102
RTVSPost2010PropOp34
 70
     1
102
RTVSPost2010Prop35
280
     0
102
RTVSPost2010PropOp35
 70
     1
102
RTVSPost2010Prop36
280
     0
102
RTVSPost2010PropOp36
 70
     1
102
RTVSPost2010Prop37
 90
       50
102
RTVSPost2010PropOp37
 70
     1
102
RTVSPost2010Prop38
140
0.0
102
RTVSPost2010PropOp38
 70
     1
102
RTVSPost2010Prop39
140
1.0
102
RTVSPost2010PropOp39
 70
     1
102
RTVSPost2010Prop40
 90
        0
102
RTVSPost2010PropOp40
 70
     1
102
RTVSPost2010Prop41ColorIndex
 90
       18
102
RTVSPost2010Prop41ColorRGB
 90
        0
102
RTVSPost2010PropOp41
 70
     1
102
RTVSPost2010Prop42
 90
       50
102
RTVSPost2010PropOp42
 70
     1
102
RTVSPost2010Prop43
 90
        3
102
RTVSPost2010PropOp43
 70
     1
102
RTVSPost2010Prop44ColorIndex
 90
        5
102
RTVSPost2010Prop44ColorRGB
 90
      255
102
RTVSPost2010PropOp44
 70
     1
102
RTVSPost2010Prop45
280
     0
102
RTVSPost2010PropOp45
 70
     1
102
RTVSPost2010Prop46
 90
       50
102
RTVSPost2010PropOp46
 70
     1
102
RTVSPost2010Prop47
 90
       50
102
RTVSPost2010PropOp47
 70
     1
102
RTVSPost2010Prop48
 90
       50
102
RTVSPost2010PropOp48
 70
     1
102
RTVSPost2010Prop49
280
     0
102
RTVSPost2010PropOp49
 70
     1
102
RTVSPost2010Prop50
 90
       50
102
RTVSPost2010PropOp50
 70
     1
102
RTVSPost2010Prop51ColorIndex
 90
      256
102
RTVSPost2010Prop51ColorRGB
 90
-16777216
102
RTVSPost2010PropOp51
 70
     0
102
RTVSPost2010Prop52
140
1.0
102
RTVSPost2010PropOp52
 70
     0
102
RTVSPost2010Prop53
 90
        2
102
RTVSPost2010PropOp53
 70
     1
102
RTVSPost2010Prop54
  1
strokes_ogs.tif
102
RTVSPost2010PropOp54
 70
     1
102
RTVSPost2010Prop55
280
     0
102
RTVSPost2010PropOp55
 70
     1
102
RTVSPost2010Prop56
140
1.0
102
RTVSPost2010PropOp56
 70
     1
102
RTVSPost2010Prop57
140
1.0
102
RTVSPost2010PropOp57
 70
     1
  0
XRECORD
  5
2B8
102
{ACAD_REACTORS
330
2B7
102
}
330
2B7
100
AcDbXrecord
280
     1
102
RTVSPost2010Prop28
280
     0
102
RTVSPost2010PropOp28
 70
     1
102
RTVSPost2010Prop29
280
     1
102
RTVSPost2010PropOp29
 70
     1
102
RTVSPost2010Prop30
280
     1
102
RTVSPost2010PropOp30
 70
     1
102
RTVSPost2010Prop31
280
     0
102
RTVSPost2010PropOp31
 70
     1
102
RTVSPost2010Prop32
280
     0
102
RTVSPost2010PropOp32
 70
     1
102
RTVSPost2010Prop33
280
     0
102
RTVSPost2010PropOp33
 70
     1
102
RTVSPost2010Prop34
280
     0
102
RTVSPost2010PropOp34
 70
     1
102
RTVSPost2010Prop35
280
     0
102
RTVSPost2010PropOp35
 70
     1
102
RTVSPost2010Prop36
280
     0
102
RTVSPost2010PropOp36
 70
     1
102
RTVSPost2010Prop37
 90
       50
102
RTVSPost2010PropOp37
 70
     1
102
RTVSPost2010Prop38
140
0.0
102
RTVSPost2010PropOp38
 70
     1
102
RTVSPost2010Prop39
140
1.0
102
RTVSPost2010PropOp39
 70
     1
102
RTVSPost2010Prop40
 90
        0
102
RTVSPost2010PropOp40
 70
     1
102
RTVSPost2010Prop41ColorIndex
 90
       18
102
RTVSPost2010Prop41ColorRGB
 90
        0
102
RTVSPost2010PropOp41
 70
     1
102
RTVSPost2010Prop42
 90
       50
102
RTVSPost2010PropOp42
 70
     1
102
RTVSPost2010Prop43
 90
        3
102
RTVSPost2010PropOp43
 70
     1
102
RTVSPost2010Prop44ColorIndex
 90
        5
102
RTVSPost2010Prop44ColorRGB
 90
      255
102
RTVSPost2010PropOp44
 70
     1
102
RTVSPost2010Prop45
280
     0
102
RTVSPost2010PropOp45
 70
     1
102
RTVSPost2010Prop46
 90
       50
102
RTVSPost2010PropOp46
 70
     1
102
RTVSPost2010Prop47
 90
       50
102
RTVSPost2010PropOp47
 70
     1
102
RTVSPost2010Prop48
 90
       50
102
RTVSPost2010PropOp48
 70
     1
102
RTVSPost2010Prop49
280
     0
102
RTVSPost2010PropOp49
 70
     1
102
RTVSPost2010Prop50
 90
       50
102
RTVSPost2010PropOp50
 70
     1
102
RTVSPost2010Prop51ColorIndex
 90
      256
102
RTVSPost2010Prop51ColorRGB
 90
-16777216
102
RTVSPost2010PropOp51
 70
     0
102
RTVSPost2010Prop52
140
1.0
102
RTVSPost2010PropOp52
 70
     0
102
RTVSPost2010Prop53
 90
        2
102
RTVSPost2010PropOp53
 70
     1
102
RTVSPost2010Prop54
  1
strokes_ogs.tif
102
RTVSPost2010PropOp54
 70
     1
102
RTVSPost2010Prop55
280
     0
102
RTVSPost2010PropOp55
 70
     1
102
RTVSPost2010Prop56
140
1.0
102
RTVSPost2010PropOp56
 70
     1
102
RTVSPost2010Prop57
140
1.0
102
RTVSPost2010PropOp57
 70
     1
  0
XRECORD
  5
2B2
102
{ACAD_REACTORS
330
2B1
102
}
330
2B1
100
AcDbXrecord
280
     1
102
RTVSPost2010Prop28
280
     0
102
RTVSPost2010PropOp28
 70
     1
102
RTVSPost2010Prop29
280
     1
102
RTVSPost2010PropOp29
 70
     1
102
RTVSPost2010Prop30
280
     1
102
RTVSPost2010PropOp30
 70
     1
102
RTVSPost2010Prop31
280
     0
102
RTVSPost2010PropOp31
 70
     1
102
RTVSPost2010Prop32
280
     0
102
RTVSPost2010PropOp32
 70
     1
102
RTVSPost2010Prop33
280
     0
102
RTVSPost2010PropOp33
 70
     1
102
RTVSPost2010Prop34
280
     0
102
RTVSPost2010PropOp34
 70
     1
102
RTVSPost2010Prop35
280
     0
102
RTVSPost2010PropOp35
 70
     1
102
RTVSPost2010Prop36
280
     0
102
RTVSPost2010PropOp36
 70
     1
102
RTVSPost2010Prop37
 90
       50
102
RTVSPost2010PropOp37
 70
     1
102
RTVSPost2010Prop38
140
0.0
102
RTVSPost2010PropOp38
 70
     1
102
RTVSPost2010Prop39
140
1.0
102
RTVSPost2010PropOp39
 70
     1
102
RTVSPost2010Prop40
 90
        0
102
RTVSPost2010PropOp40
 70
     1
102
RTVSPost2010Prop41ColorIndex
 90
       18
102
RTVSPost2010Prop41ColorRGB
 90
        0
102
RTVSPost2010PropOp41
 70
     1
102
RTVSPost2010Prop42
 90
       50
102
RTVSPost2010PropOp42
 70
     1
102
RTVSPost2010Prop43
 90
        3
102
RTVSPost2010PropOp43
 70
     1
102
RTVSPost2010Prop44ColorIndex
 90
        5
102
RTVSPost2010Prop44ColorRGB
 90
      255
102
RTVSPost2010PropOp44
 70
     1
102
RTVSPost2010Prop45
280
     0
102
RTVSPost2010PropOp45
 70
     1
102
RTVSPost2010Prop46
 90
       50
102
RTVSPost2010PropOp46
 70
     1
102
RTVSPost2010Prop47
 90
       50
102
RTVSPost2010PropOp47
 70
     1
102
RTVSPost2010Prop48
 90
       50
102
RTVSPost2010PropOp48
 70
     1
102
RTVSPost2010Prop49
280
     0
102
RTVSPost2010PropOp49
 70
     1
102
RTVSPost2010Prop50
 90
       50
102
RTVSPost2010PropOp50
 70
     1
102
RTVSPost2010Prop51ColorIndex
 90
      256
102
RTVSPost2010Prop51ColorRGB
 90
-16777216
102
RTVSPost2010PropOp51
 70
     0
102
RTVSPost2010Prop52
140
1.0
102
RTVSPost2010PropOp52
 70
     0
102
RTVSPost2010Prop53
 90
        2
102
RTVSPost2010PropOp53
 70
     1
102
RTVSPost2010Prop54
  1
strokes_ogs.tif
102
RTVSPost2010PropOp54
 70
     1
102
RTVSPost2010Prop55
280
     0
102
RTVSPost2010PropOp55
 70
     1
102
RTVSPost2010Prop56
140
1.0
102
RTVSPost2010PropOp56
 70
     1
102
RTVSPost2010Prop57
140
1.0
102
RTVSPost2010PropOp57
 70
     1
  0
XRECORD
  5
2B4
102
{ACAD_REACTORS
330
2B3
102
}
330
2B3
100
AcDbXrecord
280
     1
102
RTVSPost2010Prop28
280
     0
102
RTVSPost2010PropOp28
 70
     1
102
RTVSPost2010Prop29
280
     1
102
RTVSPost2010PropOp29
 70
     1
102
RTVSPost2010Prop30
280
     1
102
RTVSPost2010PropOp30
 70
     1
102
RTVSPost2010Prop31
280
     0
102
RTVSPost2010PropOp31
 70
     1
102
RTVSPost2010Prop32
280
     0
102
RTVSPost2010PropOp32
 70
     1
102
RTVSPost2010Prop33
280
     0
102
RTVSPost2010PropOp33
 70
     1
102
RTVSPost2010Prop34
280
     0
102
RTVSPost2010PropOp34
 70
     1
102
RTVSPost2010Prop35
280
     0
102
RTVSPost2010PropOp35
 70
     1
102
RTVSPost2010Prop36
280
     0
102
RTVSPost2010PropOp36
 70
     1
102
RTVSPost2010Prop37
 90
       50
102
RTVSPost2010PropOp37
 70
     1
102
RTVSPost2010Prop38
140
0.0
102
RTVSPost2010PropOp38
 70
     1
102
RTVSPost2010Prop39
140
1.0
102
RTVSPost2010PropOp39
 70
     1
102
RTVSPost2010Prop40
 90
        0
102
RTVSPost2010PropOp40
 70
     1
102
RTVSPost2010Prop41ColorIndex
 90
       18
102
RTVSPost2010Prop41ColorRGB
 90
        0
102
RTVSPost2010PropOp41
 70
     1
102
RTVSPost2010Prop42
 90
       50
102
RTVSPost2010PropOp42
 70
     1
102
RTVSPost2010Prop43
 90
        3
102
RTVSPost2010PropOp43
 70
     1
102
RTVSPost2010Prop44ColorIndex
 90
        5
102
RTVSPost2010Prop44ColorRGB
 90
      255
102
RTVSPost2010PropOp44
 70
     1
102
RTVSPost2010Prop45
280
     0
102
RTVSPost2010PropOp45
 70
     1
102
RTVSPost2010Prop46
 90
       50
102
RTVSPost2010PropOp46
 70
     1
102
RTVSPost2010Prop47
 90
       50
102
RTVSPost2010PropOp47
 70
     1
102
RTVSPost2010Prop48
 90
       50
102
RTVSPost2010PropOp48
 70
     1
102
RTVSPost2010Prop49
280
     0
102
RTVSPost2010PropOp49
 70
     1
102
RTVSPost2010Prop50
 90
       50
102
RTVSPost2010PropOp50
 70
     1
102
RTVSPost2010Prop51ColorIndex
 90
      256
102
RTVSPost2010Prop51ColorRGB
 90
-16777216
102
RTVSPost2010PropOp51
 70
     0
102
RTVSPost2010Prop52
140
1.0
102
RTVSPost2010PropOp52
 70
     0
102
RTVSPost2010Prop53
 90
        2
102
RTVSPost2010PropOp53
 70
     1
102
RTVSPost2010Prop54
  1
strokes_ogs.tif
102
RTVSPost2010PropOp54
 70
     1
102
RTVSPost2010Prop55
280
     0
102
RTVSPost2010PropOp55
 70
     1
102
RTVSPost2010Prop56
140
1.0
102
RTVSPost2010PropOp56
 70
     1
102
RTVSPost2010Prop57
140
1.0
102
RTVSPost2010PropOp57
 70
     1
  0
XRECORD
  5
2A4
102
{ACAD_REACTORS
330
2A3
102
}
330
2A3
100
AcDbXrecord
280
     1
102
RTVSPost2010Prop28
280
     0
102
RTVSPost2010PropOp28
 70
     1
102
RTVSPost2010Prop29
280
     1
102
RTVSPost2010PropOp29
 70
     1
102
RTVSPost2010Prop30
280
     1
102
RTVSPost2010PropOp30
 70
     1
102
RTVSPost2010Prop31
280
     0
102
RTVSPost2010PropOp31
 70
     1
102
RTVSPost2010Prop32
280
     0
102
RTVSPost2010PropOp32
 70
     1
102
RTVSPost2010Prop33
280
     0
102
RTVSPost2010PropOp33
 70
     1
102
RTVSPost2010Prop34
280
     0
102
RTVSPost2010PropOp34
 70
     1
102
RTVSPost2010Prop35
280
     0
102
RTVSPost2010PropOp35
 70
     1
102
RTVSPost2010Prop36
280
     0
102
RTVSPost2010PropOp36
 70
     1
102
RTVSPost2010Prop37
 90
       50
102
RTVSPost2010PropOp37
 70
     1
102
RTVSPost2010Prop38
140
0.0
102
RTVSPost2010PropOp38
 70
     1
102
RTVSPost2010Prop39
140
1.0
102
RTVSPost2010PropOp39
 70
     1
102
RTVSPost2010Prop40
 90
        0
102
RTVSPost2010PropOp40
 70
     1
102
RTVSPost2010Prop41ColorIndex
 90
       18
102
RTVSPost2010Prop41ColorRGB
 90
        0
102
RTVSPost2010PropOp41
 70
     1
102
RTVSPost2010Prop42
 90
       50
102
RTVSPost2010PropOp42
 70
     1
102
RTVSPost2010Prop43
 90
        3
102
RTVSPost2010PropOp43
 70
     1
102
RTVSPost2010Prop44ColorIndex
 90
        5
102
RTVSPost2010Prop44ColorRGB
 90
      255
102
RTVSPost2010PropOp44
 70
     1
102
RTVSPost2010Prop45
280
     0
102
RTVSPost2010PropOp45
 70
     1
102
RTVSPost2010Prop46
 90
       50
102
RTVSPost2010PropOp46
 70
     1
102
RTVSPost2010Prop47
 90
       50
102
RTVSPost2010PropOp47
 70
     1
102
RTVSPost2010Prop48
 90
       50
102
RTVSPost2010PropOp48
 70
     1
102
RTVSPost2010Prop49
280
     0
102
RTVSPost2010PropOp49
 70
     1
102
RTVSPost2010Prop50
 90
       50
102
RTVSPost2010PropOp50
 70
     1
102
RTVSPost2010Prop51ColorIndex
 90
      256
102
RTVSPost2010Prop51ColorRGB
 90
-16777216
102
RTVSPost2010PropOp51
 70
     0
102
RTVSPost2010Prop52
140
1.0
102
RTVSPost2010PropOp52
 70
     0
102
RTVSPost2010Prop53
 90
        2
102
RTVSPost2010PropOp53
 70
     1
102
RTVSPost2010Prop54
  1
strokes_ogs.tif
102
RTVSPost2010PropOp54
 70
     1
102
RTVSPost2010Prop55
280
     0
102
RTVSPost2010PropOp55
 70
     1
102
RTVSPost2010Prop56
140
1.0
102
RTVSPost2010PropOp56
 70
     1
102
RTVSPost2010Prop57
140
1.0
102
RTVSPost2010PropOp57
 70
     1
  0
XRECORD
  5
296
102
{ACAD_REACTORS
330
295
102
}
330
295
100
AcDbXrecord
280
     1
102
RTVSPost2010Prop28
280
     0
102
RTVSPost2010PropOp28
 70
     1
102
RTVSPost2010Prop29
280
     1
102
RTVSPost2010PropOp29
 70
     1
102
RTVSPost2010Prop30
280
     1
102
RTVSPost2010PropOp30
 70
     1
102
RTVSPost2010Prop31
280
     0
102
RTVSPost2010PropOp31
 70
     1
102
RTVSPost2010Prop32
280
     0
102
RTVSPost2010PropOp32
 70
     1
102
RTVSPost2010Prop33
280
     0
102
RTVSPost2010PropOp33
 70
     1
102
RTVSPost2010Prop34
280
     0
102
RTVSPost2010PropOp34
 70
     1
102
RTVSPost2010Prop35
280
     0
102
RTVSPost2010PropOp35
 70
     1
102
RTVSPost2010Prop36
280
     0
102
RTVSPost2010PropOp36
 70
     1
102
RTVSPost2010Prop37
 90
       50
102
RTVSPost2010PropOp37
 70
     1
102
RTVSPost2010Prop38
140
0.0
102
RTVSPost2010PropOp38
 70
     1
102
RTVSPost2010Prop39
140
1.0
102
RTVSPost2010PropOp39
 70
     1
102
RTVSPost2010Prop40
 90
        0
102
RTVSPost2010PropOp40
 70
     1
102
RTVSPost2010Prop41ColorIndex
 90
       18
102
RTVSPost2010Prop41ColorRGB
 90
        0
102
RTVSPost2010PropOp41
 70
     1
102
RTVSPost2010Prop42
 90
       50
102
RTVSPost2010PropOp42
 70
     1
102
RTVSPost2010Prop43
 90
        3
102
RTVSPost2010PropOp43
 70
     1
102
RTVSPost2010Prop44ColorIndex
 90
        5
102
RTVSPost2010Prop44ColorRGB
 90
      255
102
RTVSPost2010PropOp44
 70
     1
102
RTVSPost2010Prop45
280
     0
102
RTVSPost2010PropOp45
 70
     1
102
RTVSPost2010Prop46
 90
       50
102
RTVSPost2010PropOp46
 70
     1
102
RTVSPost2010Prop47
 90
       50
102
RTVSPost2010PropOp47
 70
     1
102
RTVSPost2010Prop48
 90
       50
102
RTVSPost2010PropOp48
 70
     1
102
RTVSPost2010Prop49
280
     0
102
RTVSPost2010PropOp49
 70
     1
102
RTVSPost2010Prop50
 90
       50
102
RTVSPost2010PropOp50
 70
     1
102
RTVSPost2010Prop51ColorIndex
 90
      256
102
RTVSPost2010Prop51ColorRGB
 90
-16777216
102
RTVSPost2010PropOp51
 70
     0
102
RTVSPost2010Prop52
140
1.0
102
RTVSPost2010PropOp52
 70
     0
102
RTVSPost2010Prop53
 90
        2
102
RTVSPost2010PropOp53
 70
     1
102
RTVSPost2010Prop54
  1
strokes_ogs.tif
102
RTVSPost2010PropOp54
 70
     1
102
RTVSPost2010Prop55
280
     0
102
RTVSPost2010PropOp55
 70
     1
102
RTVSPost2010Prop56
140
1.0
102
RTVSPost2010PropOp56
 70
     1
102
RTVSPost2010Prop57
140
1.0
102
RTVSPost2010PropOp57
 70
     1
  0
XRECORD
  5
2B6
102
{ACAD_REACTORS
330
2B5
102
}
330
2B5
100
AcDbXrecord
280
     1
102
RTVSPost2010Prop28
280
     0
102
RTVSPost2010PropOp28
 70
     1
102
RTVSPost2010Prop29
280
     1
102
RTVSPost2010PropOp29
 70
     1
102
RTVSPost2010Prop30
280
     1
102
RTVSPost2010PropOp30
 70
     1
102
RTVSPost2010Prop31
280
     0
102
RTVSPost2010PropOp31
 70
     1
102
RTVSPost2010Prop32
280
     0
102
RTVSPost2010PropOp32
 70
     1
102
RTVSPost2010Prop33
280
     0
102
RTVSPost2010PropOp33
 70
     1
102
RTVSPost2010Prop34
280
     0
102
RTVSPost2010PropOp34
 70
     1
102
RTVSPost2010Prop35
280
     0
102
RTVSPost2010PropOp35
 70
     1
102
RTVSPost2010Prop36
280
     0
102
RTVSPost2010PropOp36
 70
     1
102
RTVSPost2010Prop37
 90
       50
102
RTVSPost2010PropOp37
 70
     1
102
RTVSPost2010Prop38
140
0.0
102
RTVSPost2010PropOp38
 70
     1
102
RTVSPost2010Prop39
140
1.0
102
RTVSPost2010PropOp39
 70
     1
102
RTVSPost2010Prop40
 90
        0
102
RTVSPost2010PropOp40
 70
     1
102
RTVSPost2010Prop41ColorIndex
 90
       18
102
RTVSPost2010Prop41ColorRGB
 90
        0
102
RTVSPost2010PropOp41
 70
     1
102
RTVSPost2010Prop42
 90
       50
102
RTVSPost2010PropOp42
 70
     1
102
RTVSPost2010Prop43
 90
        3
102
RTVSPost2010PropOp43
 70
     1
102
RTVSPost2010Prop44ColorIndex
 90
        5
102
RTVSPost2010Prop44ColorRGB
 90
      255
102
RTVSPost2010PropOp44
 70
     1
102
RTVSPost2010Prop45
280
     0
102
RTVSPost2010PropOp45
 70
     1
102
RTVSPost2010Prop46
 90
       50
102
RTVSPost2010PropOp46
 70
     1
102
RTVSPost2010Prop47
 90
       50
102
RTVSPost2010PropOp47
 70
     1
102
RTVSPost2010Prop48
 90
       50
102
RTVSPost2010PropOp48
 70
     1
102
RTVSPost2010Prop49
280
     0
102
RTVSPost2010PropOp49
 70
     1
102
RTVSPost2010Prop50
 90
       50
102
RTVSPost2010PropOp50
 70
     1
102
RTVSPost2010Prop51ColorIndex
 90
      256
102
RTVSPost2010Prop51ColorRGB
 90
-16777216
102
RTVSPost2010PropOp51
 70
     0
102
RTVSPost2010Prop52
140
1.0
102
RTVSPost2010PropOp52
 70
     0
102
RTVSPost2010Prop53
 90
        2
102
RTVSPost2010PropOp53
 70
     1
102
RTVSPost2010Prop54
  1
strokes_ogs.tif
102
RTVSPost2010PropOp54
 70
     1
102
RTVSPost2010Prop55
280
     0
102
RTVSPost2010PropOp55
 70
     1
102
RTVSPost2010Prop56
140
1.0
102
RTVSPost2010PropOp56
 70
     1
102
RTVSPost2010Prop57
140
1.0
102
RTVSPost2010PropOp57
 70
     1
  0
ENDSEC
  0
EOF
